  0
SECTION
  2
HEADER
  9
$ACADVER
  1
AC1024
  9
$ACADMAINTVER
 70
     6
  9
$DWGCODEPAGE
  3
UNDEFINED
  9
$INSBASE
 10
0.0
 20
0.0
 30
0.0
  9
$EXTMIN
 10
1.000000000000000E+20
 20
1.000000000000000E+20
 30
1.000000000000000E+20
  9
$EXTMAX
 10
-1.000000000000000E+20
 20
-1.000000000000000E+20
 30
-1.000000000000000E+20
  9
$LIMMIN
 10
0.0
 20
0.0
  9
$LIMMAX
 10
12.0
 20
9.0
  9
$ORTHOMODE
 70
     0
  9
$REGENMODE
 70
     1
  9
$FILLMODE
 70
     1
  9
$QTEXTMODE
 70
     0
  9
$MIRRTEXT
 70
     1
  9
$LTSCALE
 40
1.0
  9
$ATTMODE
 70
     1
  9
$TEXTSIZE
 40
0.2
  9
$TRACEWID
 40
0.05
  9
$TEXTSTYLE
  7
Standard
  9
$CLAYER
  8
0
  9
$CELTYPE
  6
ByLayer
  9
$CECOLOR
 62
   256
  9
$CELTSCALE
 40
1.0
  9
$DISPSILH
 70
     0
  9
$DIMSCALE
 40
1.0
  9
$DIMASZ
 40
0.18
  9
$DIMEXO
 40
0.0625
  9
$DIMDLI
 40
0.38
  9
$DIMRND
 40
0.0
  9
$DIMDLE
 40
0.0
  9
$DIMEXE
 40
0.18
  9
$DIMTP
 40
0.0
  9
$DIMTM
 40
0.0
  9
$DIMTXT
 40
0.18
  9
$DIMCEN
 40
0.09
  9
$DIMTSZ
 40
0.0
  9
$DIMTOL
 70
     0
  9
$DIMLIM
 70
     0
  9
$DIMTIH
 70
     1
  9
$DIMTOH
 70
     1
  9
$DIMSE1
 70
     0
  9
$DIMSE2
 70
     0
  9
$DIMTAD
 70
     0
  9
$DIMZIN
 70
     0
  9
$DIMBLK
  1

  9
$DIMASO
 70
     1
  9
$DIMSHO
 70
     1
  9
$DIMPOST
  1

  9
$DIMAPOST
  1

  9
$DIMALT
 70
     0
  9
$DIMALTD
 70
     2
  9
$DIMALTF
 40
25.4
  9
$DIMLFAC
 40
1.0
  9
$DIMTOFL
 70
     0
  9
$DIMTVP
 40
0.0
  9
$DIMTIX
 70
     0
  9
$DIMSOXD
 70
     0
  9
$DIMSAH
 70
     0
  9
$DIMBLK1
  1

  9
$DIMBLK2
  1

  9
$DIMSTYLE
  2
Standard
  9
$DIMCLRD
 70
     0
  9
$DIMCLRE
 70
     0
  9
$DIMCLRT
 70
     0
  9
$DIMTFAC
 40
1.0
  9
$DIMGAP
 40
0.09
  9
$DIMJUST
 70
     0
  9
$DIMSD1
 70
     0
  9
$DIMSD2
 70
     0
  9
$DIMTOLJ
 70
     1
  9
$DIMTZIN
 70
     0
  9
$DIMALTZ
 70
     0
  9
$DIMALTTZ
 70
     0
  9
$DIMUPT
 70
     0
  9
$DIMDEC
 70
     4
  9
$DIMTDEC
 70
     4
  9
$DIMALTU
 70
     2
  9
$DIMALTTD
 70
     2
  9
$DIMTXSTY
  7
Standard
  9
$DIMAUNIT
 70
     0
  9
$DIMADEC
 70
     0
  9
$DIMALTRND
 40
0.0
  9
$DIMAZIN
 70
     0
  9
$DIMDSEP
 70
    46
  9
$DIMATFIT
 70
     3
  9
$DIMFRAC
 70
     0
  9
$DIMLDRBLK
  1

  9
$DIMLUNIT
 70
     2
  9
$DIMLWD
 70
    -2
  9
$DIMLWE
 70
    -2
  9
$DIMTMOVE
 70
     0
  9
$DIMFXL
 40
1.0
  9
$DIMFXLON
 70
     0
  9
$DIMJOGANG
 40
0.7853981633974483
  9
$DIMTFILL
 70
     0
  9
$DIMTFILLCLR
 70
     0
  9
$DIMARCSYM
 70
     0
  9
$DIMLTYPE
  6

  9
$DIMLTEX1
  6

  9
$DIMLTEX2
  6

  9
$DIMTXTDIRECTION
 70
     0
  9
$LUNITS
 70
     2
  9
$LUPREC
 70
     4
  9
$SKETCHINC
 40
0.1
  9
$FILLETRAD
 40
0.5
  9
$AUNITS
 70
     0
  9
$AUPREC
 70
     0
  9
$MENU
  1
.
  9
$ELEVATION
 40
0.0
  9
$PELEVATION
 40
0.0
  9
$THICKNESS
 40
0.0
  9
$LIMCHECK
 70
     0
  9
$CHAMFERA
 40
0.5
  9
$CHAMFERB
 40
0.5
  9
$CHAMFERC
 40
1.0
  9
$CHAMFERD
 40
0.0
  9
$SKPOLY
 70
     0
  9
$TDCREATE
 40
2457917.645208322
  9
$TDUCREATE
 40
2457917.270208333
  9
$TDUPDATE
 40
2457917.645208322
  9
$TDUUPDATE
 40
2457917.270208333
  9
$TDINDWG
 40
0.0000000116
  9
$TDUSRTIMER
 40
0.0000000116
  9
$USRTIMER
 70
     1
  9
$ANGBASE
 50
0.0
  9
$ANGDIR
 70
     0
  9
$PDMODE
 70
     0
  9
$PDSIZE
 40
0.0
  9
$PLINEWID
 40
0.0
  9
$SPLFRAME
 70
     0
  9
$SPLINETYPE
 70
     6
  9
$SPLINESEGS
 70
     8
  9
$HANDSEED
  5
1BF
  9
$SURFTAB1
 70
     6
  9
$SURFTAB2
 70
     6
  9
$SURFTYPE
 70
     6
  9
$SURFU
 70
     6
  9
$SURFV
 70
     6
  9
$UCSBASE
  2

  9
$UCSNAME
  2

  9
$UCSORG
 10
0.0
 20
0.0
 30
0.0
  9
$UCSXDIR
 10
1.0
 20
0.0
 30
0.0
  9
$UCSYDIR
 10
0.0
 20
1.0
 30
0.0
  9
$UCSORTHOREF
  2

  9
$UCSORTHOVIEW
 70
     0
  9
$UCSORGTOP
 10
0.0
 20
0.0
 30
0.0
  9
$UCSORGBOTTOM
 10
0.0
 20
0.0
 30
0.0
  9
$UCSORGLEFT
 10
0.0
 20
0.0
 30
0.0
  9
$UCSORGRIGHT
 10
0.0
 20
0.0
 30
0.0
  9
$UCSORGFRONT
 10
0.0
 20
0.0
 30
0.0
  9
$UCSORGBACK
 10
0.0
 20
0.0
 30
0.0
  9
$PUCSBASE
  2

  9
$PUCSNAME
  2

  9
$PUCSORG
 10
0.0
 20
0.0
 30
0.0
  9
$PUCSXDIR
 10
1.0
 20
0.0
 30
0.0
  9
$PUCSYDIR
 10
0.0
 20
1.0
 30
0.0
  9
$PUCSORTHOREF
  2

  9
$PUCSORTHOVIEW
 70
     0
  9
$PUCSORGTOP
 10
0.0
 20
0.0
 30
0.0
  9
$PUCSORGBOTTOM
 10
0.0
 20
0.0
 30
0.0
  9
$PUCSORGLEFT
 10
0.0
 20
0.0
 30
0.0
  9
$PUCSORGRIGHT
 10
0.0
 20
0.0
 30
0.0
  9
$PUCSORGFRONT
 10
0.0
 20
0.0
 30
0.0
  9
$PUCSORGBACK
 10
0.0
 20
0.0
 30
0.0
  9
$USERI1
 70
     0
  9
$USERI2
 70
     0
  9
$USERI3
 70
     0
  9
$USERI4
 70
     0
  9
$USERI5
 70
     0
  9
$USERR1
 40
0.0
  9
$USERR2
 40
0.0
  9
$USERR3
 40
0.0
  9
$USERR4
 40
0.0
  9
$USERR5
 40
0.0
  9
$WORLDVIEW
 70
     1
  9
$SHADEDGE
 70
     3
  9
$SHADEDIF
 70
    70
  9
$TILEMODE
 70
     1
  9
$MAXACTVP
 70
    64
  9
$PINSBASE
 10
0.0
 20
0.0
 30
0.0
  9
$PLIMCHECK
 70
     0
  9
$PEXTMIN
 10
1.000000000000000E+20
 20
1.000000000000000E+20
 30
1.000000000000000E+20
  9
$PEXTMAX
 10
-1.000000000000000E+20
 20
-1.000000000000000E+20
 30
-1.000000000000000E+20
  9
$PLIMMIN
 10
0.0
 20
0.0
  9
$PLIMMAX
 10
12.0
 20
9.0
  9
$UNITMODE
 70
     0
  9
$VISRETAIN
 70
     1
  9
$PLINEGEN
 70
     0
  9
$PSLTSCALE
 70
     1
  9
$TREEDEPTH
 70
  3020
  9
$CMLSTYLE
  2
Standard
  9
$CMLJUST
 70
     0
  9
$CMLSCALE
 40
1.0
  9
$PROXYGRAPHICS
 70
     1
  9
$MEASUREMENT
 70
     0
  9
$CELWEIGHT
370
    -1
  9
$ENDCAPS
280
     0
  9
$JOINSTYLE
280
     0
  9
$LWDISPLAY
290
     1
  9
$INSUNITS
 70
     1
  9
$HYPERLINKBASE
  1

  9
$STYLESHEET
  1

  9
$XEDIT
290
     1
  9
$CEPSNTYPE
380
     0
  9
$PSTYLEMODE
290
     1
  9
$FINGERPRINTGUID
  2
{461934A1-0EF5-3B4C-14CF-4B235719E2E0}
  9
$VERSIONGUID
  2
{FAEB1C32-E019-11D5-929B-00C0DF256EC4}
  9
$EXTNAMES
290
     1
  9
$PSVPSCALE
 40
0.0
  9
$OLESTARTUP
290
     0
  9
$SORTENTS
280
   127
  9
$INDEXCTL
280
     0
  9
$HIDETEXT
280
     1
  9
$XCLIPFRAME
280
     2
  9
$HALOGAP
280
     0
  9
$OBSCOLOR
 70
   257
  9
$OBSLTYPE
280
     0
  9
$INTERSECTIONDISPLAY
280
     0
  9
$INTERSECTIONCOLOR
 70
   257
  9
$DIMASSOC
280
     2
  9
$PROJECTNAME
  1

  9
$CAMERADISPLAY
290
     0
  9
$LENSLENGTH
 40
50.0
  9
$CAMERAHEIGHT
 40
0.0
  9
$STEPSPERSEC
 40
2.0
  9
$STEPSIZE
 40
6.0
  9
$3DDWFPREC
 40
2.0
  9
$PSOLWIDTH
 40
0.25
  9
$PSOLHEIGHT
 40
4.0
  9
$LOFTANG1
 40
1.570796326794897
  9
$LOFTANG2
 40
1.570796326794897
  9
$LOFTMAG1
 40
0.0
  9
$LOFTMAG2
 40
0.0
  9
$LOFTPARAM
 70
     7
  9
$LOFTNORMALS
280
     1
  9
$LATITUDE
 40
37.795
  9
$LONGITUDE
 40
-122.394
  9
$NORTHDIRECTION
 40
0.0
  9
$TIMEZONE
 70
 -8000
  9
$LIGHTGLYPHDISPLAY
280
     1
  9
$TILEMODELIGHTSYNCH
280
     1
  9
$CMATERIAL
347
3C
  9
$SOLIDHIST
280
     1
  9
$SHOWHIST
280
     1
  9
$DWFFRAME
280
     2
  9
$DGNFRAME
280
     2
  9
$REALWORLDSCALE
290
     1
  9
$INTERFERECOLOR
 62
   256
  9
$CSHADOW
280
     0
  9
$SHADOWPLANELOCATION
 40
0.0
  0
ENDSEC
  0
SECTION
  2
CLASSES
  0
CLASS
  1
ACDBDICTIONARYWDFLT
  2
AcDbDictionaryWithDefault
  3
ObjectDBX Classes
 90
        0
 91
        4
280
     0
281
     0
  0
CLASS
  1
VISUALSTYLE
  2
AcDbVisualStyle
  3
ObjectDBX Classes
 90
     4095
 91
        4
280
     0
281
     0
  0
CLASS
  1
MATERIAL
  2
AcDbMaterial
  3
ObjectDBX Classes
 90
     1153
 91
        4
280
     0
281
     0
  0
CLASS
  1
SUN
  2
AcDbSun
  3
SCENEOE
 90
     1024
 91
        4
280
     0
281
     0
  0
ENDSEC
  0
SECTION
  2
TABLES
  0
TABLE
  2
VPORT
  5
8
330
0
100
AcDbSymbolTable
 70
     1
  0
VPORT
  5
29
330
8
100
AcDbSymbolTableRecord
100
AcDbViewportTableRecord
  2
*Active
 70
     0
 10
0.0
 20
0.0
 11
1.0
 21
1.0
 12
0.0
 22
0.0
 13
0.0
 23
0.0
 14
0.5
 24
0.5
 15
0.5
 25
0.5
 16
0.0
 26
0.0
 36
1.0
 17
91.00082462281999
 27
-128.4993055234307
 37
0.0
 40
256.9986110468615
 41
0.7081814508812795
 42
50.0
 43
0.0
 44
0.0
 50
0.0
 51
0.0
 71
     0
 72
   100
 73
     1
 74
     3
 75
     0
 76
     0
 77
     0
 78
     0
281
     0
 65
     1
110
0.0
120
0.0
130
0.0
111
1.0
121
0.0
131
0.0
112
0.0
122
1.0
132
0.0
 79
     0
146
0.0
 60
     3
 61
     5
292
     1
282
     1
141
0.0
142
0.0
 63
   250
361
3F
  0
ENDTAB
  0
TABLE
  2
LTYPE
  5
5
330
0
100
AcDbSymbolTable
 70
     2
  0
LTYPE
  5
14
330
5
100
AcDbSymbolTableRecord
100
AcDbLinetypeTableRecord
  2
ByBlock
 70
     0
  3

 72
    65
 73
     0
 40
0.0
  0
LTYPE
  5
15
330
5
100
AcDbSymbolTableRecord
100
AcDbLinetypeTableRecord
  2
ByLayer
 70
     0
  3

 72
    65
 73
     0
 40
0.0
  0
LTYPE
  5
16
330
5
100
AcDbSymbolTableRecord
100
AcDbLinetypeTableRecord
  2
Continuous
 70
     0
  3
Solid line
 72
    65
 73
     0
 40
0.0
  0
LTYPE
  5
4C
330
5
100
AcDbSymbolTableRecord
100
AcDbLinetypeTableRecord
  2
AI-Linetype-1
 70
     0
  3
Adobe Illustrator Linetype No. 1
 72
    65
 73
     4
 40
2.1166666661375
 49
1.05833333306875
 74
     0
 49
-0.3527777776895833
 74
     0
 49
0.3527777776895833
 74
     0
 49
-0.3527777776895833
 74
     0
  0
ENDTAB
  0
TABLE
  2
LAYER
  5
2
330
0
100
AcDbSymbolTable
 70
     2
  0
LAYER
  5
10
330
2
100
AcDbSymbolTableRecord
100
AcDbLayerTableRecord
  2
0
 70
     0
 62
     7
  6
Continuous
370
    -3
390
F
347
3E
  0
LAYER
  5
40
330
2
100
AcDbSymbolTableRecord
100
AcDbLayerTableRecord
  2
_U+30EC_U+30A4_U+30E4_U+30FC 1
 70
     0
 62
     7
  6
Continuous
370
    -3
390
F
347
3E
  0
ENDTAB
  0
TABLE
  2
STYLE
  5
3
330
0
100
AcDbSymbolTable
 70
     1
  0
STYLE
  5
11
330
3
100
AcDbSymbolTableRecord
100
AcDbTextStyleTableRecord
  2
Standard
 70
     0
 40
0.0
 41
1.0
 50
0.0
 71
     0
 42
0.2
  3
txt
  4

  0
ENDTAB
  0
TABLE
  2
VIEW
  5
6
330
0
100
AcDbSymbolTable
 70
     0
  0
ENDTAB
  0
TABLE
  2
UCS
  5
7
330
0
100
AcDbSymbolTable
 70
     0
  0
ENDTAB
  0
TABLE
  2
APPID
  5
9
330
0
100
AcDbSymbolTable
 70
     1
  0
APPID
  5
12
330
9
100
AcDbSymbolTableRecord
100
AcDbRegAppTableRecord
  2
ACAD
 70
     0
  0
ENDTAB
  0
TABLE
  2
DIMSTYLE
  5
A
330
0
100
AcDbSymbolTable
 70
     1
100
AcDbDimStyleTable
  0
DIMSTYLE
105
27
330
A
100
AcDbSymbolTableRecord
100
AcDbDimStyleTableRecord
  2
Standard
 70
     0
178
     0
340
11
  0
ENDTAB
  0
TABLE
  2
BLOCK_RECORD
  5
1
330
0
100
AcDbSymbolTable
 70
    13
  0
BLOCK_RECORD
  5
1F
330
1
100
AcDbSymbolTableRecord
100
AcDbBlockTableRecord
  2
*Model_Space
340
22
 70
     0
280
     1
281
     0
  0
BLOCK_RECORD
  5
1B
330
1
100
AcDbSymbolTableRecord
100
AcDbBlockTableRecord
  2
*Paper_Space
340
1E
 70
     0
280
     1
281
     0
  0
BLOCK_RECORD
  5
23
330
1
100
AcDbSymbolTableRecord
100
AcDbBlockTableRecord
  2
*Paper_Space0
340
26
 70
     0
280
     1
281
     0
  0
BLOCK_RECORD
  5
76
330
1
100
AcDbSymbolTableRecord
100
AcDbBlockTableRecord
  2
block 2
340
0
102
{BLKREFS
331
77
102
}
 70
     0
280
     1
281
     0
  0
BLOCK_RECORD
  5
88
330
1
100
AcDbSymbolTableRecord
100
AcDbBlockTableRecord
  2
block 3
340
0
102
{BLKREFS
331
89
102
}
 70
     0
280
     1
281
     0
  0
BLOCK_RECORD
  5
98
330
1
100
AcDbSymbolTableRecord
100
AcDbBlockTableRecord
  2
block 4
340
0
102
{BLKREFS
331
99
102
}
 70
     0
280
     1
281
     0
  0
BLOCK_RECORD
  5
BB
330
1
100
AcDbSymbolTableRecord
100
AcDbBlockTableRecord
  2
block 5
340
0
102
{BLKREFS
331
BC
102
}
 70
     0
280
     1
281
     0
  0
BLOCK_RECORD
  5
DC
330
1
100
AcDbSymbolTableRecord
100
AcDbBlockTableRecord
  2
block 6
340
0
102
{BLKREFS
331
DD
102
}
 70
     0
280
     1
281
     0
  0
BLOCK_RECORD
  5
EC
330
1
100
AcDbSymbolTableRecord
100
AcDbBlockTableRecord
  2
block 7
340
0
102
{BLKREFS
331
ED
102
}
 70
     0
280
     1
281
     0
  0
BLOCK_RECORD
  5
F2
330
1
100
AcDbSymbolTableRecord
100
AcDbBlockTableRecord
  2
block 8
340
0
102
{BLKREFS
331
F3
102
}
 70
     0
280
     1
281
     0
  0
BLOCK_RECORD
  5
11C
330
1
100
AcDbSymbolTableRecord
100
AcDbBlockTableRecord
  2
block 9
340
0
102
{BLKREFS
331
11D
102
}
 70
     0
280
     1
281
     0
  0
BLOCK_RECORD
  5
12C
330
1
100
AcDbSymbolTableRecord
100
AcDbBlockTableRecord
  2
block 10
340
0
102
{BLKREFS
331
12D
102
}
 70
     0
280
     1
281
     0
  0
BLOCK_RECORD
  5
152
330
1
100
AcDbSymbolTableRecord
100
AcDbBlockTableRecord
  2
block 11
340
0
102
{BLKREFS
331
153
102
}
 70
     0
280
     1
281
     0
  0
BLOCK_RECORD
  5
15A
330
1
100
AcDbSymbolTableRecord
100
AcDbBlockTableRecord
  2
block 12
340
0
102
{BLKREFS
331
15B
102
}
 70
     0
280
     1
281
     0
  0
BLOCK_RECORD
  5
181
330
1
100
AcDbSymbolTableRecord
100
AcDbBlockTableRecord
  2
block 13
340
0
102
{BLKREFS
331
182
102
}
 70
     0
280
     1
281
     0
  0
ENDTAB
  0
ENDSEC
  0
SECTION
  2
BLOCKS
  0
BLOCK
  5
20
330
1F
100
AcDbEntity
  8
0
100
AcDbBlockBegin
  2
*Model_Space
 70
     0
 10
0.0
 20
0.0
 30
0.0
  3
*Model_Space
  1

  0
ENDBLK
  5
21
330
1F
100
AcDbEntity
  8
0
100
AcDbBlockEnd
  0
BLOCK
  5
1C
330
1B
100
AcDbEntity
 67
     1
  8
0
100
AcDbBlockBegin
  2
*Paper_Space
 70
     0
 10
0.0
 20
0.0
 30
0.0
  3
*Paper_Space
  1

  0
ENDBLK
  5
1D
330
1B
100
AcDbEntity
 67
     1
  8
0
100
AcDbBlockEnd
  0
BLOCK
  5
24
330
23
100
AcDbEntity
  8
0
100
AcDbBlockBegin
  2
*Paper_Space0
 70
     0
 10
0.0
 20
0.0
 30
0.0
  3
*Paper_Space0
  1

  0
ENDBLK
  5
25
330
23
100
AcDbEntity
  8
0
100
AcDbBlockEnd
  0
BLOCK
  5
78
330
76
100
AcDbEntity
  8
0
100
AcDbBlockBegin
  2
block 2
 70
     0
 10
0.0
 20
0.0
 30
0.0
  3
block 2
  1

  0
SPLINE
  5
7A
330
76
100
AcDbEntity
  8
_U+30EC_U+30A4_U+30E4_U+30FC 1
370
     0
100
AcDbSpline
210
0.0
220
0.0
230
1.0
 70
    11
 71
     3
 72
    44
 73
    40
 74
     0
 42
0.0000000001
 43
0.0000000001
 12
1.0
 22
0.0
 32
0.0
 13
1.0
 23
0.0
 33
0.0
 40
0.0
 40
0.0
 40
0.0
 40
0.0
 40
1.0
 40
1.0
 40
1.0
 40
2.0
 40
2.0
 40
2.0
 40
3.0
 40
3.0
 40
3.0
 40
4.0
 40
4.0
 40
4.0
 40
5.0
 40
5.0
 40
5.0
 40
6.0
 40
6.0
 40
6.0
 40
7.0
 40
7.0
 40
7.0
 40
8.0
 40
8.0
 40
8.0
 40
9.0
 40
9.0
 40
9.0
 40
10.0
 40
10.0
 40
10.0
 40
11.0
 40
11.0
 40
11.0
 40
12.0
 40
12.0
 40
12.0
 40
13.0
 40
13.0
 40
13.0
 40
13.0
 10
74.03768579963294
 20
-130.3892849066388
 30
0.0
 10
74.1963324467287
 20
-130.6073594508551
 30
0.0
 10
74.27040199966157
 20
-130.7007215385054
 30
0.0
 10
74.41423473617076
 20
-130.7489528752989
 30
0.0
 10
74.41423473617076
 20
-130.7489528752989
 30
0.0
 10
74.41423473617076
 20
-129.9707058051809
 30
0.0
 10
74.41423473617076
 20
-129.9707058051809
 30
0.0
 10
74.41423473617076
 20
-129.9707058051809
 30
0.0
 10
74.61939017231738
 20
-129.9707058051809
 30
0.0
 10
74.61939017231738
 20
-129.9707058051809
 30
0.0
 10
74.61939017231738
 20
-129.9707058051809
 30
0.0
 10
74.61939017231738
 20
-130.9987222979795
 30
0.0
 10
74.61939017231738
 20
-130.9987222979795
 30
0.0
 10
74.26178926094845
 20
-130.9670274195152
 30
0.0
 10
74.18358559343328
 20
-130.9015706052954
 30
0.0
 10
73.88524032441063
 20
-130.5164089300445
 30
0.0
 10
73.68645831491172
 20
-130.2604383354904
 30
0.0
 10
73.61876218862656
 20
-130.1949815212707
 30
0.0
 10
73.48130287876509
 20
-130.1949815212707
 30
0.0
 10
73.3627915940725
 20
-130.1949815212707
 30
0.0
 10
73.23170571085875
 20
-130.2666395073639
 30
0.0
 10
73.23170571085875
 20
-130.4636989691202
 30
0.0
 10
73.23170571085875
 20
-130.7238036782566
 30
0.0
 10
73.46218259882195
 20
-130.7324164169697
 30
0.0
 10
73.5786268262234
 20
-130.736550531552
 30
0.0
 10
73.5786268262234
 20
-130.736550531552
 30
0.0
 10
73.5786268262234
 20
-130.9604817380932
 30
0.0
 10
73.5786268262234
 20
-130.9604817380932
 30
0.0
 10
73.45167505759194
 20
-130.9522135089286
 30
0.0
 10
73.33953719954707
 20
-130.9418782224729
 30
0.0
 10
73.22102591485447
 20
-130.861262988118
 30
0.0
 10
73.06031221046756
 20
-130.7513644421386
 30
0.0
 10
73.02637801993785
 20
-130.5649847763865
 30
0.0
 10
73.02637801993785
 20
-130.4485405489851
 30
0.0
 10
73.02637801993785
 20
-130.171554871971
 30
0.0
 10
73.21051837362445
 20
-129.964160123759
 30
0.0
 10
73.48336993605625
 20
-129.964160123759
 30
0.0
 10
73.71177976672831
 20
-129.964160123759
 30
0.0
 10
73.81134302625203
 20
-130.0806043511604
 30
0.0
 10
74.03768579963294
 20
-130.3892849066388
 30
0.0
  0
HATCH
  5
7B
330
76
100
AcDbEntity
  8
_U+30EC_U+30A4_U+30E4_U+30FC 1
 62
   179
420
  2234388
100
AcDbHatch
 10
0.0
 20
0.0
 30
0.0
210
0.0
220
0.0
230
1.0
  2
SOLID
 70
     1
 71
     0
 91
        1
 92
        1
 93
        1
 72
     4
 94
        3
 73
     0
 74
     1
 95
       44
 96
       40
 40
0.0
 40
0.0
 40
0.0
 40
0.0
 40
1.0
 40
1.0
 40
1.0
 40
2.0
 40
2.0
 40
2.0
 40
3.0
 40
3.0
 40
3.0
 40
4.0
 40
4.0
 40
4.0
 40
5.0
 40
5.0
 40
5.0
 40
6.0
 40
6.0
 40
6.0
 40
7.0
 40
7.0
 40
7.0
 40
8.0
 40
8.0
 40
8.0
 40
9.0
 40
9.0
 40
9.0
 40
10.0
 40
10.0
 40
10.0
 40
11.0
 40
11.0
 40
11.0
 40
12.0
 40
12.0
 40
12.0
 40
13.0
 40
13.0
 40
13.0
 40
13.0
 10
74.03768579963294
 20
-130.3892849066388
 10
74.1963324467287
 20
-130.6073594508551
 10
74.27040199966157
 20
-130.7007215385054
 10
74.41423473617076
 20
-130.7489528752989
 10
74.41423473617076
 20
-130.7489528752989
 10
74.41423473617076
 20
-129.9707058051809
 10
74.41423473617076
 20
-129.9707058051809
 10
74.41423473617076
 20
-129.9707058051809
 10
74.61939017231738
 20
-129.9707058051809
 10
74.61939017231738
 20
-129.9707058051809
 10
74.61939017231738
 20
-129.9707058051809
 10
74.61939017231738
 20
-130.9987222979795
 10
74.61939017231738
 20
-130.9987222979795
 10
74.26178926094845
 20
-130.9670274195152
 10
74.18358559343328
 20
-130.9015706052954
 10
73.88524032441063
 20
-130.5164089300445
 10
73.68645831491172
 20
-130.2604383354904
 10
73.61876218862656
 20
-130.1949815212707
 10
73.48130287876509
 20
-130.1949815212707
 10
73.3627915940725
 20
-130.1949815212707
 10
73.23170571085875
 20
-130.2666395073639
 10
73.23170571085875
 20
-130.4636989691202
 10
73.23170571085875
 20
-130.7238036782566
 10
73.46218259882195
 20
-130.7324164169697
 10
73.5786268262234
 20
-130.736550531552
 10
73.5786268262234
 20
-130.736550531552
 10
73.5786268262234
 20
-130.9604817380932
 10
73.5786268262234
 20
-130.9604817380932
 10
73.45167505759194
 20
-130.9522135089286
 10
73.33953719954707
 20
-130.9418782224729
 10
73.22102591485447
 20
-130.861262988118
 10
73.06031221046756
 20
-130.7513644421386
 10
73.02637801993785
 20
-130.5649847763865
 10
73.02637801993785
 20
-130.4485405489851
 10
73.02637801993785
 20
-130.171554871971
 10
73.21051837362445
 20
-129.964160123759
 10
73.48336993605625
 20
-129.964160123759
 10
73.71177976672831
 20
-129.964160123759
 10
73.81134302625203
 20
-130.0806043511604
 10
74.03768579963294
 20
-130.3892849066388
 97
        0
 97
        0
 75
     2
 76
     1
 98
        0
  0
SPLINE
  5
7C
330
76
100
AcDbEntity
  8
_U+30EC_U+30A4_U+30E4_U+30FC 1
370
     0
100
AcDbSpline
210
0.0
220
0.0
230
1.0
 70
    11
 71
     3
 72
    62
 73
    58
 74
     0
 42
0.0000000001
 43
0.0000000001
 12
1.0
 22
0.0
 32
0.0
 13
1.0
 23
0.0
 33
0.0
 40
0.0
 40
0.0
 40
0.0
 40
0.0
 40
1.0
 40
1.0
 40
1.0
 40
2.0
 40
2.0
 40
2.0
 40
3.0
 40
3.0
 40
3.0
 40
4.0
 40
4.0
 40
4.0
 40
5.0
 40
5.0
 40
5.0
 40
6.0
 40
6.0
 40
6.0
 40
7.0
 40
7.0
 40
7.0
 40
8.0
 40
8.0
 40
8.0
 40
9.0
 40
9.0
 40
9.0
 40
10.0
 40
10.0
 40
10.0
 40
11.0
 40
11.0
 40
11.0
 40
12.0
 40
12.0
 40
12.0
 40
13.0
 40
13.0
 40
13.0
 40
14.0
 40
14.0
 40
14.0
 40
15.0
 40
15.0
 40
15.0
 40
16.0
 40
16.0
 40
16.0
 40
17.0
 40
17.0
 40
17.0
 40
18.0
 40
18.0
 40
18.0
 40
19.0
 40
19.0
 40
19.0
 40
19.0
 10
74.67020533072481
 20
-129.3144151152408
 30
0.0
 10
74.67020533072481
 20
-129.4094997506337
 30
0.0
 10
74.64901799349053
 20
-129.6272297853015
 30
0.0
 10
74.46281058251277
 20
-129.7519422418676
 30
0.0
 10
74.35067272446788
 20
-129.826356304349
 30
0.0
 10
74.25128171971843
 20
-129.8304904189313
 30
0.0
 10
74.16670462555555
 20
-129.8346245335136
 30
0.0
 10
74.16670462555555
 20
-129.8346245335136
 30
0.0
 10
74.16670462555555
 20
-129.6148274415546
 30
0.0
 10
74.16670462555555
 20
-129.6148274415546
 30
0.0
 10
74.24077417848842
 20
-129.6127603842635
 30
0.0
 10
74.4755574358082
 20
-129.6017360787107
 30
0.0
 10
74.4755574358082
 20
-129.3185492298231
 30
0.0
 10
74.4755574358082
 20
-129.1807454104132
 30
0.0
 10
74.40579425223189
 20
-129.0284721899651
 30
0.0
 10
74.17721216678557
 20
-129.0284721899651
 30
0.0
 10
74.06094019415838
 20
-129.0284721899651
 30
0.0
 10
74.01219209304209
 20
-129.0667127498514
 30
0.0
 10
73.9804972145778
 20
-129.0984076283157
 30
0.0
 10
73.90642766164493
 20
-129.1724771812486
 30
0.0
 10
73.89385306312376
 20
-129.28892140865
 30
0.0
 10
73.89385306312376
 20
-129.344042936414
 30
0.0
 10
73.89385306312376
 20
-129.3626464520343
 30
0.0
 10
73.89592012041491
 20
-129.3988199546295
 30
0.0
 10
73.90005423499721
 20
-129.4263807185115
 30
0.0
 10
73.90005423499721
 20
-129.4263807185115
 30
0.0
 10
73.7054063400806
 20
-129.4263807185115
 30
0.0
 10
73.7054063400806
 20
-129.4263807185115
 30
0.0
 10
73.71177976672831
 20
-129.3881401586252
 30
0.0
 10
73.71401907879373
 20
-129.3461099937051
 30
0.0
 10
73.71401907879373
 20
-129.3395643122832
 30
0.0
 10
73.71401907879373
 20
-129.2741074980634
 30
0.0
 10
73.69283174155943
 20
-129.0753254885645
 30
0.0
 10
73.45580917217424
 20
-129.0753254885645
 30
0.0
 10
73.27821449990962
 20
-129.0753254885645
 30
0.0
 10
73.22309297214562
 20
-129.206239117004
 30
0.0
 10
73.22309297214562
 20
-129.316482172532
 30
0.0
 10
73.22309297214562
 20
-129.5807209962506
 30
0.0
 10
73.45580917217424
 20
-129.5893337349638
 30
0.0
 10
73.52781166781597
 20
-129.5934678495461
 30
0.0
 10
73.52781166781597
 20
-129.5934678495461
 30
0.0
 10
73.52781166781597
 20
-129.7967284831758
 30
0.0
 10
73.52781166781597
 20
-129.7967284831758
 30
0.0
 10
73.40292695647567
 20
-129.7881157444627
 30
0.0
 10
73.02637801993785
 20
-129.7605549805807
 30
0.0
 10
73.02637801993785
 20
-129.3037353192366
 30
0.0
 10
73.02637801993785
 20
-129.0794596031468
 30
0.0
 10
73.15332978856931
 20
-128.8383029191793
 30
0.0
 10
73.44943574552653
 20
-128.8383029191793
 30
0.0
 10
73.63564315650429
 20
-128.8383029191793
 30
0.0
 10
73.71815319337603
 20
-128.9333875545722
 30
0.0
 10
73.77947589301347
 20
-129.0329508140959
 30
0.0
 10
73.80703665689546
 20
-128.97128360491
 30
0.0
 10
73.88747963647604
 20
-128.7893825632888
 30
0.0
 10
74.1646375682644
 20
-128.7893825632888
 30
0.0
 10
74.50311819969019
 20
-128.7893825632888
 30
0.0
 10
74.67020533072481
 20
-129.0370849286782
 30
0.0
 10
74.67020533072481
 20
-129.3144151152408
 30
0.0
  0
HATCH
  5
7D
330
76
100
AcDbEntity
  8
_U+30EC_U+30A4_U+30E4_U+30FC 1
 62
   179
420
  2234388
100
AcDbHatch
 10
0.0
 20
0.0
 30
0.0
210
0.0
220
0.0
230
1.0
  2
SOLID
 70
     1
 71
     0
 91
        1
 92
        1
 93
        1
 72
     4
 94
        3
 73
     0
 74
     1
 95
       62
 96
       58
 40
0.0
 40
0.0
 40
0.0
 40
0.0
 40
1.0
 40
1.0
 40
1.0
 40
2.0
 40
2.0
 40
2.0
 40
3.0
 40
3.0
 40
3.0
 40
4.0
 40
4.0
 40
4.0
 40
5.0
 40
5.0
 40
5.0
 40
6.0
 40
6.0
 40
6.0
 40
7.0
 40
7.0
 40
7.0
 40
8.0
 40
8.0
 40
8.0
 40
9.0
 40
9.0
 40
9.0
 40
10.0
 40
10.0
 40
10.0
 40
11.0
 40
11.0
 40
11.0
 40
12.0
 40
12.0
 40
12.0
 40
13.0
 40
13.0
 40
13.0
 40
14.0
 40
14.0
 40
14.0
 40
15.0
 40
15.0
 40
15.0
 40
16.0
 40
16.0
 40
16.0
 40
17.0
 40
17.0
 40
17.0
 40
18.0
 40
18.0
 40
18.0
 40
19.0
 40
19.0
 40
19.0
 40
19.0
 10
74.67020533072481
 20
-129.3144151152408
 10
74.67020533072481
 20
-129.4094997506337
 10
74.64901799349053
 20
-129.6272297853015
 10
74.46281058251277
 20
-129.7519422418676
 10
74.35067272446788
 20
-129.826356304349
 10
74.25128171971843
 20
-129.8304904189313
 10
74.16670462555555
 20
-129.8346245335136
 10
74.16670462555555
 20
-129.8346245335136
 10
74.16670462555555
 20
-129.6148274415546
 10
74.16670462555555
 20
-129.6148274415546
 10
74.24077417848842
 20
-129.6127603842635
 10
74.4755574358082
 20
-129.6017360787107
 10
74.4755574358082
 20
-129.3185492298231
 10
74.4755574358082
 20
-129.1807454104132
 10
74.40579425223189
 20
-129.0284721899651
 10
74.17721216678557
 20
-129.0284721899651
 10
74.06094019415838
 20
-129.0284721899651
 10
74.01219209304209
 20
-129.0667127498514
 10
73.9804972145778
 20
-129.0984076283157
 10
73.90642766164493
 20
-129.1724771812486
 10
73.89385306312376
 20
-129.28892140865
 10
73.89385306312376
 20
-129.344042936414
 10
73.89385306312376
 20
-129.3626464520343
 10
73.89592012041491
 20
-129.3988199546295
 10
73.90005423499721
 20
-129.4263807185115
 10
73.90005423499721
 20
-129.4263807185115
 10
73.7054063400806
 20
-129.4263807185115
 10
73.7054063400806
 20
-129.4263807185115
 10
73.71177976672831
 20
-129.3881401586252
 10
73.71401907879373
 20
-129.3461099937051
 10
73.71401907879373
 20
-129.3395643122832
 10
73.71401907879373
 20
-129.2741074980634
 10
73.69283174155943
 20
-129.0753254885645
 10
73.45580917217424
 20
-129.0753254885645
 10
73.27821449990962
 20
-129.0753254885645
 10
73.22309297214562
 20
-129.206239117004
 10
73.22309297214562
 20
-129.316482172532
 10
73.22309297214562
 20
-129.5807209962506
 10
73.45580917217424
 20
-129.5893337349638
 10
73.52781166781597
 20
-129.5934678495461
 10
73.52781166781597
 20
-129.5934678495461
 10
73.52781166781597
 20
-129.7967284831758
 10
73.52781166781597
 20
-129.7967284831758
 10
73.40292695647567
 20
-129.7881157444627
 10
73.02637801993785
 20
-129.7605549805807
 10
73.02637801993785
 20
-129.3037353192366
 10
73.02637801993785
 20
-129.0794596031468
 10
73.15332978856931
 20
-128.8383029191793
 10
73.44943574552653
 20
-128.8383029191793
 10
73.63564315650429
 20
-128.8383029191793
 10
73.71815319337603
 20
-128.9333875545722
 10
73.77947589301347
 20
-129.0329508140959
 10
73.80703665689546
 20
-128.97128360491
 10
73.88747963647604
 20
-128.7893825632888
 10
74.1646375682644
 20
-128.7893825632888
 10
74.50311819969019
 20
-128.7893825632888
 10
74.67020533072481
 20
-129.0370849286782
 10
74.67020533072481
 20
-129.3144151152408
 97
        0
 97
        0
 75
     2
 76
     1
 98
        0
  0
POLYLINE
  5
7E
330
76
100
AcDbEntity
  8
_U+30EC_U+30A4_U+30E4_U+30FC 1
370
     0
100
AcDb2dPolyline
 66
     1
 10
0.0
 20
0.0
 30
0.0
  0
VERTEX
  5
7F
330
7E
100
AcDbEntity
  8
_U+30EC_U+30A4_U+30E4_U+30FC 1
370
     0
100
AcDbVertex
100
AcDb2dVertex
 10
74.61939017231738
 20
-128.5688964522328
 30
0.0
  0
VERTEX
  5
80
330
7E
100
AcDbEntity
  8
_U+30EC_U+30A4_U+30E4_U+30FC 1
370
     0
100
AcDbVertex
100
AcDb2dVertex
 10
74.36772594711988
 20
-128.5688964522328
 30
0.0
  0
VERTEX
  5
81
330
7E
100
AcDbEntity
  8
_U+30EC_U+30A4_U+30E4_U+30FC 1
370
     0
100
AcDbVertex
100
AcDb2dVertex
 10
74.36772594711988
 20
-128.3172322270353
 30
0.0
  0
VERTEX
  5
82
330
7E
100
AcDbEntity
  8
_U+30EC_U+30A4_U+30E4_U+30FC 1
370
     0
100
AcDbVertex
100
AcDb2dVertex
 10
74.61939017231738
 20
-128.3172322270353
 30
0.0
  0
VERTEX
  5
83
330
7E
100
AcDbEntity
  8
_U+30EC_U+30A4_U+30E4_U+30FC 1
370
     0
100
AcDbVertex
100
AcDb2dVertex
 10
74.61939017231738
 20
-128.5688964522328
 30
0.0
  0
SEQEND
  5
84
330
7E
100
AcDbEntity
  8
_U+30EC_U+30A4_U+30E4_U+30FC 1
370
     0
  0
HATCH
  5
85
330
76
100
AcDbEntity
  8
_U+30EC_U+30A4_U+30E4_U+30FC 1
 62
   179
420
  2234388
100
AcDbHatch
 10
0.0
 20
0.0
 30
0.0
210
0.0
220
0.0
230
1.0
  2
SOLID
 70
     1
 71
     0
 91
        1
 92
        1
 93
        4
 72
     1
 10
74.61939017231738
 20
-128.5688964522328
 11
74.36772594711988
 21
-128.5688964522328
 72
     1
 10
74.36772594711988
 20
-128.5688964522328
 11
74.36772594711988
 21
-128.3172322270353
 72
     1
 10
74.36772594711988
 20
-128.3172322270353
 11
74.61939017231738
 21
-128.3172322270353
 72
     1
 10
74.61939017231738
 20
-128.3172322270353
 11
74.61939017231738
 21
-128.5688964522328
 97
        0
 75
     2
 76
     1
 98
        0
  0
SPLINE
  5
86
330
76
100
AcDbEntity
  8
_U+30EC_U+30A4_U+30E4_U+30FC 1
370
     0
100
AcDbSpline
210
0.0
220
0.0
230
1.0
 70
    11
 71
     3
 72
    53
 73
    49
 74
     0
 42
0.0000000001
 43
0.0000000001
 12
1.0
 22
0.0
 32
0.0
 13
1.0
 23
0.0
 33
0.0
 40
0.0
 40
0.0
 40
0.0
 40
0.0
 40
1.0
 40
1.0
 40
1.0
 40
2.0
 40
2.0
 40
2.0
 40
3.0
 40
3.0
 40
3.0
 40
4.0
 40
4.0
 40
4.0
 40
5.0
 40
5.0
 40
5.0
 40
6.0
 40
6.0
 40
6.0
 40
7.0
 40
7.0
 40
7.0
 40
8.0
 40
8.0
 40
8.0
 40
9.0
 40
9.0
 40
9.0
 40
10.0
 40
10.0
 40
10.0
 40
11.0
 40
11.0
 40
11.0
 40
12.0
 40
12.0
 40
12.0
 40
13.0
 40
13.0
 40
13.0
 40
14.0
 40
14.0
 40
14.0
 40
15.0
 40
15.0
 40
15.0
 40
16.0
 40
16.0
 40
16.0
 40
16.0
 10
74.67020533072481
 20
-127.5996188374577
 30
0.0
 10
74.67020533072481
 20
-127.6779947597472
 30
0.0
 10
74.65315210807283
 20
-127.7794528217878
 30
0.0
 10
74.58976235114423
 20
-127.8810831386026
 30
0.0
 10
74.4796915503905
 20
-128.054543696285
 30
0.0
 10
74.34860566717674
 20
-128.0757310335193
 30
0.0
 10
74.24077417848842
 20
-128.0946790586881
 30
0.0
 10
74.24077417848842
 20
-128.0946790586881
 30
0.0
 10
74.24077417848842
 20
-127.8726426546638
 30
0.0
 10
74.24077417848842
 20
-127.8726426546638
 30
0.0
 10
74.43955618798734
 20
-127.8175211268998
 30
0.0
 10
74.46918400916049
 20
-127.6905693582683
 30
0.0
 10
74.46918400916049
 20
-127.5975517801666
 30
0.0
 10
74.46918400916049
 20
-127.4578531582397
 30
0.0
 10
74.36979300441102
 20
-127.3055799377917
 30
0.0
 10
74.1370768043824
 20
-127.3055799377917
 30
0.0
 10
73.88110620982833
 20
-127.3055799377917
 30
0.0
 10
73.81134302625203
 20
-127.4854139221217
 30
0.0
 10
73.81134302625203
 20
-127.6059922641055
 30
0.0
 10
73.81134302625203
 20
-127.6376871425697
 30
0.0
 10
73.81134302625203
 20
-127.7794528217878
 30
0.0
 10
73.94036185217463
 20
-127.8683362853072
 30
0.0
 10
73.94036185217463
 20
-127.8683362853072
 30
0.0
 10
73.9212415722315
 20
-128.0438639002807
 30
0.0
 10
73.9212415722315
 20
-128.0438639002807
 30
0.0
 10
73.9212415722315
 20
-128.0438639002807
 30
0.0
 10
73.07512612105414
 20
-127.923285558297
 30
0.0
 10
73.07512612105414
 20
-127.923285558297
 30
0.0
 10
73.07512612105414
 20
-127.923285558297
 30
0.0
 10
73.07512612105414
 20
-127.1448662334048
 30
0.0
 10
73.07512612105414
 20
-127.1448662334048
 30
0.0
 10
73.07512612105414
 20
-127.1448662334048
 30
0.0
 10
73.26977401597075
 20
-127.1448662334048
 30
0.0
 10
73.26977401597075
 20
-127.1448662334048
 30
0.0
 10
73.26977401597075
 20
-127.1448662334048
 30
0.0
 10
73.26977401597075
 20
-127.7605047966189
 30
0.0
 10
73.26977401597075
 20
-127.7605047966189
 30
0.0
 10
73.26977401597075
 20
-127.7605047966189
 30
0.0
 10
73.69283174155943
 20
-127.8259616108387
 30
0.0
 10
73.69283174155943
 20
-127.8259616108387
 30
0.0
 10
73.65889755102972
 20
-127.7646389112012
 30
0.0
 10
73.61876218862656
 20
-127.6821288743295
 30
0.0
 10
73.61876218862656
 20
-127.5637898444111
 30
0.0
 10
73.61876218862656
 20
-127.3098863071482
 30
0.0
 10
73.80496959960432
 20
-127.072863737763
 30
0.0
 10
74.11795652443926
 20
-127.072863737763
 30
0.0
 10
74.43542207340504
 20
-127.072863737763
 30
0.0
 10
74.67020533072481
 20
-127.2971394538528
 30
0.0
 10
74.67020533072481
 20
-127.5996188374577
 30
0.0
  0
HATCH
  5
87
330
76
100
AcDbEntity
  8
_U+30EC_U+30A4_U+30E4_U+30FC 1
 62
   179
420
  2234388
100
AcDbHatch
 10
0.0
 20
0.0
 30
0.0
210
0.0
220
0.0
230
1.0
  2
SOLID
 70
     1
 71
     0
 91
        1
 92
        1
 93
        1
 72
     4
 94
        3
 73
     0
 74
     1
 95
       53
 96
       49
 40
0.0
 40
0.0
 40
0.0
 40
0.0
 40
1.0
 40
1.0
 40
1.0
 40
2.0
 40
2.0
 40
2.0
 40
3.0
 40
3.0
 40
3.0
 40
4.0
 40
4.0
 40
4.0
 40
5.0
 40
5.0
 40
5.0
 40
6.0
 40
6.0
 40
6.0
 40
7.0
 40
7.0
 40
7.0
 40
8.0
 40
8.0
 40
8.0
 40
9.0
 40
9.0
 40
9.0
 40
10.0
 40
10.0
 40
10.0
 40
11.0
 40
11.0
 40
11.0
 40
12.0
 40
12.0
 40
12.0
 40
13.0
 40
13.0
 40
13.0
 40
14.0
 40
14.0
 40
14.0
 40
15.0
 40
15.0
 40
15.0
 40
16.0
 40
16.0
 40
16.0
 40
16.0
 10
74.67020533072481
 20
-127.5996188374577
 10
74.67020533072481
 20
-127.6779947597472
 10
74.65315210807283
 20
-127.7794528217878
 10
74.58976235114423
 20
-127.8810831386026
 10
74.4796915503905
 20
-128.054543696285
 10
74.34860566717674
 20
-128.0757310335193
 10
74.24077417848842
 20
-128.0946790586881
 10
74.24077417848842
 20
-128.0946790586881
 10
74.24077417848842
 20
-127.8726426546638
 10
74.24077417848842
 20
-127.8726426546638
 10
74.43955618798734
 20
-127.8175211268998
 10
74.46918400916049
 20
-127.6905693582683
 10
74.46918400916049
 20
-127.5975517801666
 10
74.46918400916049
 20
-127.4578531582397
 10
74.36979300441102
 20
-127.3055799377917
 10
74.1370768043824
 20
-127.3055799377917
 10
73.88110620982833
 20
-127.3055799377917
 10
73.81134302625203
 20
-127.4854139221217
 10
73.81134302625203
 20
-127.6059922641055
 10
73.81134302625203
 20
-127.6376871425697
 10
73.81134302625203
 20
-127.7794528217878
 10
73.94036185217463
 20
-127.8683362853072
 10
73.94036185217463
 20
-127.8683362853072
 10
73.9212415722315
 20
-128.0438639002807
 10
73.9212415722315
 20
-128.0438639002807
 10
73.9212415722315
 20
-128.0438639002807
 10
73.07512612105414
 20
-127.923285558297
 10
73.07512612105414
 20
-127.923285558297
 10
73.07512612105414
 20
-127.923285558297
 10
73.07512612105414
 20
-127.1448662334048
 10
73.07512612105414
 20
-127.1448662334048
 10
73.07512612105414
 20
-127.1448662334048
 10
73.26977401597075
 20
-127.1448662334048
 10
73.26977401597075
 20
-127.1448662334048
 10
73.26977401597075
 20
-127.1448662334048
 10
73.26977401597075
 20
-127.7605047966189
 10
73.26977401597075
 20
-127.7605047966189
 10
73.26977401597075
 20
-127.7605047966189
 10
73.69283174155943
 20
-127.8259616108387
 10
73.69283174155943
 20
-127.8259616108387
 10
73.65889755102972
 20
-127.7646389112012
 10
73.61876218862656
 20
-127.6821288743295
 10
73.61876218862656
 20
-127.5637898444111
 10
73.61876218862656
 20
-127.3098863071482
 10
73.80496959960432
 20
-127.072863737763
 10
74.11795652443926
 20
-127.072863737763
 10
74.43542207340504
 20
-127.072863737763
 10
74.67020533072481
 20
-127.2971394538528
 10
74.67020533072481
 20
-127.5996188374577
 97
        0
 97
        0
 75
     2
 76
     1
 98
        0
  0
ENDBLK
  5
79
330
76
100
AcDbEntity
  8
0
100
AcDbBlockEnd
  0
BLOCK
  5
8A
330
88
100
AcDbEntity
  8
0
100
AcDbBlockBegin
  2
block 3
 70
     0
 10
0.0
 20
0.0
 30
0.0
  3
block 3
  1

  0
SPLINE
  5
8C
330
88
100
AcDbEntity
  8
_U+30EC_U+30A4_U+30E4_U+30FC 1
370
     0
100
AcDbSpline
210
0.0
220
0.0
230
1.0
 70
    11
 71
     3
 72
    26
 73
    22
 74
     0
 42
0.0000000001
 43
0.0000000001
 12
1.0
 22
0.0
 32
0.0
 13
1.0
 23
0.0
 33
0.0
 40
0.0
 40
0.0
 40
0.0
 40
0.0
 40
1.0
 40
1.0
 40
1.0
 40
2.0
 40
2.0
 40
2.0
 40
3.0
 40
3.0
 40
3.0
 40
4.0
 40
4.0
 40
4.0
 40
5.0
 40
5.0
 40
5.0
 40
6.0
 40
6.0
 40
6.0
 40
7.0
 40
7.0
 40
7.0
 40
7.0
 10
74.61939017231738
 20
-115.2701388600714
 30
0.0
 10
74.61939017231738
 20
-115.2701388600714
 30
0.0
 10
73.51506481452054
 20
-115.2701388600714
 30
0.0
 10
73.51506481452054
 20
-115.2701388600714
 30
0.0
 10
73.51506481452054
 20
-115.2701388600714
 30
0.0
 10
73.51506481452054
 20
-115.6001790075583
 30
0.0
 10
73.51506481452054
 20
-115.6001790075583
 30
0.0
 10
73.51506481452054
 20
-115.6001790075583
 30
0.0
 10
73.36709796342906
 20
-115.6001790075583
 30
0.0
 10
73.36709796342906
 20
-115.6001790075583
 30
0.0
 10
73.35228405284249
 20
-115.2680718027802
 30
0.0
 10
73.18933103639017
 20
-115.2215630137293
 30
0.0
 10
73.07512612105414
 20
-115.1919351925562
 30
0.0
 10
73.07512612105414
 20
-115.1919351925562
 30
0.0
 10
73.07512612105414
 20
-115.0458631439816
 30
0.0
 10
73.07512612105414
 20
-115.0458631439816
 30
0.0
 10
73.07512612105414
 20
-115.0458631439816
 30
0.0
 10
74.61939017231738
 20
-115.0458631439816
 30
0.0
 10
74.61939017231738
 20
-115.0458631439816
 30
0.0
 10
74.61939017231738
 20
-115.0458631439816
 30
0.0
 10
74.61939017231738
 20
-115.2701388600714
 30
0.0
 10
74.61939017231738
 20
-115.2701388600714
 30
0.0
  0
HATCH
  5
8D
330
88
100
AcDbEntity
  8
_U+30EC_U+30A4_U+30E4_U+30FC 1
 62
   179
420
  2234388
100
AcDbHatch
 10
0.0
 20
0.0
 30
0.0
210
0.0
220
0.0
230
1.0
  2
SOLID
 70
     1
 71
     0
 91
        1
 92
        1
 93
        1
 72
     4
 94
        3
 73
     0
 74
     1
 95
       26
 96
       22
 40
0.0
 40
0.0
 40
0.0
 40
0.0
 40
1.0
 40
1.0
 40
1.0
 40
2.0
 40
2.0
 40
2.0
 40
3.0
 40
3.0
 40
3.0
 40
4.0
 40
4.0
 40
4.0
 40
5.0
 40
5.0
 40
5.0
 40
6.0
 40
6.0
 40
6.0
 40
7.0
 40
7.0
 40
7.0
 40
7.0
 10
74.61939017231738
 20
-115.2701388600714
 10
74.61939017231738
 20
-115.2701388600714
 10
73.51506481452054
 20
-115.2701388600714
 10
73.51506481452054
 20
-115.2701388600714
 10
73.51506481452054
 20
-115.2701388600714
 10
73.51506481452054
 20
-115.6001790075583
 10
73.51506481452054
 20
-115.6001790075583
 10
73.51506481452054
 20
-115.6001790075583
 10
73.36709796342906
 20
-115.6001790075583
 10
73.36709796342906
 20
-115.6001790075583
 10
73.35228405284249
 20
-115.2680718027802
 10
73.18933103639017
 20
-115.2215630137293
 10
73.07512612105414
 20
-115.1919351925562
 10
73.07512612105414
 20
-115.1919351925562
 10
73.07512612105414
 20
-115.0458631439816
 10
73.07512612105414
 20
-115.0458631439816
 10
73.07512612105414
 20
-115.0458631439816
 10
74.61939017231738
 20
-115.0458631439816
 10
74.61939017231738
 20
-115.0458631439816
 10
74.61939017231738
 20
-115.0458631439816
 10
74.61939017231738
 20
-115.2701388600714
 10
74.61939017231738
 20
-115.2701388600714
 97
        0
 97
        0
 75
     2
 76
     1
 98
        0
  0
POLYLINE
  5
8E
330
88
100
AcDbEntity
  8
_U+30EC_U+30A4_U+30E4_U+30FC 1
370
     0
100
AcDb2dPolyline
 66
     1
 10
0.0
 20
0.0
 30
0.0
  0
VERTEX
  5
8F
330
8E
100
AcDbEntity
  8
_U+30EC_U+30A4_U+30E4_U+30FC 1
370
     0
100
AcDbVertex
100
AcDb2dVertex
 10
74.61939017231738
 20
-114.4846570894344
 30
0.0
  0
VERTEX
  5
90
330
8E
100
AcDbEntity
  8
_U+30EC_U+30A4_U+30E4_U+30FC 1
370
     0
100
AcDbVertex
100
AcDb2dVertex
 10
74.36772594711988
 20
-114.4846570894344
 30
0.0
  0
VERTEX
  5
91
330
8E
100
AcDbEntity
  8
_U+30EC_U+30A4_U+30E4_U+30FC 1
370
     0
100
AcDbVertex
100
AcDb2dVertex
 10
74.36772594711988
 20
-114.2329928642369
 30
0.0
  0
VERTEX
  5
92
330
8E
100
AcDbEntity
  8
_U+30EC_U+30A4_U+30E4_U+30FC 1
370
     0
100
AcDbVertex
100
AcDb2dVertex
 10
74.61939017231738
 20
-114.2329928642369
 30
0.0
  0
VERTEX
  5
93
330
8E
100
AcDbEntity
  8
_U+30EC_U+30A4_U+30E4_U+30FC 1
370
     0
100
AcDbVertex
100
AcDb2dVertex
 10
74.61939017231738
 20
-114.4846570894344
 30
0.0
  0
SEQEND
  5
94
330
8E
100
AcDbEntity
  8
_U+30EC_U+30A4_U+30E4_U+30FC 1
370
     0
  0
HATCH
  5
95
330
88
100
AcDbEntity
  8
_U+30EC_U+30A4_U+30E4_U+30FC 1
 62
   179
420
  2234388
100
AcDbHatch
 10
0.0
 20
0.0
 30
0.0
210
0.0
220
0.0
230
1.0
  2
SOLID
 70
     1
 71
     0
 91
        1
 92
        1
 93
        4
 72
     1
 10
74.61939017231738
 20
-114.4846570894344
 11
74.36772594711988
 21
-114.4846570894344
 72
     1
 10
74.36772594711988
 20
-114.4846570894344
 11
74.36772594711988
 21
-114.2329928642369
 72
     1
 10
74.36772594711988
 20
-114.2329928642369
 11
74.61939017231738
 21
-114.2329928642369
 72
     1
 10
74.61939017231738
 20
-114.2329928642369
 11
74.61939017231738
 21
-114.4846570894344
 97
        0
 75
     2
 76
     1
 98
        0
  0
SPLINE
  5
96
330
88
100
AcDbEntity
  8
_U+30EC_U+30A4_U+30E4_U+30FC 1
370
     0
100
AcDbSpline
210
0.0
220
0.0
230
1.0
 70
    11
 71
     3
 72
    53
 73
    49
 74
     0
 42
0.0000000001
 43
0.0000000001
 12
1.0
 22
0.0
 32
0.0
 13
1.0
 23
0.0
 33
0.0
 40
0.0
 40
0.0
 40
0.0
 40
0.0
 40
1.0
 40
1.0
 40
1.0
 40
2.0
 40
2.0
 40
2.0
 40
3.0
 40
3.0
 40
3.0
 40
4.0
 40
4.0
 40
4.0
 40
5.0
 40
5.0
 40
5.0
 40
6.0
 40
6.0
 40
6.0
 40
7.0
 40
7.0
 40
7.0
 40
8.0
 40
8.0
 40
8.0
 40
9.0
 40
9.0
 40
9.0
 40
10.0
 40
10.0
 40
10.0
 40
11.0
 40
11.0
 40
11.0
 40
12.0
 40
12.0
 40
12.0
 40
13.0
 40
13.0
 40
13.0
 40
14.0
 40
14.0
 40
14.0
 40
15.0
 40
15.0
 40
15.0
 40
16.0
 40
16.0
 40
16.0
 40
16.0
 10
74.67020533072481
 20
-113.5153794746594
 30
0.0
 10
74.67020533072481
 20
-113.5937553969488
 30
0.0
 10
74.65315210807283
 20
-113.6952134589894
 30
0.0
 10
74.58976235114423
 20
-113.7968437758043
 30
0.0
 10
74.4796915503905
 20
-113.9703043334866
 30
0.0
 10
74.34860566717674
 20
-113.9914916707209
 30
0.0
 10
74.24077417848842
 20
-114.0104396958898
 30
0.0
 10
74.24077417848842
 20
-114.0104396958898
 30
0.0
 10
74.24077417848842
 20
-113.7884032918654
 30
0.0
 10
74.24077417848842
 20
-113.7884032918654
 30
0.0
 10
74.43955618798734
 20
-113.7332817641014
 30
0.0
 10
74.46918400916049
 20
-113.6063299954699
 30
0.0
 10
74.46918400916049
 20
-113.5133124173682
 30
0.0
 10
74.46918400916049
 20
-113.3736137954413
 30
0.0
 10
74.36979300441102
 20
-113.2213405749933
 30
0.0
 10
74.1370768043824
 20
-113.2213405749933
 30
0.0
 10
73.88110620982833
 20
-113.2213405749933
 30
0.0
 10
73.81134302625203
 20
-113.4011745593233
 30
0.0
 10
73.81134302625203
 20
-113.5217529013071
 30
0.0
 10
73.81134302625203
 20
-113.5534477797714
 30
0.0
 10
73.81134302625203
 20
-113.6952134589894
 30
0.0
 10
73.94036185217463
 20
-113.7840969225088
 30
0.0
 10
73.94036185217463
 20
-113.7840969225088
 30
0.0
 10
73.9212415722315
 20
-113.9596245374823
 30
0.0
 10
73.9212415722315
 20
-113.9596245374823
 30
0.0
 10
73.9212415722315
 20
-113.9596245374823
 30
0.0
 10
73.07512612105414
 20
-113.8390461954986
 30
0.0
 10
73.07512612105414
 20
-113.8390461954986
 30
0.0
 10
73.07512612105414
 20
-113.8390461954986
 30
0.0
 10
73.07512612105414
 20
-113.0606268706064
 30
0.0
 10
73.07512612105414
 20
-113.0606268706064
 30
0.0
 10
73.07512612105414
 20
-113.0606268706064
 30
0.0
 10
73.26977401597075
 20
-113.0606268706064
 30
0.0
 10
73.26977401597075
 20
-113.0606268706064
 30
0.0
 10
73.26977401597075
 20
-113.0606268706064
 30
0.0
 10
73.26977401597075
 20
-113.6762654338205
 30
0.0
 10
73.26977401597075
 20
-113.6762654338205
 30
0.0
 10
73.26977401597075
 20
-113.6762654338205
 30
0.0
 10
73.69283174155943
 20
-113.7417222480403
 30
0.0
 10
73.69283174155943
 20
-113.7417222480403
 30
0.0
 10
73.65889755102972
 20
-113.6803995484028
 30
0.0
 10
73.61876218862656
 20
-113.5978895115311
 30
0.0
 10
73.61876218862656
 20
-113.4795504816128
 30
0.0
 10
73.61876218862656
 20
-113.2256469443498
 30
0.0
 10
73.80496959960432
 20
-112.9886243749647
 30
0.0
 10
74.11795652443926
 20
-112.9886243749647
 30
0.0
 10
74.43542207340504
 20
-112.9886243749647
 30
0.0
 10
74.67020533072481
 20
-113.2129000910544
 30
0.0
 10
74.67020533072481
 20
-113.5153794746594
 30
0.0
  0
HATCH
  5
97
330
88
100
AcDbEntity
  8
_U+30EC_U+30A4_U+30E4_U+30FC 1
 62
   179
420
  2234388
100
AcDbHatch
 10
0.0
 20
0.0
 30
0.0
210
0.0
220
0.0
230
1.0
  2
SOLID
 70
     1
 71
     0
 91
        1
 92
        1
 93
        1
 72
     4
 94
        3
 73
     0
 74
     1
 95
       53
 96
       49
 40
0.0
 40
0.0
 40
0.0
 40
0.0
 40
1.0
 40
1.0
 40
1.0
 40
2.0
 40
2.0
 40
2.0
 40
3.0
 40
3.0
 40
3.0
 40
4.0
 40
4.0
 40
4.0
 40
5.0
 40
5.0
 40
5.0
 40
6.0
 40
6.0
 40
6.0
 40
7.0
 40
7.0
 40
7.0
 40
8.0
 40
8.0
 40
8.0
 40
9.0
 40
9.0
 40
9.0
 40
10.0
 40
10.0
 40
10.0
 40
11.0
 40
11.0
 40
11.0
 40
12.0
 40
12.0
 40
12.0
 40
13.0
 40
13.0
 40
13.0
 40
14.0
 40
14.0
 40
14.0
 40
15.0
 40
15.0
 40
15.0
 40
16.0
 40
16.0
 40
16.0
 40
16.0
 10
74.67020533072481
 20
-113.5153794746594
 10
74.67020533072481
 20
-113.5937553969488
 10
74.65315210807283
 20
-113.6952134589894
 10
74.58976235114423
 20
-113.7968437758043
 10
74.4796915503905
 20
-113.9703043334866
 10
74.34860566717674
 20
-113.9914916707209
 10
74.24077417848842
 20
-114.0104396958898
 10
74.24077417848842
 20
-114.0104396958898
 10
74.24077417848842
 20
-113.7884032918654
 10
74.24077417848842
 20
-113.7884032918654
 10
74.43955618798734
 20
-113.7332817641014
 10
74.46918400916049
 20
-113.6063299954699
 10
74.46918400916049
 20
-113.5133124173682
 10
74.46918400916049
 20
-113.3736137954413
 10
74.36979300441102
 20
-113.2213405749933
 10
74.1370768043824
 20
-113.2213405749933
 10
73.88110620982833
 20
-113.2213405749933
 10
73.81134302625203
 20
-113.4011745593233
 10
73.81134302625203
 20
-113.5217529013071
 10
73.81134302625203
 20
-113.5534477797714
 10
73.81134302625203
 20
-113.6952134589894
 10
73.94036185217463
 20
-113.7840969225088
 10
73.94036185217463
 20
-113.7840969225088
 10
73.9212415722315
 20
-113.9596245374823
 10
73.9212415722315
 20
-113.9596245374823
 10
73.9212415722315
 20
-113.9596245374823
 10
73.07512612105414
 20
-113.8390461954986
 10
73.07512612105414
 20
-113.8390461954986
 10
73.07512612105414
 20
-113.8390461954986
 10
73.07512612105414
 20
-113.0606268706064
 10
73.07512612105414
 20
-113.0606268706064
 10
73.07512612105414
 20
-113.0606268706064
 10
73.26977401597075
 20
-113.0606268706064
 10
73.26977401597075
 20
-113.0606268706064
 10
73.26977401597075
 20
-113.0606268706064
 10
73.26977401597075
 20
-113.6762654338205
 10
73.26977401597075
 20
-113.6762654338205
 10
73.26977401597075
 20
-113.6762654338205
 10
73.69283174155943
 20
-113.7417222480403
 10
73.69283174155943
 20
-113.7417222480403
 10
73.65889755102972
 20
-113.6803995484028
 10
73.61876218862656
 20
-113.5978895115311
 10
73.61876218862656
 20
-113.4795504816128
 10
73.61876218862656
 20
-113.2256469443498
 10
73.80496959960432
 20
-112.9886243749647
 10
74.11795652443926
 20
-112.9886243749647
 10
74.43542207340504
 20
-112.9886243749647
 10
74.67020533072481
 20
-113.2129000910544
 10
74.67020533072481
 20
-113.5153794746594
 97
        0
 97
        0
 75
     2
 76
     1
 98
        0
  0
ENDBLK
  5
8B
330
88
100
AcDbEntity
  8
0
100
AcDbBlockEnd
  0
BLOCK
  5
9A
330
98
100
AcDbEntity
  8
0
100
AcDbBlockBegin
  2
block 4
 70
     0
 10
0.0
 20
0.0
 30
0.0
  3
block 4
  1

  0
SPLINE
  5
9C
330
98
100
AcDbEntity
  8
_U+30EC_U+30A4_U+30E4_U+30FC 1
370
     0
100
AcDbSpline
210
0.0
220
0.0
230
1.0
 70
    11
 71
     3
 72
    44
 73
    40
 74
     0
 42
0.0000000001
 43
0.0000000001
 12
1.0
 22
0.0
 32
0.0
 13
1.0
 23
0.0
 33
0.0
 40
0.0
 40
0.0
 40
0.0
 40
0.0
 40
1.0
 40
1.0
 40
1.0
 40
2.0
 40
2.0
 40
2.0
 40
3.0
 40
3.0
 40
3.0
 40
4.0
 40
4.0
 40
4.0
 40
5.0
 40
5.0
 40
5.0
 40
6.0
 40
6.0
 40
6.0
 40
7.0
 40
7.0
 40
7.0
 40
8.0
 40
8.0
 40
8.0
 40
9.0
 40
9.0
 40
9.0
 40
10.0
 40
10.0
 40
10.0
 40
11.0
 40
11.0
 40
11.0
 40
12.0
 40
12.0
 40
12.0
 40
13.0
 40
13.0
 40
13.0
 40
13.0
 10
74.03768579963294
 20
-145.6172959705401
 30
0.0
 10
74.1963324467287
 20
-145.8353705147564
 30
0.0
 10
74.27040199966157
 20
-145.9287326024067
 30
0.0
 10
74.41423473617076
 20
-145.9769639392002
 30
0.0
 10
74.41423473617076
 20
-145.9769639392002
 30
0.0
 10
74.41423473617076
 20
-145.1987168690823
 30
0.0
 10
74.41423473617076
 20
-145.1987168690823
 30
0.0
 10
74.41423473617076
 20
-145.1987168690823
 30
0.0
 10
74.61939017231738
 20
-145.1987168690823
 30
0.0
 10
74.61939017231738
 20
-145.1987168690823
 30
0.0
 10
74.61939017231738
 20
-145.1987168690823
 30
0.0
 10
74.61939017231738
 20
-146.2267333618808
 30
0.0
 10
74.61939017231738
 20
-146.2267333618808
 30
0.0
 10
74.26178926094845
 20
-146.1950384834165
 30
0.0
 10
74.18358559343328
 20
-146.1295816691968
 30
0.0
 10
73.88524032441063
 20
-145.7444199939459
 30
0.0
 10
73.68645831491172
 20
-145.4884493993918
 30
0.0
 10
73.61876218862656
 20
-145.422992585172
 30
0.0
 10
73.48130287876509
 20
-145.422992585172
 30
0.0
 10
73.3627915940725
 20
-145.422992585172
 30
0.0
 10
73.23170571085875
 20
-145.4946505712652
 30
0.0
 10
73.23170571085875
 20
-145.6917100330215
 30
0.0
 10
73.23170571085875
 20
-145.9518147421579
 30
0.0
 10
73.46218259882195
 20
-145.960427480871
 30
0.0
 10
73.5786268262234
 20
-145.9645615954533
 30
0.0
 10
73.5786268262234
 20
-145.9645615954533
 30
0.0
 10
73.5786268262234
 20
-146.1884928019946
 30
0.0
 10
73.5786268262234
 20
-146.1884928019946
 30
0.0
 10
73.45167505759194
 20
-146.18022457283
 30
0.0
 10
73.33953719954707
 20
-146.1698892863742
 30
0.0
 10
73.22102591485447
 20
-146.0892740520194
 30
0.0
 10
73.06031221046756
 20
-145.9793755060399
 30
0.0
 10
73.02637801993785
 20
-145.7929958402879
 30
0.0
 10
73.02637801993785
 20
-145.6765516128864
 30
0.0
 10
73.02637801993785
 20
-145.3995659358723
 30
0.0
 10
73.21051837362445
 20
-145.1921711876603
 30
0.0
 10
73.48336993605625
 20
-145.1921711876603
 30
0.0
 10
73.71177976672831
 20
-145.1921711876603
 30
0.0
 10
73.81134302625203
 20
-145.3086154150618
 30
0.0
 10
74.03768579963294
 20
-145.6172959705401
 30
0.0
  0
HATCH
  5
9D
330
98
100
AcDbEntity
  8
_U+30EC_U+30A4_U+30E4_U+30FC 1
 62
   179
420
  2234388
100
AcDbHatch
 10
0.0
 20
0.0
 30
0.0
210
0.0
220
0.0
230
1.0
  2
SOLID
 70
     1
 71
     0
 91
        1
 92
        1
 93
        1
 72
     4
 94
        3
 73
     0
 74
     1
 95
       44
 96
       40
 40
0.0
 40
0.0
 40
0.0
 40
0.0
 40
1.0
 40
1.0
 40
1.0
 40
2.0
 40
2.0
 40
2.0
 40
3.0
 40
3.0
 40
3.0
 40
4.0
 40
4.0
 40
4.0
 40
5.0
 40
5.0
 40
5.0
 40
6.0
 40
6.0
 40
6.0
 40
7.0
 40
7.0
 40
7.0
 40
8.0
 40
8.0
 40
8.0
 40
9.0
 40
9.0
 40
9.0
 40
10.0
 40
10.0
 40
10.0
 40
11.0
 40
11.0
 40
11.0
 40
12.0
 40
12.0
 40
12.0
 40
13.0
 40
13.0
 40
13.0
 40
13.0
 10
74.03768579963294
 20
-145.6172959705401
 10
74.1963324467287
 20
-145.8353705147564
 10
74.27040199966157
 20
-145.9287326024067
 10
74.41423473617076
 20
-145.9769639392002
 10
74.41423473617076
 20
-145.9769639392002
 10
74.41423473617076
 20
-145.1987168690823
 10
74.41423473617076
 20
-145.1987168690823
 10
74.41423473617076
 20
-145.1987168690823
 10
74.61939017231738
 20
-145.1987168690823
 10
74.61939017231738
 20
-145.1987168690823
 10
74.61939017231738
 20
-145.1987168690823
 10
74.61939017231738
 20
-146.2267333618808
 10
74.61939017231738
 20
-146.2267333618808
 10
74.26178926094845
 20
-146.1950384834165
 10
74.18358559343328
 20
-146.1295816691968
 10
73.88524032441063
 20
-145.7444199939459
 10
73.68645831491172
 20
-145.4884493993918
 10
73.61876218862656
 20
-145.422992585172
 10
73.48130287876509
 20
-145.422992585172
 10
73.3627915940725
 20
-145.422992585172
 10
73.23170571085875
 20
-145.4946505712652
 10
73.23170571085875
 20
-145.6917100330215
 10
73.23170571085875
 20
-145.9518147421579
 10
73.46218259882195
 20
-145.960427480871
 10
73.5786268262234
 20
-145.9645615954533
 10
73.5786268262234
 20
-145.9645615954533
 10
73.5786268262234
 20
-146.1884928019946
 10
73.5786268262234
 20
-146.1884928019946
 10
73.45167505759194
 20
-146.18022457283
 10
73.33953719954707
 20
-146.1698892863742
 10
73.22102591485447
 20
-146.0892740520194
 10
73.06031221046756
 20
-145.9793755060399
 10
73.02637801993785
 20
-145.7929958402879
 10
73.02637801993785
 20
-145.6765516128864
 10
73.02637801993785
 20
-145.3995659358723
 10
73.21051837362445
 20
-145.1921711876603
 10
73.48336993605625
 20
-145.1921711876603
 10
73.71177976672831
 20
-145.1921711876603
 10
73.81134302625203
 20
-145.3086154150618
 10
74.03768579963294
 20
-145.6172959705401
 97
        0
 97
        0
 75
     2
 76
     1
 98
        0
  0
POLYLINE
  5
9E
330
98
100
AcDbEntity
  8
_U+30EC_U+30A4_U+30E4_U+30FC 1
370
     0
100
AcDb2dPolyline
 66
     1
 10
0.0
 20
0.0
 30
0.0
  0
VERTEX
  5
9F
330
9E
100
AcDbEntity
  8
_U+30EC_U+30A4_U+30E4_U+30FC 1
370
     0
100
AcDbVertex
100
AcDb2dVertex
 10
74.61939017231738
 20
-144.9737521338955
 30
0.0
  0
VERTEX
  5
A0
330
9E
100
AcDbEntity
  8
_U+30EC_U+30A4_U+30E4_U+30FC 1
370
     0
100
AcDbVertex
100
AcDb2dVertex
 10
74.36772594711988
 20
-144.9737521338955
 30
0.0
  0
VERTEX
  5
A1
330
9E
100
AcDbEntity
  8
_U+30EC_U+30A4_U+30E4_U+30FC 1
370
     0
100
AcDbVertex
100
AcDb2dVertex
 10
74.36772594711988
 20
-144.7222601634722
 30
0.0
  0
VERTEX
  5
A2
330
9E
100
AcDbEntity
  8
_U+30EC_U+30A4_U+30E4_U+30FC 1
370
     0
100
AcDbVertex
100
AcDb2dVertex
 10
74.61939017231738
 20
-144.7222601634722
 30
0.0
  0
VERTEX
  5
A3
330
9E
100
AcDbEntity
  8
_U+30EC_U+30A4_U+30E4_U+30FC 1
370
     0
100
AcDbVertex
100
AcDb2dVertex
 10
74.61939017231738
 20
-144.9737521338955
 30
0.0
  0
SEQEND
  5
A4
330
9E
100
AcDbEntity
  8
_U+30EC_U+30A4_U+30E4_U+30FC 1
370
     0
  0
HATCH
  5
A5
330
98
100
AcDbEntity
  8
_U+30EC_U+30A4_U+30E4_U+30FC 1
 62
   179
420
  2234388
100
AcDbHatch
 10
0.0
 20
0.0
 30
0.0
210
0.0
220
0.0
230
1.0
  2
SOLID
 70
     1
 71
     0
 91
        1
 92
        1
 93
        4
 72
     1
 10
74.61939017231738
 20
-144.9737521338955
 11
74.36772594711988
 21
-144.9737521338955
 72
     1
 10
74.36772594711988
 20
-144.9737521338955
 11
74.36772594711988
 21
-144.7222601634722
 72
     1
 10
74.36772594711988
 20
-144.7222601634722
 11
74.61939017231738
 21
-144.7222601634722
 72
     1
 10
74.61939017231738
 20
-144.7222601634722
 11
74.61939017231738
 21
-144.9737521338955
 97
        0
 75
     2
 76
     1
 98
        0
  0
SPLINE
  5
A6
330
98
100
AcDbEntity
  8
_U+30EC_U+30A4_U+30E4_U+30FC 1
370
     0
100
AcDbSpline
210
0.0
220
0.0
230
1.0
 70
    11
 71
     3
 72
    53
 73
    49
 74
     0
 42
0.0000000001
 43
0.0000000001
 12
1.0
 22
0.0
 32
0.0
 13
1.0
 23
0.0
 33
0.0
 40
0.0
 40
0.0
 40
0.0
 40
0.0
 40
1.0
 40
1.0
 40
1.0
 40
2.0
 40
2.0
 40
2.0
 40
3.0
 40
3.0
 40
3.0
 40
4.0
 40
4.0
 40
4.0
 40
5.0
 40
5.0
 40
5.0
 40
6.0
 40
6.0
 40
6.0
 40
7.0
 40
7.0
 40
7.0
 40
8.0
 40
8.0
 40
8.0
 40
9.0
 40
9.0
 40
9.0
 40
10.0
 40
10.0
 40
10.0
 40
11.0
 40
11.0
 40
11.0
 40
12.0
 40
12.0
 40
12.0
 40
13.0
 40
13.0
 40
13.0
 40
14.0
 40
14.0
 40
14.0
 40
15.0
 40
15.0
 40
15.0
 40
16.0
 40
16.0
 40
16.0
 40
16.0
 10
74.67020533072481
 20
-144.0043022643462
 30
0.0
 10
74.67020533072481
 20
-144.0828504414098
 30
0.0
 10
74.65315210807283
 20
-144.1841362486762
 30
0.0
 10
74.58976235114423
 20
-144.2861110750396
 30
0.0
 10
74.4796915503905
 20
-144.4593993779476
 30
0.0
 10
74.34860566717674
 20
-144.4804144604077
 30
0.0
 10
74.24077417848842
 20
-144.4997069951251
 30
0.0
 10
74.24077417848842
 20
-144.4997069951251
 30
0.0
 10
74.24077417848842
 20
-144.2774983363265
 30
0.0
 10
74.24077417848842
 20
-144.2774983363265
 30
0.0
 10
74.43955618798734
 20
-144.2223768085625
 30
0.0
 10
74.46918400916049
 20
-144.0952527851568
 30
0.0
 10
74.46918400916049
 20
-144.002235207055
 30
0.0
 10
74.46918400916049
 20
-143.8627088399024
 30
0.0
 10
74.36979300441102
 20
-143.7104356194543
 30
0.0
 10
74.1370768043824
 20
-143.7104356194543
 30
0.0
 10
73.88110620982833
 20
-143.7104356194543
 30
0.0
 10
73.81134302625203
 20
-143.8902696037844
 30
0.0
 10
73.81134302625203
 20
-144.0108479457681
 30
0.0
 10
73.81134302625203
 20
-144.0425428242324
 30
0.0
 10
73.81134302625203
 20
-144.1841362486762
 30
0.0
 10
73.94036185217463
 20
-144.2730197121956
 30
0.0
 10
73.94036185217463
 20
-144.2730197121956
 30
0.0
 10
73.9212415722315
 20
-144.4487195819434
 30
0.0
 10
73.9212415722315
 20
-144.4487195819434
 30
0.0
 10
73.9212415722315
 20
-144.4487195819434
 30
0.0
 10
73.07512612105414
 20
-144.3281412399596
 30
0.0
 10
73.07512612105414
 20
-144.3281412399596
 30
0.0
 10
73.07512612105414
 20
-144.3281412399596
 30
0.0
 10
73.07512612105414
 20
-143.5495496602932
 30
0.0
 10
73.07512612105414
 20
-143.5495496602932
 30
0.0
 10
73.07512612105414
 20
-143.5495496602932
 30
0.0
 10
73.26977401597075
 20
-143.5495496602932
 30
0.0
 10
73.26977401597075
 20
-143.5495496602932
 30
0.0
 10
73.26977401597075
 20
-143.5495496602932
 30
0.0
 10
73.26977401597075
 20
-144.1655327330558
 30
0.0
 10
73.26977401597075
 20
-144.1655327330558
 30
0.0
 10
73.26977401597075
 20
-144.1655327330558
 30
0.0
 10
73.69283174155943
 20
-144.2309895472756
 30
0.0
 10
73.69283174155943
 20
-144.2309895472756
 30
0.0
 10
73.65889755102972
 20
-144.1696668476382
 30
0.0
 10
73.61876218862656
 20
-144.0869845559922
 30
0.0
 10
73.61876218862656
 20
-143.9684732712996
 30
0.0
 10
73.61876218862656
 20
-143.7149142435852
 30
0.0
 10
73.80496959960432
 20
-143.4778916742
 30
0.0
 10
74.11795652443926
 20
-143.4778916742
 30
0.0
 10
74.43542207340504
 20
-143.4778916742
 30
0.0
 10
74.67020533072481
 20
-143.7018228807412
 30
0.0
 10
74.67020533072481
 20
-144.0043022643462
 30
0.0
  0
HATCH
  5
A7
330
98
100
AcDbEntity
  8
_U+30EC_U+30A4_U+30E4_U+30FC 1
 62
   179
420
  2234388
100
AcDbHatch
 10
0.0
 20
0.0
 30
0.0
210
0.0
220
0.0
230
1.0
  2
SOLID
 70
     1
 71
     0
 91
        1
 92
        1
 93
        1
 72
     4
 94
        3
 73
     0
 74
     1
 95
       53
 96
       49
 40
0.0
 40
0.0
 40
0.0
 40
0.0
 40
1.0
 40
1.0
 40
1.0
 40
2.0
 40
2.0
 40
2.0
 40
3.0
 40
3.0
 40
3.0
 40
4.0
 40
4.0
 40
4.0
 40
5.0
 40
5.0
 40
5.0
 40
6.0
 40
6.0
 40
6.0
 40
7.0
 40
7.0
 40
7.0
 40
8.0
 40
8.0
 40
8.0
 40
9.0
 40
9.0
 40
9.0
 40
10.0
 40
10.0
 40
10.0
 40
11.0
 40
11.0
 40
11.0
 40
12.0
 40
12.0
 40
12.0
 40
13.0
 40
13.0
 40
13.0
 40
14.0
 40
14.0
 40
14.0
 40
15.0
 40
15.0
 40
15.0
 40
16.0
 40
16.0
 40
16.0
 40
16.0
 10
74.67020533072481
 20
-144.0043022643462
 10
74.67020533072481
 20
-144.0828504414098
 10
74.65315210807283
 20
-144.1841362486762
 10
74.58976235114423
 20
-144.2861110750396
 10
74.4796915503905
 20
-144.4593993779476
 10
74.34860566717674
 20
-144.4804144604077
 10
74.24077417848842
 20
-144.4997069951251
 10
74.24077417848842
 20
-144.4997069951251
 10
74.24077417848842
 20
-144.2774983363265
 10
74.24077417848842
 20
-144.2774983363265
 10
74.43955618798734
 20
-144.2223768085625
 10
74.46918400916049
 20
-144.0952527851568
 10
74.46918400916049
 20
-144.002235207055
 10
74.46918400916049
 20
-143.8627088399024
 10
74.36979300441102
 20
-143.7104356194543
 10
74.1370768043824
 20
-143.7104356194543
 10
73.88110620982833
 20
-143.7104356194543
 10
73.81134302625203
 20
-143.8902696037844
 10
73.81134302625203
 20
-144.0108479457681
 10
73.81134302625203
 20
-144.0425428242324
 10
73.81134302625203
 20
-144.1841362486762
 10
73.94036185217463
 20
-144.2730197121956
 10
73.94036185217463
 20
-144.2730197121956
 10
73.9212415722315
 20
-144.4487195819434
 10
73.9212415722315
 20
-144.4487195819434
 10
73.9212415722315
 20
-144.4487195819434
 10
73.07512612105414
 20
-144.3281412399596
 10
73.07512612105414
 20
-144.3281412399596
 10
73.07512612105414
 20
-144.3281412399596
 10
73.07512612105414
 20
-143.5495496602932
 10
73.07512612105414
 20
-143.5495496602932
 10
73.07512612105414
 20
-143.5495496602932
 10
73.26977401597075
 20
-143.5495496602932
 10
73.26977401597075
 20
-143.5495496602932
 10
73.26977401597075
 20
-143.5495496602932
 10
73.26977401597075
 20
-144.1655327330558
 10
73.26977401597075
 20
-144.1655327330558
 10
73.26977401597075
 20
-144.1655327330558
 10
73.69283174155943
 20
-144.2309895472756
 10
73.69283174155943
 20
-144.2309895472756
 10
73.65889755102972
 20
-144.1696668476382
 10
73.61876218862656
 20
-144.0869845559922
 10
73.61876218862656
 20
-143.9684732712996
 10
73.61876218862656
 20
-143.7149142435852
 10
73.80496959960432
 20
-143.4778916742
 10
74.11795652443926
 20
-143.4778916742
 10
74.43542207340504
 20
-143.4778916742
 10
74.67020533072481
 20
-143.7018228807412
 10
74.67020533072481
 20
-144.0043022643462
 97
        0
 97
        0
 75
     2
 76
     1
 98
        0
  0
ENDBLK
  5
9B
330
98
100
AcDbEntity
  8
0
100
AcDbBlockEnd
  0
BLOCK
  5
BD
330
BB
100
AcDbEntity
  8
0
100
AcDbBlockBegin
  2
block 5
 70
     0
 10
0.0
 20
0.0
 30
0.0
  3
block 5
  1

  0
SPLINE
  5
BF
330
BB
100
AcDbEntity
  8
_U+30EC_U+30A4_U+30E4_U+30FC 1
370
     0
100
AcDbSpline
210
0.0
220
0.0
230
1.0
 70
    11
 71
     3
 72
    26
 73
    22
 74
     0
 42
0.0000000001
 43
0.0000000001
 12
1.0
 22
0.0
 32
0.0
 13
1.0
 23
0.0
 33
0.0
 40
0.0
 40
0.0
 40
0.0
 40
0.0
 40
1.0
 40
1.0
 40
1.0
 40
2.0
 40
2.0
 40
2.0
 40
3.0
 40
3.0
 40
3.0
 40
4.0
 40
4.0
 40
4.0
 40
5.0
 40
5.0
 40
5.0
 40
6.0
 40
6.0
 40
6.0
 40
7.0
 40
7.0
 40
7.0
 40
7.0
 10
91.30295407873676
 20
-111.1201768385394
 30
0.0
 10
91.30295407873676
 20
-111.1201768385394
 30
0.0
 10
91.30295407873676
 20
-110.0158514807426
 30
0.0
 10
91.30295407873676
 20
-110.0158514807426
 30
0.0
 10
91.30295407873676
 20
-110.0158514807426
 30
0.0
 10
90.97291393124983
 20
-110.0158514807426
 30
0.0
 10
90.97291393124983
 20
-110.0158514807426
 30
0.0
 10
90.97291393124983
 20
-110.0158514807426
 30
0.0
 10
90.97291393124983
 20
-109.8678846296511
 30
0.0
 10
90.97291393124983
 20
-109.8678846296511
 30
0.0
 10
91.30502113602792
 20
-109.8530707190645
 30
0.0
 10
91.3515299250788
 20
-109.6901177026122
 30
0.0
 10
91.38115774625194
 20
-109.5759127872762
 30
0.0
 10
91.38115774625194
 20
-109.5759127872762
 30
0.0
 10
91.52722979482652
 20
-109.5759127872762
 30
0.0
 10
91.52722979482652
 20
-109.5759127872762
 30
0.0
 10
91.52722979482652
 20
-109.5759127872762
 30
0.0
 10
91.52722979482652
 20
-111.1201768385394
 30
0.0
 10
91.52722979482652
 20
-111.1201768385394
 30
0.0
 10
91.52722979482652
 20
-111.1201768385394
 30
0.0
 10
91.30295407873676
 20
-111.1201768385394
 30
0.0
 10
91.30295407873676
 20
-111.1201768385394
 30
0.0
  0
HATCH
  5
C0
330
BB
100
AcDbEntity
  8
_U+30EC_U+30A4_U+30E4_U+30FC 1
 62
   179
420
  2234388
100
AcDbHatch
 10
0.0
 20
0.0
 30
0.0
210
0.0
220
0.0
230
1.0
  2
SOLID
 70
     1
 71
     0
 91
        1
 92
        1
 93
        1
 72
     4
 94
        3
 73
     0
 74
     1
 95
       26
 96
       22
 40
0.0
 40
0.0
 40
0.0
 40
0.0
 40
1.0
 40
1.0
 40
1.0
 40
2.0
 40
2.0
 40
2.0
 40
3.0
 40
3.0
 40
3.0
 40
4.0
 40
4.0
 40
4.0
 40
5.0
 40
5.0
 40
5.0
 40
6.0
 40
6.0
 40
6.0
 40
7.0
 40
7.0
 40
7.0
 40
7.0
 10
91.30295407873676
 20
-111.1201768385394
 10
91.30295407873676
 20
-111.1201768385394
 10
91.30295407873676
 20
-110.0158514807426
 10
91.30295407873676
 20
-110.0158514807426
 10
91.30295407873676
 20
-110.0158514807426
 10
90.97291393124983
 20
-110.0158514807426
 10
90.97291393124983
 20
-110.0158514807426
 10
90.97291393124983
 20
-110.0158514807426
 10
90.97291393124983
 20
-109.8678846296511
 10
90.97291393124983
 20
-109.8678846296511
 10
91.30502113602792
 20
-109.8530707190645
 10
91.3515299250788
 20
-109.6901177026122
 10
91.38115774625194
 20
-109.5759127872762
 10
91.38115774625194
 20
-109.5759127872762
 10
91.52722979482652
 20
-109.5759127872762
 10
91.52722979482652
 20
-109.5759127872762
 10
91.52722979482652
 20
-109.5759127872762
 10
91.52722979482652
 20
-111.1201768385394
 10
91.52722979482652
 20
-111.1201768385394
 10
91.52722979482652
 20
-111.1201768385394
 10
91.30295407873676
 20
-111.1201768385394
 10
91.30295407873676
 20
-111.1201768385394
 97
        0
 97
        0
 75
     2
 76
     1
 98
        0
  0
SPLINE
  5
C1
330
BB
100
AcDbEntity
  8
_U+30EC_U+30A4_U+30E4_U+30FC 1
370
     0
100
AcDbSpline
210
0.0
220
0.0
230
1.0
 70
    11
 71
     3
 72
    53
 73
    49
 74
     0
 42
0.0000000001
 43
0.0000000001
 12
1.0
 22
0.0
 32
0.0
 13
1.0
 23
0.0
 33
0.0
 40
0.0
 40
0.0
 40
0.0
 40
0.0
 40
1.0
 40
1.0
 40
1.0
 40
2.0
 40
2.0
 40
2.0
 40
3.0
 40
3.0
 40
3.0
 40
4.0
 40
4.0
 40
4.0
 40
5.0
 40
5.0
 40
5.0
 40
6.0
 40
6.0
 40
6.0
 40
7.0
 40
7.0
 40
7.0
 40
8.0
 40
8.0
 40
8.0
 40
9.0
 40
9.0
 40
9.0
 40
10.0
 40
10.0
 40
10.0
 40
11.0
 40
11.0
 40
11.0
 40
12.0
 40
12.0
 40
12.0
 40
13.0
 40
13.0
 40
13.0
 40
14.0
 40
14.0
 40
14.0
 40
15.0
 40
15.0
 40
15.0
 40
16.0
 40
16.0
 40
16.0
 40
16.0
 10
92.50942651767126
 20
-111.1709919969468
 30
0.0
 10
92.43122285015609
 20
-111.1709919969468
 30
0.0
 10
92.32959253334121
 20
-111.1539387742949
 30
0.0
 10
92.22796221652635
 20
-111.0905490173663
 30
0.0
 10
92.05467391361827
 20
-110.9804782166125
 30
0.0
 10
92.03331432160974
 20
-110.8493923333988
 30
0.0
 10
92.01436629644085
 20
-110.7415608447104
 30
0.0
 10
92.01436629644085
 20
-110.7415608447104
 30
0.0
 10
92.23657495523948
 20
-110.7415608447104
 30
0.0
 10
92.23657495523948
 20
-110.7415608447104
 30
0.0
 10
92.29135197345495
 20
-110.9403428542094
 30
0.0
 10
92.41847599686066
 20
-110.9699706753825
 30
0.0
 10
92.51149357496242
 20
-110.9699706753825
 30
0.0
 10
92.65101994211503
 20
-110.9699706753825
 30
0.0
 10
92.80329316256307
 20
-110.870579670633
 30
0.0
 10
92.80329316256307
 20
-110.6378634706044
 30
0.0
 10
92.80329316256307
 20
-110.3818928760504
 30
0.0
 10
92.62345917823303
 20
-110.3121296924741
 30
0.0
 10
92.50288083624929
 20
-110.3121296924741
 30
0.0
 10
92.47118595778498
 20
-110.3121296924741
 30
0.0
 10
92.32959253334121
 20
-110.3121296924741
 30
0.0
 10
92.24070906982178
 20
-110.4411485183967
 30
0.0
 10
92.24070906982178
 20
-110.4411485183967
 30
0.0
 10
92.06500920007403
 20
-110.4220282384535
 30
0.0
 10
92.06500920007403
 20
-110.4220282384535
 30
0.0
 10
92.06500920007403
 20
-110.4220282384535
 30
0.0
 10
92.18558754205777
 20
-109.5759127872762
 30
0.0
 10
92.18558754205777
 20
-109.5759127872762
 30
0.0
 10
92.18558754205777
 20
-109.5759127872762
 30
0.0
 10
92.96417912172424
 20
-109.5759127872762
 30
0.0
 10
92.96417912172424
 20
-109.5759127872762
 30
0.0
 10
92.96417912172424
 20
-109.5759127872762
 30
0.0
 10
92.96417912172424
 20
-109.7705606821928
 30
0.0
 10
92.96417912172424
 20
-109.7705606821928
 30
0.0
 10
92.96417912172424
 20
-109.7705606821928
 30
0.0
 10
92.3485405585101
 20
-109.7705606821928
 30
0.0
 10
92.3485405585101
 20
-109.7705606821928
 30
0.0
 10
92.3485405585101
 20
-109.7705606821928
 30
0.0
 10
92.28308374429034
 20
-110.1936184077815
 30
0.0
 10
92.28308374429034
 20
-110.1936184077815
 30
0.0
 10
92.3444064439278
 20
-110.1596842172518
 30
0.0
 10
92.42674422602526
 20
-110.1195488548486
 30
0.0
 10
92.54525551071785
 20
-110.1195488548486
 30
0.0
 10
92.79915904798077
 20
-110.1195488548486
 30
0.0
 10
93.03618161736595
 20
-110.3057562658263
 30
0.0
 10
93.03618161736595
 20
-110.6187431906613
 30
0.0
 10
93.03618161736595
 20
-110.9362087396271
 30
0.0
 10
92.81190590127619
 20
-111.1709919969468
 30
0.0
 10
92.50942651767126
 20
-111.1709919969468
 30
0.0
  0
HATCH
  5
C2
330
BB
100
AcDbEntity
  8
_U+30EC_U+30A4_U+30E4_U+30FC 1
 62
   179
420
  2234388
100
AcDbHatch
 10
0.0
 20
0.0
 30
0.0
210
0.0
220
0.0
230
1.0
  2
SOLID
 70
     1
 71
     0
 91
        1
 92
        1
 93
        1
 72
     4
 94
        3
 73
     0
 74
     1
 95
       53
 96
       49
 40
0.0
 40
0.0
 40
0.0
 40
0.0
 40
1.0
 40
1.0
 40
1.0
 40
2.0
 40
2.0
 40
2.0
 40
3.0
 40
3.0
 40
3.0
 40
4.0
 40
4.0
 40
4.0
 40
5.0
 40
5.0
 40
5.0
 40
6.0
 40
6.0
 40
6.0
 40
7.0
 40
7.0
 40
7.0
 40
8.0
 40
8.0
 40
8.0
 40
9.0
 40
9.0
 40
9.0
 40
10.0
 40
10.0
 40
10.0
 40
11.0
 40
11.0
 40
11.0
 40
12.0
 40
12.0
 40
12.0
 40
13.0
 40
13.0
 40
13.0
 40
14.0
 40
14.0
 40
14.0
 40
15.0
 40
15.0
 40
15.0
 40
16.0
 40
16.0
 40
16.0
 40
16.0
 10
92.50942651767126
 20
-111.1709919969468
 10
92.43122285015609
 20
-111.1709919969468
 10
92.32959253334121
 20
-111.1539387742949
 10
92.22796221652635
 20
-111.0905490173663
 10
92.05467391361827
 20
-110.9804782166125
 10
92.03331432160974
 20
-110.8493923333988
 10
92.01436629644085
 20
-110.7415608447104
 10
92.01436629644085
 20
-110.7415608447104
 10
92.23657495523948
 20
-110.7415608447104
 10
92.23657495523948
 20
-110.7415608447104
 10
92.29135197345495
 20
-110.9403428542094
 10
92.41847599686066
 20
-110.9699706753825
 10
92.51149357496242
 20
-110.9699706753825
 10
92.65101994211503
 20
-110.9699706753825
 10
92.80329316256307
 20
-110.870579670633
 10
92.80329316256307
 20
-110.6378634706044
 10
92.80329316256307
 20
-110.3818928760504
 10
92.62345917823303
 20
-110.3121296924741
 10
92.50288083624929
 20
-110.3121296924741
 10
92.47118595778498
 20
-110.3121296924741
 10
92.32959253334121
 20
-110.3121296924741
 10
92.24070906982178
 20
-110.4411485183967
 10
92.24070906982178
 20
-110.4411485183967
 10
92.06500920007403
 20
-110.4220282384535
 10
92.06500920007403
 20
-110.4220282384535
 10
92.06500920007403
 20
-110.4220282384535
 10
92.18558754205777
 20
-109.5759127872762
 10
92.18558754205777
 20
-109.5759127872762
 10
92.18558754205777
 20
-109.5759127872762
 10
92.96417912172424
 20
-109.5759127872762
 10
92.96417912172424
 20
-109.5759127872762
 10
92.96417912172424
 20
-109.5759127872762
 10
92.96417912172424
 20
-109.7705606821928
 10
92.96417912172424
 20
-109.7705606821928
 10
92.96417912172424
 20
-109.7705606821928
 10
92.3485405585101
 20
-109.7705606821928
 10
92.3485405585101
 20
-109.7705606821928
 10
92.3485405585101
 20
-109.7705606821928
 10
92.28308374429034
 20
-110.1936184077815
 10
92.28308374429034
 20
-110.1936184077815
 10
92.3444064439278
 20
-110.1596842172518
 10
92.42674422602526
 20
-110.1195488548486
 10
92.54525551071785
 20
-110.1195488548486
 10
92.79915904798077
 20
-110.1195488548486
 10
93.03618161736595
 20
-110.3057562658263
 10
93.03618161736595
 20
-110.6187431906613
 10
93.03618161736595
 20
-110.9362087396271
 10
92.81190590127619
 20
-111.1709919969468
 10
92.50942651767126
 20
-111.1709919969468
 97
        0
 97
        0
 75
     2
 76
     1
 98
        0
  0
POLYLINE
  5
C3
330
BB
100
AcDbEntity
  8
_U+30EC_U+30A4_U+30E4_U+30FC 1
370
     0
100
AcDb2dPolyline
 66
     1
 10
0.0
 20
0.0
 30
0.0
  0
VERTEX
  5
C4
330
C3
100
AcDbEntity
  8
_U+30EC_U+30A4_U+30E4_U+30FC 1
370
     0
100
AcDbVertex
100
AcDb2dVertex
 10
93.26528046713507
 20
-111.1201768385394
 30
0.0
  0
VERTEX
  5
C5
330
C3
100
AcDbEntity
  8
_U+30EC_U+30A4_U+30E4_U+30FC 1
370
     0
100
AcDbVertex
100
AcDb2dVertex
 10
93.26528046713507
 20
-110.8685126133419
 30
0.0
  0
VERTEX
  5
C6
330
C3
100
AcDbEntity
  8
_U+30EC_U+30A4_U+30E4_U+30FC 1
370
     0
100
AcDbVertex
100
AcDb2dVertex
 10
93.51711694710684
 20
-110.8685126133419
 30
0.0
  0
VERTEX
  5
C7
330
C3
100
AcDbEntity
  8
_U+30EC_U+30A4_U+30E4_U+30FC 1
370
     0
100
AcDbVertex
100
AcDb2dVertex
 10
93.51711694710684
 20
-111.1201768385394
 30
0.0
  0
VERTEX
  5
C8
330
C3
100
AcDbEntity
  8
_U+30EC_U+30A4_U+30E4_U+30FC 1
370
     0
100
AcDbVertex
100
AcDb2dVertex
 10
93.26528046713507
 20
-111.1201768385394
 30
0.0
  0
SEQEND
  5
C9
330
C3
100
AcDbEntity
  8
_U+30EC_U+30A4_U+30E4_U+30FC 1
370
     0
  0
HATCH
  5
CA
330
BB
100
AcDbEntity
  8
_U+30EC_U+30A4_U+30E4_U+30FC 1
 62
   179
420
  2234388
100
AcDbHatch
 10
0.0
 20
0.0
 30
0.0
210
0.0
220
0.0
230
1.0
  2
SOLID
 70
     1
 71
     0
 91
        1
 92
        1
 93
        4
 72
     1
 10
93.26528046713507
 20
-111.1201768385394
 11
93.26528046713507
 21
-110.8685126133419
 72
     1
 10
93.26528046713507
 20
-110.8685126133419
 11
93.51711694710684
 21
-110.8685126133419
 72
     1
 10
93.51711694710684
 20
-110.8685126133419
 11
93.51711694710684
 21
-111.1201768385394
 72
     1
 10
93.51711694710684
 20
-111.1201768385394
 11
93.26528046713507
 21
-111.1201768385394
 97
        0
 75
     2
 76
     1
 98
        0
  0
SPLINE
  5
CB
330
BB
100
AcDbEntity
  8
_U+30EC_U+30A4_U+30E4_U+30FC 1
370
     0
100
AcDbSpline
210
0.0
220
0.0
230
1.0
 70
    11
 71
     3
 72
    44
 73
    40
 74
     0
 42
0.0000000001
 43
0.0000000001
 12
1.0
 22
0.0
 32
0.0
 13
1.0
 23
0.0
 33
0.0
 40
0.0
 40
0.0
 40
0.0
 40
0.0
 40
1.0
 40
1.0
 40
1.0
 40
2.0
 40
2.0
 40
2.0
 40
3.0
 40
3.0
 40
3.0
 40
4.0
 40
4.0
 40
4.0
 40
5.0
 40
5.0
 40
5.0
 40
6.0
 40
6.0
 40
6.0
 40
7.0
 40
7.0
 40
7.0
 40
8.0
 40
8.0
 40
8.0
 40
9.0
 40
9.0
 40
9.0
 40
10.0
 40
10.0
 40
10.0
 40
11.0
 40
11.0
 40
11.0
 40
12.0
 40
12.0
 40
12.0
 40
13.0
 40
13.0
 40
13.0
 40
13.0
 10
94.34635143040647
 20
-110.538472465855
 30
0.0
 10
94.12862139573868
 20
-110.6971191129507
 30
0.0
 10
94.03560381763694
 20
-110.7711886658836
 30
0.0
 10
93.9866834617464
 20
-110.9150214023928
 30
0.0
 10
93.9866834617464
 20
-110.9150214023928
 30
0.0
 10
94.76527504141285
 20
-110.9150214023928
 30
0.0
 10
94.76527504141285
 20
-110.9150214023928
 30
0.0
 10
94.76527504141285
 20
-110.9150214023928
 30
0.0
 10
94.76527504141285
 20
-111.1201768385394
 30
0.0
 10
94.76527504141285
 20
-111.1201768385394
 30
0.0
 10
94.76527504141285
 20
-111.1201768385394
 30
0.0
 10
93.7372585486143
 20
-111.1201768385394
 30
0.0
 10
93.7372585486143
 20
-111.1201768385394
 30
0.0
 10
93.7689534270786
 20
-110.7625759271705
 30
0.0
 10
93.83441024129834
 20
-110.6843722596553
 30
0.0
 10
94.21957191654928
 20
-110.3860269906327
 30
0.0
 10
94.47554251110334
 20
-110.1872449811337
 30
0.0
 10
94.54099932532309
 20
-110.1195488548486
 30
0.0
 10
94.54099932532309
 20
-109.9820895449871
 30
0.0
 10
94.54099932532309
 20
-109.8635782602945
 30
0.0
 10
94.46899682968137
 20
-109.7324923770808
 30
0.0
 10
94.2722818774736
 20
-109.7324923770808
 30
0.0
 10
94.01217716833723
 20
-109.7324923770808
 30
0.0
 10
94.00356442962412
 20
-109.962969265044
 30
0.0
 10
93.99943031504182
 20
-110.0794134924454
 30
0.0
 10
93.99943031504182
 20
-110.0794134924454
 30
0.0
 10
93.77515459895204
 20
-110.0794134924454
 30
0.0
 10
93.77515459895204
 20
-110.0794134924454
 30
0.0
 10
93.78376733766517
 20
-109.952461723814
 30
0.0
 10
93.79444713366945
 20
-109.8403238657691
 30
0.0
 10
93.87471785847578
 20
-109.7218125810765
 30
0.0
 10
93.98461640445524
 20
-109.5610988766896
 30
0.0
 10
94.17099607020725
 20
-109.5271646861599
 30
0.0
 10
94.28709578806017
 20
-109.5271646861599
 30
0.0
 10
94.5644259746228
 20
-109.5271646861599
 30
0.0
 10
94.77182072283483
 20
-109.7113050398465
 30
0.0
 10
94.77182072283483
 20
-109.9841566022783
 30
0.0
 10
94.77182072283483
 20
-110.2125664329503
 30
0.0
 10
94.65537649543339
 20
-110.3121296924741
 30
0.0
 10
94.34635143040647
 20
-110.538472465855
 30
0.0
  0
HATCH
  5
CC
330
BB
100
AcDbEntity
  8
_U+30EC_U+30A4_U+30E4_U+30FC 1
 62
   179
420
  2234388
100
AcDbHatch
 10
0.0
 20
0.0
 30
0.0
210
0.0
220
0.0
230
1.0
  2
SOLID
 70
     1
 71
     0
 91
        1
 92
        1
 93
        1
 72
     4
 94
        3
 73
     0
 74
     1
 95
       44
 96
       40
 40
0.0
 40
0.0
 40
0.0
 40
0.0
 40
1.0
 40
1.0
 40
1.0
 40
2.0
 40
2.0
 40
2.0
 40
3.0
 40
3.0
 40
3.0
 40
4.0
 40
4.0
 40
4.0
 40
5.0
 40
5.0
 40
5.0
 40
6.0
 40
6.0
 40
6.0
 40
7.0
 40
7.0
 40
7.0
 40
8.0
 40
8.0
 40
8.0
 40
9.0
 40
9.0
 40
9.0
 40
10.0
 40
10.0
 40
10.0
 40
11.0
 40
11.0
 40
11.0
 40
12.0
 40
12.0
 40
12.0
 40
13.0
 40
13.0
 40
13.0
 40
13.0
 10
94.34635143040647
 20
-110.538472465855
 10
94.12862139573868
 20
-110.6971191129507
 10
94.03560381763694
 20
-110.7711886658836
 10
93.9866834617464
 20
-110.9150214023928
 10
93.9866834617464
 20
-110.9150214023928
 10
94.76527504141285
 20
-110.9150214023928
 10
94.76527504141285
 20
-110.9150214023928
 10
94.76527504141285
 20
-110.9150214023928
 10
94.76527504141285
 20
-111.1201768385394
 10
94.76527504141285
 20
-111.1201768385394
 10
94.76527504141285
 20
-111.1201768385394
 10
93.7372585486143
 20
-111.1201768385394
 10
93.7372585486143
 20
-111.1201768385394
 10
93.7689534270786
 20
-110.7625759271705
 10
93.83441024129834
 20
-110.6843722596553
 10
94.21957191654928
 20
-110.3860269906327
 10
94.47554251110334
 20
-110.1872449811337
 10
94.54099932532309
 20
-110.1195488548486
 10
94.54099932532309
 20
-109.9820895449871
 10
94.54099932532309
 20
-109.8635782602945
 10
94.46899682968137
 20
-109.7324923770808
 10
94.2722818774736
 20
-109.7324923770808
 10
94.01217716833723
 20
-109.7324923770808
 10
94.00356442962412
 20
-109.962969265044
 10
93.99943031504182
 20
-110.0794134924454
 10
93.99943031504182
 20
-110.0794134924454
 10
93.77515459895204
 20
-110.0794134924454
 10
93.77515459895204
 20
-110.0794134924454
 10
93.78376733766517
 20
-109.952461723814
 10
93.79444713366945
 20
-109.8403238657691
 10
93.87471785847578
 20
-109.7218125810765
 10
93.98461640445524
 20
-109.5610988766896
 10
94.17099607020725
 20
-109.5271646861599
 10
94.28709578806017
 20
-109.5271646861599
 10
94.5644259746228
 20
-109.5271646861599
 10
94.77182072283483
 20
-109.7113050398465
 10
94.77182072283483
 20
-109.9841566022783
 10
94.77182072283483
 20
-110.2125664329503
 10
94.65537649543339
 20
-110.3121296924741
 10
94.34635143040647
 20
-110.538472465855
 97
        0
 97
        0
 75
     2
 76
     1
 98
        0
  0
ENDBLK
  5
BE
330
BB
100
AcDbEntity
  8
0
100
AcDbBlockEnd
  0
BLOCK
  5
DE
330
DC
100
AcDbEntity
  8
0
100
AcDbBlockBegin
  2
block 6
 70
     0
 10
0.0
 20
0.0
 30
0.0
  3
block 6
  1

  0
SPLINE
  5
E0
330
DC
100
AcDbEntity
  8
_U+30EC_U+30A4_U+30E4_U+30FC 1
370
     0
100
AcDbSpline
210
0.0
220
0.0
230
1.0
 70
    11
 71
     3
 72
    32
 73
    28
 74
     0
 42
0.0000000001
 43
0.0000000001
 12
1.0
 22
0.0
 32
0.0
 13
1.0
 23
0.0
 33
0.0
 40
0.0
 40
0.0
 40
0.0
 40
0.0
 40
1.0
 40
1.0
 40
1.0
 40
2.0
 40
2.0
 40
2.0
 40
3.0
 40
3.0
 40
3.0
 40
4.0
 40
4.0
 40
4.0
 40
5.0
 40
5.0
 40
5.0
 40
6.0
 40
6.0
 40
6.0
 40
7.0
 40
7.0
 40
7.0
 40
8.0
 40
8.0
 40
8.0
 40
9.0
 40
9.0
 40
9.0
 40
9.0
 10
83.20181204517178
 20
-134.846549445455
 30
0.0
 10
83.0285237422637
 20
-134.846549445455
 30
0.0
 10
82.78288843416539
 20
-134.776958516653
 30
0.0
 10
82.74499238382765
 20
-134.4448513118749
 30
0.0
 10
82.74499238382765
 20
-134.4448513118749
 30
0.0
 10
82.95858830391313
 20
-134.4448513118749
 30
0.0
 10
82.95858830391313
 20
-134.4448513118749
 30
0.0
 10
82.96926809991741
 20
-134.5041069542212
 30
0.0
 10
83.00096297838171
 20
-134.652246060087
 30
0.0
 10
83.20387910246292
 20
-134.652246060087
 30
0.0
 10
83.49602319961211
 20
-134.652246060087
 30
0.0
 10
83.53391924994986
 20
-134.3222059126
 30
0.0
 10
83.54666610324529
 20
-134.1168782216791
 30
0.0
 10
83.45571558243469
 20
-134.1971489464854
 30
0.0
 10
83.38819171092379
 20
-134.2543375315406
 30
0.0
 10
83.2062906693026
 20
-134.2543375315406
 30
0.0
 10
83.02645668497256
 20
-134.2543375315406
 30
0.0
 10
82.72397730136763
 20
-134.1485731001434
 30
0.0
 10
82.72397730136763
 20
-133.7423963424325
 30
0.0
 10
82.72397730136763
 20
-133.4230359909498
 30
0.0
 10
82.92275931086654
 20
-133.2028943894423
 30
0.0
 10
83.24005260505804
 20
-133.2028943894423
 30
0.0
 10
83.75406085145733
 20
-133.2028943894423
 30
0.0
 10
83.7647406474616
 20
-133.757210253019
 30
0.0
 10
83.7647406474616
 20
-133.9708061731045
 30
0.0
 10
83.7647406474616
 20
-134.2016275706163
 30
0.0
 10
83.7454481127442
 20
-134.846549445455
 30
0.0
 10
83.20181204517178
 20
-134.846549445455
 30
0.0
  0
SPLINE
  5
E1
330
DC
100
AcDbEntity
  8
_U+30EC_U+30A4_U+30E4_U+30FC 1
370
     0
100
AcDbSpline
210
0.0
220
0.0
230
1.0
 70
    11
 71
     3
 72
    17
 73
    13
 74
     0
 42
0.0000000001
 43
0.0000000001
 12
1.0
 22
0.0
 32
0.0
 13
1.0
 23
0.0
 33
0.0
 40
0.0
 40
0.0
 40
0.0
 40
0.0
 40
1.0
 40
1.0
 40
1.0
 40
2.0
 40
2.0
 40
2.0
 40
3.0
 40
3.0
 40
3.0
 40
4.0
 40
4.0
 40
4.0
 40
4.0
 10
83.2421196623492
 20
-133.3954752270678
 30
0.0
 10
83.1236083776566
 20
-133.3954752270678
 30
0.0
 10
82.94790850790886
 20
-133.4526638121229
 30
0.0
 10
82.94790850790886
 20
-133.7379177183016
 30
0.0
 10
82.94790850790886
 20
-133.9646050012311
 30
0.0
 10
83.08777938461
 20
-134.059689636624
 30
0.0
 10
83.22317163718033
 20
-134.059689636624
 30
0.0
 10
83.48534340360783
 20
-134.059689636624
 30
0.0
 10
83.5235839634941
 20
-133.8502278311208
 30
0.0
 10
83.5235839634941
 20
-133.7337836037193
 30
0.0
 10
83.5235839634941
 20
-133.5580837339716
 30
0.0
 10
83.42815481855268
 20
-133.3954752270678
 30
0.0
 10
83.2421196623492
 20
-133.3954752270678
 30
0.0
  0
HATCH
  5
E2
330
DC
100
AcDbEntity
  8
_U+30EC_U+30A4_U+30E4_U+30FC 1
 62
   179
420
  2234388
100
AcDbHatch
 10
0.0
 20
0.0
 30
0.0
210
0.0
220
0.0
230
1.0
  2
SOLID
 70
     1
 71
     0
 91
        2
 92
        1
 93
        1
 72
     4
 94
        3
 73
     0
 74
     1
 95
       32
 96
       28
 40
0.0
 40
0.0
 40
0.0
 40
0.0
 40
1.0
 40
1.0
 40
1.0
 40
2.0
 40
2.0
 40
2.0
 40
3.0
 40
3.0
 40
3.0
 40
4.0
 40
4.0
 40
4.0
 40
5.0
 40
5.0
 40
5.0
 40
6.0
 40
6.0
 40
6.0
 40
7.0
 40
7.0
 40
7.0
 40
8.0
 40
8.0
 40
8.0
 40
9.0
 40
9.0
 40
9.0
 40
9.0
 10
83.20181204517178
 20
-134.846549445455
 10
83.0285237422637
 20
-134.846549445455
 10
82.78288843416539
 20
-134.776958516653
 10
82.74499238382765
 20
-134.4448513118749
 10
82.74499238382765
 20
-134.4448513118749
 10
82.95858830391313
 20
-134.4448513118749
 10
82.95858830391313
 20
-134.4448513118749
 10
82.96926809991741
 20
-134.5041069542212
 10
83.00096297838171
 20
-134.652246060087
 10
83.20387910246292
 20
-134.652246060087
 10
83.49602319961211
 20
-134.652246060087
 10
83.53391924994986
 20
-134.3222059126
 10
83.54666610324529
 20
-134.1168782216791
 10
83.45571558243469
 20
-134.1971489464854
 10
83.38819171092379
 20
-134.2543375315406
 10
83.2062906693026
 20
-134.2543375315406
 10
83.02645668497256
 20
-134.2543375315406
 10
82.72397730136763
 20
-134.1485731001434
 10
82.72397730136763
 20
-133.7423963424325
 10
82.72397730136763
 20
-133.4230359909498
 10
82.92275931086654
 20
-133.2028943894423
 10
83.24005260505804
 20
-133.2028943894423
 10
83.75406085145733
 20
-133.2028943894423
 10
83.7647406474616
 20
-133.757210253019
 10
83.7647406474616
 20
-133.9708061731045
 10
83.7647406474616
 20
-134.2016275706163
 10
83.7454481127442
 20
-134.846549445455
 10
83.20181204517178
 20
-134.846549445455
 97
        0
 97
        0
 92
        1
 93
        1
 72
     4
 94
        3
 73
     0
 74
     1
 95
       17
 96
       13
 40
0.0
 40
0.0
 40
0.0
 40
0.0
 40
1.0
 40
1.0
 40
1.0
 40
2.0
 40
2.0
 40
2.0
 40
3.0
 40
3.0
 40
3.0
 40
4.0
 40
4.0
 40
4.0
 40
4.0
 10
83.2421196623492
 20
-133.3954752270678
 10
83.1236083776566
 20
-133.3954752270678
 10
82.94790850790886
 20
-133.4526638121229
 10
82.94790850790886
 20
-133.7379177183016
 10
82.94790850790886
 20
-133.9646050012311
 10
83.08777938461
 20
-134.059689636624
 10
83.22317163718033
 20
-134.059689636624
 10
83.48534340360783
 20
-134.059689636624
 10
83.5235839634941
 20
-133.8502278311208
 10
83.5235839634941
 20
-133.7337836037193
 10
83.5235839634941
 20
-133.5580837339716
 10
83.42815481855268
 20
-133.3954752270678
 10
83.2421196623492
 20
-133.3954752270678
 97
        0
 97
        0
 75
     2
 76
     1
 98
        0
  0
ENDBLK
  5
DF
330
DC
100
AcDbEntity
  8
0
100
AcDbBlockEnd
  0
BLOCK
  5
EE
330
EC
100
AcDbEntity
  8
0
100
AcDbBlockBegin
  2
block 7
 70
     0
 10
0.0
 20
0.0
 30
0.0
  3
block 7
  1

  0
SPLINE
  5
F0
330
EC
100
AcDbEntity
  8
_U+30EC_U+30A4_U+30E4_U+30FC 1
370
     0
100
AcDbSpline
210
0.0
220
0.0
230
1.0
 70
    11
 71
     3
 72
    53
 73
    49
 74
     0
 42
0.0000000001
 43
0.0000000001
 12
1.0
 22
0.0
 32
0.0
 13
1.0
 23
0.0
 33
0.0
 40
0.0
 40
0.0
 40
0.0
 40
0.0
 40
1.0
 40
1.0
 40
1.0
 40
2.0
 40
2.0
 40
2.0
 40
3.0
 40
3.0
 40
3.0
 40
4.0
 40
4.0
 40
4.0
 40
5.0
 40
5.0
 40
5.0
 40
6.0
 40
6.0
 40
6.0
 40
7.0
 40
7.0
 40
7.0
 40
8.0
 40
8.0
 40
8.0
 40
9.0
 40
9.0
 40
9.0
 40
10.0
 40
10.0
 40
10.0
 40
11.0
 40
11.0
 40
11.0
 40
12.0
 40
12.0
 40
12.0
 40
13.0
 40
13.0
 40
13.0
 40
14.0
 40
14.0
 40
14.0
 40
15.0
 40
15.0
 40
15.0
 40
16.0
 40
16.0
 40
16.0
 40
16.0
 10
97.62057017958792
 20
-146.7059461438791
 30
0.0
 10
97.54236651207275
 20
-146.7059461438791
 30
0.0
 10
97.44073619525787
 20
-146.6890651760013
 30
0.0
 10
97.33910587844301
 20
-146.6256754190728
 30
0.0
 10
97.16581757553494
 20
-146.5157768730933
 30
0.0
 10
97.1444579835264
 20
-146.3845187351053
 30
0.0
 10
97.12550995835751
 20
-146.2766872464169
 30
0.0
 10
97.12550995835751
 20
-146.2766872464169
 30
0.0
 10
97.34771861715613
 20
-146.2766872464169
 30
0.0
 10
97.34771861715613
 20
-146.2766872464169
 30
0.0
 10
97.40249563537161
 20
-146.4754692559159
 30
0.0
 10
97.52961965877732
 20
-146.505097077089
 30
0.0
 10
97.62263723687907
 20
-146.505097077089
 30
0.0
 10
97.76216360403168
 20
-146.505097077089
 30
0.0
 10
97.91443682447972
 20
-146.4055338175653
 30
0.0
 10
97.91443682447972
 20
-146.1729898723109
 30
0.0
 10
97.91443682447972
 20
-145.9170192777569
 30
0.0
 10
97.73460284014969
 20
-145.8474283489548
 30
0.0
 10
97.61402449816595
 20
-145.8474283489548
 30
0.0
 10
97.58232961970164
 20
-145.8474283489548
 30
0.0
 10
97.44073619525787
 20
-145.8474283489548
 30
0.0
 10
97.35185273173843
 20
-145.9762749201032
 30
0.0
 10
97.35185273173843
 20
-145.9762749201032
 30
0.0
 10
97.17615286199069
 20
-145.9569823853858
 30
0.0
 10
97.17615286199069
 20
-145.9569823853858
 30
0.0
 10
97.17615286199069
 20
-145.9569823853858
 30
0.0
 10
97.29673120397443
 20
-145.1108669342084
 30
0.0
 10
97.29673120397443
 20
-145.1108669342084
 30
0.0
 10
97.29673120397443
 20
-145.1108669342084
 30
0.0
 10
98.0753227836409
 20
-145.1108669342084
 30
0.0
 10
98.0753227836409
 20
-145.1108669342084
 30
0.0
 10
98.0753227836409
 20
-145.1108669342084
 30
0.0
 10
98.0753227836409
 20
-145.3058593386735
 30
0.0
 10
98.0753227836409
 20
-145.3058593386735
 30
0.0
 10
98.0753227836409
 20
-145.3058593386735
 30
0.0
 10
97.45968422042675
 20
-145.3058593386735
 30
0.0
 10
97.45968422042675
 20
-145.3058593386735
 30
0.0
 10
97.45968422042675
 20
-145.3058593386735
 30
0.0
 10
97.39422740620701
 20
-145.7289170642622
 30
0.0
 10
97.39422740620701
 20
-145.7289170642622
 30
0.0
 10
97.45555010584445
 20
-145.6948106189583
 30
0.0
 10
97.53788788794192
 20
-145.6545030017808
 30
0.0
 10
97.65639917263452
 20
-145.6545030017808
 30
0.0
 10
97.91030270989742
 20
-145.6545030017808
 30
0.0
 10
98.14732527928261
 20
-145.8408826675328
 30
0.0
 10
98.14732527928261
 20
-146.1540418471421
 30
0.0
 10
98.14732527928261
 20
-146.4713351413336
 30
0.0
 10
97.92304956319285
 20
-146.7059461438791
 30
0.0
 10
97.62057017958792
 20
-146.7059461438791
 30
0.0
  0
HATCH
  5
F1
330
EC
100
AcDbEntity
  8
_U+30EC_U+30A4_U+30E4_U+30FC 1
 62
   179
420
  2234388
100
AcDbHatch
 10
0.0
 20
0.0
 30
0.0
210
0.0
220
0.0
230
1.0
  2
SOLID
 70
     1
 71
     0
 91
        1
 92
        1
 93
        1
 72
     4
 94
        3
 73
     0
 74
     1
 95
       53
 96
       49
 40
0.0
 40
0.0
 40
0.0
 40
0.0
 40
1.0
 40
1.0
 40
1.0
 40
2.0
 40
2.0
 40
2.0
 40
3.0
 40
3.0
 40
3.0
 40
4.0
 40
4.0
 40
4.0
 40
5.0
 40
5.0
 40
5.0
 40
6.0
 40
6.0
 40
6.0
 40
7.0
 40
7.0
 40
7.0
 40
8.0
 40
8.0
 40
8.0
 40
9.0
 40
9.0
 40
9.0
 40
10.0
 40
10.0
 40
10.0
 40
11.0
 40
11.0
 40
11.0
 40
12.0
 40
12.0
 40
12.0
 40
13.0
 40
13.0
 40
13.0
 40
14.0
 40
14.0
 40
14.0
 40
15.0
 40
15.0
 40
15.0
 40
16.0
 40
16.0
 40
16.0
 40
16.0
 10
97.62057017958792
 20
-146.7059461438791
 10
97.54236651207275
 20
-146.7059461438791
 10
97.44073619525787
 20
-146.6890651760013
 10
97.33910587844301
 20
-146.6256754190728
 10
97.16581757553494
 20
-146.5157768730933
 10
97.1444579835264
 20
-146.3845187351053
 10
97.12550995835751
 20
-146.2766872464169
 10
97.12550995835751
 20
-146.2766872464169
 10
97.34771861715613
 20
-146.2766872464169
 10
97.34771861715613
 20
-146.2766872464169
 10
97.40249563537161
 20
-146.4754692559159
 10
97.52961965877732
 20
-146.505097077089
 10
97.62263723687907
 20
-146.505097077089
 10
97.76216360403168
 20
-146.505097077089
 10
97.91443682447972
 20
-146.4055338175653
 10
97.91443682447972
 20
-146.1729898723109
 10
97.91443682447972
 20
-145.9170192777569
 10
97.73460284014969
 20
-145.8474283489548
 10
97.61402449816595
 20
-145.8474283489548
 10
97.58232961970164
 20
-145.8474283489548
 10
97.44073619525787
 20
-145.8474283489548
 10
97.35185273173843
 20
-145.9762749201032
 10
97.35185273173843
 20
-145.9762749201032
 10
97.17615286199069
 20
-145.9569823853858
 10
97.17615286199069
 20
-145.9569823853858
 10
97.17615286199069
 20
-145.9569823853858
 10
97.29673120397443
 20
-145.1108669342084
 10
97.29673120397443
 20
-145.1108669342084
 10
97.29673120397443
 20
-145.1108669342084
 10
98.0753227836409
 20
-145.1108669342084
 10
98.0753227836409
 20
-145.1108669342084
 10
98.0753227836409
 20
-145.1108669342084
 10
98.0753227836409
 20
-145.3058593386735
 10
98.0753227836409
 20
-145.3058593386735
 10
98.0753227836409
 20
-145.3058593386735
 10
97.45968422042675
 20
-145.3058593386735
 10
97.45968422042675
 20
-145.3058593386735
 10
97.45968422042675
 20
-145.3058593386735
 10
97.39422740620701
 20
-145.7289170642622
 10
97.39422740620701
 20
-145.7289170642622
 10
97.45555010584445
 20
-145.6948106189583
 10
97.53788788794192
 20
-145.6545030017808
 10
97.65639917263452
 20
-145.6545030017808
 10
97.91030270989742
 20
-145.6545030017808
 10
98.14732527928261
 20
-145.8408826675328
 10
98.14732527928261
 20
-146.1540418471421
 10
98.14732527928261
 20
-146.4713351413336
 10
97.92304956319285
 20
-146.7059461438791
 10
97.62057017958792
 20
-146.7059461438791
 97
        0
 97
        0
 75
     2
 76
     1
 98
        0
  0
ENDBLK
  5
EF
330
EC
100
AcDbEntity
  8
0
100
AcDbBlockEnd
  0
BLOCK
  5
F4
330
F2
100
AcDbEntity
  8
0
100
AcDbBlockBegin
  2
block 8
 70
     0
 10
0.0
 20
0.0
 30
0.0
  3
block 8
  1

  0
SPLINE
  5
F6
330
F2
100
AcDbEntity
  8
_U+30EC_U+30A4_U+30E4_U+30FC 1
370
     0
100
AcDbSpline
210
0.0
220
0.0
230
1.0
 70
    11
 71
     3
 72
    26
 73
    22
 74
     0
 42
0.0000000001
 43
0.0000000001
 12
1.0
 22
0.0
 32
0.0
 13
1.0
 23
0.0
 33
0.0
 40
0.0
 40
0.0
 40
0.0
 40
0.0
 40
1.0
 40
1.0
 40
1.0
 40
2.0
 40
2.0
 40
2.0
 40
3.0
 40
3.0
 40
3.0
 40
4.0
 40
4.0
 40
4.0
 40
5.0
 40
5.0
 40
5.0
 40
6.0
 40
6.0
 40
6.0
 40
7.0
 40
7.0
 40
7.0
 40
7.0
 10
85.3298475264106
 20
-146.6553032402459
 30
0.0
 10
85.3298475264106
 20
-146.6553032402459
 30
0.0
 10
85.3298475264106
 20
-145.5511501372233
 30
0.0
 10
85.3298475264106
 20
-145.5511501372233
 30
0.0
 10
85.3298475264106
 20
-145.5511501372233
 30
0.0
 10
84.99980737892366
 20
-145.5511501372233
 30
0.0
 10
84.99980737892366
 20
-145.5511501372233
 30
0.0
 10
84.99980737892366
 20
-145.5511501372233
 30
0.0
 10
84.99980737892366
 20
-145.4030110313576
 30
0.0
 10
84.99980737892366
 20
-145.4030110313576
 30
0.0
 10
85.33191458370175
 20
-145.388197120771
 30
0.0
 10
85.37842337275262
 20
-145.2252441043187
 30
0.0
 10
85.40805119392577
 20
-145.1108669342084
 30
0.0
 10
85.40805119392577
 20
-145.1108669342084
 30
0.0
 10
85.55412324250037
 20
-145.1108669342084
 30
0.0
 10
85.55412324250037
 20
-145.1108669342084
 30
0.0
 10
85.55412324250037
 20
-145.1108669342084
 30
0.0
 10
85.55412324250037
 20
-146.6553032402459
 30
0.0
 10
85.55412324250037
 20
-146.6553032402459
 30
0.0
 10
85.55412324250037
 20
-146.6553032402459
 30
0.0
 10
85.3298475264106
 20
-146.6553032402459
 30
0.0
 10
85.3298475264106
 20
-146.6553032402459
 30
0.0
  0
HATCH
  5
F7
330
F2
100
AcDbEntity
  8
_U+30EC_U+30A4_U+30E4_U+30FC 1
 62
   179
420
  2234388
100
AcDbHatch
 10
0.0
 20
0.0
 30
0.0
210
0.0
220
0.0
230
1.0
  2
SOLID
 70
     1
 71
     0
 91
        1
 92
        1
 93
        1
 72
     4
 94
        3
 73
     0
 74
     1
 95
       26
 96
       22
 40
0.0
 40
0.0
 40
0.0
 40
0.0
 40
1.0
 40
1.0
 40
1.0
 40
2.0
 40
2.0
 40
2.0
 40
3.0
 40
3.0
 40
3.0
 40
4.0
 40
4.0
 40
4.0
 40
5.0
 40
5.0
 40
5.0
 40
6.0
 40
6.0
 40
6.0
 40
7.0
 40
7.0
 40
7.0
 40
7.0
 10
85.3298475264106
 20
-146.6553032402459
 10
85.3298475264106
 20
-146.6553032402459
 10
85.3298475264106
 20
-145.5511501372233
 10
85.3298475264106
 20
-145.5511501372233
 10
85.3298475264106
 20
-145.5511501372233
 10
84.99980737892366
 20
-145.5511501372233
 10
84.99980737892366
 20
-145.5511501372233
 10
84.99980737892366
 20
-145.5511501372233
 10
84.99980737892366
 20
-145.4030110313576
 10
84.99980737892366
 20
-145.4030110313576
 10
85.33191458370175
 20
-145.388197120771
 10
85.37842337275262
 20
-145.2252441043187
 10
85.40805119392577
 20
-145.1108669342084
 10
85.40805119392577
 20
-145.1108669342084
 10
85.55412324250037
 20
-145.1108669342084
 10
85.55412324250037
 20
-145.1108669342084
 10
85.55412324250037
 20
-145.1108669342084
 10
85.55412324250037
 20
-146.6553032402459
 10
85.55412324250037
 20
-146.6553032402459
 10
85.55412324250037
 20
-146.6553032402459
 10
85.3298475264106
 20
-146.6553032402459
 10
85.3298475264106
 20
-146.6553032402459
 97
        0
 97
        0
 75
     2
 76
     1
 98
        0
  0
SPLINE
  5
F8
330
F2
100
AcDbEntity
  8
_U+30EC_U+30A4_U+30E4_U+30FC 1
370
     0
100
AcDbSpline
210
0.0
220
0.0
230
1.0
 70
    11
 71
     3
 72
    26
 73
    22
 74
     0
 42
0.0000000001
 43
0.0000000001
 12
1.0
 22
0.0
 32
0.0
 13
1.0
 23
0.0
 33
0.0
 40
0.0
 40
0.0
 40
0.0
 40
0.0
 40
1.0
 40
1.0
 40
1.0
 40
2.0
 40
2.0
 40
2.0
 40
3.0
 40
3.0
 40
3.0
 40
4.0
 40
4.0
 40
4.0
 40
5.0
 40
5.0
 40
5.0
 40
6.0
 40
6.0
 40
6.0
 40
7.0
 40
7.0
 40
7.0
 40
7.0
 10
86.46638452699452
 20
-146.6553032402459
 30
0.0
 10
86.46638452699452
 20
-146.6553032402459
 30
0.0
 10
86.22936195760933
 20
-146.6553032402459
 30
0.0
 10
86.22936195760933
 20
-146.6553032402459
 30
0.0
 10
86.25485566420018
 20
-146.346278175219
 30
0.0
 10
86.44743650182565
 20
-145.8281358142374
 30
0.0
 10
86.8536132595366
 20
-145.3223957970027
 30
0.0
 10
86.8536132595366
 20
-145.3223957970027
 30
0.0
 10
86.01576603752385
 20
-145.3223957970027
 30
0.0
 10
86.01576603752385
 20
-145.3223957970027
 30
0.0
 10
86.01576603752385
 20
-145.3223957970027
 30
0.0
 10
86.01576603752385
 20
-145.1108669342084
 30
0.0
 10
86.01576603752385
 20
-145.1108669342084
 30
0.0
 10
86.01576603752385
 20
-145.1108669342084
 30
0.0
 10
87.09063582892179
 20
-145.1108669342084
 30
0.0
 10
87.09063582892179
 20
-145.1108669342084
 30
0.0
 10
87.09063582892179
 20
-145.1108669342084
 30
0.0
 10
87.09063582892179
 20
-145.3223957970027
 30
0.0
 10
87.09063582892179
 20
-145.3223957970027
 30
0.0
 10
86.7667968533083
 20
-145.6124728368608
 30
0.0
 10
86.50014646274997
 20
-146.2046847507752
 30
0.0
 10
86.46638452699452
 20
-146.6553032402459
 30
0.0
  0
HATCH
  5
F9
330
F2
100
AcDbEntity
  8
_U+30EC_U+30A4_U+30E4_U+30FC 1
 62
   179
420
  2234388
100
AcDbHatch
 10
0.0
 20
0.0
 30
0.0
210
0.0
220
0.0
230
1.0
  2
SOLID
 70
     1
 71
     0
 91
        1
 92
        1
 93
        1
 72
     4
 94
        3
 73
     0
 74
     1
 95
       26
 96
       22
 40
0.0
 40
0.0
 40
0.0
 40
0.0
 40
1.0
 40
1.0
 40
1.0
 40
2.0
 40
2.0
 40
2.0
 40
3.0
 40
3.0
 40
3.0
 40
4.0
 40
4.0
 40
4.0
 40
5.0
 40
5.0
 40
5.0
 40
6.0
 40
6.0
 40
6.0
 40
7.0
 40
7.0
 40
7.0
 40
7.0
 10
86.46638452699452
 20
-146.6553032402459
 10
86.46638452699452
 20
-146.6553032402459
 10
86.22936195760933
 20
-146.6553032402459
 10
86.22936195760933
 20
-146.6553032402459
 10
86.25485566420018
 20
-146.346278175219
 10
86.44743650182565
 20
-145.8281358142374
 10
86.8536132595366
 20
-145.3223957970027
 10
86.8536132595366
 20
-145.3223957970027
 10
86.01576603752385
 20
-145.3223957970027
 10
86.01576603752385
 20
-145.3223957970027
 10
86.01576603752385
 20
-145.3223957970027
 10
86.01576603752385
 20
-145.1108669342084
 10
86.01576603752385
 20
-145.1108669342084
 10
86.01576603752385
 20
-145.1108669342084
 10
87.09063582892179
 20
-145.1108669342084
 10
87.09063582892179
 20
-145.1108669342084
 10
87.09063582892179
 20
-145.1108669342084
 10
87.09063582892179
 20
-145.3223957970027
 10
87.09063582892179
 20
-145.3223957970027
 10
86.7667968533083
 20
-145.6124728368608
 10
86.50014646274997
 20
-146.2046847507752
 10
86.46638452699452
 20
-146.6553032402459
 97
        0
 97
        0
 75
     2
 76
     1
 98
        0
  0
POLYLINE
  5
FA
330
F2
100
AcDbEntity
  8
_U+30EC_U+30A4_U+30E4_U+30FC 1
370
     0
100
AcDb2dPolyline
 66
     1
 10
0.0
 20
0.0
 30
0.0
  0
VERTEX
  5
FB
330
FA
100
AcDbEntity
  8
_U+30EC_U+30A4_U+30E4_U+30FC 1
370
     0
100
AcDbVertex
100
AcDb2dVertex
 10
87.2921739148089
 20
-146.6553032402459
 30
0.0
  0
VERTEX
  5
FC
330
FA
100
AcDbEntity
  8
_U+30EC_U+30A4_U+30E4_U+30FC 1
370
     0
100
AcDbVertex
100
AcDb2dVertex
 10
87.2921739148089
 20
-146.4034667602741
 30
0.0
  0
VERTEX
  5
FD
330
FA
100
AcDbEntity
  8
_U+30EC_U+30A4_U+30E4_U+30FC 1
370
     0
100
AcDbVertex
100
AcDb2dVertex
 10
87.54401039478067
 20
-146.4034667602741
 30
0.0
  0
VERTEX
  5
FE
330
FA
100
AcDbEntity
  8
_U+30EC_U+30A4_U+30E4_U+30FC 1
370
     0
100
AcDbVertex
100
AcDb2dVertex
 10
87.54401039478067
 20
-146.6553032402459
 30
0.0
  0
VERTEX
  5
FF
330
FA
100
AcDbEntity
  8
_U+30EC_U+30A4_U+30E4_U+30FC 1
370
     0
100
AcDbVertex
100
AcDb2dVertex
 10
87.2921739148089
 20
-146.6553032402459
 30
0.0
  0
SEQEND
  5
100
330
FA
100
AcDbEntity
  8
_U+30EC_U+30A4_U+30E4_U+30FC 1
370
     0
  0
HATCH
  5
101
330
F2
100
AcDbEntity
  8
_U+30EC_U+30A4_U+30E4_U+30FC 1
 62
   179
420
  2234388
100
AcDbHatch
 10
0.0
 20
0.0
 30
0.0
210
0.0
220
0.0
230
1.0
  2
SOLID
 70
     1
 71
     0
 91
        1
 92
        1
 93
        4
 72
     1
 10
87.2921739148089
 20
-146.6553032402459
 11
87.2921739148089
 21
-146.4034667602741
 72
     1
 10
87.2921739148089
 20
-146.4034667602741
 11
87.54401039478067
 21
-146.4034667602741
 72
     1
 10
87.54401039478067
 20
-146.4034667602741
 11
87.54401039478067
 21
-146.6553032402459
 72
     1
 10
87.54401039478067
 20
-146.6553032402459
 11
87.2921739148089
 21
-146.6553032402459
 97
        0
 75
     2
 76
     1
 98
        0
  0
SPLINE
  5
102
330
F2
100
AcDbEntity
  8
_U+30EC_U+30A4_U+30E4_U+30FC 1
370
     0
100
AcDbSpline
210
0.0
220
0.0
230
1.0
 70
    11
 71
     3
 72
    53
 73
    49
 74
     0
 42
0.0000000001
 43
0.0000000001
 12
1.0
 22
0.0
 32
0.0
 13
1.0
 23
0.0
 33
0.0
 40
0.0
 40
0.0
 40
0.0
 40
0.0
 40
1.0
 40
1.0
 40
1.0
 40
2.0
 40
2.0
 40
2.0
 40
3.0
 40
3.0
 40
3.0
 40
4.0
 40
4.0
 40
4.0
 40
5.0
 40
5.0
 40
5.0
 40
6.0
 40
6.0
 40
6.0
 40
7.0
 40
7.0
 40
7.0
 40
8.0
 40
8.0
 40
8.0
 40
9.0
 40
9.0
 40
9.0
 40
10.0
 40
10.0
 40
10.0
 40
11.0
 40
11.0
 40
11.0
 40
12.0
 40
12.0
 40
12.0
 40
13.0
 40
13.0
 40
13.0
 40
14.0
 40
14.0
 40
14.0
 40
15.0
 40
15.0
 40
15.0
 40
16.0
 40
16.0
 40
16.0
 40
16.0
 10
88.26127927480968
 20
-146.7059461438791
 30
0.0
 10
88.18307560729451
 20
-146.7059461438791
 30
0.0
 10
88.08144529047965
 20
-146.6890651760013
 30
0.0
 10
87.97981497366477
 20
-146.6256754190728
 30
0.0
 10
87.80652667075671
 20
-146.5157768730933
 30
0.0
 10
87.78516707874816
 20
-146.3845187351053
 30
0.0
 10
87.76621905357928
 20
-146.2766872464169
 30
0.0
 10
87.76621905357928
 20
-146.2766872464169
 30
0.0
 10
87.9884277123779
 20
-146.2766872464169
 30
0.0
 10
87.9884277123779
 20
-146.2766872464169
 30
0.0
 10
88.04320473059337
 20
-146.4754692559159
 30
0.0
 10
88.17032875399909
 20
-146.505097077089
 30
0.0
 10
88.26334633210084
 20
-146.505097077089
 30
0.0
 10
88.40287269925345
 20
-146.505097077089
 30
0.0
 10
88.5551459197015
 20
-146.4055338175653
 30
0.0
 10
88.5551459197015
 20
-146.1729898723109
 30
0.0
 10
88.5551459197015
 20
-145.9170192777569
 30
0.0
 10
88.37531193537146
 20
-145.8474283489548
 30
0.0
 10
88.25473359338771
 20
-145.8474283489548
 30
0.0
 10
88.2230387149234
 20
-145.8474283489548
 30
0.0
 10
88.08144529047965
 20
-145.8474283489548
 30
0.0
 10
87.9925618269602
 20
-145.9762749201032
 30
0.0
 10
87.9925618269602
 20
-145.9762749201032
 30
0.0
 10
87.81686195721245
 20
-145.9569823853858
 30
0.0
 10
87.81686195721245
 20
-145.9569823853858
 30
0.0
 10
87.81686195721245
 20
-145.9569823853858
 30
0.0
 10
87.9374402991962
 20
-145.1108669342084
 30
0.0
 10
87.9374402991962
 20
-145.1108669342084
 30
0.0
 10
87.9374402991962
 20
-145.1108669342084
 30
0.0
 10
88.71603187886267
 20
-145.1108669342084
 30
0.0
 10
88.71603187886267
 20
-145.1108669342084
 30
0.0
 10
88.71603187886267
 20
-145.1108669342084
 30
0.0
 10
88.71603187886267
 20
-145.3058593386735
 30
0.0
 10
88.71603187886267
 20
-145.3058593386735
 30
0.0
 10
88.71603187886267
 20
-145.3058593386735
 30
0.0
 10
88.10039331564852
 20
-145.3058593386735
 30
0.0
 10
88.10039331564852
 20
-145.3058593386735
 30
0.0
 10
88.10039331564852
 20
-145.3058593386735
 30
0.0
 10
88.03493650142877
 20
-145.7289170642622
 30
0.0
 10
88.03493650142877
 20
-145.7289170642622
 30
0.0
 10
88.09625920106622
 20
-145.6948106189583
 30
0.0
 10
88.17859698316369
 20
-145.6545030017808
 30
0.0
 10
88.29710826785629
 20
-145.6545030017808
 30
0.0
 10
88.5510118051192
 20
-145.6545030017808
 30
0.0
 10
88.78803437450438
 20
-145.8408826675328
 30
0.0
 10
88.78803437450438
 20
-146.1540418471421
 30
0.0
 10
88.78803437450438
 20
-146.4713351413336
 30
0.0
 10
88.56375865841461
 20
-146.7059461438791
 30
0.0
 10
88.26127927480968
 20
-146.7059461438791
 30
0.0
  0
HATCH
  5
103
330
F2
100
AcDbEntity
  8
_U+30EC_U+30A4_U+30E4_U+30FC 1
 62
   179
420
  2234388
100
AcDbHatch
 10
0.0
 20
0.0
 30
0.0
210
0.0
220
0.0
230
1.0
  2
SOLID
 70
     1
 71
     0
 91
        1
 92
        1
 93
        1
 72
     4
 94
        3
 73
     0
 74
     1
 95
       53
 96
       49
 40
0.0
 40
0.0
 40
0.0
 40
0.0
 40
1.0
 40
1.0
 40
1.0
 40
2.0
 40
2.0
 40
2.0
 40
3.0
 40
3.0
 40
3.0
 40
4.0
 40
4.0
 40
4.0
 40
5.0
 40
5.0
 40
5.0
 40
6.0
 40
6.0
 40
6.0
 40
7.0
 40
7.0
 40
7.0
 40
8.0
 40
8.0
 40
8.0
 40
9.0
 40
9.0
 40
9.0
 40
10.0
 40
10.0
 40
10.0
 40
11.0
 40
11.0
 40
11.0
 40
12.0
 40
12.0
 40
12.0
 40
13.0
 40
13.0
 40
13.0
 40
14.0
 40
14.0
 40
14.0
 40
15.0
 40
15.0
 40
15.0
 40
16.0
 40
16.0
 40
16.0
 40
16.0
 10
88.26127927480968
 20
-146.7059461438791
 10
88.18307560729451
 20
-146.7059461438791
 10
88.08144529047965
 20
-146.6890651760013
 10
87.97981497366477
 20
-146.6256754190728
 10
87.80652667075671
 20
-146.5157768730933
 10
87.78516707874816
 20
-146.3845187351053
 10
87.76621905357928
 20
-146.2766872464169
 10
87.76621905357928
 20
-146.2766872464169
 10
87.9884277123779
 20
-146.2766872464169
 10
87.9884277123779
 20
-146.2766872464169
 10
88.04320473059337
 20
-146.4754692559159
 10
88.17032875399909
 20
-146.505097077089
 10
88.26334633210084
 20
-146.505097077089
 10
88.40287269925345
 20
-146.505097077089
 10
88.5551459197015
 20
-146.4055338175653
 10
88.5551459197015
 20
-146.1729898723109
 10
88.5551459197015
 20
-145.9170192777569
 10
88.37531193537146
 20
-145.8474283489548
 10
88.25473359338771
 20
-145.8474283489548
 10
88.2230387149234
 20
-145.8474283489548
 10
88.08144529047965
 20
-145.8474283489548
 10
87.9925618269602
 20
-145.9762749201032
 10
87.9925618269602
 20
-145.9762749201032
 10
87.81686195721245
 20
-145.9569823853858
 10
87.81686195721245
 20
-145.9569823853858
 10
87.81686195721245
 20
-145.9569823853858
 10
87.9374402991962
 20
-145.1108669342084
 10
87.9374402991962
 20
-145.1108669342084
 10
87.9374402991962
 20
-145.1108669342084
 10
88.71603187886267
 20
-145.1108669342084
 10
88.71603187886267
 20
-145.1108669342084
 10
88.71603187886267
 20
-145.1108669342084
 10
88.71603187886267
 20
-145.3058593386735
 10
88.71603187886267
 20
-145.3058593386735
 10
88.71603187886267
 20
-145.3058593386735
 10
88.10039331564852
 20
-145.3058593386735
 10
88.10039331564852
 20
-145.3058593386735
 10
88.10039331564852
 20
-145.3058593386735
 10
88.03493650142877
 20
-145.7289170642622
 10
88.03493650142877
 20
-145.7289170642622
 10
88.09625920106622
 20
-145.6948106189583
 10
88.17859698316369
 20
-145.6545030017808
 10
88.29710826785629
 20
-145.6545030017808
 10
88.5510118051192
 20
-145.6545030017808
 10
88.78803437450438
 20
-145.8408826675328
 10
88.78803437450438
 20
-146.1540418471421
 10
88.78803437450438
 20
-146.4713351413336
 10
88.56375865841461
 20
-146.7059461438791
 10
88.26127927480968
 20
-146.7059461438791
 97
        0
 97
        0
 75
     2
 76
     1
 98
        0
  0
ENDBLK
  5
F5
330
F2
100
AcDbEntity
  8
0
100
AcDbBlockEnd
  0
BLOCK
  5
11E
330
11C
100
AcDbEntity
  8
0
100
AcDbBlockBegin
  2
block 9
 70
     0
 10
0.0
 20
0.0
 30
0.0
  3
block 9
  1

  0
SPLINE
  5
120
330
11C
100
AcDbEntity
  8
_U+30EC_U+30A4_U+30E4_U+30FC 1
370
     0
100
AcDbSpline
210
0.0
220
0.0
230
1.0
 70
    11
 71
     3
 72
    53
 73
    49
 74
     0
 42
0.0000000001
 43
0.0000000001
 12
1.0
 22
0.0
 32
0.0
 13
1.0
 23
0.0
 33
0.0
 40
0.0
 40
0.0
 40
0.0
 40
0.0
 40
1.0
 40
1.0
 40
1.0
 40
2.0
 40
2.0
 40
2.0
 40
3.0
 40
3.0
 40
3.0
 40
4.0
 40
4.0
 40
4.0
 40
5.0
 40
5.0
 40
5.0
 40
6.0
 40
6.0
 40
6.0
 40
7.0
 40
7.0
 40
7.0
 40
8.0
 40
8.0
 40
8.0
 40
9.0
 40
9.0
 40
9.0
 40
10.0
 40
10.0
 40
10.0
 40
11.0
 40
11.0
 40
11.0
 40
12.0
 40
12.0
 40
12.0
 40
13.0
 40
13.0
 40
13.0
 40
14.0
 40
14.0
 40
14.0
 40
15.0
 40
15.0
 40
15.0
 40
16.0
 40
16.0
 40
16.0
 40
16.0
 10
86.75026039497911
 20
-124.2644218981874
 30
0.0
 10
86.67205672746394
 20
-124.2644218981874
 30
0.0
 10
86.57042641064906
 20
-124.2473686755354
 30
0.0
 10
86.4687960938342
 20
-124.1839789186068
 30
0.0
 10
86.29550779092612
 20
-124.0739081178531
 30
0.0
 10
86.27414819891757
 20
-123.9428222346393
 30
0.0
 10
86.2552001737487
 20
-123.834990745951
 30
0.0
 10
86.2552001737487
 20
-123.834990745951
 30
0.0
 10
86.47740883254731
 20
-123.834990745951
 30
0.0
 10
86.47740883254731
 20
-123.834990745951
 30
0.0
 10
86.53218585076279
 20
-124.0337727554499
 30
0.0
 10
86.65930987416851
 20
-124.063400576623
 30
0.0
 10
86.75232745227025
 20
-124.063400576623
 30
0.0
 10
86.89185381942288
 20
-124.063400576623
 30
0.0
 10
87.04412703987092
 20
-123.9640095718736
 30
0.0
 10
87.04412703987092
 20
-123.731293371845
 30
0.0
 10
87.04412703987092
 20
-123.4753227772909
 30
0.0
 10
86.86429305554087
 20
-123.4055595937146
 30
0.0
 10
86.74371471355713
 20
-123.4055595937146
 30
0.0
 10
86.71201983509283
 20
-123.4055595937146
 30
0.0
 10
86.57042641064906
 20
-123.4055595937146
 30
0.0
 10
86.48154294712961
 20
-123.5345784196372
 30
0.0
 10
86.48154294712961
 20
-123.5345784196372
 30
0.0
 10
86.30584307738188
 20
-123.5154581396941
 30
0.0
 10
86.30584307738188
 20
-123.5154581396941
 30
0.0
 10
86.30584307738188
 20
-123.5154581396941
 30
0.0
 10
86.42642141936562
 20
-122.6693426885167
 30
0.0
 10
86.42642141936562
 20
-122.6693426885167
 30
0.0
 10
86.42642141936562
 20
-122.6693426885167
 30
0.0
 10
87.20501299903208
 20
-122.6693426885167
 30
0.0
 10
87.20501299903208
 20
-122.6693426885167
 30
0.0
 10
87.20501299903208
 20
-122.6693426885167
 30
0.0
 10
87.20501299903208
 20
-122.8639905834333
 30
0.0
 10
87.20501299903208
 20
-122.8639905834333
 30
0.0
 10
87.20501299903208
 20
-122.8639905834333
 30
0.0
 10
86.58937443581794
 20
-122.8639905834333
 30
0.0
 10
86.58937443581794
 20
-122.8639905834333
 30
0.0
 10
86.58937443581794
 20
-122.8639905834333
 30
0.0
 10
86.52391762159819
 20
-123.287048309022
 30
0.0
 10
86.52391762159819
 20
-123.287048309022
 30
0.0
 10
86.58524032123564
 20
-123.2531141184923
 30
0.0
 10
86.66757810333311
 20
-123.2129787560891
 30
0.0
 10
86.7860893880257
 20
-123.2129787560891
 30
0.0
 10
87.03999292528862
 20
-123.2129787560891
 30
0.0
 10
87.2770154946738
 20
-123.3991861670669
 30
0.0
 10
87.2770154946738
 20
-123.7121730919018
 30
0.0
 10
87.2770154946738
 20
-124.0296386408676
 30
0.0
 10
87.05273977858404
 20
-124.2644218981874
 30
0.0
 10
86.75026039497911
 20
-124.2644218981874
 30
0.0
  0
HATCH
  5
121
330
11C
100
AcDbEntity
  8
_U+30EC_U+30A4_U+30E4_U+30FC 1
 62
   179
420
  2234388
100
AcDbHatch
 10
0.0
 20
0.0
 30
0.0
210
0.0
220
0.0
230
1.0
  2
SOLID
 70
     1
 71
     0
 91
        1
 92
        1
 93
        1
 72
     4
 94
        3
 73
     0
 74
     1
 95
       53
 96
       49
 40
0.0
 40
0.0
 40
0.0
 40
0.0
 40
1.0
 40
1.0
 40
1.0
 40
2.0
 40
2.0
 40
2.0
 40
3.0
 40
3.0
 40
3.0
 40
4.0
 40
4.0
 40
4.0
 40
5.0
 40
5.0
 40
5.0
 40
6.0
 40
6.0
 40
6.0
 40
7.0
 40
7.0
 40
7.0
 40
8.0
 40
8.0
 40
8.0
 40
9.0
 40
9.0
 40
9.0
 40
10.0
 40
10.0
 40
10.0
 40
11.0
 40
11.0
 40
11.0
 40
12.0
 40
12.0
 40
12.0
 40
13.0
 40
13.0
 40
13.0
 40
14.0
 40
14.0
 40
14.0
 40
15.0
 40
15.0
 40
15.0
 40
16.0
 40
16.0
 40
16.0
 40
16.0
 10
86.75026039497911
 20
-124.2644218981874
 10
86.67205672746394
 20
-124.2644218981874
 10
86.57042641064906
 20
-124.2473686755354
 10
86.4687960938342
 20
-124.1839789186068
 10
86.29550779092612
 20
-124.0739081178531
 10
86.27414819891757
 20
-123.9428222346393
 10
86.2552001737487
 20
-123.834990745951
 10
86.2552001737487
 20
-123.834990745951
 10
86.47740883254731
 20
-123.834990745951
 10
86.47740883254731
 20
-123.834990745951
 10
86.53218585076279
 20
-124.0337727554499
 10
86.65930987416851
 20
-124.063400576623
 10
86.75232745227025
 20
-124.063400576623
 10
86.89185381942288
 20
-124.063400576623
 10
87.04412703987092
 20
-123.9640095718736
 10
87.04412703987092
 20
-123.731293371845
 10
87.04412703987092
 20
-123.4753227772909
 10
86.86429305554087
 20
-123.4055595937146
 10
86.74371471355713
 20
-123.4055595937146
 10
86.71201983509283
 20
-123.4055595937146
 10
86.57042641064906
 20
-123.4055595937146
 10
86.48154294712961
 20
-123.5345784196372
 10
86.48154294712961
 20
-123.5345784196372
 10
86.30584307738188
 20
-123.5154581396941
 10
86.30584307738188
 20
-123.5154581396941
 10
86.30584307738188
 20
-123.5154581396941
 10
86.42642141936562
 20
-122.6693426885167
 10
86.42642141936562
 20
-122.6693426885167
 10
86.42642141936562
 20
-122.6693426885167
 10
87.20501299903208
 20
-122.6693426885167
 10
87.20501299903208
 20
-122.6693426885167
 10
87.20501299903208
 20
-122.6693426885167
 10
87.20501299903208
 20
-122.8639905834333
 10
87.20501299903208
 20
-122.8639905834333
 10
87.20501299903208
 20
-122.8639905834333
 10
86.58937443581794
 20
-122.8639905834333
 10
86.58937443581794
 20
-122.8639905834333
 10
86.58937443581794
 20
-122.8639905834333
 10
86.52391762159819
 20
-123.287048309022
 10
86.52391762159819
 20
-123.287048309022
 10
86.58524032123564
 20
-123.2531141184923
 10
86.66757810333311
 20
-123.2129787560891
 10
86.7860893880257
 20
-123.2129787560891
 10
87.03999292528862
 20
-123.2129787560891
 10
87.2770154946738
 20
-123.3991861670669
 10
87.2770154946738
 20
-123.7121730919018
 10
87.2770154946738
 20
-124.0296386408676
 10
87.05273977858404
 20
-124.2644218981874
 10
86.75026039497911
 20
-124.2644218981874
 97
        0
 97
        0
 75
     2
 76
     1
 98
        0
  0
POLYLINE
  5
122
330
11C
100
AcDbEntity
  8
_U+30EC_U+30A4_U+30E4_U+30FC 1
370
     0
100
AcDb2dPolyline
 66
     1
 10
0.0
 20
0.0
 30
0.0
  0
VERTEX
  5
123
330
122
100
AcDbEntity
  8
_U+30EC_U+30A4_U+30E4_U+30FC 1
370
     0
100
AcDbVertex
100
AcDb2dVertex
 10
87.50611434444292
 20
-124.2136067397799
 30
0.0
  0
VERTEX
  5
124
330
122
100
AcDbEntity
  8
_U+30EC_U+30A4_U+30E4_U+30FC 1
370
     0
100
AcDbVertex
100
AcDb2dVertex
 10
87.50611434444292
 20
-123.9619425145824
 30
0.0
  0
VERTEX
  5
125
330
122
100
AcDbEntity
  8
_U+30EC_U+30A4_U+30E4_U+30FC 1
370
     0
100
AcDbVertex
100
AcDb2dVertex
 10
87.75795082441468
 20
-123.9619425145824
 30
0.0
  0
VERTEX
  5
126
330
122
100
AcDbEntity
  8
_U+30EC_U+30A4_U+30E4_U+30FC 1
370
     0
100
AcDbVertex
100
AcDb2dVertex
 10
87.75795082441468
 20
-124.2136067397799
 30
0.0
  0
VERTEX
  5
127
330
122
100
AcDbEntity
  8
_U+30EC_U+30A4_U+30E4_U+30FC 1
370
     0
100
AcDbVertex
100
AcDb2dVertex
 10
87.50611434444292
 20
-124.2136067397799
 30
0.0
  0
SEQEND
  5
128
330
122
100
AcDbEntity
  8
_U+30EC_U+30A4_U+30E4_U+30FC 1
370
     0
  0
HATCH
  5
129
330
11C
100
AcDbEntity
  8
_U+30EC_U+30A4_U+30E4_U+30FC 1
 62
   179
420
  2234388
100
AcDbHatch
 10
0.0
 20
0.0
 30
0.0
210
0.0
220
0.0
230
1.0
  2
SOLID
 70
     1
 71
     0
 91
        1
 92
        1
 93
        4
 72
     1
 10
87.50611434444292
 20
-124.2136067397799
 11
87.50611434444292
 21
-123.9619425145824
 72
     1
 10
87.50611434444292
 20
-123.9619425145824
 11
87.75795082441468
 21
-123.9619425145824
 72
     1
 10
87.75795082441468
 20
-123.9619425145824
 11
87.75795082441468
 21
-124.2136067397799
 72
     1
 10
87.75795082441468
 20
-124.2136067397799
 11
87.50611434444292
 21
-124.2136067397799
 97
        0
 75
     2
 76
     1
 98
        0
  0
SPLINE
  5
12A
330
11C
100
AcDbEntity
  8
_U+30EC_U+30A4_U+30E4_U+30FC 1
370
     0
100
AcDbSpline
210
0.0
220
0.0
230
1.0
 70
    11
 71
     3
 72
    44
 73
    40
 74
     0
 42
0.0000000001
 43
0.0000000001
 12
1.0
 22
0.0
 32
0.0
 13
1.0
 23
0.0
 33
0.0
 40
0.0
 40
0.0
 40
0.0
 40
0.0
 40
1.0
 40
1.0
 40
1.0
 40
2.0
 40
2.0
 40
2.0
 40
3.0
 40
3.0
 40
3.0
 40
4.0
 40
4.0
 40
4.0
 40
5.0
 40
5.0
 40
5.0
 40
6.0
 40
6.0
 40
6.0
 40
7.0
 40
7.0
 40
7.0
 40
8.0
 40
8.0
 40
8.0
 40
9.0
 40
9.0
 40
9.0
 40
10.0
 40
10.0
 40
10.0
 40
11.0
 40
11.0
 40
11.0
 40
12.0
 40
12.0
 40
12.0
 40
13.0
 40
13.0
 40
13.0
 40
13.0
 10
88.58718530771432
 20
-123.6319023670955
 30
0.0
 10
88.36945527304653
 20
-123.7905490141913
 30
0.0
 10
88.27643769494479
 20
-123.8646185671241
 30
0.0
 10
88.22751733905423
 20
-124.0084513036333
 30
0.0
 10
88.22751733905423
 20
-124.0084513036333
 30
0.0
 10
89.0061089187207
 20
-124.0084513036333
 30
0.0
 10
89.0061089187207
 20
-124.0084513036333
 30
0.0
 10
89.0061089187207
 20
-124.0084513036333
 30
0.0
 10
89.0061089187207
 20
-124.2136067397799
 30
0.0
 10
89.0061089187207
 20
-124.2136067397799
 30
0.0
 10
89.0061089187207
 20
-124.2136067397799
 30
0.0
 10
87.97809242592214
 20
-124.2136067397799
 30
0.0
 10
87.97809242592214
 20
-124.2136067397799
 30
0.0
 10
88.00978730438645
 20
-123.856005828411
 30
0.0
 10
88.0752441186062
 20
-123.7778021608958
 30
0.0
 10
88.46040579385712
 20
-123.4794568918732
 30
0.0
 10
88.71637638841119
 20
-123.2806748823743
 30
0.0
 10
88.78183320263093
 20
-123.2129787560891
 30
0.0
 10
88.78183320263093
 20
-123.0755194462277
 30
0.0
 10
88.78183320263093
 20
-122.9570081615351
 30
0.0
 10
88.70983070698921
 20
-122.8259222783213
 30
0.0
 10
88.51311575478145
 20
-122.8259222783213
 30
0.0
 10
88.25301104564508
 20
-122.8259222783213
 30
0.0
 10
88.24439830693196
 20
-123.0563991662845
 30
0.0
 10
88.24026419234966
 20
-123.172843393686
 30
0.0
 10
88.24026419234966
 20
-123.172843393686
 30
0.0
 10
88.01598847625989
 20
-123.172843393686
 30
0.0
 10
88.01598847625989
 20
-123.172843393686
 30
0.0
 10
88.02460121497302
 20
-123.0458916250545
 30
0.0
 10
88.0352810109773
 20
-122.9337537670096
 30
0.0
 10
88.11555173578361
 20
-122.815242482317
 30
0.0
 10
88.22545028176309
 20
-122.6545287779301
 30
0.0
 10
88.4118299475151
 20
-122.6205945874004
 30
0.0
 10
88.52792966536802
 20
-122.6205945874004
 30
0.0
 10
88.80525985193063
 20
-122.6205945874004
 30
0.0
 10
89.01265460014267
 20
-122.804734941087
 30
0.0
 10
89.01265460014267
 20
-123.0775865035188
 30
0.0
 10
89.01265460014267
 20
-123.3059963341909
 30
0.0
 10
88.89621037274122
 20
-123.4055595937146
 30
0.0
 10
88.58718530771432
 20
-123.6319023670955
 30
0.0
  0
HATCH
  5
12B
330
11C
100
AcDbEntity
  8
_U+30EC_U+30A4_U+30E4_U+30FC 1
 62
   179
420
  2234388
100
AcDbHatch
 10
0.0
 20
0.0
 30
0.0
210
0.0
220
0.0
230
1.0
  2
SOLID
 70
     1
 71
     0
 91
        1
 92
        1
 93
        1
 72
     4
 94
        3
 73
     0
 74
     1
 95
       44
 96
       40
 40
0.0
 40
0.0
 40
0.0
 40
0.0
 40
1.0
 40
1.0
 40
1.0
 40
2.0
 40
2.0
 40
2.0
 40
3.0
 40
3.0
 40
3.0
 40
4.0
 40
4.0
 40
4.0
 40
5.0
 40
5.0
 40
5.0
 40
6.0
 40
6.0
 40
6.0
 40
7.0
 40
7.0
 40
7.0
 40
8.0
 40
8.0
 40
8.0
 40
9.0
 40
9.0
 40
9.0
 40
10.0
 40
10.0
 40
10.0
 40
11.0
 40
11.0
 40
11.0
 40
12.0
 40
12.0
 40
12.0
 40
13.0
 40
13.0
 40
13.0
 40
13.0
 10
88.58718530771432
 20
-123.6319023670955
 10
88.36945527304653
 20
-123.7905490141913
 10
88.27643769494479
 20
-123.8646185671241
 10
88.22751733905423
 20
-124.0084513036333
 10
88.22751733905423
 20
-124.0084513036333
 10
89.0061089187207
 20
-124.0084513036333
 10
89.0061089187207
 20
-124.0084513036333
 10
89.0061089187207
 20
-124.0084513036333
 10
89.0061089187207
 20
-124.2136067397799
 10
89.0061089187207
 20
-124.2136067397799
 10
89.0061089187207
 20
-124.2136067397799
 10
87.97809242592214
 20
-124.2136067397799
 10
87.97809242592214
 20
-124.2136067397799
 10
88.00978730438645
 20
-123.856005828411
 10
88.0752441186062
 20
-123.7778021608958
 10
88.46040579385712
 20
-123.4794568918732
 10
88.71637638841119
 20
-123.2806748823743
 10
88.78183320263093
 20
-123.2129787560891
 10
88.78183320263093
 20
-123.0755194462277
 10
88.78183320263093
 20
-122.9570081615351
 10
88.70983070698921
 20
-122.8259222783213
 10
88.51311575478145
 20
-122.8259222783213
 10
88.25301104564508
 20
-122.8259222783213
 10
88.24439830693196
 20
-123.0563991662845
 10
88.24026419234966
 20
-123.172843393686
 10
88.24026419234966
 20
-123.172843393686
 10
88.01598847625989
 20
-123.172843393686
 10
88.01598847625989
 20
-123.172843393686
 10
88.02460121497302
 20
-123.0458916250545
 10
88.0352810109773
 20
-122.9337537670096
 10
88.11555173578361
 20
-122.815242482317
 10
88.22545028176309
 20
-122.6545287779301
 10
88.4118299475151
 20
-122.6205945874004
 10
88.52792966536802
 20
-122.6205945874004
 10
88.80525985193063
 20
-122.6205945874004
 10
89.01265460014267
 20
-122.804734941087
 10
89.01265460014267
 20
-123.0775865035188
 10
89.01265460014267
 20
-123.3059963341909
 10
88.89621037274122
 20
-123.4055595937146
 10
88.58718530771432
 20
-123.6319023670955
 97
        0
 97
        0
 75
     2
 76
     1
 98
        0
  0
ENDBLK
  5
11F
330
11C
100
AcDbEntity
  8
0
100
AcDbBlockEnd
  0
BLOCK
  5
12E
330
12C
100
AcDbEntity
  8
0
100
AcDbBlockBegin
  2
block 10
 70
     0
 10
0.0
 20
0.0
 30
0.0
  3
block 10
  1

  0
SPLINE
  5
130
330
12C
100
AcDbEntity
  8
_U+30EC_U+30A4_U+30E4_U+30FC 1
370
     0
100
AcDbSpline
210
0.0
220
0.0
230
1.0
 70
    11
 71
     3
 72
    26
 73
    22
 74
     0
 42
0.0000000001
 43
0.0000000001
 12
1.0
 22
0.0
 32
0.0
 13
1.0
 23
0.0
 33
0.0
 40
0.0
 40
0.0
 40
0.0
 40
0.0
 40
1.0
 40
1.0
 40
1.0
 40
2.0
 40
2.0
 40
2.0
 40
3.0
 40
3.0
 40
3.0
 40
4.0
 40
4.0
 40
4.0
 40
5.0
 40
5.0
 40
5.0
 40
6.0
 40
6.0
 40
6.0
 40
7.0
 40
7.0
 40
7.0
 40
7.0
 10
80.28243813097106
 20
-137.3983316713796
 30
0.0
 10
80.28243813097106
 20
-137.3983316713796
 30
0.0
 10
80.28243813097106
 20
-136.294178568357
 30
0.0
 10
80.28243813097106
 20
-136.294178568357
 30
0.0
 10
80.28243813097106
 20
-136.294178568357
 30
0.0
 10
79.95239798348413
 20
-136.294178568357
 30
0.0
 10
79.95239798348413
 20
-136.294178568357
 30
0.0
 10
79.95239798348413
 20
-136.294178568357
 30
0.0
 10
79.95239798348413
 20
-136.1460394624913
 30
0.0
 10
79.95239798348413
 20
-136.1460394624913
 30
0.0
 10
80.28450518826222
 20
-136.1312255519047
 30
0.0
 10
80.33101397731308
 20
-135.9682725354524
 30
0.0
 10
80.36064179848623
 20
-135.8538953653421
 30
0.0
 10
80.36064179848623
 20
-135.8538953653421
 30
0.0
 10
80.50671384706082
 20
-135.8538953653421
 30
0.0
 10
80.50671384706082
 20
-135.8538953653421
 30
0.0
 10
80.50671384706082
 20
-135.8538953653421
 30
0.0
 10
80.50671384706082
 20
-137.3983316713796
 30
0.0
 10
80.50671384706082
 20
-137.3983316713796
 30
0.0
 10
80.50671384706082
 20
-137.3983316713796
 30
0.0
 10
80.28243813097106
 20
-137.3983316713796
 30
0.0
 10
80.28243813097106
 20
-137.3983316713796
 30
0.0
  0
HATCH
  5
131
330
12C
100
AcDbEntity
  8
_U+30EC_U+30A4_U+30E4_U+30FC 1
 62
   179
420
  2234388
100
AcDbHatch
 10
0.0
 20
0.0
 30
0.0
210
0.0
220
0.0
230
1.0
  2
SOLID
 70
     1
 71
     0
 91
        1
 92
        1
 93
        1
 72
     4
 94
        3
 73
     0
 74
     1
 95
       26
 96
       22
 40
0.0
 40
0.0
 40
0.0
 40
0.0
 40
1.0
 40
1.0
 40
1.0
 40
2.0
 40
2.0
 40
2.0
 40
3.0
 40
3.0
 40
3.0
 40
4.0
 40
4.0
 40
4.0
 40
5.0
 40
5.0
 40
5.0
 40
6.0
 40
6.0
 40
6.0
 40
7.0
 40
7.0
 40
7.0
 40
7.0
 10
80.28243813097106
 20
-137.3983316713796
 10
80.28243813097106
 20
-137.3983316713796
 10
80.28243813097106
 20
-136.294178568357
 10
80.28243813097106
 20
-136.294178568357
 10
80.28243813097106
 20
-136.294178568357
 10
79.95239798348413
 20
-136.294178568357
 10
79.95239798348413
 20
-136.294178568357
 10
79.95239798348413
 20
-136.294178568357
 10
79.95239798348413
 20
-136.1460394624913
 10
79.95239798348413
 20
-136.1460394624913
 10
80.28450518826222
 20
-136.1312255519047
 10
80.33101397731308
 20
-135.9682725354524
 10
80.36064179848623
 20
-135.8538953653421
 10
80.36064179848623
 20
-135.8538953653421
 10
80.50671384706082
 20
-135.8538953653421
 10
80.50671384706082
 20
-135.8538953653421
 10
80.50671384706082
 20
-135.8538953653421
 10
80.50671384706082
 20
-137.3983316713796
 10
80.50671384706082
 20
-137.3983316713796
 10
80.50671384706082
 20
-137.3983316713796
 10
80.28243813097106
 20
-137.3983316713796
 10
80.28243813097106
 20
-137.3983316713796
 97
        0
 97
        0
 75
     2
 76
     1
 98
        0
  0
POLYLINE
  5
132
330
12C
100
AcDbEntity
  8
_U+30EC_U+30A4_U+30E4_U+30FC 1
370
     0
100
AcDb2dPolyline
 66
     1
 10
0.0
 20
0.0
 30
0.0
  0
VERTEX
  5
133
330
132
100
AcDbEntity
  8
_U+30EC_U+30A4_U+30E4_U+30FC 1
370
     0
100
AcDbVertex
100
AcDb2dVertex
 10
81.06791990160802
 20
-137.3983316713796
 30
0.0
  0
VERTEX
  5
134
330
132
100
AcDbEntity
  8
_U+30EC_U+30A4_U+30E4_U+30FC 1
370
     0
100
AcDbVertex
100
AcDb2dVertex
 10
81.06791990160802
 20
-137.1464951914078
 30
0.0
  0
VERTEX
  5
135
330
132
100
AcDbEntity
  8
_U+30EC_U+30A4_U+30E4_U+30FC 1
370
     0
100
AcDbVertex
100
AcDb2dVertex
 10
81.3197563815798
 20
-137.1464951914078
 30
0.0
  0
VERTEX
  5
136
330
132
100
AcDbEntity
  8
_U+30EC_U+30A4_U+30E4_U+30FC 1
370
     0
100
AcDbVertex
100
AcDb2dVertex
 10
81.3197563815798
 20
-137.3983316713796
 30
0.0
  0
VERTEX
  5
137
330
132
100
AcDbEntity
  8
_U+30EC_U+30A4_U+30E4_U+30FC 1
370
     0
100
AcDbVertex
100
AcDb2dVertex
 10
81.06791990160802
 20
-137.3983316713796
 30
0.0
  0
SEQEND
  5
138
330
132
100
AcDbEntity
  8
_U+30EC_U+30A4_U+30E4_U+30FC 1
370
     0
  0
HATCH
  5
139
330
12C
100
AcDbEntity
  8
_U+30EC_U+30A4_U+30E4_U+30FC 1
 62
   179
420
  2234388
100
AcDbHatch
 10
0.0
 20
0.0
 30
0.0
210
0.0
220
0.0
230
1.0
  2
SOLID
 70
     1
 71
     0
 91
        1
 92
        1
 93
        4
 72
     1
 10
81.06791990160802
 20
-137.3983316713796
 11
81.06791990160802
 21
-137.1464951914078
 72
     1
 10
81.06791990160802
 20
-137.1464951914078
 11
81.3197563815798
 21
-137.1464951914078
 72
     1
 10
81.3197563815798
 20
-137.1464951914078
 11
81.3197563815798
 21
-137.3983316713796
 72
     1
 10
81.3197563815798
 20
-137.3983316713796
 11
81.06791990160802
 21
-137.3983316713796
 97
        0
 75
     2
 76
     1
 98
        0
  0
SPLINE
  5
13A
330
12C
100
AcDbEntity
  8
_U+30EC_U+30A4_U+30E4_U+30FC 1
370
     0
100
AcDbSpline
210
0.0
220
0.0
230
1.0
 70
    11
 71
     3
 72
    53
 73
    49
 74
     0
 42
0.0000000001
 43
0.0000000001
 12
1.0
 22
0.0
 32
0.0
 13
1.0
 23
0.0
 33
0.0
 40
0.0
 40
0.0
 40
0.0
 40
0.0
 40
1.0
 40
1.0
 40
1.0
 40
2.0
 40
2.0
 40
2.0
 40
3.0
 40
3.0
 40
3.0
 40
4.0
 40
4.0
 40
4.0
 40
5.0
 40
5.0
 40
5.0
 40
6.0
 40
6.0
 40
6.0
 40
7.0
 40
7.0
 40
7.0
 40
8.0
 40
8.0
 40
8.0
 40
9.0
 40
9.0
 40
9.0
 40
10.0
 40
10.0
 40
10.0
 40
11.0
 40
11.0
 40
11.0
 40
12.0
 40
12.0
 40
12.0
 40
13.0
 40
13.0
 40
13.0
 40
14.0
 40
14.0
 40
14.0
 40
15.0
 40
15.0
 40
15.0
 40
16.0
 40
16.0
 40
16.0
 40
16.0
 10
82.0370252616088
 20
-137.4489745750128
 30
0.0
 10
81.95882159409364
 20
-137.4489745750128
 30
0.0
 10
81.85719127727876
 20
-137.432093607135
 30
0.0
 10
81.7555609604639
 20
-137.3687038502064
 30
0.0
 10
81.58227265755582
 20
-137.258805304227
 30
0.0
 10
81.56091306554728
 20
-137.1275471662389
 30
0.0
 10
81.5419650403784
 20
-137.0197156775506
 30
0.0
 10
81.5419650403784
 20
-137.0197156775506
 30
0.0
 10
81.76417369917702
 20
-137.0197156775506
 30
0.0
 10
81.76417369917702
 20
-137.0197156775506
 30
0.0
 10
81.81895071739248
 20
-137.2184976870495
 30
0.0
 10
81.94607474079821
 20
-137.2481255082227
 30
0.0
 10
82.03909231889995
 20
-137.2481255082227
 30
0.0
 10
82.17861868605257
 20
-137.2481255082227
 30
0.0
 10
82.33089190650061
 20
-137.148562248699
 30
0.0
 10
82.33089190650061
 20
-136.9160183034446
 30
0.0
 10
82.33089190650061
 20
-136.6600477088905
 30
0.0
 10
82.15105792217058
 20
-136.5904567800885
 30
0.0
 10
82.03047958018684
 20
-136.5904567800885
 30
0.0
 10
81.99878470172253
 20
-136.5904567800885
 30
0.0
 10
81.85719127727876
 20
-136.5904567800885
 30
0.0
 10
81.76830781375932
 20
-136.7193033512368
 30
0.0
 10
81.76830781375932
 20
-136.7193033512368
 30
0.0
 10
81.59260794401158
 20
-136.7000108165194
 30
0.0
 10
81.59260794401158
 20
-136.7000108165194
 30
0.0
 10
81.59260794401158
 20
-136.7000108165194
 30
0.0
 10
81.71318628599532
 20
-135.8538953653421
 30
0.0
 10
81.71318628599532
 20
-135.8538953653421
 30
0.0
 10
81.71318628599532
 20
-135.8538953653421
 30
0.0
 10
82.49177786566179
 20
-135.8538953653421
 30
0.0
 10
82.49177786566179
 20
-135.8538953653421
 30
0.0
 10
82.49177786566179
 20
-135.8538953653421
 30
0.0
 10
82.49177786566179
 20
-136.0488877698072
 30
0.0
 10
82.49177786566179
 20
-136.0488877698072
 30
0.0
 10
82.49177786566179
 20
-136.0488877698072
 30
0.0
 10
81.87613930244764
 20
-136.0488877698072
 30
0.0
 10
81.87613930244764
 20
-136.0488877698072
 30
0.0
 10
81.87613930244764
 20
-136.0488877698072
 30
0.0
 10
81.81068248822788
 20
-136.4719454953959
 30
0.0
 10
81.81068248822788
 20
-136.4719454953959
 30
0.0
 10
81.87200518786534
 20
-136.4378390500919
 30
0.0
 10
81.95434296996281
 20
-136.3975314329145
 30
0.0
 10
82.0728542546554
 20
-136.3975314329145
 30
0.0
 10
82.32675779191831
 20
-136.3975314329145
 30
0.0
 10
82.5637803613035
 20
-136.5839110986665
 30
0.0
 10
82.5637803613035
 20
-136.8970702782757
 30
0.0
 10
82.5637803613035
 20
-137.2143635724672
 30
0.0
 10
82.33950464521374
 20
-137.4489745750128
 30
0.0
 10
82.0370252616088
 20
-137.4489745750128
 30
0.0
  0
HATCH
  5
13B
330
12C
100
AcDbEntity
  8
_U+30EC_U+30A4_U+30E4_U+30FC 1
 62
   179
420
  2234388
100
AcDbHatch
 10
0.0
 20
0.0
 30
0.0
210
0.0
220
0.0
230
1.0
  2
SOLID
 70
     1
 71
     0
 91
        1
 92
        1
 93
        1
 72
     4
 94
        3
 73
     0
 74
     1
 95
       53
 96
       49
 40
0.0
 40
0.0
 40
0.0
 40
0.0
 40
1.0
 40
1.0
 40
1.0
 40
2.0
 40
2.0
 40
2.0
 40
3.0
 40
3.0
 40
3.0
 40
4.0
 40
4.0
 40
4.0
 40
5.0
 40
5.0
 40
5.0
 40
6.0
 40
6.0
 40
6.0
 40
7.0
 40
7.0
 40
7.0
 40
8.0
 40
8.0
 40
8.0
 40
9.0
 40
9.0
 40
9.0
 40
10.0
 40
10.0
 40
10.0
 40
11.0
 40
11.0
 40
11.0
 40
12.0
 40
12.0
 40
12.0
 40
13.0
 40
13.0
 40
13.0
 40
14.0
 40
14.0
 40
14.0
 40
15.0
 40
15.0
 40
15.0
 40
16.0
 40
16.0
 40
16.0
 40
16.0
 10
82.0370252616088
 20
-137.4489745750128
 10
81.95882159409364
 20
-137.4489745750128
 10
81.85719127727876
 20
-137.432093607135
 10
81.7555609604639
 20
-137.3687038502064
 10
81.58227265755582
 20
-137.258805304227
 10
81.56091306554728
 20
-137.1275471662389
 10
81.5419650403784
 20
-137.0197156775506
 10
81.5419650403784
 20
-137.0197156775506
 10
81.76417369917702
 20
-137.0197156775506
 10
81.76417369917702
 20
-137.0197156775506
 10
81.81895071739248
 20
-137.2184976870495
 10
81.94607474079821
 20
-137.2481255082227
 10
82.03909231889995
 20
-137.2481255082227
 10
82.17861868605257
 20
-137.2481255082227
 10
82.33089190650061
 20
-137.148562248699
 10
82.33089190650061
 20
-136.9160183034446
 10
82.33089190650061
 20
-136.6600477088905
 10
82.15105792217058
 20
-136.5904567800885
 10
82.03047958018684
 20
-136.5904567800885
 10
81.99878470172253
 20
-136.5904567800885
 10
81.85719127727876
 20
-136.5904567800885
 10
81.76830781375932
 20
-136.7193033512368
 10
81.76830781375932
 20
-136.7193033512368
 10
81.59260794401158
 20
-136.7000108165194
 10
81.59260794401158
 20
-136.7000108165194
 10
81.59260794401158
 20
-136.7000108165194
 10
81.71318628599532
 20
-135.8538953653421
 10
81.71318628599532
 20
-135.8538953653421
 10
81.71318628599532
 20
-135.8538953653421
 10
82.49177786566179
 20
-135.8538953653421
 10
82.49177786566179
 20
-135.8538953653421
 10
82.49177786566179
 20
-135.8538953653421
 10
82.49177786566179
 20
-136.0488877698072
 10
82.49177786566179
 20
-136.0488877698072
 10
82.49177786566179
 20
-136.0488877698072
 10
81.87613930244764
 20
-136.0488877698072
 10
81.87613930244764
 20
-136.0488877698072
 10
81.87613930244764
 20
-136.0488877698072
 10
81.81068248822788
 20
-136.4719454953959
 10
81.81068248822788
 20
-136.4719454953959
 10
81.87200518786534
 20
-136.4378390500919
 10
81.95434296996281
 20
-136.3975314329145
 10
82.0728542546554
 20
-136.3975314329145
 10
82.32675779191831
 20
-136.3975314329145
 10
82.5637803613035
 20
-136.5839110986665
 10
82.5637803613035
 20
-136.8970702782757
 10
82.5637803613035
 20
-137.2143635724672
 10
82.33950464521374
 20
-137.4489745750128
 10
82.0370252616088
 20
-137.4489745750128
 97
        0
 97
        0
 75
     2
 76
     1
 98
        0
  0
ENDBLK
  5
12F
330
12C
100
AcDbEntity
  8
0
100
AcDbBlockEnd
  0
BLOCK
  5
154
330
152
100
AcDbEntity
  8
0
100
AcDbBlockBegin
  2
block 11
 70
     0
 10
0.0
 20
0.0
 30
0.0
  3
block 11
  1

  0
SPLINE
  5
156
330
152
100
AcDbEntity
  8
_U+30EC_U+30A4_U+30E4_U+30FC 1
370
     0
100
AcDbSpline
210
0.0
220
0.0
230
1.0
 70
    11
 71
     3
 72
    44
 73
    40
 74
     0
 42
0.0000000001
 43
0.0000000001
 12
1.0
 22
0.0
 32
0.0
 13
1.0
 23
0.0
 33
0.0
 40
0.0
 40
0.0
 40
0.0
 40
0.0
 40
1.0
 40
1.0
 40
1.0
 40
2.0
 40
2.0
 40
2.0
 40
3.0
 40
3.0
 40
3.0
 40
4.0
 40
4.0
 40
4.0
 40
5.0
 40
5.0
 40
5.0
 40
6.0
 40
6.0
 40
6.0
 40
7.0
 40
7.0
 40
7.0
 40
8.0
 40
8.0
 40
8.0
 40
9.0
 40
9.0
 40
9.0
 40
10.0
 40
10.0
 40
10.0
 40
11.0
 40
11.0
 40
11.0
 40
12.0
 40
12.0
 40
12.0
 40
13.0
 40
13.0
 40
13.0
 40
13.0
 10
102.2214952001391
 20
-132.0239827143898
 30
0.0
 10
102.3803141020091
 20
-132.2417127490576
 30
0.0
 10
102.454383654942
 20
-132.3347303271594
 30
0.0
 10
102.5980441366769
 20
-132.3836506830499
 30
0.0
 10
102.5980441366769
 20
-132.3836506830499
 30
0.0
 10
102.5980441366769
 20
-131.6050591033835
 30
0.0
 10
102.5980441366769
 20
-131.6050591033835
 30
0.0
 10
102.5980441366769
 20
-131.6050591033835
 30
0.0
 10
102.8033718275978
 20
-131.6050591033835
 30
0.0
 10
102.8033718275978
 20
-131.6050591033835
 30
0.0
 10
102.8033718275978
 20
-131.6050591033835
 30
0.0
 10
102.8033718275978
 20
-132.633075596182
 30
0.0
 10
102.8033718275978
 20
-132.633075596182
 30
0.0
 10
102.4457709162288
 20
-132.6013807177177
 30
0.0
 10
102.3675672487137
 20
-132.535923903498
 30
0.0
 10
102.069221979691
 20
-132.150762228247
 30
0.0
 10
101.8704399701921
 20
-131.894791633693
 30
0.0
 10
101.8025715891327
 20
-131.8293348194732
 30
0.0
 10
101.6651122792712
 20
-131.8293348194732
 30
0.0
 10
101.5466009945786
 20
-131.8293348194732
 30
0.0
 10
101.4156873661391
 20
-131.9013373151149
 30
0.0
 10
101.4156873661391
 20
-132.0980522673227
 30
0.0
 10
101.4156873661391
 20
-132.3581569764591
 30
0.0
 10
101.6461642541024
 20
-132.3667697151722
 30
0.0
 10
101.7626084815038
 20
-132.3709038297545
 30
0.0
 10
101.7626084815038
 20
-132.3709038297545
 30
0.0
 10
101.7626084815038
 20
-132.5951795458443
 30
0.0
 10
101.7626084815038
 20
-132.5951795458443
 30
0.0
 10
101.6354844580981
 20
-132.5865668071311
 30
0.0
 10
101.5235188548275
 20
-132.5758870111269
 30
0.0
 10
101.4050075701349
 20
-132.4956162863205
 30
0.0
 10
101.2441216109737
 20
-132.3857177403411
 30
0.0
 10
101.2103596752182
 20
-132.1993380745891
 30
0.0
 10
101.2103596752182
 20
-132.0832383567361
 30
0.0
 10
101.2103596752182
 20
-131.8059081701735
 30
0.0
 10
101.3943277741306
 20
-131.5985134219615
 30
0.0
 10
101.6671793365624
 20
-131.5985134219615
 30
0.0
 10
101.895933676783
 20
-131.5985134219615
 30
0.0
 10
101.9951524267582
 20
-131.7149576493629
 30
0.0
 10
102.2214952001391
 20
-132.0239827143898
 30
0.0
  0
HATCH
  5
157
330
152
100
AcDbEntity
  8
_U+30EC_U+30A4_U+30E4_U+30FC 1
 62
     7
420
 16777215
100
AcDbHatch
 10
0.0
 20
0.0
 30
0.0
210
0.0
220
0.0
230
1.0
  2
SOLID
 70
     1
 71
     0
 91
        1
 92
        1
 93
        1
 72
     4
 94
        3
 73
     0
 74
     1
 95
       44
 96
       40
 40
0.0
 40
0.0
 40
0.0
 40
0.0
 40
1.0
 40
1.0
 40
1.0
 40
2.0
 40
2.0
 40
2.0
 40
3.0
 40
3.0
 40
3.0
 40
4.0
 40
4.0
 40
4.0
 40
5.0
 40
5.0
 40
5.0
 40
6.0
 40
6.0
 40
6.0
 40
7.0
 40
7.0
 40
7.0
 40
8.0
 40
8.0
 40
8.0
 40
9.0
 40
9.0
 40
9.0
 40
10.0
 40
10.0
 40
10.0
 40
11.0
 40
11.0
 40
11.0
 40
12.0
 40
12.0
 40
12.0
 40
13.0
 40
13.0
 40
13.0
 40
13.0
 10
102.2214952001391
 20
-132.0239827143898
 10
102.3803141020091
 20
-132.2417127490576
 10
102.454383654942
 20
-132.3347303271594
 10
102.5980441366769
 20
-132.3836506830499
 10
102.5980441366769
 20
-132.3836506830499
 10
102.5980441366769
 20
-131.6050591033835
 10
102.5980441366769
 20
-131.6050591033835
 10
102.5980441366769
 20
-131.6050591033835
 10
102.8033718275978
 20
-131.6050591033835
 10
102.8033718275978
 20
-131.6050591033835
 10
102.8033718275978
 20
-131.6050591033835
 10
102.8033718275978
 20
-132.633075596182
 10
102.8033718275978
 20
-132.633075596182
 10
102.4457709162288
 20
-132.6013807177177
 10
102.3675672487137
 20
-132.535923903498
 10
102.069221979691
 20
-132.150762228247
 10
101.8704399701921
 20
-131.894791633693
 10
101.8025715891327
 20
-131.8293348194732
 10
101.6651122792712
 20
-131.8293348194732
 10
101.5466009945786
 20
-131.8293348194732
 10
101.4156873661391
 20
-131.9013373151149
 10
101.4156873661391
 20
-132.0980522673227
 10
101.4156873661391
 20
-132.3581569764591
 10
101.6461642541024
 20
-132.3667697151722
 10
101.7626084815038
 20
-132.3709038297545
 10
101.7626084815038
 20
-132.3709038297545
 10
101.7626084815038
 20
-132.5951795458443
 10
101.7626084815038
 20
-132.5951795458443
 10
101.6354844580981
 20
-132.5865668071311
 10
101.5235188548275
 20
-132.5758870111269
 10
101.4050075701349
 20
-132.4956162863205
 10
101.2441216109737
 20
-132.3857177403411
 10
101.2103596752182
 20
-132.1993380745891
 10
101.2103596752182
 20
-132.0832383567361
 10
101.2103596752182
 20
-131.8059081701735
 10
101.3943277741306
 20
-131.5985134219615
 10
101.6671793365624
 20
-131.5985134219615
 10
101.895933676783
 20
-131.5985134219615
 10
101.9951524267582
 20
-131.7149576493629
 10
102.2214952001391
 20
-132.0239827143898
 97
        0
 97
        0
 75
     2
 76
     1
 98
        0
  0
SPLINE
  5
158
330
152
100
AcDbEntity
  8
_U+30EC_U+30A4_U+30E4_U+30FC 1
370
     0
100
AcDbSpline
210
0.0
220
0.0
230
1.0
 70
    11
 71
     3
 72
    62
 73
    58
 74
     0
 42
0.0000000001
 43
0.0000000001
 12
1.0
 22
0.0
 32
0.0
 13
1.0
 23
0.0
 33
0.0
 40
0.0
 40
0.0
 40
0.0
 40
0.0
 40
1.0
 40
1.0
 40
1.0
 40
2.0
 40
2.0
 40
2.0
 40
3.0
 40
3.0
 40
3.0
 40
4.0
 40
4.0
 40
4.0
 40
5.0
 40
5.0
 40
5.0
 40
6.0
 40
6.0
 40
6.0
 40
7.0
 40
7.0
 40
7.0
 40
8.0
 40
8.0
 40
8.0
 40
9.0
 40
9.0
 40
9.0
 40
10.0
 40
10.0
 40
10.0
 40
11.0
 40
11.0
 40
11.0
 40
12.0
 40
12.0
 40
12.0
 40
13.0
 40
13.0
 40
13.0
 40
14.0
 40
14.0
 40
14.0
 40
15.0
 40
15.0
 40
15.0
 40
16.0
 40
16.0
 40
16.0
 40
17.0
 40
17.0
 40
17.0
 40
18.0
 40
18.0
 40
18.0
 40
19.0
 40
19.0
 40
19.0
 40
19.0
 10
102.8540147312309
 20
-130.9484239038948
 30
0.0
 10
102.8540147312309
 20
-131.0438530488363
 30
0.0
 10
102.8329996487709
 20
-131.2615830835041
 30
0.0
 10
102.6469644925674
 20
-131.3866400496186
 30
0.0
 10
102.5346543797483
 20
-131.4607096025515
 30
0.0
 10
102.4354356297731
 20
-131.4648437171338
 30
0.0
 10
102.3506862808359
 20
-131.4689778317161
 30
0.0
 10
102.3506862808359
 20
-131.4689778317161
 30
0.0
 10
102.3506862808359
 20
-131.2488362302086
 30
0.0
 10
102.3506862808359
 20
-131.2488362302086
 30
0.0
 10
102.4247558337688
 20
-131.2467691729175
 30
0.0
 10
102.6593668363143
 20
-131.2364338864617
 30
0.0
 10
102.6593668363143
 20
-130.9529025280257
 30
0.0
 10
102.6593668363143
 20
-130.8154432181642
 30
0.0
 10
102.5897759075123
 20
-130.6628254881676
 30
0.0
 10
102.3613660768402
 20
-130.6628254881676
 30
0.0
 10
102.2449218494388
 20
-130.6628254881676
 30
0.0
 10
102.1963460030967
 20
-130.7010660480539
 30
0.0
 10
102.1646511246325
 20
-130.7327609265182
 30
0.0
 10
102.0905815716996
 20
-130.8068304794511
 30
0.0
 10
102.0778347184042
 20
-130.9232747068525
 30
0.0
 10
102.0778347184042
 20
-130.978051725068
 30
0.0
 10
102.0778347184042
 20
-130.9973442597854
 30
0.0
 10
102.0799017756953
 20
-131.033173252832
 30
0.0
 10
102.0840358902776
 20
-131.060734016714
 30
0.0
 10
102.0840358902776
 20
-131.060734016714
 30
0.0
 10
101.889387995361
 20
-131.060734016714
 30
0.0
 10
101.889387995361
 20
-131.060734016714
 30
0.0
 10
101.895933676783
 20
-131.0224934568277
 30
0.0
 10
101.8980007340741
 20
-130.9804632919077
 30
0.0
 10
101.8980007340741
 20
-130.9739176104857
 30
0.0
 10
101.8980007340741
 20
-130.908460796266
 30
0.0
 10
101.8766411420656
 20
-130.709678786767
 30
0.0
 10
101.6399630822289
 20
-130.709678786767
 30
0.0
 10
101.46219615519
 20
-130.709678786767
 30
0.0
 10
101.407074627426
 20
-130.8405924152065
 30
0.0
 10
101.407074627426
 20
-130.9508354707345
 30
0.0
 10
101.407074627426
 20
-131.2150742944532
 30
0.0
 10
101.6399630822289
 20
-131.2236870331663
 30
0.0
 10
101.7116210683221
 20
-131.2278211477486
 30
0.0
 10
101.7116210683221
 20
-131.2278211477486
 30
0.0
 10
101.7116210683221
 20
-131.4310817813783
 30
0.0
 10
101.7116210683221
 20
-131.4310817813783
 30
0.0
 10
101.5869086117561
 20
-131.4224690426652
 30
0.0
 10
101.2103596752182
 20
-131.3949082787832
 30
0.0
 10
101.2103596752182
 20
-130.9380886174391
 30
0.0
 10
101.2103596752182
 20
-130.7138129013493
 30
0.0
 10
101.337483698624
 20
-130.4726562173819
 30
0.0
 10
101.6334174008069
 20
-130.4726562173819
 30
0.0
 10
101.8197970665589
 20
-130.4726562173819
 30
0.0
 10
101.9021348486564
 20
-130.5677408527747
 30
0.0
 10
101.9634575482939
 20
-130.6673041122985
 30
0.0
 10
101.9910183121759
 20
-130.605981412661
 30
0.0
 10
102.0712890369822
 20
-130.4240803710398
 30
0.0
 10
102.3486192235448
 20
-130.4240803710398
 30
0.0
 10
102.6869276001963
 20
-130.4240803710398
 30
0.0
 10
102.8540147312309
 20
-130.6714382268808
 30
0.0
 10
102.8540147312309
 20
-130.9484239038948
 30
0.0
  0
HATCH
  5
159
330
152
100
AcDbEntity
  8
_U+30EC_U+30A4_U+30E4_U+30FC 1
 62
     7
420
 16777215
100
AcDbHatch
 10
0.0
 20
0.0
 30
0.0
210
0.0
220
0.0
230
1.0
  2
SOLID
 70
     1
 71
     0
 91
        1
 92
        1
 93
        1
 72
     4
 94
        3
 73
     0
 74
     1
 95
       62
 96
       58
 40
0.0
 40
0.0
 40
0.0
 40
0.0
 40
1.0
 40
1.0
 40
1.0
 40
2.0
 40
2.0
 40
2.0
 40
3.0
 40
3.0
 40
3.0
 40
4.0
 40
4.0
 40
4.0
 40
5.0
 40
5.0
 40
5.0
 40
6.0
 40
6.0
 40
6.0
 40
7.0
 40
7.0
 40
7.0
 40
8.0
 40
8.0
 40
8.0
 40
9.0
 40
9.0
 40
9.0
 40
10.0
 40
10.0
 40
10.0
 40
11.0
 40
11.0
 40
11.0
 40
12.0
 40
12.0
 40
12.0
 40
13.0
 40
13.0
 40
13.0
 40
14.0
 40
14.0
 40
14.0
 40
15.0
 40
15.0
 40
15.0
 40
16.0
 40
16.0
 40
16.0
 40
17.0
 40
17.0
 40
17.0
 40
18.0
 40
18.0
 40
18.0
 40
19.0
 40
19.0
 40
19.0
 40
19.0
 10
102.8540147312309
 20
-130.9484239038948
 10
102.8540147312309
 20
-131.0438530488363
 10
102.8329996487709
 20
-131.2615830835041
 10
102.6469644925674
 20
-131.3866400496186
 10
102.5346543797483
 20
-131.4607096025515
 10
102.4354356297731
 20
-131.4648437171338
 10
102.3506862808359
 20
-131.4689778317161
 10
102.3506862808359
 20
-131.4689778317161
 10
102.3506862808359
 20
-131.2488362302086
 10
102.3506862808359
 20
-131.2488362302086
 10
102.4247558337688
 20
-131.2467691729175
 10
102.6593668363143
 20
-131.2364338864617
 10
102.6593668363143
 20
-130.9529025280257
 10
102.6593668363143
 20
-130.8154432181642
 10
102.5897759075123
 20
-130.6628254881676
 10
102.3613660768402
 20
-130.6628254881676
 10
102.2449218494388
 20
-130.6628254881676
 10
102.1963460030967
 20
-130.7010660480539
 10
102.1646511246325
 20
-130.7327609265182
 10
102.0905815716996
 20
-130.8068304794511
 10
102.0778347184042
 20
-130.9232747068525
 10
102.0778347184042
 20
-130.978051725068
 10
102.0778347184042
 20
-130.9973442597854
 10
102.0799017756953
 20
-131.033173252832
 10
102.0840358902776
 20
-131.060734016714
 10
102.0840358902776
 20
-131.060734016714
 10
101.889387995361
 20
-131.060734016714
 10
101.889387995361
 20
-131.060734016714
 10
101.895933676783
 20
-131.0224934568277
 10
101.8980007340741
 20
-130.9804632919077
 10
101.8980007340741
 20
-130.9739176104857
 10
101.8980007340741
 20
-130.908460796266
 10
101.8766411420656
 20
-130.709678786767
 10
101.6399630822289
 20
-130.709678786767
 10
101.46219615519
 20
-130.709678786767
 10
101.407074627426
 20
-130.8405924152065
 10
101.407074627426
 20
-130.9508354707345
 10
101.407074627426
 20
-131.2150742944532
 10
101.6399630822289
 20
-131.2236870331663
 10
101.7116210683221
 20
-131.2278211477486
 10
101.7116210683221
 20
-131.2278211477486
 10
101.7116210683221
 20
-131.4310817813783
 10
101.7116210683221
 20
-131.4310817813783
 10
101.5869086117561
 20
-131.4224690426652
 10
101.2103596752182
 20
-131.3949082787832
 10
101.2103596752182
 20
-130.9380886174391
 10
101.2103596752182
 20
-130.7138129013493
 10
101.337483698624
 20
-130.4726562173819
 10
101.6334174008069
 20
-130.4726562173819
 10
101.8197970665589
 20
-130.4726562173819
 10
101.9021348486564
 20
-130.5677408527747
 10
101.9634575482939
 20
-130.6673041122985
 10
101.9910183121759
 20
-130.605981412661
 10
102.0712890369822
 20
-130.4240803710398
 10
102.3486192235448
 20
-130.4240803710398
 10
102.6869276001963
 20
-130.4240803710398
 10
102.8540147312309
 20
-130.6714382268808
 10
102.8540147312309
 20
-130.9484239038948
 97
        0
 97
        0
 75
     2
 76
     1
 98
        0
  0
ENDBLK
  5
155
330
152
100
AcDbEntity
  8
0
100
AcDbBlockEnd
  0
BLOCK
  5
15C
330
15A
100
AcDbEntity
  8
0
100
AcDbBlockBegin
  2
block 12
 70
     0
 10
0.0
 20
0.0
 30
0.0
  3
block 12
  1

  0
POLYLINE
  5
15E
330
15A
100
AcDbEntity
  8
_U+30EC_U+30A4_U+30E4_U+30FC 1
370
     0
100
AcDb2dPolyline
 66
     1
 10
0.0
 20
0.0
 30
0.0
  0
VERTEX
  5
15F
330
15E
100
AcDbEntity
  8
_U+30EC_U+30A4_U+30E4_U+30FC 1
370
     0
100
AcDbVertex
100
AcDb2dVertex
 10
102.4564507122331
 20
-117.7316595842824
 30
0.0
  0
VERTEX
  5
160
330
15E
100
AcDbEntity
  8
_U+30EC_U+30A4_U+30E4_U+30FC 1
370
     0
100
AcDbVertex
100
AcDb2dVertex
 10
102.8033718275978
 20
-117.7316595842824
 30
0.0
  0
VERTEX
  5
161
330
15E
100
AcDbEntity
  8
_U+30EC_U+30A4_U+30E4_U+30FC 1
370
     0
100
AcDbVertex
100
AcDb2dVertex
 10
102.8033718275978
 20
-117.9493896189502
 30
0.0
  0
VERTEX
  5
162
330
15E
100
AcDbEntity
  8
_U+30EC_U+30A4_U+30E4_U+30FC 1
370
     0
100
AcDbVertex
100
AcDb2dVertex
 10
102.4564507122331
 20
-117.9493896189502
 30
0.0
  0
VERTEX
  5
163
330
15E
100
AcDbEntity
  8
_U+30EC_U+30A4_U+30E4_U+30FC 1
370
     0
100
AcDbVertex
100
AcDb2dVertex
 10
102.4564507122331
 20
-118.6053357993417
 30
0.0
  0
VERTEX
  5
164
330
15E
100
AcDbEntity
  8
_U+30EC_U+30A4_U+30E4_U+30FC 1
370
     0
100
AcDbVertex
100
AcDb2dVertex
 10
102.2321749961434
 20
-118.6053357993417
 30
0.0
  0
VERTEX
  5
165
330
15E
100
AcDbEntity
  8
_U+30EC_U+30A4_U+30E4_U+30FC 1
370
     0
100
AcDbVertex
100
AcDb2dVertex
 10
101.2589355215603
 20
-117.926307479199
 30
0.0
  0
VERTEX
  5
166
330
15E
100
AcDbEntity
  8
_U+30EC_U+30A4_U+30E4_U+30FC 1
370
     0
100
AcDbVertex
100
AcDb2dVertex
 10
101.2589355215603
 20
-117.7316595842824
 30
0.0
  0
VERTEX
  5
167
330
15E
100
AcDbEntity
  8
_U+30EC_U+30A4_U+30E4_U+30FC 1
370
     0
100
AcDbVertex
100
AcDb2dVertex
 10
102.2576687027342
 20
-117.7316595842824
 30
0.0
  0
VERTEX
  5
168
330
15E
100
AcDbEntity
  8
_U+30EC_U+30A4_U+30E4_U+30FC 1
370
     0
100
AcDbVertex
100
AcDb2dVertex
 10
102.2576687027342
 20
-117.5242648360703
 30
0.0
  0
VERTEX
  5
169
330
15E
100
AcDbEntity
  8
_U+30EC_U+30A4_U+30E4_U+30FC 1
370
     0
100
AcDbVertex
100
AcDb2dVertex
 10
102.4564507122331
 20
-117.5242648360703
 30
0.0
  0
VERTEX
  5
16A
330
15E
100
AcDbEntity
  8
_U+30EC_U+30A4_U+30E4_U+30FC 1
370
     0
100
AcDbVertex
100
AcDb2dVertex
 10
102.4564507122331
 20
-117.7316595842824
 30
0.0
  0
SEQEND
  5
16B
330
15E
100
AcDbEntity
  8
_U+30EC_U+30A4_U+30E4_U+30FC 1
370
     0
  0
POLYLINE
  5
16C
330
15A
100
AcDbEntity
  8
_U+30EC_U+30A4_U+30E4_U+30FC 1
370
     0
100
AcDb2dPolyline
 66
     1
 10
0.0
 20
0.0
 30
0.0
  0
VERTEX
  5
16D
330
16C
100
AcDbEntity
  8
_U+30EC_U+30A4_U+30E4_U+30FC 1
370
     0
100
AcDbVertex
100
AcDb2dVertex
 10
101.6017225223426
 20
-117.9493896189502
 30
0.0
  0
VERTEX
  5
16E
330
16C
100
AcDbEntity
  8
_U+30EC_U+30A4_U+30E4_U+30FC 1
370
     0
100
AcDbVertex
100
AcDb2dVertex
 10
102.2576687027342
 20
-118.4065537898428
 30
0.0
  0
VERTEX
  5
16F
330
16C
100
AcDbEntity
  8
_U+30EC_U+30A4_U+30E4_U+30FC 1
370
     0
100
AcDbVertex
100
AcDb2dVertex
 10
102.2576687027342
 20
-117.9493896189502
 30
0.0
  0
VERTEX
  5
170
330
16C
100
AcDbEntity
  8
_U+30EC_U+30A4_U+30E4_U+30FC 1
370
     0
100
AcDbVertex
100
AcDb2dVertex
 10
101.6017225223426
 20
-117.9493896189502
 30
0.0
  0
SEQEND
  5
171
330
16C
100
AcDbEntity
  8
_U+30EC_U+30A4_U+30E4_U+30FC 1
370
     0
  0
HATCH
  5
172
330
15A
100
AcDbEntity
  8
_U+30EC_U+30A4_U+30E4_U+30FC 1
 62
     7
420
 16777215
100
AcDbHatch
 10
0.0
 20
0.0
 30
0.0
210
0.0
220
0.0
230
1.0
  2
SOLID
 70
     1
 71
     0
 91
        2
 92
        1
 93
       11
 72
     1
 10
102.4564507122331
 20
-117.7316595842824
 11
102.8033718275978
 21
-117.7316595842824
 72
     1
 10
102.8033718275978
 20
-117.7316595842824
 11
102.8033718275978
 21
-117.9493896189502
 72
     1
 10
102.8033718275978
 20
-117.9493896189502
 11
102.4564507122331
 21
-117.9493896189502
 72
     1
 10
102.4564507122331
 20
-117.9493896189502
 11
102.4564507122331
 21
-118.6053357993417
 72
     1
 10
102.4564507122331
 20
-118.6053357993417
 11
102.2321749961434
 21
-118.6053357993417
 72
     1
 10
102.2321749961434
 20
-118.6053357993417
 11
101.2589355215603
 21
-117.926307479199
 72
     1
 10
101.2589355215603
 20
-117.926307479199
 11
101.2589355215603
 21
-117.7316595842824
 72
     1
 10
101.2589355215603
 20
-117.7316595842824
 11
102.2576687027342
 21
-117.7316595842824
 72
     1
 10
102.2576687027342
 20
-117.7316595842824
 11
102.2576687027342
 21
-117.5242648360703
 72
     1
 10
102.2576687027342
 20
-117.5242648360703
 11
102.4564507122331
 21
-117.5242648360703
 72
     1
 10
102.4564507122331
 20
-117.5242648360703
 11
102.4564507122331
 21
-117.7316595842824
 97
        0
 92
        1
 93
        3
 72
     1
 10
101.6017225223426
 20
-117.9493896189502
 11
102.2576687027342
 21
-118.4065537898428
 72
     1
 10
102.2576687027342
 20
-118.4065537898428
 11
102.2576687027342
 21
-117.9493896189502
 72
     1
 10
102.2576687027342
 20
-117.9493896189502
 11
101.6017225223426
 21
-117.9493896189502
 97
        0
 75
     2
 76
     1
 98
        0
  0
ENDBLK
  5
15D
330
15A
100
AcDbEntity
  8
0
100
AcDbBlockEnd
  0
BLOCK
  5
183
330
181
100
AcDbEntity
  8
0
100
AcDbBlockBegin
  2
block 13
 70
     0
 10
0.0
 20
0.0
 30
0.0
  3
block 13
  1

  0
SPLINE
  5
185
330
181
100
AcDbEntity
  8
_U+30EC_U+30A4_U+30E4_U+30FC 1
370
     0
100
AcDbSpline
210
0.0
220
0.0
230
1.0
 70
    11
 71
     3
 72
   197
 73
   193
 74
     0
 42
0.0000000001
 43
0.0000000001
 12
1.0
 22
0.0
 32
0.0
 13
1.0
 23
0.0
 33
0.0
 40
0.0
 40
0.0
 40
0.0
 40
0.0
 40
1.0
 40
1.0
 40
1.0
 40
2.0
 40
2.0
 40
2.0
 40
3.0
 40
3.0
 40
3.0
 40
4.0
 40
4.0
 40
4.0
 40
5.0
 40
5.0
 40
5.0
 40
6.0
 40
6.0
 40
6.0
 40
7.0
 40
7.0
 40
7.0
 40
8.0
 40
8.0
 40
8.0
 40
9.0
 40
9.0
 40
9.0
 40
10.0
 40
10.0
 40
10.0
 40
11.0
 40
11.0
 40
11.0
 40
12.0
 40
12.0
 40
12.0
 40
13.0
 40
13.0
 40
13.0
 40
14.0
 40
14.0
 40
14.0
 40
15.0
 40
15.0
 40
15.0
 40
16.0
 40
16.0
 40
16.0
 40
17.0
 40
17.0
 40
17.0
 40
18.0
 40
18.0
 40
18.0
 40
19.0
 40
19.0
 40
19.0
 40
20.0
 40
20.0
 40
20.0
 40
21.0
 40
21.0
 40
21.0
 40
22.0
 40
22.0
 40
22.0
 40
23.0
 40
23.0
 40
23.0
 40
24.0
 40
24.0
 40
24.0
 40
25.0
 40
25.0
 40
25.0
 40
26.0
 40
26.0
 40
26.0
 40
27.0
 40
27.0
 40
27.0
 40
28.0
 40
28.0
 40
28.0
 40
29.0
 40
29.0
 40
29.0
 40
30.0
 40
30.0
 40
30.0
 40
31.0
 40
31.0
 40
31.0
 40
32.0
 40
32.0
 40
32.0
 40
33.0
 40
33.0
 40
33.0
 40
34.0
 40
34.0
 40
34.0
 40
35.0
 40
35.0
 40
35.0
 40
36.0
 40
36.0
 40
36.0
 40
37.0
 40
37.0
 40
37.0
 40
38.0
 40
38.0
 40
38.0
 40
39.0
 40
39.0
 40
39.0
 40
40.0
 40
40.0
 40
40.0
 40
41.0
 40
41.0
 40
41.0
 40
42.0
 40
42.0
 40
42.0
 40
43.0
 40
43.0
 40
43.0
 40
44.0
 40
44.0
 40
44.0
 40
45.0
 40
45.0
 40
45.0
 40
46.0
 40
46.0
 40
46.0
 40
47.0
 40
47.0
 40
47.0
 40
48.0
 40
48.0
 40
48.0
 40
49.0
 40
49.0
 40
49.0
 40
50.0
 40
50.0
 40
50.0
 40
51.0
 40
51.0
 40
51.0
 40
52.0
 40
52.0
 40
52.0
 40
53.0
 40
53.0
 40
53.0
 40
54.0
 40
54.0
 40
54.0
 40
55.0
 40
55.0
 40
55.0
 40
56.0
 40
56.0
 40
56.0
 40
57.0
 40
57.0
 40
57.0
 40
58.0
 40
58.0
 40
58.0
 40
59.0
 40
59.0
 40
59.0
 40
60.0
 40
60.0
 40
60.0
 40
61.0
 40
61.0
 40
61.0
 40
62.0
 40
62.0
 40
62.0
 40
63.0
 40
63.0
 40
63.0
 40
64.0
 40
64.0
 40
64.0
 40
64.0
 10
105.799226861571
 20
-109.970203965563
 30
0.0
 10
105.7885470655668
 20
-109.9998317867362
 30
0.0
 10
105.7654649258156
 20
-110.046340575787
 30
0.0
 10
105.7547851298113
 20
-110.073901339669
 30
0.0
 10
105.7547851298113
 20
-110.073901339669
 30
0.0
 10
105.6934624301739
 20
-110.2261745601171
 30
0.0
 10
105.6934624301739
 20
-110.2261745601171
 30
0.0
 10
105.6831271437181
 20
-110.2516682667079
 30
0.0
 10
105.6342067878276
 20
-110.3636338699785
 30
0.0
 10
105.6218044440807
 20
-110.3870605192782
 30
0.0
 10
105.619392877241
 20
-110.3932616911517
 30
0.0
 10
105.6152587626587
 20
-110.4018744298648
 30
0.0
 10
105.612847195819
 20
-110.4080756017383
 30
0.0
 10
105.612847195819
 20
-110.4080756017383
 30
0.0
 10
105.4037298998643
 20
-110.3553656408139
 30
0.0
 10
105.4037298998643
 20
-110.3553656408139
 30
0.0
 10
105.4819335673795
 20
-110.2454670948345
 30
0.0
 10
105.543256267017
 20
-110.1100748422642
 30
0.0
 10
105.5749511454813
 20
-109.9998317867362
 30
0.0
 10
105.5749511454813
 20
-109.9998317867362
 30
0.0
 10
105.1098632549725
 20
-109.9998317867362
 30
0.0
 10
105.1098632549725
 20
-109.9998317867362
 30
0.0
 10
105.0292480206177
 20
-110.1648518604796
 30
0.0
 10
104.9617241491068
 20
-110.2430555279948
 30
0.0
 10
104.9276177038028
 20
-110.2833631451722
 30
0.0
 10
104.9276177038028
 20
-110.2833631451722
 30
0.0
 10
104.8049723045279
 20
-110.2179063309525
 30
0.0
 10
104.8049723045279
 20
-110.2179063309525
 30
0.0
 10
104.8049723045279
 20
-110.2179063309525
 30
0.0
 10
104.8049723045279
 20
-110.3891275765694
 30
0.0
 10
104.8049723045279
 20
-110.3891275765694
 30
0.0
 10
104.8049723045279
 20
-110.4969590652577
 30
0.0
 10
104.8070393618191
 20
-110.5458794211483
 30
0.0
 10
104.8177191578233
 20
-110.6516438525454
 30
0.0
 10
104.7457166621816
 20
-110.6492322857058
 30
0.0
 10
104.7247015797216
 20
-110.6492322857058
 30
0.0
 10
104.5193738888007
 20
-110.6492322857058
 30
0.0
 10
104.5193738888007
 20
-110.6492322857058
 30
0.0
 10
104.4642523610367
 20
-110.6492322857058
 30
0.0
 10
104.4642523610367
 20
-110.6492322857058
 30
0.0
 10
104.4642523610367
 20
-110.6492322857058
 30
0.0
 10
104.4642523610367
 20
-110.7846245382761
 30
0.0
 10
104.4642523610367
 20
-110.7846245382761
 30
0.0
 10
104.4642523610367
 20
-110.7846245382761
 30
0.0
 10
104.5362548566784
 20
-110.7846245382761
 30
0.0
 10
104.5362548566784
 20
-110.7846245382761
 30
0.0
 10
104.6020561804467
 20
-110.7846245382761
 30
0.0
 10
104.7477837194728
 20
-110.7804904236938
 30
0.0
 10
104.85354815087
 20
-110.7722221945292
 30
0.0
 10
104.85354815087
 20
-110.7722221945292
 30
0.0
 10
104.85354815087
 20
-110.9496446120195
 30
0.0
 10
104.85354815087
 20
-110.9496446120195
 30
0.0
 10
104.7563964581859
 20
-110.9434434401461
 30
0.0
 10
104.5975775563159
 20
-110.9393093255638
 30
0.0
 10
104.5362548566784
 20
-110.9393093255638
 30
0.0
 10
104.5362548566784
 20
-110.9393093255638
 30
0.0
 10
104.4642523610367
 20
-110.9393093255638
 30
0.0
 10
104.4642523610367
 20
-110.9393093255638
 30
0.0
 10
104.4663194183279
 20
-111.0281927890832
 30
0.0
 10
104.4707980424587
 20
-111.2669379062111
 30
0.0
 10
104.4728650997498
 20
-111.3410074591439
 30
0.0
 10
104.4728650997498
 20
-111.3410074591439
 30
0.0
 10
104.2720160329598
 20
-111.3410074591439
 30
0.0
 10
104.2720160329598
 20
-111.3410074591439
 30
0.0
 10
104.2844183767067
 20
-111.1274115390584
 30
0.0
 10
104.2844183767067
 20
-111.0977837178853
 30
0.0
 10
104.288552491289
 20
-110.9393093255638
 30
0.0
 10
104.288552491289
 20
-110.9393093255638
 30
0.0
 10
104.2189615624869
 20
-110.9393093255638
 30
0.0
 10
104.2189615624869
 20
-110.9393093255638
 30
0.0
 10
104.1617729774318
 20
-110.9393093255638
 30
0.0
 10
104.0094997569837
 20
-110.9434434401461
 30
0.0
 10
103.8996012110043
 20
-110.9496446120195
 30
0.0
 10
103.8996012110043
 20
-110.9496446120195
 30
0.0
 10
103.8996012110043
 20
-110.7722221945292
 30
0.0
 10
103.8996012110043
 20
-110.7722221945292
 30
0.0
 10
104.0053656424014
 20
-110.7804904236938
 30
0.0
 10
104.1493706336849
 20
-110.7846245382761
 30
0.0
 10
104.2189615624869
 20
-110.7846245382761
 30
0.0
 10
104.2189615624869
 20
-110.7846245382761
 30
0.0
 10
104.2930311154198
 20
-110.7846245382761
 30
0.0
 10
104.2930311154198
 20
-110.7846245382761
 30
0.0
 10
104.2930311154198
 20
-110.7846245382761
 30
0.0
 10
104.2930311154198
 20
-110.6492322857058
 30
0.0
 10
104.2930311154198
 20
-110.6492322857058
 30
0.0
 10
104.2930311154198
 20
-110.6492322857058
 30
0.0
 10
104.2485893836601
 20
-110.6492322857058
 30
0.0
 10
104.2485893836601
 20
-110.6492322857058
 30
0.0
 10
104.1724527734361
 20
-110.6492322857058
 30
0.0
 10
103.9798719358106
 20
-110.6516438525454
 30
0.0
 10
103.9461100000551
 20
-110.6516438525454
 30
0.0
 10
103.9523111719286
 20
-110.5796413569037
 30
0.0
 10
103.9609239106417
 20
-110.4990261225489
 30
0.0
 10
103.9609239106417
 20
-110.3784477805651
 30
0.0
 10
103.9609239106417
 20
-110.3784477805651
 30
0.0
 10
103.9609239106417
 20
-110.205159477657
 30
0.0
 10
103.9609239106417
 20
-110.205159477657
 30
0.0
 10
103.9609239106417
 20
-110.1331569820153
 30
0.0
 10
103.9523111719286
 20
-110.0125786400316
 30
0.0
 10
103.9461100000551
 20
-109.9323079152253
 30
0.0
 10
104.0243136675703
 20
-109.9364420298076
 30
0.0
 10
104.0625542274566
 20
-109.9385090870987
 30
0.0
 10
104.1893337413138
 20
-109.9385090870987
 30
0.0
 10
104.1893337413138
 20
-109.9385090870987
 30
0.0
 10
104.2930311154198
 20
-109.9385090870987
 30
0.0
 10
104.2930311154198
 20
-109.9385090870987
 30
0.0
 10
104.2930311154198
 20
-109.9385090870987
 30
0.0
 10
104.2930311154198
 20
-109.7924370385241
 30
0.0
 10
104.2930311154198
 20
-109.7924370385241
 30
0.0
 10
104.2930311154198
 20
-109.7924370385241
 30
0.0
 10
104.2148274479046
 20
-109.7924370385241
 30
0.0
 10
104.2148274479046
 20
-109.7924370385241
 30
0.0
 10
104.1597059201406
 20
-109.7924370385241
 30
0.0
 10
103.9881401649752
 20
-109.7969156626549
 30
0.0
 10
103.9037353255866
 20
-109.8031168345284
 30
0.0
 10
103.9037353255866
 20
-109.8031168345284
 30
0.0
 10
103.9037353255866
 20
-109.6253499074895
 30
0.0
 10
103.9037353255866
 20
-109.6253499074895
 30
0.0
 10
103.986073107684
 20
-109.6318955889115
 30
0.0
 10
104.1493706336849
 20
-109.6360297034938
 30
0.0
 10
104.2148274479046
 20
-109.6360297034938
 30
0.0
 10
104.2148274479046
 20
-109.6360297034938
 30
0.0
 10
104.2930311154198
 20
-109.6360297034938
 30
0.0
 10
104.2930311154198
 20
-109.6360297034938
 30
0.0
 10
104.2930311154198
 20
-109.6022677677383
 30
0.0
 10
104.288552491289
 20
-109.4479274899991
 30
0.0
 10
104.288552491289
 20
-109.4158881019863
 30
0.0
 10
104.288552491289
 20
-109.4158881019863
 30
0.0
 10
104.4856119530453
 20
-109.4331135794126
 30
0.0
 10
104.4856119530453
 20
-109.4331135794126
 30
0.0
 10
104.502492920923
 20
-109.4351806367037
 30
0.0
 10
104.523508003383
 20
-109.4372476939949
 30
0.0
 10
104.523508003383
 20
-109.4582627764549
 30
0.0
 10
104.523508003383
 20
-109.4816894257546
 30
0.0
 10
104.502492920923
 20
-109.4899576549192
 30
0.0
 10
104.474932157041
 20
-109.5027045082146
 30
0.0
 10
104.474932157041
 20
-109.5240641002232
 30
0.0
 10
104.4728650997498
 20
-109.6191487356161
 30
0.0
 10
104.4728650997498
 20
-109.6360297034938
 30
0.0
 10
104.4728650997498
 20
-109.6360297034938
 30
0.0
 10
104.5321207420961
 20
-109.6360297034938
 30
0.0
 10
104.5321207420961
 20
-109.6360297034938
 30
0.0
 10
104.5999891231556
 20
-109.6360297034938
 30
0.0
 10
104.7436496048905
 20
-109.6318955889115
 30
0.0
 10
104.8494140362877
 20
-109.6253499074895
 30
0.0
 10
104.8494140362877
 20
-109.6253499074895
 30
0.0
 10
104.8494140362877
 20
-109.8031168345284
 30
0.0
 10
104.8494140362877
 20
-109.8031168345284
 30
0.0
 10
104.7522623436036
 20
-109.7969156626549
 30
0.0
 10
104.5955104990247
 20
-109.7924370385241
 30
0.0
 10
104.5321207420961
 20
-109.7924370385241
 30
0.0
 10
104.5321207420961
 20
-109.7924370385241
 30
0.0
 10
104.4642523610367
 20
-109.7924370385241
 30
0.0
 10
104.4642523610367
 20
-109.7924370385241
 30
0.0
 10
104.4642523610367
 20
-109.7924370385241
 30
0.0
 10
104.4642523610367
 20
-109.9385090870987
 30
0.0
 10
104.4642523610367
 20
-109.9385090870987
 30
0.0
 10
104.4642523610367
 20
-109.9385090870987
 30
0.0
 10
104.5341877993873
 20
-109.9385090870987
 30
0.0
 10
104.5341877993873
 20
-109.9385090870987
 30
0.0
 10
104.6843939625442
 20
-109.9385090870987
 30
0.0
 10
104.7563964581859
 20
-109.9343749725164
 30
0.0
 10
104.8177191578233
 20
-109.9323079152253
 30
0.0
 10
104.8094509286587
 20
-110.0273925506182
 30
0.0
 10
104.8070393618191
 20
-110.1055962181333
 30
0.0
 10
104.8049723045279
 20
-110.1438367780196
 30
0.0
 10
104.9596570918156
 20
-109.9323079152253
 30
0.0
 10
105.0650770136643
 20
-109.6846055498358
 30
0.0
 10
105.0823024910905
 20
-109.4224337834083
 30
0.0
 10
105.0823024910905
 20
-109.4224337834083
 30
0.0
 10
105.2979654684672
 20
-109.4730766870415
 30
0.0
 10
105.2979654684672
 20
-109.4730766870415
 30
0.0
 10
105.3127793790538
 20
-109.4775553111723
 30
0.0
 10
105.3275932896403
 20
-109.4837564830457
 30
0.0
 10
105.3275932896403
 20
-109.5006374509235
 30
0.0
 10
105.3275932896403
 20
-109.5175184188012
 30
0.0
 10
105.323459175058
 20
-109.5195854760923
 30
0.0
 10
105.2724717618763
 20
-109.5409450681009
 30
0.0
 10
105.2555907939986
 20
-109.6170816783249
 30
0.0
 10
105.2304415969563
 20
-109.7080321991355
 30
0.0
 10
105.1815212410657
 20
-109.8348117129927
 30
0.0
 10
105.1815212410657
 20
-109.8348117129927
 30
0.0
 10
105.5198296177173
 20
-109.8348117129927
 30
0.0
 10
105.5198296177173
 20
-109.8348117129927
 30
0.0
 10
105.5580701776035
 20
-109.8348117129927
 30
0.0
 10
105.6872612583004
 20
-109.8306775984104
 30
0.0
 10
105.7358371046424
 20
-109.8244764265369
 30
0.0
 10
105.7358371046424
 20
-109.8244764265369
 30
0.0
 10
105.8288546827442
 20
-109.894067355339
 30
0.0
 10
105.8288546827442
 20
-109.894067355339
 30
0.0
 10
105.8202419440311
 20
-109.9154269473475
 30
0.0
 10
105.8140407721576
 20
-109.9343749725164
 30
0.0
 10
105.799226861571
 20
-109.970203965563
 30
0.0
  0
POLYLINE
  5
186
330
181
100
AcDbEntity
  8
_U+30EC_U+30A4_U+30E4_U+30FC 1
370
     0
100
AcDb2dPolyline
 66
     1
 10
0.0
 20
0.0
 30
0.0
  0
VERTEX
  5
187
330
186
100
AcDbEntity
  8
_U+30EC_U+30A4_U+30E4_U+30FC 1
370
     0
100
AcDbVertex
100
AcDb2dVertex
 10
104.2930311154198
 20
-110.0952609316776
 30
0.0
  0
VERTEX
  5
188
330
186
100
AcDbEntity
  8
_U+30EC_U+30A4_U+30E4_U+30FC 1
370
     0
100
AcDbVertex
100
AcDb2dVertex
 10
104.1342122135498
 20
-110.0952609316776
 30
0.0
  0
VERTEX
  5
189
330
186
100
AcDbEntity
  8
_U+30EC_U+30A4_U+30E4_U+30FC 1
370
     0
100
AcDbVertex
100
AcDb2dVertex
 10
104.1342122135498
 20
-110.2241075028259
 30
0.0
  0
VERTEX
  5
18A
330
186
100
AcDbEntity
  8
_U+30EC_U+30A4_U+30E4_U+30FC 1
370
     0
100
AcDbVertex
100
AcDb2dVertex
 10
104.2930311154198
 20
-110.2241075028259
 30
0.0
  0
VERTEX
  5
18B
330
186
100
AcDbEntity
  8
_U+30EC_U+30A4_U+30E4_U+30FC 1
370
     0
100
AcDbVertex
100
AcDb2dVertex
 10
104.2930311154198
 20
-110.0952609316776
 30
0.0
  0
SEQEND
  5
18C
330
186
100
AcDbEntity
  8
_U+30EC_U+30A4_U+30E4_U+30FC 1
370
     0
  0
POLYLINE
  5
18D
330
181
100
AcDbEntity
  8
_U+30EC_U+30A4_U+30E4_U+30FC 1
370
     0
100
AcDb2dPolyline
 66
     1
 10
0.0
 20
0.0
 30
0.0
  0
VERTEX
  5
18E
330
18D
100
AcDbEntity
  8
_U+30EC_U+30A4_U+30E4_U+30FC 1
370
     0
100
AcDbVertex
100
AcDb2dVertex
 10
104.2930311154198
 20
-110.3681124941094
 30
0.0
  0
VERTEX
  5
18F
330
18D
100
AcDbEntity
  8
_U+30EC_U+30A4_U+30E4_U+30FC 1
370
     0
100
AcDbVertex
100
AcDb2dVertex
 10
104.1342122135498
 20
-110.3681124941094
 30
0.0
  0
VERTEX
  5
190
330
18D
100
AcDbEntity
  8
_U+30EC_U+30A4_U+30E4_U+30FC 1
370
     0
100
AcDbVertex
100
AcDb2dVertex
 10
104.1342122135498
 20
-110.4969590652577
 30
0.0
  0
VERTEX
  5
191
330
18D
100
AcDbEntity
  8
_U+30EC_U+30A4_U+30E4_U+30FC 1
370
     0
100
AcDbVertex
100
AcDb2dVertex
 10
104.2930311154198
 20
-110.4969590652577
 30
0.0
  0
VERTEX
  5
192
330
18D
100
AcDbEntity
  8
_U+30EC_U+30A4_U+30E4_U+30FC 1
370
     0
100
AcDbVertex
100
AcDb2dVertex
 10
104.2930311154198
 20
-110.3681124941094
 30
0.0
  0
SEQEND
  5
193
330
18D
100
AcDbEntity
  8
_U+30EC_U+30A4_U+30E4_U+30FC 1
370
     0
  0
POLYLINE
  5
194
330
181
100
AcDbEntity
  8
_U+30EC_U+30A4_U+30E4_U+30FC 1
370
     0
100
AcDb2dPolyline
 66
     1
 10
0.0
 20
0.0
 30
0.0
  0
VERTEX
  5
195
330
194
100
AcDbEntity
  8
_U+30EC_U+30A4_U+30E4_U+30FC 1
370
     0
100
AcDbVertex
100
AcDb2dVertex
 10
104.6251383201979
 20
-110.0952609316776
 30
0.0
  0
VERTEX
  5
196
330
194
100
AcDbEntity
  8
_U+30EC_U+30A4_U+30E4_U+30FC 1
370
     0
100
AcDbVertex
100
AcDb2dVertex
 10
104.4642523610367
 20
-110.0952609316776
 30
0.0
  0
VERTEX
  5
197
330
194
100
AcDbEntity
  8
_U+30EC_U+30A4_U+30E4_U+30FC 1
370
     0
100
AcDbVertex
100
AcDb2dVertex
 10
104.4642523610367
 20
-110.2241075028259
 30
0.0
  0
VERTEX
  5
198
330
194
100
AcDbEntity
  8
_U+30EC_U+30A4_U+30E4_U+30FC 1
370
     0
100
AcDbVertex
100
AcDb2dVertex
 10
104.6251383201979
 20
-110.2241075028259
 30
0.0
  0
VERTEX
  5
199
330
194
100
AcDbEntity
  8
_U+30EC_U+30A4_U+30E4_U+30FC 1
370
     0
100
AcDbVertex
100
AcDb2dVertex
 10
104.6251383201979
 20
-110.0952609316776
 30
0.0
  0
SEQEND
  5
19A
330
194
100
AcDbEntity
  8
_U+30EC_U+30A4_U+30E4_U+30FC 1
370
     0
  0
POLYLINE
  5
19B
330
181
100
AcDbEntity
  8
_U+30EC_U+30A4_U+30E4_U+30FC 1
370
     0
100
AcDb2dPolyline
 66
     1
 10
0.0
 20
0.0
 30
0.0
  0
VERTEX
  5
19C
330
19B
100
AcDbEntity
  8
_U+30EC_U+30A4_U+30E4_U+30FC 1
370
     0
100
AcDbVertex
100
AcDb2dVertex
 10
104.6251383201979
 20
-110.3681124941094
 30
0.0
  0
VERTEX
  5
19D
330
19B
100
AcDbEntity
  8
_U+30EC_U+30A4_U+30E4_U+30FC 1
370
     0
100
AcDbVertex
100
AcDb2dVertex
 10
104.4642523610367
 20
-110.3681124941094
 30
0.0
  0
VERTEX
  5
19E
330
19B
100
AcDbEntity
  8
_U+30EC_U+30A4_U+30E4_U+30FC 1
370
     0
100
AcDbVertex
100
AcDb2dVertex
 10
104.4642523610367
 20
-110.4969590652577
 30
0.0
  0
VERTEX
  5
19F
330
19B
100
AcDbEntity
  8
_U+30EC_U+30A4_U+30E4_U+30FC 1
370
     0
100
AcDbVertex
100
AcDb2dVertex
 10
104.6251383201979
 20
-110.4969590652577
 30
0.0
  0
VERTEX
  5
1A0
330
19B
100
AcDbEntity
  8
_U+30EC_U+30A4_U+30E4_U+30FC 1
370
     0
100
AcDbVertex
100
AcDb2dVertex
 10
104.6251383201979
 20
-110.3681124941094
 30
0.0
  0
SEQEND
  5
1A1
330
19B
100
AcDbEntity
  8
_U+30EC_U+30A4_U+30E4_U+30FC 1
370
     0
  0
SPLINE
  5
1A2
330
181
100
AcDbEntity
  8
_U+30EC_U+30A4_U+30E4_U+30FC 1
370
     0
100
AcDbSpline
210
0.0
220
0.0
230
1.0
 70
    11
 71
     3
 72
    41
 73
    37
 74
     0
 42
0.0000000001
 43
0.0000000001
 12
1.0
 22
0.0
 32
0.0
 13
1.0
 23
0.0
 33
0.0
 40
0.0
 40
0.0
 40
0.0
 40
0.0
 40
1.0
 40
1.0
 40
1.0
 40
2.0
 40
2.0
 40
2.0
 40
3.0
 40
3.0
 40
3.0
 40
4.0
 40
4.0
 40
4.0
 40
5.0
 40
5.0
 40
5.0
 40
6.0
 40
6.0
 40
6.0
 40
7.0
 40
7.0
 40
7.0
 40
8.0
 40
8.0
 40
8.0
 40
9.0
 40
9.0
 40
9.0
 40
10.0
 40
10.0
 40
10.0
 40
11.0
 40
11.0
 40
11.0
 40
12.0
 40
12.0
 40
12.0
 40
12.0
 10
105.7148220221824
 20
-111.3261935485573
 30
0.0
 10
105.4736653382149
 20
-111.190801295987
 30
0.0
 10
105.295898411176
 20
-110.8948675938041
 30
0.0
 10
105.2555907939986
 20
-110.7656765131072
 30
0.0
 10
105.1350124520149
 20
-111.0302598463744
 30
0.0
 10
104.9720594355625
 20
-111.2080267734133
 30
0.0
 10
104.7901583939414
 20
-111.322059433975
 30
0.0
 10
104.7901583939414
 20
-111.322059433975
 30
0.0
 10
104.5934434417336
 20
-111.1846001241136
 30
0.0
 10
104.5934434417336
 20
-111.1846001241136
 30
0.0
 10
104.6633788800842
 20
-111.1591064175227
 30
0.0
 10
104.8094509286587
 20
-111.0977837178853
 30
0.0
 10
104.9320963279336
 20
-110.9434434401461
 30
0.0
 10
105.0568087844997
 20
-110.7870361051157
 30
0.0
 10
105.1456922480191
 20
-110.5541476503129
 30
0.0
 10
105.1456922480191
 20
-110.2940429411765
 30
0.0
 10
105.1456922480191
 20
-110.1924126243616
 30
0.0
 10
105.1329453947237
 20
-110.1204101287199
 30
0.0
 10
105.1222655987194
 20
-110.073901339669
 30
0.0
 10
105.1222655987194
 20
-110.073901339669
 30
0.0
 10
105.3275932896403
 20
-110.0952609316776
 30
0.0
 10
105.3275932896403
 20
-110.0952609316776
 30
0.0
 10
105.3486083721004
 20
-110.0973279889687
 30
0.0
 10
105.3696234545604
 20
-110.0993950462599
 30
0.0
 10
105.3696234545604
 20
-110.1204101287199
 30
0.0
 10
105.3696234545604
 20
-110.1397026634373
 30
0.0
 10
105.3592881681046
 20
-110.1479708926019
 30
0.0
 10
105.3255262323492
 20
-110.1693304846105
 30
0.0
 10
105.3169134936361
 20
-110.3701795514005
 30
0.0
 10
105.3741020786912
 20
-110.6134032926592
 30
0.0
 10
105.4354247783287
 20
-110.7339816346429
 30
0.0
 10
105.5263752991392
 20
-110.9096815043906
 30
0.0
 10
105.7210231940559
 20
-111.0895154887207
 30
0.0
 10
105.8564154466262
 20
-111.1463595642273
 30
0.0
 10
105.8564154466262
 20
-111.1463595642273
 30
0.0
 10
105.7148220221824
 20
-111.3261935485573
 30
0.0
 10
105.7148220221824
 20
-111.3261935485573
 30
0.0
  0
HATCH
  5
1A3
330
181
100
AcDbEntity
  8
_U+30EC_U+30A4_U+30E4_U+30FC 1
 62
   179
420
  2234388
100
AcDbHatch
 10
0.0
 20
0.0
 30
0.0
210
0.0
220
0.0
230
1.0
  2
SOLID
 70
     1
 71
     0
 91
        6
 92
        1
 93
        1
 72
     4
 94
        3
 73
     0
 74
     1
 95
      197
 96
      193
 40
0.0
 40
0.0
 40
0.0
 40
0.0
 40
1.0
 40
1.0
 40
1.0
 40
2.0
 40
2.0
 40
2.0
 40
3.0
 40
3.0
 40
3.0
 40
4.0
 40
4.0
 40
4.0
 40
5.0
 40
5.0
 40
5.0
 40
6.0
 40
6.0
 40
6.0
 40
7.0
 40
7.0
 40
7.0
 40
8.0
 40
8.0
 40
8.0
 40
9.0
 40
9.0
 40
9.0
 40
10.0
 40
10.0
 40
10.0
 40
11.0
 40
11.0
 40
11.0
 40
12.0
 40
12.0
 40
12.0
 40
13.0
 40
13.0
 40
13.0
 40
14.0
 40
14.0
 40
14.0
 40
15.0
 40
15.0
 40
15.0
 40
16.0
 40
16.0
 40
16.0
 40
17.0
 40
17.0
 40
17.0
 40
18.0
 40
18.0
 40
18.0
 40
19.0
 40
19.0
 40
19.0
 40
20.0
 40
20.0
 40
20.0
 40
21.0
 40
21.0
 40
21.0
 40
22.0
 40
22.0
 40
22.0
 40
23.0
 40
23.0
 40
23.0
 40
24.0
 40
24.0
 40
24.0
 40
25.0
 40
25.0
 40
25.0
 40
26.0
 40
26.0
 40
26.0
 40
27.0
 40
27.0
 40
27.0
 40
28.0
 40
28.0
 40
28.0
 40
29.0
 40
29.0
 40
29.0
 40
30.0
 40
30.0
 40
30.0
 40
31.0
 40
31.0
 40
31.0
 40
32.0
 40
32.0
 40
32.0
 40
33.0
 40
33.0
 40
33.0
 40
34.0
 40
34.0
 40
34.0
 40
35.0
 40
35.0
 40
35.0
 40
36.0
 40
36.0
 40
36.0
 40
37.0
 40
37.0
 40
37.0
 40
38.0
 40
38.0
 40
38.0
 40
39.0
 40
39.0
 40
39.0
 40
40.0
 40
40.0
 40
40.0
 40
41.0
 40
41.0
 40
41.0
 40
42.0
 40
42.0
 40
42.0
 40
43.0
 40
43.0
 40
43.0
 40
44.0
 40
44.0
 40
44.0
 40
45.0
 40
45.0
 40
45.0
 40
46.0
 40
46.0
 40
46.0
 40
47.0
 40
47.0
 40
47.0
 40
48.0
 40
48.0
 40
48.0
 40
49.0
 40
49.0
 40
49.0
 40
50.0
 40
50.0
 40
50.0
 40
51.0
 40
51.0
 40
51.0
 40
52.0
 40
52.0
 40
52.0
 40
53.0
 40
53.0
 40
53.0
 40
54.0
 40
54.0
 40
54.0
 40
55.0
 40
55.0
 40
55.0
 40
56.0
 40
56.0
 40
56.0
 40
57.0
 40
57.0
 40
57.0
 40
58.0
 40
58.0
 40
58.0
 40
59.0
 40
59.0
 40
59.0
 40
60.0
 40
60.0
 40
60.0
 40
61.0
 40
61.0
 40
61.0
 40
62.0
 40
62.0
 40
62.0
 40
63.0
 40
63.0
 40
63.0
 40
64.0
 40
64.0
 40
64.0
 40
64.0
 10
105.799226861571
 20
-109.970203965563
 10
105.7885470655668
 20
-109.9998317867362
 10
105.7654649258156
 20
-110.046340575787
 10
105.7547851298113
 20
-110.073901339669
 10
105.7547851298113
 20
-110.073901339669
 10
105.6934624301739
 20
-110.2261745601171
 10
105.6934624301739
 20
-110.2261745601171
 10
105.6831271437181
 20
-110.2516682667079
 10
105.6342067878276
 20
-110.3636338699785
 10
105.6218044440807
 20
-110.3870605192782
 10
105.619392877241
 20
-110.3932616911517
 10
105.6152587626587
 20
-110.4018744298648
 10
105.612847195819
 20
-110.4080756017383
 10
105.612847195819
 20
-110.4080756017383
 10
105.4037298998643
 20
-110.3553656408139
 10
105.4037298998643
 20
-110.3553656408139
 10
105.4819335673795
 20
-110.2454670948345
 10
105.543256267017
 20
-110.1100748422642
 10
105.5749511454813
 20
-109.9998317867362
 10
105.5749511454813
 20
-109.9998317867362
 10
105.1098632549725
 20
-109.9998317867362
 10
105.1098632549725
 20
-109.9998317867362
 10
105.0292480206177
 20
-110.1648518604796
 10
104.9617241491068
 20
-110.2430555279948
 10
104.9276177038028
 20
-110.2833631451722
 10
104.9276177038028
 20
-110.2833631451722
 10
104.8049723045279
 20
-110.2179063309525
 10
104.8049723045279
 20
-110.2179063309525
 10
104.8049723045279
 20
-110.2179063309525
 10
104.8049723045279
 20
-110.3891275765694
 10
104.8049723045279
 20
-110.3891275765694
 10
104.8049723045279
 20
-110.4969590652577
 10
104.8070393618191
 20
-110.5458794211483
 10
104.8177191578233
 20
-110.6516438525454
 10
104.7457166621816
 20
-110.6492322857058
 10
104.7247015797216
 20
-110.6492322857058
 10
104.5193738888007
 20
-110.6492322857058
 10
104.5193738888007
 20
-110.6492322857058
 10
104.4642523610367
 20
-110.6492322857058
 10
104.4642523610367
 20
-110.6492322857058
 10
104.4642523610367
 20
-110.6492322857058
 10
104.4642523610367
 20
-110.7846245382761
 10
104.4642523610367
 20
-110.7846245382761
 10
104.4642523610367
 20
-110.7846245382761
 10
104.5362548566784
 20
-110.7846245382761
 10
104.5362548566784
 20
-110.7846245382761
 10
104.6020561804467
 20
-110.7846245382761
 10
104.7477837194728
 20
-110.7804904236938
 10
104.85354815087
 20
-110.7722221945292
 10
104.85354815087
 20
-110.7722221945292
 10
104.85354815087
 20
-110.9496446120195
 10
104.85354815087
 20
-110.9496446120195
 10
104.7563964581859
 20
-110.9434434401461
 10
104.5975775563159
 20
-110.9393093255638
 10
104.5362548566784
 20
-110.9393093255638
 10
104.5362548566784
 20
-110.9393093255638
 10
104.4642523610367
 20
-110.9393093255638
 10
104.4642523610367
 20
-110.9393093255638
 10
104.4663194183279
 20
-111.0281927890832
 10
104.4707980424587
 20
-111.2669379062111
 10
104.4728650997498
 20
-111.3410074591439
 10
104.4728650997498
 20
-111.3410074591439
 10
104.2720160329598
 20
-111.3410074591439
 10
104.2720160329598
 20
-111.3410074591439
 10
104.2844183767067
 20
-111.1274115390584
 10
104.2844183767067
 20
-111.0977837178853
 10
104.288552491289
 20
-110.9393093255638
 10
104.288552491289
 20
-110.9393093255638
 10
104.2189615624869
 20
-110.9393093255638
 10
104.2189615624869
 20
-110.9393093255638
 10
104.1617729774318
 20
-110.9393093255638
 10
104.0094997569837
 20
-110.9434434401461
 10
103.8996012110043
 20
-110.9496446120195
 10
103.8996012110043
 20
-110.9496446120195
 10
103.8996012110043
 20
-110.7722221945292
 10
103.8996012110043
 20
-110.7722221945292
 10
104.0053656424014
 20
-110.7804904236938
 10
104.1493706336849
 20
-110.7846245382761
 10
104.2189615624869
 20
-110.7846245382761
 10
104.2189615624869
 20
-110.7846245382761
 10
104.2930311154198
 20
-110.7846245382761
 10
104.2930311154198
 20
-110.7846245382761
 10
104.2930311154198
 20
-110.7846245382761
 10
104.2930311154198
 20
-110.6492322857058
 10
104.2930311154198
 20
-110.6492322857058
 10
104.2930311154198
 20
-110.6492322857058
 10
104.2485893836601
 20
-110.6492322857058
 10
104.2485893836601
 20
-110.6492322857058
 10
104.1724527734361
 20
-110.6492322857058
 10
103.9798719358106
 20
-110.6516438525454
 10
103.9461100000551
 20
-110.6516438525454
 10
103.9523111719286
 20
-110.5796413569037
 10
103.9609239106417
 20
-110.4990261225489
 10
103.9609239106417
 20
-110.3784477805651
 10
103.9609239106417
 20
-110.3784477805651
 10
103.9609239106417
 20
-110.205159477657
 10
103.9609239106417
 20
-110.205159477657
 10
103.9609239106417
 20
-110.1331569820153
 10
103.9523111719286
 20
-110.0125786400316
 10
103.9461100000551
 20
-109.9323079152253
 10
104.0243136675703
 20
-109.9364420298076
 10
104.0625542274566
 20
-109.9385090870987
 10
104.1893337413138
 20
-109.9385090870987
 10
104.1893337413138
 20
-109.9385090870987
 10
104.2930311154198
 20
-109.9385090870987
 10
104.2930311154198
 20
-109.9385090870987
 10
104.2930311154198
 20
-109.9385090870987
 10
104.2930311154198
 20
-109.7924370385241
 10
104.2930311154198
 20
-109.7924370385241
 10
104.2930311154198
 20
-109.7924370385241
 10
104.2148274479046
 20
-109.7924370385241
 10
104.2148274479046
 20
-109.7924370385241
 10
104.1597059201406
 20
-109.7924370385241
 10
103.9881401649752
 20
-109.7969156626549
 10
103.9037353255866
 20
-109.8031168345284
 10
103.9037353255866
 20
-109.8031168345284
 10
103.9037353255866
 20
-109.6253499074895
 10
103.9037353255866
 20
-109.6253499074895
 10
103.986073107684
 20
-109.6318955889115
 10
104.1493706336849
 20
-109.6360297034938
 10
104.2148274479046
 20
-109.6360297034938
 10
104.2148274479046
 20
-109.6360297034938
 10
104.2930311154198
 20
-109.6360297034938
 10
104.2930311154198
 20
-109.6360297034938
 10
104.2930311154198
 20
-109.6022677677383
 10
104.288552491289
 20
-109.4479274899991
 10
104.288552491289
 20
-109.4158881019863
 10
104.288552491289
 20
-109.4158881019863
 10
104.4856119530453
 20
-109.4331135794126
 10
104.4856119530453
 20
-109.4331135794126
 10
104.502492920923
 20
-109.4351806367037
 10
104.523508003383
 20
-109.4372476939949
 10
104.523508003383
 20
-109.4582627764549
 10
104.523508003383
 20
-109.4816894257546
 10
104.502492920923
 20
-109.4899576549192
 10
104.474932157041
 20
-109.5027045082146
 10
104.474932157041
 20
-109.5240641002232
 10
104.4728650997498
 20
-109.6191487356161
 10
104.4728650997498
 20
-109.6360297034938
 10
104.4728650997498
 20
-109.6360297034938
 10
104.5321207420961
 20
-109.6360297034938
 10
104.5321207420961
 20
-109.6360297034938
 10
104.5999891231556
 20
-109.6360297034938
 10
104.7436496048905
 20
-109.6318955889115
 10
104.8494140362877
 20
-109.6253499074895
 10
104.8494140362877
 20
-109.6253499074895
 10
104.8494140362877
 20
-109.8031168345284
 10
104.8494140362877
 20
-109.8031168345284
 10
104.7522623436036
 20
-109.7969156626549
 10
104.5955104990247
 20
-109.7924370385241
 10
104.5321207420961
 20
-109.7924370385241
 10
104.5321207420961
 20
-109.7924370385241
 10
104.4642523610367
 20
-109.7924370385241
 10
104.4642523610367
 20
-109.7924370385241
 10
104.4642523610367
 20
-109.7924370385241
 10
104.4642523610367
 20
-109.9385090870987
 10
104.4642523610367
 20
-109.9385090870987
 10
104.4642523610367
 20
-109.9385090870987
 10
104.5341877993873
 20
-109.9385090870987
 10
104.5341877993873
 20
-109.9385090870987
 10
104.6843939625442
 20
-109.9385090870987
 10
104.7563964581859
 20
-109.9343749725164
 10
104.8177191578233
 20
-109.9323079152253
 10
104.8094509286587
 20
-110.0273925506182
 10
104.8070393618191
 20
-110.1055962181333
 10
104.8049723045279
 20
-110.1438367780196
 10
104.9596570918156
 20
-109.9323079152253
 10
105.0650770136643
 20
-109.6846055498358
 10
105.0823024910905
 20
-109.4224337834083
 10
105.0823024910905
 20
-109.4224337834083
 10
105.2979654684672
 20
-109.4730766870415
 10
105.2979654684672
 20
-109.4730766870415
 10
105.3127793790538
 20
-109.4775553111723
 10
105.3275932896403
 20
-109.4837564830457
 10
105.3275932896403
 20
-109.5006374509235
 10
105.3275932896403
 20
-109.5175184188012
 10
105.323459175058
 20
-109.5195854760923
 10
105.2724717618763
 20
-109.5409450681009
 10
105.2555907939986
 20
-109.6170816783249
 10
105.2304415969563
 20
-109.7080321991355
 10
105.1815212410657
 20
-109.8348117129927
 10
105.1815212410657
 20
-109.8348117129927
 10
105.5198296177173
 20
-109.8348117129927
 10
105.5198296177173
 20
-109.8348117129927
 10
105.5580701776035
 20
-109.8348117129927
 10
105.6872612583004
 20
-109.8306775984104
 10
105.7358371046424
 20
-109.8244764265369
 10
105.7358371046424
 20
-109.8244764265369
 10
105.8288546827442
 20
-109.894067355339
 10
105.8288546827442
 20
-109.894067355339
 10
105.8202419440311
 20
-109.9154269473475
 10
105.8140407721576
 20
-109.9343749725164
 10
105.799226861571
 20
-109.970203965563
 97
        0
 97
        0
 92
        1
 93
        4
 72
     1
 10
104.2930311154198
 20
-110.0952609316776
 11
104.1342122135498
 21
-110.0952609316776
 72
     1
 10
104.1342122135498
 20
-110.0952609316776
 11
104.1342122135498
 21
-110.2241075028259
 72
     1
 10
104.1342122135498
 20
-110.2241075028259
 11
104.2930311154198
 21
-110.2241075028259
 72
     1
 10
104.2930311154198
 20
-110.2241075028259
 11
104.2930311154198
 21
-110.0952609316776
 97
        0
 92
        1
 93
        4
 72
     1
 10
104.2930311154198
 20
-110.3681124941094
 11
104.1342122135498
 21
-110.3681124941094
 72
     1
 10
104.1342122135498
 20
-110.3681124941094
 11
104.1342122135498
 21
-110.4969590652577
 72
     1
 10
104.1342122135498
 20
-110.4969590652577
 11
104.2930311154198
 21
-110.4969590652577
 72
     1
 10
104.2930311154198
 20
-110.4969590652577
 11
104.2930311154198
 21
-110.3681124941094
 97
        0
 92
        1
 93
        4
 72
     1
 10
104.6251383201979
 20
-110.0952609316776
 11
104.4642523610367
 21
-110.0952609316776
 72
     1
 10
104.4642523610367
 20
-110.0952609316776
 11
104.4642523610367
 21
-110.2241075028259
 72
     1
 10
104.4642523610367
 20
-110.2241075028259
 11
104.6251383201979
 21
-110.2241075028259
 72
     1
 10
104.6251383201979
 20
-110.2241075028259
 11
104.6251383201979
 21
-110.0952609316776
 97
        0
 92
        1
 93
        4
 72
     1
 10
104.6251383201979
 20
-110.3681124941094
 11
104.4642523610367
 21
-110.3681124941094
 72
     1
 10
104.4642523610367
 20
-110.3681124941094
 11
104.4642523610367
 21
-110.4969590652577
 72
     1
 10
104.4642523610367
 20
-110.4969590652577
 11
104.6251383201979
 21
-110.4969590652577
 72
     1
 10
104.6251383201979
 20
-110.4969590652577
 11
104.6251383201979
 21
-110.3681124941094
 97
        0
 92
        1
 93
        1
 72
     4
 94
        3
 73
     0
 74
     1
 95
       41
 96
       37
 40
0.0
 40
0.0
 40
0.0
 40
0.0
 40
1.0
 40
1.0
 40
1.0
 40
2.0
 40
2.0
 40
2.0
 40
3.0
 40
3.0
 40
3.0
 40
4.0
 40
4.0
 40
4.0
 40
5.0
 40
5.0
 40
5.0
 40
6.0
 40
6.0
 40
6.0
 40
7.0
 40
7.0
 40
7.0
 40
8.0
 40
8.0
 40
8.0
 40
9.0
 40
9.0
 40
9.0
 40
10.0
 40
10.0
 40
10.0
 40
11.0
 40
11.0
 40
11.0
 40
12.0
 40
12.0
 40
12.0
 40
12.0
 10
105.7148220221824
 20
-111.3261935485573
 10
105.4736653382149
 20
-111.190801295987
 10
105.295898411176
 20
-110.8948675938041
 10
105.2555907939986
 20
-110.7656765131072
 10
105.1350124520149
 20
-111.0302598463744
 10
104.9720594355625
 20
-111.2080267734133
 10
104.7901583939414
 20
-111.322059433975
 10
104.7901583939414
 20
-111.322059433975
 10
104.5934434417336
 20
-111.1846001241136
 10
104.5934434417336
 20
-111.1846001241136
 10
104.6633788800842
 20
-111.1591064175227
 10
104.8094509286587
 20
-111.0977837178853
 10
104.9320963279336
 20
-110.9434434401461
 10
105.0568087844997
 20
-110.7870361051157
 10
105.1456922480191
 20
-110.5541476503129
 10
105.1456922480191
 20
-110.2940429411765
 10
105.1456922480191
 20
-110.1924126243616
 10
105.1329453947237
 20
-110.1204101287199
 10
105.1222655987194
 20
-110.073901339669
 10
105.1222655987194
 20
-110.073901339669
 10
105.3275932896403
 20
-110.0952609316776
 10
105.3275932896403
 20
-110.0952609316776
 10
105.3486083721004
 20
-110.0973279889687
 10
105.3696234545604
 20
-110.0993950462599
 10
105.3696234545604
 20
-110.1204101287199
 10
105.3696234545604
 20
-110.1397026634373
 10
105.3592881681046
 20
-110.1479708926019
 10
105.3255262323492
 20
-110.1693304846105
 10
105.3169134936361
 20
-110.3701795514005
 10
105.3741020786912
 20
-110.6134032926592
 10
105.4354247783287
 20
-110.7339816346429
 10
105.5263752991392
 20
-110.9096815043906
 10
105.7210231940559
 20
-111.0895154887207
 10
105.8564154466262
 20
-111.1463595642273
 10
105.8564154466262
 20
-111.1463595642273
 10
105.7148220221824
 20
-111.3261935485573
 10
105.7148220221824
 20
-111.3261935485573
 97
        0
 97
        0
 75
     2
 76
     1
 98
        0
  0
SPLINE
  5
1A4
330
181
100
AcDbEntity
  8
_U+30EC_U+30A4_U+30E4_U+30FC 1
370
     0
100
AcDbSpline
210
0.0
220
0.0
230
1.0
 70
    11
 71
     3
 72
    71
 73
    67
 74
     0
 42
0.0000000001
 43
0.0000000001
 12
1.0
 22
0.0
 32
0.0
 13
1.0
 23
0.0
 33
0.0
 40
0.0
 40
0.0
 40
0.0
 40
0.0
 40
1.0
 40
1.0
 40
1.0
 40
2.0
 40
2.0
 40
2.0
 40
3.0
 40
3.0
 40
3.0
 40
4.0
 40
4.0
 40
4.0
 40
5.0
 40
5.0
 40
5.0
 40
6.0
 40
6.0
 40
6.0
 40
7.0
 40
7.0
 40
7.0
 40
8.0
 40
8.0
 40
8.0
 40
9.0
 40
9.0
 40
9.0
 40
10.0
 40
10.0
 40
10.0
 40
11.0
 40
11.0
 40
11.0
 40
12.0
 40
12.0
 40
12.0
 40
13.0
 40
13.0
 40
13.0
 40
14.0
 40
14.0
 40
14.0
 40
15.0
 40
15.0
 40
15.0
 40
16.0
 40
16.0
 40
16.0
 40
17.0
 40
17.0
 40
17.0
 40
18.0
 40
18.0
 40
18.0
 40
19.0
 40
19.0
 40
19.0
 40
20.0
 40
20.0
 40
20.0
 40
21.0
 40
21.0
 40
21.0
 40
22.0
 40
22.0
 40
22.0
 40
22.0
 10
106.90889211737
 20
-109.5936550290252
 30
0.0
 10
106.8940782067834
 20
-109.5936550290252
 30
0.0
 10
106.881331353488
 20
-109.5895209144429
 30
0.0
 10
106.8558376468972
 20
-109.5809081757298
 30
0.0
 10
106.7142442224534
 20
-109.6277614743292
 30
0.0
 10
106.5409559195453
 20
-109.6446424422069
 30
0.0
 10
106.4010850428442
 20
-109.6487765567892
 30
0.0
 10
106.4010850428442
 20
-109.6487765567892
 30
0.0
 10
106.399017985553
 20
-109.7376600203087
 30
0.0
 10
106.399017985553
 20
-109.7376600203087
 30
0.0
 10
106.399017985553
 20
-109.7376600203087
 30
0.0
 10
106.6594672042379
 20
-109.7376600203087
 30
0.0
 10
106.6594672042379
 20
-109.7376600203087
 30
0.0
 10
106.7121771651622
 20
-109.7376600203087
 30
0.0
 10
106.8940782067834
 20
-109.7290472815955
 30
0.0
 10
106.9385199385432
 20
-109.7228461097221
 30
0.0
 10
106.9385199385432
 20
-109.7228461097221
 30
0.0
 10
106.9385199385432
 20
-109.8837320688832
 30
0.0
 10
106.9385199385432
 20
-109.8837320688832
 30
0.0
 10
106.8833984107792
 20
-109.8771863874613
 30
0.0
 10
106.7586859542131
 20
-109.8751193301701
 30
0.0
 10
106.7207899038754
 20
-109.8771863874613
 30
0.0
 10
106.7207899038754
 20
-109.8771863874613
 30
0.0
 10
106.7207899038754
 20
-109.9870849334407
 30
0.0
 10
106.7207899038754
 20
-109.9870849334407
 30
0.0
 10
106.7207899038754
 20
-110.0335937224916
 30
0.0
 10
106.7228569611665
 20
-110.0973279889687
 30
0.0
 10
106.72905813304
 20
-110.1352240393065
 30
0.0
 10
106.72905813304
 20
-110.1352240393065
 30
0.0
 10
106.536821804963
 20
-110.1352240393065
 30
0.0
 10
106.536821804963
 20
-110.1352240393065
 30
0.0
 10
106.5430229768365
 20
-110.0952609316776
 30
0.0
 10
106.5492241487099
 20
-110.0125786400316
 30
0.0
 10
106.5492241487099
 20
-109.997764729445
 30
0.0
 10
106.5492241487099
 20
-109.997764729445
 30
0.0
 10
106.5492241487099
 20
-109.8771863874613
 30
0.0
 10
106.5492241487099
 20
-109.8771863874613
 30
0.0
 10
106.5492241487099
 20
-109.8771863874613
 30
0.0
 10
106.384548584515
 20
-109.8771863874613
 30
0.0
 10
106.384548584515
 20
-109.8771863874613
 30
0.0
 10
106.3418294004979
 20
-110.0973279889687
 30
0.0
 10
106.2870523822824
 20
-110.1775987137751
 30
0.0
 10
106.1812879508852
 20
-110.2771619732988
 30
0.0
 10
106.1812879508852
 20
-110.2771619732988
 30
0.0
 10
106.0138563103021
 20
-110.1627848031885
 30
0.0
 10
106.0138563103021
 20
-110.1627848031885
 30
0.0
 10
106.0775905767792
 20
-110.1142089568465
 30
0.0
 10
106.2277967399361
 20
-110.0018988440273
 30
0.0
 10
106.2277967399361
 20
-109.6529106713715
 30
0.0
 10
106.2277967399361
 20
-109.570572889274
 30
0.0
 10
106.219184001223
 20
-109.5240641002232
 30
0.0
 10
106.2109157720584
 20
-109.4751437443326
 30
0.0
 10
106.356987820633
 20
-109.4899576549192
 30
0.0
 10
106.371457221671
 20
-109.4899576549192
 30
0.0
 10
106.4076307242662
 20
-109.4899576549192
 30
0.0
 10
106.5154622129545
 20
-109.4899576549192
 30
0.0
 10
106.6574001469468
 20
-109.4730766870415
 30
0.0
 10
106.8179415965594
 20
-109.411753987404
 30
0.0
 10
106.8179415965594
 20
-109.411753987404
 30
0.0
 10
106.9323187666697
 20
-109.543012125392
 30
0.0
 10
106.9323187666697
 20
-109.543012125392
 30
0.0
 10
106.9385199385432
 20
-109.5492132972655
 30
0.0
 10
106.9426540531255
 20
-109.5578260359786
 30
0.0
 10
106.9426540531255
 20
-109.5660942651432
 30
0.0
 10
106.9426540531255
 20
-109.5895209144429
 30
0.0
 10
106.9237060279566
 20
-109.5936550290252
 30
0.0
 10
106.90889211737
 20
-109.5936550290252
 30
0.0
  0
SPLINE
  5
1A5
330
181
100
AcDbEntity
  8
_U+30EC_U+30A4_U+30E4_U+30FC 1
370
     0
100
AcDbSpline
210
0.0
220
0.0
230
1.0
 70
    11
 71
     3
 72
    74
 73
    70
 74
     0
 42
0.0000000001
 43
0.0000000001
 12
1.0
 22
0.0
 32
0.0
 13
1.0
 23
0.0
 33
0.0
 40
0.0
 40
0.0
 40
0.0
 40
0.0
 40
1.0
 40
1.0
 40
1.0
 40
2.0
 40
2.0
 40
2.0
 40
3.0
 40
3.0
 40
3.0
 40
4.0
 40
4.0
 40
4.0
 40
5.0
 40
5.0
 40
5.0
 40
6.0
 40
6.0
 40
6.0
 40
7.0
 40
7.0
 40
7.0
 40
8.0
 40
8.0
 40
8.0
 40
9.0
 40
9.0
 40
9.0
 40
10.0
 40
10.0
 40
10.0
 40
11.0
 40
11.0
 40
11.0
 40
12.0
 40
12.0
 40
12.0
 40
13.0
 40
13.0
 40
13.0
 40
14.0
 40
14.0
 40
14.0
 40
15.0
 40
15.0
 40
15.0
 40
16.0
 40
16.0
 40
16.0
 40
17.0
 40
17.0
 40
17.0
 40
18.0
 40
18.0
 40
18.0
 40
19.0
 40
19.0
 40
19.0
 40
20.0
 40
20.0
 40
20.0
 40
21.0
 40
21.0
 40
21.0
 40
22.0
 40
22.0
 40
22.0
 40
23.0
 40
23.0
 40
23.0
 40
23.0
 10
107.7467393393828
 20
-111.3602999938613
 30
0.0
 10
107.5331434192973
 20
-111.349620197857
 30
0.0
 10
107.3319498429587
 20
-111.2628037916288
 30
0.0
 10
107.1562499732109
 20
-111.142225449645
 30
0.0
 10
107.1562499732109
 20
-111.142225449645
 30
0.0
 10
107.2537461754435
 20
-111.0554090434167
 30
0.0
 10
107.2537461754435
 20
-111.0554090434167
 30
0.0
 10
107.2537461754435
 20
-111.0554090434167
 30
0.0
 10
106.701497369158
 20
-111.0554090434167
 30
0.0
 10
106.701497369158
 20
-111.0554090434167
 30
0.0
 10
106.701497369158
 20
-111.0554090434167
 30
0.0
 10
106.7821126035128
 20
-111.1191433098938
 30
0.0
 10
106.7821126035128
 20
-111.1191433098938
 30
0.0
 10
106.7883137753863
 20
-111.1232774244761
 30
0.0
 10
106.7989935713905
 20
-111.1339572204804
 30
0.0
 10
106.7989935713905
 20
-111.148771131067
 30
0.0
 10
106.7989935713905
 20
-111.1887342386959
 30
0.0
 10
106.7249240184577
 20
-111.1825330668224
 30
0.0
 10
106.7101101078711
 20
-111.1804660095313
 30
0.0
 10
106.4796332199079
 20
-111.3199923766839
 30
0.0
 10
106.3356282286244
 20
-111.3516872551482
 30
0.0
 10
106.2319308545184
 20
-111.3685682230259
 30
0.0
 10
106.2319308545184
 20
-111.3685682230259
 30
0.0
 10
106.1027397738215
 20
-111.190801295987
 30
0.0
 10
106.1027397738215
 20
-111.190801295987
 30
0.0
 10
106.350442139211
 20
-111.1591064175227
 30
0.0
 10
106.4520724560259
 20
-111.1125976284719
 30
0.0
 10
106.5409559195453
 20
-111.0598876675475
 30
0.0
 10
106.4668863666125
 20
-111.0619547248387
 30
0.0
 10
106.3525091965022
 20
-111.0640217821298
 30
0.0
 10
106.3208143180379
 20
-111.066088839421
 30
0.0
 10
106.3356282286244
 20
-110.9772053759015
 30
0.0
 10
106.3376952859156
 20
-110.8483588047532
 30
0.0
 10
106.3376952859156
 20
-110.7742892518203
 30
0.0
 10
106.3376952859156
 20
-110.7742892518203
 30
0.0
 10
106.3376952859156
 20
-110.4738769255065
 30
0.0
 10
106.3376952859156
 20
-110.4738769255065
 30
0.0
 10
106.3376952859156
 20
-110.3743136659828
 30
0.0
 10
106.3314941140421
 20
-110.2750949160076
 30
0.0
 10
106.3208143180379
 20
-110.1775987137751
 30
0.0
 10
106.4224446348527
 20
-110.1837998856485
 30
0.0
 10
106.6529215228159
 20
-110.1903455670705
 30
0.0
 10
106.7607530115043
 20
-110.1903455670705
 30
0.0
 10
106.7607530115043
 20
-110.1903455670705
 30
0.0
 10
107.1838107370929
 20
-110.1903455670705
 30
0.0
 10
107.1838107370929
 20
-110.1903455670705
 30
0.0
 10
107.3023220217855
 20
-110.1903455670705
 30
0.0
 10
107.3446966962541
 20
-110.1903455670705
 30
0.0
 10
107.4270344783516
 20
-110.1862114524882
 30
0.0
 10
107.5751735842173
 20
-110.1796657710662
 30
0.0
 10
107.5923990616436
 20
-110.1796657710662
 30
0.0
 10
107.6385633411459
 20
-110.1775987137751
 30
0.0
 10
107.6302951119813
 20
-110.2578694385814
 30
0.0
 10
107.626160997399
 20
-110.4166883404514
 30
0.0
 10
107.626160997399
 20
-110.4990261225489
 30
0.0
 10
107.626160997399
 20
-110.4990261225489
 30
0.0
 10
107.626160997399
 20
-110.7846245382761
 30
0.0
 10
107.626160997399
 20
-110.7846245382761
 30
0.0
 10
107.626160997399
 20
-110.8566270339178
 30
0.0
 10
107.6282280546902
 20
-110.9878851719058
 30
0.0
 10
107.6385633411459
 20
-111.066088839421
 30
0.0
 10
107.5669053550527
 20
-111.0619547248387
 30
0.0
 10
107.4442599557778
 20
-111.0598876675475
 30
0.0
 10
107.3657117787141
 20
-111.0578206102564
 30
0.0
 10
107.4759548342421
 20
-111.1253444817673
 30
0.0
 10
107.6282280546902
 20
-111.1759873854004
 30
0.0
 10
107.8397569174845
 20
-111.1804660095313
 30
0.0
 10
107.8397569174845
 20
-111.1804660095313
 30
0.0
 10
107.7467393393828
 20
-111.3602999938613
 30
0.0
 10
107.7467393393828
 20
-111.3602999938613
 30
0.0
  0
POLYLINE
  5
1A6
330
181
100
AcDbEntity
  8
_U+30EC_U+30A4_U+30E4_U+30FC 1
370
     0
100
AcDb2dPolyline
 66
     1
 10
0.0
 20
0.0
 30
0.0
  0
VERTEX
  5
1A7
330
1A6
100
AcDbEntity
  8
_U+30EC_U+30A4_U+30E4_U+30FC 1
370
     0
100
AcDbVertex
100
AcDb2dVertex
 10
107.4421928984867
 20
-110.3257378196408
 30
0.0
  0
VERTEX
  5
1A8
330
1A6
100
AcDbEntity
  8
_U+30EC_U+30A4_U+30E4_U+30FC 1
370
     0
100
AcDbVertex
100
AcDb2dVertex
 10
106.530276123541
 20
-110.3257378196408
 30
0.0
  0
VERTEX
  5
1A9
330
1A6
100
AcDbEntity
  8
_U+30EC_U+30A4_U+30E4_U+30FC 1
370
     0
100
AcDbVertex
100
AcDb2dVertex
 10
106.530276123541
 20
-110.4377034229114
 30
0.0
  0
VERTEX
  5
1AA
330
1A6
100
AcDbEntity
  8
_U+30EC_U+30A4_U+30E4_U+30FC 1
370
     0
100
AcDbVertex
100
AcDb2dVertex
 10
107.4421928984867
 20
-110.4377034229114
 30
0.0
  0
VERTEX
  5
1AB
330
1A6
100
AcDbEntity
  8
_U+30EC_U+30A4_U+30E4_U+30FC 1
370
     0
100
AcDbVertex
100
AcDb2dVertex
 10
107.4421928984867
 20
-110.3257378196408
 30
0.0
  0
SEQEND
  5
1AC
330
1A6
100
AcDbEntity
  8
_U+30EC_U+30A4_U+30E4_U+30FC 1
370
     0
  0
POLYLINE
  5
1AD
330
181
100
AcDbEntity
  8
_U+30EC_U+30A4_U+30E4_U+30FC 1
370
     0
100
AcDb2dPolyline
 66
     1
 10
0.0
 20
0.0
 30
0.0
  0
VERTEX
  5
1AE
330
1AD
100
AcDbEntity
  8
_U+30EC_U+30A4_U+30E4_U+30FC 1
370
     0
100
AcDbVertex
100
AcDb2dVertex
 10
107.4421928984867
 20
-110.5710286181906
 30
0.0
  0
VERTEX
  5
1AF
330
1AD
100
AcDbEntity
  8
_U+30EC_U+30A4_U+30E4_U+30FC 1
370
     0
100
AcDbVertex
100
AcDb2dVertex
 10
106.530276123541
 20
-110.5710286181906
 30
0.0
  0
VERTEX
  5
1B0
330
1AD
100
AcDbEntity
  8
_U+30EC_U+30A4_U+30E4_U+30FC 1
370
     0
100
AcDbVertex
100
AcDb2dVertex
 10
106.530276123541
 20
-110.6812716737186
 30
0.0
  0
VERTEX
  5
1B1
330
1AD
100
AcDbEntity
  8
_U+30EC_U+30A4_U+30E4_U+30FC 1
370
     0
100
AcDbVertex
100
AcDb2dVertex
 10
107.4421928984867
 20
-110.6812716737186
 30
0.0
  0
VERTEX
  5
1B2
330
1AD
100
AcDbEntity
  8
_U+30EC_U+30A4_U+30E4_U+30FC 1
370
     0
100
AcDbVertex
100
AcDb2dVertex
 10
107.4421928984867
 20
-110.5710286181906
 30
0.0
  0
SEQEND
  5
1B3
330
1AD
100
AcDbEntity
  8
_U+30EC_U+30A4_U+30E4_U+30FC 1
370
     0
  0
POLYLINE
  5
1B4
330
181
100
AcDbEntity
  8
_U+30EC_U+30A4_U+30E4_U+30FC 1
370
     0
100
AcDb2dPolyline
 66
     1
 10
0.0
 20
0.0
 30
0.0
  0
VERTEX
  5
1B5
330
1B4
100
AcDbEntity
  8
_U+30EC_U+30A4_U+30E4_U+30FC 1
370
     0
100
AcDbVertex
100
AcDb2dVertex
 10
107.4421928984867
 20
-110.8166639262889
 30
0.0
  0
VERTEX
  5
1B6
330
1B4
100
AcDbEntity
  8
_U+30EC_U+30A4_U+30E4_U+30FC 1
370
     0
100
AcDbVertex
100
AcDb2dVertex
 10
106.530276123541
 20
-110.8166639262889
 30
0.0
  0
VERTEX
  5
1B7
330
1B4
100
AcDbEntity
  8
_U+30EC_U+30A4_U+30E4_U+30FC 1
370
     0
100
AcDbVertex
100
AcDb2dVertex
 10
106.530276123541
 20
-110.9244954149772
 30
0.0
  0
VERTEX
  5
1B8
330
1B4
100
AcDbEntity
  8
_U+30EC_U+30A4_U+30E4_U+30FC 1
370
     0
100
AcDbVertex
100
AcDb2dVertex
 10
107.4421928984867
 20
-110.9244954149772
 30
0.0
  0
VERTEX
  5
1B9
330
1B4
100
AcDbEntity
  8
_U+30EC_U+30A4_U+30E4_U+30FC 1
370
     0
100
AcDbVertex
100
AcDb2dVertex
 10
107.4421928984867
 20
-110.8166639262889
 30
0.0
  0
SEQEND
  5
1BA
330
1B4
100
AcDbEntity
  8
_U+30EC_U+30A4_U+30E4_U+30FC 1
370
     0
  0
SPLINE
  5
1BB
330
181
100
AcDbEntity
  8
_U+30EC_U+30A4_U+30E4_U+30FC 1
370
     0
100
AcDbSpline
210
0.0
220
0.0
230
1.0
 70
    11
 71
     3
 72
    74
 73
    70
 74
     0
 42
0.0000000001
 43
0.0000000001
 12
1.0
 22
0.0
 32
0.0
 13
1.0
 23
0.0
 33
0.0
 40
0.0
 40
0.0
 40
0.0
 40
0.0
 40
1.0
 40
1.0
 40
1.0
 40
2.0
 40
2.0
 40
2.0
 40
3.0
 40
3.0
 40
3.0
 40
4.0
 40
4.0
 40
4.0
 40
5.0
 40
5.0
 40
5.0
 40
6.0
 40
6.0
 40
6.0
 40
7.0
 40
7.0
 40
7.0
 40
8.0
 40
8.0
 40
8.0
 40
9.0
 40
9.0
 40
9.0
 40
10.0
 40
10.0
 40
10.0
 40
11.0
 40
11.0
 40
11.0
 40
12.0
 40
12.0
 40
12.0
 40
13.0
 40
13.0
 40
13.0
 40
14.0
 40
14.0
 40
14.0
 40
15.0
 40
15.0
 40
15.0
 40
16.0
 40
16.0
 40
16.0
 40
17.0
 40
17.0
 40
17.0
 40
18.0
 40
18.0
 40
18.0
 40
19.0
 40
19.0
 40
19.0
 40
20.0
 40
20.0
 40
20.0
 40
21.0
 40
21.0
 40
21.0
 40
22.0
 40
22.0
 40
22.0
 40
23.0
 40
23.0
 40
23.0
 40
23.0
 10
107.7591416831297
 20
-109.873052272879
 30
0.0
 10
107.7591416831297
 20
-109.873052272879
 30
0.0
 10
107.598600233517
 20
-109.873052272879
 30
0.0
 10
107.598600233517
 20
-109.873052272879
 30
0.0
 10
107.598600233517
 20
-109.873052272879
 30
0.0
 10
107.598600233517
 20
-109.9870849334407
 30
0.0
 10
107.598600233517
 20
-109.9870849334407
 30
0.0
 10
107.598600233517
 20
-110.0273925506182
 30
0.0
 10
107.6048014053905
 20
-110.101462103551
 30
0.0
 10
107.6089355199728
 20
-110.1269558101419
 30
0.0
 10
107.6089355199728
 20
-110.1269558101419
 30
0.0
 10
107.3974066571784
 20
-110.1269558101419
 30
0.0
 10
107.3974066571784
 20
-110.1269558101419
 30
0.0
 10
107.4084309627312
 20
-110.0611544863736
 30
0.0
 10
107.4104980200224
 20
-110.0018988440273
 30
0.0
 10
107.4104980200224
 20
-109.9998317867362
 30
0.0
 10
107.4104980200224
 20
-109.9998317867362
 30
0.0
 10
107.4104980200224
 20
-109.8771863874613
 30
0.0
 10
107.4104980200224
 20
-109.8771863874613
 30
0.0
 10
107.4104980200224
 20
-109.8771863874613
 30
0.0
 10
107.2306640356923
 20
-109.8771863874613
 30
0.0
 10
107.2306640356923
 20
-109.8771863874613
 30
0.0
 10
107.2113715009749
 20
-109.9364420298076
 30
0.0
 10
107.1648627119241
 20
-110.0825140783822
 30
0.0
 10
107.0508300513623
 20
-110.1648518604796
 30
0.0
 10
107.0508300513623
 20
-110.1648518604796
 30
0.0
 10
106.8940782067834
 20
-110.0590874290825
 30
0.0
 10
106.8940782067834
 20
-110.0590874290825
 30
0.0
 10
106.9681477597163
 20
-110.0125786400316
 30
0.0
 10
107.0845919871177
 20
-109.9385090870987
 30
0.0
 10
107.0845919871177
 20
-109.6170816783249
 30
0.0
 10
107.0845919871177
 20
-109.5619601505609
 30
0.0
 10
107.0804578725354
 20
-109.5175184188012
 30
0.0
 10
107.0783908152443
 20
-109.4796223684634
 30
0.0
 10
107.1541829159198
 20
-109.487890597628
 30
0.0
 10
107.2285969784012
 20
-109.49443627905
 30
0.0
 10
107.2919867353298
 20
-109.49443627905
 30
0.0
 10
107.4697536623687
 20
-109.49443627905
 30
0.0
 10
107.6681911623191
 20
-109.4351806367037
 30
0.0
 10
107.7295138619565
 20
-109.4055528155306
 30
0.0
 10
107.7295138619565
 20
-109.4055528155306
 30
0.0
 10
107.8566378853622
 20
-109.5409450681009
 30
0.0
 10
107.8566378853622
 20
-109.5409450681009
 30
0.0
 10
107.8611165094931
 20
-109.5450791826832
 30
0.0
 10
107.8631835667842
 20
-109.5536919213963
 30
0.0
 10
107.8631835667842
 20
-109.5598930932697
 30
0.0
 10
107.8631835667842
 20
-109.5809081757298
 30
0.0
 10
107.8480251466491
 20
-109.5874538571518
 30
0.0
 10
107.8314886883199
 20
-109.5874538571518
 30
0.0
 10
107.8101290963114
 20
-109.5874538571518
 30
0.0
 10
107.7953151857248
 20
-109.5788411184386
 30
0.0
 10
107.7763671605559
 20
-109.5685058319829
 30
0.0
 10
107.6027343480993
 20
-109.6253499074895
 30
0.0
 10
107.3850043134315
 20
-109.6508436140803
 30
0.0
 10
107.2516791181524
 20
-109.6529106713715
 30
0.0
 10
107.2516791181524
 20
-109.6529106713715
 30
0.0
 10
107.2472004940215
 20
-109.7355929630175
 30
0.0
 10
107.2472004940215
 20
-109.7355929630175
 30
0.0
 10
107.2472004940215
 20
-109.7355929630175
 30
0.0
 10
107.5203965660018
 20
-109.7355929630175
 30
0.0
 10
107.5203965660018
 20
-109.7355929630175
 30
0.0
 10
107.5772406415085
 20
-109.7355929630175
 30
0.0
 10
107.8397569174845
 20
-109.7163004283001
 30
0.0
 10
107.8841986492442
 20
-109.7100992564266
 30
0.0
 10
107.8841986492442
 20
-109.7100992564266
 30
0.0
 10
107.8841986492442
 20
-109.8792534447524
 30
0.0
 10
107.8841986492442
 20
-109.8792534447524
 30
0.0
 10
107.8504367134888
 20
-109.8751193301701
 30
0.0
 10
107.8376898601934
 20
-109.873052272879
 30
0.0
 10
107.7591416831297
 20
-109.873052272879
 30
0.0
  0
HATCH
  5
1BC
330
181
100
AcDbEntity
  8
_U+30EC_U+30A4_U+30E4_U+30FC 1
 62
   179
420
  2234388
100
AcDbHatch
 10
0.0
 20
0.0
 30
0.0
210
0.0
220
0.0
230
1.0
  2
SOLID
 70
     1
 71
     0
 91
        6
 92
        1
 93
        1
 72
     4
 94
        3
 73
     0
 74
     1
 95
       71
 96
       67
 40
0.0
 40
0.0
 40
0.0
 40
0.0
 40
1.0
 40
1.0
 40
1.0
 40
2.0
 40
2.0
 40
2.0
 40
3.0
 40
3.0
 40
3.0
 40
4.0
 40
4.0
 40
4.0
 40
5.0
 40
5.0
 40
5.0
 40
6.0
 40
6.0
 40
6.0
 40
7.0
 40
7.0
 40
7.0
 40
8.0
 40
8.0
 40
8.0
 40
9.0
 40
9.0
 40
9.0
 40
10.0
 40
10.0
 40
10.0
 40
11.0
 40
11.0
 40
11.0
 40
12.0
 40
12.0
 40
12.0
 40
13.0
 40
13.0
 40
13.0
 40
14.0
 40
14.0
 40
14.0
 40
15.0
 40
15.0
 40
15.0
 40
16.0
 40
16.0
 40
16.0
 40
17.0
 40
17.0
 40
17.0
 40
18.0
 40
18.0
 40
18.0
 40
19.0
 40
19.0
 40
19.0
 40
20.0
 40
20.0
 40
20.0
 40
21.0
 40
21.0
 40
21.0
 40
22.0
 40
22.0
 40
22.0
 40
22.0
 10
106.90889211737
 20
-109.5936550290252
 10
106.8940782067834
 20
-109.5936550290252
 10
106.881331353488
 20
-109.5895209144429
 10
106.8558376468972
 20
-109.5809081757298
 10
106.7142442224534
 20
-109.6277614743292
 10
106.5409559195453
 20
-109.6446424422069
 10
106.4010850428442
 20
-109.6487765567892
 10
106.4010850428442
 20
-109.6487765567892
 10
106.399017985553
 20
-109.7376600203087
 10
106.399017985553
 20
-109.7376600203087
 10
106.399017985553
 20
-109.7376600203087
 10
106.6594672042379
 20
-109.7376600203087
 10
106.6594672042379
 20
-109.7376600203087
 10
106.7121771651622
 20
-109.7376600203087
 10
106.8940782067834
 20
-109.7290472815955
 10
106.9385199385432
 20
-109.7228461097221
 10
106.9385199385432
 20
-109.7228461097221
 10
106.9385199385432
 20
-109.8837320688832
 10
106.9385199385432
 20
-109.8837320688832
 10
106.8833984107792
 20
-109.8771863874613
 10
106.7586859542131
 20
-109.8751193301701
 10
106.7207899038754
 20
-109.8771863874613
 10
106.7207899038754
 20
-109.8771863874613
 10
106.7207899038754
 20
-109.9870849334407
 10
106.7207899038754
 20
-109.9870849334407
 10
106.7207899038754
 20
-110.0335937224916
 10
106.7228569611665
 20
-110.0973279889687
 10
106.72905813304
 20
-110.1352240393065
 10
106.72905813304
 20
-110.1352240393065
 10
106.536821804963
 20
-110.1352240393065
 10
106.536821804963
 20
-110.1352240393065
 10
106.5430229768365
 20
-110.0952609316776
 10
106.5492241487099
 20
-110.0125786400316
 10
106.5492241487099
 20
-109.997764729445
 10
106.5492241487099
 20
-109.997764729445
 10
106.5492241487099
 20
-109.8771863874613
 10
106.5492241487099
 20
-109.8771863874613
 10
106.5492241487099
 20
-109.8771863874613
 10
106.384548584515
 20
-109.8771863874613
 10
106.384548584515
 20
-109.8771863874613
 10
106.3418294004979
 20
-110.0973279889687
 10
106.2870523822824
 20
-110.1775987137751
 10
106.1812879508852
 20
-110.2771619732988
 10
106.1812879508852
 20
-110.2771619732988
 10
106.0138563103021
 20
-110.1627848031885
 10
106.0138563103021
 20
-110.1627848031885
 10
106.0775905767792
 20
-110.1142089568465
 10
106.2277967399361
 20
-110.0018988440273
 10
106.2277967399361
 20
-109.6529106713715
 10
106.2277967399361
 20
-109.570572889274
 10
106.219184001223
 20
-109.5240641002232
 10
106.2109157720584
 20
-109.4751437443326
 10
106.356987820633
 20
-109.4899576549192
 10
106.371457221671
 20
-109.4899576549192
 10
106.4076307242662
 20
-109.4899576549192
 10
106.5154622129545
 20
-109.4899576549192
 10
106.6574001469468
 20
-109.4730766870415
 10
106.8179415965594
 20
-109.411753987404
 10
106.8179415965594
 20
-109.411753987404
 10
106.9323187666697
 20
-109.543012125392
 10
106.9323187666697
 20
-109.543012125392
 10
106.9385199385432
 20
-109.5492132972655
 10
106.9426540531255
 20
-109.5578260359786
 10
106.9426540531255
 20
-109.5660942651432
 10
106.9426540531255
 20
-109.5895209144429
 10
106.9237060279566
 20
-109.5936550290252
 10
106.90889211737
 20
-109.5936550290252
 97
        0
 97
        0
 92
        1
 93
        1
 72
     4
 94
        3
 73
     0
 74
     1
 95
       74
 96
       70
 40
0.0
 40
0.0
 40
0.0
 40
0.0
 40
1.0
 40
1.0
 40
1.0
 40
2.0
 40
2.0
 40
2.0
 40
3.0
 40
3.0
 40
3.0
 40
4.0
 40
4.0
 40
4.0
 40
5.0
 40
5.0
 40
5.0
 40
6.0
 40
6.0
 40
6.0
 40
7.0
 40
7.0
 40
7.0
 40
8.0
 40
8.0
 40
8.0
 40
9.0
 40
9.0
 40
9.0
 40
10.0
 40
10.0
 40
10.0
 40
11.0
 40
11.0
 40
11.0
 40
12.0
 40
12.0
 40
12.0
 40
13.0
 40
13.0
 40
13.0
 40
14.0
 40
14.0
 40
14.0
 40
15.0
 40
15.0
 40
15.0
 40
16.0
 40
16.0
 40
16.0
 40
17.0
 40
17.0
 40
17.0
 40
18.0
 40
18.0
 40
18.0
 40
19.0
 40
19.0
 40
19.0
 40
20.0
 40
20.0
 40
20.0
 40
21.0
 40
21.0
 40
21.0
 40
22.0
 40
22.0
 40
22.0
 40
23.0
 40
23.0
 40
23.0
 40
23.0
 10
107.7467393393828
 20
-111.3602999938613
 10
107.5331434192973
 20
-111.349620197857
 10
107.3319498429587
 20
-111.2628037916288
 10
107.1562499732109
 20
-111.142225449645
 10
107.1562499732109
 20
-111.142225449645
 10
107.2537461754435
 20
-111.0554090434167
 10
107.2537461754435
 20
-111.0554090434167
 10
107.2537461754435
 20
-111.0554090434167
 10
106.701497369158
 20
-111.0554090434167
 10
106.701497369158
 20
-111.0554090434167
 10
106.701497369158
 20
-111.0554090434167
 10
106.7821126035128
 20
-111.1191433098938
 10
106.7821126035128
 20
-111.1191433098938
 10
106.7883137753863
 20
-111.1232774244761
 10
106.7989935713905
 20
-111.1339572204804
 10
106.7989935713905
 20
-111.148771131067
 10
106.7989935713905
 20
-111.1887342386959
 10
106.7249240184577
 20
-111.1825330668224
 10
106.7101101078711
 20
-111.1804660095313
 10
106.4796332199079
 20
-111.3199923766839
 10
106.3356282286244
 20
-111.3516872551482
 10
106.2319308545184
 20
-111.3685682230259
 10
106.2319308545184
 20
-111.3685682230259
 10
106.1027397738215
 20
-111.190801295987
 10
106.1027397738215
 20
-111.190801295987
 10
106.350442139211
 20
-111.1591064175227
 10
106.4520724560259
 20
-111.1125976284719
 10
106.5409559195453
 20
-111.0598876675475
 10
106.4668863666125
 20
-111.0619547248387
 10
106.3525091965022
 20
-111.0640217821298
 10
106.3208143180379
 20
-111.066088839421
 10
106.3356282286244
 20
-110.9772053759015
 10
106.3376952859156
 20
-110.8483588047532
 10
106.3376952859156
 20
-110.7742892518203
 10
106.3376952859156
 20
-110.7742892518203
 10
106.3376952859156
 20
-110.4738769255065
 10
106.3376952859156
 20
-110.4738769255065
 10
106.3376952859156
 20
-110.3743136659828
 10
106.3314941140421
 20
-110.2750949160076
 10
106.3208143180379
 20
-110.1775987137751
 10
106.4224446348527
 20
-110.1837998856485
 10
106.6529215228159
 20
-110.1903455670705
 10
106.7607530115043
 20
-110.1903455670705
 10
106.7607530115043
 20
-110.1903455670705
 10
107.1838107370929
 20
-110.1903455670705
 10
107.1838107370929
 20
-110.1903455670705
 10
107.3023220217855
 20
-110.1903455670705
 10
107.3446966962541
 20
-110.1903455670705
 10
107.4270344783516
 20
-110.1862114524882
 10
107.5751735842173
 20
-110.1796657710662
 10
107.5923990616436
 20
-110.1796657710662
 10
107.6385633411459
 20
-110.1775987137751
 10
107.6302951119813
 20
-110.2578694385814
 10
107.626160997399
 20
-110.4166883404514
 10
107.626160997399
 20
-110.4990261225489
 10
107.626160997399
 20
-110.4990261225489
 10
107.626160997399
 20
-110.7846245382761
 10
107.626160997399
 20
-110.7846245382761
 10
107.626160997399
 20
-110.8566270339178
 10
107.6282280546902
 20
-110.9878851719058
 10
107.6385633411459
 20
-111.066088839421
 10
107.5669053550527
 20
-111.0619547248387
 10
107.4442599557778
 20
-111.0598876675475
 10
107.3657117787141
 20
-111.0578206102564
 10
107.4759548342421
 20
-111.1253444817673
 10
107.6282280546902
 20
-111.1759873854004
 10
107.8397569174845
 20
-111.1804660095313
 10
107.8397569174845
 20
-111.1804660095313
 10
107.7467393393828
 20
-111.3602999938613
 10
107.7467393393828
 20
-111.3602999938613
 97
        0
 97
        0
 92
        1
 93
        4
 72
     1
 10
107.4421928984867
 20
-110.3257378196408
 11
106.530276123541
 21
-110.3257378196408
 72
     1
 10
106.530276123541
 20
-110.3257378196408
 11
106.530276123541
 21
-110.4377034229114
 72
     1
 10
106.530276123541
 20
-110.4377034229114
 11
107.4421928984867
 21
-110.4377034229114
 72
     1
 10
107.4421928984867
 20
-110.4377034229114
 11
107.4421928984867
 21
-110.3257378196408
 97
        0
 92
        1
 93
        4
 72
     1
 10
107.4421928984867
 20
-110.5710286181906
 11
106.530276123541
 21
-110.5710286181906
 72
     1
 10
106.530276123541
 20
-110.5710286181906
 11
106.530276123541
 21
-110.6812716737186
 72
     1
 10
106.530276123541
 20
-110.6812716737186
 11
107.4421928984867
 21
-110.6812716737186
 72
     1
 10
107.4421928984867
 20
-110.6812716737186
 11
107.4421928984867
 21
-110.5710286181906
 97
        0
 92
        1
 93
        4
 72
     1
 10
107.4421928984867
 20
-110.8166639262889
 11
106.530276123541
 21
-110.8166639262889
 72
     1
 10
106.530276123541
 20
-110.8166639262889
 11
106.530276123541
 21
-110.9244954149772
 72
     1
 10
106.530276123541
 20
-110.9244954149772
 11
107.4421928984867
 21
-110.9244954149772
 72
     1
 10
107.4421928984867
 20
-110.9244954149772
 11
107.4421928984867
 21
-110.8166639262889
 97
        0
 92
        1
 93
        1
 72
     4
 94
        3
 73
     0
 74
     1
 95
       74
 96
       70
 40
0.0
 40
0.0
 40
0.0
 40
0.0
 40
1.0
 40
1.0
 40
1.0
 40
2.0
 40
2.0
 40
2.0
 40
3.0
 40
3.0
 40
3.0
 40
4.0
 40
4.0
 40
4.0
 40
5.0
 40
5.0
 40
5.0
 40
6.0
 40
6.0
 40
6.0
 40
7.0
 40
7.0
 40
7.0
 40
8.0
 40
8.0
 40
8.0
 40
9.0
 40
9.0
 40
9.0
 40
10.0
 40
10.0
 40
10.0
 40
11.0
 40
11.0
 40
11.0
 40
12.0
 40
12.0
 40
12.0
 40
13.0
 40
13.0
 40
13.0
 40
14.0
 40
14.0
 40
14.0
 40
15.0
 40
15.0
 40
15.0
 40
16.0
 40
16.0
 40
16.0
 40
17.0
 40
17.0
 40
17.0
 40
18.0
 40
18.0
 40
18.0
 40
19.0
 40
19.0
 40
19.0
 40
20.0
 40
20.0
 40
20.0
 40
21.0
 40
21.0
 40
21.0
 40
22.0
 40
22.0
 40
22.0
 40
23.0
 40
23.0
 40
23.0
 40
23.0
 10
107.7591416831297
 20
-109.873052272879
 10
107.7591416831297
 20
-109.873052272879
 10
107.598600233517
 20
-109.873052272879
 10
107.598600233517
 20
-109.873052272879
 10
107.598600233517
 20
-109.873052272879
 10
107.598600233517
 20
-109.9870849334407
 10
107.598600233517
 20
-109.9870849334407
 10
107.598600233517
 20
-110.0273925506182
 10
107.6048014053905
 20
-110.101462103551
 10
107.6089355199728
 20
-110.1269558101419
 10
107.6089355199728
 20
-110.1269558101419
 10
107.3974066571784
 20
-110.1269558101419
 10
107.3974066571784
 20
-110.1269558101419
 10
107.4084309627312
 20
-110.0611544863736
 10
107.4104980200224
 20
-110.0018988440273
 10
107.4104980200224
 20
-109.9998317867362
 10
107.4104980200224
 20
-109.9998317867362
 10
107.4104980200224
 20
-109.8771863874613
 10
107.4104980200224
 20
-109.8771863874613
 10
107.4104980200224
 20
-109.8771863874613
 10
107.2306640356923
 20
-109.8771863874613
 10
107.2306640356923
 20
-109.8771863874613
 10
107.2113715009749
 20
-109.9364420298076
 10
107.1648627119241
 20
-110.0825140783822
 10
107.0508300513623
 20
-110.1648518604796
 10
107.0508300513623
 20
-110.1648518604796
 10
106.8940782067834
 20
-110.0590874290825
 10
106.8940782067834
 20
-110.0590874290825
 10
106.9681477597163
 20
-110.0125786400316
 10
107.0845919871177
 20
-109.9385090870987
 10
107.0845919871177
 20
-109.6170816783249
 10
107.0845919871177
 20
-109.5619601505609
 10
107.0804578725354
 20
-109.5175184188012
 10
107.0783908152443
 20
-109.4796223684634
 10
107.1541829159198
 20
-109.487890597628
 10
107.2285969784012
 20
-109.49443627905
 10
107.2919867353298
 20
-109.49443627905
 10
107.4697536623687
 20
-109.49443627905
 10
107.6681911623191
 20
-109.4351806367037
 10
107.7295138619565
 20
-109.4055528155306
 10
107.7295138619565
 20
-109.4055528155306
 10
107.8566378853622
 20
-109.5409450681009
 10
107.8566378853622
 20
-109.5409450681009
 10
107.8611165094931
 20
-109.5450791826832
 10
107.8631835667842
 20
-109.5536919213963
 10
107.8631835667842
 20
-109.5598930932697
 10
107.8631835667842
 20
-109.5809081757298
 10
107.8480251466491
 20
-109.5874538571518
 10
107.8314886883199
 20
-109.5874538571518
 10
107.8101290963114
 20
-109.5874538571518
 10
107.7953151857248
 20
-109.5788411184386
 10
107.7763671605559
 20
-109.5685058319829
 10
107.6027343480993
 20
-109.6253499074895
 10
107.3850043134315
 20
-109.6508436140803
 10
107.2516791181524
 20
-109.6529106713715
 10
107.2516791181524
 20
-109.6529106713715
 10
107.2472004940215
 20
-109.7355929630175
 10
107.2472004940215
 20
-109.7355929630175
 10
107.2472004940215
 20
-109.7355929630175
 10
107.5203965660018
 20
-109.7355929630175
 10
107.5203965660018
 20
-109.7355929630175
 10
107.5772406415085
 20
-109.7355929630175
 10
107.8397569174845
 20
-109.7163004283001
 10
107.8841986492442
 20
-109.7100992564266
 10
107.8841986492442
 20
-109.7100992564266
 10
107.8841986492442
 20
-109.8792534447524
 10
107.8841986492442
 20
-109.8792534447524
 10
107.8504367134888
 20
-109.8751193301701
 10
107.8376898601934
 20
-109.873052272879
 10
107.7591416831297
 20
-109.873052272879
 97
        0
 97
        0
 75
     2
 76
     1
 98
        0
  0
ENDBLK
  5
184
330
181
100
AcDbEntity
  8
0
100
AcDbBlockEnd
  0
ENDSEC
  0
SECTION
  2
ENTITIES
  0
POLYLINE
  5
41
330
1F
100
AcDbEntity
  8
_U+30EC_U+30A4_U+30E4_U+30FC 1
 62
   179
420
  2234388
370
    25
100
AcDb2dPolyline
 66
     1
 10
0.0
 20
0.0
 30
0.0
  0
VERTEX
  5
42
330
41
100
AcDbEntity
  8
_U+30EC_U+30A4_U+30E4_U+30FC 1
 62
   179
420
  2234388
370
    25
100
AcDbVertex
100
AcDb2dVertex
 10
78.57987216192711
 20
-142.0264635756044
 30
0.0
  0
VERTEX
  5
43
330
41
100
AcDbEntity
  8
_U+30EC_U+30A4_U+30E4_U+30FC 1
 62
   179
420
  2234388
370
    25
100
AcDbVertex
100
AcDb2dVertex
 10
82.70504372335188
 20
-142.0264635756044
 30
0.0
  0
SEQEND
  5
44
330
41
100
AcDbEntity
  8
_U+30EC_U+30A4_U+30E4_U+30FC 1
 62
   179
420
  2234388
370
    25
  0
POLYLINE
  5
45
330
1F
100
AcDbEntity
  8
_U+30EC_U+30A4_U+30E4_U+30FC 1
 62
   179
420
  2234388
370
    25
100
AcDb2dPolyline
 66
     1
 10
0.0
 20
0.0
 30
0.0
  0
VERTEX
  5
46
330
45
100
AcDbEntity
  8
_U+30EC_U+30A4_U+30E4_U+30FC 1
 62
   179
420
  2234388
370
    25
100
AcDbVertex
100
AcDb2dVertex
 10
83.4553667597651
 20
-142.0264635756044
 30
0.0
  0
VERTEX
  5
47
330
45
100
AcDbEntity
  8
_U+30EC_U+30A4_U+30E4_U+30FC 1
 62
   179
420
  2234388
370
    25
100
AcDbVertex
100
AcDb2dVertex
 10
87.58053832118988
 20
-142.0264635756044
 30
0.0
  0
SEQEND
  5
48
330
45
100
AcDbEntity
  8
_U+30EC_U+30A4_U+30E4_U+30FC 1
 62
   179
420
  2234388
370
    25
  0
POLYLINE
  5
49
330
1F
100
AcDbEntity
  8
_U+30EC_U+30A4_U+30E4_U+30FC 1
  6
AI-Linetype-1
 62
   179
420
  2234388
370
     9
100
AcDb2dPolyline
 66
     1
 10
0.0
 20
0.0
 30
0.0
  0
VERTEX
  5
4A
330
49
100
AcDbEntity
  8
_U+30EC_U+30A4_U+30E4_U+30FC 1
  6
AI-Linetype-1
 62
   179
420
  2234388
370
     9
100
AcDbVertex
100
AcDb2dVertex
 10
83.08054038043883
 20
-139.2145777429741
 30
0.0
  0
VERTEX
  5
4B
330
49
100
AcDbEntity
  8
_U+30EC_U+30A4_U+30E4_U+30FC 1
  6
AI-Linetype-1
 62
   179
420
  2234388
370
     9
100
AcDbVertex
100
AcDb2dVertex
 10
83.08054038043883
 20
-142.4839810754904
 30
0.0
  0
SEQEND
  5
4D
330
49
100
AcDbEntity
  8
_U+30EC_U+30A4_U+30E4_U+30FC 1
  6
AI-Linetype-1
 62
   179
420
  2234388
370
     9
  0
SPLINE
  5
4E
330
1F
100
AcDbEntity
  8
_U+30EC_U+30A4_U+30E4_U+30FC 1
 62
   179
420
  2234388
370
    25
100
AcDbSpline
210
0.0
220
0.0
230
1.0
 70
     8
 71
     3
 72
    11
 73
     7
 74
     0
 42
0.0000000001
 43
0.0000000001
 12
1.0
 22
0.0
 32
0.0
 13
1.0
 23
0.0
 33
0.0
 40
0.0
 40
0.0
 40
0.0
 40
0.0
 40
1.0
 40
1.0
 40
1.0
 40
2.0
 40
2.0
 40
2.0
 40
2.0
 10
82.70504372335188
 20
-142.0264635756044
 30
0.0
 10
82.79182705447118
 20
-142.2331913533309
 30
0.0
 10
83.02956399285046
 20
-142.3310166310841
 30
0.0
 10
83.2362564875773
 20
-142.2449035755501
 30
0.0
 10
83.33549287393446
 20
-142.2035580200047
 30
0.0
 10
83.41402120526436
 20
-142.1249944089131
 30
0.0
 10
83.4553667597651
 20
-142.0264635756044
 30
0.0
  0
SPLINE
  5
4F
330
1F
100
AcDbEntity
  8
_U+30EC_U+30A4_U+30E4_U+30FC 1
 62
   179
420
  2234388
370
    25
100
AcDbSpline
210
0.0
220
0.0
230
1.0
 70
    11
 71
     3
 72
    53
 73
    49
 74
     0
 42
0.0000000001
 43
0.0000000001
 12
1.0
 22
0.0
 32
0.0
 13
1.0
 23
0.0
 33
0.0
 40
0.0
 40
0.0
 40
0.0
 40
0.0
 40
1.0
 40
1.0
 40
1.0
 40
2.0
 40
2.0
 40
2.0
 40
3.0
 40
3.0
 40
3.0
 40
4.0
 40
4.0
 40
4.0
 40
5.0
 40
5.0
 40
5.0
 40
6.0
 40
6.0
 40
6.0
 40
7.0
 40
7.0
 40
7.0
 40
8.0
 40
8.0
 40
8.0
 40
9.0
 40
9.0
 40
9.0
 40
10.0
 40
10.0
 40
10.0
 40
11.0
 40
11.0
 40
11.0
 40
12.0
 40
12.0
 40
12.0
 40
13.0
 40
13.0
 40
13.0
 40
14.0
 40
14.0
 40
14.0
 40
15.0
 40
15.0
 40
15.0
 40
16.0
 40
16.0
 40
16.0
 40
16.0
 10
85.88004364235088
 20
-117.526329137285
 30
0.0
 10
85.88004364235088
 20
-117.526329137285
 30
0.0
 10
91.32947239221326
 20
-117.526329137285
 30
0.0
 10
91.32947239221326
 20
-117.526329137285
 30
0.0
 10
91.7270529376257
 20
-117.7419821927868
 30
0.0
 10
91.93169932129362
 20
-118.1175141371371
 30
0.0
 10
91.93169932129362
 20
-118.6012077481275
 30
0.0
 10
91.93169932129362
 20
-118.9684494147024
 30
0.0
 10
91.62301877361317
 20
-119.2185688590842
 30
0.0
 10
91.62301877361317
 20
-119.2185688590842
 30
0.0
 10
91.62301877361317
 20
-119.2185688590842
 30
0.0
 10
91.62301877361317
 20
-119.8924096922491
 30
0.0
 10
91.62301877361317
 20
-119.8924096922491
 30
0.0
 10
91.60576794071993
 20
-119.9558038588998
 30
0.0
 10
91.59338544103584
 20
-120.0212794144392
 30
0.0
 10
91.59338544103584
 20
-120.0901769144218
 30
0.0
 10
91.59338544103584
 20
-120.504267469874
 30
0.0
 10
91.92961793245783
 20
-120.8398296920122
 30
0.0
 10
92.34370847744906
 20
-120.8398296920122
 30
0.0
 10
92.75779902244028
 20
-120.8398296920122
 30
0.0
 10
93.0933612361016
 20
-120.504267469874
 30
0.0
 10
93.0933612361016
 20
-120.0901769144218
 30
0.0
 10
93.0933612361016
 20
-119.8689852478106
 30
0.0
 10
92.99620623858023
 20
-119.6719235811931
 30
0.0
 10
92.84394735357579
 20
-119.5348341367829
 30
0.0
 10
92.84394735357579
 20
-119.5348341367829
 30
0.0
 10
92.84394735357579
 20
-117.526329137285
 30
0.0
 10
92.84394735357579
 20
-117.526329137285
 30
0.0
 10
92.84394735357579
 20
-117.526329137285
 30
0.0
 10
96.16503254662562
 20
-117.526329137285
 30
0.0
 10
96.16503254662562
 20
-117.526329137285
 30
0.0
 10
96.16503254662562
 20
-117.526329137285
 30
0.0
 10
97.0469769685698
 20
-116.7766763596946
 30
0.0
 10
97.0469769685698
 20
-116.7766763596946
 30
0.0
 10
97.0469769685698
 20
-116.7766763596946
 30
0.0
 10
96.16503254662562
 20
-116.0263533043269
 30
0.0
 10
96.16503254662562
 20
-116.0263533043269
 30
0.0
 10
96.16503254662562
 20
-116.0263533043269
 30
0.0
 10
84.87956589009742
 20
-116.0263533043269
 30
0.0
 10
84.87956589009742
 20
-116.0263533043269
 30
0.0
 10
84.87956589009742
 20
-116.0263533043269
 30
0.0
 10
84.87956589009742
 20
-117.0260902485212
 30
0.0
 10
84.87956589009742
 20
-117.0260902485212
 30
0.0
 10
84.87956589009742
 20
-117.0260902485212
 30
0.0
 10
85.88004364235088
 20
-117.0260902485212
 30
0.0
 10
85.88004364235088
 20
-117.0260902485212
 30
0.0
 10
85.88004364235088
 20
-117.0260902485212
 30
0.0
 10
85.88004364235088
 20
-117.526329137285
 30
0.0
 10
85.88004364235088
 20
-117.526329137285
 30
0.0
  0
SPLINE
  5
50
330
1F
100
AcDbEntity
  8
_U+30EC_U+30A4_U+30E4_U+30FC 1
 62
   179
420
  2234388
370
    25
100
AcDbSpline
210
0.0
220
0.0
230
1.0
 70
     8
 71
     3
 72
   101
 73
    97
 74
     0
 42
0.0000000001
 43
0.0000000001
 12
1.0
 22
0.0
 32
0.0
 13
1.0
 23
0.0
 33
0.0
 40
0.0
 40
0.0
 40
0.0
 40
0.0
 40
1.0
 40
1.0
 40
1.0
 40
2.0
 40
2.0
 40
2.0
 40
3.0
 40
3.0
 40
3.0
 40
4.0
 40
4.0
 40
4.0
 40
5.0
 40
5.0
 40
5.0
 40
6.0
 40
6.0
 40
6.0
 40
7.0
 40
7.0
 40
7.0
 40
8.0
 40
8.0
 40
8.0
 40
9.0
 40
9.0
 40
9.0
 40
10.0
 40
10.0
 40
10.0
 40
11.0
 40
11.0
 40
11.0
 40
12.0
 40
12.0
 40
12.0
 40
13.0
 40
13.0
 40
13.0
 40
14.0
 40
14.0
 40
14.0
 40
15.0
 40
15.0
 40
15.0
 40
16.0
 40
16.0
 40
16.0
 40
17.0
 40
17.0
 40
17.0
 40
18.0
 40
18.0
 40
18.0
 40
19.0
 40
19.0
 40
19.0
 40
20.0
 40
20.0
 40
20.0
 40
21.0
 40
21.0
 40
21.0
 40
22.0
 40
22.0
 40
22.0
 40
23.0
 40
23.0
 40
23.0
 40
24.0
 40
24.0
 40
24.0
 40
25.0
 40
25.0
 40
25.0
 40
26.0
 40
26.0
 40
26.0
 40
27.0
 40
27.0
 40
27.0
 40
28.0
 40
28.0
 40
28.0
 40
29.0
 40
29.0
 40
29.0
 40
30.0
 40
30.0
 40
30.0
 40
31.0
 40
31.0
 40
31.0
 40
32.0
 40
32.0
 40
32.0
 40
32.0
 10
78.57987216192711
 20
-142.0264635756044
 30
0.0
 10
78.57987216192711
 20
-142.0264635756044
 30
0.0
 10
78.57987216192711
 20
-140.5264877426463
 30
0.0
 10
78.57987216192711
 20
-140.5264877426463
 30
0.0
 10
78.57987216192711
 20
-140.5264877426463
 30
0.0
 10
77.5800999652112
 20
-140.5264877426463
 30
0.0
 10
77.5800999652112
 20
-140.5264877426463
 30
0.0
 10
77.5800999652112
 20
-140.5264877426463
 30
0.0
 10
77.5800999652112
 20
-143.0269413531324
 30
0.0
 10
77.5800999652112
 20
-143.0269413531324
 30
0.0
 10
77.5800999652112
 20
-143.0269413531324
 30
0.0
 10
95.07981757431176
 20
-143.0269413531324
 30
0.0
 10
95.07981757431176
 20
-143.0269413531324
 30
0.0
 10
95.07981757431176
 20
-143.0269413531324
 30
0.0
 10
95.07981757431176
 20
-118.5267716370349
 30
0.0
 10
95.07981757431176
 20
-118.5267716370349
 30
0.0
 10
95.07981757431176
 20
-118.5267716370349
 30
0.0
 10
99.07957663893608
 20
-118.5267716370349
 30
0.0
 10
99.07957663893608
 20
-118.5267716370349
 30
0.0
 10
99.07957663893608
 20
-118.5267716370349
 30
0.0
 10
99.07957663893608
 20
-120.0267827477711
 30
0.0
 10
99.07957663893608
 20
-120.0267827477711
 30
0.0
 10
99.07957663893608
 20
-120.0267827477711
 30
0.0
 10
100.0800191134127
 20
-120.0267827477711
 30
0.0
 10
100.0800191134127
 20
-120.0267827477711
 30
0.0
 10
100.0800191134127
 20
-120.0267827477711
 30
0.0
 10
100.0800191134127
 20
-116.0263533043269
 30
0.0
 10
100.0800191134127
 20
-116.0263533043269
 30
0.0
 10
100.0800191134127
 20
-116.0263533043269
 30
0.0
 10
99.07957663893608
 20
-116.0263533043269
 30
0.0
 10
99.07957663893608
 20
-116.0263533043269
 30
0.0
 10
99.07957663893608
 20
-116.0263533043269
 30
0.0
 10
99.07957663893608
 20
-117.0267958040768
 30
0.0
 10
99.07957663893608
 20
-117.0267958040768
 30
0.0
 10
99.07957663893608
 20
-117.0267958040768
 30
0.0
 10
98.07980444222017
 20
-117.0267958040768
 30
0.0
 10
98.07980444222017
 20
-117.0267958040768
 30
0.0
 10
98.07980444222017
 20
-117.0267958040768
 30
0.0
 10
98.07980444222017
 20
-117.526329137285
 30
0.0
 10
98.07980444222017
 20
-117.526329137285
 30
0.0
 10
98.07980444222017
 20
-117.526329137285
 30
0.0
 10
94.41627786901785
 20
-117.526329137285
 30
0.0
 10
94.41627786901785
 20
-117.526329137285
 30
0.0
 10
94.15102426467392
 20
-117.526329137285
 30
0.0
 10
93.57980650146912
 20
-117.9280371927402
 30
0.0
 10
93.57980650146912
 20
-118.5860383036869
 30
0.0
 10
93.57980650146912
 20
-119.2440394146336
 30
0.0
 10
94.08004537759587
 20
-119.5265438590074
 30
0.0
 10
94.08004537759587
 20
-119.5265438590074
 30
0.0
 10
94.08004537759587
 20
-119.5265438590074
 30
0.0
 10
94.08004537759587
 20
-121.8636966362009
 30
0.0
 10
94.08004537759587
 20
-121.8636966362009
 30
0.0
 10
94.08004537759587
 20
-121.8636966362009
 30
0.0
 10
91.57959183027663
 20
-121.8636966362009
 30
0.0
 10
91.57959183027663
 20
-121.8636966362009
 30
0.0
 10
91.30400183730752
 20
-121.8636966362009
 30
0.0
 10
91.08005850968746
 20
-121.6404588584788
 30
0.0
 10
91.08005850968746
 20
-121.3641633029924
 30
0.0
 10
91.08005850968746
 20
-121.3641633029924
 30
0.0
 10
91.08005850968746
 20
-119.0263402480212
 30
0.0
 10
91.08005850968746
 20
-119.0263402480212
 30
0.0
 10
91.35564850265656
 20
-119.0263402480212
 30
0.0
 10
91.57959183027663
 20
-118.8030671925216
 30
0.0
 10
91.57959183027663
 20
-118.5267716370349
 30
0.0
 10
91.57959183027663
 20
-118.2504760815484
 30
0.0
 10
91.35564850265656
 20
-118.026568026049
 30
0.0
 10
91.08005850968746
 20
-118.026568026049
 30
0.0
 10
91.08005850968746
 20
-118.026568026049
 30
0.0
 10
90.07961603521088
 20
-118.026568026049
 30
0.0
 10
90.07961603521088
 20
-118.026568026049
 30
0.0
 10
90.07961603521088
 20
-118.026568026049
 30
0.0
 10
90.07961603521088
 20
-121.8636966362009
 30
0.0
 10
90.07961603521088
 20
-121.8636966362009
 30
0.0
 10
90.07961603521088
 20
-122.4162877471738
 30
0.0
 10
90.52746741267411
 20
-122.8641744137283
 30
0.0
 10
91.08005850968746
 20
-122.8641744137283
 30
0.0
 10
91.08005850968746
 20
-122.8641744137283
 30
0.0
 10
93.57980650146912
 20
-122.8641744137283
 30
0.0
 10
93.57980650146912
 20
-122.8641744137283
 30
0.0
 10
93.57980650146912
 20
-122.8641744137283
 30
0.0
 10
93.57980650146912
 20
-141.0266913536325
 30
0.0
 10
93.57980650146912
 20
-141.0266913536325
 30
0.0
 10
93.57980650146912
 20
-141.5792824646053
 30
0.0
 10
93.13195512400588
 20
-142.0264635756044
 30
0.0
 10
92.58003430475321
 20
-142.0264635756044
 30
0.0
 10
92.58003430475321
 20
-142.0264635756044
 30
0.0
 10
88.58031051790579
 20
-142.0264635756044
 30
0.0
 10
88.58031051790579
 20
-142.0264635756044
 30
0.0
 10
88.58031051790579
 20
-142.0264635756044
 30
0.0
 10
88.58031051790579
 20
-140.5264877426463
 30
0.0
 10
88.58031051790579
 20
-140.5264877426463
 30
0.0
 10
88.58031051790579
 20
-140.5264877426463
 30
0.0
 10
87.57983276565233
 20
-140.5264877426463
 30
0.0
 10
87.57983276565233
 20
-140.5264877426463
 30
0.0
 10
87.57983276565233
 20
-140.5264877426463
 30
0.0
 10
87.57983276565233
 20
-142.0264635756044
 30
0.0
 10
87.57983276565233
 20
-142.0264635756044
 30
0.0
  0
POLYLINE
  5
51
330
1F
100
AcDbEntity
  8
_U+30EC_U+30A4_U+30E4_U+30FC 1
 62
   179
420
  2234388
370
    25
100
AcDb2dPolyline
 66
     1
 10
0.0
 20
0.0
 30
0.0
  0
VERTEX
  5
52
330
51
100
AcDbEntity
  8
_U+30EC_U+30A4_U+30E4_U+30FC 1
 62
   179
420
  2234388
370
    25
100
AcDbVertex
100
AcDb2dVertex
 10
99.07957663893608
 20
-117.0267958040768
 30
0.0
  0
VERTEX
  5
53
330
51
100
AcDbEntity
  8
_U+30EC_U+30A4_U+30E4_U+30FC 1
 62
   179
420
  2234388
370
    25
100
AcDbVertex
100
AcDb2dVertex
 10
96.07958977102767
 20
-117.0267958040768
 30
0.0
  0
VERTEX
  5
54
330
51
100
AcDbEntity
  8
_U+30EC_U+30A4_U+30E4_U+30FC 1
 62
   179
420
  2234388
370
    25
100
AcDbVertex
100
AcDb2dVertex
 10
96.07958977102767
 20
-116.5265569153127
 30
0.0
  0
VERTEX
  5
55
330
51
100
AcDbEntity
  8
_U+30EC_U+30A4_U+30E4_U+30FC 1
 62
   179
420
  2234388
370
    25
100
AcDbVertex
100
AcDb2dVertex
 10
99.07957663893608
 20
-116.5265569153127
 30
0.0
  0
VERTEX
  5
56
330
51
100
AcDbEntity
  8
_U+30EC_U+30A4_U+30E4_U+30FC 1
 62
   179
420
  2234388
370
    25
100
AcDbVertex
100
AcDb2dVertex
 10
99.07957663893608
 20
-117.0267958040768
 30
0.0
  0
SEQEND
  5
58
330
51
100
AcDbEntity
  8
_U+30EC_U+30A4_U+30E4_U+30FC 1
 62
   179
420
  2234388
370
    25
  0
HATCH
  5
57
330
1F
100
AcDbEntity
  8
_U+30EC_U+30A4_U+30E4_U+30FC 1
 62
     7
420
 16711422
100
AcDbHatch
 10
0.0
 20
0.0
 30
0.0
210
0.0
220
0.0
230
1.0
  2
SOLID
 70
     1
 71
     0
 91
        1
 92
        1
 93
        4
 72
     1
 10
99.07957663893608
 20
-117.0267958040768
 11
96.07958977102767
 21
-117.0267958040768
 72
     1
 10
96.07958977102767
 20
-117.0267958040768
 11
96.07958977102767
 21
-116.5265569153127
 72
     1
 10
96.07958977102767
 20
-116.5265569153127
 11
99.07957663893608
 21
-116.5265569153127
 72
     1
 10
99.07957663893608
 20
-116.5265569153127
 11
99.07957663893608
 21
-117.0267958040768
 97
        0
 75
     2
 76
     1
 98
        0
  0
SPLINE
  5
59
330
1F
100
AcDbEntity
  8
_U+30EC_U+30A4_U+30E4_U+30FC 1
 62
   179
420
  2234388
370
     9
100
AcDbSpline
210
0.0
220
0.0
230
1.0
 70
    11
 71
     3
 72
    17
 73
    13
 74
     0
 42
0.0000000001
 43
0.0000000001
 12
1.0
 22
0.0
 32
0.0
 13
1.0
 23
0.0
 33
0.0
 40
0.0
 40
0.0
 40
0.0
 40
0.0
 40
1.0
 40
1.0
 40
1.0
 40
2.0
 40
2.0
 40
2.0
 40
3.0
 40
3.0
 40
3.0
 40
4.0
 40
4.0
 40
4.0
 40
4.0
 10
84.97947255421526
 20
-111.4912185832382
 30
0.0
 10
84.97947255421526
 20
-111.4360794165855
 30
0.0
 10
84.93537533311805
 20
-111.3913119165966
 30
0.0
 10
84.87956589009742
 20
-111.3913119165966
 30
0.0
 10
84.82446200261435
 20
-111.3913119165966
 30
0.0
 10
84.77965922597959
 20
-111.4360794165855
 30
0.0
 10
84.77965922597959
 20
-111.4912185832382
 30
0.0
 10
84.77965922597959
 20
-111.5456521943358
 30
0.0
 10
84.82446200261435
 20
-111.5911252498799
 30
0.0
 10
84.87956589009742
 20
-111.5911252498799
 30
0.0
 10
84.93537533311805
 20
-111.5911252498799
 30
0.0
 10
84.97947255421526
 20
-111.5456521943358
 30
0.0
 10
84.97947255421526
 20
-111.4912185832382
 30
0.0
  0
SPLINE
  5
5A
330
1F
100
AcDbEntity
  8
_U+30EC_U+30A4_U+30E4_U+30FC 1
 62
   179
420
  2234388
370
     9
100
AcDbSpline
210
0.0
220
0.0
230
1.0
 70
    11
 71
     3
 72
    17
 73
    13
 74
     0
 42
0.0000000001
 43
0.0000000001
 12
1.0
 22
0.0
 32
0.0
 13
1.0
 23
0.0
 33
0.0
 40
0.0
 40
0.0
 40
0.0
 40
0.0
 40
1.0
 40
1.0
 40
1.0
 40
2.0
 40
2.0
 40
2.0
 40
3.0
 40
3.0
 40
3.0
 40
4.0
 40
4.0
 40
4.0
 40
4.0
 10
100.1799257775305
 20
-111.4912185832382
 30
0.0
 10
100.1799257775305
 20
-111.4360794165855
 30
0.0
 10
100.1351582786726
 20
-111.3913119165966
 30
0.0
 10
100.0800191134127
 20
-111.3913119165966
 30
0.0
 10
100.0249152259296
 20
-111.3913119165966
 30
0.0
 10
99.98011244929484
 20
-111.4360794165855
 30
0.0
 10
99.98011244929484
 20
-111.4912185832382
 30
0.0
 10
99.98011244929484
 20
-111.5456521943358
 30
0.0
 10
100.0249152259296
 20
-111.5911252498799
 30
0.0
 10
100.0800191134127
 20
-111.5911252498799
 30
0.0
 10
100.1351582786726
 20
-111.5911252498799
 30
0.0
 10
100.1799257775305
 20
-111.5456521943358
 30
0.0
 10
100.1799257775305
 20
-111.4912185832382
 30
0.0
  0
SPLINE
  5
5B
330
1F
100
AcDbEntity
  8
_U+30EC_U+30A4_U+30E4_U+30FC 1
 62
   179
420
  2234388
370
     9
100
AcDbSpline
210
0.0
220
0.0
230
1.0
 70
    11
 71
     3
 72
    17
 73
    13
 74
     0
 42
0.0000000001
 43
0.0000000001
 12
1.0
 22
0.0
 32
0.0
 13
1.0
 23
0.0
 33
0.0
 40
0.0
 40
0.0
 40
0.0
 40
0.0
 40
1.0
 40
1.0
 40
1.0
 40
2.0
 40
2.0
 40
2.0
 40
3.0
 40
3.0
 40
3.0
 40
4.0
 40
4.0
 40
4.0
 40
4.0
 10
75.09068836205472
 20
-116.0263533043269
 30
0.0
 10
75.09068836205472
 20
-115.9712141376738
 30
0.0
 10
75.04588558541995
 20
-115.9264466376849
 30
0.0
 10
74.99078169793688
 20
-115.9264466376849
 30
0.0
 10
74.93634998126579
 20
-115.9264466376849
 30
0.0
 10
74.8915472034994
 20
-115.9712141376738
 30
0.0
 10
74.8915472034994
 20
-116.0263533043269
 30
0.0
 10
74.8915472034994
 20
-116.0814571932018
 30
0.0
 10
74.93634998126579
 20
-116.1262599709685
 30
0.0
 10
74.99078169793688
 20
-116.1262599709685
 30
0.0
 10
75.04588558541995
 20
-116.1262599709685
 30
0.0
 10
75.09068836205472
 20
-116.0814571932018
 30
0.0
 10
75.09068836205472
 20
-116.0263533043269
 30
0.0
  0
SPLINE
  5
5C
330
1F
100
AcDbEntity
  8
_U+30EC_U+30A4_U+30E4_U+30FC 1
 62
   179
420
  2234388
370
     9
100
AcDbSpline
210
0.0
220
0.0
230
1.0
 70
    11
 71
     3
 72
    17
 73
    13
 74
     0
 42
0.0000000001
 43
0.0000000001
 12
1.0
 22
0.0
 32
0.0
 13
1.0
 23
0.0
 33
0.0
 40
0.0
 40
0.0
 40
0.0
 40
0.0
 40
1.0
 40
1.0
 40
1.0
 40
2.0
 40
2.0
 40
2.0
 40
3.0
 40
3.0
 40
3.0
 40
4.0
 40
4.0
 40
4.0
 40
4.0
 10
75.09068836205472
 20
-143.0269413531324
 30
0.0
 10
75.09068836205472
 20
-142.9718021864794
 30
0.0
 10
75.04588558541995
 20
-142.9270346864902
 30
0.0
 10
74.99078169793688
 20
-142.9270346864902
 30
0.0
 10
74.93634998126579
 20
-142.9270346864902
 30
0.0
 10
74.8915472034994
 20
-142.9718021864794
 30
0.0
 10
74.8915472034994
 20
-143.0269413531324
 30
0.0
 10
74.8915472034994
 20
-143.0820452420074
 30
0.0
 10
74.93634998126579
 20
-143.1268480197741
 30
0.0
 10
74.99078169793688
 20
-143.1268480197741
 30
0.0
 10
75.04588558541995
 20
-143.1268480197741
 30
0.0
 10
75.09068836205472
 20
-143.0820452420074
 30
0.0
 10
75.09068836205472
 20
-143.0269413531324
 30
0.0
  0
SPLINE
  5
5D
330
1F
100
AcDbEntity
  8
_U+30EC_U+30A4_U+30E4_U+30FC 1
 62
   179
420
  2234388
370
     9
100
AcDbSpline
210
0.0
220
0.0
230
1.0
 70
    11
 71
     3
 72
    17
 73
    13
 74
     0
 42
0.0000000001
 43
0.0000000001
 12
1.0
 22
0.0
 32
0.0
 13
1.0
 23
0.0
 33
0.0
 40
0.0
 40
0.0
 40
0.0
 40
0.0
 40
1.0
 40
1.0
 40
1.0
 40
2.0
 40
2.0
 40
2.0
 40
3.0
 40
3.0
 40
3.0
 40
4.0
 40
4.0
 40
4.0
 40
4.0
 10
77.68000662932904
 20
-147.0259949632438
 30
0.0
 10
77.68000662932904
 20
-146.9715613521462
 30
0.0
 10
77.63523913047115
 20
-146.9260882966015
 30
0.0
 10
77.5800999652112
 20
-146.9260882966015
 30
0.0
 10
77.52499607772813
 20
-146.9260882966015
 30
0.0
 10
77.48019330109337
 20
-146.9715613521462
 30
0.0
 10
77.48019330109337
 20
-147.0259949632438
 30
0.0
 10
77.48019330109337
 20
-147.0811341298962
 30
0.0
 10
77.52499607772813
 20
-147.1259016298854
 30
0.0
 10
77.5800999652112
 20
-147.1259016298854
 30
0.0
 10
77.63523913047115
 20
-147.1259016298854
 30
0.0
 10
77.68000662932904
 20
-147.0811341298962
 30
0.0
 10
77.68000662932904
 20
-147.0259949632438
 30
0.0
  0
SPLINE
  5
5E
330
1F
100
AcDbEntity
  8
_U+30EC_U+30A4_U+30E4_U+30FC 1
 62
   179
420
  2234388
370
     9
100
AcDbSpline
210
0.0
220
0.0
230
1.0
 70
    11
 71
     3
 72
    17
 73
    13
 74
     0
 42
0.0000000001
 43
0.0000000001
 12
1.0
 22
0.0
 32
0.0
 13
1.0
 23
0.0
 33
0.0
 40
0.0
 40
0.0
 40
0.0
 40
0.0
 40
1.0
 40
1.0
 40
1.0
 40
2.0
 40
2.0
 40
2.0
 40
3.0
 40
3.0
 40
3.0
 40
4.0
 40
4.0
 40
4.0
 40
4.0
 10
100.1799257775305
 20
-147.0259949632438
 30
0.0
 10
100.1799257775305
 20
-146.9715613521462
 30
0.0
 10
100.1351582786726
 20
-146.9260882966015
 30
0.0
 10
100.0800191134127
 20
-146.9260882966015
 30
0.0
 10
100.0249152259296
 20
-146.9260882966015
 30
0.0
 10
99.98011244929484
 20
-146.9715613521462
 30
0.0
 10
99.98011244929484
 20
-147.0259949632438
 30
0.0
 10
99.98011244929484
 20
-147.0811341298962
 30
0.0
 10
100.0249152259296
 20
-147.1259016298854
 30
0.0
 10
100.0800191134127
 20
-147.1259016298854
 30
0.0
 10
100.1351582786726
 20
-147.1259016298854
 30
0.0
 10
100.1799257775305
 20
-147.0811341298962
 30
0.0
 10
100.1799257775305
 20
-147.0259949632438
 30
0.0
  0
POLYLINE
  5
5F
330
1F
100
AcDbEntity
  8
_U+30EC_U+30A4_U+30E4_U+30FC 1
 62
   179
420
  2234388
370
     9
100
AcDb2dPolyline
 66
     1
 10
0.0
 20
0.0
 30
0.0
  0
VERTEX
  5
60
330
5F
100
AcDbEntity
  8
_U+30EC_U+30A4_U+30E4_U+30FC 1
 62
   179
420
  2234388
370
     9
100
AcDbVertex
100
AcDb2dVertex
 10
77.5800999652112
 20
-145.5659535747195
 30
0.0
  0
VERTEX
  5
61
330
5F
100
AcDbEntity
  8
_U+30EC_U+30A4_U+30E4_U+30FC 1
 62
   179
420
  2234388
370
     9
100
AcDbVertex
100
AcDb2dVertex
 10
77.5800999652112
 20
-148.0264374629937
 30
0.0
  0
SEQEND
  5
62
330
5F
100
AcDbEntity
  8
_U+30EC_U+30A4_U+30E4_U+30FC 1
 62
   179
420
  2234388
370
     9
  0
POLYLINE
  5
63
330
1F
100
AcDbEntity
  8
_U+30EC_U+30A4_U+30E4_U+30FC 1
 62
   179
420
  2234388
370
     9
100
AcDb2dPolyline
 66
     1
 10
0.0
 20
0.0
 30
0.0
  0
VERTEX
  5
64
330
63
100
AcDbEntity
  8
_U+30EC_U+30A4_U+30E4_U+30FC 1
 62
   179
420
  2234388
370
     9
100
AcDbVertex
100
AcDb2dVertex
 10
76.45078777180014
 20
-143.0269413531324
 30
0.0
  0
VERTEX
  5
65
330
63
100
AcDbEntity
  8
_U+30EC_U+30A4_U+30E4_U+30FC 1
 62
   179
420
  2234388
370
     9
100
AcDbVertex
100
AcDb2dVertex
 10
73.99100950122097
 20
-143.0269413531324
 30
0.0
  0
SEQEND
  5
66
330
63
100
AcDbEntity
  8
_U+30EC_U+30A4_U+30E4_U+30FC 1
 62
   179
420
  2234388
370
     9
  0
SPLINE
  5
67
330
1F
100
AcDbEntity
  8
_U+30EC_U+30A4_U+30E4_U+30FC 1
 62
   179
420
  2234388
370
     9
100
AcDbSpline
210
0.0
220
0.0
230
1.0
 70
    11
 71
     3
 72
    17
 73
    13
 74
     0
 42
0.0000000001
 43
0.0000000001
 12
1.0
 22
0.0
 32
0.0
 13
1.0
 23
0.0
 33
0.0
 40
0.0
 40
0.0
 40
0.0
 40
0.0
 40
1.0
 40
1.0
 40
1.0
 40
2.0
 40
2.0
 40
2.0
 40
3.0
 40
3.0
 40
3.0
 40
4.0
 40
4.0
 40
4.0
 40
4.0
 10
75.02658864146781
 20
-143.0269413531324
 30
0.0
 10
75.02658864146781
 20
-143.0462382975716
 30
0.0
 10
75.0107489196497
 20
-143.0620780197902
 30
0.0
 10
74.99078169793688
 20
-143.0620780197902
 30
0.0
 10
74.97215503174542
 20
-143.0620780197902
 30
0.0
 10
74.95564503216663
 20
-143.0462382975716
 30
0.0
 10
74.95564503216663
 20
-143.0269413531324
 30
0.0
 10
74.95564503216663
 20
-143.0069388531371
 30
0.0
 10
74.97215503174542
 20
-142.9918046864741
 30
0.0
 10
74.99078169793688
 20
-142.9918046864741
 30
0.0
 10
75.0107489196497
 20
-142.9918046864741
 30
0.0
 10
75.02658864146781
 20
-143.0069388531371
 30
0.0
 10
75.02658864146781
 20
-143.0269413531324
 30
0.0
  0
SPLINE
  5
68
330
1F
100
AcDbEntity
  8
_U+30EC_U+30A4_U+30E4_U+30FC 1
 62
   179
420
  2234388
370
     9
100
AcDbSpline
210
0.0
220
0.0
230
1.0
 70
    11
 71
     3
 72
    17
 73
    13
 74
     0
 42
0.0000000001
 43
0.0000000001
 12
1.0
 22
0.0
 32
0.0
 13
1.0
 23
0.0
 33
0.0
 40
0.0
 40
0.0
 40
0.0
 40
0.0
 40
1.0
 40
1.0
 40
1.0
 40
2.0
 40
2.0
 40
2.0
 40
3.0
 40
3.0
 40
3.0
 40
4.0
 40
4.0
 40
4.0
 40
4.0
 10
75.09068836205472
 20
-140.5264877426463
 30
0.0
 10
75.09068836205472
 20
-140.4720541315487
 30
0.0
 10
75.04588558541995
 20
-140.4265810760047
 30
0.0
 10
74.99078169793688
 20
-140.4265810760047
 30
0.0
 10
74.93634998126579
 20
-140.4265810760047
 30
0.0
 10
74.8915472034994
 20
-140.4720541315487
 30
0.0
 10
74.8915472034994
 20
-140.5264877426463
 30
0.0
 10
74.8915472034994
 20
-140.5815916315212
 30
0.0
 10
74.93634998126579
 20
-140.6263944092879
 30
0.0
 10
74.99078169793688
 20
-140.6263944092879
 30
0.0
 10
75.04588558541995
 20
-140.6263944092879
 30
0.0
 10
75.09068836205472
 20
-140.5815916315212
 30
0.0
 10
75.09068836205472
 20
-140.5264877426463
 30
0.0
  0
POLYLINE
  5
69
330
1F
100
AcDbEntity
  8
_U+30EC_U+30A4_U+30E4_U+30FC 1
 62
   179
420
  2234388
370
     9
100
AcDb2dPolyline
 66
     1
 10
0.0
 20
0.0
 30
0.0
  0
VERTEX
  5
6A
330
69
100
AcDbEntity
  8
_U+30EC_U+30A4_U+30E4_U+30FC 1
 62
   179
420
  2234388
370
     9
100
AcDbVertex
100
AcDb2dVertex
 10
76.45078777180014
 20
-140.5264877426463
 30
0.0
  0
VERTEX
  5
6B
330
69
100
AcDbEntity
  8
_U+30EC_U+30A4_U+30E4_U+30FC 1
 62
   179
420
  2234388
370
     9
100
AcDbVertex
100
AcDb2dVertex
 10
73.99100950122097
 20
-140.5264877426463
 30
0.0
  0
SEQEND
  5
6C
330
69
100
AcDbEntity
  8
_U+30EC_U+30A4_U+30E4_U+30FC 1
 62
   179
420
  2234388
370
     9
  0
SPLINE
  5
6D
330
1F
100
AcDbEntity
  8
_U+30EC_U+30A4_U+30E4_U+30FC 1
 62
   179
420
  2234388
370
     9
100
AcDbSpline
210
0.0
220
0.0
230
1.0
 70
    11
 71
     3
 72
    17
 73
    13
 74
     0
 42
0.0000000001
 43
0.0000000001
 12
1.0
 22
0.0
 32
0.0
 13
1.0
 23
0.0
 33
0.0
 40
0.0
 40
0.0
 40
0.0
 40
0.0
 40
1.0
 40
1.0
 40
1.0
 40
2.0
 40
2.0
 40
2.0
 40
3.0
 40
3.0
 40
3.0
 40
4.0
 40
4.0
 40
4.0
 40
4.0
 10
75.02658864146781
 20
-140.5264877426463
 30
0.0
 10
75.02658864146781
 20
-140.5464549648635
 30
0.0
 10
75.0107489196497
 20
-140.5622946870814
 30
0.0
 10
74.99078169793688
 20
-140.5622946870814
 30
0.0
 10
74.97215503174542
 20
-140.5622946870814
 30
0.0
 10
74.95564503216663
 20
-140.5464549648635
 30
0.0
 10
74.95564503216663
 20
-140.5264877426463
 30
0.0
 10
74.95564503216663
 20
-140.5064852426509
 30
0.0
 10
74.97215503174542
 20
-140.4913510759885
 30
0.0
 10
74.99078169793688
 20
-140.4913510759885
 30
0.0
 10
75.0107489196497
 20
-140.4913510759885
 30
0.0
 10
75.02658864146781
 20
-140.5064852426509
 30
0.0
 10
75.02658864146781
 20
-140.5264877426463
 30
0.0
  0
POLYLINE
  5
6E
330
1F
100
AcDbEntity
  8
_U+30EC_U+30A4_U+30E4_U+30FC 1
 62
   179
420
  2234388
370
     9
100
AcDb2dPolyline
 66
     1
 10
0.0
 20
0.0
 30
0.0
  0
VERTEX
  5
6F
330
6E
100
AcDbEntity
  8
_U+30EC_U+30A4_U+30E4_U+30FC 1
 62
   179
420
  2234388
370
     9
100
AcDbVertex
100
AcDb2dVertex
 10
74.99078169793688
 20
-146.526461630035
 30
0.0
  0
VERTEX
  5
70
330
6E
100
AcDbEntity
  8
_U+30EC_U+30A4_U+30E4_U+30FC 1
 62
   179
420
  2234388
370
     9
100
AcDbVertex
100
AcDb2dVertex
 10
74.99078169793688
 20
-112.5261274718685
 30
0.0
  0
SEQEND
  5
71
330
6E
100
AcDbEntity
  8
_U+30EC_U+30A4_U+30E4_U+30FC 1
 62
   179
420
  2234388
370
     9
  0
POLYLINE
  5
72
330
1F
100
AcDbEntity
  8
_U+30EC_U+30A4_U+30E4_U+30FC 1
 62
   179
420
  2234388
370
     9
100
AcDb2dPolyline
 66
     1
 10
0.0
 20
0.0
 30
0.0
  0
VERTEX
  5
73
330
72
100
AcDbEntity
  8
_U+30EC_U+30A4_U+30E4_U+30FC 1
 62
   179
420
  2234388
370
     9
100
AcDbVertex
100
AcDb2dVertex
 10
82.37981789831575
 20
-116.0263533043269
 30
0.0
  0
VERTEX
  5
74
330
72
100
AcDbEntity
  8
_U+30EC_U+30A4_U+30E4_U+30FC 1
 62
   179
420
  2234388
370
     9
100
AcDbVertex
100
AcDb2dVertex
 10
73.99100950122097
 20
-116.0263533043269
 30
0.0
  0
SEQEND
  5
75
330
72
100
AcDbEntity
  8
_U+30EC_U+30A4_U+30E4_U+30FC 1
 62
   179
420
  2234388
370
     9
  0
INSERT
  5
77
330
1F
100
AcDbEntity
  8
_U+30EC_U+30A4_U+30E4_U+30FC 1
100
AcDbBlockReference
  2
block 2
 10
0.0
 20
0.0
 30
0.0
  0
INSERT
  5
89
330
1F
100
AcDbEntity
  8
_U+30EC_U+30A4_U+30E4_U+30FC 1
100
AcDbBlockReference
  2
block 3
 10
0.0
 20
0.0
 30
0.0
  0
INSERT
  5
99
330
1F
100
AcDbEntity
  8
_U+30EC_U+30A4_U+30E4_U+30FC 1
100
AcDbBlockReference
  2
block 4
 10
0.0
 20
0.0
 30
0.0
  0
SPLINE
  5
A8
330
1F
100
AcDbEntity
  8
_U+30EC_U+30A4_U+30E4_U+30FC 1
 62
   179
420
  2234388
370
     9
100
AcDbSpline
210
0.0
220
0.0
230
1.0
 70
    11
 71
     3
 72
    17
 73
    13
 74
     0
 42
0.0000000001
 43
0.0000000001
 12
1.0
 22
0.0
 32
0.0
 13
1.0
 23
0.0
 33
0.0
 40
0.0
 40
0.0
 40
0.0
 40
0.0
 40
1.0
 40
1.0
 40
1.0
 40
2.0
 40
2.0
 40
2.0
 40
3.0
 40
3.0
 40
3.0
 40
4.0
 40
4.0
 40
4.0
 40
4.0
 10
75.02658864146781
 20
-116.0263533043269
 30
0.0
 10
75.02658864146781
 20
-116.0463205265441
 30
0.0
 10
75.0107489196497
 20
-116.0614899709846
 30
0.0
 10
74.99078169793688
 20
-116.0614899709846
 30
0.0
 10
74.97215503174542
 20
-116.0614899709846
 30
0.0
 10
74.95564503216663
 20
-116.0463205265441
 30
0.0
 10
74.95564503216663
 20
-116.0263533043269
 30
0.0
 10
74.95564503216663
 20
-116.007056359887
 30
0.0
 10
74.97215503174542
 20
-115.991181359891
 30
0.0
 10
74.99078169793688
 20
-115.991181359891
 30
0.0
 10
75.0107489196497
 20
-115.991181359891
 30
0.0
 10
75.02658864146781
 20
-116.007056359887
 30
0.0
 10
75.02658864146781
 20
-116.0263533043269
 30
0.0
  0
SPLINE
  5
A9
330
1F
100
AcDbEntity
  8
_U+30EC_U+30A4_U+30E4_U+30FC 1
 62
   179
420
  2234388
370
     9
100
AcDbSpline
210
0.0
220
0.0
230
1.0
 70
    11
 71
     3
 72
    17
 73
    13
 74
     0
 42
0.0000000001
 43
0.0000000001
 12
1.0
 22
0.0
 32
0.0
 13
1.0
 23
0.0
 33
0.0
 40
0.0
 40
0.0
 40
0.0
 40
0.0
 40
1.0
 40
1.0
 40
1.0
 40
2.0
 40
2.0
 40
2.0
 40
3.0
 40
3.0
 40
3.0
 40
4.0
 40
4.0
 40
4.0
 40
4.0
 10
75.09068836205472
 20
-117.526329137285
 30
0.0
 10
75.09068836205472
 20
-117.47122524841
 30
0.0
 10
75.04588558541995
 20
-117.4264224706433
 30
0.0
 10
74.99078169793688
 20
-117.4264224706433
 30
0.0
 10
74.93634998126579
 20
-117.4264224706433
 30
0.0
 10
74.8915472034994
 20
-117.47122524841
 30
0.0
 10
74.8915472034994
 20
-117.526329137285
 30
0.0
 10
74.8915472034994
 20
-117.581468303938
 30
0.0
 10
74.93634998126579
 20
-117.6262358039269
 30
0.0
 10
74.99078169793688
 20
-117.6262358039269
 30
0.0
 10
75.04588558541995
 20
-117.6262358039269
 30
0.0
 10
75.09068836205472
 20
-117.581468303938
 30
0.0
 10
75.09068836205472
 20
-117.526329137285
 30
0.0
  0
POLYLINE
  5
AA
330
1F
100
AcDbEntity
  8
_U+30EC_U+30A4_U+30E4_U+30FC 1
 62
   179
420
  2234388
370
     9
100
AcDb2dPolyline
 66
     1
 10
0.0
 20
0.0
 30
0.0
  0
VERTEX
  5
AB
330
AA
100
AcDbEntity
  8
_U+30EC_U+30A4_U+30E4_U+30FC 1
 62
   179
420
  2234388
370
     9
100
AcDbVertex
100
AcDb2dVertex
 10
83.37959009503166
 20
-117.526329137285
 30
0.0
  0
VERTEX
  5
AC
330
AA
100
AcDbEntity
  8
_U+30EC_U+30A4_U+30E4_U+30FC 1
 62
   179
420
  2234388
370
     9
100
AcDbVertex
100
AcDb2dVertex
 10
73.99100950122097
 20
-117.526329137285
 30
0.0
  0
SEQEND
  5
AD
330
AA
100
AcDbEntity
  8
_U+30EC_U+30A4_U+30E4_U+30FC 1
 62
   179
420
  2234388
370
     9
  0
SPLINE
  5
AE
330
1F
100
AcDbEntity
  8
_U+30EC_U+30A4_U+30E4_U+30FC 1
 62
   179
420
  2234388
370
     9
100
AcDbSpline
210
0.0
220
0.0
230
1.0
 70
    11
 71
     3
 72
    17
 73
    13
 74
     0
 42
0.0000000001
 43
0.0000000001
 12
1.0
 22
0.0
 32
0.0
 13
1.0
 23
0.0
 33
0.0
 40
0.0
 40
0.0
 40
0.0
 40
0.0
 40
1.0
 40
1.0
 40
1.0
 40
2.0
 40
2.0
 40
2.0
 40
3.0
 40
3.0
 40
3.0
 40
4.0
 40
4.0
 40
4.0
 40
4.0
 10
75.02658864146781
 20
-117.526329137285
 30
0.0
 10
75.02658864146781
 20
-117.5462963595025
 30
0.0
 10
75.0107489196497
 20
-117.561465803943
 30
0.0
 10
74.99078169793688
 20
-117.561465803943
 30
0.0
 10
74.97215503174542
 20
-117.561465803943
 30
0.0
 10
74.95564503216663
 20
-117.5462963595025
 30
0.0
 10
74.95564503216663
 20
-117.526329137285
 30
0.0
 10
74.95564503216663
 20
-117.5070321928454
 30
0.0
 10
74.97215503174542
 20
-117.4911924706272
 30
0.0
 10
74.99078169793688
 20
-117.4911924706272
 30
0.0
 10
75.0107489196497
 20
-117.4911924706272
 30
0.0
 10
75.02658864146781
 20
-117.5070321928454
 30
0.0
 10
75.02658864146781
 20
-117.526329137285
 30
0.0
  0
POLYLINE
  5
AF
330
1F
100
AcDbEntity
  8
_U+30EC_U+30A4_U+30E4_U+30FC 1
 62
   179
420
  2234388
370
     9
100
AcDb2dPolyline
 66
     1
 10
0.0
 20
0.0
 30
0.0
  0
VERTEX
  5
B0
330
AF
100
AcDbEntity
  8
_U+30EC_U+30A4_U+30E4_U+30FC 1
 62
   179
420
  2234388
370
     9
100
AcDbVertex
100
AcDb2dVertex
 10
84.87956589009742
 20
-111.4912185832382
 30
0.0
  0
VERTEX
  5
B1
330
AF
100
AcDbEntity
  8
_U+30EC_U+30A4_U+30E4_U+30FC 1
 62
   179
420
  2234388
370
     9
100
AcDbVertex
100
AcDb2dVertex
 10
100.079348835652
 20
-111.4912185832382
 30
0.0
  0
SEQEND
  5
B2
330
AF
100
AcDbEntity
  8
_U+30EC_U+30A4_U+30E4_U+30FC 1
 62
   179
420
  2234388
370
     9
  0
POLYLINE
  5
B3
330
1F
100
AcDbEntity
  8
_U+30EC_U+30A4_U+30E4_U+30FC 1
 62
   179
420
  2234388
370
     9
100
AcDb2dPolyline
 66
     1
 10
0.0
 20
0.0
 30
0.0
  0
VERTEX
  5
B4
330
B3
100
AcDbEntity
  8
_U+30EC_U+30A4_U+30E4_U+30FC 1
 62
   179
420
  2234388
370
     9
100
AcDbVertex
100
AcDb2dVertex
 10
84.87956589009742
 20
-112.9512599717623
 30
0.0
  0
VERTEX
  5
B5
330
B3
100
AcDbEntity
  8
_U+30EC_U+30A4_U+30E4_U+30FC 1
 62
   179
420
  2234388
370
     9
100
AcDbVertex
100
AcDb2dVertex
 10
84.87956589009742
 20
-110.4907408057108
 30
0.0
  0
SEQEND
  5
B6
330
B3
100
AcDbEntity
  8
_U+30EC_U+30A4_U+30E4_U+30FC 1
 62
   179
420
  2234388
370
     9
  0
POLYLINE
  5
B7
330
1F
100
AcDbEntity
  8
_U+30EC_U+30A4_U+30E4_U+30FC 1
 62
   179
420
  2234388
370
     9
100
AcDb2dPolyline
 66
     1
 10
0.0
 20
0.0
 30
0.0
  0
VERTEX
  5
B8
330
B7
100
AcDbEntity
  8
_U+30EC_U+30A4_U+30E4_U+30FC 1
 62
   179
420
  2234388
370
     9
100
AcDbVertex
100
AcDb2dVertex
 10
100.0800191134127
 20
-112.9512599717623
 30
0.0
  0
VERTEX
  5
B9
330
B7
100
AcDbEntity
  8
_U+30EC_U+30A4_U+30E4_U+30FC 1
 62
   179
420
  2234388
370
     9
100
AcDbVertex
100
AcDb2dVertex
 10
100.0800191134127
 20
-110.4907408057108
 30
0.0
  0
SEQEND
  5
BA
330
B7
100
AcDbEntity
  8
_U+30EC_U+30A4_U+30E4_U+30FC 1
 62
   179
420
  2234388
370
     9
  0
INSERT
  5
BC
330
1F
100
AcDbEntity
  8
_U+30EC_U+30A4_U+30E4_U+30FC 1
100
AcDbBlockReference
  2
block 5
 10
0.0
 20
0.0
 30
0.0
  0
SPLINE
  5
CD
330
1F
100
AcDbEntity
  8
_U+30EC_U+30A4_U+30E4_U+30FC 1
 62
   179
420
  2234388
370
     9
100
AcDbSpline
210
0.0
220
0.0
230
1.0
 70
    11
 71
     3
 72
    17
 73
    13
 74
     0
 42
0.0000000001
 43
0.0000000001
 12
1.0
 22
0.0
 32
0.0
 13
1.0
 23
0.0
 33
0.0
 40
0.0
 40
0.0
 40
0.0
 40
0.0
 40
1.0
 40
1.0
 40
1.0
 40
2.0
 40
2.0
 40
2.0
 40
3.0
 40
3.0
 40
3.0
 40
4.0
 40
4.0
 40
4.0
 40
4.0
 10
100.1151583083043
 20
-111.4912185832382
 30
0.0
 10
100.1151583083043
 20
-111.5105155276781
 30
0.0
 10
100.0999888638638
 20
-111.5263552498963
 30
0.0
 10
100.0800191134127
 20
-111.5263552498963
 30
0.0
 10
100.0607221694605
 20
-111.5263552498963
 30
0.0
 10
100.0448824476424
 20
-111.5105155276781
 30
0.0
 10
100.0448824476424
 20
-111.4912185832382
 30
0.0
 10
100.0448824476424
 20
-111.4712160832432
 30
0.0
 10
100.0607221694605
 20
-111.455376361025
 30
0.0
 10
100.0800191134127
 20
-111.455376361025
 30
0.0
 10
100.0999888638638
 20
-111.455376361025
 30
0.0
 10
100.1151583083043
 20
-111.4712160832432
 30
0.0
 10
100.1151583083043
 20
-111.4912185832382
 30
0.0
  0
SPLINE
  5
CE
330
1F
100
AcDbEntity
  8
_U+30EC_U+30A4_U+30E4_U+30FC 1
 62
   179
420
  2234388
370
     9
100
AcDbSpline
210
0.0
220
0.0
230
1.0
 70
    11
 71
     3
 72
    17
 73
    13
 74
     0
 42
0.0000000001
 43
0.0000000001
 12
1.0
 22
0.0
 32
0.0
 13
1.0
 23
0.0
 33
0.0
 40
0.0
 40
0.0
 40
0.0
 40
0.0
 40
1.0
 40
1.0
 40
1.0
 40
2.0
 40
2.0
 40
2.0
 40
3.0
 40
3.0
 40
3.0
 40
4.0
 40
4.0
 40
4.0
 40
4.0
 10
78.67977882604495
 20
-135.1665938550973
 30
0.0
 10
78.67977882604495
 20
-135.1121602439998
 30
0.0
 10
78.63568160494773
 20
-135.0666871884557
 30
0.0
 10
78.57987216192711
 20
-135.0666871884557
 30
0.0
 10
78.52473299666717
 20
-135.0666871884557
 30
0.0
 10
78.47996549780927
 20
-135.1121602439998
 30
0.0
 10
78.47996549780927
 20
-135.1665938550973
 30
0.0
 10
78.47996549780927
 20
-135.2217330217504
 30
0.0
 10
78.52473299666717
 20
-135.266500521739
 30
0.0
 10
78.57987216192711
 20
-135.266500521739
 30
0.0
 10
78.63568160494773
 20
-135.266500521739
 30
0.0
 10
78.67977882604495
 20
-135.2217330217504
 30
0.0
 10
78.67977882604495
 20
-135.1665938550973
 30
0.0
  0
SPLINE
  5
CF
330
1F
100
AcDbEntity
  8
_U+30EC_U+30A4_U+30E4_U+30FC 1
 62
   179
420
  2234388
370
     9
100
AcDbSpline
210
0.0
220
0.0
230
1.0
 70
    11
 71
     3
 72
    17
 73
    13
 74
     0
 42
0.0000000001
 43
0.0000000001
 12
1.0
 22
0.0
 32
0.0
 13
1.0
 23
0.0
 33
0.0
 40
0.0
 40
0.0
 40
0.0
 40
0.0
 40
1.0
 40
1.0
 40
1.0
 40
2.0
 40
2.0
 40
2.0
 40
3.0
 40
3.0
 40
3.0
 40
4.0
 40
4.0
 40
4.0
 40
4.0
 10
87.6797416447468
 20
-135.1665938550973
 30
0.0
 10
87.6797416447468
 20
-135.1121602439998
 30
0.0
 10
87.63497193091227
 20
-135.0666871884557
 30
0.0
 10
87.57983276565233
 20
-135.0666871884557
 30
0.0
 10
87.52472887816926
 20
-135.0666871884557
 30
0.0
 10
87.47992610153449
 20
-135.1121602439998
 30
0.0
 10
87.47992610153449
 20
-135.1665938550973
 30
0.0
 10
87.47992610153449
 20
-135.2217330217504
 30
0.0
 10
87.52472887816926
 20
-135.266500521739
 30
0.0
 10
87.57983276565233
 20
-135.266500521739
 30
0.0
 10
87.63497193091227
 20
-135.266500521739
 30
0.0
 10
87.6797416447468
 20
-135.2217330217504
 30
0.0
 10
87.6797416447468
 20
-135.1665938550973
 30
0.0
  0
POLYLINE
  5
D0
330
1F
100
AcDbEntity
  8
_U+30EC_U+30A4_U+30E4_U+30FC 1
 62
   179
420
  2234388
370
     9
100
AcDb2dPolyline
 66
     1
 10
0.0
 20
0.0
 30
0.0
  0
VERTEX
  5
D1
330
D0
100
AcDbEntity
  8
_U+30EC_U+30A4_U+30E4_U+30FC 1
 62
   179
420
  2234388
370
     9
100
AcDbVertex
100
AcDb2dVertex
 10
78.57987216192711
 20
-135.1665938550973
 30
0.0
  0
VERTEX
  5
D2
330
D0
100
AcDbEntity
  8
_U+30EC_U+30A4_U+30E4_U+30FC 1
 62
   179
420
  2234388
370
     9
100
AcDbVertex
100
AcDb2dVertex
 10
87.57983276565233
 20
-135.1665938550973
 30
0.0
  0
SEQEND
  5
D3
330
D0
100
AcDbEntity
  8
_U+30EC_U+30A4_U+30E4_U+30FC 1
 62
   179
420
  2234388
370
     9
  0
POLYLINE
  5
D4
330
1F
100
AcDbEntity
  8
_U+30EC_U+30A4_U+30E4_U+30FC 1
 62
   179
420
  2234388
370
     9
100
AcDb2dPolyline
 66
     1
 10
0.0
 20
0.0
 30
0.0
  0
VERTEX
  5
D5
330
D4
100
AcDbEntity
  8
_U+30EC_U+30A4_U+30E4_U+30FC 1
 62
   179
420
  2234388
370
     9
100
AcDbVertex
100
AcDb2dVertex
 10
78.57987216192711
 20
-136.6266352436211
 30
0.0
  0
VERTEX
  5
D6
330
D4
100
AcDbEntity
  8
_U+30EC_U+30A4_U+30E4_U+30FC 1
 62
   179
420
  2234388
370
     9
100
AcDbVertex
100
AcDb2dVertex
 10
78.57987216192711
 20
-134.1668216331248
 30
0.0
  0
SEQEND
  5
D7
330
D4
100
AcDbEntity
  8
_U+30EC_U+30A4_U+30E4_U+30FC 1
 62
   179
420
  2234388
370
     9
  0
POLYLINE
  5
D8
330
1F
100
AcDbEntity
  8
_U+30EC_U+30A4_U+30E4_U+30FC 1
 62
   179
420
  2234388
370
     9
100
AcDb2dPolyline
 66
     1
 10
0.0
 20
0.0
 30
0.0
  0
VERTEX
  5
D9
330
D8
100
AcDbEntity
  8
_U+30EC_U+30A4_U+30E4_U+30FC 1
 62
   179
420
  2234388
370
     9
100
AcDbVertex
100
AcDb2dVertex
 10
87.57983276565233
 20
-136.6266352436211
 30
0.0
  0
VERTEX
  5
DA
330
D8
100
AcDbEntity
  8
_U+30EC_U+30A4_U+30E4_U+30FC 1
 62
   179
420
  2234388
370
     9
100
AcDbVertex
100
AcDb2dVertex
 10
87.57983276565233
 20
-134.1668216331248
 30
0.0
  0
SEQEND
  5
DB
330
D8
100
AcDbEntity
  8
_U+30EC_U+30A4_U+30E4_U+30FC 1
 62
   179
420
  2234388
370
     9
  0
INSERT
  5
DD
330
1F
100
AcDbEntity
  8
_U+30EC_U+30A4_U+30E4_U+30FC 1
100
AcDbBlockReference
  2
block 6
 10
0.0
 20
0.0
 30
0.0
  0
SPLINE
  5
E3
330
1F
100
AcDbEntity
  8
_U+30EC_U+30A4_U+30E4_U+30FC 1
 62
   179
420
  2234388
370
     9
100
AcDbSpline
210
0.0
220
0.0
230
1.0
 70
    11
 71
     3
 72
    17
 73
    13
 74
     0
 42
0.0000000001
 43
0.0000000001
 12
1.0
 22
0.0
 32
0.0
 13
1.0
 23
0.0
 33
0.0
 40
0.0
 40
0.0
 40
0.0
 40
0.0
 40
1.0
 40
1.0
 40
1.0
 40
2.0
 40
2.0
 40
2.0
 40
3.0
 40
3.0
 40
3.0
 40
4.0
 40
4.0
 40
4.0
 40
4.0
 10
87.61496943142258
 20
-135.1665938550973
 30
0.0
 10
87.61496943142258
 20
-135.186596355092
 30
0.0
 10
87.59983526514202
 20
-135.2024360773106
 30
0.0
 10
87.57983276565233
 20
-135.2024360773106
 30
0.0
 10
87.56053582170019
 20
-135.2024360773106
 30
0.0
 10
87.54469609988206
 20
-135.186596355092
 30
0.0
 10
87.54469609988206
 20
-135.1665938550973
 30
0.0
 10
87.54469609988206
 20
-135.1472969106575
 30
0.0
 10
87.56053582170019
 20
-135.1314571884396
 30
0.0
 10
87.57983276565233
 20
-135.1314571884396
 30
0.0
 10
87.59983526514202
 20
-135.1314571884396
 30
0.0
 10
87.61496943142258
 20
-135.1472969106575
 30
0.0
 10
87.61496943142258
 20
-135.1665938550973
 30
0.0
  0
POLYLINE
  5
E4
330
1F
100
AcDbEntity
  8
_U+30EC_U+30A4_U+30E4_U+30FC 1
 62
   179
420
  2234388
370
     9
100
AcDb2dPolyline
 66
     1
 10
0.0
 20
0.0
 30
0.0
  0
VERTEX
  5
E5
330
E4
100
AcDbEntity
  8
_U+30EC_U+30A4_U+30E4_U+30FC 1
 62
   179
420
  2234388
370
     9
100
AcDbVertex
100
AcDb2dVertex
 10
77.5800999652112
 20
-147.0259949632438
 30
0.0
  0
VERTEX
  5
E6
330
E4
100
AcDbEntity
  8
_U+30EC_U+30A4_U+30E4_U+30FC 1
 62
   179
420
  2234388
370
     9
100
AcDbVertex
100
AcDb2dVertex
 10
100.0800191134127
 20
-147.0259949632438
 30
0.0
  0
SEQEND
  5
E7
330
E4
100
AcDbEntity
  8
_U+30EC_U+30A4_U+30E4_U+30FC 1
 62
   179
420
  2234388
370
     9
  0
POLYLINE
  5
E8
330
1F
100
AcDbEntity
  8
_U+30EC_U+30A4_U+30E4_U+30FC 1
 62
   179
420
  2234388
370
     9
100
AcDb2dPolyline
 66
     1
 10
0.0
 20
0.0
 30
0.0
  0
VERTEX
  5
E9
330
E8
100
AcDbEntity
  8
_U+30EC_U+30A4_U+30E4_U+30FC 1
 62
   179
420
  2234388
370
     9
100
AcDbVertex
100
AcDb2dVertex
 10
100.0800191134127
 20
-122.5265308027017
 30
0.0
  0
VERTEX
  5
EA
330
E8
100
AcDbEntity
  8
_U+30EC_U+30A4_U+30E4_U+30FC 1
 62
   179
420
  2234388
370
     9
100
AcDbVertex
100
AcDb2dVertex
 10
100.0800191134127
 20
-148.0264374629937
 30
0.0
  0
SEQEND
  5
EB
330
E8
100
AcDbEntity
  8
_U+30EC_U+30A4_U+30E4_U+30FC 1
 62
   179
420
  2234388
370
     9
  0
INSERT
  5
ED
330
1F
100
AcDbEntity
  8
_U+30EC_U+30A4_U+30E4_U+30FC 1
100
AcDbBlockReference
  2
block 7
 10
0.0
 20
0.0
 30
0.0
  0
INSERT
  5
F3
330
1F
100
AcDbEntity
  8
_U+30EC_U+30A4_U+30E4_U+30FC 1
100
AcDbBlockReference
  2
block 8
 10
0.0
 20
0.0
 30
0.0
  0
SPLINE
  5
104
330
1F
100
AcDbEntity
  8
_U+30EC_U+30A4_U+30E4_U+30FC 1
 62
   179
420
  2234388
370
     9
100
AcDbSpline
210
0.0
220
0.0
230
1.0
 70
    11
 71
     3
 72
    17
 73
    13
 74
     0
 42
0.0000000001
 43
0.0000000001
 12
1.0
 22
0.0
 32
0.0
 13
1.0
 23
0.0
 33
0.0
 40
0.0
 40
0.0
 40
0.0
 40
0.0
 40
1.0
 40
1.0
 40
1.0
 40
2.0
 40
2.0
 40
2.0
 40
3.0
 40
3.0
 40
3.0
 40
4.0
 40
4.0
 40
4.0
 40
4.0
 10
84.97947255421526
 20
-124.583966079965
 30
0.0
 10
84.97947255421526
 20
-124.5295324688675
 30
0.0
 10
84.93470505535737
 20
-124.4840594133234
 30
0.0
 10
84.87956589009742
 20
-124.4840594133234
 30
0.0
 10
84.82513228037503
 20
-124.4840594133234
 30
0.0
 10
84.78036478151715
 20
-124.5295324688675
 30
0.0
 10
84.78036478151715
 20
-124.583966079965
 30
0.0
 10
84.78036478151715
 20
-124.6390699688403
 30
0.0
 10
84.82513228037503
 20
-124.6838727466067
 30
0.0
 10
84.87956589009742
 20
-124.6838727466067
 30
0.0
 10
84.93470505535737
 20
-124.6838727466067
 30
0.0
 10
84.97947255421526
 20
-124.6390699688403
 30
0.0
 10
84.97947255421526
 20
-124.583966079965
 30
0.0
  0
POLYLINE
  5
105
330
1F
100
AcDbEntity
  8
_U+30EC_U+30A4_U+30E4_U+30FC 1
 62
   179
420
  2234388
370
     9
100
AcDb2dPolyline
 66
     1
 10
0.0
 20
0.0
 30
0.0
  0
VERTEX
  5
106
330
105
100
AcDbEntity
  8
_U+30EC_U+30A4_U+30E4_U+30FC 1
 62
   179
420
  2234388
370
     9
100
AcDbVertex
100
AcDb2dVertex
 10
84.87956589009742
 20
-119.0263402480212
 30
0.0
  0
VERTEX
  5
107
330
105
100
AcDbEntity
  8
_U+30EC_U+30A4_U+30E4_U+30FC 1
 62
   179
420
  2234388
370
     9
100
AcDbVertex
100
AcDb2dVertex
 10
84.87956589009742
 20
-125.5844085797149
 30
0.0
  0
SEQEND
  5
108
330
105
100
AcDbEntity
  8
_U+30EC_U+30A4_U+30E4_U+30FC 1
 62
   179
420
  2234388
370
     9
  0
SPLINE
  5
109
330
1F
100
AcDbEntity
  8
_U+30EC_U+30A4_U+30E4_U+30FC 1
 62
   179
420
  2234388
370
     9
100
AcDbSpline
210
0.0
220
0.0
230
1.0
 70
    11
 71
     3
 72
    17
 73
    13
 74
     0
 42
0.0000000001
 43
0.0000000001
 12
1.0
 22
0.0
 32
0.0
 13
1.0
 23
0.0
 33
0.0
 40
0.0
 40
0.0
 40
0.0
 40
0.0
 40
1.0
 40
1.0
 40
1.0
 40
2.0
 40
2.0
 40
2.0
 40
3.0
 40
3.0
 40
3.0
 40
4.0
 40
4.0
 40
4.0
 40
4.0
 10
90.17952497745527
 20
-124.583966079965
 30
0.0
 10
90.17952497745527
 20
-124.5295324688675
 30
0.0
 10
90.13472219968854
 20
-124.4840594133234
 30
0.0
 10
90.07961603521088
 20
-124.4840594133234
 30
0.0
 10
90.02518242548848
 20
-124.4840594133234
 30
0.0
 10
89.98037964885371
 20
-124.5295324688675
 30
0.0
 10
89.98037964885371
 20
-124.583966079965
 30
0.0
 10
89.98037964885371
 20
-124.6390699688403
 30
0.0
 10
90.02518242548848
 20
-124.6838727466067
 30
0.0
 10
90.07961603521088
 20
-124.6838727466067
 30
0.0
 10
90.13472219968854
 20
-124.6838727466067
 30
0.0
 10
90.17952497745527
 20
-124.6390699688403
 30
0.0
 10
90.17952497745527
 20
-124.583966079965
 30
0.0
  0
POLYLINE
  5
10A
330
1F
100
AcDbEntity
  8
_U+30EC_U+30A4_U+30E4_U+30FC 1
 62
   179
420
  2234388
370
     9
100
AcDb2dPolyline
 66
     1
 10
0.0
 20
0.0
 30
0.0
  0
VERTEX
  5
10B
330
10A
100
AcDbEntity
  8
_U+30EC_U+30A4_U+30E4_U+30FC 1
 62
   179
420
  2234388
370
     9
100
AcDbVertex
100
AcDb2dVertex
 10
90.07961603521088
 20
-123.1239246914413
 30
0.0
  0
VERTEX
  5
10C
330
10A
100
AcDbEntity
  8
_U+30EC_U+30A4_U+30E4_U+30FC 1
 62
   179
420
  2234388
370
     9
100
AcDbVertex
100
AcDb2dVertex
 10
90.07961603521088
 20
-125.5844085797149
 30
0.0
  0
SEQEND
  5
10D
330
10A
100
AcDbEntity
  8
_U+30EC_U+30A4_U+30E4_U+30FC 1
 62
   179
420
  2234388
370
     9
  0
POLYLINE
  5
10E
330
1F
100
AcDbEntity
  8
_U+30EC_U+30A4_U+30E4_U+30FC 1
 62
   179
420
  2234388
370
     9
100
AcDb2dPolyline
 66
     1
 10
0.0
 20
0.0
 30
0.0
  0
VERTEX
  5
10F
330
10E
100
AcDbEntity
  8
_U+30EC_U+30A4_U+30E4_U+30FC 1
 62
   179
420
  2234388
370
     9
100
AcDbVertex
100
AcDb2dVertex
 10
84.87956589009742
 20
-124.583966079965
 30
0.0
  0
VERTEX
  5
110
330
10E
100
AcDbEntity
  8
_U+30EC_U+30A4_U+30E4_U+30FC 1
 62
   179
420
  2234388
370
     9
100
AcDbVertex
100
AcDb2dVertex
 10
90.07961603521088
 20
-124.583966079965
 30
0.0
  0
SEQEND
  5
111
330
10E
100
AcDbEntity
  8
_U+30EC_U+30A4_U+30E4_U+30FC 1
 62
   179
420
  2234388
370
     9
  0
SPLINE
  5
112
330
1F
100
AcDbEntity
  8
_U+30EC_U+30A4_U+30E4_U+30FC 1
 62
   179
420
  2234388
370
     9
100
AcDbSpline
210
0.0
220
0.0
230
1.0
 70
    11
 71
     3
 72
    17
 73
    13
 74
     0
 42
0.0000000001
 43
0.0000000001
 12
1.0
 22
0.0
 32
0.0
 13
1.0
 23
0.0
 33
0.0
 40
0.0
 40
0.0
 40
0.0
 40
0.0
 40
1.0
 40
1.0
 40
1.0
 40
2.0
 40
2.0
 40
2.0
 40
3.0
 40
3.0
 40
3.0
 40
4.0
 40
4.0
 40
4.0
 40
4.0
 10
84.44688608999954
 20
-140.5264877426463
 30
0.0
 10
84.44688608999954
 20
-140.4720541315487
 30
0.0
 10
84.40208331223282
 20
-140.4265810760047
 30
0.0
 10
84.34697729257378
 20
-140.4265810760047
 30
0.0
 10
84.29254368285139
 20
-140.4265810760047
 30
0.0
 10
84.24774090621662
 20
-140.4720541315487
 30
0.0
 10
84.24774090621662
 20
-140.5264877426463
 30
0.0
 10
84.24774090621662
 20
-140.5815916315212
 30
0.0
 10
84.29254368285139
 20
-140.6263944092879
 30
0.0
 10
84.34697729257378
 20
-140.6263944092879
 30
0.0
 10
84.40208331223282
 20
-140.6263944092879
 30
0.0
 10
84.44688608999954
 20
-140.5815916315212
 30
0.0
 10
84.44688608999954
 20
-140.5264877426463
 30
0.0
  0
SPLINE
  5
113
330
1F
100
AcDbEntity
  8
_U+30EC_U+30A4_U+30E4_U+30FC 1
 62
   179
420
  2234388
370
     9
100
AcDbSpline
210
0.0
220
0.0
230
1.0
 70
    11
 71
     3
 72
    17
 73
    13
 74
     0
 42
0.0000000001
 43
0.0000000001
 12
1.0
 22
0.0
 32
0.0
 13
1.0
 23
0.0
 33
0.0
 40
0.0
 40
0.0
 40
0.0
 40
0.0
 40
1.0
 40
1.0
 40
1.0
 40
2.0
 40
2.0
 40
2.0
 40
3.0
 40
3.0
 40
3.0
 40
4.0
 40
4.0
 40
4.0
 40
4.0
 10
84.44688608999954
 20
-142.0264635756044
 30
0.0
 10
84.44688608999954
 20
-141.9720299645068
 30
0.0
 10
84.40208331223282
 20
-141.9265569089627
 30
0.0
 10
84.34697729257378
 20
-141.9265569089627
 30
0.0
 10
84.29254368285139
 20
-141.9265569089627
 30
0.0
 10
84.24774090621662
 20
-141.9720299645068
 30
0.0
 10
84.24774090621662
 20
-142.0264635756044
 30
0.0
 10
84.24774090621662
 20
-142.0816027422574
 30
0.0
 10
84.29254368285139
 20
-142.126370242246
 30
0.0
 10
84.34697729257378
 20
-142.126370242246
 30
0.0
 10
84.40208331223282
 20
-142.126370242246
 30
0.0
 10
84.44688608999954
 20
-142.0816027422574
 30
0.0
 10
84.44688608999954
 20
-142.0264635756044
 30
0.0
  0
POLYLINE
  5
114
330
1F
100
AcDbEntity
  8
_U+30EC_U+30A4_U+30E4_U+30FC 1
 62
   179
420
  2234388
370
     9
100
AcDb2dPolyline
 66
     1
 10
0.0
 20
0.0
 30
0.0
  0
VERTEX
  5
115
330
114
100
AcDbEntity
  8
_U+30EC_U+30A4_U+30E4_U+30FC 1
 62
   179
420
  2234388
370
     9
100
AcDbVertex
100
AcDb2dVertex
 10
84.34697729257378
 20
-140.5264877426463
 30
0.0
  0
VERTEX
  5
116
330
114
100
AcDbEntity
  8
_U+30EC_U+30A4_U+30E4_U+30FC 1
 62
   179
420
  2234388
370
     9
100
AcDbVertex
100
AcDb2dVertex
 10
84.34697729257378
 20
-142.0264635756044
 30
0.0
  0
SEQEND
  5
117
330
114
100
AcDbEntity
  8
_U+30EC_U+30A4_U+30E4_U+30FC 1
 62
   179
420
  2234388
370
     9
  0
POLYLINE
  5
118
330
1F
100
AcDbEntity
  8
_U+30EC_U+30A4_U+30E4_U+30FC 1
 62
   179
420
  2234388
370
     9
100
AcDb2dPolyline
 66
     1
 10
0.0
 20
0.0
 30
0.0
  0
VERTEX
  5
119
330
118
100
AcDbEntity
  8
_U+30EC_U+30A4_U+30E4_U+30FC 1
 62
   179
420
  2234388
370
     9
100
AcDbVertex
100
AcDb2dVertex
 10
84.34697729257378
 20
-140.5264877426463
 30
0.0
  0
VERTEX
  5
11A
330
118
100
AcDbEntity
  8
_U+30EC_U+30A4_U+30E4_U+30FC 1
 62
   179
420
  2234388
370
     9
100
AcDbVertex
100
AcDb2dVertex
 10
86.58006056893642
 20
-140.5264877426463
 30
0.0
  0
SEQEND
  5
11B
330
118
100
AcDbEntity
  8
_U+30EC_U+30A4_U+30E4_U+30FC 1
 62
   179
420
  2234388
370
     9
  0
INSERT
  5
11D
330
1F
100
AcDbEntity
  8
_U+30EC_U+30A4_U+30E4_U+30FC 1
100
AcDbBlockReference
  2
block 9
 10
0.0
 20
0.0
 30
0.0
  0
INSERT
  5
12D
330
1F
100
AcDbEntity
  8
_U+30EC_U+30A4_U+30E4_U+30FC 1
100
AcDbBlockReference
  2
block 10
 10
0.0
 20
0.0
 30
0.0
  0
SPLINE
  5
13C
330
1F
100
AcDbEntity
  8
_U+30EC_U+30A4_U+30E4_U+30FC 1
 62
   179
420
  2234388
370
     9
100
AcDbSpline
210
0.0
220
0.0
230
1.0
 70
    11
 71
     3
 72
    17
 73
    13
 74
     0
 42
0.0000000001
 43
0.0000000001
 12
1.0
 22
0.0
 32
0.0
 13
1.0
 23
0.0
 33
0.0
 40
0.0
 40
0.0
 40
0.0
 40
0.0
 40
1.0
 40
1.0
 40
1.0
 40
2.0
 40
2.0
 40
2.0
 40
3.0
 40
3.0
 40
3.0
 40
4.0
 40
4.0
 40
4.0
 40
4.0
 10
100.1151583083043
 20
-147.0259949632438
 30
0.0
 10
100.1151583083043
 20
-147.045962185461
 30
0.0
 10
100.0999888638638
 20
-147.0618371854571
 30
0.0
 10
100.0800191134127
 20
-147.0618371854571
 30
0.0
 10
100.0607221694605
 20
-147.0618371854571
 30
0.0
 10
100.0448824476424
 20
-147.045962185461
 30
0.0
 10
100.0448824476424
 20
-147.0259949632438
 30
0.0
 10
100.0448824476424
 20
-147.006698018804
 30
0.0
 10
100.0607221694605
 20
-146.9908582965854
 30
0.0
 10
100.0800191134127
 20
-146.9908582965854
 30
0.0
 10
100.0999888638638
 20
-146.9908582965854
 30
0.0
 10
100.1151583083043
 20
-147.006698018804
 30
0.0
 10
100.1151583083043
 20
-147.0259949632438
 30
0.0
  0
SPLINE
  5
13D
330
1F
100
AcDbEntity
  8
_U+30EC_U+30A4_U+30E4_U+30FC 1
 62
   179
420
  2234388
370
     9
100
AcDbSpline
210
0.0
220
0.0
230
1.0
 70
    11
 71
     3
 72
    17
 73
    13
 74
     0
 42
0.0000000001
 43
0.0000000001
 12
1.0
 22
0.0
 32
0.0
 13
1.0
 23
0.0
 33
0.0
 40
0.0
 40
0.0
 40
0.0
 40
0.0
 40
1.0
 40
1.0
 40
1.0
 40
2.0
 40
2.0
 40
2.0
 40
3.0
 40
3.0
 40
3.0
 40
4.0
 40
4.0
 40
4.0
 40
4.0
 10
95.1797242384296
 20
-147.0259949632438
 30
0.0
 10
95.1797242384296
 20
-146.9715613521462
 30
0.0
 10
95.13492146179485
 20
-146.9260882966015
 30
0.0
 10
95.07981757431176
 20
-146.9260882966015
 30
0.0
 10
95.02467840905182
 20
-146.9260882966015
 30
0.0
 10
94.97991091019394
 20
-146.9715613521462
 30
0.0
 10
94.97991091019394
 20
-147.0259949632438
 30
0.0
 10
94.97991091019394
 20
-147.0811341298962
 30
0.0
 10
95.02467840905182
 20
-147.1259016298854
 30
0.0
 10
95.07981757431176
 20
-147.1259016298854
 30
0.0
 10
95.13492146179485
 20
-147.1259016298854
 30
0.0
 10
95.1797242384296
 20
-147.0811341298962
 30
0.0
 10
95.1797242384296
 20
-147.0259949632438
 30
0.0
  0
POLYLINE
  5
13E
330
1F
100
AcDbEntity
  8
_U+30EC_U+30A4_U+30E4_U+30FC 1
 62
   179
420
  2234388
370
     9
100
AcDb2dPolyline
 66
     1
 10
0.0
 20
0.0
 30
0.0
  0
VERTEX
  5
13F
330
13E
100
AcDbEntity
  8
_U+30EC_U+30A4_U+30E4_U+30FC 1
 62
   179
420
  2234388
370
     9
100
AcDbVertex
100
AcDb2dVertex
 10
95.07981757431176
 20
-145.5659535747195
 30
0.0
  0
VERTEX
  5
140
330
13E
100
AcDbEntity
  8
_U+30EC_U+30A4_U+30E4_U+30FC 1
 62
   179
420
  2234388
370
     9
100
AcDbVertex
100
AcDb2dVertex
 10
95.07981757431176
 20
-148.0264374629937
 30
0.0
  0
SEQEND
  5
141
330
13E
100
AcDbEntity
  8
_U+30EC_U+30A4_U+30E4_U+30FC 1
 62
   179
420
  2234388
370
     9
  0
SPLINE
  5
142
330
1F
100
AcDbEntity
  8
_U+30EC_U+30A4_U+30E4_U+30FC 1
 62
   179
420
  2234388
370
     9
100
AcDbSpline
210
0.0
220
0.0
230
1.0
 70
    11
 71
     3
 72
    17
 73
    13
 74
     0
 42
0.0000000001
 43
0.0000000001
 12
1.0
 22
0.0
 32
0.0
 13
1.0
 23
0.0
 33
0.0
 40
0.0
 40
0.0
 40
0.0
 40
0.0
 40
1.0
 40
1.0
 40
1.0
 40
2.0
 40
2.0
 40
2.0
 40
3.0
 40
3.0
 40
3.0
 40
4.0
 40
4.0
 40
4.0
 40
4.0
 10
95.11495424008203
 20
-147.0259949632438
 30
0.0
 10
95.11495424008203
 20
-147.045962185461
 30
0.0
 10
95.09978479602458
 20
-147.0618371854571
 30
0.0
 10
95.07981757431176
 20
-147.0618371854571
 30
0.0
 10
95.06052063035963
 20
-147.0618371854571
 30
0.0
 10
95.04468330957205
 20
-147.045962185461
 30
0.0
 10
95.04468330957205
 20
-147.0259949632438
 30
0.0
 10
95.04468330957205
 20
-147.006698018804
 30
0.0
 10
95.06052063035963
 20
-146.9908582965854
 30
0.0
 10
95.07981757431176
 20
-146.9908582965854
 30
0.0
 10
95.09978479602458
 20
-146.9908582965854
 30
0.0
 10
95.11495424008203
 20
-147.006698018804
 30
0.0
 10
95.11495424008203
 20
-147.0259949632438
 30
0.0
  0
SPLINE
  5
143
330
1F
100
AcDbEntity
  8
_U+30EC_U+30A4_U+30E4_U+30FC 1
 62
     7
420
 16777215
370
     9
100
AcDbSpline
210
0.0
220
0.0
230
1.0
 70
    11
 71
     3
 72
    17
 73
    13
 74
     0
 42
0.0000000001
 43
0.0000000001
 12
1.0
 22
0.0
 32
0.0
 13
1.0
 23
0.0
 33
0.0
 40
0.0
 40
0.0
 40
0.0
 40
0.0
 40
1.0
 40
1.0
 40
1.0
 40
2.0
 40
2.0
 40
2.0
 40
3.0
 40
3.0
 40
3.0
 40
4.0
 40
4.0
 40
4.0
 40
4.0
 10
103.4844656932247
 20
-143.0269413531324
 30
0.0
 10
103.4844656932247
 20
-142.9718021864794
 30
0.0
 10
103.4396629165899
 20
-142.9270346864902
 30
0.0
 10
103.3845590291068
 20
-142.9270346864902
 30
0.0
 10
103.3294198638469
 20
-142.9270346864902
 30
0.0
 10
103.284652364989
 20
-142.9718021864794
 30
0.0
 10
103.284652364989
 20
-143.0269413531324
 30
0.0
 10
103.284652364989
 20
-143.0820452420074
 30
0.0
 10
103.3294198638469
 20
-143.1268480197741
 30
0.0
 10
103.3845590291068
 20
-143.1268480197741
 30
0.0
 10
103.4396629165899
 20
-143.1268480197741
 30
0.0
 10
103.4844656932247
 20
-143.0820452420074
 30
0.0
 10
103.4844656932247
 20
-143.0269413531324
 30
0.0
  0
POLYLINE
  5
144
330
1F
100
AcDbEntity
  8
_U+30EC_U+30A4_U+30E4_U+30FC 1
 62
     7
420
 16777215
370
     9
100
AcDb2dPolyline
 66
     1
 10
0.0
 20
0.0
 30
0.0
  0
VERTEX
  5
145
330
144
100
AcDbEntity
  8
_U+30EC_U+30A4_U+30E4_U+30FC 1
 62
     7
420
 16777215
370
     9
100
AcDbVertex
100
AcDb2dVertex
 10
97.580271121631
 20
-143.0269413531324
 30
0.0
  0
VERTEX
  5
146
330
144
100
AcDbEntity
  8
_U+30EC_U+30A4_U+30E4_U+30FC 1
 62
     7
420
 16777215
370
     9
100
AcDbVertex
100
AcDb2dVertex
 10
104.3843312258227
 20
-143.0269413531324
 30
0.0
  0
SEQEND
  5
147
330
144
100
AcDbEntity
  8
_U+30EC_U+30A4_U+30E4_U+30FC 1
 62
     7
420
 16777215
370
     9
  0
SPLINE
  5
148
330
1F
100
AcDbEntity
  8
_U+30EC_U+30A4_U+30E4_U+30FC 1
 62
     7
420
 16777215
370
     9
100
AcDbSpline
210
0.0
220
0.0
230
1.0
 70
    11
 71
     3
 72
    17
 73
    13
 74
     0
 42
0.0000000001
 43
0.0000000001
 12
1.0
 22
0.0
 32
0.0
 13
1.0
 23
0.0
 33
0.0
 40
0.0
 40
0.0
 40
0.0
 40
0.0
 40
1.0
 40
1.0
 40
1.0
 40
2.0
 40
2.0
 40
2.0
 40
3.0
 40
3.0
 40
3.0
 40
4.0
 40
4.0
 40
4.0
 40
4.0
 10
103.4844656932247
 20
-120.0267827477711
 30
0.0
 10
103.4844656932247
 20
-119.9716435811184
 30
0.0
 10
103.4396629165899
 20
-119.9268760811295
 30
0.0
 10
103.3845590291068
 20
-119.9268760811295
 30
0.0
 10
103.3294198638469
 20
-119.9268760811295
 30
0.0
 10
103.284652364989
 20
-119.9716435811184
 30
0.0
 10
103.284652364989
 20
-120.0267827477711
 30
0.0
 10
103.284652364989
 20
-120.0818866366463
 30
0.0
 10
103.3294198638469
 20
-120.1266894144128
 30
0.0
 10
103.3845590291068
 20
-120.1266894144128
 30
0.0
 10
103.4396629165899
 20
-120.1266894144128
 30
0.0
 10
103.4844656932247
 20
-120.0818866366463
 30
0.0
 10
103.4844656932247
 20
-120.0267827477711
 30
0.0
  0
POLYLINE
  5
149
330
1F
100
AcDbEntity
  8
_U+30EC_U+30A4_U+30E4_U+30FC 1
 62
     7
420
 16777215
370
     9
100
AcDb2dPolyline
 66
     1
 10
0.0
 20
0.0
 30
0.0
  0
VERTEX
  5
14A
330
149
100
AcDbEntity
  8
_U+30EC_U+30A4_U+30E4_U+30FC 1
 62
     7
420
 16777215
370
     9
100
AcDbVertex
100
AcDb2dVertex
 10
100.924077752547
 20
-120.0267827477711
 30
0.0
  0
VERTEX
  5
14B
330
149
100
AcDbEntity
  8
_U+30EC_U+30A4_U+30E4_U+30FC 1
 62
     7
420
 16777215
370
     9
100
AcDbVertex
100
AcDb2dVertex
 10
104.3843312258227
 20
-120.0267827477711
 30
0.0
  0
SEQEND
  5
14C
330
149
100
AcDbEntity
  8
_U+30EC_U+30A4_U+30E4_U+30FC 1
 62
     7
420
 16777215
370
     9
  0
SPLINE
  5
14D
330
1F
100
AcDbEntity
  8
_U+30EC_U+30A4_U+30E4_U+30FC 1
 62
     7
420
 16777215
370
     9
100
AcDbSpline
210
0.0
220
0.0
230
1.0
 70
    11
 71
     3
 72
    17
 73
    13
 74
     0
 42
0.0000000001
 43
0.0000000001
 12
1.0
 22
0.0
 32
0.0
 13
1.0
 23
0.0
 33
0.0
 40
0.0
 40
0.0
 40
0.0
 40
0.0
 40
1.0
 40
1.0
 40
1.0
 40
2.0
 40
2.0
 40
2.0
 40
3.0
 40
3.0
 40
3.0
 40
4.0
 40
4.0
 40
4.0
 40
4.0
 10
103.4844656932247
 20
-116.0263533043269
 30
0.0
 10
103.4844656932247
 20
-115.9712141376738
 30
0.0
 10
103.4396629165899
 20
-115.9264466376849
 30
0.0
 10
103.3845590291068
 20
-115.9264466376849
 30
0.0
 10
103.3294198638469
 20
-115.9264466376849
 30
0.0
 10
103.284652364989
 20
-115.9712141376738
 30
0.0
 10
103.284652364989
 20
-116.0263533043269
 30
0.0
 10
103.284652364989
 20
-116.0814571932018
 30
0.0
 10
103.3294198638469
 20
-116.1262599709685
 30
0.0
 10
103.3845590291068
 20
-116.1262599709685
 30
0.0
 10
103.4396629165899
 20
-116.1262599709685
 30
0.0
 10
103.4844656932247
 20
-116.0814571932018
 30
0.0
 10
103.4844656932247
 20
-116.0263533043269
 30
0.0
  0
POLYLINE
  5
14E
330
1F
100
AcDbEntity
  8
_U+30EC_U+30A4_U+30E4_U+30FC 1
 62
     7
420
 16777215
370
     9
100
AcDb2dPolyline
 66
     1
 10
0.0
 20
0.0
 30
0.0
  0
VERTEX
  5
14F
330
14E
100
AcDbEntity
  8
_U+30EC_U+30A4_U+30E4_U+30FC 1
 62
     7
420
 16777215
370
     9
100
AcDbVertex
100
AcDb2dVertex
 10
100.924077752547
 20
-116.0263533043269
 30
0.0
  0
VERTEX
  5
150
330
14E
100
AcDbEntity
  8
_U+30EC_U+30A4_U+30E4_U+30FC 1
 62
     7
420
 16777215
370
     9
100
AcDbVertex
100
AcDb2dVertex
 10
104.3843312258227
 20
-116.0263533043269
 30
0.0
  0
SEQEND
  5
151
330
14E
100
AcDbEntity
  8
_U+30EC_U+30A4_U+30E4_U+30FC 1
 62
     7
420
 16777215
370
     9
  0
INSERT
  5
153
330
1F
100
AcDbEntity
  8
_U+30EC_U+30A4_U+30E4_U+30FC 1
100
AcDbBlockReference
  2
block 11
 10
0.0
 20
0.0
 30
0.0
  0
INSERT
  5
15B
330
1F
100
AcDbEntity
  8
_U+30EC_U+30A4_U+30E4_U+30FC 1
100
AcDbBlockReference
  2
block 12
 10
0.0
 20
0.0
 30
0.0
  0
POLYLINE
  5
173
330
1F
100
AcDbEntity
  8
_U+30EC_U+30A4_U+30E4_U+30FC 1
 62
     7
420
 16777215
370
     9
100
AcDb2dPolyline
 66
     1
 10
0.0
 20
0.0
 30
0.0
  0
VERTEX
  5
174
330
173
100
AcDbEntity
  8
_U+30EC_U+30A4_U+30E4_U+30FC 1
 62
     7
420
 16777215
370
     9
100
AcDbVertex
100
AcDb2dVertex
 10
103.3845590291068
 20
-143.0269413531324
 30
0.0
  0
VERTEX
  5
175
330
173
100
AcDbEntity
  8
_U+30EC_U+30A4_U+30E4_U+30FC 1
 62
     7
420
 16777215
370
     9
100
AcDbVertex
100
AcDb2dVertex
 10
103.3845590291068
 20
-112.5261274718685
 30
0.0
  0
SEQEND
  5
176
330
173
100
AcDbEntity
  8
_U+30EC_U+30A4_U+30E4_U+30FC 1
 62
     7
420
 16777215
370
     9
  0
POLYLINE
  5
177
330
1F
100
AcDbEntity
  8
_U+30EC_U+30A4_U+30E4_U+30FC 1
 62
   179
420
  2234388
370
     9
100
AcDb2dPolyline
 66
     1
 10
0.0
 20
0.0
 30
0.0
  0
VERTEX
  5
178
330
177
100
AcDbEntity
  8
_U+30EC_U+30A4_U+30E4_U+30FC 1
 62
   179
420
  2234388
370
     9
100
AcDbVertex
100
AcDb2dVertex
 10
108.3799627905524
 20
-112.0603549719848
 30
0.0
  0
VERTEX
  5
179
330
177
100
AcDbEntity
  8
_U+30EC_U+30A4_U+30E4_U+30FC 1
 62
   179
420
  2234388
370
     9
100
AcDbVertex
100
AcDb2dVertex
 10
101.9197198998113
 20
-112.0603549719848
 30
0.0
  0
VERTEX
  5
17A
330
177
100
AcDbEntity
  8
_U+30EC_U+30A4_U+30E4_U+30FC 1
 62
   179
420
  2234388
370
     9
100
AcDbVertex
100
AcDb2dVertex
 10
97.17926863186142
 20
-116.778757748583
 30
0.0
  0
SEQEND
  5
17B
330
177
100
AcDbEntity
  8
_U+30EC_U+30A4_U+30E4_U+30FC 1
 62
   179
420
  2234388
370
     9
  0
POLYLINE
  5
17C
330
1F
100
AcDbEntity
  8
_U+30EC_U+30A4_U+30E4_U+30FC 1
 62
   179
420
  2234388
370
     9
100
AcDb2dPolyline
 66
     1
 10
0.0
 20
0.0
 30
0.0
  0
VERTEX
  5
17D
330
17C
100
AcDbEntity
  8
_U+30EC_U+30A4_U+30E4_U+30FC 1
 62
   179
420
  2234388
370
     9
100
AcDbVertex
100
AcDb2dVertex
 10
79.60857213568279
 20
-137.8131327433247
 30
0.0
  0
VERTEX
  5
17E
330
17C
100
AcDbEntity
  8
_U+30EC_U+30A4_U+30E4_U+30FC 1
 62
   179
420
  2234388
370
     9
100
AcDbVertex
100
AcDb2dVertex
 10
83.07708315830482
 20
-137.8131327433247
 30
0.0
  0
VERTEX
  5
17F
330
17C
100
AcDbEntity
  8
_U+30EC_U+30A4_U+30E4_U+30FC 1
 62
   179
420
  2234388
370
     9
100
AcDbVertex
100
AcDb2dVertex
 10
84.34697729257378
 20
-141.4476963535273
 30
0.0
  0
SEQEND
  5
180
330
17C
100
AcDbEntity
  8
_U+30EC_U+30A4_U+30E4_U+30FC 1
 62
   179
420
  2234388
370
     9
  0
INSERT
  5
182
330
1F
100
AcDbEntity
  8
_U+30EC_U+30A4_U+30E4_U+30FC 1
100
AcDbBlockReference
  2
block 13
 10
0.0
 20
0.0
 30
0.0
  0
ENDSEC
  0
SECTION
  2
OBJECTS
  0
DICTIONARY
  5
C
330
0
100
AcDbDictionary
281
     1
  3
ACAD_GROUP
350
D
  3
ACAD_LAYOUT
350
1A
  3
ACAD_MATERIAL
350
3B
  3
ACAD_MLEADERSTYLE
350
1BE
  3
ACAD_MLINESTYLE
350
17
  3
ACAD_PLOTSETTINGS
350
19
  3
ACAD_PLOTSTYLENAME
350
E
  3
ACAD_TABLESTYLE
350
1BD
  3
ACAD_VISUALSTYLE
350
2A
  0
SUN
  5
3F
330
29
100
AcDbSun
 90
        1
290
     0
 63
     7
421
 16777215
 40
1.0
291
     1
 91
  2455826
 92
 54000000
292
     0
 70
     2
 71
   256
280
     1
  0
DICTIONARY
  5
D
102
{ACAD_REACTORS
330
C
102
}
330
C
100
AcDbDictionary
281
     1
  0
DICTIONARY
  5
1A
102
{ACAD_REACTORS
330
C
102
}
330
C
100
AcDbDictionary
281
     1
  3
Layout1
350
1E
  3
Layout2
350
26
  3
Model
350
22
  0
DICTIONARY
  5
3B
102
{ACAD_REACTORS
330
C
102
}
330
C
100
AcDbDictionary
281
     1
  3
ByBlock
350
3D
  3
ByLayer
350
3C
  3
Global
350
3E
  0
DICTIONARY
  5
1BE
102
{ACAD_REACTORS
330
C
102
}
330
C
100
AcDbDictionary
281
     1
  0
DICTIONARY
  5
17
102
{ACAD_REACTORS
330
C
102
}
330
C
100
AcDbDictionary
281
     1
  3
Standard
350
18
  0
DICTIONARY
  5
19
102
{ACAD_REACTORS
330
C
102
}
330
C
100
AcDbDictionary
281
     1
  0
ACDBDICTIONARYWDFLT
  5
E
102
{ACAD_REACTORS
330
C
102
}
330
C
100
AcDbDictionary
281
     1
  3
Normal
350
F
100
AcDbDictionaryWithDefault
340
F
  0
DICTIONARY
  5
1BD
102
{ACAD_REACTORS
330
C
102
}
330
C
100
AcDbDictionary
281
     1
  0
DICTIONARY
  5
2A
102
{ACAD_REACTORS
330
C
102
}
330
C
100
AcDbDictionary
281
     1
  3
2dWireframe
350
2F
  3
3D Hidden
350
31
  3
3dWireframe
350
30
  3
Basic
350
32
  3
Brighten
350
36
  3
ColorChange
350
3A
  3
Conceptual
350
34
  3
Dim
350
35
  3
Facepattern
350
39
  3
Flat
350
2B
  3
FlatWithEdges
350
2C
  3
Gouraud
350
2D
  3
GouraudWithEdges
350
2E
  3
Linepattern
350
38
  3
Realistic
350
33
  3
Thicken
350
37
  0
LAYOUT
  5
1E
102
{ACAD_REACTORS
330
1A
102
}
330
1A
100
AcDbPlotSettings
  1

  2
none_device
  4

  6

 40
0.0
 41
0.0
 42
0.0
 43
0.0
 44
0.0
 45
0.0
 46
0.0
 47
0.0
 48
0.0
 49
0.0
140
0.0
141
0.0
142
1.0
143
1.0
 70
   688
 72
     0
 73
     0
 74
     5
  7

 75
    16
 76
     0
 77
     2
 78
   300
147
1.0
148
0.0
149
0.0
100
AcDbLayout
  1
Layout1
 70
     1
 71
     1
 10
0.0
 20
0.0
 11
12.0
 21
9.0
 12
0.0
 22
0.0
 32
0.0
 14
1.000000000000000E+20
 24
1.000000000000000E+20
 34
1.000000000000000E+20
 15
-1.000000000000000E+20
 25
-1.000000000000000E+20
 35
-1.000000000000000E+20
146
0.0
 13
0.0
 23
0.0
 33
0.0
 16
1.0
 26
0.0
 36
0.0
 17
0.0
 27
1.0
 37
0.0
 76
     0
330
1B
  0
LAYOUT
  5
26
102
{ACAD_REACTORS
330
1A
102
}
330
1A
100
AcDbPlotSettings
  1

  2
none_device
  4

  6

 40
0.0
 41
0.0
 42
0.0
 43
0.0
 44
0.0
 45
0.0
 46
0.0
 47
0.0
 48
0.0
 49
0.0
140
0.0
141
0.0
142
1.0
143
1.0
 70
   688
 72
     0
 73
     0
 74
     5
  7

 75
    16
 76
     0
 77
     2
 78
   300
147
1.0
148
0.0
149
0.0
100
AcDbLayout
  1
Layout2
 70
     1
 71
     2
 10
0.0
 20
0.0
 11
0.0
 21
0.0
 12
0.0
 22
0.0
 32
0.0
 14
0.0
 24
0.0
 34
0.0
 15
0.0
 25
0.0
 35
0.0
146
0.0
 13
0.0
 23
0.0
 33
0.0
 16
1.0
 26
0.0
 36
0.0
 17
0.0
 27
1.0
 37
0.0
 76
     0
330
23
  0
LAYOUT
  5
22
102
{ACAD_REACTORS
330
1A
102
}
330
1A
100
AcDbPlotSettings
  1

  2
none_device
  4

  6

 40
0.0
 41
0.0
 42
0.0
 43
0.0
 44
0.0
 45
0.0
 46
0.0
 47
0.0
 48
0.0
 49
0.0
140
0.0
141
0.0
142
1.0
143
1.0
 70
  1712
 72
     0
 73
     0
 74
     0
  7

 75
     0
 76
     0
 77
     2
 78
   300
147
1.0
148
0.0
149
0.0
100
AcDbLayout
  1
Model
 70
     1
 71
     0
 10
0.0
 20
0.0
 11
12.0
 21
9.0
 12
0.0
 22
0.0
 32
0.0
 14
1.000000000000000E+20
 24
1.000000000000000E+20
 34
1.000000000000000E+20
 15
-1.000000000000000E+20
 25
-1.000000000000000E+20
 35
-1.000000000000000E+20
146
0.0
 13
0.0
 23
0.0
 33
0.0
 16
1.0
 26
0.0
 36
0.0
 17
0.0
 27
1.0
 37
0.0
 76
     0
330
1F
331
29
  0
MATERIAL
  5
3D
102
{ACAD_REACTORS
330
3B
102
}
330
3B
100
AcDbMaterial
  1
ByBlock
 72
     1
 94
      127
  0
MATERIAL
  5
3C
102
{ACAD_REACTORS
330
3B
102
}
330
3B
100
AcDbMaterial
  1
ByLayer
 72
     1
 94
      127
  0
MATERIAL
  5
3E
102
{ACAD_REACTORS
330
3B
102
}
330
3B
100
AcDbMaterial
  1
Global
 72
     1
 94
      127
  0
MLINESTYLE
  5
18
102
{ACAD_REACTORS
330
17
102
}
330
17
100
AcDbMlineStyle
  2
Standard
 70
     0
  3

 62
   256
 51
90.0
 52
90.0
 71
     2
 49
0.5
 62
   256
  6
BYLAYER
 49
-0.5
 62
   256
  6
BYLAYER
  0
ACDBPLACEHOLDER
  5
F
102
{ACAD_REACTORS
330
E
102
}
330
E
  0
VISUALSTYLE
  5
2F
102
{ACAD_REACTORS
330
2A
102
}
330
2A
100
AcDbVisualStyle
  2
2dWireframe
 70
     4
177
     2
291
     0
 71
     0
176
     1
 72
     2
176
     1
 73
     0
176
     1
 90
        0
176
     1
 40
-0.6
176
     1
 41
-30.0
176
     1
 62
     5
 63
     7
421
 16777215
176
     1
 74
     1
176
     1
 91
        4
176
     1
 64
     7
176
     1
 65
   257
176
     1
 75
     1
176
     1
175
     1
176
     1
 42
1.0
176
     1
 92
        0
176
     1
 66
   257
176
     1
 43
1.0
176
     1
 76
     1
176
     1
 77
     6
176
     1
 78
     2
176
     1
 67
     7
176
     1
 79
     5
176
     1
170
     0
176
     1
171
     0
176
     1
290
     0
176
     1
 93
        1
176
     1
 44
0.0
176
     1
173
     0
176
     1
  0
VISUALSTYLE
  5
31
102
{ACAD_REACTORS
330
2A
102
}
330
2A
100
AcDbVisualStyle
  2
3D Hidden
 70
     6
177
     2
291
     0
 71
     1
176
     1
 72
     2
176
     1
 73
     2
176
     1
 90
        0
176
     1
 40
-0.6
176
     1
 41
-30.0
176
     1
 62
     5
 63
     7
421
 16777215
176
     1
 74
     2
176
     1
 91
        2
176
     1
 64
     7
176
     1
 65
   257
176
     1
 75
     2
176
     1
175
     1
176
     1
 42
40.0
176
     1
 92
        0
176
     1
 66
   257
176
     1
 43
1.0
176
     1
 76
     1
176
     1
 77
     6
176
     1
 78
     2
176
     1
 67
     7
176
     1
 79
     3
176
     1
170
     0
176
     1
171
     0
176
     1
290
     0
176
     1
 93
        1
176
     1
 44
0.0
176
     1
173
     0
176
     1
  0
VISUALSTYLE
  5
30
102
{ACAD_REACTORS
330
2A
102
}
330
2A
100
AcDbVisualStyle
  2
3dWireframe
 70
     5
177
     2
291
     0
 71
     0
176
     1
 72
     2
176
     1
 73
     0
176
     1
 90
        0
176
     1
 40
-0.6
176
     1
 41
-30.0
176
     1
 62
     5
 63
     7
421
 16777215
176
     1
 74
     1
176
     1
 91
        4
176
     1
 64
     7
176
     1
 65
   257
176
     1
 75
     1
176
     1
175
     1
176
     1
 42
1.0
176
     1
 92
        0
176
     1
 66
   257
176
     1
 43
1.0
176
     1
 76
     1
176
     1
 77
     6
176
     1
 78
     2
176
     1
 67
     7
176
     1
 79
     5
176
     1
170
     0
176
     1
171
     0
176
     1
290
     0
176
     1
 93
        1
176
     1
 44
0.0
176
     1
173
     0
176
     1
  0
VISUALSTYLE
  5
32
102
{ACAD_REACTORS
330
2A
102
}
330
2A
100
AcDbVisualStyle
  2
Basic
 70
     7
177
     2
291
     1
 71
     1
176
     1
 72
     0
176
     1
 73
     1
176
     1
 90
        0
176
     1
 40
-0.6
176
     1
 41
-30.0
176
     1
 62
     5
 63
     7
421
 16777215
176
     1
 74
     0
176
     1
 91
        4
176
     1
 64
     7
176
     1
 65
   257
176
     1
 75
     1
176
     1
175
     1
176
     1
 42
1.0
176
     1
 92
        8
176
     1
 66
     7
176
     1
 43
1.0
176
     1
 76
     1
176
     1
 77
     6
176
     1
 78
     2
176
     1
 67
     7
176
     1
 79
     5
176
     1
170
     0
176
     1
171
     0
176
     1
290
     0
176
     1
 93
        1
176
     1
 44
0.0
176
     1
173
     0
176
     1
  0
VISUALSTYLE
  5
36
102
{ACAD_REACTORS
330
2A
102
}
330
2A
100
AcDbVisualStyle
  2
Brighten
 70
    12
177
     2
291
     1
 71
     2
176
     1
 72
     2
176
     1
 73
     0
176
     1
 90
        0
176
     1
 40
-0.6
176
     1
 41
-30.0
176
     1
 62
     5
 63
     7
421
 16777215
176
     1
 74
     1
176
     1
 91
        4
176
     1
 64
     7
176
     1
 65
   257
176
     1
 75
     1
176
     1
175
     1
176
     1
 42
1.0
176
     1
 92
        8
176
     1
 66
     7
176
     1
 43
1.0
176
     1
 76
     1
176
     1
 77
     6
176
     1
 78
     2
176
     1
 67
     7
176
     1
 79
     5
176
     1
170
     0
176
     1
171
     0
176
     1
290
     0
176
     1
 93
        1
176
     1
 44
50.0
176
     1
173
     0
176
     1
  0
VISUALSTYLE
  5
3A
102
{ACAD_REACTORS
330
2A
102
}
330
2A
100
AcDbVisualStyle
  2
ColorChange
 70
    16
177
     2
291
     1
 71
     2
176
     1
 72
     2
176
     1
 73
     3
176
     1
 90
        0
176
     1
 40
-0.6
176
     1
 41
-30.0
176
     1
 62
     5
 63
     8
421
  8421504
176
     1
 74
     1
176
     1
 91
        4
176
     1
 64
     7
176
     1
 65
   257
176
     1
 75
     1
176
     1
175
     1
176
     1
 42
1.0
176
     1
 92
        8
176
     1
 66
     8
424
  8421504
176
     1
 43
1.0
176
     1
 76
     1
176
     1
 77
     6
176
     1
 78
     2
176
     1
 67
     7
176
     1
 79
     5
176
     1
170
     0
176
     1
171
     0
176
     1
290
     0
176
     1
 93
        1
176
     1
 44
0.0
176
     1
173
     0
176
     1
  0
VISUALSTYLE
  5
34
102
{ACAD_REACTORS
330
2A
102
}
330
2A
100
AcDbVisualStyle
  2
Conceptual
 70
     9
177
     2
291
     0
 71
     3
176
     1
 72
     2
176
     1
 73
     0
176
     1
 90
        0
176
     1
 40
-0.6
176
     1
 41
-30.0
176
     1
 62
     5
 63
     7
421
 16777215
176
     1
 74
     2
176
     1
 91
        2
176
     1
 64
     7
176
     1
 65
   257
176
     1
 75
     1
176
     1
175
     1
176
     1
 42
40.0
176
     1
 92
        8
176
     1
 66
     7
176
     1
 43
1.0
176
     1
 76
     1
176
     1
 77
     6
176
     1
 78
     2
176
     1
 67
     7
176
     1
 79
     3
176
     1
170
     0
176
     1
171
     0
176
     1
290
     0
176
     1
 93
        1
176
     1
 44
0.0
176
     1
173
     0
176
     1
  0
VISUALSTYLE
  5
35
102
{ACAD_REACTORS
330
2A
102
}
330
2A
100
AcDbVisualStyle
  2
Dim
 70
    11
177
     2
291
     1
 71
     2
176
     1
 72
     2
176
     1
 73
     0
176
     1
 90
        0
176
     1
 40
-0.6
176
     1
 41
-30.0
176
     1
 62
     5
 63
     7
421
 16777215
176
     1
 74
     1
176
     1
 91
        4
176
     1
 64
     7
176
     1
 65
   257
176
     1
 75
     1
176
     1
175
     1
176
     1
 42
1.0
176
     1
 92
        8
176
     1
 66
     7
176
     1
 43
1.0
176
     1
 76
     1
176
     1
 77
     6
176
     1
 78
     2
176
     1
 67
     7
176
     1
 79
     5
176
     1
170
     0
176
     1
171
     0
176
     1
290
     0
176
     1
 93
        1
176
     1
 44
-50.0
176
     1
173
     0
176
     1
  0
VISUALSTYLE
  5
39
102
{ACAD_REACTORS
330
2A
102
}
330
2A
100
AcDbVisualStyle
  2
Facepattern
 70
    15
177
     2
291
     1
 71
     2
176
     1
 72
     2
176
     1
 73
     0
176
     1
 90
        0
176
     1
 40
-0.6
176
     1
 41
-30.0
176
     1
 62
     5
 63
     7
421
 16777215
176
     1
 74
     1
176
     1
 91
        4
176
     1
 64
     7
176
     1
 65
   257
176
     1
 75
     1
176
     1
175
     1
176
     1
 42
1.0
176
     1
 92
        8
176
     1
 66
     7
176
     1
 43
1.0
176
     1
 76
     1
176
     1
 77
     6
176
     1
 78
     2
176
     1
 67
     7
176
     1
 79
     5
176
     1
170
     0
176
     1
171
     0
176
     1
290
     0
176
     1
 93
        1
176
     1
 44
0.0
176
     1
173
     0
176
     1
  0
VISUALSTYLE
  5
2B
102
{ACAD_REACTORS
330
2A
102
}
330
2A
100
AcDbVisualStyle
  2
Flat
 70
     0
177
     2
291
     1
 71
     2
176
     1
 72
     1
176
     1
 73
     1
176
     1
 90
        2
176
     1
 40
-0.6
176
     1
 41
30.0
176
     1
 62
     5
 63
     7
421
 16777215
176
     1
 74
     0
176
     1
 91
        4
176
     1
 64
     7
176
     1
 65
   257
176
     1
 75
     1
176
     1
175
     1
176
     1
 42
1.0
176
     1
 92
        8
176
     1
 66
     7
176
     1
 43
1.0
176
     1
 76
     1
176
     1
 77
     6
176
     1
 78
     2
176
     1
 67
     7
176
     1
 79
     5
176
     1
170
     0
176
     1
171
     0
176
     1
290
     0
176
     1
 93
       13
176
     1
 44
0.0
176
     1
173
     0
176
     1
  0
VISUALSTYLE
  5
2C
102
{ACAD_REACTORS
330
2A
102
}
330
2A
100
AcDbVisualStyle
  2
FlatWithEdges
 70
     1
177
     2
291
     1
 71
     2
176
     1
 72
     1
176
     1
 73
     1
176
     1
 90
        2
176
     1
 40
-0.6
176
     1
 41
30.0
176
     1
 62
     5
 63
     7
421
 16777215
176
     1
 74
     1
176
     1
 91
        4
176
     1
 64
     7
176
     1
 65
   257
176
     1
 75
     1
176
     1
175
     1
176
     1
 42
1.0
176
     1
 92
        0
176
     1
 66
   257
176
     1
 43
1.0
176
     1
 76
     1
176
     1
 77
     6
176
     1
 78
     2
176
     1
 67
     7
176
     1
 79
     5
176
     1
170
     0
176
     1
171
     0
176
     1
290
     0
176
     1
 93
       13
176
     1
 44
0.0
176
     1
173
     0
176
     1
  0
VISUALSTYLE
  5
2D
102
{ACAD_REACTORS
330
2A
102
}
330
2A
100
AcDbVisualStyle
  2
Gouraud
 70
     2
177
     2
291
     1
 71
     2
176
     1
 72
     2
176
     1
 73
     1
176
     1
 90
        2
176
     1
 40
-0.6
176
     1
 41
30.0
176
     1
 62
     5
 63
     7
421
 16777215
176
     1
 74
     0
176
     1
 91
        4
176
     1
 64
     7
176
     1
 65
   257
176
     1
 75
     1
176
     1
175
     1
176
     1
 42
1.0
176
     1
 92
        0
176
     1
 66
     7
176
     1
 43
1.0
176
     1
 76
     1
176
     1
 77
     6
176
     1
 78
     2
176
     1
 67
     7
176
     1
 79
     5
176
     1
170
     0
176
     1
171
     0
176
     1
290
     0
176
     1
 93
       13
176
     1
 44
0.0
176
     1
173
     0
176
     1
  0
VISUALSTYLE
  5
2E
102
{ACAD_REACTORS
330
2A
102
}
330
2A
100
AcDbVisualStyle
  2
GouraudWithEdges
 70
     3
177
     2
291
     1
 71
     2
176
     1
 72
     2
176
     1
 73
     1
176
     1
 90
        2
176
     1
 40
-0.6
176
     1
 41
30.0
176
     1
 62
     5
 63
     7
421
 16777215
176
     1
 74
     1
176
     1
 91
        4
176
     1
 64
     7
176
     1
 65
   257
176
     1
 75
     1
176
     1
175
     1
176
     1
 42
1.0
176
     1
 92
        0
176
     1
 66
   257
176
     1
 43
1.0
176
     1
 76
     1
176
     1
 77
     6
176
     1
 78
     2
176
     1
 67
     7
176
     1
 79
     5
176
     1
170
     0
176
     1
171
     0
176
     1
290
     0
176
     1
 93
       13
176
     1
 44
0.0
176
     1
173
     0
176
     1
  0
VISUALSTYLE
  5
38
102
{ACAD_REACTORS
330
2A
102
}
330
2A
100
AcDbVisualStyle
  2
Linepattern
 70
    14
177
     2
291
     1
 71
     2
176
     1
 72
     2
176
     1
 73
     0
176
     1
 90
        0
176
     1
 40
-0.6
176
     1
 41
-30.0
176
     1
 62
     5
 63
     7
421
 16777215
176
     1
 74
     1
176
     1
 91
        4
176
     1
 64
     7
176
     1
 65
   257
176
     1
 75
     7
176
     1
175
     7
176
     1
 42
1.0
176
     1
 92
        8
176
     1
 66
     7
176
     1
 43
1.0
176
     1
 76
     1
176
     1
 77
     6
176
     1
 78
     2
176
     1
 67
     7
176
     1
 79
     5
176
     1
170
     0
176
     1
171
     0
176
     1
290
     0
176
     1
 93
        1
176
     1
 44
0.0
176
     1
173
     0
176
     1
  0
VISUALSTYLE
  5
33
102
{ACAD_REACTORS
330
2A
102
}
330
2A
100
AcDbVisualStyle
  2
Realistic
 70
     8
177
     2
291
     0
 71
     2
176
     1
 72
     2
176
     1
 73
     0
176
     1
 90
        0
176
     1
 40
-0.6
176
     1
 41
-30.0
176
     1
 62
     5
 63
     7
421
 16777215
176
     1
 74
     1
176
     1
 91
        0
176
     1
 64
     7
176
     1
 65
   257
176
     1
 75
     1
176
     1
175
     1
176
     1
 42
1.0
176
     1
 92
        8
176
     1
 66
     8
424
  7895160
176
     1
 43
1.0
176
     1
 76
     1
176
     1
 77
     6
176
     1
 78
     2
176
     1
 67
     7
176
     1
 79
     5
176
     1
170
     0
176
     1
171
     0
176
     1
290
     0
176
     1
 93
       13
176
     1
 44
0.0
176
     1
173
     0
176
     1
  0
VISUALSTYLE
  5
37
102
{ACAD_REACTORS
330
2A
102
}
330
2A
100
AcDbVisualStyle
  2
Thicken
 70
    13
177
     2
291
     1
 71
     2
176
     1
 72
     2
176
     1
 73
     0
176
     1
 90
        0
176
     1
 40
-0.6
176
     1
 41
-30.0
176
     1
 62
     5
 63
     7
421
 16777215
176
     1
 74
     1
176
     1
 91
        4
176
     1
 64
     7
176
     1
 65
   257
176
     1
 75
     1
176
     1
175
     1
176
     1
 42
1.0
176
     1
 92
       12
176
     1
 66
     7
176
     1
 43
1.0
176
     1
 76
     1
176
     1
 77
     6
176
     1
 78
     2
176
     1
 67
     7
176
     1
 79
     5
176
     1
170
     0
176
     1
171
     0
176
     1
290
     0
176
     1
 93
        1
176
     1
 44
0.0
176
     1
173
     0
176
     1
  0
ENDSEC
  0
EOF
