  0
SECTION
  2
HEADER
  9
$ACADVER
  1
AC1024
  9
$ACADMAINTVER
 70
     6
  9
$DWGCODEPAGE
  3
UNDEFINED
  9
$INSBASE
 10
0.0
 20
0.0
 30
0.0
  9
$EXTMIN
 10
1.000000000000000E+20
 20
1.000000000000000E+20
 30
1.000000000000000E+20
  9
$EXTMAX
 10
-1.000000000000000E+20
 20
-1.000000000000000E+20
 30
-1.000000000000000E+20
  9
$LIMMIN
 10
0.0
 20
0.0
  9
$LIMMAX
 10
12.0
 20
9.0
  9
$ORTHOMODE
 70
     0
  9
$REGENMODE
 70
     1
  9
$FILLMODE
 70
     1
  9
$QTEXTMODE
 70
     0
  9
$MIRRTEXT
 70
     1
  9
$LTSCALE
 40
1.0
  9
$ATTMODE
 70
     1
  9
$TEXTSIZE
 40
0.2
  9
$TRACEWID
 40
0.05
  9
$TEXTSTYLE
  7
Standard
  9
$CLAYER
  8
0
  9
$CELTYPE
  6
ByLayer
  9
$CECOLOR
 62
   256
  9
$CELTSCALE
 40
1.0
  9
$DISPSILH
 70
     0
  9
$DIMSCALE
 40
1.0
  9
$DIMASZ
 40
0.18
  9
$DIMEXO
 40
0.0625
  9
$DIMDLI
 40
0.38
  9
$DIMRND
 40
0.0
  9
$DIMDLE
 40
0.0
  9
$DIMEXE
 40
0.18
  9
$DIMTP
 40
0.0
  9
$DIMTM
 40
0.0
  9
$DIMTXT
 40
0.18
  9
$DIMCEN
 40
0.09
  9
$DIMTSZ
 40
0.0
  9
$DIMTOL
 70
     0
  9
$DIMLIM
 70
     0
  9
$DIMTIH
 70
     1
  9
$DIMTOH
 70
     1
  9
$DIMSE1
 70
     0
  9
$DIMSE2
 70
     0
  9
$DIMTAD
 70
     0
  9
$DIMZIN
 70
     0
  9
$DIMBLK
  1

  9
$DIMASO
 70
     1
  9
$DIMSHO
 70
     1
  9
$DIMPOST
  1

  9
$DIMAPOST
  1

  9
$DIMALT
 70
     0
  9
$DIMALTD
 70
     2
  9
$DIMALTF
 40
25.4
  9
$DIMLFAC
 40
1.0
  9
$DIMTOFL
 70
     0
  9
$DIMTVP
 40
0.0
  9
$DIMTIX
 70
     0
  9
$DIMSOXD
 70
     0
  9
$DIMSAH
 70
     0
  9
$DIMBLK1
  1

  9
$DIMBLK2
  1

  9
$DIMSTYLE
  2
Standard
  9
$DIMCLRD
 70
     0
  9
$DIMCLRE
 70
     0
  9
$DIMCLRT
 70
     0
  9
$DIMTFAC
 40
1.0
  9
$DIMGAP
 40
0.09
  9
$DIMJUST
 70
     0
  9
$DIMSD1
 70
     0
  9
$DIMSD2
 70
     0
  9
$DIMTOLJ
 70
     1
  9
$DIMTZIN
 70
     0
  9
$DIMALTZ
 70
     0
  9
$DIMALTTZ
 70
     0
  9
$DIMUPT
 70
     0
  9
$DIMDEC
 70
     4
  9
$DIMTDEC
 70
     4
  9
$DIMALTU
 70
     2
  9
$DIMALTTD
 70
     2
  9
$DIMTXSTY
  7
Standard
  9
$DIMAUNIT
 70
     0
  9
$DIMADEC
 70
     0
  9
$DIMALTRND
 40
0.0
  9
$DIMAZIN
 70
     0
  9
$DIMDSEP
 70
    46
  9
$DIMATFIT
 70
     3
  9
$DIMFRAC
 70
     0
  9
$DIMLDRBLK
  1

  9
$DIMLUNIT
 70
     2
  9
$DIMLWD
 70
    -2
  9
$DIMLWE
 70
    -2
  9
$DIMTMOVE
 70
     0
  9
$DIMFXL
 40
1.0
  9
$DIMFXLON
 70
     0
  9
$DIMJOGANG
 40
0.7853981633974483
  9
$DIMTFILL
 70
     0
  9
$DIMTFILLCLR
 70
     0
  9
$DIMARCSYM
 70
     0
  9
$DIMLTYPE
  6

  9
$DIMLTEX1
  6

  9
$DIMLTEX2
  6

  9
$DIMTXTDIRECTION
 70
     0
  9
$LUNITS
 70
     2
  9
$LUPREC
 70
     4
  9
$SKETCHINC
 40
0.1
  9
$FILLETRAD
 40
0.5
  9
$AUNITS
 70
     0
  9
$AUPREC
 70
     0
  9
$MENU
  1
.
  9
$ELEVATION
 40
0.0
  9
$PELEVATION
 40
0.0
  9
$THICKNESS
 40
0.0
  9
$LIMCHECK
 70
     0
  9
$CHAMFERA
 40
0.5
  9
$CHAMFERB
 40
0.5
  9
$CHAMFERC
 40
1.0
  9
$CHAMFERD
 40
0.0
  9
$SKPOLY
 70
     0
  9
$TDCREATE
 40
2457917.645127303
  9
$TDUCREATE
 40
2457917.270127315
  9
$TDUPDATE
 40
2457917.645127303
  9
$TDUUPDATE
 40
2457917.270127315
  9
$TDINDWG
 40
0.0000000116
  9
$TDUSRTIMER
 40
0.0000000116
  9
$USRTIMER
 70
     1
  9
$ANGBASE
 50
0.0
  9
$ANGDIR
 70
     0
  9
$PDMODE
 70
     0
  9
$PDSIZE
 40
0.0
  9
$PLINEWID
 40
0.0
  9
$SPLFRAME
 70
     0
  9
$SPLINETYPE
 70
     6
  9
$SPLINESEGS
 70
     8
  9
$HANDSEED
  5
1C1
  9
$SURFTAB1
 70
     6
  9
$SURFTAB2
 70
     6
  9
$SURFTYPE
 70
     6
  9
$SURFU
 70
     6
  9
$SURFV
 70
     6
  9
$UCSBASE
  2

  9
$UCSNAME
  2

  9
$UCSORG
 10
0.0
 20
0.0
 30
0.0
  9
$UCSXDIR
 10
1.0
 20
0.0
 30
0.0
  9
$UCSYDIR
 10
0.0
 20
1.0
 30
0.0
  9
$UCSORTHOREF
  2

  9
$UCSORTHOVIEW
 70
     0
  9
$UCSORGTOP
 10
0.0
 20
0.0
 30
0.0
  9
$UCSORGBOTTOM
 10
0.0
 20
0.0
 30
0.0
  9
$UCSORGLEFT
 10
0.0
 20
0.0
 30
0.0
  9
$UCSORGRIGHT
 10
0.0
 20
0.0
 30
0.0
  9
$UCSORGFRONT
 10
0.0
 20
0.0
 30
0.0
  9
$UCSORGBACK
 10
0.0
 20
0.0
 30
0.0
  9
$PUCSBASE
  2

  9
$PUCSNAME
  2

  9
$PUCSORG
 10
0.0
 20
0.0
 30
0.0
  9
$PUCSXDIR
 10
1.0
 20
0.0
 30
0.0
  9
$PUCSYDIR
 10
0.0
 20
1.0
 30
0.0
  9
$PUCSORTHOREF
  2

  9
$PUCSORTHOVIEW
 70
     0
  9
$PUCSORGTOP
 10
0.0
 20
0.0
 30
0.0
  9
$PUCSORGBOTTOM
 10
0.0
 20
0.0
 30
0.0
  9
$PUCSORGLEFT
 10
0.0
 20
0.0
 30
0.0
  9
$PUCSORGRIGHT
 10
0.0
 20
0.0
 30
0.0
  9
$PUCSORGFRONT
 10
0.0
 20
0.0
 30
0.0
  9
$PUCSORGBACK
 10
0.0
 20
0.0
 30
0.0
  9
$USERI1
 70
     0
  9
$USERI2
 70
     0
  9
$USERI3
 70
     0
  9
$USERI4
 70
     0
  9
$USERI5
 70
     0
  9
$USERR1
 40
0.0
  9
$USERR2
 40
0.0
  9
$USERR3
 40
0.0
  9
$USERR4
 40
0.0
  9
$USERR5
 40
0.0
  9
$WORLDVIEW
 70
     1
  9
$SHADEDGE
 70
     3
  9
$SHADEDIF
 70
    70
  9
$TILEMODE
 70
     1
  9
$MAXACTVP
 70
    64
  9
$PINSBASE
 10
0.0
 20
0.0
 30
0.0
  9
$PLIMCHECK
 70
     0
  9
$PEXTMIN
 10
1.000000000000000E+20
 20
1.000000000000000E+20
 30
1.000000000000000E+20
  9
$PEXTMAX
 10
-1.000000000000000E+20
 20
-1.000000000000000E+20
 30
-1.000000000000000E+20
  9
$PLIMMIN
 10
0.0
 20
0.0
  9
$PLIMMAX
 10
12.0
 20
9.0
  9
$UNITMODE
 70
     0
  9
$VISRETAIN
 70
     1
  9
$PLINEGEN
 70
     0
  9
$PSLTSCALE
 70
     1
  9
$TREEDEPTH
 70
  3020
  9
$CMLSTYLE
  2
Standard
  9
$CMLJUST
 70
     0
  9
$CMLSCALE
 40
1.0
  9
$PROXYGRAPHICS
 70
     1
  9
$MEASUREMENT
 70
     0
  9
$CELWEIGHT
370
    -1
  9
$ENDCAPS
280
     0
  9
$JOINSTYLE
280
     0
  9
$LWDISPLAY
290
     1
  9
$INSUNITS
 70
     1
  9
$HYPERLINKBASE
  1

  9
$STYLESHEET
  1

  9
$XEDIT
290
     1
  9
$CEPSNTYPE
380
     0
  9
$PSTYLEMODE
290
     1
  9
$FINGERPRINTGUID
  2
{DB57D772-83EE-59F3-5E9B-D9B96430CB87}
  9
$VERSIONGUID
  2
{FAEB1C32-E019-11D5-929B-00C0DF256EC4}
  9
$EXTNAMES
290
     1
  9
$PSVPSCALE
 40
0.0
  9
$OLESTARTUP
290
     0
  9
$SORTENTS
280
   127
  9
$INDEXCTL
280
     0
  9
$HIDETEXT
280
     1
  9
$XCLIPFRAME
280
     2
  9
$HALOGAP
280
     0
  9
$OBSCOLOR
 70
   257
  9
$OBSLTYPE
280
     0
  9
$INTERSECTIONDISPLAY
280
     0
  9
$INTERSECTIONCOLOR
 70
   257
  9
$DIMASSOC
280
     2
  9
$PROJECTNAME
  1

  9
$CAMERADISPLAY
290
     0
  9
$LENSLENGTH
 40
50.0
  9
$CAMERAHEIGHT
 40
0.0
  9
$STEPSPERSEC
 40
2.0
  9
$STEPSIZE
 40
6.0
  9
$3DDWFPREC
 40
2.0
  9
$PSOLWIDTH
 40
0.25
  9
$PSOLHEIGHT
 40
4.0
  9
$LOFTANG1
 40
1.570796326794897
  9
$LOFTANG2
 40
1.570796326794897
  9
$LOFTMAG1
 40
0.0
  9
$LOFTMAG2
 40
0.0
  9
$LOFTPARAM
 70
     7
  9
$LOFTNORMALS
280
     1
  9
$LATITUDE
 40
37.795
  9
$LONGITUDE
 40
-122.394
  9
$NORTHDIRECTION
 40
0.0
  9
$TIMEZONE
 70
 -8000
  9
$LIGHTGLYPHDISPLAY
280
     1
  9
$TILEMODELIGHTSYNCH
280
     1
  9
$CMATERIAL
347
3C
  9
$SOLIDHIST
280
     1
  9
$SHOWHIST
280
     1
  9
$DWFFRAME
280
     2
  9
$DGNFRAME
280
     2
  9
$REALWORLDSCALE
290
     1
  9
$INTERFERECOLOR
 62
   256
  9
$CSHADOW
280
     0
  9
$SHADOWPLANELOCATION
 40
0.0
  0
ENDSEC
  0
SECTION
  2
CLASSES
  0
CLASS
  1
ACDBDICTIONARYWDFLT
  2
AcDbDictionaryWithDefault
  3
ObjectDBX Classes
 90
        0
 91
        4
280
     0
281
     0
  0
CLASS
  1
VISUALSTYLE
  2
AcDbVisualStyle
  3
ObjectDBX Classes
 90
     4095
 91
        4
280
     0
281
     0
  0
CLASS
  1
MATERIAL
  2
AcDbMaterial
  3
ObjectDBX Classes
 90
     1153
 91
        4
280
     0
281
     0
  0
CLASS
  1
SUN
  2
AcDbSun
  3
SCENEOE
 90
     1024
 91
        4
280
     0
281
     0
  0
ENDSEC
  0
SECTION
  2
TABLES
  0
TABLE
  2
VPORT
  5
8
330
0
100
AcDbSymbolTable
 70
     1
  0
VPORT
  5
29
330
8
100
AcDbSymbolTableRecord
100
AcDbViewportTableRecord
  2
*Active
 70
     0
 10
0.0
 20
0.0
 11
1.0
 21
1.0
 12
0.0
 22
0.0
 13
0.0
 23
0.0
 14
0.5
 24
0.5
 15
0.5
 25
0.5
 16
0.0
 26
0.0
 36
1.0
 17
91.00082462281999
 27
-128.4993055234307
 37
0.0
 40
256.9986110468615
 41
0.7081814508812795
 42
50.0
 43
0.0
 44
0.0
 50
0.0
 51
0.0
 71
     0
 72
   100
 73
     1
 74
     3
 75
     0
 76
     0
 77
     0
 78
     0
281
     0
 65
     1
110
0.0
120
0.0
130
0.0
111
1.0
121
0.0
131
0.0
112
0.0
122
1.0
132
0.0
 79
     0
146
0.0
 60
     3
 61
     5
292
     1
282
     1
141
0.0
142
0.0
 63
   250
361
3F
  0
ENDTAB
  0
TABLE
  2
LTYPE
  5
5
330
0
100
AcDbSymbolTable
 70
     2
  0
LTYPE
  5
14
330
5
100
AcDbSymbolTableRecord
100
AcDbLinetypeTableRecord
  2
ByBlock
 70
     0
  3

 72
    65
 73
     0
 40
0.0
  0
LTYPE
  5
15
330
5
100
AcDbSymbolTableRecord
100
AcDbLinetypeTableRecord
  2
ByLayer
 70
     0
  3

 72
    65
 73
     0
 40
0.0
  0
LTYPE
  5
16
330
5
100
AcDbSymbolTableRecord
100
AcDbLinetypeTableRecord
  2
Continuous
 70
     0
  3
Solid line
 72
    65
 73
     0
 40
0.0
  0
LTYPE
  5
4C
330
5
100
AcDbSymbolTableRecord
100
AcDbLinetypeTableRecord
  2
AI-Linetype-1
 70
     0
  3
Adobe Illustrator Linetype No. 1
 72
    65
 73
     4
 40
2.1166666661375
 49
1.05833333306875
 74
     0
 49
-0.3527777776895833
 74
     0
 49
0.3527777776895833
 74
     0
 49
-0.3527777776895833
 74
     0
  0
ENDTAB
  0
TABLE
  2
LAYER
  5
2
330
0
100
AcDbSymbolTable
 70
     2
  0
LAYER
  5
10
330
2
100
AcDbSymbolTableRecord
100
AcDbLayerTableRecord
  2
0
 70
     0
 62
     7
  6
Continuous
370
    -3
390
F
347
3E
  0
LAYER
  5
40
330
2
100
AcDbSymbolTableRecord
100
AcDbLayerTableRecord
  2
_U+30EC_U+30A4_U+30E4_U+30FC 1
 70
     0
 62
     7
  6
Continuous
370
    -3
390
F
347
3E
  0
ENDTAB
  0
TABLE
  2
STYLE
  5
3
330
0
100
AcDbSymbolTable
 70
     1
  0
STYLE
  5
11
330
3
100
AcDbSymbolTableRecord
100
AcDbTextStyleTableRecord
  2
Standard
 70
     0
 40
0.0
 41
1.0
 50
0.0
 71
     0
 42
0.2
  3
txt
  4

  0
ENDTAB
  0
TABLE
  2
VIEW
  5
6
330
0
100
AcDbSymbolTable
 70
     0
  0
ENDTAB
  0
TABLE
  2
UCS
  5
7
330
0
100
AcDbSymbolTable
 70
     0
  0
ENDTAB
  0
TABLE
  2
APPID
  5
9
330
0
100
AcDbSymbolTable
 70
     1
  0
APPID
  5
12
330
9
100
AcDbSymbolTableRecord
100
AcDbRegAppTableRecord
  2
ACAD
 70
     0
  0
ENDTAB
  0
TABLE
  2
DIMSTYLE
  5
A
330
0
100
AcDbSymbolTable
 70
     1
100
AcDbDimStyleTable
  0
DIMSTYLE
105
27
330
A
100
AcDbSymbolTableRecord
100
AcDbDimStyleTableRecord
  2
Standard
 70
     0
178
     0
340
11
  0
ENDTAB
  0
TABLE
  2
BLOCK_RECORD
  5
1
330
0
100
AcDbSymbolTable
 70
    13
  0
BLOCK_RECORD
  5
1F
330
1
100
AcDbSymbolTableRecord
100
AcDbBlockTableRecord
  2
*Model_Space
340
22
 70
     0
280
     1
281
     0
  0
BLOCK_RECORD
  5
1B
330
1
100
AcDbSymbolTableRecord
100
AcDbBlockTableRecord
  2
*Paper_Space
340
1E
 70
     0
280
     1
281
     0
  0
BLOCK_RECORD
  5
23
330
1
100
AcDbSymbolTableRecord
100
AcDbBlockTableRecord
  2
*Paper_Space0
340
26
 70
     0
280
     1
281
     0
  0
BLOCK_RECORD
  5
76
330
1
100
AcDbSymbolTableRecord
100
AcDbBlockTableRecord
  2
block 2
340
0
102
{BLKREFS
331
77
102
}
 70
     0
280
     1
281
     0
  0
BLOCK_RECORD
  5
89
330
1
100
AcDbSymbolTableRecord
100
AcDbBlockTableRecord
  2
block 3
340
0
102
{BLKREFS
331
8A
102
}
 70
     0
280
     1
281
     0
  0
BLOCK_RECORD
  5
99
330
1
100
AcDbSymbolTableRecord
100
AcDbBlockTableRecord
  2
block 4
340
0
102
{BLKREFS
331
9A
102
}
 70
     0
280
     1
281
     0
  0
BLOCK_RECORD
  5
BC
330
1
100
AcDbSymbolTableRecord
100
AcDbBlockTableRecord
  2
block 5
340
0
102
{BLKREFS
331
BD
102
}
 70
     0
280
     1
281
     0
  0
BLOCK_RECORD
  5
DD
330
1
100
AcDbSymbolTableRecord
100
AcDbBlockTableRecord
  2
block 6
340
0
102
{BLKREFS
331
DE
102
}
 70
     0
280
     1
281
     0
  0
BLOCK_RECORD
  5
ED
330
1
100
AcDbSymbolTableRecord
100
AcDbBlockTableRecord
  2
block 7
340
0
102
{BLKREFS
331
EE
102
}
 70
     0
280
     1
281
     0
  0
BLOCK_RECORD
  5
F3
330
1
100
AcDbSymbolTableRecord
100
AcDbBlockTableRecord
  2
block 8
340
0
102
{BLKREFS
331
F4
102
}
 70
     0
280
     1
281
     0
  0
BLOCK_RECORD
  5
11D
330
1
100
AcDbSymbolTableRecord
100
AcDbBlockTableRecord
  2
block 9
340
0
102
{BLKREFS
331
11E
102
}
 70
     0
280
     1
281
     0
  0
BLOCK_RECORD
  5
12D
330
1
100
AcDbSymbolTableRecord
100
AcDbBlockTableRecord
  2
block 10
340
0
102
{BLKREFS
331
12E
102
}
 70
     0
280
     1
281
     0
  0
BLOCK_RECORD
  5
153
330
1
100
AcDbSymbolTableRecord
100
AcDbBlockTableRecord
  2
block 11
340
0
102
{BLKREFS
331
154
102
}
 70
     0
280
     1
281
     0
  0
BLOCK_RECORD
  5
15C
330
1
100
AcDbSymbolTableRecord
100
AcDbBlockTableRecord
  2
block 12
340
0
102
{BLKREFS
331
15D
102
}
 70
     0
280
     1
281
     0
  0
BLOCK_RECORD
  5
183
330
1
100
AcDbSymbolTableRecord
100
AcDbBlockTableRecord
  2
block 13
340
0
102
{BLKREFS
331
184
102
}
 70
     0
280
     1
281
     0
  0
ENDTAB
  0
ENDSEC
  0
SECTION
  2
BLOCKS
  0
BLOCK
  5
20
330
1F
100
AcDbEntity
  8
0
100
AcDbBlockBegin
  2
*Model_Space
 70
     0
 10
0.0
 20
0.0
 30
0.0
  3
*Model_Space
  1

  0
ENDBLK
  5
21
330
1F
100
AcDbEntity
  8
0
100
AcDbBlockEnd
  0
BLOCK
  5
1C
330
1B
100
AcDbEntity
 67
     1
  8
0
100
AcDbBlockBegin
  2
*Paper_Space
 70
     0
 10
0.0
 20
0.0
 30
0.0
  3
*Paper_Space
  1

  0
ENDBLK
  5
1D
330
1B
100
AcDbEntity
 67
     1
  8
0
100
AcDbBlockEnd
  0
BLOCK
  5
24
330
23
100
AcDbEntity
  8
0
100
AcDbBlockBegin
  2
*Paper_Space0
 70
     0
 10
0.0
 20
0.0
 30
0.0
  3
*Paper_Space0
  1

  0
ENDBLK
  5
25
330
23
100
AcDbEntity
  8
0
100
AcDbBlockEnd
  0
BLOCK
  5
78
330
76
100
AcDbEntity
  8
0
100
AcDbBlockBegin
  2
block 2
 70
     0
 10
0.0
 20
0.0
 30
0.0
  3
block 2
  1

  0
SPLINE
  5
7A
330
76
100
AcDbEntity
  8
_U+30EC_U+30A4_U+30E4_U+30FC 1
370
     0
100
AcDbSpline
210
0.0
220
0.0
230
1.0
 70
    11
 71
     3
 72
    44
 73
    40
 74
     0
 42
0.0000000001
 43
0.0000000001
 12
1.0
 22
0.0
 32
0.0
 13
1.0
 23
0.0
 33
0.0
 40
0.0
 40
0.0
 40
0.0
 40
0.0
 40
1.0
 40
1.0
 40
1.0
 40
2.0
 40
2.0
 40
2.0
 40
3.0
 40
3.0
 40
3.0
 40
4.0
 40
4.0
 40
4.0
 40
5.0
 40
5.0
 40
5.0
 40
6.0
 40
6.0
 40
6.0
 40
7.0
 40
7.0
 40
7.0
 40
8.0
 40
8.0
 40
8.0
 40
9.0
 40
9.0
 40
9.0
 40
10.0
 40
10.0
 40
10.0
 40
11.0
 40
11.0
 40
11.0
 40
12.0
 40
12.0
 40
12.0
 40
13.0
 40
13.0
 40
13.0
 40
13.0
 10
76.27183022181747
 20
-127.492820877415
 30
0.0
 10
76.43047686891322
 20
-127.7107231668571
 30
0.0
 10
76.50454642184609
 20
-127.8039129997331
 30
0.0
 10
76.64837915835527
 20
-127.8524888460751
 30
0.0
 10
76.64837915835527
 20
-127.8524888460751
 30
0.0
 10
76.64837915835527
 20
-127.0740695211829
 30
0.0
 10
76.64837915835527
 20
-127.0740695211829
 30
0.0
 10
76.64837915835527
 20
-127.0740695211829
 30
0.0
 10
76.8535345945019
 20
-127.0740695211829
 30
0.0
 10
76.8535345945019
 20
-127.0740695211829
 30
0.0
 10
76.8535345945019
 20
-127.0740695211829
 30
0.0
 10
76.8535345945019
 20
-128.1020860139814
 30
0.0
 10
76.8535345945019
 20
-128.1020860139814
 30
0.0
 10
76.49593368313296
 20
-128.0703911355171
 30
0.0
 10
76.41773001561779
 20
-128.0049343212974
 30
0.0
 10
76.11938474659516
 20
-127.6197726460465
 30
0.0
 10
75.92060273709625
 20
-127.3638020514924
 30
0.0
 10
75.85290661081108
 20
-127.2983452372726
 30
0.0
 10
75.71544730094962
 20
-127.2983452372726
 30
0.0
 10
75.59693601625702
 20
-127.2983452372726
 30
0.0
 10
75.46585013304326
 20
-127.3701754781401
 30
0.0
 10
75.46585013304326
 20
-127.5668904303479
 30
0.0
 10
75.46585013304326
 20
-127.8271673942585
 30
0.0
 10
75.69632702100648
 20
-127.8356078781974
 30
0.0
 10
75.81277124840793
 20
-127.8399142475539
 30
0.0
 10
75.81277124840793
 20
-127.8399142475539
 30
0.0
 10
75.81277124840793
 20
-128.0640177088694
 30
0.0
 10
75.81277124840793
 20
-128.0640177088694
 30
0.0
 10
75.68581947977647
 20
-128.0555772249305
 30
0.0
 10
75.57368162173158
 20
-128.0450696837005
 30
0.0
 10
75.455170337039
 20
-127.96462670412
 30
0.0
 10
75.29445663265209
 20
-127.8547281581405
 30
0.0
 10
75.26052244212238
 20
-127.6685207471627
 30
0.0
 10
75.26052244212238
 20
-127.5520765197613
 30
0.0
 10
75.26052244212238
 20
-127.2749185879729
 30
0.0
 10
75.44466279580898
 20
-127.0676960945352
 30
0.0
 10
75.71751435824076
 20
-127.0676960945352
 30
0.0
 10
75.94592418891283
 20
-127.0676960945352
 30
0.0
 10
76.04548744843655
 20
-127.1839680671624
 30
0.0
 10
76.27183022181747
 20
-127.492820877415
 30
0.0
  0
HATCH
  5
7B
330
76
100
AcDbEntity
  8
_U+30EC_U+30A4_U+30E4_U+30FC 1
 62
   179
420
  2234388
100
AcDbHatch
 10
0.0
 20
0.0
 30
0.0
210
0.0
220
0.0
230
1.0
  2
SOLID
 70
     1
 71
     0
 91
        1
 92
        1
 93
        1
 72
     4
 94
        3
 73
     0
 74
     1
 95
       44
 96
       40
 40
0.0
 40
0.0
 40
0.0
 40
0.0
 40
1.0
 40
1.0
 40
1.0
 40
2.0
 40
2.0
 40
2.0
 40
3.0
 40
3.0
 40
3.0
 40
4.0
 40
4.0
 40
4.0
 40
5.0
 40
5.0
 40
5.0
 40
6.0
 40
6.0
 40
6.0
 40
7.0
 40
7.0
 40
7.0
 40
8.0
 40
8.0
 40
8.0
 40
9.0
 40
9.0
 40
9.0
 40
10.0
 40
10.0
 40
10.0
 40
11.0
 40
11.0
 40
11.0
 40
12.0
 40
12.0
 40
12.0
 40
13.0
 40
13.0
 40
13.0
 40
13.0
 10
76.27183022181747
 20
-127.492820877415
 10
76.43047686891322
 20
-127.7107231668571
 10
76.50454642184609
 20
-127.8039129997331
 10
76.64837915835527
 20
-127.8524888460751
 10
76.64837915835527
 20
-127.8524888460751
 10
76.64837915835527
 20
-127.0740695211829
 10
76.64837915835527
 20
-127.0740695211829
 10
76.64837915835527
 20
-127.0740695211829
 10
76.8535345945019
 20
-127.0740695211829
 10
76.8535345945019
 20
-127.0740695211829
 10
76.8535345945019
 20
-127.0740695211829
 10
76.8535345945019
 20
-128.1020860139814
 10
76.8535345945019
 20
-128.1020860139814
 10
76.49593368313296
 20
-128.0703911355171
 10
76.41773001561779
 20
-128.0049343212974
 10
76.11938474659516
 20
-127.6197726460465
 10
75.92060273709625
 20
-127.3638020514924
 10
75.85290661081108
 20
-127.2983452372726
 10
75.71544730094962
 20
-127.2983452372726
 10
75.59693601625702
 20
-127.2983452372726
 10
75.46585013304326
 20
-127.3701754781401
 10
75.46585013304326
 20
-127.5668904303479
 10
75.46585013304326
 20
-127.8271673942585
 10
75.69632702100648
 20
-127.8356078781974
 10
75.81277124840793
 20
-127.8399142475539
 10
75.81277124840793
 20
-127.8399142475539
 10
75.81277124840793
 20
-128.0640177088694
 10
75.81277124840793
 20
-128.0640177088694
 10
75.68581947977647
 20
-128.0555772249305
 10
75.57368162173158
 20
-128.0450696837005
 10
75.455170337039
 20
-127.96462670412
 10
75.29445663265209
 20
-127.8547281581405
 10
75.26052244212238
 20
-127.6685207471627
 10
75.26052244212238
 20
-127.5520765197613
 10
75.26052244212238
 20
-127.2749185879729
 10
75.44466279580898
 20
-127.0676960945352
 10
75.71751435824076
 20
-127.0676960945352
 10
75.94592418891283
 20
-127.0676960945352
 10
76.04548744843655
 20
-127.1839680671624
 10
76.27183022181747
 20
-127.492820877415
 97
        0
 97
        0
 75
     2
 76
     1
 98
        0
  0
SPLINE
  5
7C
330
76
100
AcDbEntity
  8
_U+30EC_U+30A4_U+30E4_U+30FC 1
370
     0
100
AcDbSpline
210
0.0
220
0.0
230
1.0
 70
    11
 71
     3
 72
    29
 73
    25
 74
     0
 42
0.0000000001
 43
0.0000000001
 12
1.0
 22
0.0
 32
0.0
 13
1.0
 23
0.0
 33
0.0
 40
0.0
 40
0.0
 40
0.0
 40
0.0
 40
1.0
 40
1.0
 40
1.0
 40
2.0
 40
2.0
 40
2.0
 40
3.0
 40
3.0
 40
3.0
 40
4.0
 40
4.0
 40
4.0
 40
5.0
 40
5.0
 40
5.0
 40
6.0
 40
6.0
 40
6.0
 40
7.0
 40
7.0
 40
7.0
 40
8.0
 40
8.0
 40
8.0
 40
8.0
 10
76.675767667463
 20
-126.0114298187576
 30
0.0
 10
76.8852294729662
 20
-126.1192613074459
 30
0.0
 10
76.90434975290933
 20
-126.2927218651282
 30
0.0
 10
76.90434975290933
 20
-126.4091660925297
 30
0.0
 10
76.90434975290933
 20
-126.5698797969166
 30
0.0
 10
76.85784096385846
 20
-126.7116454761346
 30
0.0
 10
76.675767667463
 20
-126.8069023663018
 30
0.0
 10
76.48111977254639
 20
-126.9104274856335
 30
0.0
 10
76.24426945793546
 20
-126.9295477655766
 30
0.0
 10
76.08131644148315
 20
-126.9295477655766
 30
0.0
 10
75.93748370497397
 20
-126.9295477655766
 30
0.0
 10
75.68581947977647
 20
-126.9126667976989
 30
0.0
 10
75.48686521550329
 20
-126.8069023663018
 30
0.0
 10
75.2837768366478
 20
-126.6988986228392
 30
0.0
 10
75.26052244212238
 20
-126.5381849184523
 30
0.0
 10
75.26052244212238
 20
-126.4091660925297
 30
0.0
 10
75.26052244212238
 20
-126.2505194454339
 30
0.0
 10
75.3049641738821
 20
-126.1066867089247
 30
0.0
 10
75.48686521550329
 20
-126.0114298187576
 30
0.0
 10
75.67944605312876
 20
-125.9120388140081
 30
0.0
 10
75.90785588380082
 20
-125.8887844194827
 30
0.0
 10
76.08131644148315
 20
-125.8887844194827
 30
0.0
 10
76.25270994187433
 20
-125.8887844194827
 30
0.0
 10
76.4833590846118
 20
-125.9097995019427
 30
0.0
 10
76.675767667463
 20
-126.0114298187576
 30
0.0
  0
SPLINE
  5
7D
330
76
100
AcDbEntity
  8
_U+30EC_U+30A4_U+30E4_U+30FC 1
370
     0
100
AcDbSpline
210
0.0
220
0.0
230
1.0
 70
    11
 71
     3
 72
    17
 73
    13
 74
     0
 42
0.0000000001
 43
0.0000000001
 12
1.0
 22
0.0
 32
0.0
 13
1.0
 23
0.0
 33
0.0
 40
0.0
 40
0.0
 40
0.0
 40
0.0
 40
1.0
 40
1.0
 40
1.0
 40
2.0
 40
2.0
 40
2.0
 40
3.0
 40
3.0
 40
3.0
 40
4.0
 40
4.0
 40
4.0
 40
4.0
 10
75.45310327974784
 20
-126.4091660925297
 30
0.0
 10
75.45310327974784
 20
-126.658763260436
 30
0.0
 10
75.7366346381839
 20
-126.7052720494869
 30
0.0
 10
76.08131644148315
 20
-126.7052720494869
 30
0.0
 10
76.40084904774007
 20
-126.7052720494869
 30
0.0
 10
76.70970185799271
 20
-126.669270801666
 30
0.0
 10
76.70970185799271
 20
-126.4091660925297
 30
0.0
 10
76.70970185799271
 20
-126.1616359819145
 30
0.0
 10
76.4282375568478
 20
-126.1128878807982
 30
0.0
 10
76.08131644148315
 20
-126.1128878807982
 30
0.0
 10
75.76195609000048
 20
-126.1128878807982
 30
0.0
 10
75.45310327974784
 20
-126.1511284406844
 30
0.0
 10
75.45310327974784
 20
-126.4091660925297
 30
0.0
  0
HATCH
  5
7E
330
76
100
AcDbEntity
  8
_U+30EC_U+30A4_U+30E4_U+30FC 1
 62
   179
420
  2234388
100
AcDbHatch
 10
0.0
 20
0.0
 30
0.0
210
0.0
220
0.0
230
1.0
  2
SOLID
 70
     1
 71
     0
 91
        2
 92
        1
 93
        1
 72
     4
 94
        3
 73
     0
 74
     1
 95
       29
 96
       25
 40
0.0
 40
0.0
 40
0.0
 40
0.0
 40
1.0
 40
1.0
 40
1.0
 40
2.0
 40
2.0
 40
2.0
 40
3.0
 40
3.0
 40
3.0
 40
4.0
 40
4.0
 40
4.0
 40
5.0
 40
5.0
 40
5.0
 40
6.0
 40
6.0
 40
6.0
 40
7.0
 40
7.0
 40
7.0
 40
8.0
 40
8.0
 40
8.0
 40
8.0
 10
76.675767667463
 20
-126.0114298187576
 10
76.8852294729662
 20
-126.1192613074459
 10
76.90434975290933
 20
-126.2927218651282
 10
76.90434975290933
 20
-126.4091660925297
 10
76.90434975290933
 20
-126.5698797969166
 10
76.85784096385846
 20
-126.7116454761346
 10
76.675767667463
 20
-126.8069023663018
 10
76.48111977254639
 20
-126.9104274856335
 10
76.24426945793546
 20
-126.9295477655766
 10
76.08131644148315
 20
-126.9295477655766
 10
75.93748370497397
 20
-126.9295477655766
 10
75.68581947977647
 20
-126.9126667976989
 10
75.48686521550329
 20
-126.8069023663018
 10
75.2837768366478
 20
-126.6988986228392
 10
75.26052244212238
 20
-126.5381849184523
 10
75.26052244212238
 20
-126.4091660925297
 10
75.26052244212238
 20
-126.2505194454339
 10
75.3049641738821
 20
-126.1066867089247
 10
75.48686521550329
 20
-126.0114298187576
 10
75.67944605312876
 20
-125.9120388140081
 10
75.90785588380082
 20
-125.8887844194827
 10
76.08131644148315
 20
-125.8887844194827
 10
76.25270994187433
 20
-125.8887844194827
 10
76.4833590846118
 20
-125.9097995019427
 10
76.675767667463
 20
-126.0114298187576
 97
        0
 97
        0
 92
        1
 93
        1
 72
     4
 94
        3
 73
     0
 74
     1
 95
       17
 96
       13
 40
0.0
 40
0.0
 40
0.0
 40
0.0
 40
1.0
 40
1.0
 40
1.0
 40
2.0
 40
2.0
 40
2.0
 40
3.0
 40
3.0
 40
3.0
 40
4.0
 40
4.0
 40
4.0
 40
4.0
 10
75.45310327974784
 20
-126.4091660925297
 10
75.45310327974784
 20
-126.658763260436
 10
75.7366346381839
 20
-126.7052720494869
 10
76.08131644148315
 20
-126.7052720494869
 10
76.40084904774007
 20
-126.7052720494869
 10
76.70970185799271
 20
-126.669270801666
 10
76.70970185799271
 20
-126.4091660925297
 10
76.70970185799271
 20
-126.1616359819145
 10
76.4282375568478
 20
-126.1128878807982
 10
76.08131644148315
 20
-126.1128878807982
 10
75.76195609000048
 20
-126.1128878807982
 10
75.45310327974784
 20
-126.1511284406844
 10
75.45310327974784
 20
-126.4091660925297
 97
        0
 97
        0
 75
     2
 76
     1
 98
        0
  0
POLYLINE
  5
7F
330
76
100
AcDbEntity
  8
_U+30EC_U+30A4_U+30E4_U+30FC 1
370
     0
100
AcDb2dPolyline
 66
     1
 10
0.0
 20
0.0
 30
0.0
  0
VERTEX
  5
80
330
7F
100
AcDbEntity
  8
_U+30EC_U+30A4_U+30E4_U+30FC 1
370
     0
100
AcDbVertex
100
AcDb2dVertex
 10
76.8535345945019
 20
-125.6722601682347
 30
0.0
  0
VERTEX
  5
81
330
7F
100
AcDbEntity
  8
_U+30EC_U+30A4_U+30E4_U+30FC 1
370
     0
100
AcDbVertex
100
AcDb2dVertex
 10
76.6018703693044
 20
-125.6722601682347
 30
0.0
  0
VERTEX
  5
82
330
7F
100
AcDbEntity
  8
_U+30EC_U+30A4_U+30E4_U+30FC 1
370
     0
100
AcDbVertex
100
AcDb2dVertex
 10
76.6018703693044
 20
-125.4205959430372
 30
0.0
  0
VERTEX
  5
83
330
7F
100
AcDbEntity
  8
_U+30EC_U+30A4_U+30E4_U+30FC 1
370
     0
100
AcDbVertex
100
AcDb2dVertex
 10
76.8535345945019
 20
-125.4205959430372
 30
0.0
  0
VERTEX
  5
84
330
7F
100
AcDbEntity
  8
_U+30EC_U+30A4_U+30E4_U+30FC 1
370
     0
100
AcDbVertex
100
AcDb2dVertex
 10
76.8535345945019
 20
-125.6722601682347
 30
0.0
  0
SEQEND
  5
85
330
7F
100
AcDbEntity
  8
_U+30EC_U+30A4_U+30E4_U+30FC 1
370
     0
  0
HATCH
  5
86
330
76
100
AcDbEntity
  8
_U+30EC_U+30A4_U+30E4_U+30FC 1
 62
   179
420
  2234388
100
AcDbHatch
 10
0.0
 20
0.0
 30
0.0
210
0.0
220
0.0
230
1.0
  2
SOLID
 70
     1
 71
     0
 91
        1
 92
        1
 93
        4
 72
     1
 10
76.8535345945019
 20
-125.6722601682347
 11
76.6018703693044
 21
-125.6722601682347
 72
     1
 10
76.6018703693044
 20
-125.6722601682347
 11
76.6018703693044
 21
-125.4205959430372
 72
     1
 10
76.6018703693044
 20
-125.4205959430372
 11
76.8535345945019
 21
-125.4205959430372
 72
     1
 10
76.8535345945019
 20
-125.4205959430372
 11
76.8535345945019
 21
-125.6722601682347
 97
        0
 75
     2
 76
     1
 98
        0
  0
SPLINE
  5
87
330
76
100
AcDbEntity
  8
_U+30EC_U+30A4_U+30E4_U+30FC 1
370
     0
100
AcDbSpline
210
0.0
220
0.0
230
1.0
 70
    11
 71
     3
 72
    53
 73
    49
 74
     0
 42
0.0000000001
 43
0.0000000001
 12
1.0
 22
0.0
 32
0.0
 13
1.0
 23
0.0
 33
0.0
 40
0.0
 40
0.0
 40
0.0
 40
0.0
 40
1.0
 40
1.0
 40
1.0
 40
2.0
 40
2.0
 40
2.0
 40
3.0
 40
3.0
 40
3.0
 40
4.0
 40
4.0
 40
4.0
 40
5.0
 40
5.0
 40
5.0
 40
6.0
 40
6.0
 40
6.0
 40
7.0
 40
7.0
 40
7.0
 40
8.0
 40
8.0
 40
8.0
 40
9.0
 40
9.0
 40
9.0
 40
10.0
 40
10.0
 40
10.0
 40
11.0
 40
11.0
 40
11.0
 40
12.0
 40
12.0
 40
12.0
 40
13.0
 40
13.0
 40
13.0
 40
14.0
 40
14.0
 40
14.0
 40
15.0
 40
15.0
 40
15.0
 40
16.0
 40
16.0
 40
16.0
 40
16.0
 10
76.90434975290933
 20
-124.7029825534597
 30
0.0
 10
76.90434975290933
 20
-124.7813584757491
 30
0.0
 10
76.88729653025734
 20
-124.8828165377897
 30
0.0
 10
76.82390677332874
 20
-124.9844468546046
 30
0.0
 10
76.71383597257501
 20
-125.1579074122869
 30
0.0
 10
76.58275008936126
 20
-125.1790947495212
 30
0.0
 10
76.47491860067294
 20
-125.1980427746901
 30
0.0
 10
76.47491860067294
 20
-125.1980427746901
 30
0.0
 10
76.47491860067294
 20
-124.9760063706657
 30
0.0
 10
76.47491860067294
 20
-124.9760063706657
 30
0.0
 10
76.67370061017185
 20
-124.9208848429017
 30
0.0
 10
76.703328431345
 20
-124.7939330742703
 30
0.0
 10
76.703328431345
 20
-124.7009154961685
 30
0.0
 10
76.703328431345
 20
-124.5612168742417
 30
0.0
 10
76.60393742659555
 20
-124.4089436537936
 30
0.0
 10
76.37122122656692
 20
-124.4089436537936
 30
0.0
 10
76.11525063201286
 20
-124.4089436537936
 30
0.0
 10
76.04548744843655
 20
-124.5887776381236
 30
0.0
 10
76.04548744843655
 20
-124.7093559801074
 30
0.0
 10
76.04548744843655
 20
-124.7410508585717
 30
0.0
 10
76.04548744843655
 20
-124.8828165377897
 30
0.0
 10
76.17450627435916
 20
-124.9717000013092
 30
0.0
 10
76.17450627435916
 20
-124.9717000013092
 30
0.0
 10
76.15538599441602
 20
-125.1472276162826
 30
0.0
 10
76.15538599441602
 20
-125.1472276162826
 30
0.0
 10
76.15538599441602
 20
-125.1472276162826
 30
0.0
 10
75.30927054323865
 20
-125.0266492742989
 30
0.0
 10
75.30927054323865
 20
-125.0266492742989
 30
0.0
 10
75.30927054323865
 20
-125.0266492742989
 30
0.0
 10
75.30927054323865
 20
-124.2482299494067
 30
0.0
 10
75.30927054323865
 20
-124.2482299494067
 30
0.0
 10
75.30927054323865
 20
-124.2482299494067
 30
0.0
 10
75.50391843815527
 20
-124.2482299494067
 30
0.0
 10
75.50391843815527
 20
-124.2482299494067
 30
0.0
 10
75.50391843815527
 20
-124.2482299494067
 30
0.0
 10
75.50391843815527
 20
-124.8638685126208
 30
0.0
 10
75.50391843815527
 20
-124.8638685126208
 30
0.0
 10
75.50391843815527
 20
-124.8638685126208
 30
0.0
 10
75.92697616374396
 20
-124.9293253268406
 30
0.0
 10
75.92697616374396
 20
-124.9293253268406
 30
0.0
 10
75.89304197321424
 20
-124.8680026272031
 30
0.0
 10
75.85290661081108
 20
-124.7854925903314
 30
0.0
 10
75.85290661081108
 20
-124.6671535604131
 30
0.0
 10
75.85290661081108
 20
-124.4132500231502
 30
0.0
 10
76.03911402178883
 20
-124.176227453765
 30
0.0
 10
76.35210094662378
 20
-124.176227453765
 30
0.0
 10
76.66956649558955
 20
-124.176227453765
 30
0.0
 10
76.90434975290933
 20
-124.4005031698547
 30
0.0
 10
76.90434975290933
 20
-124.7029825534597
 30
0.0
  0
HATCH
  5
88
330
76
100
AcDbEntity
  8
_U+30EC_U+30A4_U+30E4_U+30FC 1
 62
   179
420
  2234388
100
AcDbHatch
 10
0.0
 20
0.0
 30
0.0
210
0.0
220
0.0
230
1.0
  2
SOLID
 70
     1
 71
     0
 91
        1
 92
        1
 93
        1
 72
     4
 94
        3
 73
     0
 74
     1
 95
       53
 96
       49
 40
0.0
 40
0.0
 40
0.0
 40
0.0
 40
1.0
 40
1.0
 40
1.0
 40
2.0
 40
2.0
 40
2.0
 40
3.0
 40
3.0
 40
3.0
 40
4.0
 40
4.0
 40
4.0
 40
5.0
 40
5.0
 40
5.0
 40
6.0
 40
6.0
 40
6.0
 40
7.0
 40
7.0
 40
7.0
 40
8.0
 40
8.0
 40
8.0
 40
9.0
 40
9.0
 40
9.0
 40
10.0
 40
10.0
 40
10.0
 40
11.0
 40
11.0
 40
11.0
 40
12.0
 40
12.0
 40
12.0
 40
13.0
 40
13.0
 40
13.0
 40
14.0
 40
14.0
 40
14.0
 40
15.0
 40
15.0
 40
15.0
 40
16.0
 40
16.0
 40
16.0
 40
16.0
 10
76.90434975290933
 20
-124.7029825534597
 10
76.90434975290933
 20
-124.7813584757491
 10
76.88729653025734
 20
-124.8828165377897
 10
76.82390677332874
 20
-124.9844468546046
 10
76.71383597257501
 20
-125.1579074122869
 10
76.58275008936126
 20
-125.1790947495212
 10
76.47491860067294
 20
-125.1980427746901
 10
76.47491860067294
 20
-125.1980427746901
 10
76.47491860067294
 20
-124.9760063706657
 10
76.47491860067294
 20
-124.9760063706657
 10
76.67370061017185
 20
-124.9208848429017
 10
76.703328431345
 20
-124.7939330742703
 10
76.703328431345
 20
-124.7009154961685
 10
76.703328431345
 20
-124.5612168742417
 10
76.60393742659555
 20
-124.4089436537936
 10
76.37122122656692
 20
-124.4089436537936
 10
76.11525063201286
 20
-124.4089436537936
 10
76.04548744843655
 20
-124.5887776381236
 10
76.04548744843655
 20
-124.7093559801074
 10
76.04548744843655
 20
-124.7410508585717
 10
76.04548744843655
 20
-124.8828165377897
 10
76.17450627435916
 20
-124.9717000013092
 10
76.17450627435916
 20
-124.9717000013092
 10
76.15538599441602
 20
-125.1472276162826
 10
76.15538599441602
 20
-125.1472276162826
 10
76.15538599441602
 20
-125.1472276162826
 10
75.30927054323865
 20
-125.0266492742989
 10
75.30927054323865
 20
-125.0266492742989
 10
75.30927054323865
 20
-125.0266492742989
 10
75.30927054323865
 20
-124.2482299494067
 10
75.30927054323865
 20
-124.2482299494067
 10
75.30927054323865
 20
-124.2482299494067
 10
75.50391843815527
 20
-124.2482299494067
 10
75.50391843815527
 20
-124.2482299494067
 10
75.50391843815527
 20
-124.2482299494067
 10
75.50391843815527
 20
-124.8638685126208
 10
75.50391843815527
 20
-124.8638685126208
 10
75.50391843815527
 20
-124.8638685126208
 10
75.92697616374396
 20
-124.9293253268406
 10
75.92697616374396
 20
-124.9293253268406
 10
75.89304197321424
 20
-124.8680026272031
 10
75.85290661081108
 20
-124.7854925903314
 10
75.85290661081108
 20
-124.6671535604131
 10
75.85290661081108
 20
-124.4132500231502
 10
76.03911402178883
 20
-124.176227453765
 10
76.35210094662378
 20
-124.176227453765
 10
76.66956649558955
 20
-124.176227453765
 10
76.90434975290933
 20
-124.4005031698547
 10
76.90434975290933
 20
-124.7029825534597
 97
        0
 97
        0
 75
     2
 76
     1
 98
        0
  0
ENDBLK
  5
79
330
76
100
AcDbEntity
  8
0
100
AcDbBlockEnd
  0
BLOCK
  5
8B
330
89
100
AcDbEntity
  8
0
100
AcDbBlockBegin
  2
block 3
 70
     0
 10
0.0
 20
0.0
 30
0.0
  3
block 3
  1

  0
SPLINE
  5
8D
330
89
100
AcDbEntity
  8
_U+30EC_U+30A4_U+30E4_U+30FC 1
370
     0
100
AcDbSpline
210
0.0
220
0.0
230
1.0
 70
    11
 71
     3
 72
    26
 73
    22
 74
     0
 42
0.0000000001
 43
0.0000000001
 12
1.0
 22
0.0
 32
0.0
 13
1.0
 23
0.0
 33
0.0
 40
0.0
 40
0.0
 40
0.0
 40
0.0
 40
1.0
 40
1.0
 40
1.0
 40
2.0
 40
2.0
 40
2.0
 40
3.0
 40
3.0
 40
3.0
 40
4.0
 40
4.0
 40
4.0
 40
5.0
 40
5.0
 40
5.0
 40
6.0
 40
6.0
 40
6.0
 40
7.0
 40
7.0
 40
7.0
 40
7.0
 10
76.8535345945019
 20
-114.4405598672232
 30
0.0
 10
76.8535345945019
 20
-114.4405598672232
 30
0.0
 10
75.74920923670506
 20
-114.4405598672232
 30
0.0
 10
75.74920923670506
 20
-114.4405598672232
 30
0.0
 10
75.74920923670506
 20
-114.4405598672232
 30
0.0
 10
75.74920923670506
 20
-114.7706000147101
 30
0.0
 10
75.74920923670506
 20
-114.7706000147101
 30
0.0
 10
75.74920923670506
 20
-114.7706000147101
 30
0.0
 10
75.60124238561359
 20
-114.7706000147101
 30
0.0
 10
75.60124238561359
 20
-114.7706000147101
 30
0.0
 10
75.586428475027
 20
-114.438492809932
 30
0.0
 10
75.42347545857469
 20
-114.3919840208812
 30
0.0
 10
75.30927054323865
 20
-114.362356199708
 30
0.0
 10
75.30927054323865
 20
-114.362356199708
 30
0.0
 10
75.30927054323865
 20
-114.2162841511334
 30
0.0
 10
75.30927054323865
 20
-114.2162841511334
 30
0.0
 10
75.30927054323865
 20
-114.2162841511334
 30
0.0
 10
76.8535345945019
 20
-114.2162841511334
 30
0.0
 10
76.8535345945019
 20
-114.2162841511334
 30
0.0
 10
76.8535345945019
 20
-114.2162841511334
 30
0.0
 10
76.8535345945019
 20
-114.4405598672232
 30
0.0
 10
76.8535345945019
 20
-114.4405598672232
 30
0.0
  0
HATCH
  5
8E
330
89
100
AcDbEntity
  8
_U+30EC_U+30A4_U+30E4_U+30FC 1
 62
   179
420
  2234388
100
AcDbHatch
 10
0.0
 20
0.0
 30
0.0
210
0.0
220
0.0
230
1.0
  2
SOLID
 70
     1
 71
     0
 91
        1
 92
        1
 93
        1
 72
     4
 94
        3
 73
     0
 74
     1
 95
       26
 96
       22
 40
0.0
 40
0.0
 40
0.0
 40
0.0
 40
1.0
 40
1.0
 40
1.0
 40
2.0
 40
2.0
 40
2.0
 40
3.0
 40
3.0
 40
3.0
 40
4.0
 40
4.0
 40
4.0
 40
5.0
 40
5.0
 40
5.0
 40
6.0
 40
6.0
 40
6.0
 40
7.0
 40
7.0
 40
7.0
 40
7.0
 10
76.8535345945019
 20
-114.4405598672232
 10
76.8535345945019
 20
-114.4405598672232
 10
75.74920923670506
 20
-114.4405598672232
 10
75.74920923670506
 20
-114.4405598672232
 10
75.74920923670506
 20
-114.4405598672232
 10
75.74920923670506
 20
-114.7706000147101
 10
75.74920923670506
 20
-114.7706000147101
 10
75.74920923670506
 20
-114.7706000147101
 10
75.60124238561359
 20
-114.7706000147101
 10
75.60124238561359
 20
-114.7706000147101
 10
75.586428475027
 20
-114.438492809932
 10
75.42347545857469
 20
-114.3919840208812
 10
75.30927054323865
 20
-114.362356199708
 10
75.30927054323865
 20
-114.362356199708
 10
75.30927054323865
 20
-114.2162841511334
 10
75.30927054323865
 20
-114.2162841511334
 10
75.30927054323865
 20
-114.2162841511334
 10
76.8535345945019
 20
-114.2162841511334
 10
76.8535345945019
 20
-114.2162841511334
 10
76.8535345945019
 20
-114.2162841511334
 10
76.8535345945019
 20
-114.4405598672232
 10
76.8535345945019
 20
-114.4405598672232
 97
        0
 97
        0
 75
     2
 76
     1
 98
        0
  0
POLYLINE
  5
8F
330
89
100
AcDbEntity
  8
_U+30EC_U+30A4_U+30E4_U+30FC 1
370
     0
100
AcDb2dPolyline
 66
     1
 10
0.0
 20
0.0
 30
0.0
  0
VERTEX
  5
90
330
8F
100
AcDbEntity
  8
_U+30EC_U+30A4_U+30E4_U+30FC 1
370
     0
100
AcDbVertex
100
AcDb2dVertex
 10
76.8535345945019
 20
-113.6550780965862
 30
0.0
  0
VERTEX
  5
91
330
8F
100
AcDbEntity
  8
_U+30EC_U+30A4_U+30E4_U+30FC 1
370
     0
100
AcDbVertex
100
AcDb2dVertex
 10
76.6018703693044
 20
-113.6550780965862
 30
0.0
  0
VERTEX
  5
92
330
8F
100
AcDbEntity
  8
_U+30EC_U+30A4_U+30E4_U+30FC 1
370
     0
100
AcDbVertex
100
AcDb2dVertex
 10
76.6018703693044
 20
-113.4034138713887
 30
0.0
  0
VERTEX
  5
93
330
8F
100
AcDbEntity
  8
_U+30EC_U+30A4_U+30E4_U+30FC 1
370
     0
100
AcDbVertex
100
AcDb2dVertex
 10
76.8535345945019
 20
-113.4034138713887
 30
0.0
  0
VERTEX
  5
94
330
8F
100
AcDbEntity
  8
_U+30EC_U+30A4_U+30E4_U+30FC 1
370
     0
100
AcDbVertex
100
AcDb2dVertex
 10
76.8535345945019
 20
-113.6550780965862
 30
0.0
  0
SEQEND
  5
95
330
8F
100
AcDbEntity
  8
_U+30EC_U+30A4_U+30E4_U+30FC 1
370
     0
  0
HATCH
  5
96
330
89
100
AcDbEntity
  8
_U+30EC_U+30A4_U+30E4_U+30FC 1
 62
   179
420
  2234388
100
AcDbHatch
 10
0.0
 20
0.0
 30
0.0
210
0.0
220
0.0
230
1.0
  2
SOLID
 70
     1
 71
     0
 91
        1
 92
        1
 93
        4
 72
     1
 10
76.8535345945019
 20
-113.6550780965862
 11
76.6018703693044
 21
-113.6550780965862
 72
     1
 10
76.6018703693044
 20
-113.6550780965862
 11
76.6018703693044
 21
-113.4034138713887
 72
     1
 10
76.6018703693044
 20
-113.4034138713887
 11
76.8535345945019
 21
-113.4034138713887
 72
     1
 10
76.8535345945019
 20
-113.4034138713887
 11
76.8535345945019
 21
-113.6550780965862
 97
        0
 75
     2
 76
     1
 98
        0
  0
SPLINE
  5
97
330
89
100
AcDbEntity
  8
_U+30EC_U+30A4_U+30E4_U+30FC 1
370
     0
100
AcDbSpline
210
0.0
220
0.0
230
1.0
 70
    11
 71
     3
 72
    53
 73
    49
 74
     0
 42
0.0000000001
 43
0.0000000001
 12
1.0
 22
0.0
 32
0.0
 13
1.0
 23
0.0
 33
0.0
 40
0.0
 40
0.0
 40
0.0
 40
0.0
 40
1.0
 40
1.0
 40
1.0
 40
2.0
 40
2.0
 40
2.0
 40
3.0
 40
3.0
 40
3.0
 40
4.0
 40
4.0
 40
4.0
 40
5.0
 40
5.0
 40
5.0
 40
6.0
 40
6.0
 40
6.0
 40
7.0
 40
7.0
 40
7.0
 40
8.0
 40
8.0
 40
8.0
 40
9.0
 40
9.0
 40
9.0
 40
10.0
 40
10.0
 40
10.0
 40
11.0
 40
11.0
 40
11.0
 40
12.0
 40
12.0
 40
12.0
 40
13.0
 40
13.0
 40
13.0
 40
14.0
 40
14.0
 40
14.0
 40
15.0
 40
15.0
 40
15.0
 40
16.0
 40
16.0
 40
16.0
 40
16.0
 10
76.90434975290933
 20
-112.6858004818112
 30
0.0
 10
76.90434975290933
 20
-112.7641764041006
 30
0.0
 10
76.88729653025734
 20
-112.8656344661412
 30
0.0
 10
76.82390677332874
 20
-112.9672647829561
 30
0.0
 10
76.71383597257501
 20
-113.1407253406384
 30
0.0
 10
76.58275008936126
 20
-113.1619126778727
 30
0.0
 10
76.47491860067294
 20
-113.1808607030416
 30
0.0
 10
76.47491860067294
 20
-113.1808607030416
 30
0.0
 10
76.47491860067294
 20
-112.9588242990172
 30
0.0
 10
76.47491860067294
 20
-112.9588242990172
 30
0.0
 10
76.67370061017185
 20
-112.9037027712533
 30
0.0
 10
76.703328431345
 20
-112.7767510026218
 30
0.0
 10
76.703328431345
 20
-112.68373342452
 30
0.0
 10
76.703328431345
 20
-112.5440348025932
 30
0.0
 10
76.60393742659555
 20
-112.3917615821451
 30
0.0
 10
76.37122122656692
 20
-112.3917615821451
 30
0.0
 10
76.11525063201286
 20
-112.3917615821451
 30
0.0
 10
76.04548744843655
 20
-112.5715955664752
 30
0.0
 10
76.04548744843655
 20
-112.6921739084589
 30
0.0
 10
76.04548744843655
 20
-112.7238687869232
 30
0.0
 10
76.04548744843655
 20
-112.8656344661412
 30
0.0
 10
76.17450627435916
 20
-112.9545179296607
 30
0.0
 10
76.17450627435916
 20
-112.9545179296607
 30
0.0
 10
76.15538599441602
 20
-113.1300455446342
 30
0.0
 10
76.15538599441602
 20
-113.1300455446342
 30
0.0
 10
76.15538599441602
 20
-113.1300455446342
 30
0.0
 10
75.30927054323865
 20
-113.0094672026504
 30
0.0
 10
75.30927054323865
 20
-113.0094672026504
 30
0.0
 10
75.30927054323865
 20
-113.0094672026504
 30
0.0
 10
75.30927054323865
 20
-112.2310478777582
 30
0.0
 10
75.30927054323865
 20
-112.2310478777582
 30
0.0
 10
75.30927054323865
 20
-112.2310478777582
 30
0.0
 10
75.50391843815527
 20
-112.2310478777582
 30
0.0
 10
75.50391843815527
 20
-112.2310478777582
 30
0.0
 10
75.50391843815527
 20
-112.2310478777582
 30
0.0
 10
75.50391843815527
 20
-112.8466864409724
 30
0.0
 10
75.50391843815527
 20
-112.8466864409724
 30
0.0
 10
75.50391843815527
 20
-112.8466864409724
 30
0.0
 10
75.92697616374396
 20
-112.9121432551921
 30
0.0
 10
75.92697616374396
 20
-112.9121432551921
 30
0.0
 10
75.89304197321424
 20
-112.8508205555547
 30
0.0
 10
75.85290661081108
 20
-112.7683105186829
 30
0.0
 10
75.85290661081108
 20
-112.6499714887646
 30
0.0
 10
75.85290661081108
 20
-112.3960679515017
 30
0.0
 10
76.03911402178883
 20
-112.1590453821165
 30
0.0
 10
76.35210094662378
 20
-112.1590453821165
 30
0.0
 10
76.66956649558955
 20
-112.1590453821165
 30
0.0
 10
76.90434975290933
 20
-112.3833210982063
 30
0.0
 10
76.90434975290933
 20
-112.6858004818112
 30
0.0
  0
HATCH
  5
98
330
89
100
AcDbEntity
  8
_U+30EC_U+30A4_U+30E4_U+30FC 1
 62
   179
420
  2234388
100
AcDbHatch
 10
0.0
 20
0.0
 30
0.0
210
0.0
220
0.0
230
1.0
  2
SOLID
 70
     1
 71
     0
 91
        1
 92
        1
 93
        1
 72
     4
 94
        3
 73
     0
 74
     1
 95
       53
 96
       49
 40
0.0
 40
0.0
 40
0.0
 40
0.0
 40
1.0
 40
1.0
 40
1.0
 40
2.0
 40
2.0
 40
2.0
 40
3.0
 40
3.0
 40
3.0
 40
4.0
 40
4.0
 40
4.0
 40
5.0
 40
5.0
 40
5.0
 40
6.0
 40
6.0
 40
6.0
 40
7.0
 40
7.0
 40
7.0
 40
8.0
 40
8.0
 40
8.0
 40
9.0
 40
9.0
 40
9.0
 40
10.0
 40
10.0
 40
10.0
 40
11.0
 40
11.0
 40
11.0
 40
12.0
 40
12.0
 40
12.0
 40
13.0
 40
13.0
 40
13.0
 40
14.0
 40
14.0
 40
14.0
 40
15.0
 40
15.0
 40
15.0
 40
16.0
 40
16.0
 40
16.0
 40
16.0
 10
76.90434975290933
 20
-112.6858004818112
 10
76.90434975290933
 20
-112.7641764041006
 10
76.88729653025734
 20
-112.8656344661412
 10
76.82390677332874
 20
-112.9672647829561
 10
76.71383597257501
 20
-113.1407253406384
 10
76.58275008936126
 20
-113.1619126778727
 10
76.47491860067294
 20
-113.1808607030416
 10
76.47491860067294
 20
-113.1808607030416
 10
76.47491860067294
 20
-112.9588242990172
 10
76.47491860067294
 20
-112.9588242990172
 10
76.67370061017185
 20
-112.9037027712533
 10
76.703328431345
 20
-112.7767510026218
 10
76.703328431345
 20
-112.68373342452
 10
76.703328431345
 20
-112.5440348025932
 10
76.60393742659555
 20
-112.3917615821451
 10
76.37122122656692
 20
-112.3917615821451
 10
76.11525063201286
 20
-112.3917615821451
 10
76.04548744843655
 20
-112.5715955664752
 10
76.04548744843655
 20
-112.6921739084589
 10
76.04548744843655
 20
-112.7238687869232
 10
76.04548744843655
 20
-112.8656344661412
 10
76.17450627435916
 20
-112.9545179296607
 10
76.17450627435916
 20
-112.9545179296607
 10
76.15538599441602
 20
-113.1300455446342
 10
76.15538599441602
 20
-113.1300455446342
 10
76.15538599441602
 20
-113.1300455446342
 10
75.30927054323865
 20
-113.0094672026504
 10
75.30927054323865
 20
-113.0094672026504
 10
75.30927054323865
 20
-113.0094672026504
 10
75.30927054323865
 20
-112.2310478777582
 10
75.30927054323865
 20
-112.2310478777582
 10
75.30927054323865
 20
-112.2310478777582
 10
75.50391843815527
 20
-112.2310478777582
 10
75.50391843815527
 20
-112.2310478777582
 10
75.50391843815527
 20
-112.2310478777582
 10
75.50391843815527
 20
-112.8466864409724
 10
75.50391843815527
 20
-112.8466864409724
 10
75.50391843815527
 20
-112.8466864409724
 10
75.92697616374396
 20
-112.9121432551921
 10
75.92697616374396
 20
-112.9121432551921
 10
75.89304197321424
 20
-112.8508205555547
 10
75.85290661081108
 20
-112.7683105186829
 10
75.85290661081108
 20
-112.6499714887646
 10
75.85290661081108
 20
-112.3960679515017
 10
76.03911402178883
 20
-112.1590453821165
 10
76.35210094662378
 20
-112.1590453821165
 10
76.66956649558955
 20
-112.1590453821165
 10
76.90434975290933
 20
-112.3833210982063
 10
76.90434975290933
 20
-112.6858004818112
 97
        0
 97
        0
 75
     2
 76
     1
 98
        0
  0
ENDBLK
  5
8C
330
89
100
AcDbEntity
  8
0
100
AcDbBlockEnd
  0
BLOCK
  5
9B
330
99
100
AcDbEntity
  8
0
100
AcDbBlockBegin
  2
block 4
 70
     0
 10
0.0
 20
0.0
 30
0.0
  3
block 4
  1

  0
SPLINE
  5
9D
330
99
100
AcDbEntity
  8
_U+30EC_U+30A4_U+30E4_U+30FC 1
370
     0
100
AcDbSpline
210
0.0
220
0.0
230
1.0
 70
    11
 71
     3
 72
    44
 73
    40
 74
     0
 42
0.0000000001
 43
0.0000000001
 12
1.0
 22
0.0
 32
0.0
 13
1.0
 23
0.0
 33
0.0
 40
0.0
 40
0.0
 40
0.0
 40
0.0
 40
1.0
 40
1.0
 40
1.0
 40
2.0
 40
2.0
 40
2.0
 40
3.0
 40
3.0
 40
3.0
 40
4.0
 40
4.0
 40
4.0
 40
5.0
 40
5.0
 40
5.0
 40
6.0
 40
6.0
 40
6.0
 40
7.0
 40
7.0
 40
7.0
 40
8.0
 40
8.0
 40
8.0
 40
9.0
 40
9.0
 40
9.0
 40
10.0
 40
10.0
 40
10.0
 40
11.0
 40
11.0
 40
11.0
 40
12.0
 40
12.0
 40
12.0
 40
13.0
 40
13.0
 40
13.0
 40
13.0
 10
76.27183022181747
 20
-141.7884168482335
 30
0.0
 10
76.43047686891322
 20
-142.0064913924498
 30
0.0
 10
76.50454642184609
 20
-142.0998534801001
 30
0.0
 10
76.64837915835527
 20
-142.1480848168935
 30
0.0
 10
76.64837915835527
 20
-142.1480848168935
 30
0.0
 10
76.64837915835527
 20
-141.3698377467756
 30
0.0
 10
76.64837915835527
 20
-141.3698377467756
 30
0.0
 10
76.64837915835527
 20
-141.3698377467756
 30
0.0
 10
76.8535345945019
 20
-141.3698377467756
 30
0.0
 10
76.8535345945019
 20
-141.3698377467756
 30
0.0
 10
76.8535345945019
 20
-141.3698377467756
 30
0.0
 10
76.8535345945019
 20
-142.3978542395741
 30
0.0
 10
76.8535345945019
 20
-142.3978542395741
 30
0.0
 10
76.49593368313296
 20
-142.3661593611099
 30
0.0
 10
76.41773001561779
 20
-142.3007025468901
 30
0.0
 10
76.11938474659516
 20
-141.9155408716392
 30
0.0
 10
75.92060273709625
 20
-141.6595702770851
 30
0.0
 10
75.85290661081108
 20
-141.5941134628654
 30
0.0
 10
75.71544730094962
 20
-141.5941134628654
 30
0.0
 10
75.59693601625702
 20
-141.5941134628654
 30
0.0
 10
75.46585013304326
 20
-141.6657714489586
 30
0.0
 10
75.46585013304326
 20
-141.8628309107148
 30
0.0
 10
75.46585013304326
 20
-142.1229356198512
 30
0.0
 10
75.69632702100648
 20
-142.1315483585643
 30
0.0
 10
75.81277124840793
 20
-142.1356824731466
 30
0.0
 10
75.81277124840793
 20
-142.1356824731466
 30
0.0
 10
75.81277124840793
 20
-142.3596136796879
 30
0.0
 10
75.81277124840793
 20
-142.3596136796879
 30
0.0
 10
75.68581947977647
 20
-142.3513454505233
 30
0.0
 10
75.57368162173158
 20
-142.3410101640675
 30
0.0
 10
75.455170337039
 20
-142.2603949297127
 30
0.0
 10
75.29445663265209
 20
-142.1504963837332
 30
0.0
 10
75.26052244212238
 20
-141.9641167179812
 30
0.0
 10
75.26052244212238
 20
-141.8476724905798
 30
0.0
 10
75.26052244212238
 20
-141.5706868135657
 30
0.0
 10
75.44466279580898
 20
-141.3632920653536
 30
0.0
 10
75.71751435824076
 20
-141.3632920653536
 30
0.0
 10
75.94592418891283
 20
-141.3632920653536
 30
0.0
 10
76.04548744843655
 20
-141.4797362927551
 30
0.0
 10
76.27183022181747
 20
-141.7884168482335
 30
0.0
  0
HATCH
  5
9E
330
99
100
AcDbEntity
  8
_U+30EC_U+30A4_U+30E4_U+30FC 1
 62
   179
420
  2234388
100
AcDbHatch
 10
0.0
 20
0.0
 30
0.0
210
0.0
220
0.0
230
1.0
  2
SOLID
 70
     1
 71
     0
 91
        1
 92
        1
 93
        1
 72
     4
 94
        3
 73
     0
 74
     1
 95
       44
 96
       40
 40
0.0
 40
0.0
 40
0.0
 40
0.0
 40
1.0
 40
1.0
 40
1.0
 40
2.0
 40
2.0
 40
2.0
 40
3.0
 40
3.0
 40
3.0
 40
4.0
 40
4.0
 40
4.0
 40
5.0
 40
5.0
 40
5.0
 40
6.0
 40
6.0
 40
6.0
 40
7.0
 40
7.0
 40
7.0
 40
8.0
 40
8.0
 40
8.0
 40
9.0
 40
9.0
 40
9.0
 40
10.0
 40
10.0
 40
10.0
 40
11.0
 40
11.0
 40
11.0
 40
12.0
 40
12.0
 40
12.0
 40
13.0
 40
13.0
 40
13.0
 40
13.0
 10
76.27183022181747
 20
-141.7884168482335
 10
76.43047686891322
 20
-142.0064913924498
 10
76.50454642184609
 20
-142.0998534801001
 10
76.64837915835527
 20
-142.1480848168935
 10
76.64837915835527
 20
-142.1480848168935
 10
76.64837915835527
 20
-141.3698377467756
 10
76.64837915835527
 20
-141.3698377467756
 10
76.64837915835527
 20
-141.3698377467756
 10
76.8535345945019
 20
-141.3698377467756
 10
76.8535345945019
 20
-141.3698377467756
 10
76.8535345945019
 20
-141.3698377467756
 10
76.8535345945019
 20
-142.3978542395741
 10
76.8535345945019
 20
-142.3978542395741
 10
76.49593368313296
 20
-142.3661593611099
 10
76.41773001561779
 20
-142.3007025468901
 10
76.11938474659516
 20
-141.9155408716392
 10
75.92060273709625
 20
-141.6595702770851
 10
75.85290661081108
 20
-141.5941134628654
 10
75.71544730094962
 20
-141.5941134628654
 10
75.59693601625702
 20
-141.5941134628654
 10
75.46585013304326
 20
-141.6657714489586
 10
75.46585013304326
 20
-141.8628309107148
 10
75.46585013304326
 20
-142.1229356198512
 10
75.69632702100648
 20
-142.1315483585643
 10
75.81277124840793
 20
-142.1356824731466
 10
75.81277124840793
 20
-142.1356824731466
 10
75.81277124840793
 20
-142.3596136796879
 10
75.81277124840793
 20
-142.3596136796879
 10
75.68581947977647
 20
-142.3513454505233
 10
75.57368162173158
 20
-142.3410101640675
 10
75.455170337039
 20
-142.2603949297127
 10
75.29445663265209
 20
-142.1504963837332
 10
75.26052244212238
 20
-141.9641167179812
 10
75.26052244212238
 20
-141.8476724905798
 10
75.26052244212238
 20
-141.5706868135657
 10
75.44466279580898
 20
-141.3632920653536
 10
75.71751435824076
 20
-141.3632920653536
 10
75.94592418891283
 20
-141.3632920653536
 10
76.04548744843655
 20
-141.4797362927551
 10
76.27183022181747
 20
-141.7884168482335
 97
        0
 97
        0
 75
     2
 76
     1
 98
        0
  0
POLYLINE
  5
9F
330
99
100
AcDbEntity
  8
_U+30EC_U+30A4_U+30E4_U+30FC 1
370
     0
100
AcDb2dPolyline
 66
     1
 10
0.0
 20
0.0
 30
0.0
  0
VERTEX
  5
A0
330
9F
100
AcDbEntity
  8
_U+30EC_U+30A4_U+30E4_U+30FC 1
370
     0
100
AcDbVertex
100
AcDb2dVertex
 10
76.8535345945019
 20
-141.1448730115888
 30
0.0
  0
VERTEX
  5
A1
330
9F
100
AcDbEntity
  8
_U+30EC_U+30A4_U+30E4_U+30FC 1
370
     0
100
AcDbVertex
100
AcDb2dVertex
 10
76.6018703693044
 20
-141.1448730115888
 30
0.0
  0
VERTEX
  5
A2
330
9F
100
AcDbEntity
  8
_U+30EC_U+30A4_U+30E4_U+30FC 1
370
     0
100
AcDbVertex
100
AcDb2dVertex
 10
76.6018703693044
 20
-140.8933810411656
 30
0.0
  0
VERTEX
  5
A3
330
9F
100
AcDbEntity
  8
_U+30EC_U+30A4_U+30E4_U+30FC 1
370
     0
100
AcDbVertex
100
AcDb2dVertex
 10
76.8535345945019
 20
-140.8933810411656
 30
0.0
  0
VERTEX
  5
A4
330
9F
100
AcDbEntity
  8
_U+30EC_U+30A4_U+30E4_U+30FC 1
370
     0
100
AcDbVertex
100
AcDb2dVertex
 10
76.8535345945019
 20
-141.1448730115888
 30
0.0
  0
SEQEND
  5
A5
330
9F
100
AcDbEntity
  8
_U+30EC_U+30A4_U+30E4_U+30FC 1
370
     0
  0
HATCH
  5
A6
330
99
100
AcDbEntity
  8
_U+30EC_U+30A4_U+30E4_U+30FC 1
 62
   179
420
  2234388
100
AcDbHatch
 10
0.0
 20
0.0
 30
0.0
210
0.0
220
0.0
230
1.0
  2
SOLID
 70
     1
 71
     0
 91
        1
 92
        1
 93
        4
 72
     1
 10
76.8535345945019
 20
-141.1448730115888
 11
76.6018703693044
 21
-141.1448730115888
 72
     1
 10
76.6018703693044
 20
-141.1448730115888
 11
76.6018703693044
 21
-140.8933810411656
 72
     1
 10
76.6018703693044
 20
-140.8933810411656
 11
76.8535345945019
 21
-140.8933810411656
 72
     1
 10
76.8535345945019
 20
-140.8933810411656
 11
76.8535345945019
 21
-141.1448730115888
 97
        0
 75
     2
 76
     1
 98
        0
  0
SPLINE
  5
A7
330
99
100
AcDbEntity
  8
_U+30EC_U+30A4_U+30E4_U+30FC 1
370
     0
100
AcDbSpline
210
0.0
220
0.0
230
1.0
 70
    11
 71
     3
 72
    53
 73
    49
 74
     0
 42
0.0000000001
 43
0.0000000001
 12
1.0
 22
0.0
 32
0.0
 13
1.0
 23
0.0
 33
0.0
 40
0.0
 40
0.0
 40
0.0
 40
0.0
 40
1.0
 40
1.0
 40
1.0
 40
2.0
 40
2.0
 40
2.0
 40
3.0
 40
3.0
 40
3.0
 40
4.0
 40
4.0
 40
4.0
 40
5.0
 40
5.0
 40
5.0
 40
6.0
 40
6.0
 40
6.0
 40
7.0
 40
7.0
 40
7.0
 40
8.0
 40
8.0
 40
8.0
 40
9.0
 40
9.0
 40
9.0
 40
10.0
 40
10.0
 40
10.0
 40
11.0
 40
11.0
 40
11.0
 40
12.0
 40
12.0
 40
12.0
 40
13.0
 40
13.0
 40
13.0
 40
14.0
 40
14.0
 40
14.0
 40
15.0
 40
15.0
 40
15.0
 40
16.0
 40
16.0
 40
16.0
 40
16.0
 10
76.90434975290933
 20
-140.1754231420395
 30
0.0
 10
76.90434975290933
 20
-140.2539713191032
 30
0.0
 10
76.88729653025734
 20
-140.3552571263695
 30
0.0
 10
76.82390677332874
 20
-140.4572319527329
 30
0.0
 10
76.71383597257501
 20
-140.630520255641
 30
0.0
 10
76.58275008936126
 20
-140.651535338101
 30
0.0
 10
76.47491860067294
 20
-140.6708278728184
 30
0.0
 10
76.47491860067294
 20
-140.6708278728184
 30
0.0
 10
76.47491860067294
 20
-140.4486192140198
 30
0.0
 10
76.47491860067294
 20
-140.4486192140198
 30
0.0
 10
76.67370061017185
 20
-140.3934976862558
 30
0.0
 10
76.703328431345
 20
-140.2663736628501
 30
0.0
 10
76.703328431345
 20
-140.1733560847483
 30
0.0
 10
76.703328431345
 20
-140.0338297175957
 30
0.0
 10
76.60393742659555
 20
-139.8815564971477
 30
0.0
 10
76.37122122656692
 20
-139.8815564971477
 30
0.0
 10
76.11525063201286
 20
-139.8815564971477
 30
0.0
 10
76.04548744843655
 20
-140.0613904814777
 30
0.0
 10
76.04548744843655
 20
-140.1819688234615
 30
0.0
 10
76.04548744843655
 20
-140.2136637019258
 30
0.0
 10
76.04548744843655
 20
-140.3552571263695
 30
0.0
 10
76.17450627435916
 20
-140.444140589889
 30
0.0
 10
76.17450627435916
 20
-140.444140589889
 30
0.0
 10
76.15538599441602
 20
-140.6198404596367
 30
0.0
 10
76.15538599441602
 20
-140.6198404596367
 30
0.0
 10
76.15538599441602
 20
-140.6198404596367
 30
0.0
 10
75.30927054323865
 20
-140.499262117653
 30
0.0
 10
75.30927054323865
 20
-140.499262117653
 30
0.0
 10
75.30927054323865
 20
-140.499262117653
 30
0.0
 10
75.30927054323865
 20
-139.7206705379865
 30
0.0
 10
75.30927054323865
 20
-139.7206705379865
 30
0.0
 10
75.30927054323865
 20
-139.7206705379865
 30
0.0
 10
75.50391843815527
 20
-139.7206705379865
 30
0.0
 10
75.50391843815527
 20
-139.7206705379865
 30
0.0
 10
75.50391843815527
 20
-139.7206705379865
 30
0.0
 10
75.50391843815527
 20
-140.3366536107492
 30
0.0
 10
75.50391843815527
 20
-140.3366536107492
 30
0.0
 10
75.50391843815527
 20
-140.3366536107492
 30
0.0
 10
75.92697616374396
 20
-140.4021104249689
 30
0.0
 10
75.92697616374396
 20
-140.4021104249689
 30
0.0
 10
75.89304197321424
 20
-140.3407877253315
 30
0.0
 10
75.85290661081108
 20
-140.2581054336855
 30
0.0
 10
75.85290661081108
 20
-140.1395941489929
 30
0.0
 10
75.85290661081108
 20
-139.8860351212785
 30
0.0
 10
76.03911402178883
 20
-139.6490125518933
 30
0.0
 10
76.35210094662378
 20
-139.6490125518933
 30
0.0
 10
76.66956649558955
 20
-139.6490125518933
 30
0.0
 10
76.90434975290933
 20
-139.8729437584346
 30
0.0
 10
76.90434975290933
 20
-140.1754231420395
 30
0.0
  0
HATCH
  5
A8
330
99
100
AcDbEntity
  8
_U+30EC_U+30A4_U+30E4_U+30FC 1
 62
   179
420
  2234388
100
AcDbHatch
 10
0.0
 20
0.0
 30
0.0
210
0.0
220
0.0
230
1.0
  2
SOLID
 70
     1
 71
     0
 91
        1
 92
        1
 93
        1
 72
     4
 94
        3
 73
     0
 74
     1
 95
       53
 96
       49
 40
0.0
 40
0.0
 40
0.0
 40
0.0
 40
1.0
 40
1.0
 40
1.0
 40
2.0
 40
2.0
 40
2.0
 40
3.0
 40
3.0
 40
3.0
 40
4.0
 40
4.0
 40
4.0
 40
5.0
 40
5.0
 40
5.0
 40
6.0
 40
6.0
 40
6.0
 40
7.0
 40
7.0
 40
7.0
 40
8.0
 40
8.0
 40
8.0
 40
9.0
 40
9.0
 40
9.0
 40
10.0
 40
10.0
 40
10.0
 40
11.0
 40
11.0
 40
11.0
 40
12.0
 40
12.0
 40
12.0
 40
13.0
 40
13.0
 40
13.0
 40
14.0
 40
14.0
 40
14.0
 40
15.0
 40
15.0
 40
15.0
 40
16.0
 40
16.0
 40
16.0
 40
16.0
 10
76.90434975290933
 20
-140.1754231420395
 10
76.90434975290933
 20
-140.2539713191032
 10
76.88729653025734
 20
-140.3552571263695
 10
76.82390677332874
 20
-140.4572319527329
 10
76.71383597257501
 20
-140.630520255641
 10
76.58275008936126
 20
-140.651535338101
 10
76.47491860067294
 20
-140.6708278728184
 10
76.47491860067294
 20
-140.6708278728184
 10
76.47491860067294
 20
-140.4486192140198
 10
76.47491860067294
 20
-140.4486192140198
 10
76.67370061017185
 20
-140.3934976862558
 10
76.703328431345
 20
-140.2663736628501
 10
76.703328431345
 20
-140.1733560847483
 10
76.703328431345
 20
-140.0338297175957
 10
76.60393742659555
 20
-139.8815564971477
 10
76.37122122656692
 20
-139.8815564971477
 10
76.11525063201286
 20
-139.8815564971477
 10
76.04548744843655
 20
-140.0613904814777
 10
76.04548744843655
 20
-140.1819688234615
 10
76.04548744843655
 20
-140.2136637019258
 10
76.04548744843655
 20
-140.3552571263695
 10
76.17450627435916
 20
-140.444140589889
 10
76.17450627435916
 20
-140.444140589889
 10
76.15538599441602
 20
-140.6198404596367
 10
76.15538599441602
 20
-140.6198404596367
 10
76.15538599441602
 20
-140.6198404596367
 10
75.30927054323865
 20
-140.499262117653
 10
75.30927054323865
 20
-140.499262117653
 10
75.30927054323865
 20
-140.499262117653
 10
75.30927054323865
 20
-139.7206705379865
 10
75.30927054323865
 20
-139.7206705379865
 10
75.30927054323865
 20
-139.7206705379865
 10
75.50391843815527
 20
-139.7206705379865
 10
75.50391843815527
 20
-139.7206705379865
 10
75.50391843815527
 20
-139.7206705379865
 10
75.50391843815527
 20
-140.3366536107492
 10
75.50391843815527
 20
-140.3366536107492
 10
75.50391843815527
 20
-140.3366536107492
 10
75.92697616374396
 20
-140.4021104249689
 10
75.92697616374396
 20
-140.4021104249689
 10
75.89304197321424
 20
-140.3407877253315
 10
75.85290661081108
 20
-140.2581054336855
 10
75.85290661081108
 20
-140.1395941489929
 10
75.85290661081108
 20
-139.8860351212785
 10
76.03911402178883
 20
-139.6490125518933
 10
76.35210094662378
 20
-139.6490125518933
 10
76.66956649558955
 20
-139.6490125518933
 10
76.90434975290933
 20
-139.8729437584346
 10
76.90434975290933
 20
-140.1754231420395
 97
        0
 97
        0
 75
     2
 76
     1
 98
        0
  0
ENDBLK
  5
9C
330
99
100
AcDbEntity
  8
0
100
AcDbBlockEnd
  0
BLOCK
  5
BE
330
BC
100
AcDbEntity
  8
0
100
AcDbBlockBegin
  2
block 5
 70
     0
 10
0.0
 20
0.0
 30
0.0
  3
block 5
  1

  0
SPLINE
  5
C0
330
BC
100
AcDbEntity
  8
_U+30EC_U+30A4_U+30E4_U+30FC 1
370
     0
100
AcDbSpline
210
0.0
220
0.0
230
1.0
 70
    11
 71
     3
 72
    26
 73
    22
 74
     0
 42
0.0000000001
 43
0.0000000001
 12
1.0
 22
0.0
 32
0.0
 13
1.0
 23
0.0
 33
0.0
 40
0.0
 40
0.0
 40
0.0
 40
0.0
 40
1.0
 40
1.0
 40
1.0
 40
2.0
 40
2.0
 40
2.0
 40
3.0
 40
3.0
 40
3.0
 40
4.0
 40
4.0
 40
4.0
 40
5.0
 40
5.0
 40
5.0
 40
6.0
 40
6.0
 40
6.0
 40
7.0
 40
7.0
 40
7.0
 40
7.0
 10
93.53709850092129
 20
-110.2942151959508
 30
0.0
 10
93.53709850092129
 20
-110.2942151959508
 30
0.0
 10
93.53709850092129
 20
-109.1898898381539
 30
0.0
 10
93.53709850092129
 20
-109.1898898381539
 30
0.0
 10
93.53709850092129
 20
-109.1898898381539
 30
0.0
 10
93.20705835343435
 20
-109.1898898381539
 30
0.0
 10
93.20705835343435
 20
-109.1898898381539
 30
0.0
 10
93.20705835343435
 20
-109.1898898381539
 30
0.0
 10
93.20705835343435
 20
-109.0419229870624
 30
0.0
 10
93.20705835343435
 20
-109.0419229870624
 30
0.0
 10
93.53916555821243
 20
-109.0271090764759
 30
0.0
 10
93.5856743472633
 20
-108.8641560600235
 30
0.0
 10
93.61530216843646
 20
-108.7499511446875
 30
0.0
 10
93.61530216843646
 20
-108.7499511446875
 30
0.0
 10
93.76137421701105
 20
-108.7499511446875
 30
0.0
 10
93.76137421701105
 20
-108.7499511446875
 30
0.0
 10
93.76137421701105
 20
-108.7499511446875
 30
0.0
 10
93.76137421701105
 20
-110.2942151959508
 30
0.0
 10
93.76137421701105
 20
-110.2942151959508
 30
0.0
 10
93.76137421701105
 20
-110.2942151959508
 30
0.0
 10
93.53709850092129
 20
-110.2942151959508
 30
0.0
 10
93.53709850092129
 20
-110.2942151959508
 30
0.0
  0
HATCH
  5
C1
330
BC
100
AcDbEntity
  8
_U+30EC_U+30A4_U+30E4_U+30FC 1
 62
   179
420
  2234388
100
AcDbHatch
 10
0.0
 20
0.0
 30
0.0
210
0.0
220
0.0
230
1.0
  2
SOLID
 70
     1
 71
     0
 91
        1
 92
        1
 93
        1
 72
     4
 94
        3
 73
     0
 74
     1
 95
       26
 96
       22
 40
0.0
 40
0.0
 40
0.0
 40
0.0
 40
1.0
 40
1.0
 40
1.0
 40
2.0
 40
2.0
 40
2.0
 40
3.0
 40
3.0
 40
3.0
 40
4.0
 40
4.0
 40
4.0
 40
5.0
 40
5.0
 40
5.0
 40
6.0
 40
6.0
 40
6.0
 40
7.0
 40
7.0
 40
7.0
 40
7.0
 10
93.53709850092129
 20
-110.2942151959508
 10
93.53709850092129
 20
-110.2942151959508
 10
93.53709850092129
 20
-109.1898898381539
 10
93.53709850092129
 20
-109.1898898381539
 10
93.53709850092129
 20
-109.1898898381539
 10
93.20705835343435
 20
-109.1898898381539
 10
93.20705835343435
 20
-109.1898898381539
 10
93.20705835343435
 20
-109.1898898381539
 10
93.20705835343435
 20
-109.0419229870624
 10
93.20705835343435
 20
-109.0419229870624
 10
93.53916555821243
 20
-109.0271090764759
 10
93.5856743472633
 20
-108.8641560600235
 10
93.61530216843646
 20
-108.7499511446875
 10
93.61530216843646
 20
-108.7499511446875
 10
93.76137421701105
 20
-108.7499511446875
 10
93.76137421701105
 20
-108.7499511446875
 10
93.76137421701105
 20
-108.7499511446875
 10
93.76137421701105
 20
-110.2942151959508
 10
93.76137421701105
 20
-110.2942151959508
 10
93.76137421701105
 20
-110.2942151959508
 10
93.53709850092129
 20
-110.2942151959508
 10
93.53709850092129
 20
-110.2942151959508
 97
        0
 97
        0
 75
     2
 76
     1
 98
        0
  0
SPLINE
  5
C2
330
BC
100
AcDbEntity
  8
_U+30EC_U+30A4_U+30E4_U+30FC 1
370
     0
100
AcDbSpline
210
0.0
220
0.0
230
1.0
 70
    11
 71
     3
 72
    53
 73
    49
 74
     0
 42
0.0000000001
 43
0.0000000001
 12
1.0
 22
0.0
 32
0.0
 13
1.0
 23
0.0
 33
0.0
 40
0.0
 40
0.0
 40
0.0
 40
0.0
 40
1.0
 40
1.0
 40
1.0
 40
2.0
 40
2.0
 40
2.0
 40
3.0
 40
3.0
 40
3.0
 40
4.0
 40
4.0
 40
4.0
 40
5.0
 40
5.0
 40
5.0
 40
6.0
 40
6.0
 40
6.0
 40
7.0
 40
7.0
 40
7.0
 40
8.0
 40
8.0
 40
8.0
 40
9.0
 40
9.0
 40
9.0
 40
10.0
 40
10.0
 40
10.0
 40
11.0
 40
11.0
 40
11.0
 40
12.0
 40
12.0
 40
12.0
 40
13.0
 40
13.0
 40
13.0
 40
14.0
 40
14.0
 40
14.0
 40
15.0
 40
15.0
 40
15.0
 40
16.0
 40
16.0
 40
16.0
 40
16.0
 10
94.74357093985577
 20
-110.3450303543582
 30
0.0
 10
94.6653672723406
 20
-110.3450303543582
 30
0.0
 10
94.56373695552574
 20
-110.3279771317062
 30
0.0
 10
94.46210663871086
 20
-110.2645873747776
 30
0.0
 10
94.2888183358028
 20
-110.1545165740239
 30
0.0
 10
94.26745874379425
 20
-110.0234306908101
 30
0.0
 10
94.24851071862538
 20
-109.9155992021218
 30
0.0
 10
94.24851071862538
 20
-109.9155992021218
 30
0.0
 10
94.47071937742399
 20
-109.9155992021218
 30
0.0
 10
94.47071937742399
 20
-109.9155992021218
 30
0.0
 10
94.52549639563946
 20
-110.1143812116207
 30
0.0
 10
94.65262041904518
 20
-110.1440090327939
 30
0.0
 10
94.74563799714693
 20
-110.1440090327939
 30
0.0
 10
94.88516436429954
 20
-110.1440090327939
 30
0.0
 10
95.0374375847476
 20
-110.0446180280444
 30
0.0
 10
95.0374375847476
 20
-109.8119018280158
 30
0.0
 10
95.0374375847476
 20
-109.5559312334617
 30
0.0
 10
94.85760360041755
 20
-109.4861680498854
 30
0.0
 10
94.7370252584338
 20
-109.4861680498854
 30
0.0
 10
94.70533037996951
 20
-109.4861680498854
 30
0.0
 10
94.56373695552574
 20
-109.4861680498854
 30
0.0
 10
94.47485349200629
 20
-109.615186875808
 30
0.0
 10
94.47485349200629
 20
-109.615186875808
 30
0.0
 10
94.29915362225854
 20
-109.5960665958649
 30
0.0
 10
94.29915362225854
 20
-109.5960665958649
 30
0.0
 10
94.29915362225854
 20
-109.5960665958649
 30
0.0
 10
94.41973196424229
 20
-108.7499511446875
 30
0.0
 10
94.41973196424229
 20
-108.7499511446875
 30
0.0
 10
94.41973196424229
 20
-108.7499511446875
 30
0.0
 10
95.19832354390876
 20
-108.7499511446875
 30
0.0
 10
95.19832354390876
 20
-108.7499511446875
 30
0.0
 10
95.19832354390876
 20
-108.7499511446875
 30
0.0
 10
95.19832354390876
 20
-108.9445990396041
 30
0.0
 10
95.19832354390876
 20
-108.9445990396041
 30
0.0
 10
95.19832354390876
 20
-108.9445990396041
 30
0.0
 10
94.58268498069461
 20
-108.9445990396041
 30
0.0
 10
94.58268498069461
 20
-108.9445990396041
 30
0.0
 10
94.58268498069461
 20
-108.9445990396041
 30
0.0
 10
94.51722816647487
 20
-109.3676567651928
 30
0.0
 10
94.51722816647487
 20
-109.3676567651928
 30
0.0
 10
94.57855086611231
 20
-109.3337225746631
 30
0.0
 10
94.66088864820978
 20
-109.2935872122599
 30
0.0
 10
94.77939993290238
 20
-109.2935872122599
 30
0.0
 10
95.0333034701653
 20
-109.2935872122599
 30
0.0
 10
95.27032603955048
 20
-109.4797946232377
 30
0.0
 10
95.27032603955048
 20
-109.7927815480726
 30
0.0
 10
95.27032603955048
 20
-110.1102470970384
 30
0.0
 10
95.04605032346072
 20
-110.3450303543582
 30
0.0
 10
94.74357093985577
 20
-110.3450303543582
 30
0.0
  0
HATCH
  5
C3
330
BC
100
AcDbEntity
  8
_U+30EC_U+30A4_U+30E4_U+30FC 1
 62
   179
420
  2234388
100
AcDbHatch
 10
0.0
 20
0.0
 30
0.0
210
0.0
220
0.0
230
1.0
  2
SOLID
 70
     1
 71
     0
 91
        1
 92
        1
 93
        1
 72
     4
 94
        3
 73
     0
 74
     1
 95
       53
 96
       49
 40
0.0
 40
0.0
 40
0.0
 40
0.0
 40
1.0
 40
1.0
 40
1.0
 40
2.0
 40
2.0
 40
2.0
 40
3.0
 40
3.0
 40
3.0
 40
4.0
 40
4.0
 40
4.0
 40
5.0
 40
5.0
 40
5.0
 40
6.0
 40
6.0
 40
6.0
 40
7.0
 40
7.0
 40
7.0
 40
8.0
 40
8.0
 40
8.0
 40
9.0
 40
9.0
 40
9.0
 40
10.0
 40
10.0
 40
10.0
 40
11.0
 40
11.0
 40
11.0
 40
12.0
 40
12.0
 40
12.0
 40
13.0
 40
13.0
 40
13.0
 40
14.0
 40
14.0
 40
14.0
 40
15.0
 40
15.0
 40
15.0
 40
16.0
 40
16.0
 40
16.0
 40
16.0
 10
94.74357093985577
 20
-110.3450303543582
 10
94.6653672723406
 20
-110.3450303543582
 10
94.56373695552574
 20
-110.3279771317062
 10
94.46210663871086
 20
-110.2645873747776
 10
94.2888183358028
 20
-110.1545165740239
 10
94.26745874379425
 20
-110.0234306908101
 10
94.24851071862538
 20
-109.9155992021218
 10
94.24851071862538
 20
-109.9155992021218
 10
94.47071937742399
 20
-109.9155992021218
 10
94.47071937742399
 20
-109.9155992021218
 10
94.52549639563946
 20
-110.1143812116207
 10
94.65262041904518
 20
-110.1440090327939
 10
94.74563799714693
 20
-110.1440090327939
 10
94.88516436429954
 20
-110.1440090327939
 10
95.0374375847476
 20
-110.0446180280444
 10
95.0374375847476
 20
-109.8119018280158
 10
95.0374375847476
 20
-109.5559312334617
 10
94.85760360041755
 20
-109.4861680498854
 10
94.7370252584338
 20
-109.4861680498854
 10
94.70533037996951
 20
-109.4861680498854
 10
94.56373695552574
 20
-109.4861680498854
 10
94.47485349200629
 20
-109.615186875808
 10
94.47485349200629
 20
-109.615186875808
 10
94.29915362225854
 20
-109.5960665958649
 10
94.29915362225854
 20
-109.5960665958649
 10
94.29915362225854
 20
-109.5960665958649
 10
94.41973196424229
 20
-108.7499511446875
 10
94.41973196424229
 20
-108.7499511446875
 10
94.41973196424229
 20
-108.7499511446875
 10
95.19832354390876
 20
-108.7499511446875
 10
95.19832354390876
 20
-108.7499511446875
 10
95.19832354390876
 20
-108.7499511446875
 10
95.19832354390876
 20
-108.9445990396041
 10
95.19832354390876
 20
-108.9445990396041
 10
95.19832354390876
 20
-108.9445990396041
 10
94.58268498069461
 20
-108.9445990396041
 10
94.58268498069461
 20
-108.9445990396041
 10
94.58268498069461
 20
-108.9445990396041
 10
94.51722816647487
 20
-109.3676567651928
 10
94.51722816647487
 20
-109.3676567651928
 10
94.57855086611231
 20
-109.3337225746631
 10
94.66088864820978
 20
-109.2935872122599
 10
94.77939993290238
 20
-109.2935872122599
 10
95.0333034701653
 20
-109.2935872122599
 10
95.27032603955048
 20
-109.4797946232377
 10
95.27032603955048
 20
-109.7927815480726
 10
95.27032603955048
 20
-110.1102470970384
 10
95.04605032346072
 20
-110.3450303543582
 10
94.74357093985577
 20
-110.3450303543582
 97
        0
 97
        0
 75
     2
 76
     1
 98
        0
  0
POLYLINE
  5
C4
330
BC
100
AcDbEntity
  8
_U+30EC_U+30A4_U+30E4_U+30FC 1
370
     0
100
AcDb2dPolyline
 66
     1
 10
0.0
 20
0.0
 30
0.0
  0
VERTEX
  5
C5
330
C4
100
AcDbEntity
  8
_U+30EC_U+30A4_U+30E4_U+30FC 1
370
     0
100
AcDbVertex
100
AcDb2dVertex
 10
95.4994248893196
 20
-110.2942151959508
 30
0.0
  0
VERTEX
  5
C6
330
C4
100
AcDbEntity
  8
_U+30EC_U+30A4_U+30E4_U+30FC 1
370
     0
100
AcDbVertex
100
AcDb2dVertex
 10
95.4994248893196
 20
-110.0425509707533
 30
0.0
  0
VERTEX
  5
C7
330
C4
100
AcDbEntity
  8
_U+30EC_U+30A4_U+30E4_U+30FC 1
370
     0
100
AcDbVertex
100
AcDb2dVertex
 10
95.75126136929136
 20
-110.0425509707533
 30
0.0
  0
VERTEX
  5
C8
330
C4
100
AcDbEntity
  8
_U+30EC_U+30A4_U+30E4_U+30FC 1
370
     0
100
AcDbVertex
100
AcDb2dVertex
 10
95.75126136929136
 20
-110.2942151959508
 30
0.0
  0
VERTEX
  5
C9
330
C4
100
AcDbEntity
  8
_U+30EC_U+30A4_U+30E4_U+30FC 1
370
     0
100
AcDbVertex
100
AcDb2dVertex
 10
95.4994248893196
 20
-110.2942151959508
 30
0.0
  0
SEQEND
  5
CA
330
C4
100
AcDbEntity
  8
_U+30EC_U+30A4_U+30E4_U+30FC 1
370
     0
  0
HATCH
  5
CB
330
BC
100
AcDbEntity
  8
_U+30EC_U+30A4_U+30E4_U+30FC 1
 62
   179
420
  2234388
100
AcDbHatch
 10
0.0
 20
0.0
 30
0.0
210
0.0
220
0.0
230
1.0
  2
SOLID
 70
     1
 71
     0
 91
        1
 92
        1
 93
        4
 72
     1
 10
95.4994248893196
 20
-110.2942151959508
 11
95.4994248893196
 21
-110.0425509707533
 72
     1
 10
95.4994248893196
 20
-110.0425509707533
 11
95.75126136929136
 21
-110.0425509707533
 72
     1
 10
95.75126136929136
 20
-110.0425509707533
 11
95.75126136929136
 21
-110.2942151959508
 72
     1
 10
95.75126136929136
 20
-110.2942151959508
 11
95.4994248893196
 21
-110.2942151959508
 97
        0
 75
     2
 76
     1
 98
        0
  0
SPLINE
  5
CC
330
BC
100
AcDbEntity
  8
_U+30EC_U+30A4_U+30E4_U+30FC 1
370
     0
100
AcDbSpline
210
0.0
220
0.0
230
1.0
 70
    11
 71
     3
 72
    44
 73
    40
 74
     0
 42
0.0000000001
 43
0.0000000001
 12
1.0
 22
0.0
 32
0.0
 13
1.0
 23
0.0
 33
0.0
 40
0.0
 40
0.0
 40
0.0
 40
0.0
 40
1.0
 40
1.0
 40
1.0
 40
2.0
 40
2.0
 40
2.0
 40
3.0
 40
3.0
 40
3.0
 40
4.0
 40
4.0
 40
4.0
 40
5.0
 40
5.0
 40
5.0
 40
6.0
 40
6.0
 40
6.0
 40
7.0
 40
7.0
 40
7.0
 40
8.0
 40
8.0
 40
8.0
 40
9.0
 40
9.0
 40
9.0
 40
10.0
 40
10.0
 40
10.0
 40
11.0
 40
11.0
 40
11.0
 40
12.0
 40
12.0
 40
12.0
 40
13.0
 40
13.0
 40
13.0
 40
13.0
 10
96.58049585259099
 20
-109.7125108232663
 30
0.0
 10
96.3627658179232
 20
-109.8711574703621
 30
0.0
 10
96.26974823982145
 20
-109.9452270232949
 30
0.0
 10
96.22082788393091
 20
-110.0890597598041
 30
0.0
 10
96.22082788393091
 20
-110.0890597598041
 30
0.0
 10
96.99941946359738
 20
-110.0890597598041
 30
0.0
 10
96.99941946359738
 20
-110.0890597598041
 30
0.0
 10
96.99941946359738
 20
-110.0890597598041
 30
0.0
 10
96.99941946359738
 20
-110.2942151959508
 30
0.0
 10
96.99941946359738
 20
-110.2942151959508
 30
0.0
 10
96.99941946359738
 20
-110.2942151959508
 30
0.0
 10
95.97140297079882
 20
-110.2942151959508
 30
0.0
 10
95.97140297079882
 20
-110.2942151959508
 30
0.0
 10
96.00309784926311
 20
-109.9366142845818
 30
0.0
 10
96.06855466348287
 20
-109.8584106170667
 30
0.0
 10
96.4537163387338
 20
-109.560065348044
 30
0.0
 10
96.70968693328786
 20
-109.3612833385451
 30
0.0
 10
96.77514374750761
 20
-109.2935872122599
 30
0.0
 10
96.77514374750761
 20
-109.1561279023985
 30
0.0
 10
96.77514374750761
 20
-109.0376166177059
 30
0.0
 10
96.70314125186589
 20
-108.9065307344921
 30
0.0
 10
96.50642629965812
 20
-108.9065307344921
 30
0.0
 10
96.24632159052176
 20
-108.9065307344921
 30
0.0
 10
96.23770885180863
 20
-109.1370076224553
 30
0.0
 10
96.23357473722633
 20
-109.2534518498568
 30
0.0
 10
96.23357473722633
 20
-109.2534518498568
 30
0.0
 10
96.00929902113657
 20
-109.2534518498568
 30
0.0
 10
96.00929902113657
 20
-109.2534518498568
 30
0.0
 10
96.0179117598497
 20
-109.1265000812253
 30
0.0
 10
96.02859155585396
 20
-109.0143622231804
 30
0.0
 10
96.10886228066029
 20
-108.8958509384879
 30
0.0
 10
96.21876082663975
 20
-108.7351372341009
 30
0.0
 10
96.40514049239178
 20
-108.7012030435712
 30
0.0
 10
96.5212402102447
 20
-108.7012030435712
 30
0.0
 10
96.7985703968073
 20
-108.7012030435712
 30
0.0
 10
97.00596514501935
 20
-108.8853433972578
 30
0.0
 10
97.00596514501935
 20
-109.1581949596896
 30
0.0
 10
97.00596514501935
 20
-109.3866047903617
 30
0.0
 10
96.8895209176179
 20
-109.4861680498854
 30
0.0
 10
96.58049585259099
 20
-109.7125108232663
 30
0.0
  0
HATCH
  5
CD
330
BC
100
AcDbEntity
  8
_U+30EC_U+30A4_U+30E4_U+30FC 1
 62
   179
420
  2234388
100
AcDbHatch
 10
0.0
 20
0.0
 30
0.0
210
0.0
220
0.0
230
1.0
  2
SOLID
 70
     1
 71
     0
 91
        1
 92
        1
 93
        1
 72
     4
 94
        3
 73
     0
 74
     1
 95
       44
 96
       40
 40
0.0
 40
0.0
 40
0.0
 40
0.0
 40
1.0
 40
1.0
 40
1.0
 40
2.0
 40
2.0
 40
2.0
 40
3.0
 40
3.0
 40
3.0
 40
4.0
 40
4.0
 40
4.0
 40
5.0
 40
5.0
 40
5.0
 40
6.0
 40
6.0
 40
6.0
 40
7.0
 40
7.0
 40
7.0
 40
8.0
 40
8.0
 40
8.0
 40
9.0
 40
9.0
 40
9.0
 40
10.0
 40
10.0
 40
10.0
 40
11.0
 40
11.0
 40
11.0
 40
12.0
 40
12.0
 40
12.0
 40
13.0
 40
13.0
 40
13.0
 40
13.0
 10
96.58049585259099
 20
-109.7125108232663
 10
96.3627658179232
 20
-109.8711574703621
 10
96.26974823982145
 20
-109.9452270232949
 10
96.22082788393091
 20
-110.0890597598041
 10
96.22082788393091
 20
-110.0890597598041
 10
96.99941946359738
 20
-110.0890597598041
 10
96.99941946359738
 20
-110.0890597598041
 10
96.99941946359738
 20
-110.0890597598041
 10
96.99941946359738
 20
-110.2942151959508
 10
96.99941946359738
 20
-110.2942151959508
 10
96.99941946359738
 20
-110.2942151959508
 10
95.97140297079882
 20
-110.2942151959508
 10
95.97140297079882
 20
-110.2942151959508
 10
96.00309784926311
 20
-109.9366142845818
 10
96.06855466348287
 20
-109.8584106170667
 10
96.4537163387338
 20
-109.560065348044
 10
96.70968693328786
 20
-109.3612833385451
 10
96.77514374750761
 20
-109.2935872122599
 10
96.77514374750761
 20
-109.1561279023985
 10
96.77514374750761
 20
-109.0376166177059
 10
96.70314125186589
 20
-108.9065307344921
 10
96.50642629965812
 20
-108.9065307344921
 10
96.24632159052176
 20
-108.9065307344921
 10
96.23770885180863
 20
-109.1370076224553
 10
96.23357473722633
 20
-109.2534518498568
 10
96.23357473722633
 20
-109.2534518498568
 10
96.00929902113657
 20
-109.2534518498568
 10
96.00929902113657
 20
-109.2534518498568
 10
96.0179117598497
 20
-109.1265000812253
 10
96.02859155585396
 20
-109.0143622231804
 10
96.10886228066029
 20
-108.8958509384879
 10
96.21876082663975
 20
-108.7351372341009
 10
96.40514049239178
 20
-108.7012030435712
 10
96.5212402102447
 20
-108.7012030435712
 10
96.7985703968073
 20
-108.7012030435712
 10
97.00596514501935
 20
-108.8853433972578
 10
97.00596514501935
 20
-109.1581949596896
 10
97.00596514501935
 20
-109.3866047903617
 10
96.8895209176179
 20
-109.4861680498854
 10
96.58049585259099
 20
-109.7125108232663
 97
        0
 97
        0
 75
     2
 76
     1
 98
        0
  0
ENDBLK
  5
BF
330
BC
100
AcDbEntity
  8
0
100
AcDbBlockEnd
  0
BLOCK
  5
DF
330
DD
100
AcDbEntity
  8
0
100
AcDbBlockBegin
  2
block 6
 70
     0
 10
0.0
 20
0.0
 30
0.0
  3
block 6
  1

  0
SPLINE
  5
E1
330
DD
100
AcDbEntity
  8
_U+30EC_U+30A4_U+30E4_U+30FC 1
370
     0
100
AcDbSpline
210
0.0
220
0.0
230
1.0
 70
    11
 71
     3
 72
    32
 73
    28
 74
     0
 42
0.0000000001
 43
0.0000000001
 12
1.0
 22
0.0
 32
0.0
 13
1.0
 23
0.0
 33
0.0
 40
0.0
 40
0.0
 40
0.0
 40
0.0
 40
1.0
 40
1.0
 40
1.0
 40
2.0
 40
2.0
 40
2.0
 40
3.0
 40
3.0
 40
3.0
 40
4.0
 40
4.0
 40
4.0
 40
5.0
 40
5.0
 40
5.0
 40
6.0
 40
6.0
 40
6.0
 40
7.0
 40
7.0
 40
7.0
 40
8.0
 40
8.0
 40
8.0
 40
9.0
 40
9.0
 40
9.0
 40
9.0
 10
85.43595646735629
 20
-131.0211154186336
 30
0.0
 10
85.26266816444823
 20
-131.0211154186336
 30
0.0
 10
85.01703285634991
 20
-130.9511799802831
 30
0.0
 10
84.97913680601216
 20
-130.6190727755049
 30
0.0
 10
84.97913680601216
 20
-130.6190727755049
 30
0.0
 10
85.19273272609766
 20
-130.6190727755049
 30
0.0
 10
85.19273272609766
 20
-130.6190727755049
 30
0.0
 10
85.20341252210193
 20
-130.6783284178512
 30
0.0
 10
85.23510740056622
 20
-130.826467523717
 30
0.0
 10
85.43802352464745
 20
-130.826467523717
 30
0.0
 10
85.73016762179662
 20
-130.826467523717
 30
0.0
 10
85.76806367213437
 20
-130.4964273762301
 30
0.0
 10
85.7808105254298
 20
-130.2914441948577
 30
0.0
 10
85.6898600046192
 20
-130.3713704101155
 30
0.0
 10
85.6223361331083
 20
-130.4285589951706
 30
0.0
 10
85.44043509148712
 20
-130.4285589951706
 30
0.0
 10
85.26060110715707
 20
-130.4285589951706
 30
0.0
 10
84.95812172355214
 20
-130.323139073322
 30
0.0
 10
84.95812172355214
 20
-129.9166178060625
 30
0.0
 10
84.95812172355214
 20
-129.5972574545798
 30
0.0
 10
85.15690373305105
 20
-129.3771158530724
 30
0.0
 10
85.47419702724257
 20
-129.3771158530724
 30
0.0
 10
85.98820527364184
 20
-129.3771158530724
 30
0.0
 10
85.99888506964612
 20
-129.9317762261976
 30
0.0
 10
85.99888506964612
 20
-130.1453721462831
 30
0.0
 10
85.99888506964612
 20
-130.3758490342463
 30
0.0
 10
85.97959253492871
 20
-131.0211154186336
 30
0.0
 10
85.43595646735629
 20
-131.0211154186336
 30
0.0
  0
SPLINE
  5
E2
330
DD
100
AcDbEntity
  8
_U+30EC_U+30A4_U+30E4_U+30FC 1
370
     0
100
AcDbSpline
210
0.0
220
0.0
230
1.0
 70
    11
 71
     3
 72
    17
 73
    13
 74
     0
 42
0.0000000001
 43
0.0000000001
 12
1.0
 22
0.0
 32
0.0
 13
1.0
 23
0.0
 33
0.0
 40
0.0
 40
0.0
 40
0.0
 40
0.0
 40
1.0
 40
1.0
 40
1.0
 40
2.0
 40
2.0
 40
2.0
 40
3.0
 40
3.0
 40
3.0
 40
4.0
 40
4.0
 40
4.0
 40
4.0
 10
85.47626408453371
 20
-129.5700412002464
 30
0.0
 10
85.35775279984112
 20
-129.5700412002464
 30
0.0
 10
85.18205293009338
 20
-129.626885275753
 30
0.0
 10
85.18205293009338
 20
-129.9124836914802
 30
0.0
 10
85.18205293009338
 20
-130.1388264648611
 30
0.0
 10
85.32192380679453
 20
-130.2342556098025
 30
0.0
 10
85.45731605936484
 20
-130.2342556098025
 30
0.0
 10
85.71948782579236
 20
-130.2342556098025
 30
0.0
 10
85.75772838567863
 20
-130.0247938042993
 30
0.0
 10
85.75772838567863
 20
-129.9083495768979
 30
0.0
 10
85.75772838567863
 20
-129.7326497071502
 30
0.0
 10
85.66229924073721
 20
-129.5700412002464
 30
0.0
 10
85.47626408453371
 20
-129.5700412002464
 30
0.0
  0
HATCH
  5
E3
330
DD
100
AcDbEntity
  8
_U+30EC_U+30A4_U+30E4_U+30FC 1
 62
   179
420
  2234388
100
AcDbHatch
 10
0.0
 20
0.0
 30
0.0
210
0.0
220
0.0
230
1.0
  2
SOLID
 70
     1
 71
     0
 91
        2
 92
        1
 93
        1
 72
     4
 94
        3
 73
     0
 74
     1
 95
       32
 96
       28
 40
0.0
 40
0.0
 40
0.0
 40
0.0
 40
1.0
 40
1.0
 40
1.0
 40
2.0
 40
2.0
 40
2.0
 40
3.0
 40
3.0
 40
3.0
 40
4.0
 40
4.0
 40
4.0
 40
5.0
 40
5.0
 40
5.0
 40
6.0
 40
6.0
 40
6.0
 40
7.0
 40
7.0
 40
7.0
 40
8.0
 40
8.0
 40
8.0
 40
9.0
 40
9.0
 40
9.0
 40
9.0
 10
85.43595646735629
 20
-131.0211154186336
 10
85.26266816444823
 20
-131.0211154186336
 10
85.01703285634991
 20
-130.9511799802831
 10
84.97913680601216
 20
-130.6190727755049
 10
84.97913680601216
 20
-130.6190727755049
 10
85.19273272609766
 20
-130.6190727755049
 10
85.19273272609766
 20
-130.6190727755049
 10
85.20341252210193
 20
-130.6783284178512
 10
85.23510740056622
 20
-130.826467523717
 10
85.43802352464745
 20
-130.826467523717
 10
85.73016762179662
 20
-130.826467523717
 10
85.76806367213437
 20
-130.4964273762301
 10
85.7808105254298
 20
-130.2914441948577
 10
85.6898600046192
 20
-130.3713704101155
 10
85.6223361331083
 20
-130.4285589951706
 10
85.44043509148712
 20
-130.4285589951706
 10
85.26060110715707
 20
-130.4285589951706
 10
84.95812172355214
 20
-130.323139073322
 10
84.95812172355214
 20
-129.9166178060625
 10
84.95812172355214
 20
-129.5972574545798
 10
85.15690373305105
 20
-129.3771158530724
 10
85.47419702724257
 20
-129.3771158530724
 10
85.98820527364184
 20
-129.3771158530724
 10
85.99888506964612
 20
-129.9317762261976
 10
85.99888506964612
 20
-130.1453721462831
 10
85.99888506964612
 20
-130.3758490342463
 10
85.97959253492871
 20
-131.0211154186336
 10
85.43595646735629
 20
-131.0211154186336
 97
        0
 97
        0
 92
        1
 93
        1
 72
     4
 94
        3
 73
     0
 74
     1
 95
       17
 96
       13
 40
0.0
 40
0.0
 40
0.0
 40
0.0
 40
1.0
 40
1.0
 40
1.0
 40
2.0
 40
2.0
 40
2.0
 40
3.0
 40
3.0
 40
3.0
 40
4.0
 40
4.0
 40
4.0
 40
4.0
 10
85.47626408453371
 20
-129.5700412002464
 10
85.35775279984112
 20
-129.5700412002464
 10
85.18205293009338
 20
-129.626885275753
 10
85.18205293009338
 20
-129.9124836914802
 10
85.18205293009338
 20
-130.1388264648611
 10
85.32192380679453
 20
-130.2342556098025
 10
85.45731605936484
 20
-130.2342556098025
 10
85.71948782579236
 20
-130.2342556098025
 10
85.75772838567863
 20
-130.0247938042993
 10
85.75772838567863
 20
-129.9083495768979
 10
85.75772838567863
 20
-129.7326497071502
 10
85.66229924073721
 20
-129.5700412002464
 10
85.47626408453371
 20
-129.5700412002464
 97
        0
 97
        0
 75
     2
 76
     1
 98
        0
  0
ENDBLK
  5
E0
330
DD
100
AcDbEntity
  8
0
100
AcDbBlockEnd
  0
BLOCK
  5
EF
330
ED
100
AcDbEntity
  8
0
100
AcDbBlockBegin
  2
block 7
 70
     0
 10
0.0
 20
0.0
 30
0.0
  3
block 7
  1

  0
SPLINE
  5
F1
330
ED
100
AcDbEntity
  8
_U+30EC_U+30A4_U+30E4_U+30FC 1
370
     0
100
AcDbSpline
210
0.0
220
0.0
230
1.0
 70
    11
 71
     3
 72
    53
 73
    49
 74
     0
 42
0.0000000001
 43
0.0000000001
 12
1.0
 22
0.0
 32
0.0
 13
1.0
 23
0.0
 33
0.0
 40
0.0
 40
0.0
 40
0.0
 40
0.0
 40
1.0
 40
1.0
 40
1.0
 40
2.0
 40
2.0
 40
2.0
 40
3.0
 40
3.0
 40
3.0
 40
4.0
 40
4.0
 40
4.0
 40
5.0
 40
5.0
 40
5.0
 40
6.0
 40
6.0
 40
6.0
 40
7.0
 40
7.0
 40
7.0
 40
8.0
 40
8.0
 40
8.0
 40
9.0
 40
9.0
 40
9.0
 40
10.0
 40
10.0
 40
10.0
 40
11.0
 40
11.0
 40
11.0
 40
12.0
 40
12.0
 40
12.0
 40
13.0
 40
13.0
 40
13.0
 40
14.0
 40
14.0
 40
14.0
 40
15.0
 40
15.0
 40
15.0
 40
16.0
 40
16.0
 40
16.0
 40
16.0
 10
99.85471460177244
 20
-142.8805121170577
 30
0.0
 10
99.77651093425726
 20
-142.8805121170577
 30
0.0
 10
99.6748806174424
 20
-142.8632866396314
 30
0.0
 10
99.57325030062752
 20
-142.7998968827028
 30
0.0
 10
99.39996199771946
 20
-142.6899983367233
 30
0.0
 10
99.37860240571091
 20
-142.5587401987353
 30
0.0
 10
99.35965438054204
 20
-142.4512532195955
 30
0.0
 10
99.35965438054204
 20
-142.4512532195955
 30
0.0
 10
99.58186303934065
 20
-142.4512532195955
 30
0.0
 10
99.58186303934065
 20
-142.4512532195955
 30
0.0
 10
99.63664005755612
 20
-142.6496907195459
 30
0.0
 10
99.76376408096183
 20
-142.6793185407191
 30
0.0
 10
99.85678165906359
 20
-142.6793185407191
 30
0.0
 10
99.99630802621621
 20
-142.6793185407191
 30
0.0
 10
100.1485812466642
 20
-142.5800997907439
 30
0.0
 10
100.1485812466642
 20
-142.347211335941
 30
0.0
 10
100.1485812466642
 20
-142.0915852509355
 30
0.0
 10
99.9687472623342
 20
-142.0216498125849
 30
0.0
 10
99.84816892035046
 20
-142.0216498125849
 30
0.0
 10
99.81647404188617
 20
-142.0216498125849
 30
0.0
 10
99.6748806174424
 20
-142.0216498125849
 30
0.0
 10
99.58599715392295
 20
-142.1508408932818
 30
0.0
 10
99.58599715392295
 20
-142.1508408932818
 30
0.0
 10
99.41029728417521
 20
-142.1315483585643
 30
0.0
 10
99.41029728417521
 20
-142.1315483585643
 30
0.0
 10
99.41029728417521
 20
-142.1315483585643
 30
0.0
 10
99.53087562615896
 20
-141.285432907387
 30
0.0
 10
99.53087562615896
 20
-141.285432907387
 30
0.0
 10
99.53087562615896
 20
-141.285432907387
 30
0.0
 10
100.3094672058254
 20
-141.285432907387
 30
0.0
 10
100.3094672058254
 20
-141.285432907387
 30
0.0
 10
100.3094672058254
 20
-141.285432907387
 30
0.0
 10
100.3094672058254
 20
-141.4800808023036
 30
0.0
 10
100.3094672058254
 20
-141.4800808023036
 30
0.0
 10
100.3094672058254
 20
-141.4800808023036
 30
0.0
 10
99.69382864261127
 20
-141.4800808023036
 30
0.0
 10
99.69382864261127
 20
-141.4800808023036
 30
0.0
 10
99.69382864261127
 20
-141.4800808023036
 30
0.0
 10
99.62837182839152
 20
-141.9031385278923
 30
0.0
 10
99.62837182839152
 20
-141.9031385278923
 30
0.0
 10
99.68969452802897
 20
-141.8690320825883
 30
0.0
 10
99.77203231012643
 20
-141.8290689749594
 30
0.0
 10
99.89054359481904
 20
-141.8290689749594
 30
0.0
 10
100.144447132082
 20
-141.8290689749594
 30
0.0
 10
100.3814697014671
 20
-142.0151041311629
 30
0.0
 10
100.3814697014671
 20
-142.3282633107721
 30
0.0
 10
100.3814697014671
 20
-142.6455566049636
 30
0.0
 10
100.1571939853774
 20
-142.8805121170577
 30
0.0
 10
99.85471460177244
 20
-142.8805121170577
 30
0.0
  0
HATCH
  5
F2
330
ED
100
AcDbEntity
  8
_U+30EC_U+30A4_U+30E4_U+30FC 1
 62
   179
420
  2234388
100
AcDbHatch
 10
0.0
 20
0.0
 30
0.0
210
0.0
220
0.0
230
1.0
  2
SOLID
 70
     1
 71
     0
 91
        1
 92
        1
 93
        1
 72
     4
 94
        3
 73
     0
 74
     1
 95
       53
 96
       49
 40
0.0
 40
0.0
 40
0.0
 40
0.0
 40
1.0
 40
1.0
 40
1.0
 40
2.0
 40
2.0
 40
2.0
 40
3.0
 40
3.0
 40
3.0
 40
4.0
 40
4.0
 40
4.0
 40
5.0
 40
5.0
 40
5.0
 40
6.0
 40
6.0
 40
6.0
 40
7.0
 40
7.0
 40
7.0
 40
8.0
 40
8.0
 40
8.0
 40
9.0
 40
9.0
 40
9.0
 40
10.0
 40
10.0
 40
10.0
 40
11.0
 40
11.0
 40
11.0
 40
12.0
 40
12.0
 40
12.0
 40
13.0
 40
13.0
 40
13.0
 40
14.0
 40
14.0
 40
14.0
 40
15.0
 40
15.0
 40
15.0
 40
16.0
 40
16.0
 40
16.0
 40
16.0
 10
99.85471460177244
 20
-142.8805121170577
 10
99.77651093425726
 20
-142.8805121170577
 10
99.6748806174424
 20
-142.8632866396314
 10
99.57325030062752
 20
-142.7998968827028
 10
99.39996199771946
 20
-142.6899983367233
 10
99.37860240571091
 20
-142.5587401987353
 10
99.35965438054204
 20
-142.4512532195955
 10
99.35965438054204
 20
-142.4512532195955
 10
99.58186303934065
 20
-142.4512532195955
 10
99.58186303934065
 20
-142.4512532195955
 10
99.63664005755612
 20
-142.6496907195459
 10
99.76376408096183
 20
-142.6793185407191
 10
99.85678165906359
 20
-142.6793185407191
 10
99.99630802621621
 20
-142.6793185407191
 10
100.1485812466642
 20
-142.5800997907439
 10
100.1485812466642
 20
-142.347211335941
 10
100.1485812466642
 20
-142.0915852509355
 10
99.9687472623342
 20
-142.0216498125849
 10
99.84816892035046
 20
-142.0216498125849
 10
99.81647404188617
 20
-142.0216498125849
 10
99.6748806174424
 20
-142.0216498125849
 10
99.58599715392295
 20
-142.1508408932818
 10
99.58599715392295
 20
-142.1508408932818
 10
99.41029728417521
 20
-142.1315483585643
 10
99.41029728417521
 20
-142.1315483585643
 10
99.41029728417521
 20
-142.1315483585643
 10
99.53087562615896
 20
-141.285432907387
 10
99.53087562615896
 20
-141.285432907387
 10
99.53087562615896
 20
-141.285432907387
 10
100.3094672058254
 20
-141.285432907387
 10
100.3094672058254
 20
-141.285432907387
 10
100.3094672058254
 20
-141.285432907387
 10
100.3094672058254
 20
-141.4800808023036
 10
100.3094672058254
 20
-141.4800808023036
 10
100.3094672058254
 20
-141.4800808023036
 10
99.69382864261127
 20
-141.4800808023036
 10
99.69382864261127
 20
-141.4800808023036
 10
99.69382864261127
 20
-141.4800808023036
 10
99.62837182839152
 20
-141.9031385278923
 10
99.62837182839152
 20
-141.9031385278923
 10
99.68969452802897
 20
-141.8690320825883
 10
99.77203231012643
 20
-141.8290689749594
 10
99.89054359481904
 20
-141.8290689749594
 10
100.144447132082
 20
-141.8290689749594
 10
100.3814697014671
 20
-142.0151041311629
 10
100.3814697014671
 20
-142.3282633107721
 10
100.3814697014671
 20
-142.6455566049636
 10
100.1571939853774
 20
-142.8805121170577
 10
99.85471460177244
 20
-142.8805121170577
 97
        0
 97
        0
 75
     2
 76
     1
 98
        0
  0
ENDBLK
  5
F0
330
ED
100
AcDbEntity
  8
0
100
AcDbBlockEnd
  0
BLOCK
  5
F5
330
F3
100
AcDbEntity
  8
0
100
AcDbBlockBegin
  2
block 8
 70
     0
 10
0.0
 20
0.0
 30
0.0
  3
block 8
  1

  0
SPLINE
  5
F7
330
F3
100
AcDbEntity
  8
_U+30EC_U+30A4_U+30E4_U+30FC 1
370
     0
100
AcDbSpline
210
0.0
220
0.0
230
1.0
 70
    11
 71
     3
 72
    26
 73
    22
 74
     0
 42
0.0000000001
 43
0.0000000001
 12
1.0
 22
0.0
 32
0.0
 13
1.0
 23
0.0
 33
0.0
 40
0.0
 40
0.0
 40
0.0
 40
0.0
 40
1.0
 40
1.0
 40
1.0
 40
2.0
 40
2.0
 40
2.0
 40
3.0
 40
3.0
 40
3.0
 40
4.0
 40
4.0
 40
4.0
 40
5.0
 40
5.0
 40
5.0
 40
6.0
 40
6.0
 40
6.0
 40
7.0
 40
7.0
 40
7.0
 40
7.0
 10
87.56399194859512
 20
-142.829524703876
 30
0.0
 10
87.56399194859512
 20
-142.829524703876
 30
0.0
 10
87.56399194859512
 20
-141.7253716008534
 30
0.0
 10
87.56399194859512
 20
-141.7253716008534
 30
0.0
 10
87.56399194859512
 20
-141.7253716008534
 30
0.0
 10
87.23395180110818
 20
-141.7253716008534
 30
0.0
 10
87.23395180110818
 20
-141.7253716008534
 30
0.0
 10
87.23395180110818
 20
-141.7253716008534
 30
0.0
 10
87.23395180110818
 20
-141.5775770045362
 30
0.0
 10
87.23395180110818
 20
-141.5775770045362
 30
0.0
 10
87.56605900588627
 20
-141.5624185844011
 30
0.0
 10
87.61256779493714
 20
-141.3998100774973
 30
0.0
 10
87.64219561611029
 20
-141.285432907387
 30
0.0
 10
87.64219561611029
 20
-141.285432907387
 30
0.0
 10
87.78826766468488
 20
-141.285432907387
 30
0.0
 10
87.78826766468488
 20
-141.285432907387
 30
0.0
 10
87.78826766468488
 20
-141.285432907387
 30
0.0
 10
87.78826766468488
 20
-142.829524703876
 30
0.0
 10
87.78826766468488
 20
-142.829524703876
 30
0.0
 10
87.78826766468488
 20
-142.829524703876
 30
0.0
 10
87.56399194859512
 20
-142.829524703876
 30
0.0
 10
87.56399194859512
 20
-142.829524703876
 30
0.0
  0
HATCH
  5
F8
330
F3
100
AcDbEntity
  8
_U+30EC_U+30A4_U+30E4_U+30FC 1
 62
   179
420
  2234388
100
AcDbHatch
 10
0.0
 20
0.0
 30
0.0
210
0.0
220
0.0
230
1.0
  2
SOLID
 70
     1
 71
     0
 91
        1
 92
        1
 93
        1
 72
     4
 94
        3
 73
     0
 74
     1
 95
       26
 96
       22
 40
0.0
 40
0.0
 40
0.0
 40
0.0
 40
1.0
 40
1.0
 40
1.0
 40
2.0
 40
2.0
 40
2.0
 40
3.0
 40
3.0
 40
3.0
 40
4.0
 40
4.0
 40
4.0
 40
5.0
 40
5.0
 40
5.0
 40
6.0
 40
6.0
 40
6.0
 40
7.0
 40
7.0
 40
7.0
 40
7.0
 10
87.56399194859512
 20
-142.829524703876
 10
87.56399194859512
 20
-142.829524703876
 10
87.56399194859512
 20
-141.7253716008534
 10
87.56399194859512
 20
-141.7253716008534
 10
87.56399194859512
 20
-141.7253716008534
 10
87.23395180110818
 20
-141.7253716008534
 10
87.23395180110818
 20
-141.7253716008534
 10
87.23395180110818
 20
-141.7253716008534
 10
87.23395180110818
 20
-141.5775770045362
 10
87.23395180110818
 20
-141.5775770045362
 10
87.56605900588627
 20
-141.5624185844011
 10
87.61256779493714
 20
-141.3998100774973
 10
87.64219561611029
 20
-141.285432907387
 10
87.64219561611029
 20
-141.285432907387
 10
87.78826766468488
 20
-141.285432907387
 10
87.78826766468488
 20
-141.285432907387
 10
87.78826766468488
 20
-141.285432907387
 10
87.78826766468488
 20
-142.829524703876
 10
87.78826766468488
 20
-142.829524703876
 10
87.78826766468488
 20
-142.829524703876
 10
87.56399194859512
 20
-142.829524703876
 10
87.56399194859512
 20
-142.829524703876
 97
        0
 97
        0
 75
     2
 76
     1
 98
        0
  0
SPLINE
  5
F9
330
F3
100
AcDbEntity
  8
_U+30EC_U+30A4_U+30E4_U+30FC 1
370
     0
100
AcDbSpline
210
0.0
220
0.0
230
1.0
 70
    11
 71
     3
 72
    26
 73
    22
 74
     0
 42
0.0000000001
 43
0.0000000001
 12
1.0
 22
0.0
 32
0.0
 13
1.0
 23
0.0
 33
0.0
 40
0.0
 40
0.0
 40
0.0
 40
0.0
 40
1.0
 40
1.0
 40
1.0
 40
2.0
 40
2.0
 40
2.0
 40
3.0
 40
3.0
 40
3.0
 40
4.0
 40
4.0
 40
4.0
 40
5.0
 40
5.0
 40
5.0
 40
6.0
 40
6.0
 40
6.0
 40
7.0
 40
7.0
 40
7.0
 40
7.0
 10
88.70052894917904
 20
-142.829524703876
 30
0.0
 10
88.70052894917904
 20
-142.829524703876
 30
0.0
 10
88.46350637979386
 20
-142.829524703876
 30
0.0
 10
88.46350637979386
 20
-142.829524703876
 30
0.0
 10
88.48900008638469
 20
-142.5208441483976
 30
0.0
 10
88.68158092401016
 20
-142.002701787416
 30
0.0
 10
89.08775768172111
 20
-141.4969617701813
 30
0.0
 10
89.08775768172111
 20
-141.4969617701813
 30
0.0
 10
88.24991045970836
 20
-141.4969617701813
 30
0.0
 10
88.24991045970836
 20
-141.4969617701813
 30
0.0
 10
88.24991045970836
 20
-141.4969617701813
 30
0.0
 10
88.24991045970836
 20
-141.285432907387
 30
0.0
 10
88.24991045970836
 20
-141.285432907387
 30
0.0
 10
88.24991045970836
 20
-141.285432907387
 30
0.0
 10
89.3247802511063
 20
-141.285432907387
 30
0.0
 10
89.3247802511063
 20
-141.285432907387
 30
0.0
 10
89.3247802511063
 20
-141.285432907387
 30
0.0
 10
89.3247802511063
 20
-141.4969617701813
 30
0.0
 10
89.3247802511063
 20
-141.4969617701813
 30
0.0
 10
89.00094127549282
 20
-141.7866943004908
 30
0.0
 10
88.73429088493448
 20
-142.3789062144053
 30
0.0
 10
88.70052894917904
 20
-142.829524703876
 30
0.0
  0
HATCH
  5
FA
330
F3
100
AcDbEntity
  8
_U+30EC_U+30A4_U+30E4_U+30FC 1
 62
   179
420
  2234388
100
AcDbHatch
 10
0.0
 20
0.0
 30
0.0
210
0.0
220
0.0
230
1.0
  2
SOLID
 70
     1
 71
     0
 91
        1
 92
        1
 93
        1
 72
     4
 94
        3
 73
     0
 74
     1
 95
       26
 96
       22
 40
0.0
 40
0.0
 40
0.0
 40
0.0
 40
1.0
 40
1.0
 40
1.0
 40
2.0
 40
2.0
 40
2.0
 40
3.0
 40
3.0
 40
3.0
 40
4.0
 40
4.0
 40
4.0
 40
5.0
 40
5.0
 40
5.0
 40
6.0
 40
6.0
 40
6.0
 40
7.0
 40
7.0
 40
7.0
 40
7.0
 10
88.70052894917904
 20
-142.829524703876
 10
88.70052894917904
 20
-142.829524703876
 10
88.46350637979386
 20
-142.829524703876
 10
88.46350637979386
 20
-142.829524703876
 10
88.48900008638469
 20
-142.5208441483976
 10
88.68158092401016
 20
-142.002701787416
 10
89.08775768172111
 20
-141.4969617701813
 10
89.08775768172111
 20
-141.4969617701813
 10
88.24991045970836
 20
-141.4969617701813
 10
88.24991045970836
 20
-141.4969617701813
 10
88.24991045970836
 20
-141.4969617701813
 10
88.24991045970836
 20
-141.285432907387
 10
88.24991045970836
 20
-141.285432907387
 10
88.24991045970836
 20
-141.285432907387
 10
89.3247802511063
 20
-141.285432907387
 10
89.3247802511063
 20
-141.285432907387
 10
89.3247802511063
 20
-141.285432907387
 10
89.3247802511063
 20
-141.4969617701813
 10
89.3247802511063
 20
-141.4969617701813
 10
89.00094127549282
 20
-141.7866943004908
 10
88.73429088493448
 20
-142.3789062144053
 10
88.70052894917904
 20
-142.829524703876
 97
        0
 97
        0
 75
     2
 76
     1
 98
        0
  0
POLYLINE
  5
FB
330
F3
100
AcDbEntity
  8
_U+30EC_U+30A4_U+30E4_U+30FC 1
370
     0
100
AcDb2dPolyline
 66
     1
 10
0.0
 20
0.0
 30
0.0
  0
VERTEX
  5
FC
330
FB
100
AcDbEntity
  8
_U+30EC_U+30A4_U+30E4_U+30FC 1
370
     0
100
AcDbVertex
100
AcDb2dVertex
 10
89.52631833699343
 20
-142.829524703876
 30
0.0
  0
VERTEX
  5
FD
330
FB
100
AcDbEntity
  8
_U+30EC_U+30A4_U+30E4_U+30FC 1
370
     0
100
AcDbVertex
100
AcDb2dVertex
 10
89.52631833699343
 20
-142.5780327334527
 30
0.0
  0
VERTEX
  5
FE
330
FB
100
AcDbEntity
  8
_U+30EC_U+30A4_U+30E4_U+30FC 1
370
     0
100
AcDbVertex
100
AcDb2dVertex
 10
89.77815481696518
 20
-142.5780327334527
 30
0.0
  0
VERTEX
  5
FF
330
FB
100
AcDbEntity
  8
_U+30EC_U+30A4_U+30E4_U+30FC 1
370
     0
100
AcDbVertex
100
AcDb2dVertex
 10
89.77815481696518
 20
-142.829524703876
 30
0.0
  0
VERTEX
  5
100
330
FB
100
AcDbEntity
  8
_U+30EC_U+30A4_U+30E4_U+30FC 1
370
     0
100
AcDbVertex
100
AcDb2dVertex
 10
89.52631833699343
 20
-142.829524703876
 30
0.0
  0
SEQEND
  5
101
330
FB
100
AcDbEntity
  8
_U+30EC_U+30A4_U+30E4_U+30FC 1
370
     0
  0
HATCH
  5
102
330
F3
100
AcDbEntity
  8
_U+30EC_U+30A4_U+30E4_U+30FC 1
 62
   179
420
  2234388
100
AcDbHatch
 10
0.0
 20
0.0
 30
0.0
210
0.0
220
0.0
230
1.0
  2
SOLID
 70
     1
 71
     0
 91
        1
 92
        1
 93
        4
 72
     1
 10
89.52631833699343
 20
-142.829524703876
 11
89.52631833699343
 21
-142.5780327334527
 72
     1
 10
89.52631833699343
 20
-142.5780327334527
 11
89.77815481696518
 21
-142.5780327334527
 72
     1
 10
89.77815481696518
 20
-142.5780327334527
 11
89.77815481696518
 21
-142.829524703876
 72
     1
 10
89.77815481696518
 20
-142.829524703876
 11
89.52631833699343
 21
-142.829524703876
 97
        0
 75
     2
 76
     1
 98
        0
  0
SPLINE
  5
103
330
F3
100
AcDbEntity
  8
_U+30EC_U+30A4_U+30E4_U+30FC 1
370
     0
100
AcDbSpline
210
0.0
220
0.0
230
1.0
 70
    11
 71
     3
 72
    53
 73
    49
 74
     0
 42
0.0000000001
 43
0.0000000001
 12
1.0
 22
0.0
 32
0.0
 13
1.0
 23
0.0
 33
0.0
 40
0.0
 40
0.0
 40
0.0
 40
0.0
 40
1.0
 40
1.0
 40
1.0
 40
2.0
 40
2.0
 40
2.0
 40
3.0
 40
3.0
 40
3.0
 40
4.0
 40
4.0
 40
4.0
 40
5.0
 40
5.0
 40
5.0
 40
6.0
 40
6.0
 40
6.0
 40
7.0
 40
7.0
 40
7.0
 40
8.0
 40
8.0
 40
8.0
 40
9.0
 40
9.0
 40
9.0
 40
10.0
 40
10.0
 40
10.0
 40
11.0
 40
11.0
 40
11.0
 40
12.0
 40
12.0
 40
12.0
 40
13.0
 40
13.0
 40
13.0
 40
14.0
 40
14.0
 40
14.0
 40
15.0
 40
15.0
 40
15.0
 40
16.0
 40
16.0
 40
16.0
 40
16.0
 10
90.49542369699421
 20
-142.8805121170577
 30
0.0
 10
90.41722002947903
 20
-142.8805121170577
 30
0.0
 10
90.31558971266416
 20
-142.8632866396314
 30
0.0
 10
90.21395939584929
 20
-142.7998968827028
 30
0.0
 10
90.04067109294122
 20
-142.6899983367233
 30
0.0
 10
90.01931150093267
 20
-142.5587401987353
 30
0.0
 10
90.0003634757638
 20
-142.4512532195955
 30
0.0
 10
90.0003634757638
 20
-142.4512532195955
 30
0.0
 10
90.22257213456241
 20
-142.4512532195955
 30
0.0
 10
90.22257213456241
 20
-142.4512532195955
 30
0.0
 10
90.27734915277789
 20
-142.6496907195459
 30
0.0
 10
90.40447317618361
 20
-142.6793185407191
 30
0.0
 10
90.49749075428535
 20
-142.6793185407191
 30
0.0
 10
90.63701712143798
 20
-142.6793185407191
 30
0.0
 10
90.78929034188602
 20
-142.5800997907439
 30
0.0
 10
90.78929034188602
 20
-142.347211335941
 30
0.0
 10
90.78929034188602
 20
-142.0915852509355
 30
0.0
 10
90.60945635755597
 20
-142.0216498125849
 30
0.0
 10
90.48887801557223
 20
-142.0216498125849
 30
0.0
 10
90.45718313710793
 20
-142.0216498125849
 30
0.0
 10
90.31558971266416
 20
-142.0216498125849
 30
0.0
 10
90.22670624914471
 20
-142.1508408932818
 30
0.0
 10
90.22670624914471
 20
-142.1508408932818
 30
0.0
 10
90.05100637939698
 20
-142.1315483585643
 30
0.0
 10
90.05100637939698
 20
-142.1315483585643
 30
0.0
 10
90.05100637939698
 20
-142.1315483585643
 30
0.0
 10
90.17158472138073
 20
-141.285432907387
 30
0.0
 10
90.17158472138073
 20
-141.285432907387
 30
0.0
 10
90.17158472138073
 20
-141.285432907387
 30
0.0
 10
90.95017630104718
 20
-141.285432907387
 30
0.0
 10
90.95017630104718
 20
-141.285432907387
 30
0.0
 10
90.95017630104718
 20
-141.285432907387
 30
0.0
 10
90.95017630104718
 20
-141.4800808023036
 30
0.0
 10
90.95017630104718
 20
-141.4800808023036
 30
0.0
 10
90.95017630104718
 20
-141.4800808023036
 30
0.0
 10
90.33453773783303
 20
-141.4800808023036
 30
0.0
 10
90.33453773783303
 20
-141.4800808023036
 30
0.0
 10
90.33453773783303
 20
-141.4800808023036
 30
0.0
 10
90.26908092361329
 20
-141.9031385278923
 30
0.0
 10
90.26908092361329
 20
-141.9031385278923
 30
0.0
 10
90.33040362325073
 20
-141.8690320825883
 30
0.0
 10
90.41274140534821
 20
-141.8290689749594
 30
0.0
 10
90.5312526900408
 20
-141.8290689749594
 30
0.0
 10
90.78515622730372
 20
-141.8290689749594
 30
0.0
 10
91.0221787966889
 20
-142.0151041311629
 30
0.0
 10
91.0221787966889
 20
-142.3282633107721
 30
0.0
 10
91.0221787966889
 20
-142.6455566049636
 30
0.0
 10
90.79790308059914
 20
-142.8805121170577
 30
0.0
 10
90.49542369699421
 20
-142.8805121170577
 30
0.0
  0
HATCH
  5
104
330
F3
100
AcDbEntity
  8
_U+30EC_U+30A4_U+30E4_U+30FC 1
 62
   179
420
  2234388
100
AcDbHatch
 10
0.0
 20
0.0
 30
0.0
210
0.0
220
0.0
230
1.0
  2
SOLID
 70
     1
 71
     0
 91
        1
 92
        1
 93
        1
 72
     4
 94
        3
 73
     0
 74
     1
 95
       53
 96
       49
 40
0.0
 40
0.0
 40
0.0
 40
0.0
 40
1.0
 40
1.0
 40
1.0
 40
2.0
 40
2.0
 40
2.0
 40
3.0
 40
3.0
 40
3.0
 40
4.0
 40
4.0
 40
4.0
 40
5.0
 40
5.0
 40
5.0
 40
6.0
 40
6.0
 40
6.0
 40
7.0
 40
7.0
 40
7.0
 40
8.0
 40
8.0
 40
8.0
 40
9.0
 40
9.0
 40
9.0
 40
10.0
 40
10.0
 40
10.0
 40
11.0
 40
11.0
 40
11.0
 40
12.0
 40
12.0
 40
12.0
 40
13.0
 40
13.0
 40
13.0
 40
14.0
 40
14.0
 40
14.0
 40
15.0
 40
15.0
 40
15.0
 40
16.0
 40
16.0
 40
16.0
 40
16.0
 10
90.49542369699421
 20
-142.8805121170577
 10
90.41722002947903
 20
-142.8805121170577
 10
90.31558971266416
 20
-142.8632866396314
 10
90.21395939584929
 20
-142.7998968827028
 10
90.04067109294122
 20
-142.6899983367233
 10
90.01931150093267
 20
-142.5587401987353
 10
90.0003634757638
 20
-142.4512532195955
 10
90.0003634757638
 20
-142.4512532195955
 10
90.22257213456241
 20
-142.4512532195955
 10
90.22257213456241
 20
-142.4512532195955
 10
90.27734915277789
 20
-142.6496907195459
 10
90.40447317618361
 20
-142.6793185407191
 10
90.49749075428535
 20
-142.6793185407191
 10
90.63701712143798
 20
-142.6793185407191
 10
90.78929034188602
 20
-142.5800997907439
 10
90.78929034188602
 20
-142.347211335941
 10
90.78929034188602
 20
-142.0915852509355
 10
90.60945635755597
 20
-142.0216498125849
 10
90.48887801557223
 20
-142.0216498125849
 10
90.45718313710793
 20
-142.0216498125849
 10
90.31558971266416
 20
-142.0216498125849
 10
90.22670624914471
 20
-142.1508408932818
 10
90.22670624914471
 20
-142.1508408932818
 10
90.05100637939698
 20
-142.1315483585643
 10
90.05100637939698
 20
-142.1315483585643
 10
90.05100637939698
 20
-142.1315483585643
 10
90.17158472138073
 20
-141.285432907387
 10
90.17158472138073
 20
-141.285432907387
 10
90.17158472138073
 20
-141.285432907387
 10
90.95017630104718
 20
-141.285432907387
 10
90.95017630104718
 20
-141.285432907387
 10
90.95017630104718
 20
-141.285432907387
 10
90.95017630104718
 20
-141.4800808023036
 10
90.95017630104718
 20
-141.4800808023036
 10
90.95017630104718
 20
-141.4800808023036
 10
90.33453773783303
 20
-141.4800808023036
 10
90.33453773783303
 20
-141.4800808023036
 10
90.33453773783303
 20
-141.4800808023036
 10
90.26908092361329
 20
-141.9031385278923
 10
90.26908092361329
 20
-141.9031385278923
 10
90.33040362325073
 20
-141.8690320825883
 10
90.41274140534821
 20
-141.8290689749594
 10
90.5312526900408
 20
-141.8290689749594
 10
90.78515622730372
 20
-141.8290689749594
 10
91.0221787966889
 20
-142.0151041311629
 10
91.0221787966889
 20
-142.3282633107721
 10
91.0221787966889
 20
-142.6455566049636
 10
90.79790308059914
 20
-142.8805121170577
 10
90.49542369699421
 20
-142.8805121170577
 97
        0
 97
        0
 75
     2
 76
     1
 98
        0
  0
ENDBLK
  5
F6
330
F3
100
AcDbEntity
  8
0
100
AcDbBlockEnd
  0
BLOCK
  5
11F
330
11D
100
AcDbEntity
  8
0
100
AcDbBlockBegin
  2
block 9
 70
     0
 10
0.0
 20
0.0
 30
0.0
  3
block 9
  1

  0
SPLINE
  5
121
330
11D
100
AcDbEntity
  8
_U+30EC_U+30A4_U+30E4_U+30FC 1
370
     0
100
AcDbSpline
210
0.0
220
0.0
230
1.0
 70
    11
 71
     3
 72
    53
 73
    49
 74
     0
 42
0.0000000001
 43
0.0000000001
 12
1.0
 22
0.0
 32
0.0
 13
1.0
 23
0.0
 33
0.0
 40
0.0
 40
0.0
 40
0.0
 40
0.0
 40
1.0
 40
1.0
 40
1.0
 40
2.0
 40
2.0
 40
2.0
 40
3.0
 40
3.0
 40
3.0
 40
4.0
 40
4.0
 40
4.0
 40
5.0
 40
5.0
 40
5.0
 40
6.0
 40
6.0
 40
6.0
 40
7.0
 40
7.0
 40
7.0
 40
8.0
 40
8.0
 40
8.0
 40
9.0
 40
9.0
 40
9.0
 40
10.0
 40
10.0
 40
10.0
 40
11.0
 40
11.0
 40
11.0
 40
12.0
 40
12.0
 40
12.0
 40
13.0
 40
13.0
 40
13.0
 40
14.0
 40
14.0
 40
14.0
 40
15.0
 40
15.0
 40
15.0
 40
16.0
 40
16.0
 40
16.0
 40
16.0
 10
88.98440481716362
 20
-123.4388047651473
 30
0.0
 10
88.90620114964845
 20
-123.4388047651473
 30
0.0
 10
88.80457083283359
 20
-123.4217515424953
 30
0.0
 10
88.70294051601871
 20
-123.3583617855667
 30
0.0
 10
88.52965221311065
 20
-123.2482909848129
 30
0.0
 10
88.5082926211021
 20
-123.1172051015992
 30
0.0
 10
88.48934459593322
 20
-123.0093736129109
 30
0.0
 10
88.48934459593322
 20
-123.0093736129109
 30
0.0
 10
88.71155325473184
 20
-123.0093736129109
 30
0.0
 10
88.71155325473184
 20
-123.0093736129109
 30
0.0
 10
88.76633027294731
 20
-123.2081556224098
 30
0.0
 10
88.89345429635303
 20
-123.2377834435829
 30
0.0
 10
88.98647187445478
 20
-123.2377834435829
 30
0.0
 10
89.12599824160739
 20
-123.2377834435829
 30
0.0
 10
89.27827146205544
 20
-123.1383924388335
 30
0.0
 10
89.27827146205544
 20
-122.9056762388048
 30
0.0
 10
89.27827146205544
 20
-122.6497056442508
 30
0.0
 10
89.0984374777254
 20
-122.5799424606745
 30
0.0
 10
88.97785913574165
 20
-122.5799424606745
 30
0.0
 10
88.94616425727735
 20
-122.5799424606745
 30
0.0
 10
88.80457083283359
 20
-122.5799424606745
 30
0.0
 10
88.71568736931414
 20
-122.7089612865971
 30
0.0
 10
88.71568736931414
 20
-122.7089612865971
 30
0.0
 10
88.5399874995664
 20
-122.6898410066539
 30
0.0
 10
88.5399874995664
 20
-122.6898410066539
 30
0.0
 10
88.5399874995664
 20
-122.6898410066539
 30
0.0
 10
88.66056584155014
 20
-121.8437255554766
 30
0.0
 10
88.66056584155014
 20
-121.8437255554766
 30
0.0
 10
88.66056584155014
 20
-121.8437255554766
 30
0.0
 10
89.4391574212166
 20
-121.8437255554766
 30
0.0
 10
89.4391574212166
 20
-121.8437255554766
 30
0.0
 10
89.4391574212166
 20
-121.8437255554766
 30
0.0
 10
89.4391574212166
 20
-122.0383734503932
 30
0.0
 10
89.4391574212166
 20
-122.0383734503932
 30
0.0
 10
89.4391574212166
 20
-122.0383734503932
 30
0.0
 10
88.82351885800246
 20
-122.0383734503932
 30
0.0
 10
88.82351885800246
 20
-122.0383734503932
 30
0.0
 10
88.82351885800246
 20
-122.0383734503932
 30
0.0
 10
88.75806204378272
 20
-122.4614311759819
 30
0.0
 10
88.75806204378272
 20
-122.4614311759819
 30
0.0
 10
88.81938474342016
 20
-122.4274969854522
 30
0.0
 10
88.90172252551763
 20
-122.387361623049
 30
0.0
 10
89.02023381021023
 20
-122.387361623049
 30
0.0
 10
89.27413734747314
 20
-122.387361623049
 30
0.0
 10
89.51115991685832
 20
-122.5735690340267
 30
0.0
 10
89.51115991685832
 20
-122.8865559588617
 30
0.0
 10
89.51115991685832
 20
-123.2040215078275
 30
0.0
 10
89.28688420076855
 20
-123.4388047651473
 30
0.0
 10
88.98440481716362
 20
-123.4388047651473
 30
0.0
  0
HATCH
  5
122
330
11D
100
AcDbEntity
  8
_U+30EC_U+30A4_U+30E4_U+30FC 1
 62
   179
420
  2234388
100
AcDbHatch
 10
0.0
 20
0.0
 30
0.0
210
0.0
220
0.0
230
1.0
  2
SOLID
 70
     1
 71
     0
 91
        1
 92
        1
 93
        1
 72
     4
 94
        3
 73
     0
 74
     1
 95
       53
 96
       49
 40
0.0
 40
0.0
 40
0.0
 40
0.0
 40
1.0
 40
1.0
 40
1.0
 40
2.0
 40
2.0
 40
2.0
 40
3.0
 40
3.0
 40
3.0
 40
4.0
 40
4.0
 40
4.0
 40
5.0
 40
5.0
 40
5.0
 40
6.0
 40
6.0
 40
6.0
 40
7.0
 40
7.0
 40
7.0
 40
8.0
 40
8.0
 40
8.0
 40
9.0
 40
9.0
 40
9.0
 40
10.0
 40
10.0
 40
10.0
 40
11.0
 40
11.0
 40
11.0
 40
12.0
 40
12.0
 40
12.0
 40
13.0
 40
13.0
 40
13.0
 40
14.0
 40
14.0
 40
14.0
 40
15.0
 40
15.0
 40
15.0
 40
16.0
 40
16.0
 40
16.0
 40
16.0
 10
88.98440481716362
 20
-123.4388047651473
 10
88.90620114964845
 20
-123.4388047651473
 10
88.80457083283359
 20
-123.4217515424953
 10
88.70294051601871
 20
-123.3583617855667
 10
88.52965221311065
 20
-123.2482909848129
 10
88.5082926211021
 20
-123.1172051015992
 10
88.48934459593322
 20
-123.0093736129109
 10
88.48934459593322
 20
-123.0093736129109
 10
88.71155325473184
 20
-123.0093736129109
 10
88.71155325473184
 20
-123.0093736129109
 10
88.76633027294731
 20
-123.2081556224098
 10
88.89345429635303
 20
-123.2377834435829
 10
88.98647187445478
 20
-123.2377834435829
 10
89.12599824160739
 20
-123.2377834435829
 10
89.27827146205544
 20
-123.1383924388335
 10
89.27827146205544
 20
-122.9056762388048
 10
89.27827146205544
 20
-122.6497056442508
 10
89.0984374777254
 20
-122.5799424606745
 10
88.97785913574165
 20
-122.5799424606745
 10
88.94616425727735
 20
-122.5799424606745
 10
88.80457083283359
 20
-122.5799424606745
 10
88.71568736931414
 20
-122.7089612865971
 10
88.71568736931414
 20
-122.7089612865971
 10
88.5399874995664
 20
-122.6898410066539
 10
88.5399874995664
 20
-122.6898410066539
 10
88.5399874995664
 20
-122.6898410066539
 10
88.66056584155014
 20
-121.8437255554766
 10
88.66056584155014
 20
-121.8437255554766
 10
88.66056584155014
 20
-121.8437255554766
 10
89.4391574212166
 20
-121.8437255554766
 10
89.4391574212166
 20
-121.8437255554766
 10
89.4391574212166
 20
-121.8437255554766
 10
89.4391574212166
 20
-122.0383734503932
 10
89.4391574212166
 20
-122.0383734503932
 10
89.4391574212166
 20
-122.0383734503932
 10
88.82351885800246
 20
-122.0383734503932
 10
88.82351885800246
 20
-122.0383734503932
 10
88.82351885800246
 20
-122.0383734503932
 10
88.75806204378272
 20
-122.4614311759819
 10
88.75806204378272
 20
-122.4614311759819
 10
88.81938474342016
 20
-122.4274969854522
 10
88.90172252551763
 20
-122.387361623049
 10
89.02023381021023
 20
-122.387361623049
 10
89.27413734747314
 20
-122.387361623049
 10
89.51115991685832
 20
-122.5735690340267
 10
89.51115991685832
 20
-122.8865559588617
 10
89.51115991685832
 20
-123.2040215078275
 10
89.28688420076855
 20
-123.4388047651473
 10
88.98440481716362
 20
-123.4388047651473
 97
        0
 97
        0
 75
     2
 76
     1
 98
        0
  0
POLYLINE
  5
123
330
11D
100
AcDbEntity
  8
_U+30EC_U+30A4_U+30E4_U+30FC 1
370
     0
100
AcDb2dPolyline
 66
     1
 10
0.0
 20
0.0
 30
0.0
  0
VERTEX
  5
124
330
123
100
AcDbEntity
  8
_U+30EC_U+30A4_U+30E4_U+30FC 1
370
     0
100
AcDbVertex
100
AcDb2dVertex
 10
89.74025876662743
 20
-123.3879896067398
 30
0.0
  0
VERTEX
  5
125
330
123
100
AcDbEntity
  8
_U+30EC_U+30A4_U+30E4_U+30FC 1
370
     0
100
AcDbVertex
100
AcDb2dVertex
 10
89.74025876662743
 20
-123.1363253815423
 30
0.0
  0
VERTEX
  5
126
330
123
100
AcDbEntity
  8
_U+30EC_U+30A4_U+30E4_U+30FC 1
370
     0
100
AcDbVertex
100
AcDb2dVertex
 10
89.9920952465992
 20
-123.1363253815423
 30
0.0
  0
VERTEX
  5
127
330
123
100
AcDbEntity
  8
_U+30EC_U+30A4_U+30E4_U+30FC 1
370
     0
100
AcDbVertex
100
AcDb2dVertex
 10
89.9920952465992
 20
-123.3879896067398
 30
0.0
  0
VERTEX
  5
128
330
123
100
AcDbEntity
  8
_U+30EC_U+30A4_U+30E4_U+30FC 1
370
     0
100
AcDbVertex
100
AcDb2dVertex
 10
89.74025876662743
 20
-123.3879896067398
 30
0.0
  0
SEQEND
  5
129
330
123
100
AcDbEntity
  8
_U+30EC_U+30A4_U+30E4_U+30FC 1
370
     0
  0
HATCH
  5
12A
330
11D
100
AcDbEntity
  8
_U+30EC_U+30A4_U+30E4_U+30FC 1
 62
   179
420
  2234388
100
AcDbHatch
 10
0.0
 20
0.0
 30
0.0
210
0.0
220
0.0
230
1.0
  2
SOLID
 70
     1
 71
     0
 91
        1
 92
        1
 93
        4
 72
     1
 10
89.74025876662743
 20
-123.3879896067398
 11
89.74025876662743
 21
-123.1363253815423
 72
     1
 10
89.74025876662743
 20
-123.1363253815423
 11
89.9920952465992
 21
-123.1363253815423
 72
     1
 10
89.9920952465992
 20
-123.1363253815423
 11
89.9920952465992
 21
-123.3879896067398
 72
     1
 10
89.9920952465992
 20
-123.3879896067398
 11
89.74025876662743
 21
-123.3879896067398
 97
        0
 75
     2
 76
     1
 98
        0
  0
SPLINE
  5
12B
330
11D
100
AcDbEntity
  8
_U+30EC_U+30A4_U+30E4_U+30FC 1
370
     0
100
AcDbSpline
210
0.0
220
0.0
230
1.0
 70
    11
 71
     3
 72
    44
 73
    40
 74
     0
 42
0.0000000001
 43
0.0000000001
 12
1.0
 22
0.0
 32
0.0
 13
1.0
 23
0.0
 33
0.0
 40
0.0
 40
0.0
 40
0.0
 40
0.0
 40
1.0
 40
1.0
 40
1.0
 40
2.0
 40
2.0
 40
2.0
 40
3.0
 40
3.0
 40
3.0
 40
4.0
 40
4.0
 40
4.0
 40
5.0
 40
5.0
 40
5.0
 40
6.0
 40
6.0
 40
6.0
 40
7.0
 40
7.0
 40
7.0
 40
8.0
 40
8.0
 40
8.0
 40
9.0
 40
9.0
 40
9.0
 40
10.0
 40
10.0
 40
10.0
 40
11.0
 40
11.0
 40
11.0
 40
12.0
 40
12.0
 40
12.0
 40
13.0
 40
13.0
 40
13.0
 40
13.0
 10
90.82132972989884
 20
-122.8062852340554
 30
0.0
 10
90.60359969523105
 20
-122.9649318811511
 30
0.0
 10
90.5105821171293
 20
-123.039001434084
 30
0.0
 10
90.46166176123876
 20
-123.1828341705932
 30
0.0
 10
90.46166176123876
 20
-123.1828341705932
 30
0.0
 10
91.24025334090521
 20
-123.1828341705932
 30
0.0
 10
91.24025334090521
 20
-123.1828341705932
 30
0.0
 10
91.24025334090521
 20
-123.1828341705932
 30
0.0
 10
91.24025334090521
 20
-123.3879896067398
 30
0.0
 10
91.24025334090521
 20
-123.3879896067398
 30
0.0
 10
91.24025334090521
 20
-123.3879896067398
 30
0.0
 10
90.21223684810667
 20
-123.3879896067398
 30
0.0
 10
90.21223684810667
 20
-123.3879896067398
 30
0.0
 10
90.24393172657096
 20
-123.0303886953709
 30
0.0
 10
90.3093885407907
 20
-122.9521850278557
 30
0.0
 10
90.69455021604165
 20
-122.6538397588331
 30
0.0
 10
90.9505208105957
 20
-122.4550577493342
 30
0.0
 10
91.01597762481545
 20
-122.387361623049
 30
0.0
 10
91.01597762481545
 20
-122.2499023131875
 30
0.0
 10
91.01597762481545
 20
-122.1313910284949
 30
0.0
 10
90.94397512917374
 20
-122.0003051452812
 30
0.0
 10
90.74726017696597
 20
-122.0003051452812
 30
0.0
 10
90.48715546782961
 20
-122.0003051452812
 30
0.0
 10
90.47854272911648
 20
-122.2307820332444
 30
0.0
 10
90.47440861453418
 20
-122.3472262606458
 30
0.0
 10
90.47440861453418
 20
-122.3472262606458
 30
0.0
 10
90.25013289844442
 20
-122.3472262606458
 30
0.0
 10
90.25013289844442
 20
-122.3472262606458
 30
0.0
 10
90.25874563715755
 20
-122.2202744920144
 30
0.0
 10
90.26942543316181
 20
-122.1081366339695
 30
0.0
 10
90.34969615796814
 20
-121.9896253492769
 30
0.0
 10
90.4595947039476
 20
-121.82891164489
 30
0.0
 10
90.64597436969962
 20
-121.7949774543603
 30
0.0
 10
90.76207408755253
 20
-121.7949774543603
 30
0.0
 10
91.03940427411516
 20
-121.7949774543603
 30
0.0
 10
91.2467990223272
 20
-121.9791178080469
 30
0.0
 10
91.2467990223272
 20
-122.2519693704787
 30
0.0
 10
91.2467990223272
 20
-122.4803792011507
 30
0.0
 10
91.13035479492575
 20
-122.5799424606745
 30
0.0
 10
90.82132972989884
 20
-122.8062852340554
 30
0.0
  0
HATCH
  5
12C
330
11D
100
AcDbEntity
  8
_U+30EC_U+30A4_U+30E4_U+30FC 1
 62
   179
420
  2234388
100
AcDbHatch
 10
0.0
 20
0.0
 30
0.0
210
0.0
220
0.0
230
1.0
  2
SOLID
 70
     1
 71
     0
 91
        1
 92
        1
 93
        1
 72
     4
 94
        3
 73
     0
 74
     1
 95
       44
 96
       40
 40
0.0
 40
0.0
 40
0.0
 40
0.0
 40
1.0
 40
1.0
 40
1.0
 40
2.0
 40
2.0
 40
2.0
 40
3.0
 40
3.0
 40
3.0
 40
4.0
 40
4.0
 40
4.0
 40
5.0
 40
5.0
 40
5.0
 40
6.0
 40
6.0
 40
6.0
 40
7.0
 40
7.0
 40
7.0
 40
8.0
 40
8.0
 40
8.0
 40
9.0
 40
9.0
 40
9.0
 40
10.0
 40
10.0
 40
10.0
 40
11.0
 40
11.0
 40
11.0
 40
12.0
 40
12.0
 40
12.0
 40
13.0
 40
13.0
 40
13.0
 40
13.0
 10
90.82132972989884
 20
-122.8062852340554
 10
90.60359969523105
 20
-122.9649318811511
 10
90.5105821171293
 20
-123.039001434084
 10
90.46166176123876
 20
-123.1828341705932
 10
90.46166176123876
 20
-123.1828341705932
 10
91.24025334090521
 20
-123.1828341705932
 10
91.24025334090521
 20
-123.1828341705932
 10
91.24025334090521
 20
-123.1828341705932
 10
91.24025334090521
 20
-123.3879896067398
 10
91.24025334090521
 20
-123.3879896067398
 10
91.24025334090521
 20
-123.3879896067398
 10
90.21223684810667
 20
-123.3879896067398
 10
90.21223684810667
 20
-123.3879896067398
 10
90.24393172657096
 20
-123.0303886953709
 10
90.3093885407907
 20
-122.9521850278557
 10
90.69455021604165
 20
-122.6538397588331
 10
90.9505208105957
 20
-122.4550577493342
 10
91.01597762481545
 20
-122.387361623049
 10
91.01597762481545
 20
-122.2499023131875
 10
91.01597762481545
 20
-122.1313910284949
 10
90.94397512917374
 20
-122.0003051452812
 10
90.74726017696597
 20
-122.0003051452812
 10
90.48715546782961
 20
-122.0003051452812
 10
90.47854272911648
 20
-122.2307820332444
 10
90.47440861453418
 20
-122.3472262606458
 10
90.47440861453418
 20
-122.3472262606458
 10
90.25013289844442
 20
-122.3472262606458
 10
90.25013289844442
 20
-122.3472262606458
 10
90.25874563715755
 20
-122.2202744920144
 10
90.26942543316181
 20
-122.1081366339695
 10
90.34969615796814
 20
-121.9896253492769
 10
90.4595947039476
 20
-121.82891164489
 10
90.64597436969962
 20
-121.7949774543603
 10
90.76207408755253
 20
-121.7949774543603
 10
91.03940427411516
 20
-121.7949774543603
 10
91.2467990223272
 20
-121.9791178080469
 10
91.2467990223272
 20
-122.2519693704787
 10
91.2467990223272
 20
-122.4803792011507
 10
91.13035479492575
 20
-122.5799424606745
 10
90.82132972989884
 20
-122.8062852340554
 97
        0
 97
        0
 75
     2
 76
     1
 98
        0
  0
ENDBLK
  5
120
330
11D
100
AcDbEntity
  8
0
100
AcDbBlockEnd
  0
BLOCK
  5
12F
330
12D
100
AcDbEntity
  8
0
100
AcDbBlockBegin
  2
block 10
 70
     0
 10
0.0
 20
0.0
 30
0.0
  3
block 10
  1

  0
SPLINE
  5
131
330
12D
100
AcDbEntity
  8
_U+30EC_U+30A4_U+30E4_U+30FC 1
370
     0
100
AcDbSpline
210
0.0
220
0.0
230
1.0
 70
    11
 71
     3
 72
    26
 73
    22
 74
     0
 42
0.0000000001
 43
0.0000000001
 12
1.0
 22
0.0
 32
0.0
 13
1.0
 23
0.0
 33
0.0
 40
0.0
 40
0.0
 40
0.0
 40
0.0
 40
1.0
 40
1.0
 40
1.0
 40
2.0
 40
2.0
 40
2.0
 40
3.0
 40
3.0
 40
3.0
 40
4.0
 40
4.0
 40
4.0
 40
5.0
 40
5.0
 40
5.0
 40
6.0
 40
6.0
 40
6.0
 40
7.0
 40
7.0
 40
7.0
 40
7.0
 10
82.51658255315559
 20
-133.5725531350097
 30
0.0
 10
82.51658255315559
 20
-133.5725531350097
 30
0.0
 10
82.51658255315559
 20
-132.4680555224386
 30
0.0
 10
82.51658255315559
 20
-132.4680555224386
 30
0.0
 10
82.51658255315559
 20
-132.4680555224386
 30
0.0
 10
82.18654240566865
 20
-132.4680555224386
 30
0.0
 10
82.18654240566865
 20
-132.4680555224386
 30
0.0
 10
82.18654240566865
 20
-132.4680555224386
 30
0.0
 10
82.18654240566865
 20
-132.3199164165728
 30
0.0
 10
82.18654240566865
 20
-132.3199164165728
 30
0.0
 10
82.51864961044673
 20
-132.3054470155348
 30
0.0
 10
82.5651583994976
 20
-132.1421494895339
 30
0.0
 10
82.59478622067076
 20
-132.0281168289721
 30
0.0
 10
82.59478622067076
 20
-132.0281168289721
 30
0.0
 10
82.74085826924535
 20
-132.0281168289721
 30
0.0
 10
82.74085826924535
 20
-132.0281168289721
 30
0.0
 10
82.74085826924535
 20
-132.0281168289721
 30
0.0
 10
82.74085826924535
 20
-133.5725531350097
 30
0.0
 10
82.74085826924535
 20
-133.5725531350097
 30
0.0
 10
82.74085826924535
 20
-133.5725531350097
 30
0.0
 10
82.51658255315559
 20
-133.5725531350097
 30
0.0
 10
82.51658255315559
 20
-133.5725531350097
 30
0.0
  0
HATCH
  5
132
330
12D
100
AcDbEntity
  8
_U+30EC_U+30A4_U+30E4_U+30FC 1
 62
   179
420
  2234388
100
AcDbHatch
 10
0.0
 20
0.0
 30
0.0
210
0.0
220
0.0
230
1.0
  2
SOLID
 70
     1
 71
     0
 91
        1
 92
        1
 93
        1
 72
     4
 94
        3
 73
     0
 74
     1
 95
       26
 96
       22
 40
0.0
 40
0.0
 40
0.0
 40
0.0
 40
1.0
 40
1.0
 40
1.0
 40
2.0
 40
2.0
 40
2.0
 40
3.0
 40
3.0
 40
3.0
 40
4.0
 40
4.0
 40
4.0
 40
5.0
 40
5.0
 40
5.0
 40
6.0
 40
6.0
 40
6.0
 40
7.0
 40
7.0
 40
7.0
 40
7.0
 10
82.51658255315559
 20
-133.5725531350097
 10
82.51658255315559
 20
-133.5725531350097
 10
82.51658255315559
 20
-132.4680555224386
 10
82.51658255315559
 20
-132.4680555224386
 10
82.51658255315559
 20
-132.4680555224386
 10
82.18654240566865
 20
-132.4680555224386
 10
82.18654240566865
 20
-132.4680555224386
 10
82.18654240566865
 20
-132.4680555224386
 10
82.18654240566865
 20
-132.3199164165728
 10
82.18654240566865
 20
-132.3199164165728
 10
82.51864961044673
 20
-132.3054470155348
 10
82.5651583994976
 20
-132.1421494895339
 10
82.59478622067076
 20
-132.0281168289721
 10
82.59478622067076
 20
-132.0281168289721
 10
82.74085826924535
 20
-132.0281168289721
 10
82.74085826924535
 20
-132.0281168289721
 10
82.74085826924535
 20
-132.0281168289721
 10
82.74085826924535
 20
-133.5725531350097
 10
82.74085826924535
 20
-133.5725531350097
 10
82.74085826924535
 20
-133.5725531350097
 10
82.51658255315559
 20
-133.5725531350097
 10
82.51658255315559
 20
-133.5725531350097
 97
        0
 97
        0
 75
     2
 76
     1
 98
        0
  0
POLYLINE
  5
133
330
12D
100
AcDbEntity
  8
_U+30EC_U+30A4_U+30E4_U+30FC 1
370
     0
100
AcDb2dPolyline
 66
     1
 10
0.0
 20
0.0
 30
0.0
  0
VERTEX
  5
134
330
133
100
AcDbEntity
  8
_U+30EC_U+30A4_U+30E4_U+30FC 1
370
     0
100
AcDbVertex
100
AcDb2dVertex
 10
83.30206432379255
 20
-133.5725531350097
 30
0.0
  0
VERTEX
  5
135
330
133
100
AcDbEntity
  8
_U+30EC_U+30A4_U+30E4_U+30FC 1
370
     0
100
AcDbVertex
100
AcDb2dVertex
 10
83.30206432379255
 20
-133.3207166550379
 30
0.0
  0
VERTEX
  5
136
330
133
100
AcDbEntity
  8
_U+30EC_U+30A4_U+30E4_U+30FC 1
370
     0
100
AcDbVertex
100
AcDb2dVertex
 10
83.55390080376431
 20
-133.3207166550379
 30
0.0
  0
VERTEX
  5
137
330
133
100
AcDbEntity
  8
_U+30EC_U+30A4_U+30E4_U+30FC 1
370
     0
100
AcDbVertex
100
AcDb2dVertex
 10
83.55390080376431
 20
-133.5725531350097
 30
0.0
  0
VERTEX
  5
138
330
133
100
AcDbEntity
  8
_U+30EC_U+30A4_U+30E4_U+30FC 1
370
     0
100
AcDbVertex
100
AcDb2dVertex
 10
83.30206432379255
 20
-133.5725531350097
 30
0.0
  0
SEQEND
  5
139
330
133
100
AcDbEntity
  8
_U+30EC_U+30A4_U+30E4_U+30FC 1
370
     0
  0
HATCH
  5
13A
330
12D
100
AcDbEntity
  8
_U+30EC_U+30A4_U+30E4_U+30FC 1
 62
   179
420
  2234388
100
AcDbHatch
 10
0.0
 20
0.0
 30
0.0
210
0.0
220
0.0
230
1.0
  2
SOLID
 70
     1
 71
     0
 91
        1
 92
        1
 93
        4
 72
     1
 10
83.30206432379255
 20
-133.5725531350097
 11
83.30206432379255
 21
-133.3207166550379
 72
     1
 10
83.30206432379255
 20
-133.3207166550379
 11
83.55390080376431
 21
-133.3207166550379
 72
     1
 10
83.55390080376431
 20
-133.3207166550379
 11
83.55390080376431
 21
-133.5725531350097
 72
     1
 10
83.55390080376431
 20
-133.5725531350097
 11
83.30206432379255
 21
-133.5725531350097
 97
        0
 75
     2
 76
     1
 98
        0
  0
SPLINE
  5
13B
330
12D
100
AcDbEntity
  8
_U+30EC_U+30A4_U+30E4_U+30FC 1
370
     0
100
AcDbSpline
210
0.0
220
0.0
230
1.0
 70
    11
 71
     3
 72
    53
 73
    49
 74
     0
 42
0.0000000001
 43
0.0000000001
 12
1.0
 22
0.0
 32
0.0
 13
1.0
 23
0.0
 33
0.0
 40
0.0
 40
0.0
 40
0.0
 40
0.0
 40
1.0
 40
1.0
 40
1.0
 40
2.0
 40
2.0
 40
2.0
 40
3.0
 40
3.0
 40
3.0
 40
4.0
 40
4.0
 40
4.0
 40
5.0
 40
5.0
 40
5.0
 40
6.0
 40
6.0
 40
6.0
 40
7.0
 40
7.0
 40
7.0
 40
8.0
 40
8.0
 40
8.0
 40
9.0
 40
9.0
 40
9.0
 40
10.0
 40
10.0
 40
10.0
 40
11.0
 40
11.0
 40
11.0
 40
12.0
 40
12.0
 40
12.0
 40
13.0
 40
13.0
 40
13.0
 40
14.0
 40
14.0
 40
14.0
 40
15.0
 40
15.0
 40
15.0
 40
16.0
 40
16.0
 40
16.0
 40
16.0
 10
84.27116968379332
 20
-133.6231960386428
 30
0.0
 10
84.19296601627815
 20
-133.6231960386428
 30
0.0
 10
84.09133569946329
 20
-133.6063150707651
 30
0.0
 10
83.98970538264841
 20
-133.5429253138365
 30
0.0
 10
83.81641707974035
 20
-133.4326822583085
 30
0.0
 10
83.7950574877318
 20
-133.301768629869
 30
0.0
 10
83.77610946256291
 20
-133.1935926316322
 30
0.0
 10
83.77610946256291
 20
-133.1935926316322
 30
0.0
 10
83.99831812136154
 20
-133.1935926316322
 30
0.0
 10
83.99831812136154
 20
-133.1935926316322
 30
0.0
 10
84.05309513957701
 20
-133.3927191506796
 30
0.0
 10
84.18021916298272
 20
-133.4223469718528
 30
0.0
 10
84.27323674108447
 20
-133.4223469718528
 30
0.0
 10
84.41276310823709
 20
-133.4223469718528
 30
0.0
 10
84.56503632868514
 20
-133.322783712329
 30
0.0
 10
84.56503632868514
 20
-133.0902397670747
 30
0.0
 10
84.56503632868514
 20
-132.8339246629721
 30
0.0
 10
84.3852023443551
 20
-132.76433373417
 30
0.0
 10
84.26462400237135
 20
-132.76433373417
 30
0.0
 10
84.23292912390706
 20
-132.76433373417
 30
0.0
 10
84.09133569946329
 20
-132.76433373417
 30
0.0
 10
84.00245223594384
 20
-132.8931803053184
 30
0.0
 10
84.00245223594384
 20
-132.8931803053184
 30
0.0
 10
83.82675236619609
 20
-132.8742322801495
 30
0.0
 10
83.82675236619609
 20
-132.8742322801495
 30
0.0
 10
83.82675236619609
 20
-132.8742322801495
 30
0.0
 10
83.94733070817983
 20
-132.0281168289721
 30
0.0
 10
83.94733070817983
 20
-132.0281168289721
 30
0.0
 10
83.94733070817983
 20
-132.0281168289721
 30
0.0
 10
84.7259222878463
 20
-132.0281168289721
 30
0.0
 10
84.7259222878463
 20
-132.0281168289721
 30
0.0
 10
84.7259222878463
 20
-132.0281168289721
 30
0.0
 10
84.7259222878463
 20
-132.2227647238888
 30
0.0
 10
84.7259222878463
 20
-132.2227647238888
 30
0.0
 10
84.7259222878463
 20
-132.2227647238888
 30
0.0
 10
84.11028372463215
 20
-132.2227647238888
 30
0.0
 10
84.11028372463215
 20
-132.2227647238888
 30
0.0
 10
84.11028372463215
 20
-132.2227647238888
 30
0.0
 10
84.04482691041241
 20
-132.6458224494774
 30
0.0
 10
84.04482691041241
 20
-132.6458224494774
 30
0.0
 10
84.10614961004985
 20
-132.612060513722
 30
0.0
 10
84.18848739214732
 20
-132.5717528965446
 30
0.0
 10
84.30699867683992
 20
-132.5717528965446
 30
0.0
 10
84.56090221410284
 20
-132.5717528965446
 30
0.0
 10
84.79792478348803
 20
-132.7581325622966
 30
0.0
 10
84.79792478348803
 20
-133.0709472323573
 30
0.0
 10
84.79792478348803
 20
-133.3885850360973
 30
0.0
 10
84.57364906739826
 20
-133.6231960386428
 30
0.0
 10
84.27116968379332
 20
-133.6231960386428
 30
0.0
  0
HATCH
  5
13C
330
12D
100
AcDbEntity
  8
_U+30EC_U+30A4_U+30E4_U+30FC 1
 62
   179
420
  2234388
100
AcDbHatch
 10
0.0
 20
0.0
 30
0.0
210
0.0
220
0.0
230
1.0
  2
SOLID
 70
     1
 71
     0
 91
        1
 92
        1
 93
        1
 72
     4
 94
        3
 73
     0
 74
     1
 95
       53
 96
       49
 40
0.0
 40
0.0
 40
0.0
 40
0.0
 40
1.0
 40
1.0
 40
1.0
 40
2.0
 40
2.0
 40
2.0
 40
3.0
 40
3.0
 40
3.0
 40
4.0
 40
4.0
 40
4.0
 40
5.0
 40
5.0
 40
5.0
 40
6.0
 40
6.0
 40
6.0
 40
7.0
 40
7.0
 40
7.0
 40
8.0
 40
8.0
 40
8.0
 40
9.0
 40
9.0
 40
9.0
 40
10.0
 40
10.0
 40
10.0
 40
11.0
 40
11.0
 40
11.0
 40
12.0
 40
12.0
 40
12.0
 40
13.0
 40
13.0
 40
13.0
 40
14.0
 40
14.0
 40
14.0
 40
15.0
 40
15.0
 40
15.0
 40
16.0
 40
16.0
 40
16.0
 40
16.0
 10
84.27116968379332
 20
-133.6231960386428
 10
84.19296601627815
 20
-133.6231960386428
 10
84.09133569946329
 20
-133.6063150707651
 10
83.98970538264841
 20
-133.5429253138365
 10
83.81641707974035
 20
-133.4326822583085
 10
83.7950574877318
 20
-133.301768629869
 10
83.77610946256291
 20
-133.1935926316322
 10
83.77610946256291
 20
-133.1935926316322
 10
83.99831812136154
 20
-133.1935926316322
 10
83.99831812136154
 20
-133.1935926316322
 10
84.05309513957701
 20
-133.3927191506796
 10
84.18021916298272
 20
-133.4223469718528
 10
84.27323674108447
 20
-133.4223469718528
 10
84.41276310823709
 20
-133.4223469718528
 10
84.56503632868514
 20
-133.322783712329
 10
84.56503632868514
 20
-133.0902397670747
 10
84.56503632868514
 20
-132.8339246629721
 10
84.3852023443551
 20
-132.76433373417
 10
84.26462400237135
 20
-132.76433373417
 10
84.23292912390706
 20
-132.76433373417
 10
84.09133569946329
 20
-132.76433373417
 10
84.00245223594384
 20
-132.8931803053184
 10
84.00245223594384
 20
-132.8931803053184
 10
83.82675236619609
 20
-132.8742322801495
 10
83.82675236619609
 20
-132.8742322801495
 10
83.82675236619609
 20
-132.8742322801495
 10
83.94733070817983
 20
-132.0281168289721
 10
83.94733070817983
 20
-132.0281168289721
 10
83.94733070817983
 20
-132.0281168289721
 10
84.7259222878463
 20
-132.0281168289721
 10
84.7259222878463
 20
-132.0281168289721
 10
84.7259222878463
 20
-132.0281168289721
 10
84.7259222878463
 20
-132.2227647238888
 10
84.7259222878463
 20
-132.2227647238888
 10
84.7259222878463
 20
-132.2227647238888
 10
84.11028372463215
 20
-132.2227647238888
 10
84.11028372463215
 20
-132.2227647238888
 10
84.11028372463215
 20
-132.2227647238888
 10
84.04482691041241
 20
-132.6458224494774
 10
84.04482691041241
 20
-132.6458224494774
 10
84.10614961004985
 20
-132.612060513722
 10
84.18848739214732
 20
-132.5717528965446
 10
84.30699867683992
 20
-132.5717528965446
 10
84.56090221410284
 20
-132.5717528965446
 10
84.79792478348803
 20
-132.7581325622966
 10
84.79792478348803
 20
-133.0709472323573
 10
84.79792478348803
 20
-133.3885850360973
 10
84.57364906739826
 20
-133.6231960386428
 10
84.27116968379332
 20
-133.6231960386428
 97
        0
 97
        0
 75
     2
 76
     1
 98
        0
  0
ENDBLK
  5
130
330
12D
100
AcDbEntity
  8
0
100
AcDbBlockEnd
  0
BLOCK
  5
155
330
153
100
AcDbEntity
  8
0
100
AcDbBlockBegin
  2
block 11
 70
     0
 10
0.0
 20
0.0
 30
0.0
  3
block 11
  1

  0
SPLINE
  5
157
330
153
100
AcDbEntity
  8
_U+30EC_U+30A4_U+30E4_U+30FC 1
370
     0
100
AcDbSpline
210
0.0
220
0.0
230
1.0
 70
    11
 71
     3
 72
    44
 73
    40
 74
     0
 42
0.0000000001
 43
0.0000000001
 12
1.0
 22
0.0
 32
0.0
 13
1.0
 23
0.0
 33
0.0
 40
0.0
 40
0.0
 40
0.0
 40
0.0
 40
1.0
 40
1.0
 40
1.0
 40
2.0
 40
2.0
 40
2.0
 40
3.0
 40
3.0
 40
3.0
 40
4.0
 40
4.0
 40
4.0
 40
5.0
 40
5.0
 40
5.0
 40
6.0
 40
6.0
 40
6.0
 40
7.0
 40
7.0
 40
7.0
 40
8.0
 40
8.0
 40
8.0
 40
9.0
 40
9.0
 40
9.0
 40
10.0
 40
10.0
 40
10.0
 40
11.0
 40
11.0
 40
11.0
 40
12.0
 40
12.0
 40
12.0
 40
13.0
 40
13.0
 40
13.0
 40
13.0
 10
104.4556396223236
 20
-129.7133571724328
 30
0.0
 10
104.6144585241936
 20
-129.9310872071006
 30
0.0
 10
104.6885280771265
 20
-130.0241047852023
 30
0.0
 10
104.8321885588614
 20
-130.0730251410929
 30
0.0
 10
104.8321885588614
 20
-130.0730251410929
 30
0.0
 10
104.8321885588614
 20
-129.2944335614264
 30
0.0
 10
104.8321885588614
 20
-129.2944335614264
 30
0.0
 10
104.8321885588614
 20
-129.2944335614264
 30
0.0
 10
105.0375162497823
 20
-129.2944335614264
 30
0.0
 10
105.0375162497823
 20
-129.2944335614264
 30
0.0
 10
105.0375162497823
 20
-129.2944335614264
 30
0.0
 10
105.0375162497823
 20
-130.322450054225
 30
0.0
 10
105.0375162497823
 20
-130.322450054225
 30
0.0
 10
104.6799153384134
 20
-130.2907551757606
 30
0.0
 10
104.6017116708982
 20
-130.2252983615409
 30
0.0
 10
104.3033664018756
 20
-129.84013668629
 30
0.0
 10
104.1045843923766
 20
-129.5841660917359
 30
0.0
 10
104.0367160113172
 20
-129.5187092775162
 30
0.0
 10
103.8992567014557
 20
-129.5187092775162
 30
0.0
 10
103.7807454167632
 20
-129.5187092775162
 30
0.0
 10
103.6498317883237
 20
-129.5907117731579
 30
0.0
 10
103.6498317883237
 20
-129.7874267253657
 30
0.0
 10
103.6498317883237
 20
-130.047531434502
 30
0.0
 10
103.8803086762869
 20
-130.0561441732151
 30
0.0
 10
103.9967529036883
 20
-130.0602782877974
 30
0.0
 10
103.9967529036883
 20
-130.0602782877974
 30
0.0
 10
103.9967529036883
 20
-130.2845540038872
 30
0.0
 10
103.9967529036883
 20
-130.2845540038872
 30
0.0
 10
103.8696288802826
 20
-130.2759412651741
 30
0.0
 10
103.757663277012
 20
-130.2652614691698
 30
0.0
 10
103.6391519923194
 20
-130.1849907443635
 30
0.0
 10
103.4782660331582
 20
-130.075092198384
 30
0.0
 10
103.4445040974028
 20
-129.888712532632
 30
0.0
 10
103.4445040974028
 20
-129.7726128147791
 30
0.0
 10
103.4445040974028
 20
-129.4952826282165
 30
0.0
 10
103.6284721963151
 20
-129.2878878800044
 30
0.0
 10
103.9013237587469
 20
-129.2878878800044
 30
0.0
 10
104.1300780989675
 20
-129.2878878800044
 30
0.0
 10
104.2292968489427
 20
-129.4043321074059
 30
0.0
 10
104.4556396223236
 20
-129.7133571724328
 30
0.0
  0
HATCH
  5
158
330
153
100
AcDbEntity
  8
_U+30EC_U+30A4_U+30E4_U+30FC 1
 62
     7
420
 16777215
100
AcDbHatch
 10
0.0
 20
0.0
 30
0.0
210
0.0
220
0.0
230
1.0
  2
SOLID
 70
     1
 71
     0
 91
        1
 92
        1
 93
        1
 72
     4
 94
        3
 73
     0
 74
     1
 95
       44
 96
       40
 40
0.0
 40
0.0
 40
0.0
 40
0.0
 40
1.0
 40
1.0
 40
1.0
 40
2.0
 40
2.0
 40
2.0
 40
3.0
 40
3.0
 40
3.0
 40
4.0
 40
4.0
 40
4.0
 40
5.0
 40
5.0
 40
5.0
 40
6.0
 40
6.0
 40
6.0
 40
7.0
 40
7.0
 40
7.0
 40
8.0
 40
8.0
 40
8.0
 40
9.0
 40
9.0
 40
9.0
 40
10.0
 40
10.0
 40
10.0
 40
11.0
 40
11.0
 40
11.0
 40
12.0
 40
12.0
 40
12.0
 40
13.0
 40
13.0
 40
13.0
 40
13.0
 10
104.4556396223236
 20
-129.7133571724328
 10
104.6144585241936
 20
-129.9310872071006
 10
104.6885280771265
 20
-130.0241047852023
 10
104.8321885588614
 20
-130.0730251410929
 10
104.8321885588614
 20
-130.0730251410929
 10
104.8321885588614
 20
-129.2944335614264
 10
104.8321885588614
 20
-129.2944335614264
 10
104.8321885588614
 20
-129.2944335614264
 10
105.0375162497823
 20
-129.2944335614264
 10
105.0375162497823
 20
-129.2944335614264
 10
105.0375162497823
 20
-129.2944335614264
 10
105.0375162497823
 20
-130.322450054225
 10
105.0375162497823
 20
-130.322450054225
 10
104.6799153384134
 20
-130.2907551757606
 10
104.6017116708982
 20
-130.2252983615409
 10
104.3033664018756
 20
-129.84013668629
 10
104.1045843923766
 20
-129.5841660917359
 10
104.0367160113172
 20
-129.5187092775162
 10
103.8992567014557
 20
-129.5187092775162
 10
103.7807454167632
 20
-129.5187092775162
 10
103.6498317883237
 20
-129.5907117731579
 10
103.6498317883237
 20
-129.7874267253657
 10
103.6498317883237
 20
-130.047531434502
 10
103.8803086762869
 20
-130.0561441732151
 10
103.9967529036883
 20
-130.0602782877974
 10
103.9967529036883
 20
-130.0602782877974
 10
103.9967529036883
 20
-130.2845540038872
 10
103.9967529036883
 20
-130.2845540038872
 10
103.8696288802826
 20
-130.2759412651741
 10
103.757663277012
 20
-130.2652614691698
 10
103.6391519923194
 20
-130.1849907443635
 10
103.4782660331582
 20
-130.075092198384
 10
103.4445040974028
 20
-129.888712532632
 10
103.4445040974028
 20
-129.7726128147791
 10
103.4445040974028
 20
-129.4952826282165
 10
103.6284721963151
 20
-129.2878878800044
 10
103.9013237587469
 20
-129.2878878800044
 10
104.1300780989675
 20
-129.2878878800044
 10
104.2292968489427
 20
-129.4043321074059
 10
104.4556396223236
 20
-129.7133571724328
 97
        0
 97
        0
 75
     2
 76
     1
 98
        0
  0
SPLINE
  5
159
330
153
100
AcDbEntity
  8
_U+30EC_U+30A4_U+30E4_U+30FC 1
370
     0
100
AcDbSpline
210
0.0
220
0.0
230
1.0
 70
    11
 71
     3
 72
    29
 73
    25
 74
     0
 42
0.0000000001
 43
0.0000000001
 12
1.0
 22
0.0
 32
0.0
 13
1.0
 23
0.0
 33
0.0
 40
0.0
 40
0.0
 40
0.0
 40
0.0
 40
1.0
 40
1.0
 40
1.0
 40
2.0
 40
2.0
 40
2.0
 40
3.0
 40
3.0
 40
3.0
 40
4.0
 40
4.0
 40
4.0
 40
5.0
 40
5.0
 40
5.0
 40
6.0
 40
6.0
 40
6.0
 40
7.0
 40
7.0
 40
7.0
 40
8.0
 40
8.0
 40
8.0
 40
8.0
 10
104.8597493227434
 20
-128.2314493494526
 30
0.0
 10
105.0692111282466
 20
-128.3396253476894
 30
0.0
 10
105.0881591534155
 20
-128.5129136505975
 30
0.0
 10
105.0881591534155
 20
-128.6293578779989
 30
0.0
 10
105.0881591534155
 20
-128.7904160919343
 30
0.0
 10
105.0416503643646
 20
-128.9320095163781
 30
0.0
 10
104.8597493227434
 20
-129.027094151771
 30
0.0
 10
104.6651014278268
 20
-129.130791525877
 30
0.0
 10
104.4280788584416
 20
-129.1500840605944
 30
0.0
 10
104.2654703515378
 20
-129.1500840605944
 30
0.0
 10
104.1214653602544
 20
-129.1500840605944
 30
0.0
 10
103.8696288802826
 20
-129.1328585831682
 30
0.0
 10
103.6708468707837
 20
-129.027094151771
 30
0.0
 10
103.4679307467025
 20
-128.9192626630827
 30
0.0
 10
103.4445040974028
 20
-128.7582044491473
 30
0.0
 10
103.4445040974028
 20
-128.6293578779989
 30
0.0
 10
103.4445040974028
 20
-128.4705389761289
 30
0.0
 10
103.4889458291625
 20
-128.326878494394
 30
0.0
 10
103.6708468707837
 20
-128.2314493494526
 30
0.0
 10
103.8634277084091
 20
-128.1322305994774
 30
0.0
 10
104.0918375390812
 20
-128.1088039501777
 30
0.0
 10
104.2654703515378
 20
-128.1088039501777
 30
0.0
 10
104.4366915971547
 20
-128.1088039501777
 30
0.0
 10
104.6671684851179
 20
-128.1301635421862
 30
0.0
 10
104.8597493227434
 20
-128.2314493494526
 30
0.0
  0
SPLINE
  5
15A
330
153
100
AcDbEntity
  8
_U+30EC_U+30A4_U+30E4_U+30FC 1
370
     0
100
AcDbSpline
210
0.0
220
0.0
230
1.0
 70
    11
 71
     3
 72
    17
 73
    13
 74
     0
 42
0.0000000001
 43
0.0000000001
 12
1.0
 22
0.0
 32
0.0
 13
1.0
 23
0.0
 33
0.0
 40
0.0
 40
0.0
 40
0.0
 40
0.0
 40
1.0
 40
1.0
 40
1.0
 40
2.0
 40
2.0
 40
2.0
 40
3.0
 40
3.0
 40
3.0
 40
4.0
 40
4.0
 40
4.0
 40
4.0
 10
103.6370849350282
 20
-128.6293578779989
 30
0.0
 10
103.6370849350282
 20
-128.8792995554538
 30
0.0
 10
103.9206162934643
 20
-128.9258083445047
 30
0.0
 10
104.2654703515378
 20
-128.9258083445047
 30
0.0
 10
104.5848307030205
 20
-128.9258083445047
 30
0.0
 10
104.8935112584988
 20
-128.8896348419096
 30
0.0
 10
104.8935112584988
 20
-128.6293578779989
 30
0.0
 10
104.8935112584988
 20
-128.3816555126095
 30
0.0
 10
104.6123914669025
 20
-128.3330796662674
 30
0.0
 10
104.2654703515378
 20
-128.3330796662674
 30
0.0
 10
103.9457654905066
 20
-128.3330796662674
 30
0.0
 10
103.6370849350282
 20
-128.3713202261537
 30
0.0
 10
103.6370849350282
 20
-128.6293578779989
 30
0.0
  0
HATCH
  5
15B
330
153
100
AcDbEntity
  8
_U+30EC_U+30A4_U+30E4_U+30FC 1
 62
     7
420
 16777215
100
AcDbHatch
 10
0.0
 20
0.0
 30
0.0
210
0.0
220
0.0
230
1.0
  2
SOLID
 70
     1
 71
     0
 91
        2
 92
        1
 93
        1
 72
     4
 94
        3
 73
     0
 74
     1
 95
       29
 96
       25
 40
0.0
 40
0.0
 40
0.0
 40
0.0
 40
1.0
 40
1.0
 40
1.0
 40
2.0
 40
2.0
 40
2.0
 40
3.0
 40
3.0
 40
3.0
 40
4.0
 40
4.0
 40
4.0
 40
5.0
 40
5.0
 40
5.0
 40
6.0
 40
6.0
 40
6.0
 40
7.0
 40
7.0
 40
7.0
 40
8.0
 40
8.0
 40
8.0
 40
8.0
 10
104.8597493227434
 20
-128.2314493494526
 10
105.0692111282466
 20
-128.3396253476894
 10
105.0881591534155
 20
-128.5129136505975
 10
105.0881591534155
 20
-128.6293578779989
 10
105.0881591534155
 20
-128.7904160919343
 10
105.0416503643646
 20
-128.9320095163781
 10
104.8597493227434
 20
-129.027094151771
 10
104.6651014278268
 20
-129.130791525877
 10
104.4280788584416
 20
-129.1500840605944
 10
104.2654703515378
 20
-129.1500840605944
 10
104.1214653602544
 20
-129.1500840605944
 10
103.8696288802826
 20
-129.1328585831682
 10
103.6708468707837
 20
-129.027094151771
 10
103.4679307467025
 20
-128.9192626630827
 10
103.4445040974028
 20
-128.7582044491473
 10
103.4445040974028
 20
-128.6293578779989
 10
103.4445040974028
 20
-128.4705389761289
 10
103.4889458291625
 20
-128.326878494394
 10
103.6708468707837
 20
-128.2314493494526
 10
103.8634277084091
 20
-128.1322305994774
 10
104.0918375390812
 20
-128.1088039501777
 10
104.2654703515378
 20
-128.1088039501777
 10
104.4366915971547
 20
-128.1088039501777
 10
104.6671684851179
 20
-128.1301635421862
 10
104.8597493227434
 20
-128.2314493494526
 97
        0
 97
        0
 92
        1
 93
        1
 72
     4
 94
        3
 73
     0
 74
     1
 95
       17
 96
       13
 40
0.0
 40
0.0
 40
0.0
 40
0.0
 40
1.0
 40
1.0
 40
1.0
 40
2.0
 40
2.0
 40
2.0
 40
3.0
 40
3.0
 40
3.0
 40
4.0
 40
4.0
 40
4.0
 40
4.0
 10
103.6370849350282
 20
-128.6293578779989
 10
103.6370849350282
 20
-128.8792995554538
 10
103.9206162934643
 20
-128.9258083445047
 10
104.2654703515378
 20
-128.9258083445047
 10
104.5848307030205
 20
-128.9258083445047
 10
104.8935112584988
 20
-128.8896348419096
 10
104.8935112584988
 20
-128.6293578779989
 10
104.8935112584988
 20
-128.3816555126095
 10
104.6123914669025
 20
-128.3330796662674
 10
104.2654703515378
 20
-128.3330796662674
 10
103.9457654905066
 20
-128.3330796662674
 10
103.6370849350282
 20
-128.3713202261537
 10
103.6370849350282
 20
-128.6293578779989
 97
        0
 97
        0
 75
     2
 76
     1
 98
        0
  0
ENDBLK
  5
156
330
153
100
AcDbEntity
  8
0
100
AcDbBlockEnd
  0
BLOCK
  5
15E
330
15C
100
AcDbEntity
  8
0
100
AcDbBlockBegin
  2
block 12
 70
     0
 10
0.0
 20
0.0
 30
0.0
  3
block 12
  1

  0
POLYLINE
  5
160
330
15C
100
AcDbEntity
  8
_U+30EC_U+30A4_U+30E4_U+30FC 1
370
     0
100
AcDb2dPolyline
 66
     1
 10
0.0
 20
0.0
 30
0.0
  0
VERTEX
  5
161
330
160
100
AcDbEntity
  8
_U+30EC_U+30A4_U+30E4_U+30FC 1
370
     0
100
AcDbVertex
100
AcDb2dVertex
 10
104.6905951344176
 20
-116.9056979416937
 30
0.0
  0
VERTEX
  5
162
330
160
100
AcDbEntity
  8
_U+30EC_U+30A4_U+30E4_U+30FC 1
370
     0
100
AcDbVertex
100
AcDb2dVertex
 10
105.0375162497823
 20
-116.9056979416937
 30
0.0
  0
VERTEX
  5
163
330
160
100
AcDbEntity
  8
_U+30EC_U+30A4_U+30E4_U+30FC 1
370
     0
100
AcDbVertex
100
AcDb2dVertex
 10
105.0375162497823
 20
-117.1234279763615
 30
0.0
  0
VERTEX
  5
164
330
160
100
AcDbEntity
  8
_U+30EC_U+30A4_U+30E4_U+30FC 1
370
     0
100
AcDbVertex
100
AcDb2dVertex
 10
104.6905951344176
 20
-117.1234279763615
 30
0.0
  0
VERTEX
  5
165
330
160
100
AcDbEntity
  8
_U+30EC_U+30A4_U+30E4_U+30FC 1
370
     0
100
AcDbVertex
100
AcDb2dVertex
 10
104.6905951344176
 20
-117.7793741567531
 30
0.0
  0
VERTEX
  5
166
330
160
100
AcDbEntity
  8
_U+30EC_U+30A4_U+30E4_U+30FC 1
370
     0
100
AcDbVertex
100
AcDb2dVertex
 10
104.4663194183279
 20
-117.7793741567531
 30
0.0
  0
VERTEX
  5
167
330
160
100
AcDbEntity
  8
_U+30EC_U+30A4_U+30E4_U+30FC 1
370
     0
100
AcDbVertex
100
AcDb2dVertex
 10
103.4930799437448
 20
-117.1003458366103
 30
0.0
  0
VERTEX
  5
168
330
160
100
AcDbEntity
  8
_U+30EC_U+30A4_U+30E4_U+30FC 1
370
     0
100
AcDbVertex
100
AcDb2dVertex
 10
103.4930799437448
 20
-116.9056979416937
 30
0.0
  0
VERTEX
  5
169
330
160
100
AcDbEntity
  8
_U+30EC_U+30A4_U+30E4_U+30FC 1
370
     0
100
AcDbVertex
100
AcDb2dVertex
 10
104.4918131249187
 20
-116.9056979416937
 30
0.0
  0
VERTEX
  5
16A
330
160
100
AcDbEntity
  8
_U+30EC_U+30A4_U+30E4_U+30FC 1
370
     0
100
AcDbVertex
100
AcDb2dVertex
 10
104.4918131249187
 20
-116.6983031934817
 30
0.0
  0
VERTEX
  5
16B
330
160
100
AcDbEntity
  8
_U+30EC_U+30A4_U+30E4_U+30FC 1
370
     0
100
AcDbVertex
100
AcDb2dVertex
 10
104.6905951344176
 20
-116.6983031934817
 30
0.0
  0
VERTEX
  5
16C
330
160
100
AcDbEntity
  8
_U+30EC_U+30A4_U+30E4_U+30FC 1
370
     0
100
AcDbVertex
100
AcDb2dVertex
 10
104.6905951344176
 20
-116.9056979416937
 30
0.0
  0
SEQEND
  5
16D
330
160
100
AcDbEntity
  8
_U+30EC_U+30A4_U+30E4_U+30FC 1
370
     0
  0
POLYLINE
  5
16E
330
15C
100
AcDbEntity
  8
_U+30EC_U+30A4_U+30E4_U+30FC 1
370
     0
100
AcDb2dPolyline
 66
     1
 10
0.0
 20
0.0
 30
0.0
  0
VERTEX
  5
16F
330
16E
100
AcDbEntity
  8
_U+30EC_U+30A4_U+30E4_U+30FC 1
370
     0
100
AcDbVertex
100
AcDb2dVertex
 10
103.8358669445272
 20
-117.1234279763615
 30
0.0
  0
VERTEX
  5
170
330
16E
100
AcDbEntity
  8
_U+30EC_U+30A4_U+30E4_U+30FC 1
370
     0
100
AcDbVertex
100
AcDb2dVertex
 10
104.4918131249187
 20
-117.5805921472542
 30
0.0
  0
VERTEX
  5
171
330
16E
100
AcDbEntity
  8
_U+30EC_U+30A4_U+30E4_U+30FC 1
370
     0
100
AcDbVertex
100
AcDb2dVertex
 10
104.4918131249187
 20
-117.1234279763615
 30
0.0
  0
VERTEX
  5
172
330
16E
100
AcDbEntity
  8
_U+30EC_U+30A4_U+30E4_U+30FC 1
370
     0
100
AcDbVertex
100
AcDb2dVertex
 10
103.8358669445272
 20
-117.1234279763615
 30
0.0
  0
SEQEND
  5
173
330
16E
100
AcDbEntity
  8
_U+30EC_U+30A4_U+30E4_U+30FC 1
370
     0
  0
HATCH
  5
174
330
15C
100
AcDbEntity
  8
_U+30EC_U+30A4_U+30E4_U+30FC 1
 62
     7
420
 16777215
100
AcDbHatch
 10
0.0
 20
0.0
 30
0.0
210
0.0
220
0.0
230
1.0
  2
SOLID
 70
     1
 71
     0
 91
        2
 92
        1
 93
       11
 72
     1
 10
104.6905951344176
 20
-116.9056979416937
 11
105.0375162497823
 21
-116.9056979416937
 72
     1
 10
105.0375162497823
 20
-116.9056979416937
 11
105.0375162497823
 21
-117.1234279763615
 72
     1
 10
105.0375162497823
 20
-117.1234279763615
 11
104.6905951344176
 21
-117.1234279763615
 72
     1
 10
104.6905951344176
 20
-117.1234279763615
 11
104.6905951344176
 21
-117.7793741567531
 72
     1
 10
104.6905951344176
 20
-117.7793741567531
 11
104.4663194183279
 21
-117.7793741567531
 72
     1
 10
104.4663194183279
 20
-117.7793741567531
 11
103.4930799437448
 21
-117.1003458366103
 72
     1
 10
103.4930799437448
 20
-117.1003458366103
 11
103.4930799437448
 21
-116.9056979416937
 72
     1
 10
103.4930799437448
 20
-116.9056979416937
 11
104.4918131249187
 21
-116.9056979416937
 72
     1
 10
104.4918131249187
 20
-116.9056979416937
 11
104.4918131249187
 21
-116.6983031934817
 72
     1
 10
104.4918131249187
 20
-116.6983031934817
 11
104.6905951344176
 21
-116.6983031934817
 72
     1
 10
104.6905951344176
 20
-116.6983031934817
 11
104.6905951344176
 21
-116.9056979416937
 97
        0
 92
        1
 93
        3
 72
     1
 10
103.8358669445272
 20
-117.1234279763615
 11
104.4918131249187
 21
-117.5805921472542
 72
     1
 10
104.4918131249187
 20
-117.5805921472542
 11
104.4918131249187
 21
-117.1234279763615
 72
     1
 10
104.4918131249187
 20
-117.1234279763615
 11
103.8358669445272
 21
-117.1234279763615
 97
        0
 75
     2
 76
     1
 98
        0
  0
ENDBLK
  5
15F
330
15C
100
AcDbEntity
  8
0
100
AcDbBlockEnd
  0
BLOCK
  5
185
330
183
100
AcDbEntity
  8
0
100
AcDbBlockBegin
  2
block 13
 70
     0
 10
0.0
 20
0.0
 30
0.0
  3
block 13
  1

  0
SPLINE
  5
187
330
183
100
AcDbEntity
  8
_U+30EC_U+30A4_U+30E4_U+30FC 1
370
     0
100
AcDbSpline
210
0.0
220
0.0
230
1.0
 70
    11
 71
     3
 72
   197
 73
   193
 74
     0
 42
0.0000000001
 43
0.0000000001
 12
1.0
 22
0.0
 32
0.0
 13
1.0
 23
0.0
 33
0.0
 40
0.0
 40
0.0
 40
0.0
 40
0.0
 40
1.0
 40
1.0
 40
1.0
 40
2.0
 40
2.0
 40
2.0
 40
3.0
 40
3.0
 40
3.0
 40
4.0
 40
4.0
 40
4.0
 40
5.0
 40
5.0
 40
5.0
 40
6.0
 40
6.0
 40
6.0
 40
7.0
 40
7.0
 40
7.0
 40
8.0
 40
8.0
 40
8.0
 40
9.0
 40
9.0
 40
9.0
 40
10.0
 40
10.0
 40
10.0
 40
11.0
 40
11.0
 40
11.0
 40
12.0
 40
12.0
 40
12.0
 40
13.0
 40
13.0
 40
13.0
 40
14.0
 40
14.0
 40
14.0
 40
15.0
 40
15.0
 40
15.0
 40
16.0
 40
16.0
 40
16.0
 40
17.0
 40
17.0
 40
17.0
 40
18.0
 40
18.0
 40
18.0
 40
19.0
 40
19.0
 40
19.0
 40
20.0
 40
20.0
 40
20.0
 40
21.0
 40
21.0
 40
21.0
 40
22.0
 40
22.0
 40
22.0
 40
23.0
 40
23.0
 40
23.0
 40
24.0
 40
24.0
 40
24.0
 40
25.0
 40
25.0
 40
25.0
 40
26.0
 40
26.0
 40
26.0
 40
27.0
 40
27.0
 40
27.0
 40
28.0
 40
28.0
 40
28.0
 40
29.0
 40
29.0
 40
29.0
 40
30.0
 40
30.0
 40
30.0
 40
31.0
 40
31.0
 40
31.0
 40
32.0
 40
32.0
 40
32.0
 40
33.0
 40
33.0
 40
33.0
 40
34.0
 40
34.0
 40
34.0
 40
35.0
 40
35.0
 40
35.0
 40
36.0
 40
36.0
 40
36.0
 40
37.0
 40
37.0
 40
37.0
 40
38.0
 40
38.0
 40
38.0
 40
39.0
 40
39.0
 40
39.0
 40
40.0
 40
40.0
 40
40.0
 40
41.0
 40
41.0
 40
41.0
 40
42.0
 40
42.0
 40
42.0
 40
43.0
 40
43.0
 40
43.0
 40
44.0
 40
44.0
 40
44.0
 40
45.0
 40
45.0
 40
45.0
 40
46.0
 40
46.0
 40
46.0
 40
47.0
 40
47.0
 40
47.0
 40
48.0
 40
48.0
 40
48.0
 40
49.0
 40
49.0
 40
49.0
 40
50.0
 40
50.0
 40
50.0
 40
51.0
 40
51.0
 40
51.0
 40
52.0
 40
52.0
 40
52.0
 40
53.0
 40
53.0
 40
53.0
 40
54.0
 40
54.0
 40
54.0
 40
55.0
 40
55.0
 40
55.0
 40
56.0
 40
56.0
 40
56.0
 40
57.0
 40
57.0
 40
57.0
 40
58.0
 40
58.0
 40
58.0
 40
59.0
 40
59.0
 40
59.0
 40
60.0
 40
60.0
 40
60.0
 40
61.0
 40
61.0
 40
61.0
 40
62.0
 40
62.0
 40
62.0
 40
63.0
 40
63.0
 40
63.0
 40
64.0
 40
64.0
 40
64.0
 40
64.0
 10
108.0333712837556
 20
-109.1442423229744
 30
0.0
 10
108.0226914877513
 20
-109.1738701441475
 30
0.0
 10
107.9996093480001
 20
-109.2203789331984
 30
0.0
 10
107.9885850424473
 20
-109.2479396970804
 30
0.0
 10
107.9885850424473
 20
-109.2479396970804
 30
0.0
 10
107.9272623428099
 20
-109.4002129175284
 30
0.0
 10
107.9272623428099
 20
-109.4002129175284
 30
0.0
 10
107.9169270563541
 20
-109.4257066241193
 30
0.0
 10
107.8680067004636
 20
-109.5376722273899
 30
0.0
 10
107.8556043567167
 20
-109.5610988766896
 30
0.0
 10
107.8535372994255
 20
-109.567300048563
 30
0.0
 10
107.8494031848432
 20
-109.5759127872762
 30
0.0
 10
107.8469916180035
 20
-109.5821139591496
 30
0.0
 10
107.8469916180035
 20
-109.5821139591496
 30
0.0
 10
107.6378743220489
 20
-109.5294039982253
 30
0.0
 10
107.6378743220489
 20
-109.5294039982253
 30
0.0
 10
107.7157334800155
 20
-109.4195054522458
 30
0.0
 10
107.777056179653
 20
-109.2841131996755
 30
0.0
 10
107.8087510581173
 20
-109.1738701441475
 30
0.0
 10
107.8087510581173
 20
-109.1738701441475
 30
0.0
 10
107.3436631676085
 20
-109.1738701441475
 30
0.0
 10
107.3436631676085
 20
-109.1738701441475
 30
0.0
 10
107.2630479332537
 20
-109.338890217891
 30
0.0
 10
107.1955240617428
 20
-109.4170938854061
 30
0.0
 10
107.1617621259873
 20
-109.4574015025836
 30
0.0
 10
107.1617621259873
 20
-109.4574015025836
 30
0.0
 10
107.0391167267125
 20
-109.3919446883638
 30
0.0
 10
107.0391167267125
 20
-109.3919446883638
 30
0.0
 10
107.0391167267125
 20
-109.3919446883638
 30
0.0
 10
107.0391167267125
 20
-109.5631659339807
 30
0.0
 10
107.0391167267125
 20
-109.5631659339807
 30
0.0
 10
107.0391167267125
 20
-109.6709974226691
 30
0.0
 10
107.0411837840036
 20
-109.7199177785596
 30
0.0
 10
107.0515190704593
 20
-109.8256822099568
 30
0.0
 10
106.9798610843661
 20
-109.8232706431171
 30
0.0
 10
106.9585014923576
 20
-109.8232706431171
 30
0.0
 10
106.7531738014367
 20
-109.8232706431171
 30
0.0
 10
106.7531738014367
 20
-109.8232706431171
 30
0.0
 10
106.6983967832212
 20
-109.8232706431171
 30
0.0
 10
106.6983967832212
 20
-109.8232706431171
 30
0.0
 10
106.6983967832212
 20
-109.8232706431171
 30
0.0
 10
106.6983967832212
 20
-109.9586628956874
 30
0.0
 10
106.6983967832212
 20
-109.9586628956874
 30
0.0
 10
106.6983967832212
 20
-109.9586628956874
 30
0.0
 10
106.770399278863
 20
-109.9586628956874
 30
0.0
 10
106.770399278863
 20
-109.9586628956874
 30
0.0
 10
106.8358560930827
 20
-109.9586628956874
 30
0.0
 10
106.9819281416573
 20
-109.9545287811051
 30
0.0
 10
107.0873480635059
 20
-109.9462605519405
 30
0.0
 10
107.0873480635059
 20
-109.9462605519405
 30
0.0
 10
107.0873480635059
 20
-110.1236829694309
 30
0.0
 10
107.0873480635059
 20
-110.1236829694309
 30
0.0
 10
106.9901963708219
 20
-110.1174817975574
 30
0.0
 10
106.8317219785004
 20
-110.1133476829751
 30
0.0
 10
106.770399278863
 20
-110.1133476829751
 30
0.0
 10
106.770399278863
 20
-110.1133476829751
 30
0.0
 10
106.6983967832212
 20
-110.1133476829751
 30
0.0
 10
106.6983967832212
 20
-110.1133476829751
 30
0.0
 10
106.7004638405124
 20
-110.2022311464946
 30
0.0
 10
106.7049424646432
 20
-110.4409762636224
 30
0.0
 10
106.7070095219344
 20
-110.5150458165553
 30
0.0
 10
106.7070095219344
 20
-110.5150458165553
 30
0.0
 10
106.5058159455958
 20
-110.5150458165553
 30
0.0
 10
106.5058159455958
 20
-110.5150458165553
 30
0.0
 10
106.5185627988912
 20
-110.3014498964698
 30
0.0
 10
106.5185627988912
 20
-110.2718220752966
 30
0.0
 10
106.5226969134735
 20
-110.1133476829751
 30
0.0
 10
106.5226969134735
 20
-110.1133476829751
 30
0.0
 10
106.4527614751229
 20
-110.1133476829751
 30
0.0
 10
106.4527614751229
 20
-110.1133476829751
 30
0.0
 10
106.3959173996163
 20
-110.1133476829751
 30
0.0
 10
106.2432996696197
 20
-110.1174817975574
 30
0.0
 10
106.1337456331888
 20
-110.1236829694309
 30
0.0
 10
106.1337456331888
 20
-110.1236829694309
 30
0.0
 10
106.1337456331888
 20
-109.9462605519405
 30
0.0
 10
106.1337456331888
 20
-109.9462605519405
 30
0.0
 10
106.2391655550374
 20
-109.9545287811051
 30
0.0
 10
106.3831705463209
 20
-109.9586628956874
 30
0.0
 10
106.4527614751229
 20
-109.9586628956874
 30
0.0
 10
106.4527614751229
 20
-109.9586628956874
 30
0.0
 10
106.5271755376043
 20
-109.9586628956874
 30
0.0
 10
106.5271755376043
 20
-109.9586628956874
 30
0.0
 10
106.5271755376043
 20
-109.9586628956874
 30
0.0
 10
106.5271755376043
 20
-109.8232706431171
 30
0.0
 10
106.5271755376043
 20
-109.8232706431171
 30
0.0
 10
106.5271755376043
 20
-109.8232706431171
 30
0.0
 10
106.4823892962961
 20
-109.8232706431171
 30
0.0
 10
106.4823892962961
 20
-109.8232706431171
 30
0.0
 10
106.4065971956206
 20
-109.8232706431171
 30
0.0
 10
106.2136718484466
 20
-109.8256822099568
 30
0.0
 10
106.1799099126911
 20
-109.8256822099568
 30
0.0
 10
106.1864555941131
 20
-109.7536797143151
 30
0.0
 10
106.1950683328262
 20
-109.6730644799602
 30
0.0
 10
106.1950683328262
 20
-109.5524861379765
 30
0.0
 10
106.1950683328262
 20
-109.5524861379765
 30
0.0
 10
106.1950683328262
 20
-109.3791978350684
 30
0.0
 10
106.1950683328262
 20
-109.3791978350684
 30
0.0
 10
106.1950683328262
 20
-109.3071953394267
 30
0.0
 10
106.1864555941131
 20
-109.1866169974429
 30
0.0
 10
106.1799099126911
 20
-109.1063462726366
 30
0.0
 10
106.2584580897548
 20
-109.1104803872189
 30
0.0
 10
106.2963541400926
 20
-109.1125474445101
 30
0.0
 10
106.4231336539498
 20
-109.1125474445101
 30
0.0
 10
106.4231336539498
 20
-109.1125474445101
 30
0.0
 10
106.5271755376043
 20
-109.1125474445101
 30
0.0
 10
106.5271755376043
 20
-109.1125474445101
 30
0.0
 10
106.5271755376043
 20
-109.1125474445101
 30
0.0
 10
106.5271755376043
 20
-108.9664753959355
 30
0.0
 10
106.5271755376043
 20
-108.9664753959355
 30
0.0
 10
106.5271755376043
 20
-108.9664753959355
 30
0.0
 10
106.4486273605406
 20
-108.9664753959355
 30
0.0
 10
106.4486273605406
 20
-108.9664753959355
 30
0.0
 10
106.3935058327766
 20
-108.9664753959355
 30
0.0
 10
106.2222845871597
 20
-108.9709540200663
 30
0.0
 10
106.1378797477711
 20
-108.9771551919397
 30
0.0
 10
106.1378797477711
 20
-108.9771551919397
 30
0.0
 10
106.1378797477711
 20
-108.7993882649009
 30
0.0
 10
106.1378797477711
 20
-108.7993882649009
 30
0.0
 10
106.2202175298686
 20
-108.8059339463228
 30
0.0
 10
106.3831705463209
 20
-108.8100680609051
 30
0.0
 10
106.4486273605406
 20
-108.8100680609051
 30
0.0
 10
106.4486273605406
 20
-108.8100680609051
 30
0.0
 10
106.5271755376043
 20
-108.8100680609051
 30
0.0
 10
106.5271755376043
 20
-108.8100680609051
 30
0.0
 10
106.5271755376043
 20
-108.7763061251497
 30
0.0
 10
106.5226969134735
 20
-108.6219658474105
 30
0.0
 10
106.5226969134735
 20
-108.5899264593977
 30
0.0
 10
106.5226969134735
 20
-108.5899264593977
 30
0.0
 10
106.7194118656813
 20
-108.6071519368239
 30
0.0
 10
106.7194118656813
 20
-108.6071519368239
 30
0.0
 10
106.7366373431075
 20
-108.6092189941151
 30
0.0
 10
106.7576524255675
 20
-108.6112860514062
 30
0.0
 10
106.7576524255675
 20
-108.6323011338662
 30
0.0
 10
106.7576524255675
 20
-108.6557277831659
 30
0.0
 10
106.7366373431075
 20
-108.6639960123305
 30
0.0
 10
106.7090765792255
 20
-108.676742865626
 30
0.0
 10
106.7090765792255
 20
-108.6981024576345
 30
0.0
 10
106.7070095219344
 20
-108.7931870930274
 30
0.0
 10
106.7070095219344
 20
-108.8100680609051
 30
0.0
 10
106.7070095219344
 20
-108.8100680609051
 30
0.0
 10
106.7662651642807
 20
-108.8100680609051
 30
0.0
 10
106.7662651642807
 20
-108.8100680609051
 30
0.0
 10
106.8337890357916
 20
-108.8100680609051
 30
0.0
 10
106.977794027075
 20
-108.8059339463228
 30
0.0
 10
107.0832139489236
 20
-108.7993882649009
 30
0.0
 10
107.0832139489236
 20
-108.7993882649009
 30
0.0
 10
107.0832139489236
 20
-108.9771551919397
 30
0.0
 10
107.0832139489236
 20
-108.9771551919397
 30
0.0
 10
106.9860622562396
 20
-108.9709540200663
 30
0.0
 10
106.8296549212093
 20
-108.9664753959355
 30
0.0
 10
106.7662651642807
 20
-108.9664753959355
 30
0.0
 10
106.7662651642807
 20
-108.9664753959355
 30
0.0
 10
106.6983967832212
 20
-108.9664753959355
 30
0.0
 10
106.6983967832212
 20
-108.9664753959355
 30
0.0
 10
106.6983967832212
 20
-108.9664753959355
 30
0.0
 10
106.6983967832212
 20
-109.1125474445101
 30
0.0
 10
106.6983967832212
 20
-109.1125474445101
 30
0.0
 10
106.6983967832212
 20
-109.1125474445101
 30
0.0
 10
106.7683322215718
 20
-109.1125474445101
 30
0.0
 10
106.7683322215718
 20
-109.1125474445101
 30
0.0
 10
106.9185383847287
 20
-109.1125474445101
 30
0.0
 10
106.9901963708219
 20
-109.1084133299278
 30
0.0
 10
107.0515190704593
 20
-109.1063462726366
 30
0.0
 10
107.0432508412947
 20
-109.2014309080295
 30
0.0
 10
107.0411837840036
 20
-109.2796345755447
 30
0.0
 10
107.0391167267125
 20
-109.317875135431
 30
0.0
 10
107.1934570044516
 20
-109.1063462726366
 30
0.0
 10
107.2992214358488
 20
-108.8586439072472
 30
0.0
 10
107.3161024037265
 20
-108.5964721408196
 30
0.0
 10
107.3161024037265
 20
-108.5964721408196
 30
0.0
 10
107.5317653811032
 20
-108.6471150444528
 30
0.0
 10
107.5317653811032
 20
-108.6471150444528
 30
0.0
 10
107.5469238012383
 20
-108.6515936685836
 30
0.0
 10
107.5613932022763
 20
-108.6577948404571
 30
0.0
 10
107.5613932022763
 20
-108.6746758083348
 30
0.0
 10
107.5613932022763
 20
-108.6915567762125
 30
0.0
 10
107.557259087694
 20
-108.6936238335037
 30
0.0
 10
107.5062716745123
 20
-108.7149834255122
 30
0.0
 10
107.4897352161831
 20
-108.7911200357363
 30
0.0
 10
107.4642415095923
 20
-108.8820705565469
 30
0.0
 10
107.4153211537017
 20
-109.008850070404
 30
0.0
 10
107.4153211537017
 20
-109.008850070404
 30
0.0
 10
107.7539740399018
 20
-109.008850070404
 30
0.0
 10
107.7539740399018
 20
-109.008850070404
 30
0.0
 10
107.7922145997881
 20
-109.008850070404
 30
0.0
 10
107.9210611709364
 20
-109.0047159558217
 30
0.0
 10
107.969981526827
 20
-108.9985147839483
 30
0.0
 10
107.969981526827
 20
-108.9985147839483
 30
0.0
 10
108.0629991049287
 20
-109.0681057127503
 30
0.0
 10
108.0629991049287
 20
-109.0681057127503
 30
0.0
 10
108.0543863662156
 20
-109.0894653047589
 30
0.0
 10
108.0478406847936
 20
-109.1084133299278
 30
0.0
 10
108.0333712837556
 20
-109.1442423229744
 30
0.0
  0
POLYLINE
  5
188
330
183
100
AcDbEntity
  8
_U+30EC_U+30A4_U+30E4_U+30FC 1
370
     0
100
AcDb2dPolyline
 66
     1
 10
0.0
 20
0.0
 30
0.0
  0
VERTEX
  5
189
330
188
100
AcDbEntity
  8
_U+30EC_U+30A4_U+30E4_U+30FC 1
370
     0
100
AcDbVertex
100
AcDb2dVertex
 10
106.5271755376043
 20
-109.2692992890889
 30
0.0
  0
VERTEX
  5
18A
330
188
100
AcDbEntity
  8
_U+30EC_U+30A4_U+30E4_U+30FC 1
370
     0
100
AcDbVertex
100
AcDb2dVertex
 10
106.3683566357343
 20
-109.2692992890889
 30
0.0
  0
VERTEX
  5
18B
330
188
100
AcDbEntity
  8
_U+30EC_U+30A4_U+30E4_U+30FC 1
370
     0
100
AcDbVertex
100
AcDb2dVertex
 10
106.3683566357343
 20
-109.3981458602373
 30
0.0
  0
VERTEX
  5
18C
330
188
100
AcDbEntity
  8
_U+30EC_U+30A4_U+30E4_U+30FC 1
370
     0
100
AcDbVertex
100
AcDb2dVertex
 10
106.5271755376043
 20
-109.3981458602373
 30
0.0
  0
VERTEX
  5
18D
330
188
100
AcDbEntity
  8
_U+30EC_U+30A4_U+30E4_U+30FC 1
370
     0
100
AcDbVertex
100
AcDb2dVertex
 10
106.5271755376043
 20
-109.2692992890889
 30
0.0
  0
SEQEND
  5
18E
330
188
100
AcDbEntity
  8
_U+30EC_U+30A4_U+30E4_U+30FC 1
370
     0
  0
POLYLINE
  5
18F
330
183
100
AcDbEntity
  8
_U+30EC_U+30A4_U+30E4_U+30FC 1
370
     0
100
AcDb2dPolyline
 66
     1
 10
0.0
 20
0.0
 30
0.0
  0
VERTEX
  5
190
330
18F
100
AcDbEntity
  8
_U+30EC_U+30A4_U+30E4_U+30FC 1
370
     0
100
AcDbVertex
100
AcDb2dVertex
 10
106.5271755376043
 20
-109.5421508515207
 30
0.0
  0
VERTEX
  5
191
330
18F
100
AcDbEntity
  8
_U+30EC_U+30A4_U+30E4_U+30FC 1
370
     0
100
AcDbVertex
100
AcDb2dVertex
 10
106.3683566357343
 20
-109.5421508515207
 30
0.0
  0
VERTEX
  5
192
330
18F
100
AcDbEntity
  8
_U+30EC_U+30A4_U+30E4_U+30FC 1
370
     0
100
AcDbVertex
100
AcDb2dVertex
 10
106.3683566357343
 20
-109.6709974226691
 30
0.0
  0
VERTEX
  5
193
330
18F
100
AcDbEntity
  8
_U+30EC_U+30A4_U+30E4_U+30FC 1
370
     0
100
AcDbVertex
100
AcDb2dVertex
 10
106.5271755376043
 20
-109.6709974226691
 30
0.0
  0
VERTEX
  5
194
330
18F
100
AcDbEntity
  8
_U+30EC_U+30A4_U+30E4_U+30FC 1
370
     0
100
AcDbVertex
100
AcDb2dVertex
 10
106.5271755376043
 20
-109.5421508515207
 30
0.0
  0
SEQEND
  5
195
330
18F
100
AcDbEntity
  8
_U+30EC_U+30A4_U+30E4_U+30FC 1
370
     0
  0
POLYLINE
  5
196
330
183
100
AcDbEntity
  8
_U+30EC_U+30A4_U+30E4_U+30FC 1
370
     0
100
AcDb2dPolyline
 66
     1
 10
0.0
 20
0.0
 30
0.0
  0
VERTEX
  5
197
330
196
100
AcDbEntity
  8
_U+30EC_U+30A4_U+30E4_U+30FC 1
370
     0
100
AcDbVertex
100
AcDb2dVertex
 10
106.8592827423824
 20
-109.2692992890889
 30
0.0
  0
VERTEX
  5
198
330
196
100
AcDbEntity
  8
_U+30EC_U+30A4_U+30E4_U+30FC 1
370
     0
100
AcDbVertex
100
AcDb2dVertex
 10
106.6983967832212
 20
-109.2692992890889
 30
0.0
  0
VERTEX
  5
199
330
196
100
AcDbEntity
  8
_U+30EC_U+30A4_U+30E4_U+30FC 1
370
     0
100
AcDbVertex
100
AcDb2dVertex
 10
106.6983967832212
 20
-109.3981458602373
 30
0.0
  0
VERTEX
  5
19A
330
196
100
AcDbEntity
  8
_U+30EC_U+30A4_U+30E4_U+30FC 1
370
     0
100
AcDbVertex
100
AcDb2dVertex
 10
106.8592827423824
 20
-109.3981458602373
 30
0.0
  0
VERTEX
  5
19B
330
196
100
AcDbEntity
  8
_U+30EC_U+30A4_U+30E4_U+30FC 1
370
     0
100
AcDbVertex
100
AcDb2dVertex
 10
106.8592827423824
 20
-109.2692992890889
 30
0.0
  0
SEQEND
  5
19C
330
196
100
AcDbEntity
  8
_U+30EC_U+30A4_U+30E4_U+30FC 1
370
     0
  0
POLYLINE
  5
19D
330
183
100
AcDbEntity
  8
_U+30EC_U+30A4_U+30E4_U+30FC 1
370
     0
100
AcDb2dPolyline
 66
     1
 10
0.0
 20
0.0
 30
0.0
  0
VERTEX
  5
19E
330
19D
100
AcDbEntity
  8
_U+30EC_U+30A4_U+30E4_U+30FC 1
370
     0
100
AcDbVertex
100
AcDb2dVertex
 10
106.8592827423824
 20
-109.5421508515207
 30
0.0
  0
VERTEX
  5
19F
330
19D
100
AcDbEntity
  8
_U+30EC_U+30A4_U+30E4_U+30FC 1
370
     0
100
AcDbVertex
100
AcDb2dVertex
 10
106.6983967832212
 20
-109.5421508515207
 30
0.0
  0
VERTEX
  5
1A0
330
19D
100
AcDbEntity
  8
_U+30EC_U+30A4_U+30E4_U+30FC 1
370
     0
100
AcDbVertex
100
AcDb2dVertex
 10
106.6983967832212
 20
-109.6709974226691
 30
0.0
  0
VERTEX
  5
1A1
330
19D
100
AcDbEntity
  8
_U+30EC_U+30A4_U+30E4_U+30FC 1
370
     0
100
AcDbVertex
100
AcDb2dVertex
 10
106.8592827423824
 20
-109.6709974226691
 30
0.0
  0
VERTEX
  5
1A2
330
19D
100
AcDbEntity
  8
_U+30EC_U+30A4_U+30E4_U+30FC 1
370
     0
100
AcDbVertex
100
AcDb2dVertex
 10
106.8592827423824
 20
-109.5421508515207
 30
0.0
  0
SEQEND
  5
1A3
330
19D
100
AcDbEntity
  8
_U+30EC_U+30A4_U+30E4_U+30FC 1
370
     0
  0
SPLINE
  5
1A4
330
183
100
AcDbEntity
  8
_U+30EC_U+30A4_U+30E4_U+30FC 1
370
     0
100
AcDbSpline
210
0.0
220
0.0
230
1.0
 70
    11
 71
     3
 72
    41
 73
    37
 74
     0
 42
0.0000000001
 43
0.0000000001
 12
1.0
 22
0.0
 32
0.0
 13
1.0
 23
0.0
 33
0.0
 40
0.0
 40
0.0
 40
0.0
 40
0.0
 40
1.0
 40
1.0
 40
1.0
 40
2.0
 40
2.0
 40
2.0
 40
3.0
 40
3.0
 40
3.0
 40
4.0
 40
4.0
 40
4.0
 40
5.0
 40
5.0
 40
5.0
 40
6.0
 40
6.0
 40
6.0
 40
7.0
 40
7.0
 40
7.0
 40
8.0
 40
8.0
 40
8.0
 40
9.0
 40
9.0
 40
9.0
 40
10.0
 40
10.0
 40
10.0
 40
11.0
 40
11.0
 40
11.0
 40
12.0
 40
12.0
 40
12.0
 40
12.0
 10
107.9486219348184
 20
-110.5002319059687
 30
0.0
 10
107.7074652508509
 20
-110.3648396533984
 30
0.0
 10
107.529698323812
 20
-110.0689059512154
 30
0.0
 10
107.4897352161831
 20
-109.9397148705185
 30
0.0
 10
107.3691568741994
 20
-110.2042982037857
 30
0.0
 10
107.2058593481985
 20
-110.3820651308246
 30
0.0
 10
107.0239583065773
 20
-110.4960977913864
 30
0.0
 10
107.0239583065773
 20
-110.4960977913864
 30
0.0
 10
106.8275878639181
 20
-110.3586384815249
 30
0.0
 10
106.8275878639181
 20
-110.3586384815249
 30
0.0
 10
106.8971787927202
 20
-110.3331447749341
 30
0.0
 10
107.0432508412947
 20
-110.2718220752966
 30
0.0
 10
107.1658962405696
 20
-110.1174817975574
 30
0.0
 10
107.2906086971357
 20
-109.9610744625271
 30
0.0
 10
107.3794921606551
 20
-109.7281860077242
 30
0.0
 10
107.3794921606551
 20
-109.4680812985878
 30
0.0
 10
107.3794921606551
 20
-109.366450981773
 30
0.0
 10
107.3670898169082
 20
-109.2944484861313
 30
0.0
 10
107.3560655113554
 20
-109.2479396970804
 30
0.0
 10
107.3560655113554
 20
-109.2479396970804
 30
0.0
 10
107.5613932022763
 20
-109.2692992890889
 30
0.0
 10
107.5613932022763
 20
-109.2692992890889
 30
0.0
 10
107.5827527942849
 20
-109.2713663463801
 30
0.0
 10
107.6037678767449
 20
-109.2734334036712
 30
0.0
 10
107.6037678767449
 20
-109.2944484861313
 30
0.0
 10
107.6037678767449
 20
-109.3137410208487
 30
0.0
 10
107.5930880807406
 20
-109.3220092500133
 30
0.0
 10
107.5593261449852
 20
-109.3433688420218
 30
0.0
 10
107.5510579158206
 20
-109.5442179088119
 30
0.0
 10
107.6082465008757
 20
-109.7874416500705
 30
0.0
 10
107.6695692005132
 20
-109.9080199920542
 30
0.0
 10
107.7605197213238
 20
-110.083719861802
 30
0.0
 10
107.9548231066919
 20
-110.263553846132
 30
0.0
 10
108.0905598688107
 20
-110.3203979216387
 30
0.0
 10
108.0905598688107
 20
-110.3203979216387
 30
0.0
 10
107.9486219348184
 20
-110.5002319059687
 30
0.0
 10
107.9486219348184
 20
-110.5002319059687
 30
0.0
  0
HATCH
  5
1A5
330
183
100
AcDbEntity
  8
_U+30EC_U+30A4_U+30E4_U+30FC 1
 62
   179
420
  2234388
100
AcDbHatch
 10
0.0
 20
0.0
 30
0.0
210
0.0
220
0.0
230
1.0
  2
SOLID
 70
     1
 71
     0
 91
        6
 92
        1
 93
        1
 72
     4
 94
        3
 73
     0
 74
     1
 95
      197
 96
      193
 40
0.0
 40
0.0
 40
0.0
 40
0.0
 40
1.0
 40
1.0
 40
1.0
 40
2.0
 40
2.0
 40
2.0
 40
3.0
 40
3.0
 40
3.0
 40
4.0
 40
4.0
 40
4.0
 40
5.0
 40
5.0
 40
5.0
 40
6.0
 40
6.0
 40
6.0
 40
7.0
 40
7.0
 40
7.0
 40
8.0
 40
8.0
 40
8.0
 40
9.0
 40
9.0
 40
9.0
 40
10.0
 40
10.0
 40
10.0
 40
11.0
 40
11.0
 40
11.0
 40
12.0
 40
12.0
 40
12.0
 40
13.0
 40
13.0
 40
13.0
 40
14.0
 40
14.0
 40
14.0
 40
15.0
 40
15.0
 40
15.0
 40
16.0
 40
16.0
 40
16.0
 40
17.0
 40
17.0
 40
17.0
 40
18.0
 40
18.0
 40
18.0
 40
19.0
 40
19.0
 40
19.0
 40
20.0
 40
20.0
 40
20.0
 40
21.0
 40
21.0
 40
21.0
 40
22.0
 40
22.0
 40
22.0
 40
23.0
 40
23.0
 40
23.0
 40
24.0
 40
24.0
 40
24.0
 40
25.0
 40
25.0
 40
25.0
 40
26.0
 40
26.0
 40
26.0
 40
27.0
 40
27.0
 40
27.0
 40
28.0
 40
28.0
 40
28.0
 40
29.0
 40
29.0
 40
29.0
 40
30.0
 40
30.0
 40
30.0
 40
31.0
 40
31.0
 40
31.0
 40
32.0
 40
32.0
 40
32.0
 40
33.0
 40
33.0
 40
33.0
 40
34.0
 40
34.0
 40
34.0
 40
35.0
 40
35.0
 40
35.0
 40
36.0
 40
36.0
 40
36.0
 40
37.0
 40
37.0
 40
37.0
 40
38.0
 40
38.0
 40
38.0
 40
39.0
 40
39.0
 40
39.0
 40
40.0
 40
40.0
 40
40.0
 40
41.0
 40
41.0
 40
41.0
 40
42.0
 40
42.0
 40
42.0
 40
43.0
 40
43.0
 40
43.0
 40
44.0
 40
44.0
 40
44.0
 40
45.0
 40
45.0
 40
45.0
 40
46.0
 40
46.0
 40
46.0
 40
47.0
 40
47.0
 40
47.0
 40
48.0
 40
48.0
 40
48.0
 40
49.0
 40
49.0
 40
49.0
 40
50.0
 40
50.0
 40
50.0
 40
51.0
 40
51.0
 40
51.0
 40
52.0
 40
52.0
 40
52.0
 40
53.0
 40
53.0
 40
53.0
 40
54.0
 40
54.0
 40
54.0
 40
55.0
 40
55.0
 40
55.0
 40
56.0
 40
56.0
 40
56.0
 40
57.0
 40
57.0
 40
57.0
 40
58.0
 40
58.0
 40
58.0
 40
59.0
 40
59.0
 40
59.0
 40
60.0
 40
60.0
 40
60.0
 40
61.0
 40
61.0
 40
61.0
 40
62.0
 40
62.0
 40
62.0
 40
63.0
 40
63.0
 40
63.0
 40
64.0
 40
64.0
 40
64.0
 40
64.0
 10
108.0333712837556
 20
-109.1442423229744
 10
108.0226914877513
 20
-109.1738701441475
 10
107.9996093480001
 20
-109.2203789331984
 10
107.9885850424473
 20
-109.2479396970804
 10
107.9885850424473
 20
-109.2479396970804
 10
107.9272623428099
 20
-109.4002129175284
 10
107.9272623428099
 20
-109.4002129175284
 10
107.9169270563541
 20
-109.4257066241193
 10
107.8680067004636
 20
-109.5376722273899
 10
107.8556043567167
 20
-109.5610988766896
 10
107.8535372994255
 20
-109.567300048563
 10
107.8494031848432
 20
-109.5759127872762
 10
107.8469916180035
 20
-109.5821139591496
 10
107.8469916180035
 20
-109.5821139591496
 10
107.6378743220489
 20
-109.5294039982253
 10
107.6378743220489
 20
-109.5294039982253
 10
107.7157334800155
 20
-109.4195054522458
 10
107.777056179653
 20
-109.2841131996755
 10
107.8087510581173
 20
-109.1738701441475
 10
107.8087510581173
 20
-109.1738701441475
 10
107.3436631676085
 20
-109.1738701441475
 10
107.3436631676085
 20
-109.1738701441475
 10
107.2630479332537
 20
-109.338890217891
 10
107.1955240617428
 20
-109.4170938854061
 10
107.1617621259873
 20
-109.4574015025836
 10
107.1617621259873
 20
-109.4574015025836
 10
107.0391167267125
 20
-109.3919446883638
 10
107.0391167267125
 20
-109.3919446883638
 10
107.0391167267125
 20
-109.3919446883638
 10
107.0391167267125
 20
-109.5631659339807
 10
107.0391167267125
 20
-109.5631659339807
 10
107.0391167267125
 20
-109.6709974226691
 10
107.0411837840036
 20
-109.7199177785596
 10
107.0515190704593
 20
-109.8256822099568
 10
106.9798610843661
 20
-109.8232706431171
 10
106.9585014923576
 20
-109.8232706431171
 10
106.7531738014367
 20
-109.8232706431171
 10
106.7531738014367
 20
-109.8232706431171
 10
106.6983967832212
 20
-109.8232706431171
 10
106.6983967832212
 20
-109.8232706431171
 10
106.6983967832212
 20
-109.8232706431171
 10
106.6983967832212
 20
-109.9586628956874
 10
106.6983967832212
 20
-109.9586628956874
 10
106.6983967832212
 20
-109.9586628956874
 10
106.770399278863
 20
-109.9586628956874
 10
106.770399278863
 20
-109.9586628956874
 10
106.8358560930827
 20
-109.9586628956874
 10
106.9819281416573
 20
-109.9545287811051
 10
107.0873480635059
 20
-109.9462605519405
 10
107.0873480635059
 20
-109.9462605519405
 10
107.0873480635059
 20
-110.1236829694309
 10
107.0873480635059
 20
-110.1236829694309
 10
106.9901963708219
 20
-110.1174817975574
 10
106.8317219785004
 20
-110.1133476829751
 10
106.770399278863
 20
-110.1133476829751
 10
106.770399278863
 20
-110.1133476829751
 10
106.6983967832212
 20
-110.1133476829751
 10
106.6983967832212
 20
-110.1133476829751
 10
106.7004638405124
 20
-110.2022311464946
 10
106.7049424646432
 20
-110.4409762636224
 10
106.7070095219344
 20
-110.5150458165553
 10
106.7070095219344
 20
-110.5150458165553
 10
106.5058159455958
 20
-110.5150458165553
 10
106.5058159455958
 20
-110.5150458165553
 10
106.5185627988912
 20
-110.3014498964698
 10
106.5185627988912
 20
-110.2718220752966
 10
106.5226969134735
 20
-110.1133476829751
 10
106.5226969134735
 20
-110.1133476829751
 10
106.4527614751229
 20
-110.1133476829751
 10
106.4527614751229
 20
-110.1133476829751
 10
106.3959173996163
 20
-110.1133476829751
 10
106.2432996696197
 20
-110.1174817975574
 10
106.1337456331888
 20
-110.1236829694309
 10
106.1337456331888
 20
-110.1236829694309
 10
106.1337456331888
 20
-109.9462605519405
 10
106.1337456331888
 20
-109.9462605519405
 10
106.2391655550374
 20
-109.9545287811051
 10
106.3831705463209
 20
-109.9586628956874
 10
106.4527614751229
 20
-109.9586628956874
 10
106.4527614751229
 20
-109.9586628956874
 10
106.5271755376043
 20
-109.9586628956874
 10
106.5271755376043
 20
-109.9586628956874
 10
106.5271755376043
 20
-109.9586628956874
 10
106.5271755376043
 20
-109.8232706431171
 10
106.5271755376043
 20
-109.8232706431171
 10
106.5271755376043
 20
-109.8232706431171
 10
106.4823892962961
 20
-109.8232706431171
 10
106.4823892962961
 20
-109.8232706431171
 10
106.4065971956206
 20
-109.8232706431171
 10
106.2136718484466
 20
-109.8256822099568
 10
106.1799099126911
 20
-109.8256822099568
 10
106.1864555941131
 20
-109.7536797143151
 10
106.1950683328262
 20
-109.6730644799602
 10
106.1950683328262
 20
-109.5524861379765
 10
106.1950683328262
 20
-109.5524861379765
 10
106.1950683328262
 20
-109.3791978350684
 10
106.1950683328262
 20
-109.3791978350684
 10
106.1950683328262
 20
-109.3071953394267
 10
106.1864555941131
 20
-109.1866169974429
 10
106.1799099126911
 20
-109.1063462726366
 10
106.2584580897548
 20
-109.1104803872189
 10
106.2963541400926
 20
-109.1125474445101
 10
106.4231336539498
 20
-109.1125474445101
 10
106.4231336539498
 20
-109.1125474445101
 10
106.5271755376043
 20
-109.1125474445101
 10
106.5271755376043
 20
-109.1125474445101
 10
106.5271755376043
 20
-109.1125474445101
 10
106.5271755376043
 20
-108.9664753959355
 10
106.5271755376043
 20
-108.9664753959355
 10
106.5271755376043
 20
-108.9664753959355
 10
106.4486273605406
 20
-108.9664753959355
 10
106.4486273605406
 20
-108.9664753959355
 10
106.3935058327766
 20
-108.9664753959355
 10
106.2222845871597
 20
-108.9709540200663
 10
106.1378797477711
 20
-108.9771551919397
 10
106.1378797477711
 20
-108.9771551919397
 10
106.1378797477711
 20
-108.7993882649009
 10
106.1378797477711
 20
-108.7993882649009
 10
106.2202175298686
 20
-108.8059339463228
 10
106.3831705463209
 20
-108.8100680609051
 10
106.4486273605406
 20
-108.8100680609051
 10
106.4486273605406
 20
-108.8100680609051
 10
106.5271755376043
 20
-108.8100680609051
 10
106.5271755376043
 20
-108.8100680609051
 10
106.5271755376043
 20
-108.7763061251497
 10
106.5226969134735
 20
-108.6219658474105
 10
106.5226969134735
 20
-108.5899264593977
 10
106.5226969134735
 20
-108.5899264593977
 10
106.7194118656813
 20
-108.6071519368239
 10
106.7194118656813
 20
-108.6071519368239
 10
106.7366373431075
 20
-108.6092189941151
 10
106.7576524255675
 20
-108.6112860514062
 10
106.7576524255675
 20
-108.6323011338662
 10
106.7576524255675
 20
-108.6557277831659
 10
106.7366373431075
 20
-108.6639960123305
 10
106.7090765792255
 20
-108.676742865626
 10
106.7090765792255
 20
-108.6981024576345
 10
106.7070095219344
 20
-108.7931870930274
 10
106.7070095219344
 20
-108.8100680609051
 10
106.7070095219344
 20
-108.8100680609051
 10
106.7662651642807
 20
-108.8100680609051
 10
106.7662651642807
 20
-108.8100680609051
 10
106.8337890357916
 20
-108.8100680609051
 10
106.977794027075
 20
-108.8059339463228
 10
107.0832139489236
 20
-108.7993882649009
 10
107.0832139489236
 20
-108.7993882649009
 10
107.0832139489236
 20
-108.9771551919397
 10
107.0832139489236
 20
-108.9771551919397
 10
106.9860622562396
 20
-108.9709540200663
 10
106.8296549212093
 20
-108.9664753959355
 10
106.7662651642807
 20
-108.9664753959355
 10
106.7662651642807
 20
-108.9664753959355
 10
106.6983967832212
 20
-108.9664753959355
 10
106.6983967832212
 20
-108.9664753959355
 10
106.6983967832212
 20
-108.9664753959355
 10
106.6983967832212
 20
-109.1125474445101
 10
106.6983967832212
 20
-109.1125474445101
 10
106.6983967832212
 20
-109.1125474445101
 10
106.7683322215718
 20
-109.1125474445101
 10
106.7683322215718
 20
-109.1125474445101
 10
106.9185383847287
 20
-109.1125474445101
 10
106.9901963708219
 20
-109.1084133299278
 10
107.0515190704593
 20
-109.1063462726366
 10
107.0432508412947
 20
-109.2014309080295
 10
107.0411837840036
 20
-109.2796345755447
 10
107.0391167267125
 20
-109.317875135431
 10
107.1934570044516
 20
-109.1063462726366
 10
107.2992214358488
 20
-108.8586439072472
 10
107.3161024037265
 20
-108.5964721408196
 10
107.3161024037265
 20
-108.5964721408196
 10
107.5317653811032
 20
-108.6471150444528
 10
107.5317653811032
 20
-108.6471150444528
 10
107.5469238012383
 20
-108.6515936685836
 10
107.5613932022763
 20
-108.6577948404571
 10
107.5613932022763
 20
-108.6746758083348
 10
107.5613932022763
 20
-108.6915567762125
 10
107.557259087694
 20
-108.6936238335037
 10
107.5062716745123
 20
-108.7149834255122
 10
107.4897352161831
 20
-108.7911200357363
 10
107.4642415095923
 20
-108.8820705565469
 10
107.4153211537017
 20
-109.008850070404
 10
107.4153211537017
 20
-109.008850070404
 10
107.7539740399018
 20
-109.008850070404
 10
107.7539740399018
 20
-109.008850070404
 10
107.7922145997881
 20
-109.008850070404
 10
107.9210611709364
 20
-109.0047159558217
 10
107.969981526827
 20
-108.9985147839483
 10
107.969981526827
 20
-108.9985147839483
 10
108.0629991049287
 20
-109.0681057127503
 10
108.0629991049287
 20
-109.0681057127503
 10
108.0543863662156
 20
-109.0894653047589
 10
108.0478406847936
 20
-109.1084133299278
 10
108.0333712837556
 20
-109.1442423229744
 97
        0
 97
        0
 92
        1
 93
        4
 72
     1
 10
106.5271755376043
 20
-109.2692992890889
 11
106.3683566357343
 21
-109.2692992890889
 72
     1
 10
106.3683566357343
 20
-109.2692992890889
 11
106.3683566357343
 21
-109.3981458602373
 72
     1
 10
106.3683566357343
 20
-109.3981458602373
 11
106.5271755376043
 21
-109.3981458602373
 72
     1
 10
106.5271755376043
 20
-109.3981458602373
 11
106.5271755376043
 21
-109.2692992890889
 97
        0
 92
        1
 93
        4
 72
     1
 10
106.5271755376043
 20
-109.5421508515207
 11
106.3683566357343
 21
-109.5421508515207
 72
     1
 10
106.3683566357343
 20
-109.5421508515207
 11
106.3683566357343
 21
-109.6709974226691
 72
     1
 10
106.3683566357343
 20
-109.6709974226691
 11
106.5271755376043
 21
-109.6709974226691
 72
     1
 10
106.5271755376043
 20
-109.6709974226691
 11
106.5271755376043
 21
-109.5421508515207
 97
        0
 92
        1
 93
        4
 72
     1
 10
106.8592827423824
 20
-109.2692992890889
 11
106.6983967832212
 21
-109.2692992890889
 72
     1
 10
106.6983967832212
 20
-109.2692992890889
 11
106.6983967832212
 21
-109.3981458602373
 72
     1
 10
106.6983967832212
 20
-109.3981458602373
 11
106.8592827423824
 21
-109.3981458602373
 72
     1
 10
106.8592827423824
 20
-109.3981458602373
 11
106.8592827423824
 21
-109.2692992890889
 97
        0
 92
        1
 93
        4
 72
     1
 10
106.8592827423824
 20
-109.5421508515207
 11
106.6983967832212
 21
-109.5421508515207
 72
     1
 10
106.6983967832212
 20
-109.5421508515207
 11
106.6983967832212
 21
-109.6709974226691
 72
     1
 10
106.6983967832212
 20
-109.6709974226691
 11
106.8592827423824
 21
-109.6709974226691
 72
     1
 10
106.8592827423824
 20
-109.6709974226691
 11
106.8592827423824
 21
-109.5421508515207
 97
        0
 92
        1
 93
        1
 72
     4
 94
        3
 73
     0
 74
     1
 95
       41
 96
       37
 40
0.0
 40
0.0
 40
0.0
 40
0.0
 40
1.0
 40
1.0
 40
1.0
 40
2.0
 40
2.0
 40
2.0
 40
3.0
 40
3.0
 40
3.0
 40
4.0
 40
4.0
 40
4.0
 40
5.0
 40
5.0
 40
5.0
 40
6.0
 40
6.0
 40
6.0
 40
7.0
 40
7.0
 40
7.0
 40
8.0
 40
8.0
 40
8.0
 40
9.0
 40
9.0
 40
9.0
 40
10.0
 40
10.0
 40
10.0
 40
11.0
 40
11.0
 40
11.0
 40
12.0
 40
12.0
 40
12.0
 40
12.0
 10
107.9486219348184
 20
-110.5002319059687
 10
107.7074652508509
 20
-110.3648396533984
 10
107.529698323812
 20
-110.0689059512154
 10
107.4897352161831
 20
-109.9397148705185
 10
107.3691568741994
 20
-110.2042982037857
 10
107.2058593481985
 20
-110.3820651308246
 10
107.0239583065773
 20
-110.4960977913864
 10
107.0239583065773
 20
-110.4960977913864
 10
106.8275878639181
 20
-110.3586384815249
 10
106.8275878639181
 20
-110.3586384815249
 10
106.8971787927202
 20
-110.3331447749341
 10
107.0432508412947
 20
-110.2718220752966
 10
107.1658962405696
 20
-110.1174817975574
 10
107.2906086971357
 20
-109.9610744625271
 10
107.3794921606551
 20
-109.7281860077242
 10
107.3794921606551
 20
-109.4680812985878
 10
107.3794921606551
 20
-109.366450981773
 10
107.3670898169082
 20
-109.2944484861313
 10
107.3560655113554
 20
-109.2479396970804
 10
107.3560655113554
 20
-109.2479396970804
 10
107.5613932022763
 20
-109.2692992890889
 10
107.5613932022763
 20
-109.2692992890889
 10
107.5827527942849
 20
-109.2713663463801
 10
107.6037678767449
 20
-109.2734334036712
 10
107.6037678767449
 20
-109.2944484861313
 10
107.6037678767449
 20
-109.3137410208487
 10
107.5930880807406
 20
-109.3220092500133
 10
107.5593261449852
 20
-109.3433688420218
 10
107.5510579158206
 20
-109.5442179088119
 10
107.6082465008757
 20
-109.7874416500705
 10
107.6695692005132
 20
-109.9080199920542
 10
107.7605197213238
 20
-110.083719861802
 10
107.9548231066919
 20
-110.263553846132
 10
108.0905598688107
 20
-110.3203979216387
 10
108.0905598688107
 20
-110.3203979216387
 10
107.9486219348184
 20
-110.5002319059687
 10
107.9486219348184
 20
-110.5002319059687
 97
        0
 97
        0
 75
     2
 76
     1
 98
        0
  0
SPLINE
  5
1A6
330
183
100
AcDbEntity
  8
_U+30EC_U+30A4_U+30E4_U+30FC 1
370
     0
100
AcDbSpline
210
0.0
220
0.0
230
1.0
 70
    11
 71
     3
 72
    71
 73
    67
 74
     0
 42
0.0000000001
 43
0.0000000001
 12
1.0
 22
0.0
 32
0.0
 13
1.0
 23
0.0
 33
0.0
 40
0.0
 40
0.0
 40
0.0
 40
0.0
 40
1.0
 40
1.0
 40
1.0
 40
2.0
 40
2.0
 40
2.0
 40
3.0
 40
3.0
 40
3.0
 40
4.0
 40
4.0
 40
4.0
 40
5.0
 40
5.0
 40
5.0
 40
6.0
 40
6.0
 40
6.0
 40
7.0
 40
7.0
 40
7.0
 40
8.0
 40
8.0
 40
8.0
 40
9.0
 40
9.0
 40
9.0
 40
10.0
 40
10.0
 40
10.0
 40
11.0
 40
11.0
 40
11.0
 40
12.0
 40
12.0
 40
12.0
 40
13.0
 40
13.0
 40
13.0
 40
14.0
 40
14.0
 40
14.0
 40
15.0
 40
15.0
 40
15.0
 40
16.0
 40
16.0
 40
16.0
 40
17.0
 40
17.0
 40
17.0
 40
18.0
 40
18.0
 40
18.0
 40
19.0
 40
19.0
 40
19.0
 40
20.0
 40
20.0
 40
20.0
 40
21.0
 40
21.0
 40
21.0
 40
22.0
 40
22.0
 40
22.0
 40
22.0
 10
109.142692030006
 20
-108.7676933864365
 30
0.0
 10
109.1282226289679
 20
-108.7676933864365
 30
0.0
 10
109.1154757756725
 20
-108.7635592718542
 30
0.0
 10
109.0899820690817
 20
-108.7549465331411
 30
0.0
 10
108.9483886446379
 20
-108.8017998317405
 30
0.0
 10
108.7747558321813
 20
-108.8186807996182
 30
0.0
 10
108.6352294650287
 20
-108.8228149142005
 30
0.0
 10
108.6352294650287
 20
-108.8228149142005
 30
0.0
 10
108.6331624077375
 20
-108.91169837772
 30
0.0
 10
108.6331624077375
 20
-108.91169837772
 30
0.0
 10
108.6331624077375
 20
-108.91169837772
 30
0.0
 10
108.8932671168739
 20
-108.91169837772
 30
0.0
 10
108.8932671168739
 20
-108.91169837772
 30
0.0
 10
108.9463215873468
 20
-108.91169837772
 30
0.0
 10
109.1282226289679
 20
-108.9030856390069
 30
0.0
 10
109.1723198511792
 20
-108.8968844671334
 30
0.0
 10
109.1723198511792
 20
-108.8968844671334
 30
0.0
 10
109.1723198511792
 20
-109.0577704262946
 30
0.0
 10
109.1723198511792
 20
-109.0577704262946
 30
0.0
 10
109.1175428329637
 20
-109.0512247448726
 30
0.0
 10
108.9924858668491
 20
-109.0491576875815
 30
0.0
 10
108.9545898165114
 20
-109.0512247448726
 30
0.0
 10
108.9545898165114
 20
-109.0512247448726
 30
0.0
 10
108.9545898165114
 20
-109.1611232908521
 30
0.0
 10
108.9545898165114
 20
-109.1611232908521
 30
0.0
 10
108.9545898165114
 20
-109.207632079903
 30
0.0
 10
108.9566568738025
 20
-109.2713663463801
 30
0.0
 10
108.962858045676
 20
-109.3092623967178
 30
0.0
 10
108.962858045676
 20
-109.3092623967178
 30
0.0
 10
108.770621717599
 20
-109.3092623967178
 30
0.0
 10
108.770621717599
 20
-109.3092623967178
 30
0.0
 10
108.7768228894725
 20
-109.2692992890889
 30
0.0
 10
108.7833685708944
 20
-109.1866169974429
 30
0.0
 10
108.7833685708944
 20
-109.1718030868564
 30
0.0
 10
108.7833685708944
 20
-109.1718030868564
 30
0.0
 10
108.7833685708944
 20
-109.0512247448726
 30
0.0
 10
108.7833685708944
 20
-109.0512247448726
 30
0.0
 10
108.7833685708944
 20
-109.0512247448726
 30
0.0
 10
108.618348497151
 20
-109.0512247448726
 30
0.0
 10
108.618348497151
 20
-109.0512247448726
 30
0.0
 10
108.5759738226824
 20
-109.2713663463801
 30
0.0
 10
108.5211968044669
 20
-109.3516370711864
 30
0.0
 10
108.4150878635212
 20
-109.4512003307101
 30
0.0
 10
108.4150878635212
 20
-109.4512003307101
 30
0.0
 10
108.2480007324866
 20
-109.3368231605998
 30
0.0
 10
108.2480007324866
 20
-109.3368231605998
 30
0.0
 10
108.3117349989637
 20
-109.2882473142578
 30
0.0
 10
108.4619411621206
 20
-109.1759372014387
 30
0.0
 10
108.4619411621206
 20
-108.8269490287828
 30
0.0
 10
108.4619411621206
 20
-108.7446112466854
 30
0.0
 10
108.4533284234075
 20
-108.6981024576345
 30
0.0
 10
108.4447156846944
 20
-108.649182101744
 30
0.0
 10
108.590787733269
 20
-108.6639960123305
 30
0.0
 10
108.6056016438556
 20
-108.6639960123305
 30
0.0
 10
108.6417751464507
 20
-108.6639960123305
 30
0.0
 10
108.7492621255905
 20
-108.6639960123305
 30
0.0
 10
108.8912000595828
 20
-108.6471150444528
 30
0.0
 10
109.0517415091954
 20
-108.5857923448154
 30
0.0
 10
109.0517415091954
 20
-108.5857923448154
 30
0.0
 10
109.1661186793057
 20
-108.7170504828034
 30
0.0
 10
109.1661186793057
 20
-108.7170504828034
 30
0.0
 10
109.1723198511792
 20
-108.7232516546768
 30
0.0
 10
109.17679847531
 20
-108.73186439339
 30
0.0
 10
109.17679847531
 20
-108.7401326225546
 30
0.0
 10
109.17679847531
 20
-108.7635592718542
 30
0.0
 10
109.1578504501411
 20
-108.7676933864365
 30
0.0
 10
109.142692030006
 20
-108.7676933864365
 30
0.0
  0
SPLINE
  5
1A7
330
183
100
AcDbEntity
  8
_U+30EC_U+30A4_U+30E4_U+30FC 1
370
     0
100
AcDbSpline
210
0.0
220
0.0
230
1.0
 70
    11
 71
     3
 72
    74
 73
    70
 74
     0
 42
0.0000000001
 43
0.0000000001
 12
1.0
 22
0.0
 32
0.0
 13
1.0
 23
0.0
 33
0.0
 40
0.0
 40
0.0
 40
0.0
 40
0.0
 40
1.0
 40
1.0
 40
1.0
 40
2.0
 40
2.0
 40
2.0
 40
3.0
 40
3.0
 40
3.0
 40
4.0
 40
4.0
 40
4.0
 40
5.0
 40
5.0
 40
5.0
 40
6.0
 40
6.0
 40
6.0
 40
7.0
 40
7.0
 40
7.0
 40
8.0
 40
8.0
 40
8.0
 40
9.0
 40
9.0
 40
9.0
 40
10.0
 40
10.0
 40
10.0
 40
11.0
 40
11.0
 40
11.0
 40
12.0
 40
12.0
 40
12.0
 40
13.0
 40
13.0
 40
13.0
 40
14.0
 40
14.0
 40
14.0
 40
15.0
 40
15.0
 40
15.0
 40
16.0
 40
16.0
 40
16.0
 40
17.0
 40
17.0
 40
17.0
 40
18.0
 40
18.0
 40
18.0
 40
19.0
 40
19.0
 40
19.0
 40
20.0
 40
20.0
 40
20.0
 40
21.0
 40
21.0
 40
21.0
 40
22.0
 40
22.0
 40
22.0
 40
23.0
 40
23.0
 40
23.0
 40
23.0
 10
109.9805392520188
 20
-110.5343383512727
 30
0.0
 10
109.7669433319333
 20
-110.5236585552684
 30
0.0
 10
109.5660942651432
 20
-110.4368421490401
 30
0.0
 10
109.3903943953955
 20
-110.3162638070564
 30
0.0
 10
109.3903943953955
 20
-110.3162638070564
 30
0.0
 10
109.487890597628
 20
-110.2294474008281
 30
0.0
 10
109.487890597628
 20
-110.2294474008281
 30
0.0
 10
109.487890597628
 20
-110.2294474008281
 30
0.0
 10
108.9356417913425
 20
-110.2294474008281
 30
0.0
 10
108.9356417913425
 20
-110.2294474008281
 30
0.0
 10
108.9356417913425
 20
-110.2294474008281
 30
0.0
 10
109.0159125161488
 20
-110.2931816673052
 30
0.0
 10
109.0159125161488
 20
-110.2931816673052
 30
0.0
 10
109.0221136880223
 20
-110.2973157818875
 30
0.0
 10
109.0331379935751
 20
-110.3079955778918
 30
0.0
 10
109.0331379935751
 20
-110.3228094884783
 30
0.0
 10
109.0331379935751
 20
-110.3627725961072
 30
0.0
 10
108.9587239310937
 20
-110.3565714242338
 30
0.0
 10
108.9442545300556
 20
-110.3545043669426
 30
0.0
 10
108.7134331325439
 20
-110.4940307340952
 30
0.0
 10
108.5694281412604
 20
-110.5257256125595
 30
0.0
 10
108.4660752767029
 20
-110.5426065804373
 30
0.0
 10
108.4660752767029
 20
-110.5426065804373
 30
0.0
 10
108.3368841960061
 20
-110.3648396533984
 30
0.0
 10
108.3368841960061
 20
-110.3648396533984
 30
0.0
 10
108.5845865613955
 20
-110.3331447749341
 30
0.0
 10
108.6858723686619
 20
-110.2866359858832
 30
0.0
 10
108.7747558321813
 20
-110.2339260249589
 30
0.0
 10
108.701030788797
 20
-110.23599308225
 30
0.0
 10
108.5866536186867
 20
-110.2380601395412
 30
0.0
 10
108.5549587402224
 20
-110.2401271968323
 30
0.0
 10
108.5694281412604
 20
-110.1512437333129
 30
0.0
 10
108.5714951985516
 20
-110.0223971621645
 30
0.0
 10
108.5714951985516
 20
-109.9483276092317
 30
0.0
 10
108.5714951985516
 20
-109.9483276092317
 30
0.0
 10
108.5714951985516
 20
-109.6479152829179
 30
0.0
 10
108.5714951985516
 20
-109.6479152829179
 30
0.0
 10
108.5714951985516
 20
-109.5483520233942
 30
0.0
 10
108.5652940266781
 20
-109.449133273419
 30
0.0
 10
108.5549587402224
 20
-109.3516370711864
 30
0.0
 10
108.6562445474887
 20
-109.3578382430598
 30
0.0
 10
108.8870659450005
 20
-109.3643839244818
 30
0.0
 10
108.9948974336888
 20
-109.3643839244818
 30
0.0
 10
108.9948974336888
 20
-109.3643839244818
 30
0.0
 10
109.4179551592775
 20
-109.3643839244818
 30
0.0
 10
109.4179551592775
 20
-109.3643839244818
 30
0.0
 10
109.5364664439701
 20
-109.3643839244818
 30
0.0
 10
109.5788411184386
 20
-109.3643839244818
 30
0.0
 10
109.6611789005361
 20
-109.3602498098995
 30
0.0
 10
109.8093180064018
 20
-109.3537041284775
 30
0.0
 10
109.8261989742796
 20
-109.3537041284775
 30
0.0
 10
109.8727077633304
 20
-109.3516370711864
 30
0.0
 10
109.8640950246173
 20
-109.4319077959927
 30
0.0
 10
109.859960910035
 20
-109.5907266978627
 30
0.0
 10
109.859960910035
 20
-109.6730644799602
 30
0.0
 10
109.859960910035
 20
-109.6730644799602
 30
0.0
 10
109.859960910035
 20
-109.9586628956874
 30
0.0
 10
109.859960910035
 20
-109.9586628956874
 30
0.0
 10
109.859960910035
 20
-110.0306653913292
 30
0.0
 10
109.8620279673262
 20
-110.1619235293172
 30
0.0
 10
109.8727077633304
 20
-110.2401271968323
 30
0.0
 10
109.8007052676887
 20
-110.23599308225
 30
0.0
 10
109.6780598684138
 20
-110.2339260249589
 30
0.0
 10
109.5998562008987
 20
-110.2318589676677
 30
0.0
 10
109.7097547468781
 20
-110.2993828391786
 30
0.0
 10
109.8620279673262
 20
-110.3500257428118
 30
0.0
 10
110.0735568301205
 20
-110.3545043669426
 30
0.0
 10
110.0735568301205
 20
-110.3545043669426
 30
0.0
 10
109.9805392520188
 20
-110.5343383512727
 30
0.0
 10
109.9805392520188
 20
-110.5343383512727
 30
0.0
  0
POLYLINE
  5
1A8
330
183
100
AcDbEntity
  8
_U+30EC_U+30A4_U+30E4_U+30FC 1
370
     0
100
AcDb2dPolyline
 66
     1
 10
0.0
 20
0.0
 30
0.0
  0
VERTEX
  5
1A9
330
1A8
100
AcDbEntity
  8
_U+30EC_U+30A4_U+30E4_U+30FC 1
370
     0
100
AcDbVertex
100
AcDb2dVertex
 10
109.6759928111227
 20
-109.4997761770521
 30
0.0
  0
VERTEX
  5
1AA
330
1A8
100
AcDbEntity
  8
_U+30EC_U+30A4_U+30E4_U+30FC 1
370
     0
100
AcDbVertex
100
AcDb2dVertex
 10
108.7644205457256
 20
-109.4997761770521
 30
0.0
  0
VERTEX
  5
1AB
330
1A8
100
AcDbEntity
  8
_U+30EC_U+30A4_U+30E4_U+30FC 1
370
     0
100
AcDbVertex
100
AcDb2dVertex
 10
108.7644205457256
 20
-109.6117417803228
 30
0.0
  0
VERTEX
  5
1AC
330
1A8
100
AcDbEntity
  8
_U+30EC_U+30A4_U+30E4_U+30FC 1
370
     0
100
AcDbVertex
100
AcDb2dVertex
 10
109.6759928111227
 20
-109.6117417803228
 30
0.0
  0
VERTEX
  5
1AD
330
1A8
100
AcDbEntity
  8
_U+30EC_U+30A4_U+30E4_U+30FC 1
370
     0
100
AcDbVertex
100
AcDb2dVertex
 10
109.6759928111227
 20
-109.4997761770521
 30
0.0
  0
SEQEND
  5
1AE
330
1A8
100
AcDbEntity
  8
_U+30EC_U+30A4_U+30E4_U+30FC 1
370
     0
  0
POLYLINE
  5
1AF
330
183
100
AcDbEntity
  8
_U+30EC_U+30A4_U+30E4_U+30FC 1
370
     0
100
AcDb2dPolyline
 66
     1
 10
0.0
 20
0.0
 30
0.0
  0
VERTEX
  5
1B0
330
1AF
100
AcDbEntity
  8
_U+30EC_U+30A4_U+30E4_U+30FC 1
370
     0
100
AcDbVertex
100
AcDb2dVertex
 10
109.6759928111227
 20
-109.7450669756019
 30
0.0
  0
VERTEX
  5
1B1
330
1AF
100
AcDbEntity
  8
_U+30EC_U+30A4_U+30E4_U+30FC 1
370
     0
100
AcDbVertex
100
AcDb2dVertex
 10
108.7644205457256
 20
-109.7450669756019
 30
0.0
  0
VERTEX
  5
1B2
330
1AF
100
AcDbEntity
  8
_U+30EC_U+30A4_U+30E4_U+30FC 1
370
     0
100
AcDbVertex
100
AcDb2dVertex
 10
108.7644205457256
 20
-109.8553100311299
 30
0.0
  0
VERTEX
  5
1B3
330
1AF
100
AcDbEntity
  8
_U+30EC_U+30A4_U+30E4_U+30FC 1
370
     0
100
AcDbVertex
100
AcDb2dVertex
 10
109.6759928111227
 20
-109.8553100311299
 30
0.0
  0
VERTEX
  5
1B4
330
1AF
100
AcDbEntity
  8
_U+30EC_U+30A4_U+30E4_U+30FC 1
370
     0
100
AcDbVertex
100
AcDb2dVertex
 10
109.6759928111227
 20
-109.7450669756019
 30
0.0
  0
SEQEND
  5
1B5
330
1AF
100
AcDbEntity
  8
_U+30EC_U+30A4_U+30E4_U+30FC 1
370
     0
  0
POLYLINE
  5
1B6
330
183
100
AcDbEntity
  8
_U+30EC_U+30A4_U+30E4_U+30FC 1
370
     0
100
AcDb2dPolyline
 66
     1
 10
0.0
 20
0.0
 30
0.0
  0
VERTEX
  5
1B7
330
1B6
100
AcDbEntity
  8
_U+30EC_U+30A4_U+30E4_U+30FC 1
370
     0
100
AcDbVertex
100
AcDb2dVertex
 10
109.6759928111227
 20
-109.9907022837002
 30
0.0
  0
VERTEX
  5
1B8
330
1B6
100
AcDbEntity
  8
_U+30EC_U+30A4_U+30E4_U+30FC 1
370
     0
100
AcDbVertex
100
AcDb2dVertex
 10
108.7644205457256
 20
-109.9907022837002
 30
0.0
  0
VERTEX
  5
1B9
330
1B6
100
AcDbEntity
  8
_U+30EC_U+30A4_U+30E4_U+30FC 1
370
     0
100
AcDbVertex
100
AcDb2dVertex
 10
108.7644205457256
 20
-110.0985337723886
 30
0.0
  0
VERTEX
  5
1BA
330
1B6
100
AcDbEntity
  8
_U+30EC_U+30A4_U+30E4_U+30FC 1
370
     0
100
AcDbVertex
100
AcDb2dVertex
 10
109.6759928111227
 20
-110.0985337723886
 30
0.0
  0
VERTEX
  5
1BB
330
1B6
100
AcDbEntity
  8
_U+30EC_U+30A4_U+30E4_U+30FC 1
370
     0
100
AcDbVertex
100
AcDb2dVertex
 10
109.6759928111227
 20
-109.9907022837002
 30
0.0
  0
SEQEND
  5
1BC
330
1B6
100
AcDbEntity
  8
_U+30EC_U+30A4_U+30E4_U+30FC 1
370
     0
  0
SPLINE
  5
1BD
330
183
100
AcDbEntity
  8
_U+30EC_U+30A4_U+30E4_U+30FC 1
370
     0
100
AcDbSpline
210
0.0
220
0.0
230
1.0
 70
    11
 71
     3
 72
    74
 73
    70
 74
     0
 42
0.0000000001
 43
0.0000000001
 12
1.0
 22
0.0
 32
0.0
 13
1.0
 23
0.0
 33
0.0
 40
0.0
 40
0.0
 40
0.0
 40
0.0
 40
1.0
 40
1.0
 40
1.0
 40
2.0
 40
2.0
 40
2.0
 40
3.0
 40
3.0
 40
3.0
 40
4.0
 40
4.0
 40
4.0
 40
5.0
 40
5.0
 40
5.0
 40
6.0
 40
6.0
 40
6.0
 40
7.0
 40
7.0
 40
7.0
 40
8.0
 40
8.0
 40
8.0
 40
9.0
 40
9.0
 40
9.0
 40
10.0
 40
10.0
 40
10.0
 40
11.0
 40
11.0
 40
11.0
 40
12.0
 40
12.0
 40
12.0
 40
13.0
 40
13.0
 40
13.0
 40
14.0
 40
14.0
 40
14.0
 40
15.0
 40
15.0
 40
15.0
 40
16.0
 40
16.0
 40
16.0
 40
17.0
 40
17.0
 40
17.0
 40
18.0
 40
18.0
 40
18.0
 40
19.0
 40
19.0
 40
19.0
 40
20.0
 40
20.0
 40
20.0
 40
21.0
 40
21.0
 40
21.0
 40
22.0
 40
22.0
 40
22.0
 40
23.0
 40
23.0
 40
23.0
 40
23.0
 10
109.9932861053142
 20
-109.0470906302903
 30
0.0
 10
109.9932861053142
 20
-109.0470906302903
 30
0.0
 10
109.832400146153
 20
-109.0470906302903
 30
0.0
 10
109.832400146153
 20
-109.0470906302903
 30
0.0
 10
109.832400146153
 20
-109.0470906302903
 30
0.0
 10
109.832400146153
 20
-109.1611232908521
 30
0.0
 10
109.832400146153
 20
-109.1611232908521
 30
0.0
 10
109.832400146153
 20
-109.2014309080295
 30
0.0
 10
109.838945827575
 20
-109.2755004609624
 30
0.0
 10
109.8430799421573
 20
-109.3009941675532
 30
0.0
 10
109.8430799421573
 20
-109.3009941675532
 30
0.0
 10
109.6315510793629
 20
-109.3009941675532
 30
0.0
 10
109.6315510793629
 20
-109.3009941675532
 30
0.0
 10
109.6422308753672
 20
-109.235192843785
 30
0.0
 10
109.6442979326584
 20
-109.1759372014387
 30
0.0
 10
109.6442979326584
 20
-109.1738701441475
 30
0.0
 10
109.6442979326584
 20
-109.1738701441475
 30
0.0
 10
109.6442979326584
 20
-109.0512247448726
 30
0.0
 10
109.6442979326584
 20
-109.0512247448726
 30
0.0
 10
109.6442979326584
 20
-109.0512247448726
 30
0.0
 10
109.4644639483283
 20
-109.0512247448726
 30
0.0
 10
109.4644639483283
 20
-109.0512247448726
 30
0.0
 10
109.4455159231595
 20
-109.1104803872189
 30
0.0
 10
109.3990071341086
 20
-109.2565524357935
 30
0.0
 10
109.2846299639983
 20
-109.338890217891
 30
0.0
 10
109.2846299639983
 20
-109.338890217891
 30
0.0
 10
109.1282226289679
 20
-109.2331257864938
 30
0.0
 10
109.1282226289679
 20
-109.2331257864938
 30
0.0
 10
109.2019476723523
 20
-109.1866169974429
 30
0.0
 10
109.3183918997537
 20
-109.1125474445101
 30
0.0
 10
109.3183918997537
 20
-108.7911200357363
 30
0.0
 10
109.3183918997537
 20
-108.7359985079723
 30
0.0
 10
109.3142577851714
 20
-108.6915567762125
 30
0.0
 10
109.3121907278803
 20
-108.6536607258748
 30
0.0
 10
109.3883273381043
 20
-108.6619289550394
 30
0.0
 10
109.4623968910372
 20
-108.6684746364614
 30
0.0
 10
109.5257866479658
 20
-108.6684746364614
 30
0.0
 10
109.7035535750047
 20
-108.6684746364614
 30
0.0
 10
109.9023355845036
 20
-108.6092189941151
 30
0.0
 10
109.963658284141
 20
-108.5795911729419
 30
0.0
 10
109.963658284141
 20
-108.5795911729419
 30
0.0
 10
110.0907823075468
 20
-108.7149834255122
 30
0.0
 10
110.0907823075468
 20
-108.7149834255122
 30
0.0
 10
110.0949164221291
 20
-108.7191175400945
 30
0.0
 10
110.0969834794202
 20
-108.7277302788077
 30
0.0
 10
110.0969834794202
 20
-108.7339314506811
 30
0.0
 10
110.0969834794202
 20
-108.7549465331411
 30
0.0
 10
110.0821695688336
 20
-108.7614922145631
 30
0.0
 10
110.0652886009559
 20
-108.7614922145631
 30
0.0
 10
110.0439290089474
 20
-108.7614922145631
 30
0.0
 10
110.0294596079093
 20
-108.75287947585
 30
0.0
 10
110.0101670731919
 20
-108.7425441893942
 30
0.0
 10
109.8368787702838
 20
-108.7993882649009
 30
0.0
 10
109.6188042260675
 20
-108.8248819714917
 30
0.0
 10
109.4858235403369
 20
-108.8269490287828
 30
0.0
 10
109.4858235403369
 20
-108.8269490287828
 30
0.0
 10
109.4813449162061
 20
-108.9096313204288
 30
0.0
 10
109.4813449162061
 20
-108.9096313204288
 30
0.0
 10
109.4813449162061
 20
-108.9096313204288
 30
0.0
 10
109.7545409881864
 20
-108.9096313204288
 30
0.0
 10
109.7545409881864
 20
-108.9096313204288
 30
0.0
 10
109.811385063693
 20
-108.9096313204288
 30
0.0
 10
110.0735568301205
 20
-108.8903387857114
 30
0.0
 10
110.1183430714288
 20
-108.884137613838
 30
0.0
 10
110.1183430714288
 20
-108.884137613838
 30
0.0
 10
110.1183430714288
 20
-109.0532918021638
 30
0.0
 10
110.1183430714288
 20
-109.0532918021638
 30
0.0
 10
110.0845811356733
 20
-109.0491576875815
 30
0.0
 10
110.0714897728294
 20
-109.0470906302903
 30
0.0
 10
109.9932861053142
 20
-109.0470906302903
 30
0.0
  0
HATCH
  5
1BE
330
183
100
AcDbEntity
  8
_U+30EC_U+30A4_U+30E4_U+30FC 1
 62
   179
420
  2234388
100
AcDbHatch
 10
0.0
 20
0.0
 30
0.0
210
0.0
220
0.0
230
1.0
  2
SOLID
 70
     1
 71
     0
 91
        6
 92
        1
 93
        1
 72
     4
 94
        3
 73
     0
 74
     1
 95
       71
 96
       67
 40
0.0
 40
0.0
 40
0.0
 40
0.0
 40
1.0
 40
1.0
 40
1.0
 40
2.0
 40
2.0
 40
2.0
 40
3.0
 40
3.0
 40
3.0
 40
4.0
 40
4.0
 40
4.0
 40
5.0
 40
5.0
 40
5.0
 40
6.0
 40
6.0
 40
6.0
 40
7.0
 40
7.0
 40
7.0
 40
8.0
 40
8.0
 40
8.0
 40
9.0
 40
9.0
 40
9.0
 40
10.0
 40
10.0
 40
10.0
 40
11.0
 40
11.0
 40
11.0
 40
12.0
 40
12.0
 40
12.0
 40
13.0
 40
13.0
 40
13.0
 40
14.0
 40
14.0
 40
14.0
 40
15.0
 40
15.0
 40
15.0
 40
16.0
 40
16.0
 40
16.0
 40
17.0
 40
17.0
 40
17.0
 40
18.0
 40
18.0
 40
18.0
 40
19.0
 40
19.0
 40
19.0
 40
20.0
 40
20.0
 40
20.0
 40
21.0
 40
21.0
 40
21.0
 40
22.0
 40
22.0
 40
22.0
 40
22.0
 10
109.142692030006
 20
-108.7676933864365
 10
109.1282226289679
 20
-108.7676933864365
 10
109.1154757756725
 20
-108.7635592718542
 10
109.0899820690817
 20
-108.7549465331411
 10
108.9483886446379
 20
-108.8017998317405
 10
108.7747558321813
 20
-108.8186807996182
 10
108.6352294650287
 20
-108.8228149142005
 10
108.6352294650287
 20
-108.8228149142005
 10
108.6331624077375
 20
-108.91169837772
 10
108.6331624077375
 20
-108.91169837772
 10
108.6331624077375
 20
-108.91169837772
 10
108.8932671168739
 20
-108.91169837772
 10
108.8932671168739
 20
-108.91169837772
 10
108.9463215873468
 20
-108.91169837772
 10
109.1282226289679
 20
-108.9030856390069
 10
109.1723198511792
 20
-108.8968844671334
 10
109.1723198511792
 20
-108.8968844671334
 10
109.1723198511792
 20
-109.0577704262946
 10
109.1723198511792
 20
-109.0577704262946
 10
109.1175428329637
 20
-109.0512247448726
 10
108.9924858668491
 20
-109.0491576875815
 10
108.9545898165114
 20
-109.0512247448726
 10
108.9545898165114
 20
-109.0512247448726
 10
108.9545898165114
 20
-109.1611232908521
 10
108.9545898165114
 20
-109.1611232908521
 10
108.9545898165114
 20
-109.207632079903
 10
108.9566568738025
 20
-109.2713663463801
 10
108.962858045676
 20
-109.3092623967178
 10
108.962858045676
 20
-109.3092623967178
 10
108.770621717599
 20
-109.3092623967178
 10
108.770621717599
 20
-109.3092623967178
 10
108.7768228894725
 20
-109.2692992890889
 10
108.7833685708944
 20
-109.1866169974429
 10
108.7833685708944
 20
-109.1718030868564
 10
108.7833685708944
 20
-109.1718030868564
 10
108.7833685708944
 20
-109.0512247448726
 10
108.7833685708944
 20
-109.0512247448726
 10
108.7833685708944
 20
-109.0512247448726
 10
108.618348497151
 20
-109.0512247448726
 10
108.618348497151
 20
-109.0512247448726
 10
108.5759738226824
 20
-109.2713663463801
 10
108.5211968044669
 20
-109.3516370711864
 10
108.4150878635212
 20
-109.4512003307101
 10
108.4150878635212
 20
-109.4512003307101
 10
108.2480007324866
 20
-109.3368231605998
 10
108.2480007324866
 20
-109.3368231605998
 10
108.3117349989637
 20
-109.2882473142578
 10
108.4619411621206
 20
-109.1759372014387
 10
108.4619411621206
 20
-108.8269490287828
 10
108.4619411621206
 20
-108.7446112466854
 10
108.4533284234075
 20
-108.6981024576345
 10
108.4447156846944
 20
-108.649182101744
 10
108.590787733269
 20
-108.6639960123305
 10
108.6056016438556
 20
-108.6639960123305
 10
108.6417751464507
 20
-108.6639960123305
 10
108.7492621255905
 20
-108.6639960123305
 10
108.8912000595828
 20
-108.6471150444528
 10
109.0517415091954
 20
-108.5857923448154
 10
109.0517415091954
 20
-108.5857923448154
 10
109.1661186793057
 20
-108.7170504828034
 10
109.1661186793057
 20
-108.7170504828034
 10
109.1723198511792
 20
-108.7232516546768
 10
109.17679847531
 20
-108.73186439339
 10
109.17679847531
 20
-108.7401326225546
 10
109.17679847531
 20
-108.7635592718542
 10
109.1578504501411
 20
-108.7676933864365
 10
109.142692030006
 20
-108.7676933864365
 97
        0
 97
        0
 92
        1
 93
        1
 72
     4
 94
        3
 73
     0
 74
     1
 95
       74
 96
       70
 40
0.0
 40
0.0
 40
0.0
 40
0.0
 40
1.0
 40
1.0
 40
1.0
 40
2.0
 40
2.0
 40
2.0
 40
3.0
 40
3.0
 40
3.0
 40
4.0
 40
4.0
 40
4.0
 40
5.0
 40
5.0
 40
5.0
 40
6.0
 40
6.0
 40
6.0
 40
7.0
 40
7.0
 40
7.0
 40
8.0
 40
8.0
 40
8.0
 40
9.0
 40
9.0
 40
9.0
 40
10.0
 40
10.0
 40
10.0
 40
11.0
 40
11.0
 40
11.0
 40
12.0
 40
12.0
 40
12.0
 40
13.0
 40
13.0
 40
13.0
 40
14.0
 40
14.0
 40
14.0
 40
15.0
 40
15.0
 40
15.0
 40
16.0
 40
16.0
 40
16.0
 40
17.0
 40
17.0
 40
17.0
 40
18.0
 40
18.0
 40
18.0
 40
19.0
 40
19.0
 40
19.0
 40
20.0
 40
20.0
 40
20.0
 40
21.0
 40
21.0
 40
21.0
 40
22.0
 40
22.0
 40
22.0
 40
23.0
 40
23.0
 40
23.0
 40
23.0
 10
109.9805392520188
 20
-110.5343383512727
 10
109.7669433319333
 20
-110.5236585552684
 10
109.5660942651432
 20
-110.4368421490401
 10
109.3903943953955
 20
-110.3162638070564
 10
109.3903943953955
 20
-110.3162638070564
 10
109.487890597628
 20
-110.2294474008281
 10
109.487890597628
 20
-110.2294474008281
 10
109.487890597628
 20
-110.2294474008281
 10
108.9356417913425
 20
-110.2294474008281
 10
108.9356417913425
 20
-110.2294474008281
 10
108.9356417913425
 20
-110.2294474008281
 10
109.0159125161488
 20
-110.2931816673052
 10
109.0159125161488
 20
-110.2931816673052
 10
109.0221136880223
 20
-110.2973157818875
 10
109.0331379935751
 20
-110.3079955778918
 10
109.0331379935751
 20
-110.3228094884783
 10
109.0331379935751
 20
-110.3627725961072
 10
108.9587239310937
 20
-110.3565714242338
 10
108.9442545300556
 20
-110.3545043669426
 10
108.7134331325439
 20
-110.4940307340952
 10
108.5694281412604
 20
-110.5257256125595
 10
108.4660752767029
 20
-110.5426065804373
 10
108.4660752767029
 20
-110.5426065804373
 10
108.3368841960061
 20
-110.3648396533984
 10
108.3368841960061
 20
-110.3648396533984
 10
108.5845865613955
 20
-110.3331447749341
 10
108.6858723686619
 20
-110.2866359858832
 10
108.7747558321813
 20
-110.2339260249589
 10
108.701030788797
 20
-110.23599308225
 10
108.5866536186867
 20
-110.2380601395412
 10
108.5549587402224
 20
-110.2401271968323
 10
108.5694281412604
 20
-110.1512437333129
 10
108.5714951985516
 20
-110.0223971621645
 10
108.5714951985516
 20
-109.9483276092317
 10
108.5714951985516
 20
-109.9483276092317
 10
108.5714951985516
 20
-109.6479152829179
 10
108.5714951985516
 20
-109.6479152829179
 10
108.5714951985516
 20
-109.5483520233942
 10
108.5652940266781
 20
-109.449133273419
 10
108.5549587402224
 20
-109.3516370711864
 10
108.6562445474887
 20
-109.3578382430598
 10
108.8870659450005
 20
-109.3643839244818
 10
108.9948974336888
 20
-109.3643839244818
 10
108.9948974336888
 20
-109.3643839244818
 10
109.4179551592775
 20
-109.3643839244818
 10
109.4179551592775
 20
-109.3643839244818
 10
109.5364664439701
 20
-109.3643839244818
 10
109.5788411184386
 20
-109.3643839244818
 10
109.6611789005361
 20
-109.3602498098995
 10
109.8093180064018
 20
-109.3537041284775
 10
109.8261989742796
 20
-109.3537041284775
 10
109.8727077633304
 20
-109.3516370711864
 10
109.8640950246173
 20
-109.4319077959927
 10
109.859960910035
 20
-109.5907266978627
 10
109.859960910035
 20
-109.6730644799602
 10
109.859960910035
 20
-109.6730644799602
 10
109.859960910035
 20
-109.9586628956874
 10
109.859960910035
 20
-109.9586628956874
 10
109.859960910035
 20
-110.0306653913292
 10
109.8620279673262
 20
-110.1619235293172
 10
109.8727077633304
 20
-110.2401271968323
 10
109.8007052676887
 20
-110.23599308225
 10
109.6780598684138
 20
-110.2339260249589
 10
109.5998562008987
 20
-110.2318589676677
 10
109.7097547468781
 20
-110.2993828391786
 10
109.8620279673262
 20
-110.3500257428118
 10
110.0735568301205
 20
-110.3545043669426
 10
110.0735568301205
 20
-110.3545043669426
 10
109.9805392520188
 20
-110.5343383512727
 10
109.9805392520188
 20
-110.5343383512727
 97
        0
 97
        0
 92
        1
 93
        4
 72
     1
 10
109.6759928111227
 20
-109.4997761770521
 11
108.7644205457256
 21
-109.4997761770521
 72
     1
 10
108.7644205457256
 20
-109.4997761770521
 11
108.7644205457256
 21
-109.6117417803228
 72
     1
 10
108.7644205457256
 20
-109.6117417803228
 11
109.6759928111227
 21
-109.6117417803228
 72
     1
 10
109.6759928111227
 20
-109.6117417803228
 11
109.6759928111227
 21
-109.4997761770521
 97
        0
 92
        1
 93
        4
 72
     1
 10
109.6759928111227
 20
-109.7450669756019
 11
108.7644205457256
 21
-109.7450669756019
 72
     1
 10
108.7644205457256
 20
-109.7450669756019
 11
108.7644205457256
 21
-109.8553100311299
 72
     1
 10
108.7644205457256
 20
-109.8553100311299
 11
109.6759928111227
 21
-109.8553100311299
 72
     1
 10
109.6759928111227
 20
-109.8553100311299
 11
109.6759928111227
 21
-109.7450669756019
 97
        0
 92
        1
 93
        4
 72
     1
 10
109.6759928111227
 20
-109.9907022837002
 11
108.7644205457256
 21
-109.9907022837002
 72
     1
 10
108.7644205457256
 20
-109.9907022837002
 11
108.7644205457256
 21
-110.0985337723886
 72
     1
 10
108.7644205457256
 20
-110.0985337723886
 11
109.6759928111227
 21
-110.0985337723886
 72
     1
 10
109.6759928111227
 20
-110.0985337723886
 11
109.6759928111227
 21
-109.9907022837002
 97
        0
 92
        1
 93
        1
 72
     4
 94
        3
 73
     0
 74
     1
 95
       74
 96
       70
 40
0.0
 40
0.0
 40
0.0
 40
0.0
 40
1.0
 40
1.0
 40
1.0
 40
2.0
 40
2.0
 40
2.0
 40
3.0
 40
3.0
 40
3.0
 40
4.0
 40
4.0
 40
4.0
 40
5.0
 40
5.0
 40
5.0
 40
6.0
 40
6.0
 40
6.0
 40
7.0
 40
7.0
 40
7.0
 40
8.0
 40
8.0
 40
8.0
 40
9.0
 40
9.0
 40
9.0
 40
10.0
 40
10.0
 40
10.0
 40
11.0
 40
11.0
 40
11.0
 40
12.0
 40
12.0
 40
12.0
 40
13.0
 40
13.0
 40
13.0
 40
14.0
 40
14.0
 40
14.0
 40
15.0
 40
15.0
 40
15.0
 40
16.0
 40
16.0
 40
16.0
 40
17.0
 40
17.0
 40
17.0
 40
18.0
 40
18.0
 40
18.0
 40
19.0
 40
19.0
 40
19.0
 40
20.0
 40
20.0
 40
20.0
 40
21.0
 40
21.0
 40
21.0
 40
22.0
 40
22.0
 40
22.0
 40
23.0
 40
23.0
 40
23.0
 40
23.0
 10
109.9932861053142
 20
-109.0470906302903
 10
109.9932861053142
 20
-109.0470906302903
 10
109.832400146153
 20
-109.0470906302903
 10
109.832400146153
 20
-109.0470906302903
 10
109.832400146153
 20
-109.0470906302903
 10
109.832400146153
 20
-109.1611232908521
 10
109.832400146153
 20
-109.1611232908521
 10
109.832400146153
 20
-109.2014309080295
 10
109.838945827575
 20
-109.2755004609624
 10
109.8430799421573
 20
-109.3009941675532
 10
109.8430799421573
 20
-109.3009941675532
 10
109.6315510793629
 20
-109.3009941675532
 10
109.6315510793629
 20
-109.3009941675532
 10
109.6422308753672
 20
-109.235192843785
 10
109.6442979326584
 20
-109.1759372014387
 10
109.6442979326584
 20
-109.1738701441475
 10
109.6442979326584
 20
-109.1738701441475
 10
109.6442979326584
 20
-109.0512247448726
 10
109.6442979326584
 20
-109.0512247448726
 10
109.6442979326584
 20
-109.0512247448726
 10
109.4644639483283
 20
-109.0512247448726
 10
109.4644639483283
 20
-109.0512247448726
 10
109.4455159231595
 20
-109.1104803872189
 10
109.3990071341086
 20
-109.2565524357935
 10
109.2846299639983
 20
-109.338890217891
 10
109.2846299639983
 20
-109.338890217891
 10
109.1282226289679
 20
-109.2331257864938
 10
109.1282226289679
 20
-109.2331257864938
 10
109.2019476723523
 20
-109.1866169974429
 10
109.3183918997537
 20
-109.1125474445101
 10
109.3183918997537
 20
-108.7911200357363
 10
109.3183918997537
 20
-108.7359985079723
 10
109.3142577851714
 20
-108.6915567762125
 10
109.3121907278803
 20
-108.6536607258748
 10
109.3883273381043
 20
-108.6619289550394
 10
109.4623968910372
 20
-108.6684746364614
 10
109.5257866479658
 20
-108.6684746364614
 10
109.7035535750047
 20
-108.6684746364614
 10
109.9023355845036
 20
-108.6092189941151
 10
109.963658284141
 20
-108.5795911729419
 10
109.963658284141
 20
-108.5795911729419
 10
110.0907823075468
 20
-108.7149834255122
 10
110.0907823075468
 20
-108.7149834255122
 10
110.0949164221291
 20
-108.7191175400945
 10
110.0969834794202
 20
-108.7277302788077
 10
110.0969834794202
 20
-108.7339314506811
 10
110.0969834794202
 20
-108.7549465331411
 10
110.0821695688336
 20
-108.7614922145631
 10
110.0652886009559
 20
-108.7614922145631
 10
110.0439290089474
 20
-108.7614922145631
 10
110.0294596079093
 20
-108.75287947585
 10
110.0101670731919
 20
-108.7425441893942
 10
109.8368787702838
 20
-108.7993882649009
 10
109.6188042260675
 20
-108.8248819714917
 10
109.4858235403369
 20
-108.8269490287828
 10
109.4858235403369
 20
-108.8269490287828
 10
109.4813449162061
 20
-108.9096313204288
 10
109.4813449162061
 20
-108.9096313204288
 10
109.4813449162061
 20
-108.9096313204288
 10
109.7545409881864
 20
-108.9096313204288
 10
109.7545409881864
 20
-108.9096313204288
 10
109.811385063693
 20
-108.9096313204288
 10
110.0735568301205
 20
-108.8903387857114
 10
110.1183430714288
 20
-108.884137613838
 10
110.1183430714288
 20
-108.884137613838
 10
110.1183430714288
 20
-109.0532918021638
 10
110.1183430714288
 20
-109.0532918021638
 10
110.0845811356733
 20
-109.0491576875815
 10
110.0714897728294
 20
-109.0470906302903
 10
109.9932861053142
 20
-109.0470906302903
 97
        0
 97
        0
 75
     2
 76
     1
 98
        0
  0
ENDBLK
  5
186
330
183
100
AcDbEntity
  8
0
100
AcDbBlockEnd
  0
ENDSEC
  0
SECTION
  2
ENTITIES
  0
POLYLINE
  5
41
330
1F
100
AcDbEntity
  8
_U+30EC_U+30A4_U+30E4_U+30FC 1
 62
   179
420
  2234388
370
    25
100
AcDb2dPolyline
 66
     1
 10
0.0
 20
0.0
 30
0.0
  0
VERTEX
  5
42
330
41
100
AcDbEntity
  8
_U+30EC_U+30A4_U+30E4_U+30FC 1
 62
   179
420
  2234388
370
    25
100
AcDbVertex
100
AcDb2dVertex
 10
80.81486043824114
 20
-138.2020702432272
 30
0.0
  0
VERTEX
  5
43
330
41
100
AcDbEntity
  8
_U+30EC_U+30A4_U+30E4_U+30FC 1
 62
   179
420
  2234388
370
    25
100
AcDbVertex
100
AcDb2dVertex
 10
84.94003199966592
 20
-138.2020702432272
 30
0.0
  0
SEQEND
  5
44
330
41
100
AcDbEntity
  8
_U+30EC_U+30A4_U+30E4_U+30FC 1
 62
   179
420
  2234388
370
    25
  0
POLYLINE
  5
45
330
1F
100
AcDbEntity
  8
_U+30EC_U+30A4_U+30E4_U+30FC 1
 62
   179
420
  2234388
370
    25
100
AcDb2dPolyline
 66
     1
 10
0.0
 20
0.0
 30
0.0
  0
VERTEX
  5
46
330
45
100
AcDbEntity
  8
_U+30EC_U+30A4_U+30E4_U+30FC 1
 62
   179
420
  2234388
370
    25
100
AcDbVertex
100
AcDb2dVertex
 10
85.69039031385601
 20
-138.2020702432272
 30
0.0
  0
VERTEX
  5
47
330
45
100
AcDbEntity
  8
_U+30EC_U+30A4_U+30E4_U+30FC 1
 62
   179
420
  2234388
370
    25
100
AcDbVertex
100
AcDb2dVertex
 10
89.8155265975039
 20
-138.2020702432272
 30
0.0
  0
SEQEND
  5
48
330
45
100
AcDbEntity
  8
_U+30EC_U+30A4_U+30E4_U+30FC 1
 62
   179
420
  2234388
370
    25
  0
POLYLINE
  5
49
330
1F
100
AcDbEntity
  8
_U+30EC_U+30A4_U+30E4_U+30FC 1
  6
AI-Linetype-1
 62
   179
420
  2234388
370
     9
100
AcDb2dPolyline
 66
     1
 10
0.0
 20
0.0
 30
0.0
  0
VERTEX
  5
4A
330
49
100
AcDbEntity
  8
_U+30EC_U+30A4_U+30E4_U+30FC 1
  6
AI-Linetype-1
 62
   179
420
  2234388
370
     9
100
AcDbVertex
100
AcDb2dVertex
 10
85.31556393452975
 20
-135.3901844105968
 30
0.0
  0
VERTEX
  5
4B
330
49
100
AcDbEntity
  8
_U+30EC_U+30A4_U+30E4_U+30FC 1
  6
AI-Linetype-1
 62
   179
420
  2234388
370
     9
100
AcDbVertex
100
AcDb2dVertex
 10
85.31556393452975
 20
-138.6595877431132
 30
0.0
  0
SEQEND
  5
4D
330
49
100
AcDbEntity
  8
_U+30EC_U+30A4_U+30E4_U+30FC 1
  6
AI-Linetype-1
 62
   179
420
  2234388
370
     9
  0
SPLINE
  5
4E
330
1F
100
AcDbEntity
  8
_U+30EC_U+30A4_U+30E4_U+30FC 1
 62
   179
420
  2234388
370
    25
100
AcDbSpline
210
0.0
220
0.0
230
1.0
 70
     8
 71
     3
 72
    11
 73
     7
 74
     0
 42
0.0000000001
 43
0.0000000001
 12
1.0
 22
0.0
 32
0.0
 13
1.0
 23
0.0
 33
0.0
 40
0.0
 40
0.0
 40
0.0
 40
0.0
 40
1.0
 40
1.0
 40
1.0
 40
2.0
 40
2.0
 40
2.0
 40
2.0
 10
84.94003199966592
 20
-138.2020702432272
 30
0.0
 10
85.02685275652097
 20
-138.4087627431755
 30
0.0
 10
85.2645522691645
 20
-138.5066232987069
 30
0.0
 10
85.47128004166821
 20
-138.4204749653947
 30
0.0
 10
85.57048331194068
 20
-138.3791646876275
 30
0.0
 10
85.64904475935528
 20
-138.3006010765359
 30
0.0
 10
85.69039031385601
 20
-138.2020702432272
 30
0.0
  0
SPLINE
  5
4F
330
1F
100
AcDbEntity
  8
_U+30EC_U+30A4_U+30E4_U+30FC 1
 62
   179
420
  2234388
370
    25
100
AcDbSpline
210
0.0
220
0.0
230
1.0
 70
    11
 71
     3
 72
    53
 73
    49
 74
     0
 42
0.0000000001
 43
0.0000000001
 12
1.0
 22
0.0
 32
0.0
 13
1.0
 23
0.0
 33
0.0
 40
0.0
 40
0.0
 40
0.0
 40
0.0
 40
1.0
 40
1.0
 40
1.0
 40
2.0
 40
2.0
 40
2.0
 40
3.0
 40
3.0
 40
3.0
 40
4.0
 40
4.0
 40
4.0
 40
5.0
 40
5.0
 40
5.0
 40
6.0
 40
6.0
 40
6.0
 40
7.0
 40
7.0
 40
7.0
 40
8.0
 40
8.0
 40
8.0
 40
9.0
 40
9.0
 40
9.0
 40
10.0
 40
10.0
 40
10.0
 40
11.0
 40
11.0
 40
11.0
 40
12.0
 40
12.0
 40
12.0
 40
13.0
 40
13.0
 40
13.0
 40
14.0
 40
14.0
 40
14.0
 40
15.0
 40
15.0
 40
15.0
 40
16.0
 40
16.0
 40
16.0
 40
16.0
 10
88.11503191866493
 20
-116.7022755263799
 30
0.0
 10
88.11503191866493
 20
-116.7022755263799
 30
0.0
 10
93.56467233518856
 20
-116.7022755263799
 30
0.0
 10
93.56467233518856
 20
-116.7022755263799
 30
0.0
 10
93.96221760282411
 20
-116.9179285818817
 30
0.0
 10
94.16686398649205
 20
-117.293460526232
 30
0.0
 10
94.16686398649205
 20
-117.7771188594445
 30
0.0
 10
94.16686398649205
 20
-118.1443958037973
 30
0.0
 10
93.85818343881158
 20
-118.3944799704013
 30
0.0
 10
93.85818343881158
 20
-118.3944799704013
 30
0.0
 10
93.85818343881158
 20
-118.3944799704013
 30
0.0
 10
93.85818343881158
 20
-119.068356081344
 30
0.0
 10
93.85818343881158
 20
-119.068356081344
 30
0.0
 10
93.84096788369523
 20
-119.1317502479947
 30
0.0
 10
93.82855010623426
 20
-119.1971905257563
 30
0.0
 10
93.82855010623426
 20
-119.2660880257392
 30
0.0
 10
93.82855010623426
 20
-119.6802138589689
 30
0.0
 10
94.16478259765626
 20
-120.0157408033295
 30
0.0
 10
94.57890842042436
 20
-120.0157408033295
 30
0.0
 10
94.99299896541558
 20
-120.0157408033295
 30
0.0
 10
95.3285611790769
 20
-119.6802138589689
 30
0.0
 10
95.3285611790769
 20
-119.2660880257392
 30
0.0
 10
95.3285611790769
 20
-119.0449316369055
 30
0.0
 10
95.23140618155553
 20
-118.847869970288
 30
0.0
 10
95.07911201877421
 20
-118.7107452481002
 30
0.0
 10
95.07911201877421
 20
-118.7107452481002
 30
0.0
 10
95.07911201877421
 20
-116.7022755263799
 30
0.0
 10
95.07911201877421
 20
-116.7022755263799
 30
0.0
 10
95.07911201877421
 20
-116.7022755263799
 30
0.0
 10
98.40019721182405
 20
-116.7022755263799
 30
0.0
 10
98.40019721182405
 20
-116.7022755263799
 30
0.0
 10
98.40019721182405
 20
-116.7022755263799
 30
0.0
 10
99.28214163376822
 20
-115.9526227487895
 30
0.0
 10
99.28214163376822
 20
-115.9526227487895
 30
0.0
 10
99.28214163376822
 20
-115.9526227487895
 30
0.0
 10
98.40019721182405
 20
-115.2022644156439
 30
0.0
 10
98.40019721182405
 20
-115.2022644156439
 30
0.0
 10
98.40019721182405
 20
-115.2022644156439
 30
0.0
 10
87.11459164488814
 20
-115.2022644156439
 30
0.0
 10
87.11459164488814
 20
-115.2022644156439
 30
0.0
 10
87.11459164488814
 20
-115.2022644156439
 30
0.0
 10
87.11459164488814
 20
-116.2020366376161
 30
0.0
 10
87.11459164488814
 20
-116.2020366376161
 30
0.0
 10
87.11459164488814
 20
-116.2020366376161
 30
0.0
 10
88.11503191866493
 20
-116.2020366376161
 30
0.0
 10
88.11503191866493
 20
-116.2020366376161
 30
0.0
 10
88.11503191866493
 20
-116.2020366376161
 30
0.0
 10
88.11503191866493
 20
-116.7022755263799
 30
0.0
 10
88.11503191866493
 20
-116.7022755263799
 30
0.0
  0
SPLINE
  5
50
330
1F
100
AcDbEntity
  8
_U+30EC_U+30A4_U+30E4_U+30FC 1
 62
   179
420
  2234388
370
    25
100
AcDbSpline
210
0.0
220
0.0
230
1.0
 70
     8
 71
     3
 72
   101
 73
    97
 74
     0
 42
0.0000000001
 43
0.0000000001
 12
1.0
 22
0.0
 32
0.0
 13
1.0
 23
0.0
 33
0.0
 40
0.0
 40
0.0
 40
0.0
 40
0.0
 40
1.0
 40
1.0
 40
1.0
 40
2.0
 40
2.0
 40
2.0
 40
3.0
 40
3.0
 40
3.0
 40
4.0
 40
4.0
 40
4.0
 40
5.0
 40
5.0
 40
5.0
 40
6.0
 40
6.0
 40
6.0
 40
7.0
 40
7.0
 40
7.0
 40
8.0
 40
8.0
 40
8.0
 40
9.0
 40
9.0
 40
9.0
 40
10.0
 40
10.0
 40
10.0
 40
11.0
 40
11.0
 40
11.0
 40
12.0
 40
12.0
 40
12.0
 40
13.0
 40
13.0
 40
13.0
 40
14.0
 40
14.0
 40
14.0
 40
15.0
 40
15.0
 40
15.0
 40
16.0
 40
16.0
 40
16.0
 40
17.0
 40
17.0
 40
17.0
 40
18.0
 40
18.0
 40
18.0
 40
19.0
 40
19.0
 40
19.0
 40
20.0
 40
20.0
 40
20.0
 40
21.0
 40
21.0
 40
21.0
 40
22.0
 40
22.0
 40
22.0
 40
23.0
 40
23.0
 40
23.0
 40
24.0
 40
24.0
 40
24.0
 40
25.0
 40
25.0
 40
25.0
 40
26.0
 40
26.0
 40
26.0
 40
27.0
 40
27.0
 40
27.0
 40
28.0
 40
28.0
 40
28.0
 40
29.0
 40
29.0
 40
29.0
 40
30.0
 40
30.0
 40
30.0
 40
31.0
 40
31.0
 40
31.0
 40
32.0
 40
32.0
 40
32.0
 40
32.0
 10
80.81486043824114
 20
-138.2020702432272
 30
0.0
 10
80.81486043824114
 20
-138.2020702432272
 30
0.0
 10
80.81486043824114
 20
-136.7020944102691
 30
0.0
 10
80.81486043824114
 20
-136.7020944102691
 30
0.0
 10
80.81486043824114
 20
-136.7020944102691
 30
0.0
 10
79.81512351930212
 20
-136.7020944102691
 30
0.0
 10
79.81512351930212
 20
-136.7020944102691
 30
0.0
 10
79.81512351930212
 20
-136.7020944102691
 30
0.0
 10
79.81512351930212
 20
-139.2025127429771
 30
0.0
 10
79.81512351930212
 20
-139.2025127429771
 30
0.0
 10
79.81512351930212
 20
-139.2025127429771
 30
0.0
 10
97.31498223951019
 20
-139.2025127429771
 30
0.0
 10
97.31498223951019
 20
-139.2025127429771
 30
0.0
 10
97.31498223951019
 20
-139.2025127429771
 30
0.0
 10
97.31498223951019
 20
-117.7027180261297
 30
0.0
 10
97.31498223951019
 20
-117.7027180261297
 30
0.0
 10
97.31498223951019
 20
-117.7027180261297
 30
0.0
 10
101.3147413041345
 20
-117.7027180261297
 30
0.0
 10
101.3147413041345
 20
-117.7027180261297
 30
0.0
 10
101.3147413041345
 20
-117.7027180261297
 30
0.0
 10
101.3147413041345
 20
-119.2023763590882
 30
0.0
 10
101.3147413041345
 20
-119.2023763590882
 30
0.0
 10
101.3147413041345
 20
-119.2023763590882
 30
0.0
 10
102.3151837786111
 20
-119.2023763590882
 30
0.0
 10
102.3151837786111
 20
-119.2023763590882
 30
0.0
 10
102.3151837786111
 20
-119.2023763590882
 30
0.0
 10
102.3151837786111
 20
-115.2022644156439
 30
0.0
 10
102.3151837786111
 20
-115.2022644156439
 30
0.0
 10
102.3151837786111
 20
-115.2022644156439
 30
0.0
 10
101.3147413041345
 20
-115.2022644156439
 30
0.0
 10
101.3147413041345
 20
-115.2022644156439
 30
0.0
 10
101.3147413041345
 20
-115.2022644156439
 30
0.0
 10
101.3147413041345
 20
-116.2027421931717
 30
0.0
 10
101.3147413041345
 20
-116.2027421931717
 30
0.0
 10
101.3147413041345
 20
-116.2027421931717
 30
0.0
 10
100.3149691074186
 20
-116.2027421931717
 30
0.0
 10
100.3149691074186
 20
-116.2027421931717
 30
0.0
 10
100.3149691074186
 20
-116.2027421931717
 30
0.0
 10
100.3149691074186
 20
-116.7022755263799
 30
0.0
 10
100.3149691074186
 20
-116.7022755263799
 30
0.0
 10
100.3149691074186
 20
-116.7022755263799
 30
0.0
 10
96.65147781199315
 20
-116.7022755263799
 30
0.0
 10
96.65147781199315
 20
-116.7022755263799
 30
0.0
 10
96.38618892987235
 20
-116.7022755263799
 30
0.0
 10
95.81500644444442
 20
-117.1039483040573
 30
0.0
 10
95.81500644444442
 20
-117.7619846927818
 30
0.0
 10
95.81500644444442
 20
-118.4199858037285
 30
0.0
 10
96.31521004279428
 20
-118.7024902481023
 30
0.0
 10
96.31521004279428
 20
-118.7024902481023
 30
0.0
 10
96.31521004279428
 20
-118.7024902481023
 30
0.0
 10
96.31521004279428
 20
-121.0396430252958
 30
0.0
 10
96.31521004279428
 20
-121.0396430252958
 30
0.0
 10
96.31521004279428
 20
-121.0396430252958
 30
0.0
 10
93.81475649547505
 20
-121.0396430252958
 30
0.0
 10
93.81475649547505
 20
-121.0396430252958
 30
0.0
 10
93.53916650250594
 20
-121.0396430252958
 30
0.0
 10
93.31522317488587
 20
-120.8164052475737
 30
0.0
 10
93.31522317488587
 20
-120.5401096920873
 30
0.0
 10
93.31522317488587
 20
-120.5401096920873
 30
0.0
 10
93.31522317488587
 20
-118.2022513593383
 30
0.0
 10
93.31522317488587
 20
-118.2022513593383
 30
0.0
 10
93.59084844563186
 20
-118.2022513593383
 30
0.0
 10
93.81475649547505
 20
-117.9790135816165
 30
0.0
 10
93.81475649547505
 20
-117.7027180261297
 30
0.0
 10
93.81475649547505
 20
-117.4264224706433
 30
0.0
 10
93.59084844563186
 20
-117.202479137366
 30
0.0
 10
93.31522317488587
 20
-117.202479137366
 30
0.0
 10
93.31522317488587
 20
-117.202479137366
 30
0.0
 10
92.31478070040929
 20
-117.202479137366
 30
0.0
 10
92.31478070040929
 20
-117.202479137366
 30
0.0
 10
92.31478070040929
 20
-117.202479137366
 30
0.0
 10
92.31478070040929
 20
-121.0396430252958
 30
0.0
 10
92.31478070040929
 20
-121.0396430252958
 30
0.0
 10
92.31478070040929
 20
-121.5922341362686
 30
0.0
 10
92.76263207787254
 20
-122.0400855250457
 30
0.0
 10
93.31522317488587
 20
-122.0400855250457
 30
0.0
 10
93.31522317488587
 20
-122.0400855250457
 30
0.0
 10
95.81500644444442
 20
-122.0400855250457
 30
0.0
 10
95.81500644444442
 20
-122.0400855250457
 30
0.0
 10
95.81500644444442
 20
-122.0400855250457
 30
0.0
 10
95.81500644444442
 20
-137.2022980212553
 30
0.0
 10
95.81500644444442
 20
-137.2022980212553
 30
0.0
 10
95.81500644444442
 20
-137.7548891322281
 30
0.0
 10
95.36712219838057
 20
-138.2020702432272
 30
0.0
 10
94.81523424772851
 20
-138.2020702432272
 30
0.0
 10
94.81523424772851
 20
-138.2020702432272
 30
0.0
 10
90.81529879421981
 20
-138.2020702432272
 30
0.0
 10
90.81529879421981
 20
-138.2020702432272
 30
0.0
 10
90.81529879421981
 20
-138.2020702432272
 30
0.0
 10
90.81529879421981
 20
-136.7020944102691
 30
0.0
 10
90.81529879421981
 20
-136.7020944102691
 30
0.0
 10
90.81529879421981
 20
-136.7020944102691
 30
0.0
 10
89.81485631974323
 20
-136.7020944102691
 30
0.0
 10
89.81485631974323
 20
-136.7020944102691
 30
0.0
 10
89.81485631974323
 20
-136.7020944102691
 30
0.0
 10
89.81485631974323
 20
-138.2020702432272
 30
0.0
 10
89.81485631974323
 20
-138.2020702432272
 30
0.0
  0
POLYLINE
  5
51
330
1F
100
AcDbEntity
  8
_U+30EC_U+30A4_U+30E4_U+30FC 1
 62
   179
420
  2234388
370
    25
100
AcDb2dPolyline
 66
     1
 10
0.0
 20
0.0
 30
0.0
  0
VERTEX
  5
52
330
51
100
AcDbEntity
  8
_U+30EC_U+30A4_U+30E4_U+30FC 1
 62
   179
420
  2234388
370
    25
100
AcDbVertex
100
AcDb2dVertex
 10
101.3147413041345
 20
-116.2027421931717
 30
0.0
  0
VERTEX
  5
53
330
51
100
AcDbEntity
  8
_U+30EC_U+30A4_U+30E4_U+30FC 1
 62
   179
420
  2234388
370
    25
100
AcDbVertex
100
AcDb2dVertex
 10
98.3147544362261
 20
-116.2027421931717
 30
0.0
  0
VERTEX
  5
54
330
51
100
AcDbEntity
  8
_U+30EC_U+30A4_U+30E4_U+30FC 1
 62
   179
420
  2234388
370
    25
100
AcDbVertex
100
AcDb2dVertex
 10
98.3147544362261
 20
-115.7025033044076
 30
0.0
  0
VERTEX
  5
55
330
51
100
AcDbEntity
  8
_U+30EC_U+30A4_U+30E4_U+30FC 1
 62
   179
420
  2234388
370
    25
100
AcDbVertex
100
AcDb2dVertex
 10
101.3147413041345
 20
-115.7025033044076
 30
0.0
  0
VERTEX
  5
56
330
51
100
AcDbEntity
  8
_U+30EC_U+30A4_U+30E4_U+30FC 1
 62
   179
420
  2234388
370
    25
100
AcDbVertex
100
AcDb2dVertex
 10
101.3147413041345
 20
-116.2027421931717
 30
0.0
  0
SEQEND
  5
58
330
51
100
AcDbEntity
  8
_U+30EC_U+30A4_U+30E4_U+30FC 1
 62
   179
420
  2234388
370
    25
  0
HATCH
  5
57
330
1F
100
AcDbEntity
  8
_U+30EC_U+30A4_U+30E4_U+30FC 1
 62
     7
420
 16711422
100
AcDbHatch
 10
0.0
 20
0.0
 30
0.0
210
0.0
220
0.0
230
1.0
  2
SOLID
 70
     1
 71
     0
 91
        1
 92
        1
 93
        4
 72
     1
 10
101.3147413041345
 20
-116.2027421931717
 11
98.3147544362261
 21
-116.2027421931717
 72
     1
 10
98.3147544362261
 20
-116.2027421931717
 11
98.3147544362261
 21
-115.7025033044076
 72
     1
 10
98.3147544362261
 20
-115.7025033044076
 11
101.3147413041345
 21
-115.7025033044076
 72
     1
 10
101.3147413041345
 20
-115.7025033044076
 11
101.3147413041345
 21
-116.2027421931717
 97
        0
 75
     2
 76
     1
 98
        0
  0
SPLINE
  5
59
330
1F
100
AcDbEntity
  8
_U+30EC_U+30A4_U+30E4_U+30FC 1
 62
   179
420
  2234388
370
     9
100
AcDbSpline
210
0.0
220
0.0
230
1.0
 70
    11
 71
     3
 72
    17
 73
    13
 74
     0
 42
0.0000000001
 43
0.0000000001
 12
1.0
 22
0.0
 32
0.0
 13
1.0
 23
0.0
 33
0.0
 40
0.0
 40
0.0
 40
0.0
 40
0.0
 40
1.0
 40
1.0
 40
1.0
 40
2.0
 40
2.0
 40
2.0
 40
3.0
 40
3.0
 40
3.0
 40
4.0
 40
4.0
 40
4.0
 40
4.0
 10
87.21449610830616
 20
-110.6671296945556
 30
0.0
 10
87.21449610830616
 20
-110.6120258056804
 30
0.0
 10
87.17039888720896
 20
-110.5672230279136
 30
0.0
 10
87.11459164488814
 20
-110.5672230279136
 30
0.0
 10
87.05945027892838
 20
-110.5672230279136
 30
0.0
 10
87.0146827800705
 20
-110.6120258056804
 30
0.0
 10
87.0146827800705
 20
-110.6671296945556
 30
0.0
 10
87.0146827800705
 20
-110.7215633056528
 30
0.0
 10
87.05945027892838
 20
-110.7670716389748
 30
0.0
 10
87.11459164488814
 20
-110.7670716389748
 30
0.0
 10
87.17039888720896
 20
-110.7670716389748
 30
0.0
 10
87.21449610830616
 20
-110.7215633056528
 30
0.0
 10
87.21449610830616
 20
-110.6671296945556
 30
0.0
  0
SPLINE
  5
5A
330
1F
100
AcDbEntity
  8
_U+30EC_U+30A4_U+30E4_U+30FC 1
 62
   179
420
  2234388
370
     9
100
AcDbSpline
210
0.0
220
0.0
230
1.0
 70
    11
 71
     3
 72
    17
 73
    13
 74
     0
 42
0.0000000001
 43
0.0000000001
 12
1.0
 22
0.0
 32
0.0
 13
1.0
 23
0.0
 33
0.0
 40
0.0
 40
0.0
 40
0.0
 40
0.0
 40
1.0
 40
1.0
 40
1.0
 40
2.0
 40
2.0
 40
2.0
 40
3.0
 40
3.0
 40
3.0
 40
4.0
 40
4.0
 40
4.0
 40
4.0
 10
102.4150904427289
 20
-110.6671296945556
 30
0.0
 10
102.4150904427289
 20
-110.6120258056804
 30
0.0
 10
102.370322943871
 20
-110.5672230279136
 30
0.0
 10
102.3151837786111
 20
-110.5672230279136
 30
0.0
 10
102.260079891128
 20
-110.5672230279136
 30
0.0
 10
102.2152771144932
 20
-110.6120258056804
 30
0.0
 10
102.2152771144932
 20
-110.6671296945556
 30
0.0
 10
102.2152771144932
 20
-110.7215633056528
 30
0.0
 10
102.260079891128
 20
-110.7670716389748
 30
0.0
 10
102.3151837786111
 20
-110.7670716389748
 30
0.0
 10
102.370322943871
 20
-110.7670716389748
 30
0.0
 10
102.4150904427289
 20
-110.7215633056528
 30
0.0
 10
102.4150904427289
 20
-110.6671296945556
 30
0.0
  0
SPLINE
  5
5B
330
1F
100
AcDbEntity
  8
_U+30EC_U+30A4_U+30E4_U+30FC 1
 62
   179
420
  2234388
370
     9
100
AcDbSpline
210
0.0
220
0.0
230
1.0
 70
    11
 71
     3
 72
    17
 73
    13
 74
     0
 42
0.0000000001
 43
0.0000000001
 12
1.0
 22
0.0
 32
0.0
 13
1.0
 23
0.0
 33
0.0
 40
0.0
 40
0.0
 40
0.0
 40
0.0
 40
1.0
 40
1.0
 40
1.0
 40
2.0
 40
2.0
 40
2.0
 40
3.0
 40
3.0
 40
3.0
 40
4.0
 40
4.0
 40
4.0
 40
4.0
 10
77.32567663836875
 20
-115.2022644156439
 30
0.0
 10
77.32567663836875
 20
-115.1471605267687
 30
0.0
 10
77.280911091791
 20
-115.1023577490023
 30
0.0
 10
77.22576997425091
 20
-115.1023577490023
 30
0.0
 10
77.17133636452851
 20
-115.1023577490023
 30
0.0
 10
77.12656886567063
 20
-115.1471605267687
 30
0.0
 10
77.12656886567063
 20
-115.2022644156439
 30
0.0
 10
77.12656886567063
 20
-115.2574035822967
 30
0.0
 10
77.17133636452851
 20
-115.3021710822856
 30
0.0
 10
77.22576997425091
 20
-115.3021710822856
 30
0.0
 10
77.280911091791
 20
-115.3021710822856
 30
0.0
 10
77.32567663836875
 20
-115.2574035822967
 30
0.0
 10
77.32567663836875
 20
-115.2022644156439
 30
0.0
  0
SPLINE
  5
5C
330
1F
100
AcDbEntity
  8
_U+30EC_U+30A4_U+30E4_U+30FC 1
 62
   179
420
  2234388
370
     9
100
AcDbSpline
210
0.0
220
0.0
230
1.0
 70
    11
 71
     3
 72
    17
 73
    13
 74
     0
 42
0.0000000001
 43
0.0000000001
 12
1.0
 22
0.0
 32
0.0
 13
1.0
 23
0.0
 33
0.0
 40
0.0
 40
0.0
 40
0.0
 40
0.0
 40
1.0
 40
1.0
 40
1.0
 40
2.0
 40
2.0
 40
2.0
 40
3.0
 40
3.0
 40
3.0
 40
4.0
 40
4.0
 40
4.0
 40
4.0
 10
77.32567663836875
 20
-139.2025127429771
 30
0.0
 10
77.32567663836875
 20
-139.1474088541021
 30
0.0
 10
77.280911091791
 20
-139.1026060763354
 30
0.0
 10
77.22576997425091
 20
-139.1026060763354
 30
0.0
 10
77.17133636452851
 20
-139.1026060763354
 30
0.0
 10
77.12656886567063
 20
-139.1474088541021
 30
0.0
 10
77.12656886567063
 20
-139.2025127429771
 30
0.0
 10
77.12656886567063
 20
-139.2576519096301
 30
0.0
 10
77.17133636452851
 20
-139.3024194096187
 30
0.0
 10
77.22576997425091
 20
-139.3024194096187
 30
0.0
 10
77.280911091791
 20
-139.3024194096187
 30
0.0
 10
77.32567663836875
 20
-139.2576519096301
 30
0.0
 10
77.32567663836875
 20
-139.2025127429771
 30
0.0
  0
SPLINE
  5
5D
330
1F
100
AcDbEntity
  8
_U+30EC_U+30A4_U+30E4_U+30FC 1
 62
   179
420
  2234388
370
     9
100
AcDbSpline
210
0.0
220
0.0
230
1.0
 70
    11
 71
     3
 72
    17
 73
    13
 74
     0
 42
0.0000000001
 43
0.0000000001
 12
1.0
 22
0.0
 32
0.0
 13
1.0
 23
0.0
 33
0.0
 40
0.0
 40
0.0
 40
0.0
 40
0.0
 40
1.0
 40
1.0
 40
1.0
 40
2.0
 40
2.0
 40
2.0
 40
3.0
 40
3.0
 40
3.0
 40
4.0
 40
4.0
 40
4.0
 40
4.0
 10
79.91503018341994
 20
-143.2016016308666
 30
0.0
 10
79.91503018341994
 20
-143.147168019769
 30
0.0
 10
79.87022740678519
 20
-143.1016949642243
 30
0.0
 10
79.81512351930212
 20
-143.1016949642243
 30
0.0
 10
79.75998435404216
 20
-143.1016949642243
 30
0.0
 10
79.71521685518428
 20
-143.147168019769
 30
0.0
 10
79.71521685518428
 20
-143.2016016308666
 30
0.0
 10
79.71521685518428
 20
-143.2567055197415
 30
0.0
 10
79.75998435404216
 20
-143.3015082975082
 30
0.0
 10
79.81512351930212
 20
-143.3015082975082
 30
0.0
 10
79.87022740678519
 20
-143.3015082975082
 30
0.0
 10
79.91503018341994
 20
-143.2567055197415
 30
0.0
 10
79.91503018341994
 20
-143.2016016308666
 30
0.0
  0
SPLINE
  5
5E
330
1F
100
AcDbEntity
  8
_U+30EC_U+30A4_U+30E4_U+30FC 1
 62
   179
420
  2234388
370
     9
100
AcDbSpline
210
0.0
220
0.0
230
1.0
 70
    11
 71
     3
 72
    17
 73
    13
 74
     0
 42
0.0000000001
 43
0.0000000001
 12
1.0
 22
0.0
 32
0.0
 13
1.0
 23
0.0
 33
0.0
 40
0.0
 40
0.0
 40
0.0
 40
0.0
 40
1.0
 40
1.0
 40
1.0
 40
2.0
 40
2.0
 40
2.0
 40
3.0
 40
3.0
 40
3.0
 40
4.0
 40
4.0
 40
4.0
 40
4.0
 10
102.4150904427289
 20
-143.2016016308666
 30
0.0
 10
102.4150904427289
 20
-143.147168019769
 30
0.0
 10
102.370322943871
 20
-143.1016949642243
 30
0.0
 10
102.3151837786111
 20
-143.1016949642243
 30
0.0
 10
102.260079891128
 20
-143.1016949642243
 30
0.0
 10
102.2152771144932
 20
-143.147168019769
 30
0.0
 10
102.2152771144932
 20
-143.2016016308666
 30
0.0
 10
102.2152771144932
 20
-143.2567055197415
 30
0.0
 10
102.260079891128
 20
-143.3015082975082
 30
0.0
 10
102.3151837786111
 20
-143.3015082975082
 30
0.0
 10
102.370322943871
 20
-143.3015082975082
 30
0.0
 10
102.4150904427289
 20
-143.2567055197415
 30
0.0
 10
102.4150904427289
 20
-143.2016016308666
 30
0.0
  0
POLYLINE
  5
5F
330
1F
100
AcDbEntity
  8
_U+30EC_U+30A4_U+30E4_U+30FC 1
 62
   179
420
  2234388
370
     9
100
AcDb2dPolyline
 66
     1
 10
0.0
 20
0.0
 30
0.0
  0
VERTEX
  5
60
330
5F
100
AcDbEntity
  8
_U+30EC_U+30A4_U+30E4_U+30FC 1
 62
   179
420
  2234388
370
     9
100
AcDbVertex
100
AcDb2dVertex
 10
79.81512351930212
 20
-141.7415602423422
 30
0.0
  0
VERTEX
  5
61
330
5F
100
AcDbEntity
  8
_U+30EC_U+30A4_U+30E4_U+30FC 1
 62
   179
420
  2234388
370
     9
100
AcDbVertex
100
AcDb2dVertex
 10
79.81512351930212
 20
-144.2020441306159
 30
0.0
  0
SEQEND
  5
62
330
5F
100
AcDbEntity
  8
_U+30EC_U+30A4_U+30E4_U+30FC 1
 62
   179
420
  2234388
370
     9
  0
POLYLINE
  5
63
330
1F
100
AcDbEntity
  8
_U+30EC_U+30A4_U+30E4_U+30FC 1
 62
   179
420
  2234388
370
     9
100
AcDb2dPolyline
 66
     1
 10
0.0
 20
0.0
 30
0.0
  0
VERTEX
  5
64
330
63
100
AcDbEntity
  8
_U+30EC_U+30A4_U+30E4_U+30FC 1
 62
   179
420
  2234388
370
     9
100
AcDbVertex
100
AcDb2dVertex
 10
78.68581132589104
 20
-139.2025127429771
 30
0.0
  0
VERTEX
  5
65
330
63
100
AcDbEntity
  8
_U+30EC_U+30A4_U+30E4_U+30FC 1
 62
   179
420
  2234388
370
     9
100
AcDbVertex
100
AcDb2dVertex
 10
76.225997777535
 20
-139.2025127429771
 30
0.0
  0
SEQEND
  5
66
330
63
100
AcDbEntity
  8
_U+30EC_U+30A4_U+30E4_U+30FC 1
 62
   179
420
  2234388
370
     9
  0
SPLINE
  5
67
330
1F
100
AcDbEntity
  8
_U+30EC_U+30A4_U+30E4_U+30FC 1
 62
   179
420
  2234388
370
     9
100
AcDbSpline
210
0.0
220
0.0
230
1.0
 70
    11
 71
     3
 72
    17
 73
    13
 74
     0
 42
0.0000000001
 43
0.0000000001
 12
1.0
 22
0.0
 32
0.0
 13
1.0
 23
0.0
 33
0.0
 40
0.0
 40
0.0
 40
0.0
 40
0.0
 40
1.0
 40
1.0
 40
1.0
 40
2.0
 40
2.0
 40
2.0
 40
3.0
 40
3.0
 40
3.0
 40
4.0
 40
4.0
 40
4.0
 40
4.0
 10
77.26161219555873
 20
-139.2025127429771
 30
0.0
 10
77.26161219555873
 20
-139.2218096874169
 30
0.0
 10
77.2457724737406
 20
-139.237684687413
 30
0.0
 10
77.22576997425091
 20
-139.237684687413
 30
0.0
 10
77.20718053625362
 20
-139.237684687413
 30
0.0
 10
77.19063330848066
 20
-139.2218096874169
 30
0.0
 10
77.19063330848066
 20
-139.2025127429771
 30
0.0
 10
77.19063330848066
 20
-139.1825455207599
 30
0.0
 10
77.20718053625362
 20
-139.1673760763193
 30
0.0
 10
77.22576997425091
 20
-139.1673760763193
 30
0.0
 10
77.2457724737406
 20
-139.1673760763193
 30
0.0
 10
77.26161219555873
 20
-139.1825455207599
 30
0.0
 10
77.26161219555873
 20
-139.2025127429771
 30
0.0
  0
SPLINE
  5
68
330
1F
100
AcDbEntity
  8
_U+30EC_U+30A4_U+30E4_U+30FC 1
 62
   179
420
  2234388
370
     9
100
AcDbSpline
210
0.0
220
0.0
230
1.0
 70
    11
 71
     3
 72
    17
 73
    13
 74
     0
 42
0.0000000001
 43
0.0000000001
 12
1.0
 22
0.0
 32
0.0
 13
1.0
 23
0.0
 33
0.0
 40
0.0
 40
0.0
 40
0.0
 40
0.0
 40
1.0
 40
1.0
 40
1.0
 40
2.0
 40
2.0
 40
2.0
 40
3.0
 40
3.0
 40
3.0
 40
4.0
 40
4.0
 40
4.0
 40
4.0
 10
77.32567663836875
 20
-136.7020944102691
 30
0.0
 10
77.32567663836875
 20
-136.6476607991715
 30
0.0
 10
77.280911091791
 20
-136.6021877436274
 30
0.0
 10
77.22576997425091
 20
-136.6021877436274
 30
0.0
 10
77.17133636452851
 20
-136.6021877436274
 30
0.0
 10
77.12656886567063
 20
-136.6476607991715
 30
0.0
 10
77.12656886567063
 20
-136.7020944102691
 30
0.0
 10
77.12656886567063
 20
-136.757198299144
 30
0.0
 10
77.17133636452851
 20
-136.8020010769107
 30
0.0
 10
77.22576997425091
 20
-136.8020010769107
 30
0.0
 10
77.280911091791
 20
-136.8020010769107
 30
0.0
 10
77.32567663836875
 20
-136.757198299144
 30
0.0
 10
77.32567663836875
 20
-136.7020944102691
 30
0.0
  0
POLYLINE
  5
69
330
1F
100
AcDbEntity
  8
_U+30EC_U+30A4_U+30E4_U+30FC 1
 62
   179
420
  2234388
370
     9
100
AcDb2dPolyline
 66
     1
 10
0.0
 20
0.0
 30
0.0
  0
VERTEX
  5
6A
330
69
100
AcDbEntity
  8
_U+30EC_U+30A4_U+30E4_U+30FC 1
 62
   179
420
  2234388
370
     9
100
AcDbVertex
100
AcDb2dVertex
 10
78.68581132589104
 20
-136.7020944102691
 30
0.0
  0
VERTEX
  5
6B
330
69
100
AcDbEntity
  8
_U+30EC_U+30A4_U+30E4_U+30FC 1
 62
   179
420
  2234388
370
     9
100
AcDbVertex
100
AcDb2dVertex
 10
76.225997777535
 20
-136.7020944102691
 30
0.0
  0
SEQEND
  5
6C
330
69
100
AcDbEntity
  8
_U+30EC_U+30A4_U+30E4_U+30FC 1
 62
   179
420
  2234388
370
     9
  0
SPLINE
  5
6D
330
1F
100
AcDbEntity
  8
_U+30EC_U+30A4_U+30E4_U+30FC 1
 62
   179
420
  2234388
370
     9
100
AcDbSpline
210
0.0
220
0.0
230
1.0
 70
    11
 71
     3
 72
    17
 73
    13
 74
     0
 42
0.0000000001
 43
0.0000000001
 12
1.0
 22
0.0
 32
0.0
 13
1.0
 23
0.0
 33
0.0
 40
0.0
 40
0.0
 40
0.0
 40
0.0
 40
1.0
 40
1.0
 40
1.0
 40
2.0
 40
2.0
 40
2.0
 40
3.0
 40
3.0
 40
3.0
 40
4.0
 40
4.0
 40
4.0
 40
4.0
 10
77.26161219555873
 20
-136.7020944102691
 30
0.0
 10
77.26161219555873
 20
-136.7220616324863
 30
0.0
 10
77.2457724737406
 20
-136.7379013547041
 30
0.0
 10
77.22576997425091
 20
-136.7379013547041
 30
0.0
 10
77.20718053625362
 20
-136.7379013547041
 30
0.0
 10
77.19063330848066
 20
-136.7220616324863
 30
0.0
 10
77.19063330848066
 20
-136.7020944102691
 30
0.0
 10
77.19063330848066
 20
-136.6820919102737
 30
0.0
 10
77.20718053625362
 20
-136.6669224658332
 30
0.0
 10
77.22576997425091
 20
-136.6669224658332
 30
0.0
 10
77.2457724737406
 20
-136.6669224658332
 30
0.0
 10
77.26161219555873
 20
-136.6820919102737
 30
0.0
 10
77.26161219555873
 20
-136.7020944102691
 30
0.0
  0
POLYLINE
  5
6E
330
1F
100
AcDbEntity
  8
_U+30EC_U+30A4_U+30E4_U+30FC 1
 62
   179
420
  2234388
370
     9
100
AcDb2dPolyline
 66
     1
 10
0.0
 20
0.0
 30
0.0
  0
VERTEX
  5
6F
330
6E
100
AcDbEntity
  8
_U+30EC_U+30A4_U+30E4_U+30FC 1
 62
   179
420
  2234388
370
     9
100
AcDbVertex
100
AcDb2dVertex
 10
77.22576997425091
 20
-142.7020682976577
 30
0.0
  0
VERTEX
  5
70
330
6E
100
AcDbEntity
  8
_U+30EC_U+30A4_U+30E4_U+30FC 1
 62
   179
420
  2234388
370
     9
100
AcDbVertex
100
AcDb2dVertex
 10
77.22576997425091
 20
-111.7020385831855
 30
0.0
  0
SEQEND
  5
71
330
6E
100
AcDbEntity
  8
_U+30EC_U+30A4_U+30E4_U+30FC 1
 62
   179
420
  2234388
370
     9
  0
POLYLINE
  5
72
330
1F
100
AcDbEntity
  8
_U+30EC_U+30A4_U+30E4_U+30FC 1
 62
   179
420
  2234388
370
     9
100
AcDb2dPolyline
 66
     1
 10
0.0
 20
0.0
 30
0.0
  0
VERTEX
  5
73
330
72
100
AcDbEntity
  8
_U+30EC_U+30A4_U+30E4_U+30FC 1
 62
   179
420
  2234388
370
     9
100
AcDbVertex
100
AcDb2dVertex
 10
84.61480831217966
 20
-115.2022644156439
 30
0.0
  0
VERTEX
  5
74
330
72
100
AcDbEntity
  8
_U+30EC_U+30A4_U+30E4_U+30FC 1
 62
   179
420
  2234388
370
     9
100
AcDbVertex
100
AcDb2dVertex
 10
76.225997777535
 20
-115.2022644156439
 30
0.0
  0
SEQEND
  5
75
330
72
100
AcDbEntity
  8
_U+30EC_U+30A4_U+30E4_U+30FC 1
 62
   179
420
  2234388
370
     9
  0
INSERT
  5
77
330
1F
100
AcDbEntity
  8
_U+30EC_U+30A4_U+30E4_U+30FC 1
100
AcDbBlockReference
  2
block 2
 10
0.0
 20
0.0
 30
0.0
  0
INSERT
  5
8A
330
1F
100
AcDbEntity
  8
_U+30EC_U+30A4_U+30E4_U+30FC 1
100
AcDbBlockReference
  2
block 3
 10
0.0
 20
0.0
 30
0.0
  0
INSERT
  5
9A
330
1F
100
AcDbEntity
  8
_U+30EC_U+30A4_U+30E4_U+30FC 1
100
AcDbBlockReference
  2
block 4
 10
0.0
 20
0.0
 30
0.0
  0
SPLINE
  5
A9
330
1F
100
AcDbEntity
  8
_U+30EC_U+30A4_U+30E4_U+30FC 1
 62
   179
420
  2234388
370
     9
100
AcDbSpline
210
0.0
220
0.0
230
1.0
 70
    11
 71
     3
 72
    17
 73
    13
 74
     0
 42
0.0000000001
 43
0.0000000001
 12
1.0
 22
0.0
 32
0.0
 13
1.0
 23
0.0
 33
0.0
 40
0.0
 40
0.0
 40
0.0
 40
0.0
 40
1.0
 40
1.0
 40
1.0
 40
2.0
 40
2.0
 40
2.0
 40
3.0
 40
3.0
 40
3.0
 40
4.0
 40
4.0
 40
4.0
 40
4.0
 10
77.26161219555873
 20
-115.2022644156439
 30
0.0
 10
77.26161219555873
 20
-115.222266915639
 30
0.0
 10
77.2457724737406
 20
-115.2374010823016
 30
0.0
 10
77.22576997425091
 20
-115.2374010823016
 30
0.0
 10
77.20718053625362
 20
-115.2374010823016
 30
0.0
 10
77.19063330848066
 20
-115.222266915639
 30
0.0
 10
77.19063330848066
 20
-115.2022644156439
 30
0.0
 10
77.19063330848066
 20
-115.1829674712044
 30
0.0
 10
77.20718053625362
 20
-115.1671277489859
 30
0.0
 10
77.22576997425091
 20
-115.1671277489859
 30
0.0
 10
77.2457724737406
 20
-115.1671277489859
 30
0.0
 10
77.26161219555873
 20
-115.1829674712044
 30
0.0
 10
77.26161219555873
 20
-115.2022644156439
 30
0.0
  0
SPLINE
  5
AA
330
1F
100
AcDbEntity
  8
_U+30EC_U+30A4_U+30E4_U+30FC 1
 62
   179
420
  2234388
370
     9
100
AcDbSpline
210
0.0
220
0.0
230
1.0
 70
    11
 71
     3
 72
    17
 73
    13
 74
     0
 42
0.0000000001
 43
0.0000000001
 12
1.0
 22
0.0
 32
0.0
 13
1.0
 23
0.0
 33
0.0
 40
0.0
 40
0.0
 40
0.0
 40
0.0
 40
1.0
 40
1.0
 40
1.0
 40
2.0
 40
2.0
 40
2.0
 40
3.0
 40
3.0
 40
3.0
 40
4.0
 40
4.0
 40
4.0
 40
4.0
 10
77.32567663836875
 20
-116.7022755263799
 30
0.0
 10
77.32567663836875
 20
-116.6471363597271
 30
0.0
 10
77.280911091791
 20
-116.6023688597382
 30
0.0
 10
77.22576997425091
 20
-116.6023688597382
 30
0.0
 10
77.17133636452851
 20
-116.6023688597382
 30
0.0
 10
77.12656886567063
 20
-116.6471363597271
 30
0.0
 10
77.12656886567063
 20
-116.7022755263799
 30
0.0
 10
77.12656886567063
 20
-116.7573794152551
 30
0.0
 10
77.17133636452851
 20
-116.8021821930218
 30
0.0
 10
77.22576997425091
 20
-116.8021821930218
 30
0.0
 10
77.280911091791
 20
-116.8021821930218
 30
0.0
 10
77.32567663836875
 20
-116.7573794152551
 30
0.0
 10
77.32567663836875
 20
-116.7022755263799
 30
0.0
  0
POLYLINE
  5
AB
330
1F
100
AcDbEntity
  8
_U+30EC_U+30A4_U+30E4_U+30FC 1
 62
   179
420
  2234388
370
     9
100
AcDb2dPolyline
 66
     1
 10
0.0
 20
0.0
 30
0.0
  0
VERTEX
  5
AC
330
AB
100
AcDbEntity
  8
_U+30EC_U+30A4_U+30E4_U+30FC 1
 62
   179
420
  2234388
370
     9
100
AcDbVertex
100
AcDb2dVertex
 10
85.61458053415188
 20
-116.7022755263799
 30
0.0
  0
VERTEX
  5
AD
330
AB
100
AcDbEntity
  8
_U+30EC_U+30A4_U+30E4_U+30FC 1
 62
   179
420
  2234388
370
     9
100
AcDbVertex
100
AcDb2dVertex
 10
76.225997777535
 20
-116.7022755263799
 30
0.0
  0
SEQEND
  5
AE
330
AB
100
AcDbEntity
  8
_U+30EC_U+30A4_U+30E4_U+30FC 1
 62
   179
420
  2234388
370
     9
  0
SPLINE
  5
AF
330
1F
100
AcDbEntity
  8
_U+30EC_U+30A4_U+30E4_U+30FC 1
 62
   179
420
  2234388
370
     9
100
AcDbSpline
210
0.0
220
0.0
230
1.0
 70
    11
 71
     3
 72
    17
 73
    13
 74
     0
 42
0.0000000001
 43
0.0000000001
 12
1.0
 22
0.0
 32
0.0
 13
1.0
 23
0.0
 33
0.0
 40
0.0
 40
0.0
 40
0.0
 40
0.0
 40
1.0
 40
1.0
 40
1.0
 40
2.0
 40
2.0
 40
2.0
 40
3.0
 40
3.0
 40
3.0
 40
4.0
 40
4.0
 40
4.0
 40
4.0
 10
77.26161219555873
 20
-116.7022755263799
 30
0.0
 10
77.26161219555873
 20
-116.7222427485974
 30
0.0
 10
77.2457724737406
 20
-116.7374121930379
 30
0.0
 10
77.22576997425091
 20
-116.7374121930379
 30
0.0
 10
77.20718053625362
 20
-116.7374121930379
 30
0.0
 10
77.19063330848066
 20
-116.7222427485974
 30
0.0
 10
77.19063330848066
 20
-116.7022755263799
 30
0.0
 10
77.19063330848066
 20
-116.6829785819403
 30
0.0
 10
77.20718053625362
 20
-116.6671388597221
 30
0.0
 10
77.22576997425091
 20
-116.6671388597221
 30
0.0
 10
77.2457724737406
 20
-116.6671388597221
 30
0.0
 10
77.26161219555873
 20
-116.6829785819403
 30
0.0
 10
77.26161219555873
 20
-116.7022755263799
 30
0.0
  0
POLYLINE
  5
B0
330
1F
100
AcDbEntity
  8
_U+30EC_U+30A4_U+30E4_U+30FC 1
 62
   179
420
  2234388
370
     9
100
AcDb2dPolyline
 66
     1
 10
0.0
 20
0.0
 30
0.0
  0
VERTEX
  5
B1
330
B0
100
AcDbEntity
  8
_U+30EC_U+30A4_U+30E4_U+30FC 1
 62
   179
420
  2234388
370
     9
100
AcDbVertex
100
AcDb2dVertex
 10
87.11459164488814
 20
-110.6671296945556
 30
0.0
  0
VERTEX
  5
B2
330
B0
100
AcDbEntity
  8
_U+30EC_U+30A4_U+30E4_U+30FC 1
 62
   179
420
  2234388
370
     9
100
AcDbVertex
100
AcDb2dVertex
 10
102.3145135008504
 20
-110.6671296945556
 30
0.0
  0
SEQEND
  5
B3
330
B0
100
AcDbEntity
  8
_U+30EC_U+30A4_U+30E4_U+30FC 1
 62
   179
420
  2234388
370
     9
  0
POLYLINE
  5
B4
330
1F
100
AcDbEntity
  8
_U+30EC_U+30A4_U+30E4_U+30FC 1
 62
   179
420
  2234388
370
     9
100
AcDb2dPolyline
 66
     1
 10
0.0
 20
0.0
 30
0.0
  0
VERTEX
  5
B5
330
B4
100
AcDbEntity
  8
_U+30EC_U+30A4_U+30E4_U+30FC 1
 62
   179
420
  2234388
370
     9
100
AcDbVertex
100
AcDb2dVertex
 10
87.11459164488814
 20
-112.1271710830793
 30
0.0
  0
VERTEX
  5
B6
330
B4
100
AcDbEntity
  8
_U+30EC_U+30A4_U+30E4_U+30FC 1
 62
   179
420
  2234388
370
     9
100
AcDbVertex
100
AcDb2dVertex
 10
87.11459164488814
 20
-109.6666871948057
 30
0.0
  0
SEQEND
  5
B7
330
B4
100
AcDbEntity
  8
_U+30EC_U+30A4_U+30E4_U+30FC 1
 62
   179
420
  2234388
370
     9
  0
POLYLINE
  5
B8
330
1F
100
AcDbEntity
  8
_U+30EC_U+30A4_U+30E4_U+30FC 1
 62
   179
420
  2234388
370
     9
100
AcDb2dPolyline
 66
     1
 10
0.0
 20
0.0
 30
0.0
  0
VERTEX
  5
B9
330
B8
100
AcDbEntity
  8
_U+30EC_U+30A4_U+30E4_U+30FC 1
 62
   179
420
  2234388
370
     9
100
AcDbVertex
100
AcDb2dVertex
 10
102.3151837786111
 20
-112.1271710830793
 30
0.0
  0
VERTEX
  5
BA
330
B8
100
AcDbEntity
  8
_U+30EC_U+30A4_U+30E4_U+30FC 1
 62
   179
420
  2234388
370
     9
100
AcDbVertex
100
AcDb2dVertex
 10
102.3151837786111
 20
-109.6666871948057
 30
0.0
  0
SEQEND
  5
BB
330
B8
100
AcDbEntity
  8
_U+30EC_U+30A4_U+30E4_U+30FC 1
 62
   179
420
  2234388
370
     9
  0
INSERT
  5
BD
330
1F
100
AcDbEntity
  8
_U+30EC_U+30A4_U+30E4_U+30FC 1
100
AcDbBlockReference
  2
block 5
 10
0.0
 20
0.0
 30
0.0
  0
SPLINE
  5
CE
330
1F
100
AcDbEntity
  8
_U+30EC_U+30A4_U+30E4_U+30FC 1
 62
   179
420
  2234388
370
     9
100
AcDbSpline
210
0.0
220
0.0
230
1.0
 70
    11
 71
     3
 72
    17
 73
    13
 74
     0
 42
0.0000000001
 43
0.0000000001
 12
1.0
 22
0.0
 32
0.0
 13
1.0
 23
0.0
 33
0.0
 40
0.0
 40
0.0
 40
0.0
 40
0.0
 40
1.0
 40
1.0
 40
1.0
 40
2.0
 40
2.0
 40
2.0
 40
3.0
 40
3.0
 40
3.0
 40
4.0
 40
4.0
 40
4.0
 40
4.0
 10
102.3503583077459
 20
-110.6671296945556
 30
0.0
 10
102.3503583077459
 20
-110.6864266389951
 30
0.0
 10
102.3351888633054
 20
-110.7023016389912
 30
0.0
 10
102.3151837786111
 20
-110.7023016389912
 30
0.0
 10
102.2959221124358
 20
-110.7023016389912
 30
0.0
 10
102.2800471128408
 20
-110.6864266389951
 30
0.0
 10
102.2800471128408
 20
-110.6671296945556
 30
0.0
 10
102.2800471128408
 20
-110.6471624723381
 30
0.0
 10
102.2959221124358
 20
-110.6313227501199
 30
0.0
 10
102.3151837786111
 20
-110.6313227501199
 30
0.0
 10
102.3351888633054
 20
-110.6313227501199
 30
0.0
 10
102.3503583077459
 20
-110.6471624723381
 30
0.0
 10
102.3503583077459
 20
-110.6671296945556
 30
0.0
  0
SPLINE
  5
CF
330
1F
100
AcDbEntity
  8
_U+30EC_U+30A4_U+30E4_U+30FC 1
 62
   179
420
  2234388
370
     9
100
AcDbSpline
210
0.0
220
0.0
230
1.0
 70
    11
 71
     3
 72
    17
 73
    13
 74
     0
 42
0.0000000001
 43
0.0000000001
 12
1.0
 22
0.0
 32
0.0
 13
1.0
 23
0.0
 33
0.0
 40
0.0
 40
0.0
 40
0.0
 40
0.0
 40
1.0
 40
1.0
 40
1.0
 40
2.0
 40
2.0
 40
2.0
 40
3.0
 40
3.0
 40
3.0
 40
4.0
 40
4.0
 40
4.0
 40
4.0
 10
80.91476710235898
 20
-131.3422005227201
 30
0.0
 10
80.91476710235898
 20
-131.2877669116226
 30
0.0
 10
80.87066988126178
 20
-131.2422938560785
 30
0.0
 10
80.81486043824114
 20
-131.2422938560785
 30
0.0
 10
80.75975655075807
 20
-131.2422938560785
 30
0.0
 10
80.7149537741233
 20
-131.2877669116226
 30
0.0
 10
80.7149537741233
 20
-131.3422005227201
 30
0.0
 10
80.7149537741233
 20
-131.397304411595
 30
0.0
 10
80.75975655075807
 20
-131.4421071893618
 30
0.0
 10
80.81486043824114
 20
-131.4421071893618
 30
0.0
 10
80.87066988126178
 20
-131.4421071893618
 30
0.0
 10
80.91476710235898
 20
-131.397304411595
 30
0.0
 10
80.91476710235898
 20
-131.3422005227201
 30
0.0
  0
SPLINE
  5
D0
330
1F
100
AcDbEntity
  8
_U+30EC_U+30A4_U+30E4_U+30FC 1
 62
   179
420
  2234388
370
     9
100
AcDbSpline
210
0.0
220
0.0
230
1.0
 70
    11
 71
     3
 72
    17
 73
    13
 74
     0
 42
0.0000000001
 43
0.0000000001
 12
1.0
 22
0.0
 32
0.0
 13
1.0
 23
0.0
 33
0.0
 40
0.0
 40
0.0
 40
0.0
 40
0.0
 40
1.0
 40
1.0
 40
1.0
 40
2.0
 40
2.0
 40
2.0
 40
3.0
 40
3.0
 40
3.0
 40
4.0
 40
4.0
 40
4.0
 40
4.0
 10
89.91476298386107
 20
-131.3422005227201
 30
0.0
 10
89.91476298386107
 20
-131.2877669116226
 30
0.0
 10
89.8699602072263
 20
-131.2422938560785
 30
0.0
 10
89.81485631974323
 20
-131.2422938560785
 30
0.0
 10
89.75971942200448
 20
-131.2422938560785
 30
0.0
 10
89.71494965562539
 20
-131.2877669116226
 30
0.0
 10
89.71494965562539
 20
-131.3422005227201
 30
0.0
 10
89.71494965562539
 20
-131.397304411595
 30
0.0
 10
89.75971942200448
 20
-131.4421071893618
 30
0.0
 10
89.81485631974323
 20
-131.4421071893618
 30
0.0
 10
89.8699602072263
 20
-131.4421071893618
 30
0.0
 10
89.91476298386107
 20
-131.397304411595
 30
0.0
 10
89.91476298386107
 20
-131.3422005227201
 30
0.0
  0
POLYLINE
  5
D1
330
1F
100
AcDbEntity
  8
_U+30EC_U+30A4_U+30E4_U+30FC 1
 62
   179
420
  2234388
370
     9
100
AcDb2dPolyline
 66
     1
 10
0.0
 20
0.0
 30
0.0
  0
VERTEX
  5
D2
330
D1
100
AcDbEntity
  8
_U+30EC_U+30A4_U+30E4_U+30FC 1
 62
   179
420
  2234388
370
     9
100
AcDbVertex
100
AcDb2dVertex
 10
80.81486043824114
 20
-131.3422005227201
 30
0.0
  0
VERTEX
  5
D3
330
D1
100
AcDbEntity
  8
_U+30EC_U+30A4_U+30E4_U+30FC 1
 62
   179
420
  2234388
370
     9
100
AcDbVertex
100
AcDb2dVertex
 10
89.81485631974323
 20
-131.3422005227201
 30
0.0
  0
SEQEND
  5
D4
330
D1
100
AcDbEntity
  8
_U+30EC_U+30A4_U+30E4_U+30FC 1
 62
   179
420
  2234388
370
     9
  0
POLYLINE
  5
D5
330
1F
100
AcDbEntity
  8
_U+30EC_U+30A4_U+30E4_U+30FC 1
 62
   179
420
  2234388
370
     9
100
AcDb2dPolyline
 66
     1
 10
0.0
 20
0.0
 30
0.0
  0
VERTEX
  5
D6
330
D5
100
AcDbEntity
  8
_U+30EC_U+30A4_U+30E4_U+30FC 1
 62
   179
420
  2234388
370
     9
100
AcDbVertex
100
AcDb2dVertex
 10
80.81486043824114
 20
-132.8022419112438
 30
0.0
  0
VERTEX
  5
D7
330
D5
100
AcDbEntity
  8
_U+30EC_U+30A4_U+30E4_U+30FC 1
 62
   179
420
  2234388
370
     9
100
AcDbVertex
100
AcDb2dVertex
 10
80.81486043824114
 20
-130.3424283007476
 30
0.0
  0
SEQEND
  5
D8
330
D5
100
AcDbEntity
  8
_U+30EC_U+30A4_U+30E4_U+30FC 1
 62
   179
420
  2234388
370
     9
  0
POLYLINE
  5
D9
330
1F
100
AcDbEntity
  8
_U+30EC_U+30A4_U+30E4_U+30FC 1
 62
   179
420
  2234388
370
     9
100
AcDb2dPolyline
 66
     1
 10
0.0
 20
0.0
 30
0.0
  0
VERTEX
  5
DA
330
D9
100
AcDbEntity
  8
_U+30EC_U+30A4_U+30E4_U+30FC 1
 62
   179
420
  2234388
370
     9
100
AcDbVertex
100
AcDb2dVertex
 10
89.81485631974323
 20
-132.8022419112438
 30
0.0
  0
VERTEX
  5
DB
330
D9
100
AcDbEntity
  8
_U+30EC_U+30A4_U+30E4_U+30FC 1
 62
   179
420
  2234388
370
     9
100
AcDbVertex
100
AcDb2dVertex
 10
89.81485631974323
 20
-130.3424283007476
 30
0.0
  0
SEQEND
  5
DC
330
D9
100
AcDbEntity
  8
_U+30EC_U+30A4_U+30E4_U+30FC 1
 62
   179
420
  2234388
370
     9
  0
INSERT
  5
DE
330
1F
100
AcDbEntity
  8
_U+30EC_U+30A4_U+30E4_U+30FC 1
100
AcDbBlockReference
  2
block 6
 10
0.0
 20
0.0
 30
0.0
  0
SPLINE
  5
E4
330
1F
100
AcDbEntity
  8
_U+30EC_U+30A4_U+30E4_U+30FC 1
 62
   179
420
  2234388
370
     9
100
AcDbSpline
210
0.0
220
0.0
230
1.0
 70
    11
 71
     3
 72
    17
 73
    13
 74
     0
 42
0.0000000001
 43
0.0000000001
 12
1.0
 22
0.0
 32
0.0
 13
1.0
 23
0.0
 33
0.0
 40
0.0
 40
0.0
 40
0.0
 40
0.0
 40
1.0
 40
1.0
 40
1.0
 40
2.0
 40
2.0
 40
2.0
 40
3.0
 40
3.0
 40
3.0
 40
4.0
 40
4.0
 40
4.0
 40
4.0
 10
89.84999298551348
 20
-131.3422005227201
 30
0.0
 10
89.84999298551348
 20
-131.3621677449373
 30
0.0
 10
89.83482354145605
 20
-131.3780427449334
 30
0.0
 10
89.81485631974323
 20
-131.3780427449334
 30
0.0
 10
89.79555937579109
 20
-131.3780427449334
 30
0.0
 10
89.77971965397298
 20
-131.3621677449373
 30
0.0
 10
89.77971965397298
 20
-131.3422005227201
 30
0.0
 10
89.77971965397298
 20
-131.3229035782803
 30
0.0
 10
89.79555937579109
 20
-131.3070638560624
 30
0.0
 10
89.81485631974323
 20
-131.3070638560624
 30
0.0
 10
89.83482354145605
 20
-131.3070638560624
 30
0.0
 10
89.84999298551348
 20
-131.3229035782803
 30
0.0
 10
89.84999298551348
 20
-131.3422005227201
 30
0.0
  0
POLYLINE
  5
E5
330
1F
100
AcDbEntity
  8
_U+30EC_U+30A4_U+30E4_U+30FC 1
 62
   179
420
  2234388
370
     9
100
AcDb2dPolyline
 66
     1
 10
0.0
 20
0.0
 30
0.0
  0
VERTEX
  5
E6
330
E5
100
AcDbEntity
  8
_U+30EC_U+30A4_U+30E4_U+30FC 1
 62
   179
420
  2234388
370
     9
100
AcDbVertex
100
AcDb2dVertex
 10
79.81512351930212
 20
-143.2016016308666
 30
0.0
  0
VERTEX
  5
E7
330
E5
100
AcDbEntity
  8
_U+30EC_U+30A4_U+30E4_U+30FC 1
 62
   179
420
  2234388
370
     9
100
AcDbVertex
100
AcDb2dVertex
 10
102.3151837786111
 20
-143.2016016308666
 30
0.0
  0
SEQEND
  5
E8
330
E5
100
AcDbEntity
  8
_U+30EC_U+30A4_U+30E4_U+30FC 1
 62
   179
420
  2234388
370
     9
  0
POLYLINE
  5
E9
330
1F
100
AcDbEntity
  8
_U+30EC_U+30A4_U+30E4_U+30FC 1
 62
   179
420
  2234388
370
     9
100
AcDb2dPolyline
 66
     1
 10
0.0
 20
0.0
 30
0.0
  0
VERTEX
  5
EA
330
E9
100
AcDbEntity
  8
_U+30EC_U+30A4_U+30E4_U+30FC 1
 62
   179
420
  2234388
370
     9
100
AcDbVertex
100
AcDb2dVertex
 10
102.3151837786111
 20
-121.7024771917966
 30
0.0
  0
VERTEX
  5
EB
330
E9
100
AcDbEntity
  8
_U+30EC_U+30A4_U+30E4_U+30FC 1
 62
   179
420
  2234388
370
     9
100
AcDbVertex
100
AcDb2dVertex
 10
102.3151837786111
 20
-144.2020441306159
 30
0.0
  0
SEQEND
  5
EC
330
E9
100
AcDbEntity
  8
_U+30EC_U+30A4_U+30E4_U+30FC 1
 62
   179
420
  2234388
370
     9
  0
INSERT
  5
EE
330
1F
100
AcDbEntity
  8
_U+30EC_U+30A4_U+30E4_U+30FC 1
100
AcDbBlockReference
  2
block 7
 10
0.0
 20
0.0
 30
0.0
  0
INSERT
  5
F4
330
1F
100
AcDbEntity
  8
_U+30EC_U+30A4_U+30E4_U+30FC 1
100
AcDbBlockReference
  2
block 8
 10
0.0
 20
0.0
 30
0.0
  0
SPLINE
  5
105
330
1F
100
AcDbEntity
  8
_U+30EC_U+30A4_U+30E4_U+30FC 1
 62
   179
420
  2234388
370
     9
100
AcDbSpline
210
0.0
220
0.0
230
1.0
 70
    11
 71
     3
 72
    17
 73
    13
 74
     0
 42
0.0000000001
 43
0.0000000001
 12
1.0
 22
0.0
 32
0.0
 13
1.0
 23
0.0
 33
0.0
 40
0.0
 40
0.0
 40
0.0
 40
0.0
 40
1.0
 40
1.0
 40
1.0
 40
2.0
 40
2.0
 40
2.0
 40
3.0
 40
3.0
 40
3.0
 40
4.0
 40
4.0
 40
4.0
 40
4.0
 10
87.21449610830616
 20
-123.7598771912824
 30
0.0
 10
87.21449610830616
 20
-123.7054435801848
 30
0.0
 10
87.16969333167141
 20
-123.6599705246404
 30
0.0
 10
87.11459164488814
 20
-123.6599705246404
 30
0.0
 10
87.06015583446595
 20
-123.6599705246404
 30
0.0
 10
87.01535305783118
 20
-123.7054435801848
 30
0.0
 10
87.01535305783118
 20
-123.7598771912824
 30
0.0
 10
87.01535305783118
 20
-123.8150163579352
 30
0.0
 10
87.06015583446595
 20
-123.859783857924
 30
0.0
 10
87.11459164488814
 20
-123.859783857924
 30
0.0
 10
87.16969333167141
 20
-123.859783857924
 30
0.0
 10
87.21449610830616
 20
-123.8150163579352
 30
0.0
 10
87.21449610830616
 20
-123.7598771912824
 30
0.0
  0
POLYLINE
  5
106
330
1F
100
AcDbEntity
  8
_U+30EC_U+30A4_U+30E4_U+30FC 1
 62
   179
420
  2234388
370
     9
100
AcDb2dPolyline
 66
     1
 10
0.0
 20
0.0
 30
0.0
  0
VERTEX
  5
107
330
106
100
AcDbEntity
  8
_U+30EC_U+30A4_U+30E4_U+30FC 1
 62
   179
420
  2234388
370
     9
100
AcDbVertex
100
AcDb2dVertex
 10
87.11459164488814
 20
-118.2022513593383
 30
0.0
  0
VERTEX
  5
108
330
106
100
AcDbEntity
  8
_U+30EC_U+30A4_U+30E4_U+30FC 1
 62
   179
420
  2234388
370
     9
100
AcDbVertex
100
AcDb2dVertex
 10
87.11459164488814
 20
-124.7603549688098
 30
0.0
  0
SEQEND
  5
109
330
106
100
AcDbEntity
  8
_U+30EC_U+30A4_U+30E4_U+30FC 1
 62
   179
420
  2234388
370
     9
  0
SPLINE
  5
10A
330
1F
100
AcDbEntity
  8
_U+30EC_U+30A4_U+30E4_U+30FC 1
 62
   179
420
  2234388
370
     9
100
AcDbSpline
210
0.0
220
0.0
230
1.0
 70
    11
 71
     3
 72
    17
 73
    13
 74
     0
 42
0.0000000001
 43
0.0000000001
 12
1.0
 22
0.0
 32
0.0
 13
1.0
 23
0.0
 33
0.0
 40
0.0
 40
0.0
 40
0.0
 40
0.0
 40
1.0
 40
1.0
 40
1.0
 40
2.0
 40
2.0
 40
2.0
 40
3.0
 40
3.0
 40
3.0
 40
4.0
 40
4.0
 40
4.0
 40
4.0
 10
92.41468736452713
 20
-123.7598771912824
 30
0.0
 10
92.41468736452713
 20
-123.7054435801848
 30
0.0
 10
92.36988458789236
 20
-123.6599705246404
 30
0.0
 10
92.31478070040929
 20
-123.6599705246404
 30
0.0
 10
92.26034709068689
 20
-123.6599705246404
 30
0.0
 10
92.21554431405214
 20
-123.7054435801848
 30
0.0
 10
92.21554431405214
 20
-123.7598771912824
 30
0.0
 10
92.21554431405214
 20
-123.8150163579352
 30
0.0
 10
92.26034709068689
 20
-123.859783857924
 30
0.0
 10
92.31478070040929
 20
-123.859783857924
 30
0.0
 10
92.36988458789236
 20
-123.859783857924
 30
0.0
 10
92.41468736452713
 20
-123.8150163579352
 30
0.0
 10
92.41468736452713
 20
-123.7598771912824
 30
0.0
  0
POLYLINE
  5
10B
330
1F
100
AcDbEntity
  8
_U+30EC_U+30A4_U+30E4_U+30FC 1
 62
   179
420
  2234388
370
     9
100
AcDb2dPolyline
 66
     1
 10
0.0
 20
0.0
 30
0.0
  0
VERTEX
  5
10C
330
10B
100
AcDbEntity
  8
_U+30EC_U+30A4_U+30E4_U+30FC 1
 62
   179
420
  2234388
370
     9
100
AcDbVertex
100
AcDb2dVertex
 10
92.31478070040929
 20
-122.2998710805362
 30
0.0
  0
VERTEX
  5
10D
330
10B
100
AcDbEntity
  8
_U+30EC_U+30A4_U+30E4_U+30FC 1
 62
   179
420
  2234388
370
     9
100
AcDbVertex
100
AcDb2dVertex
 10
92.31478070040929
 20
-124.7603549688098
 30
0.0
  0
SEQEND
  5
10E
330
10B
100
AcDbEntity
  8
_U+30EC_U+30A4_U+30E4_U+30FC 1
 62
   179
420
  2234388
370
     9
  0
POLYLINE
  5
10F
330
1F
100
AcDbEntity
  8
_U+30EC_U+30A4_U+30E4_U+30FC 1
 62
   179
420
  2234388
370
     9
100
AcDb2dPolyline
 66
     1
 10
0.0
 20
0.0
 30
0.0
  0
VERTEX
  5
110
330
10F
100
AcDbEntity
  8
_U+30EC_U+30A4_U+30E4_U+30FC 1
 62
   179
420
  2234388
370
     9
100
AcDbVertex
100
AcDb2dVertex
 10
87.11459164488814
 20
-123.7598771912824
 30
0.0
  0
VERTEX
  5
111
330
10F
100
AcDbEntity
  8
_U+30EC_U+30A4_U+30E4_U+30FC 1
 62
   179
420
  2234388
370
     9
100
AcDbVertex
100
AcDb2dVertex
 10
92.31478070040929
 20
-123.7598771912824
 30
0.0
  0
SEQEND
  5
112
330
10F
100
AcDbEntity
  8
_U+30EC_U+30A4_U+30E4_U+30FC 1
 62
   179
420
  2234388
370
     9
  0
SPLINE
  5
113
330
1F
100
AcDbEntity
  8
_U+30EC_U+30A4_U+30E4_U+30FC 1
 62
   179
420
  2234388
370
     9
100
AcDbSpline
210
0.0
220
0.0
230
1.0
 70
    11
 71
     3
 72
    17
 73
    13
 74
     0
 42
0.0000000001
 43
0.0000000001
 12
1.0
 22
0.0
 32
0.0
 13
1.0
 23
0.0
 33
0.0
 40
0.0
 40
0.0
 40
0.0
 40
0.0
 40
1.0
 40
1.0
 40
1.0
 40
2.0
 40
2.0
 40
2.0
 40
3.0
 40
3.0
 40
3.0
 40
4.0
 40
4.0
 40
4.0
 40
4.0
 10
86.68187223300565
 20
-136.7020944102691
 30
0.0
 10
86.68187223300565
 20
-136.6476607991715
 30
0.0
 10
86.63706945637088
 20
-136.6021877436274
 30
0.0
 10
86.58196556888781
 20
-136.6021877436274
 30
0.0
 10
86.52753195916542
 20
-136.6021877436274
 30
0.0
 10
86.48272918253065
 20
-136.6476607991715
 30
0.0
 10
86.48272918253065
 20
-136.7020944102691
 30
0.0
 10
86.48272918253065
 20
-136.757198299144
 30
0.0
 10
86.52753195916542
 20
-136.8020010769107
 30
0.0
 10
86.58196556888781
 20
-136.8020010769107
 30
0.0
 10
86.63706945637088
 20
-136.8020010769107
 30
0.0
 10
86.68187223300565
 20
-136.757198299144
 30
0.0
 10
86.68187223300565
 20
-136.7020944102691
 30
0.0
  0
SPLINE
  5
114
330
1F
100
AcDbEntity
  8
_U+30EC_U+30A4_U+30E4_U+30FC 1
 62
   179
420
  2234388
370
     9
100
AcDbSpline
210
0.0
220
0.0
230
1.0
 70
    11
 71
     3
 72
    17
 73
    13
 74
     0
 42
0.0000000001
 43
0.0000000001
 12
1.0
 22
0.0
 32
0.0
 13
1.0
 23
0.0
 33
0.0
 40
0.0
 40
0.0
 40
0.0
 40
0.0
 40
1.0
 40
1.0
 40
1.0
 40
2.0
 40
2.0
 40
2.0
 40
3.0
 40
3.0
 40
3.0
 40
4.0
 40
4.0
 40
4.0
 40
4.0
 10
86.68187223300565
 20
-138.2020702432272
 30
0.0
 10
86.68187223300565
 20
-138.1476366321296
 30
0.0
 10
86.63706945637088
 20
-138.1021635765855
 30
0.0
 10
86.58196556888781
 20
-138.1021635765855
 30
0.0
 10
86.52753195916542
 20
-138.1021635765855
 30
0.0
 10
86.48272918253065
 20
-138.1476366321296
 30
0.0
 10
86.48272918253065
 20
-138.2020702432272
 30
0.0
 10
86.48272918253065
 20
-138.2572094098802
 30
0.0
 10
86.52753195916542
 20
-138.3019769098688
 30
0.0
 10
86.58196556888781
 20
-138.3019769098688
 30
0.0
 10
86.63706945637088
 20
-138.3019769098688
 30
0.0
 10
86.68187223300565
 20
-138.2572094098802
 30
0.0
 10
86.68187223300565
 20
-138.2020702432272
 30
0.0
  0
POLYLINE
  5
115
330
1F
100
AcDbEntity
  8
_U+30EC_U+30A4_U+30E4_U+30FC 1
 62
   179
420
  2234388
370
     9
100
AcDb2dPolyline
 66
     1
 10
0.0
 20
0.0
 30
0.0
  0
VERTEX
  5
116
330
115
100
AcDbEntity
  8
_U+30EC_U+30A4_U+30E4_U+30FC 1
 62
   179
420
  2234388
370
     9
100
AcDbVertex
100
AcDb2dVertex
 10
86.58196556888781
 20
-136.7020944102691
 30
0.0
  0
VERTEX
  5
117
330
115
100
AcDbEntity
  8
_U+30EC_U+30A4_U+30E4_U+30FC 1
 62
   179
420
  2234388
370
     9
100
AcDbVertex
100
AcDb2dVertex
 10
86.58196556888781
 20
-138.2020702432272
 30
0.0
  0
SEQEND
  5
118
330
115
100
AcDbEntity
  8
_U+30EC_U+30A4_U+30E4_U+30FC 1
 62
   179
420
  2234388
370
     9
  0
POLYLINE
  5
119
330
1F
100
AcDbEntity
  8
_U+30EC_U+30A4_U+30E4_U+30FC 1
 62
   179
420
  2234388
370
     9
100
AcDb2dPolyline
 66
     1
 10
0.0
 20
0.0
 30
0.0
  0
VERTEX
  5
11A
330
119
100
AcDbEntity
  8
_U+30EC_U+30A4_U+30E4_U+30FC 1
 62
   179
420
  2234388
370
     9
100
AcDbVertex
100
AcDb2dVertex
 10
86.58196556888781
 20
-136.7020944102691
 30
0.0
  0
VERTEX
  5
11B
330
119
100
AcDbEntity
  8
_U+30EC_U+30A4_U+30E4_U+30FC 1
 62
   179
420
  2234388
370
     9
100
AcDbVertex
100
AcDb2dVertex
 10
88.81508412302732
 20
-136.7020944102691
 30
0.0
  0
SEQEND
  5
11C
330
119
100
AcDbEntity
  8
_U+30EC_U+30A4_U+30E4_U+30FC 1
 62
   179
420
  2234388
370
     9
  0
INSERT
  5
11E
330
1F
100
AcDbEntity
  8
_U+30EC_U+30A4_U+30E4_U+30FC 1
100
AcDbBlockReference
  2
block 9
 10
0.0
 20
0.0
 30
0.0
  0
INSERT
  5
12E
330
1F
100
AcDbEntity
  8
_U+30EC_U+30A4_U+30E4_U+30FC 1
100
AcDbBlockReference
  2
block 10
 10
0.0
 20
0.0
 30
0.0
  0
SPLINE
  5
13D
330
1F
100
AcDbEntity
  8
_U+30EC_U+30A4_U+30E4_U+30FC 1
 62
   179
420
  2234388
370
     9
100
AcDbSpline
210
0.0
220
0.0
230
1.0
 70
    11
 71
     3
 72
    17
 73
    13
 74
     0
 42
0.0000000001
 43
0.0000000001
 12
1.0
 22
0.0
 32
0.0
 13
1.0
 23
0.0
 33
0.0
 40
0.0
 40
0.0
 40
0.0
 40
0.0
 40
1.0
 40
1.0
 40
1.0
 40
2.0
 40
2.0
 40
2.0
 40
3.0
 40
3.0
 40
3.0
 40
4.0
 40
4.0
 40
4.0
 40
4.0
 10
102.3503583077459
 20
-143.2016016308666
 30
0.0
 10
102.3503583077459
 20
-143.2215688530838
 30
0.0
 10
102.3351888633054
 20
-143.2374085753017
 30
0.0
 10
102.3151837786111
 20
-143.2374085753017
 30
0.0
 10
102.2959221124358
 20
-143.2374085753017
 30
0.0
 10
102.2800471128408
 20
-143.2215688530838
 30
0.0
 10
102.2800471128408
 20
-143.2016016308666
 30
0.0
 10
102.2800471128408
 20
-143.1823046864268
 30
0.0
 10
102.2959221124358
 20
-143.1664649642082
 30
0.0
 10
102.3151837786111
 20
-143.1664649642082
 30
0.0
 10
102.3351888633054
 20
-143.1664649642082
 30
0.0
 10
102.3503583077459
 20
-143.1823046864268
 30
0.0
 10
102.3503583077459
 20
-143.2016016308666
 30
0.0
  0
SPLINE
  5
13E
330
1F
100
AcDbEntity
  8
_U+30EC_U+30A4_U+30E4_U+30FC 1
 62
   179
420
  2234388
370
     9
100
AcDbSpline
210
0.0
220
0.0
230
1.0
 70
    11
 71
     3
 72
    17
 73
    13
 74
     0
 42
0.0000000001
 43
0.0000000001
 12
1.0
 22
0.0
 32
0.0
 13
1.0
 23
0.0
 33
0.0
 40
0.0
 40
0.0
 40
0.0
 40
0.0
 40
1.0
 40
1.0
 40
1.0
 40
2.0
 40
2.0
 40
2.0
 40
3.0
 40
3.0
 40
3.0
 40
4.0
 40
4.0
 40
4.0
 40
4.0
 10
97.41488890362803
 20
-143.2016016308666
 30
0.0
 10
97.41488890362803
 20
-143.147168019769
 30
0.0
 10
97.37012140477013
 20
-143.1016949642243
 30
0.0
 10
97.31498223951019
 20
-143.1016949642243
 30
0.0
 10
97.25987835202712
 20
-143.1016949642243
 30
0.0
 10
97.21507557539235
 20
-143.147168019769
 30
0.0
 10
97.21507557539235
 20
-143.2016016308666
 30
0.0
 10
97.21507557539235
 20
-143.2567055197415
 30
0.0
 10
97.25987835202712
 20
-143.3015082975082
 30
0.0
 10
97.31498223951019
 20
-143.3015082975082
 30
0.0
 10
97.37012140477013
 20
-143.3015082975082
 30
0.0
 10
97.41488890362803
 20
-143.2567055197415
 30
0.0
 10
97.41488890362803
 20
-143.2016016308666
 30
0.0
  0
POLYLINE
  5
13F
330
1F
100
AcDbEntity
  8
_U+30EC_U+30A4_U+30E4_U+30FC 1
 62
   179
420
  2234388
370
     9
100
AcDb2dPolyline
 66
     1
 10
0.0
 20
0.0
 30
0.0
  0
VERTEX
  5
140
330
13F
100
AcDbEntity
  8
_U+30EC_U+30A4_U+30E4_U+30FC 1
 62
   179
420
  2234388
370
     9
100
AcDbVertex
100
AcDb2dVertex
 10
97.31498223951019
 20
-141.7415602423422
 30
0.0
  0
VERTEX
  5
141
330
13F
100
AcDbEntity
  8
_U+30EC_U+30A4_U+30E4_U+30FC 1
 62
   179
420
  2234388
370
     9
100
AcDbVertex
100
AcDb2dVertex
 10
97.31498223951019
 20
-144.2020441306159
 30
0.0
  0
SEQEND
  5
142
330
13F
100
AcDbEntity
  8
_U+30EC_U+30A4_U+30E4_U+30FC 1
 62
   179
420
  2234388
370
     9
  0
SPLINE
  5
143
330
1F
100
AcDbEntity
  8
_U+30EC_U+30A4_U+30E4_U+30FC 1
 62
   179
420
  2234388
370
     9
100
AcDbSpline
210
0.0
220
0.0
230
1.0
 70
    11
 71
     3
 72
    17
 73
    13
 74
     0
 42
0.0000000001
 43
0.0000000001
 12
1.0
 22
0.0
 32
0.0
 13
1.0
 23
0.0
 33
0.0
 40
0.0
 40
0.0
 40
0.0
 40
0.0
 40
1.0
 40
1.0
 40
1.0
 40
2.0
 40
2.0
 40
2.0
 40
3.0
 40
3.0
 40
3.0
 40
4.0
 40
4.0
 40
4.0
 40
4.0
 10
97.35011890528044
 20
-143.2016016308666
 30
0.0
 10
97.35011890528044
 20
-143.2215688530838
 30
0.0
 10
97.33498473899988
 20
-143.2374085753017
 30
0.0
 10
97.31498223951019
 20
-143.2374085753017
 30
0.0
 10
97.29568529555804
 20
-143.2374085753017
 30
0.0
 10
97.27984557373993
 20
-143.2215688530838
 30
0.0
 10
97.27984557373993
 20
-143.2016016308666
 30
0.0
 10
97.27984557373993
 20
-143.1823046864268
 30
0.0
 10
97.29568529555804
 20
-143.1664649642082
 30
0.0
 10
97.31498223951019
 20
-143.1664649642082
 30
0.0
 10
97.33498473899988
 20
-143.1664649642082
 30
0.0
 10
97.35011890528044
 20
-143.1823046864268
 30
0.0
 10
97.35011890528044
 20
-143.2016016308666
 30
0.0
  0
SPLINE
  5
144
330
1F
100
AcDbEntity
  8
_U+30EC_U+30A4_U+30E4_U+30FC 1
 62
     7
420
 16777215
370
     9
100
AcDbSpline
210
0.0
220
0.0
230
1.0
 70
    11
 71
     3
 72
    17
 73
    13
 74
     0
 42
0.0000000001
 43
0.0000000001
 12
1.0
 22
0.0
 32
0.0
 13
1.0
 23
0.0
 33
0.0
 40
0.0
 40
0.0
 40
0.0
 40
0.0
 40
1.0
 40
1.0
 40
1.0
 40
2.0
 40
2.0
 40
2.0
 40
3.0
 40
3.0
 40
3.0
 40
4.0
 40
4.0
 40
4.0
 40
4.0
 10
105.7196303584231
 20
-139.2025127429771
 30
0.0
 10
105.7196303584231
 20
-139.1474088541021
 30
0.0
 10
105.6748628595652
 20
-139.1026060763354
 30
0.0
 10
105.6197236943053
 20
-139.1026060763354
 30
0.0
 10
105.5646198068222
 20
-139.1026060763354
 30
0.0
 10
105.5198170301874
 20
-139.1474088541021
 30
0.0
 10
105.5198170301874
 20
-139.2025127429771
 30
0.0
 10
105.5198170301874
 20
-139.2576519096301
 30
0.0
 10
105.5646198068222
 20
-139.3024194096187
 30
0.0
 10
105.6197236943053
 20
-139.3024194096187
 30
0.0
 10
105.6748628595652
 20
-139.3024194096187
 30
0.0
 10
105.7196303584231
 20
-139.2576519096301
 30
0.0
 10
105.7196303584231
 20
-139.2025127429771
 30
0.0
  0
POLYLINE
  5
145
330
1F
100
AcDbEntity
  8
_U+30EC_U+30A4_U+30E4_U+30FC 1
 62
     7
420
 16777215
370
     9
100
AcDb2dPolyline
 66
     1
 10
0.0
 20
0.0
 30
0.0
  0
VERTEX
  5
146
330
145
100
AcDbEntity
  8
_U+30EC_U+30A4_U+30E4_U+30FC 1
 62
     7
420
 16777215
370
     9
100
AcDbVertex
100
AcDb2dVertex
 10
99.81543578682941
 20
-139.2025127429771
 30
0.0
  0
VERTEX
  5
147
330
145
100
AcDbEntity
  8
_U+30EC_U+30A4_U+30E4_U+30FC 1
 62
     7
420
 16777215
370
     9
100
AcDbVertex
100
AcDb2dVertex
 10
106.6194958910212
 20
-139.2025127429771
 30
0.0
  0
SEQEND
  5
148
330
145
100
AcDbEntity
  8
_U+30EC_U+30A4_U+30E4_U+30FC 1
 62
     7
420
 16777215
370
     9
  0
SPLINE
  5
149
330
1F
100
AcDbEntity
  8
_U+30EC_U+30A4_U+30E4_U+30FC 1
 62
     7
420
 16777215
370
     9
100
AcDbSpline
210
0.0
220
0.0
230
1.0
 70
    11
 71
     3
 72
    17
 73
    13
 74
     0
 42
0.0000000001
 43
0.0000000001
 12
1.0
 22
0.0
 32
0.0
 13
1.0
 23
0.0
 33
0.0
 40
0.0
 40
0.0
 40
0.0
 40
0.0
 40
1.0
 40
1.0
 40
1.0
 40
2.0
 40
2.0
 40
2.0
 40
3.0
 40
3.0
 40
3.0
 40
4.0
 40
4.0
 40
4.0
 40
4.0
 10
105.7196303584231
 20
-119.2023763590882
 30
0.0
 10
105.7196303584231
 20
-119.1472371924355
 30
0.0
 10
105.6748628595652
 20
-119.1024696924466
 30
0.0
 10
105.6197236943053
 20
-119.1024696924466
 30
0.0
 10
105.5646198068222
 20
-119.1024696924466
 30
0.0
 10
105.5198170301874
 20
-119.1472371924355
 30
0.0
 10
105.5198170301874
 20
-119.2023763590882
 30
0.0
 10
105.5198170301874
 20
-119.2574802479635
 30
0.0
 10
105.5646198068222
 20
-119.3022830257299
 30
0.0
 10
105.6197236943053
 20
-119.3022830257299
 30
0.0
 10
105.6748628595652
 20
-119.3022830257299
 30
0.0
 10
105.7196303584231
 20
-119.2574802479635
 30
0.0
 10
105.7196303584231
 20
-119.2023763590882
 30
0.0
  0
POLYLINE
  5
14A
330
1F
100
AcDbEntity
  8
_U+30EC_U+30A4_U+30E4_U+30FC 1
 62
     7
420
 16777215
370
     9
100
AcDb2dPolyline
 66
     1
 10
0.0
 20
0.0
 30
0.0
  0
VERTEX
  5
14B
330
14A
100
AcDbEntity
  8
_U+30EC_U+30A4_U+30E4_U+30FC 1
 62
     7
420
 16777215
370
     9
100
AcDbVertex
100
AcDb2dVertex
 10
103.1592398681885
 20
-119.2023763590882
 30
0.0
  0
VERTEX
  5
14C
330
14A
100
AcDbEntity
  8
_U+30EC_U+30A4_U+30E4_U+30FC 1
 62
     7
420
 16777215
370
     9
100
AcDbVertex
100
AcDb2dVertex
 10
106.6194958910212
 20
-119.2023763590882
 30
0.0
  0
SEQEND
  5
14D
330
14A
100
AcDbEntity
  8
_U+30EC_U+30A4_U+30E4_U+30FC 1
 62
     7
420
 16777215
370
     9
  0
SPLINE
  5
14E
330
1F
100
AcDbEntity
  8
_U+30EC_U+30A4_U+30E4_U+30FC 1
 62
     7
420
 16777215
370
     9
100
AcDbSpline
210
0.0
220
0.0
230
1.0
 70
    11
 71
     3
 72
    17
 73
    13
 74
     0
 42
0.0000000001
 43
0.0000000001
 12
1.0
 22
0.0
 32
0.0
 13
1.0
 23
0.0
 33
0.0
 40
0.0
 40
0.0
 40
0.0
 40
0.0
 40
1.0
 40
1.0
 40
1.0
 40
2.0
 40
2.0
 40
2.0
 40
3.0
 40
3.0
 40
3.0
 40
4.0
 40
4.0
 40
4.0
 40
4.0
 10
105.7196303584231
 20
-115.2022644156439
 30
0.0
 10
105.7196303584231
 20
-115.1471605267687
 30
0.0
 10
105.6748628595652
 20
-115.1023577490023
 30
0.0
 10
105.6197236943053
 20
-115.1023577490023
 30
0.0
 10
105.5646198068222
 20
-115.1023577490023
 30
0.0
 10
105.5198170301874
 20
-115.1471605267687
 30
0.0
 10
105.5198170301874
 20
-115.2022644156439
 30
0.0
 10
105.5198170301874
 20
-115.2574035822967
 30
0.0
 10
105.5646198068222
 20
-115.3021710822856
 30
0.0
 10
105.6197236943053
 20
-115.3021710822856
 30
0.0
 10
105.6748628595652
 20
-115.3021710822856
 30
0.0
 10
105.7196303584231
 20
-115.2574035822967
 30
0.0
 10
105.7196303584231
 20
-115.2022644156439
 30
0.0
  0
POLYLINE
  5
14F
330
1F
100
AcDbEntity
  8
_U+30EC_U+30A4_U+30E4_U+30FC 1
 62
     7
420
 16777215
370
     9
100
AcDb2dPolyline
 66
     1
 10
0.0
 20
0.0
 30
0.0
  0
VERTEX
  5
150
330
14F
100
AcDbEntity
  8
_U+30EC_U+30A4_U+30E4_U+30FC 1
 62
     7
420
 16777215
370
     9
100
AcDbVertex
100
AcDb2dVertex
 10
103.1592398681885
 20
-115.2022644156439
 30
0.0
  0
VERTEX
  5
151
330
14F
100
AcDbEntity
  8
_U+30EC_U+30A4_U+30E4_U+30FC 1
 62
     7
420
 16777215
370
     9
100
AcDbVertex
100
AcDb2dVertex
 10
106.6194958910212
 20
-115.2022644156439
 30
0.0
  0
SEQEND
  5
152
330
14F
100
AcDbEntity
  8
_U+30EC_U+30A4_U+30E4_U+30FC 1
 62
     7
420
 16777215
370
     9
  0
INSERT
  5
154
330
1F
100
AcDbEntity
  8
_U+30EC_U+30A4_U+30E4_U+30FC 1
100
AcDbBlockReference
  2
block 11
 10
0.0
 20
0.0
 30
0.0
  0
INSERT
  5
15D
330
1F
100
AcDbEntity
  8
_U+30EC_U+30A4_U+30E4_U+30FC 1
100
AcDbBlockReference
  2
block 12
 10
0.0
 20
0.0
 30
0.0
  0
POLYLINE
  5
175
330
1F
100
AcDbEntity
  8
_U+30EC_U+30A4_U+30E4_U+30FC 1
 62
     7
420
 16777215
370
     9
100
AcDb2dPolyline
 66
     1
 10
0.0
 20
0.0
 30
0.0
  0
VERTEX
  5
176
330
175
100
AcDbEntity
  8
_U+30EC_U+30A4_U+30E4_U+30FC 1
 62
     7
420
 16777215
370
     9
100
AcDbVertex
100
AcDb2dVertex
 10
105.6197236943053
 20
-139.2025127429771
 30
0.0
  0
VERTEX
  5
177
330
175
100
AcDbEntity
  8
_U+30EC_U+30A4_U+30E4_U+30FC 1
 62
     7
420
 16777215
370
     9
100
AcDbVertex
100
AcDb2dVertex
 10
105.6197236943053
 20
-111.7020385831855
 30
0.0
  0
SEQEND
  5
178
330
175
100
AcDbEntity
  8
_U+30EC_U+30A4_U+30E4_U+30FC 1
 62
     7
420
 16777215
370
     9
  0
POLYLINE
  5
179
330
1F
100
AcDbEntity
  8
_U+30EC_U+30A4_U+30E4_U+30FC 1
 62
   179
420
  2234388
370
     9
100
AcDb2dPolyline
 66
     1
 10
0.0
 20
0.0
 30
0.0
  0
VERTEX
  5
17A
330
179
100
AcDbEntity
  8
_U+30EC_U+30A4_U+30E4_U+30FC 1
 62
   179
420
  2234388
370
     9
100
AcDbVertex
100
AcDb2dVertex
 10
110.6151274557508
 20
-111.2362660833022
 30
0.0
  0
VERTEX
  5
17B
330
179
100
AcDbEntity
  8
_U+30EC_U+30A4_U+30E4_U+30FC 1
 62
   179
420
  2234388
370
     9
100
AcDbVertex
100
AcDb2dVertex
 10
104.1548845650097
 20
-111.2362660833022
 30
0.0
  0
VERTEX
  5
17C
330
179
100
AcDbEntity
  8
_U+30EC_U+30A4_U+30E4_U+30FC 1
 62
   179
420
  2234388
370
     9
100
AcDbVertex
100
AcDb2dVertex
 10
99.41443329705984
 20
-115.9546688599004
 30
0.0
  0
SEQEND
  5
17D
330
179
100
AcDbEntity
  8
_U+30EC_U+30A4_U+30E4_U+30FC 1
 62
   179
420
  2234388
370
     9
  0
POLYLINE
  5
17E
330
1F
100
AcDbEntity
  8
_U+30EC_U+30A4_U+30E4_U+30FC 1
 62
   179
420
  2234388
370
     9
100
AcDb2dPolyline
 66
     1
 10
0.0
 20
0.0
 30
0.0
  0
VERTEX
  5
17F
330
17E
100
AcDbEntity
  8
_U+30EC_U+30A4_U+30E4_U+30FC 1
 62
   179
420
  2234388
370
     9
100
AcDbVertex
100
AcDb2dVertex
 10
81.8435956897737
 20
-133.9887041331694
 30
0.0
  0
VERTEX
  5
180
330
17E
100
AcDbEntity
  8
_U+30EC_U+30A4_U+30E4_U+30FC 1
 62
   179
420
  2234388
370
     9
100
AcDbVertex
100
AcDb2dVertex
 10
85.31210671239572
 20
-133.9887041331694
 30
0.0
  0
VERTEX
  5
181
330
17E
100
AcDbEntity
  8
_U+30EC_U+30A4_U+30E4_U+30FC 1
 62
   179
420
  2234388
370
     9
100
AcDbVertex
100
AcDb2dVertex
 10
86.58196556888781
 20
-137.62330302115
 30
0.0
  0
SEQEND
  5
182
330
17E
100
AcDbEntity
  8
_U+30EC_U+30A4_U+30E4_U+30FC 1
 62
   179
420
  2234388
370
     9
  0
INSERT
  5
184
330
1F
100
AcDbEntity
  8
_U+30EC_U+30A4_U+30E4_U+30FC 1
100
AcDbBlockReference
  2
block 13
 10
0.0
 20
0.0
 30
0.0
  0
ENDSEC
  0
SECTION
  2
OBJECTS
  0
DICTIONARY
  5
C
330
0
100
AcDbDictionary
281
     1
  3
ACAD_GROUP
350
D
  3
ACAD_LAYOUT
350
1A
  3
ACAD_MATERIAL
350
3B
  3
ACAD_MLEADERSTYLE
350
1C0
  3
ACAD_MLINESTYLE
350
17
  3
ACAD_PLOTSETTINGS
350
19
  3
ACAD_PLOTSTYLENAME
350
E
  3
ACAD_TABLESTYLE
350
1BF
  3
ACAD_VISUALSTYLE
350
2A
  0
SUN
  5
3F
330
29
100
AcDbSun
 90
        1
290
     0
 63
     7
421
 16777215
 40
1.0
291
     1
 91
  2455826
 92
 54000000
292
     0
 70
     2
 71
   256
280
     1
  0
DICTIONARY
  5
D
102
{ACAD_REACTORS
330
C
102
}
330
C
100
AcDbDictionary
281
     1
  0
DICTIONARY
  5
1A
102
{ACAD_REACTORS
330
C
102
}
330
C
100
AcDbDictionary
281
     1
  3
Layout1
350
1E
  3
Layout2
350
26
  3
Model
350
22
  0
DICTIONARY
  5
3B
102
{ACAD_REACTORS
330
C
102
}
330
C
100
AcDbDictionary
281
     1
  3
ByBlock
350
3D
  3
ByLayer
350
3C
  3
Global
350
3E
  0
DICTIONARY
  5
1C0
102
{ACAD_REACTORS
330
C
102
}
330
C
100
AcDbDictionary
281
     1
  0
DICTIONARY
  5
17
102
{ACAD_REACTORS
330
C
102
}
330
C
100
AcDbDictionary
281
     1
  3
Standard
350
18
  0
DICTIONARY
  5
19
102
{ACAD_REACTORS
330
C
102
}
330
C
100
AcDbDictionary
281
     1
  0
ACDBDICTIONARYWDFLT
  5
E
102
{ACAD_REACTORS
330
C
102
}
330
C
100
AcDbDictionary
281
     1
  3
Normal
350
F
100
AcDbDictionaryWithDefault
340
F
  0
DICTIONARY
  5
1BF
102
{ACAD_REACTORS
330
C
102
}
330
C
100
AcDbDictionary
281
     1
  0
DICTIONARY
  5
2A
102
{ACAD_REACTORS
330
C
102
}
330
C
100
AcDbDictionary
281
     1
  3
2dWireframe
350
2F
  3
3D Hidden
350
31
  3
3dWireframe
350
30
  3
Basic
350
32
  3
Brighten
350
36
  3
ColorChange
350
3A
  3
Conceptual
350
34
  3
Dim
350
35
  3
Facepattern
350
39
  3
Flat
350
2B
  3
FlatWithEdges
350
2C
  3
Gouraud
350
2D
  3
GouraudWithEdges
350
2E
  3
Linepattern
350
38
  3
Realistic
350
33
  3
Thicken
350
37
  0
LAYOUT
  5
1E
102
{ACAD_REACTORS
330
1A
102
}
330
1A
100
AcDbPlotSettings
  1

  2
none_device
  4

  6

 40
0.0
 41
0.0
 42
0.0
 43
0.0
 44
0.0
 45
0.0
 46
0.0
 47
0.0
 48
0.0
 49
0.0
140
0.0
141
0.0
142
1.0
143
1.0
 70
   688
 72
     0
 73
     0
 74
     5
  7

 75
    16
 76
     0
 77
     2
 78
   300
147
1.0
148
0.0
149
0.0
100
AcDbLayout
  1
Layout1
 70
     1
 71
     1
 10
0.0
 20
0.0
 11
12.0
 21
9.0
 12
0.0
 22
0.0
 32
0.0
 14
1.000000000000000E+20
 24
1.000000000000000E+20
 34
1.000000000000000E+20
 15
-1.000000000000000E+20
 25
-1.000000000000000E+20
 35
-1.000000000000000E+20
146
0.0
 13
0.0
 23
0.0
 33
0.0
 16
1.0
 26
0.0
 36
0.0
 17
0.0
 27
1.0
 37
0.0
 76
     0
330
1B
  0
LAYOUT
  5
26
102
{ACAD_REACTORS
330
1A
102
}
330
1A
100
AcDbPlotSettings
  1

  2
none_device
  4

  6

 40
0.0
 41
0.0
 42
0.0
 43
0.0
 44
0.0
 45
0.0
 46
0.0
 47
0.0
 48
0.0
 49
0.0
140
0.0
141
0.0
142
1.0
143
1.0
 70
   688
 72
     0
 73
     0
 74
     5
  7

 75
    16
 76
     0
 77
     2
 78
   300
147
1.0
148
0.0
149
0.0
100
AcDbLayout
  1
Layout2
 70
     1
 71
     2
 10
0.0
 20
0.0
 11
0.0
 21
0.0
 12
0.0
 22
0.0
 32
0.0
 14
0.0
 24
0.0
 34
0.0
 15
0.0
 25
0.0
 35
0.0
146
0.0
 13
0.0
 23
0.0
 33
0.0
 16
1.0
 26
0.0
 36
0.0
 17
0.0
 27
1.0
 37
0.0
 76
     0
330
23
  0
LAYOUT
  5
22
102
{ACAD_REACTORS
330
1A
102
}
330
1A
100
AcDbPlotSettings
  1

  2
none_device
  4

  6

 40
0.0
 41
0.0
 42
0.0
 43
0.0
 44
0.0
 45
0.0
 46
0.0
 47
0.0
 48
0.0
 49
0.0
140
0.0
141
0.0
142
1.0
143
1.0
 70
  1712
 72
     0
 73
     0
 74
     0
  7

 75
     0
 76
     0
 77
     2
 78
   300
147
1.0
148
0.0
149
0.0
100
AcDbLayout
  1
Model
 70
     1
 71
     0
 10
0.0
 20
0.0
 11
12.0
 21
9.0
 12
0.0
 22
0.0
 32
0.0
 14
1.000000000000000E+20
 24
1.000000000000000E+20
 34
1.000000000000000E+20
 15
-1.000000000000000E+20
 25
-1.000000000000000E+20
 35
-1.000000000000000E+20
146
0.0
 13
0.0
 23
0.0
 33
0.0
 16
1.0
 26
0.0
 36
0.0
 17
0.0
 27
1.0
 37
0.0
 76
     0
330
1F
331
29
  0
MATERIAL
  5
3D
102
{ACAD_REACTORS
330
3B
102
}
330
3B
100
AcDbMaterial
  1
ByBlock
 72
     1
 94
      127
  0
MATERIAL
  5
3C
102
{ACAD_REACTORS
330
3B
102
}
330
3B
100
AcDbMaterial
  1
ByLayer
 72
     1
 94
      127
  0
MATERIAL
  5
3E
102
{ACAD_REACTORS
330
3B
102
}
330
3B
100
AcDbMaterial
  1
Global
 72
     1
 94
      127
  0
MLINESTYLE
  5
18
102
{ACAD_REACTORS
330
17
102
}
330
17
100
AcDbMlineStyle
  2
Standard
 70
     0
  3

 62
   256
 51
90.0
 52
90.0
 71
     2
 49
0.5
 62
   256
  6
BYLAYER
 49
-0.5
 62
   256
  6
BYLAYER
  0
ACDBPLACEHOLDER
  5
F
102
{ACAD_REACTORS
330
E
102
}
330
E
  0
VISUALSTYLE
  5
2F
102
{ACAD_REACTORS
330
2A
102
}
330
2A
100
AcDbVisualStyle
  2
2dWireframe
 70
     4
177
     2
291
     0
 71
     0
176
     1
 72
     2
176
     1
 73
     0
176
     1
 90
        0
176
     1
 40
-0.6
176
     1
 41
-30.0
176
     1
 62
     5
 63
     7
421
 16777215
176
     1
 74
     1
176
     1
 91
        4
176
     1
 64
     7
176
     1
 65
   257
176
     1
 75
     1
176
     1
175
     1
176
     1
 42
1.0
176
     1
 92
        0
176
     1
 66
   257
176
     1
 43
1.0
176
     1
 76
     1
176
     1
 77
     6
176
     1
 78
     2
176
     1
 67
     7
176
     1
 79
     5
176
     1
170
     0
176
     1
171
     0
176
     1
290
     0
176
     1
 93
        1
176
     1
 44
0.0
176
     1
173
     0
176
     1
  0
VISUALSTYLE
  5
31
102
{ACAD_REACTORS
330
2A
102
}
330
2A
100
AcDbVisualStyle
  2
3D Hidden
 70
     6
177
     2
291
     0
 71
     1
176
     1
 72
     2
176
     1
 73
     2
176
     1
 90
        0
176
     1
 40
-0.6
176
     1
 41
-30.0
176
     1
 62
     5
 63
     7
421
 16777215
176
     1
 74
     2
176
     1
 91
        2
176
     1
 64
     7
176
     1
 65
   257
176
     1
 75
     2
176
     1
175
     1
176
     1
 42
40.0
176
     1
 92
        0
176
     1
 66
   257
176
     1
 43
1.0
176
     1
 76
     1
176
     1
 77
     6
176
     1
 78
     2
176
     1
 67
     7
176
     1
 79
     3
176
     1
170
     0
176
     1
171
     0
176
     1
290
     0
176
     1
 93
        1
176
     1
 44
0.0
176
     1
173
     0
176
     1
  0
VISUALSTYLE
  5
30
102
{ACAD_REACTORS
330
2A
102
}
330
2A
100
AcDbVisualStyle
  2
3dWireframe
 70
     5
177
     2
291
     0
 71
     0
176
     1
 72
     2
176
     1
 73
     0
176
     1
 90
        0
176
     1
 40
-0.6
176
     1
 41
-30.0
176
     1
 62
     5
 63
     7
421
 16777215
176
     1
 74
     1
176
     1
 91
        4
176
     1
 64
     7
176
     1
 65
   257
176
     1
 75
     1
176
     1
175
     1
176
     1
 42
1.0
176
     1
 92
        0
176
     1
 66
   257
176
     1
 43
1.0
176
     1
 76
     1
176
     1
 77
     6
176
     1
 78
     2
176
     1
 67
     7
176
     1
 79
     5
176
     1
170
     0
176
     1
171
     0
176
     1
290
     0
176
     1
 93
        1
176
     1
 44
0.0
176
     1
173
     0
176
     1
  0
VISUALSTYLE
  5
32
102
{ACAD_REACTORS
330
2A
102
}
330
2A
100
AcDbVisualStyle
  2
Basic
 70
     7
177
     2
291
     1
 71
     1
176
     1
 72
     0
176
     1
 73
     1
176
     1
 90
        0
176
     1
 40
-0.6
176
     1
 41
-30.0
176
     1
 62
     5
 63
     7
421
 16777215
176
     1
 74
     0
176
     1
 91
        4
176
     1
 64
     7
176
     1
 65
   257
176
     1
 75
     1
176
     1
175
     1
176
     1
 42
1.0
176
     1
 92
        8
176
     1
 66
     7
176
     1
 43
1.0
176
     1
 76
     1
176
     1
 77
     6
176
     1
 78
     2
176
     1
 67
     7
176
     1
 79
     5
176
     1
170
     0
176
     1
171
     0
176
     1
290
     0
176
     1
 93
        1
176
     1
 44
0.0
176
     1
173
     0
176
     1
  0
VISUALSTYLE
  5
36
102
{ACAD_REACTORS
330
2A
102
}
330
2A
100
AcDbVisualStyle
  2
Brighten
 70
    12
177
     2
291
     1
 71
     2
176
     1
 72
     2
176
     1
 73
     0
176
     1
 90
        0
176
     1
 40
-0.6
176
     1
 41
-30.0
176
     1
 62
     5
 63
     7
421
 16777215
176
     1
 74
     1
176
     1
 91
        4
176
     1
 64
     7
176
     1
 65
   257
176
     1
 75
     1
176
     1
175
     1
176
     1
 42
1.0
176
     1
 92
        8
176
     1
 66
     7
176
     1
 43
1.0
176
     1
 76
     1
176
     1
 77
     6
176
     1
 78
     2
176
     1
 67
     7
176
     1
 79
     5
176
     1
170
     0
176
     1
171
     0
176
     1
290
     0
176
     1
 93
        1
176
     1
 44
50.0
176
     1
173
     0
176
     1
  0
VISUALSTYLE
  5
3A
102
{ACAD_REACTORS
330
2A
102
}
330
2A
100
AcDbVisualStyle
  2
ColorChange
 70
    16
177
     2
291
     1
 71
     2
176
     1
 72
     2
176
     1
 73
     3
176
     1
 90
        0
176
     1
 40
-0.6
176
     1
 41
-30.0
176
     1
 62
     5
 63
     8
421
  8421504
176
     1
 74
     1
176
     1
 91
        4
176
     1
 64
     7
176
     1
 65
   257
176
     1
 75
     1
176
     1
175
     1
176
     1
 42
1.0
176
     1
 92
        8
176
     1
 66
     8
424
  8421504
176
     1
 43
1.0
176
     1
 76
     1
176
     1
 77
     6
176
     1
 78
     2
176
     1
 67
     7
176
     1
 79
     5
176
     1
170
     0
176
     1
171
     0
176
     1
290
     0
176
     1
 93
        1
176
     1
 44
0.0
176
     1
173
     0
176
     1
  0
VISUALSTYLE
  5
34
102
{ACAD_REACTORS
330
2A
102
}
330
2A
100
AcDbVisualStyle
  2
Conceptual
 70
     9
177
     2
291
     0
 71
     3
176
     1
 72
     2
176
     1
 73
     0
176
     1
 90
        0
176
     1
 40
-0.6
176
     1
 41
-30.0
176
     1
 62
     5
 63
     7
421
 16777215
176
     1
 74
     2
176
     1
 91
        2
176
     1
 64
     7
176
     1
 65
   257
176
     1
 75
     1
176
     1
175
     1
176
     1
 42
40.0
176
     1
 92
        8
176
     1
 66
     7
176
     1
 43
1.0
176
     1
 76
     1
176
     1
 77
     6
176
     1
 78
     2
176
     1
 67
     7
176
     1
 79
     3
176
     1
170
     0
176
     1
171
     0
176
     1
290
     0
176
     1
 93
        1
176
     1
 44
0.0
176
     1
173
     0
176
     1
  0
VISUALSTYLE
  5
35
102
{ACAD_REACTORS
330
2A
102
}
330
2A
100
AcDbVisualStyle
  2
Dim
 70
    11
177
     2
291
     1
 71
     2
176
     1
 72
     2
176
     1
 73
     0
176
     1
 90
        0
176
     1
 40
-0.6
176
     1
 41
-30.0
176
     1
 62
     5
 63
     7
421
 16777215
176
     1
 74
     1
176
     1
 91
        4
176
     1
 64
     7
176
     1
 65
   257
176
     1
 75
     1
176
     1
175
     1
176
     1
 42
1.0
176
     1
 92
        8
176
     1
 66
     7
176
     1
 43
1.0
176
     1
 76
     1
176
     1
 77
     6
176
     1
 78
     2
176
     1
 67
     7
176
     1
 79
     5
176
     1
170
     0
176
     1
171
     0
176
     1
290
     0
176
     1
 93
        1
176
     1
 44
-50.0
176
     1
173
     0
176
     1
  0
VISUALSTYLE
  5
39
102
{ACAD_REACTORS
330
2A
102
}
330
2A
100
AcDbVisualStyle
  2
Facepattern
 70
    15
177
     2
291
     1
 71
     2
176
     1
 72
     2
176
     1
 73
     0
176
     1
 90
        0
176
     1
 40
-0.6
176
     1
 41
-30.0
176
     1
 62
     5
 63
     7
421
 16777215
176
     1
 74
     1
176
     1
 91
        4
176
     1
 64
     7
176
     1
 65
   257
176
     1
 75
     1
176
     1
175
     1
176
     1
 42
1.0
176
     1
 92
        8
176
     1
 66
     7
176
     1
 43
1.0
176
     1
 76
     1
176
     1
 77
     6
176
     1
 78
     2
176
     1
 67
     7
176
     1
 79
     5
176
     1
170
     0
176
     1
171
     0
176
     1
290
     0
176
     1
 93
        1
176
     1
 44
0.0
176
     1
173
     0
176
     1
  0
VISUALSTYLE
  5
2B
102
{ACAD_REACTORS
330
2A
102
}
330
2A
100
AcDbVisualStyle
  2
Flat
 70
     0
177
     2
291
     1
 71
     2
176
     1
 72
     1
176
     1
 73
     1
176
     1
 90
        2
176
     1
 40
-0.6
176
     1
 41
30.0
176
     1
 62
     5
 63
     7
421
 16777215
176
     1
 74
     0
176
     1
 91
        4
176
     1
 64
     7
176
     1
 65
   257
176
     1
 75
     1
176
     1
175
     1
176
     1
 42
1.0
176
     1
 92
        8
176
     1
 66
     7
176
     1
 43
1.0
176
     1
 76
     1
176
     1
 77
     6
176
     1
 78
     2
176
     1
 67
     7
176
     1
 79
     5
176
     1
170
     0
176
     1
171
     0
176
     1
290
     0
176
     1
 93
       13
176
     1
 44
0.0
176
     1
173
     0
176
     1
  0
VISUALSTYLE
  5
2C
102
{ACAD_REACTORS
330
2A
102
}
330
2A
100
AcDbVisualStyle
  2
FlatWithEdges
 70
     1
177
     2
291
     1
 71
     2
176
     1
 72
     1
176
     1
 73
     1
176
     1
 90
        2
176
     1
 40
-0.6
176
     1
 41
30.0
176
     1
 62
     5
 63
     7
421
 16777215
176
     1
 74
     1
176
     1
 91
        4
176
     1
 64
     7
176
     1
 65
   257
176
     1
 75
     1
176
     1
175
     1
176
     1
 42
1.0
176
     1
 92
        0
176
     1
 66
   257
176
     1
 43
1.0
176
     1
 76
     1
176
     1
 77
     6
176
     1
 78
     2
176
     1
 67
     7
176
     1
 79
     5
176
     1
170
     0
176
     1
171
     0
176
     1
290
     0
176
     1
 93
       13
176
     1
 44
0.0
176
     1
173
     0
176
     1
  0
VISUALSTYLE
  5
2D
102
{ACAD_REACTORS
330
2A
102
}
330
2A
100
AcDbVisualStyle
  2
Gouraud
 70
     2
177
     2
291
     1
 71
     2
176
     1
 72
     2
176
     1
 73
     1
176
     1
 90
        2
176
     1
 40
-0.6
176
     1
 41
30.0
176
     1
 62
     5
 63
     7
421
 16777215
176
     1
 74
     0
176
     1
 91
        4
176
     1
 64
     7
176
     1
 65
   257
176
     1
 75
     1
176
     1
175
     1
176
     1
 42
1.0
176
     1
 92
        0
176
     1
 66
     7
176
     1
 43
1.0
176
     1
 76
     1
176
     1
 77
     6
176
     1
 78
     2
176
     1
 67
     7
176
     1
 79
     5
176
     1
170
     0
176
     1
171
     0
176
     1
290
     0
176
     1
 93
       13
176
     1
 44
0.0
176
     1
173
     0
176
     1
  0
VISUALSTYLE
  5
2E
102
{ACAD_REACTORS
330
2A
102
}
330
2A
100
AcDbVisualStyle
  2
GouraudWithEdges
 70
     3
177
     2
291
     1
 71
     2
176
     1
 72
     2
176
     1
 73
     1
176
     1
 90
        2
176
     1
 40
-0.6
176
     1
 41
30.0
176
     1
 62
     5
 63
     7
421
 16777215
176
     1
 74
     1
176
     1
 91
        4
176
     1
 64
     7
176
     1
 65
   257
176
     1
 75
     1
176
     1
175
     1
176
     1
 42
1.0
176
     1
 92
        0
176
     1
 66
   257
176
     1
 43
1.0
176
     1
 76
     1
176
     1
 77
     6
176
     1
 78
     2
176
     1
 67
     7
176
     1
 79
     5
176
     1
170
     0
176
     1
171
     0
176
     1
290
     0
176
     1
 93
       13
176
     1
 44
0.0
176
     1
173
     0
176
     1
  0
VISUALSTYLE
  5
38
102
{ACAD_REACTORS
330
2A
102
}
330
2A
100
AcDbVisualStyle
  2
Linepattern
 70
    14
177
     2
291
     1
 71
     2
176
     1
 72
     2
176
     1
 73
     0
176
     1
 90
        0
176
     1
 40
-0.6
176
     1
 41
-30.0
176
     1
 62
     5
 63
     7
421
 16777215
176
     1
 74
     1
176
     1
 91
        4
176
     1
 64
     7
176
     1
 65
   257
176
     1
 75
     7
176
     1
175
     7
176
     1
 42
1.0
176
     1
 92
        8
176
     1
 66
     7
176
     1
 43
1.0
176
     1
 76
     1
176
     1
 77
     6
176
     1
 78
     2
176
     1
 67
     7
176
     1
 79
     5
176
     1
170
     0
176
     1
171
     0
176
     1
290
     0
176
     1
 93
        1
176
     1
 44
0.0
176
     1
173
     0
176
     1
  0
VISUALSTYLE
  5
33
102
{ACAD_REACTORS
330
2A
102
}
330
2A
100
AcDbVisualStyle
  2
Realistic
 70
     8
177
     2
291
     0
 71
     2
176
     1
 72
     2
176
     1
 73
     0
176
     1
 90
        0
176
     1
 40
-0.6
176
     1
 41
-30.0
176
     1
 62
     5
 63
     7
421
 16777215
176
     1
 74
     1
176
     1
 91
        0
176
     1
 64
     7
176
     1
 65
   257
176
     1
 75
     1
176
     1
175
     1
176
     1
 42
1.0
176
     1
 92
        8
176
     1
 66
     8
424
  7895160
176
     1
 43
1.0
176
     1
 76
     1
176
     1
 77
     6
176
     1
 78
     2
176
     1
 67
     7
176
     1
 79
     5
176
     1
170
     0
176
     1
171
     0
176
     1
290
     0
176
     1
 93
       13
176
     1
 44
0.0
176
     1
173
     0
176
     1
  0
VISUALSTYLE
  5
37
102
{ACAD_REACTORS
330
2A
102
}
330
2A
100
AcDbVisualStyle
  2
Thicken
 70
    13
177
     2
291
     1
 71
     2
176
     1
 72
     2
176
     1
 73
     0
176
     1
 90
        0
176
     1
 40
-0.6
176
     1
 41
-30.0
176
     1
 62
     5
 63
     7
421
 16777215
176
     1
 74
     1
176
     1
 91
        4
176
     1
 64
     7
176
     1
 65
   257
176
     1
 75
     1
176
     1
175
     1
176
     1
 42
1.0
176
     1
 92
       12
176
     1
 66
     7
176
     1
 43
1.0
176
     1
 76
     1
176
     1
 77
     6
176
     1
 78
     2
176
     1
 67
     7
176
     1
 79
     5
176
     1
170
     0
176
     1
171
     0
176
     1
290
     0
176
     1
 93
        1
176
     1
 44
0.0
176
     1
173
     0
176
     1
  0
ENDSEC
  0
EOF
