  0
SECTION
  2
HEADER
  9
$ACADVER
  1
AC1024
  9
$ACADMAINTVER
 70
     6
  9
$DWGCODEPAGE
  3
UNDEFINED
  9
$INSBASE
 10
0.0
 20
0.0
 30
0.0
  9
$EXTMIN
 10
1.000000000000000E+20
 20
1.000000000000000E+20
 30
1.000000000000000E+20
  9
$EXTMAX
 10
-1.000000000000000E+20
 20
-1.000000000000000E+20
 30
-1.000000000000000E+20
  9
$LIMMIN
 10
0.0
 20
0.0
  9
$LIMMAX
 10
12.0
 20
9.0
  9
$ORTHOMODE
 70
     0
  9
$REGENMODE
 70
     1
  9
$FILLMODE
 70
     1
  9
$QTEXTMODE
 70
     0
  9
$MIRRTEXT
 70
     1
  9
$LTSCALE
 40
1.0
  9
$ATTMODE
 70
     1
  9
$TEXTSIZE
 40
0.2
  9
$TRACEWID
 40
0.05
  9
$TEXTSTYLE
  7
Standard
  9
$CLAYER
  8
0
  9
$CELTYPE
  6
ByLayer
  9
$CECOLOR
 62
   256
  9
$CELTSCALE
 40
1.0
  9
$DISPSILH
 70
     0
  9
$DIMSCALE
 40
1.0
  9
$DIMASZ
 40
0.18
  9
$DIMEXO
 40
0.0625
  9
$DIMDLI
 40
0.38
  9
$DIMRND
 40
0.0
  9
$DIMDLE
 40
0.0
  9
$DIMEXE
 40
0.18
  9
$DIMTP
 40
0.0
  9
$DIMTM
 40
0.0
  9
$DIMTXT
 40
0.18
  9
$DIMCEN
 40
0.09
  9
$DIMTSZ
 40
0.0
  9
$DIMTOL
 70
     0
  9
$DIMLIM
 70
     0
  9
$DIMTIH
 70
     1
  9
$DIMTOH
 70
     1
  9
$DIMSE1
 70
     0
  9
$DIMSE2
 70
     0
  9
$DIMTAD
 70
     0
  9
$DIMZIN
 70
     0
  9
$DIMBLK
  1

  9
$DIMASO
 70
     1
  9
$DIMSHO
 70
     1
  9
$DIMPOST
  1

  9
$DIMAPOST
  1

  9
$DIMALT
 70
     0
  9
$DIMALTD
 70
     2
  9
$DIMALTF
 40
25.4
  9
$DIMLFAC
 40
1.0
  9
$DIMTOFL
 70
     0
  9
$DIMTVP
 40
0.0
  9
$DIMTIX
 70
     0
  9
$DIMSOXD
 70
     0
  9
$DIMSAH
 70
     0
  9
$DIMBLK1
  1

  9
$DIMBLK2
  1

  9
$DIMSTYLE
  2
Standard
  9
$DIMCLRD
 70
     0
  9
$DIMCLRE
 70
     0
  9
$DIMCLRT
 70
     0
  9
$DIMTFAC
 40
1.0
  9
$DIMGAP
 40
0.09
  9
$DIMJUST
 70
     0
  9
$DIMSD1
 70
     0
  9
$DIMSD2
 70
     0
  9
$DIMTOLJ
 70
     1
  9
$DIMTZIN
 70
     0
  9
$DIMALTZ
 70
     0
  9
$DIMALTTZ
 70
     0
  9
$DIMUPT
 70
     0
  9
$DIMDEC
 70
     4
  9
$DIMTDEC
 70
     4
  9
$DIMALTU
 70
     2
  9
$DIMALTTD
 70
     2
  9
$DIMTXSTY
  7
Standard
  9
$DIMAUNIT
 70
     0
  9
$DIMADEC
 70
     0
  9
$DIMALTRND
 40
0.0
  9
$DIMAZIN
 70
     0
  9
$DIMDSEP
 70
    46
  9
$DIMATFIT
 70
     3
  9
$DIMFRAC
 70
     0
  9
$DIMLDRBLK
  1

  9
$DIMLUNIT
 70
     2
  9
$DIMLWD
 70
    -2
  9
$DIMLWE
 70
    -2
  9
$DIMTMOVE
 70
     0
  9
$DIMFXL
 40
1.0
  9
$DIMFXLON
 70
     0
  9
$DIMJOGANG
 40
0.7853981633974483
  9
$DIMTFILL
 70
     0
  9
$DIMTFILLCLR
 70
     0
  9
$DIMARCSYM
 70
     0
  9
$DIMLTYPE
  6

  9
$DIMLTEX1
  6

  9
$DIMLTEX2
  6

  9
$DIMTXTDIRECTION
 70
     0
  9
$LUNITS
 70
     2
  9
$LUPREC
 70
     4
  9
$SKETCHINC
 40
0.1
  9
$FILLETRAD
 40
0.5
  9
$AUNITS
 70
     0
  9
$AUPREC
 70
     0
  9
$MENU
  1
.
  9
$ELEVATION
 40
0.0
  9
$PELEVATION
 40
0.0
  9
$THICKNESS
 40
0.0
  9
$LIMCHECK
 70
     0
  9
$CHAMFERA
 40
0.5
  9
$CHAMFERB
 40
0.5
  9
$CHAMFERC
 40
1.0
  9
$CHAMFERD
 40
0.0
  9
$SKPOLY
 70
     0
  9
$TDCREATE
 40
2457917.638472222
  9
$TDUCREATE
 40
2457917.263472222
  9
$TDUPDATE
 40
2457917.638472222
  9
$TDUUPDATE
 40
2457917.263472222
  9
$TDINDWG
 40
0.0000000116
  9
$TDUSRTIMER
 40
0.0000000116
  9
$USRTIMER
 70
     1
  9
$ANGBASE
 50
0.0
  9
$ANGDIR
 70
     0
  9
$PDMODE
 70
     0
  9
$PDSIZE
 40
0.0
  9
$PLINEWID
 40
0.0
  9
$SPLFRAME
 70
     0
  9
$SPLINETYPE
 70
     6
  9
$SPLINESEGS
 70
     8
  9
$HANDSEED
  5
BC
  9
$SURFTAB1
 70
     6
  9
$SURFTAB2
 70
     6
  9
$SURFTYPE
 70
     6
  9
$SURFU
 70
     6
  9
$SURFV
 70
     6
  9
$UCSBASE
  2

  9
$UCSNAME
  2

  9
$UCSORG
 10
0.0
 20
0.0
 30
0.0
  9
$UCSXDIR
 10
1.0
 20
0.0
 30
0.0
  9
$UCSYDIR
 10
0.0
 20
1.0
 30
0.0
  9
$UCSORTHOREF
  2

  9
$UCSORTHOVIEW
 70
     0
  9
$UCSORGTOP
 10
0.0
 20
0.0
 30
0.0
  9
$UCSORGBOTTOM
 10
0.0
 20
0.0
 30
0.0
  9
$UCSORGLEFT
 10
0.0
 20
0.0
 30
0.0
  9
$UCSORGRIGHT
 10
0.0
 20
0.0
 30
0.0
  9
$UCSORGFRONT
 10
0.0
 20
0.0
 30
0.0
  9
$UCSORGBACK
 10
0.0
 20
0.0
 30
0.0
  9
$PUCSBASE
  2

  9
$PUCSNAME
  2

  9
$PUCSORG
 10
0.0
 20
0.0
 30
0.0
  9
$PUCSXDIR
 10
1.0
 20
0.0
 30
0.0
  9
$PUCSYDIR
 10
0.0
 20
1.0
 30
0.0
  9
$PUCSORTHOREF
  2

  9
$PUCSORTHOVIEW
 70
     0
  9
$PUCSORGTOP
 10
0.0
 20
0.0
 30
0.0
  9
$PUCSORGBOTTOM
 10
0.0
 20
0.0
 30
0.0
  9
$PUCSORGLEFT
 10
0.0
 20
0.0
 30
0.0
  9
$PUCSORGRIGHT
 10
0.0
 20
0.0
 30
0.0
  9
$PUCSORGFRONT
 10
0.0
 20
0.0
 30
0.0
  9
$PUCSORGBACK
 10
0.0
 20
0.0
 30
0.0
  9
$USERI1
 70
     0
  9
$USERI2
 70
     0
  9
$USERI3
 70
     0
  9
$USERI4
 70
     0
  9
$USERI5
 70
     0
  9
$USERR1
 40
0.0
  9
$USERR2
 40
0.0
  9
$USERR3
 40
0.0
  9
$USERR4
 40
0.0
  9
$USERR5
 40
0.0
  9
$WORLDVIEW
 70
     1
  9
$SHADEDGE
 70
     3
  9
$SHADEDIF
 70
    70
  9
$TILEMODE
 70
     1
  9
$MAXACTVP
 70
    64
  9
$PINSBASE
 10
0.0
 20
0.0
 30
0.0
  9
$PLIMCHECK
 70
     0
  9
$PEXTMIN
 10
1.000000000000000E+20
 20
1.000000000000000E+20
 30
1.000000000000000E+20
  9
$PEXTMAX
 10
-1.000000000000000E+20
 20
-1.000000000000000E+20
 30
-1.000000000000000E+20
  9
$PLIMMIN
 10
0.0
 20
0.0
  9
$PLIMMAX
 10
12.0
 20
9.0
  9
$UNITMODE
 70
     0
  9
$VISRETAIN
 70
     1
  9
$PLINEGEN
 70
     0
  9
$PSLTSCALE
 70
     1
  9
$TREEDEPTH
 70
  3020
  9
$CMLSTYLE
  2
Standard
  9
$CMLJUST
 70
     0
  9
$CMLSCALE
 40
1.0
  9
$PROXYGRAPHICS
 70
     1
  9
$MEASUREMENT
 70
     0
  9
$CELWEIGHT
370
    -1
  9
$ENDCAPS
280
     0
  9
$JOINSTYLE
280
     0
  9
$LWDISPLAY
290
     1
  9
$INSUNITS
 70
     1
  9
$HYPERLINKBASE
  1

  9
$STYLESHEET
  1

  9
$XEDIT
290
     1
  9
$CEPSNTYPE
380
     0
  9
$PSTYLEMODE
290
     1
  9
$FINGERPRINTGUID
  2
{31FF764E-D2C3-23E1-04B5-61BD61426021}
  9
$VERSIONGUID
  2
{FAEB1C32-E019-11D5-929B-00C0DF256EC4}
  9
$EXTNAMES
290
     1
  9
$PSVPSCALE
 40
0.0
  9
$OLESTARTUP
290
     0
  9
$SORTENTS
280
   127
  9
$INDEXCTL
280
     0
  9
$HIDETEXT
280
     1
  9
$XCLIPFRAME
280
     2
  9
$HALOGAP
280
     0
  9
$OBSCOLOR
 70
   257
  9
$OBSLTYPE
280
     0
  9
$INTERSECTIONDISPLAY
280
     0
  9
$INTERSECTIONCOLOR
 70
   257
  9
$DIMASSOC
280
     2
  9
$PROJECTNAME
  1

  9
$CAMERADISPLAY
290
     0
  9
$LENSLENGTH
 40
50.0
  9
$CAMERAHEIGHT
 40
0.0
  9
$STEPSPERSEC
 40
2.0
  9
$STEPSIZE
 40
6.0
  9
$3DDWFPREC
 40
2.0
  9
$PSOLWIDTH
 40
0.25
  9
$PSOLHEIGHT
 40
4.0
  9
$LOFTANG1
 40
1.570796326794897
  9
$LOFTANG2
 40
1.570796326794897
  9
$LOFTMAG1
 40
0.0
  9
$LOFTMAG2
 40
0.0
  9
$LOFTPARAM
 70
     7
  9
$LOFTNORMALS
280
     1
  9
$LATITUDE
 40
37.795
  9
$LONGITUDE
 40
-122.394
  9
$NORTHDIRECTION
 40
0.0
  9
$TIMEZONE
 70
 -8000
  9
$LIGHTGLYPHDISPLAY
280
     1
  9
$TILEMODELIGHTSYNCH
280
     1
  9
$CMATERIAL
347
3C
  9
$SOLIDHIST
280
     1
  9
$SHOWHIST
280
     1
  9
$DWFFRAME
280
     2
  9
$DGNFRAME
280
     2
  9
$REALWORLDSCALE
290
     1
  9
$INTERFERECOLOR
 62
   256
  9
$CSHADOW
280
     0
  9
$SHADOWPLANELOCATION
 40
0.0
  0
ENDSEC
  0
SECTION
  2
CLASSES
  0
CLASS
  1
ACDBDICTIONARYWDFLT
  2
AcDbDictionaryWithDefault
  3
ObjectDBX Classes
 90
        0
 91
        4
280
     0
281
     0
  0
CLASS
  1
VISUALSTYLE
  2
AcDbVisualStyle
  3
ObjectDBX Classes
 90
     4095
 91
        4
280
     0
281
     0
  0
CLASS
  1
MATERIAL
  2
AcDbMaterial
  3
ObjectDBX Classes
 90
     1153
 91
        4
280
     0
281
     0
  0
CLASS
  1
SUN
  2
AcDbSun
  3
SCENEOE
 90
     1024
 91
        4
280
     0
281
     0
  0
ENDSEC
  0
SECTION
  2
TABLES
  0
TABLE
  2
VPORT
  5
8
330
0
100
AcDbSymbolTable
 70
     1
  0
VPORT
  5
29
330
8
100
AcDbSymbolTableRecord
100
AcDbViewportTableRecord
  2
*Active
 70
     0
 10
0.0
 20
0.0
 11
1.0
 21
1.0
 12
0.0
 22
0.0
 13
0.0
 23
0.0
 14
0.5
 24
0.5
 15
0.5
 25
0.5
 16
0.0
 26
0.0
 36
1.0
 17
91.00082462281999
 27
-128.4993055234307
 37
0.0
 40
256.9986110468615
 41
0.7081814508812795
 42
50.0
 43
0.0
 44
0.0
 50
0.0
 51
0.0
 71
     0
 72
   100
 73
     1
 74
     3
 75
     0
 76
     0
 77
     0
 78
     0
281
     0
 65
     1
110
0.0
120
0.0
130
0.0
111
1.0
121
0.0
131
0.0
112
0.0
122
1.0
132
0.0
 79
     0
146
0.0
 60
     3
 61
     5
292
     1
282
     1
141
0.0
142
0.0
 63
   250
361
3F
  0
ENDTAB
  0
TABLE
  2
LTYPE
  5
5
330
0
100
AcDbSymbolTable
 70
     1
  0
LTYPE
  5
14
330
5
100
AcDbSymbolTableRecord
100
AcDbLinetypeTableRecord
  2
ByBlock
 70
     0
  3

 72
    65
 73
     0
 40
0.0
  0
LTYPE
  5
15
330
5
100
AcDbSymbolTableRecord
100
AcDbLinetypeTableRecord
  2
ByLayer
 70
     0
  3

 72
    65
 73
     0
 40
0.0
  0
LTYPE
  5
16
330
5
100
AcDbSymbolTableRecord
100
AcDbLinetypeTableRecord
  2
Continuous
 70
     0
  3
Solid line
 72
    65
 73
     0
 40
0.0
  0
ENDTAB
  0
TABLE
  2
LAYER
  5
2
330
0
100
AcDbSymbolTable
 70
     2
  0
LAYER
  5
10
330
2
100
AcDbSymbolTableRecord
100
AcDbLayerTableRecord
  2
0
 70
     0
 62
     7
  6
Continuous
370
    -3
390
F
347
3E
  0
LAYER
  5
40
330
2
100
AcDbSymbolTableRecord
100
AcDbLayerTableRecord
  2
_U+30EC_U+30A4_U+30E4_U+30FC 1
 70
     0
 62
     7
  6
Continuous
370
    -3
390
F
347
3E
  0
ENDTAB
  0
TABLE
  2
STYLE
  5
3
330
0
100
AcDbSymbolTable
 70
     1
  0
STYLE
  5
11
330
3
100
AcDbSymbolTableRecord
100
AcDbTextStyleTableRecord
  2
Standard
 70
     0
 40
0.0
 41
1.0
 50
0.0
 71
     0
 42
0.2
  3
txt
  4

  0
ENDTAB
  0
TABLE
  2
VIEW
  5
6
330
0
100
AcDbSymbolTable
 70
     0
  0
ENDTAB
  0
TABLE
  2
UCS
  5
7
330
0
100
AcDbSymbolTable
 70
     0
  0
ENDTAB
  0
TABLE
  2
APPID
  5
9
330
0
100
AcDbSymbolTable
 70
     1
  0
APPID
  5
12
330
9
100
AcDbSymbolTableRecord
100
AcDbRegAppTableRecord
  2
ACAD
 70
     0
  0
ENDTAB
  0
TABLE
  2
DIMSTYLE
  5
A
330
0
100
AcDbSymbolTable
 70
     1
100
AcDbDimStyleTable
  0
DIMSTYLE
105
27
330
A
100
AcDbSymbolTableRecord
100
AcDbDimStyleTableRecord
  2
Standard
 70
     0
178
     0
340
11
  0
ENDTAB
  0
TABLE
  2
BLOCK_RECORD
  5
1
330
0
100
AcDbSymbolTable
 70
     5
  0
BLOCK_RECORD
  5
1F
330
1
100
AcDbSymbolTableRecord
100
AcDbBlockTableRecord
  2
*Model_Space
340
22
 70
     0
280
     1
281
     0
  0
BLOCK_RECORD
  5
1B
330
1
100
AcDbSymbolTableRecord
100
AcDbBlockTableRecord
  2
*Paper_Space
340
1E
 70
     0
280
     1
281
     0
  0
BLOCK_RECORD
  5
23
330
1
100
AcDbSymbolTableRecord
100
AcDbBlockTableRecord
  2
*Paper_Space0
340
26
 70
     0
280
     1
281
     0
  0
BLOCK_RECORD
  5
53
330
1
100
AcDbSymbolTableRecord
100
AcDbBlockTableRecord
  2
block 2
340
0
102
{BLKREFS
331
54
102
}
 70
     0
280
     1
281
     0
  0
BLOCK_RECORD
  5
9E
330
1
100
AcDbSymbolTableRecord
100
AcDbBlockTableRecord
  2
block 3
340
0
102
{BLKREFS
331
9F
102
}
 70
     0
280
     1
281
     0
  0
BLOCK_RECORD
  5
A7
330
1
100
AcDbSymbolTableRecord
100
AcDbBlockTableRecord
  2
block 4
340
0
102
{BLKREFS
331
A8
102
}
 70
     0
280
     1
281
     0
  0
BLOCK_RECORD
  5
B0
330
1
100
AcDbSymbolTableRecord
100
AcDbBlockTableRecord
  2
block 5
340
0
102
{BLKREFS
331
B1
102
}
 70
     0
280
     1
281
     0
  0
ENDTAB
  0
ENDSEC
  0
SECTION
  2
BLOCKS
  0
BLOCK
  5
20
330
1F
100
AcDbEntity
  8
0
100
AcDbBlockBegin
  2
*Model_Space
 70
     0
 10
0.0
 20
0.0
 30
0.0
  3
*Model_Space
  1

  0
ENDBLK
  5
21
330
1F
100
AcDbEntity
  8
0
100
AcDbBlockEnd
  0
BLOCK
  5
1C
330
1B
100
AcDbEntity
 67
     1
  8
0
100
AcDbBlockBegin
  2
*Paper_Space
 70
     0
 10
0.0
 20
0.0
 30
0.0
  3
*Paper_Space
  1

  0
ENDBLK
  5
1D
330
1B
100
AcDbEntity
 67
     1
  8
0
100
AcDbBlockEnd
  0
BLOCK
  5
24
330
23
100
AcDbEntity
  8
0
100
AcDbBlockBegin
  2
*Paper_Space0
 70
     0
 10
0.0
 20
0.0
 30
0.0
  3
*Paper_Space0
  1

  0
ENDBLK
  5
25
330
23
100
AcDbEntity
  8
0
100
AcDbBlockEnd
  0
BLOCK
  5
55
330
53
100
AcDbEntity
  8
0
100
AcDbBlockBegin
  2
block 2
 70
     0
 10
0.0
 20
0.0
 30
0.0
  3
block 2
  1

  0
SPLINE
  5
57
330
53
100
AcDbEntity
  8
_U+30EC_U+30A4_U+30E4_U+30FC 1
370
     0
100
AcDbSpline
210
0.0
220
0.0
230
1.0
 70
    11
 71
     3
 72
    26
 73
    22
 74
     0
 42
0.0000000001
 43
0.0000000001
 12
1.0
 22
0.0
 32
0.0
 13
1.0
 23
0.0
 33
0.0
 40
0.0
 40
0.0
 40
0.0
 40
0.0
 40
1.0
 40
1.0
 40
1.0
 40
2.0
 40
2.0
 40
2.0
 40
3.0
 40
3.0
 40
3.0
 40
4.0
 40
4.0
 40
4.0
 40
5.0
 40
5.0
 40
5.0
 40
6.0
 40
6.0
 40
6.0
 40
7.0
 40
7.0
 40
7.0
 40
7.0
 10
103.3480414238158
 20
-129.2854763131647
 30
0.0
 10
103.3480414238158
 20
-129.2854763131647
 30
0.0
 10
102.2435438112447
 20
-129.2854763131647
 30
0.0
 10
102.2435438112447
 20
-129.2854763131647
 30
0.0
 10
102.2435438112447
 20
-129.2854763131647
 30
0.0
 10
102.2435438112447
 20
-129.6155164606517
 30
0.0
 10
102.2435438112447
 20
-129.6155164606517
 30
0.0
 10
102.2435438112447
 20
-129.6155164606517
 30
0.0
 10
102.0954047053789
 20
-129.6155164606517
 30
0.0
 10
102.0954047053789
 20
-129.6155164606517
 30
0.0
 10
102.0809353043409
 20
-129.2834092558736
 30
0.0
 10
101.91763777834
 20
-129.2369004668227
 30
0.0
 10
101.8032606082297
 20
-129.2072726456496
 30
0.0
 10
101.8032606082297
 20
-129.2072726456496
 30
0.0
 10
101.8032606082297
 20
-129.061200597075
 30
0.0
 10
101.8032606082297
 20
-129.061200597075
 30
0.0
 10
101.8032606082297
 20
-129.061200597075
 30
0.0
 10
103.3480414238158
 20
-129.061200597075
 30
0.0
 10
103.3480414238158
 20
-129.061200597075
 30
0.0
 10
103.3480414238158
 20
-129.061200597075
 30
0.0
 10
103.3480414238158
 20
-129.2854763131647
 30
0.0
 10
103.3480414238158
 20
-129.2854763131647
 30
0.0
  0
HATCH
  5
58
330
53
100
AcDbEntity
  8
_U+30EC_U+30A4_U+30E4_U+30FC 1
 62
   179
420
  2234388
100
AcDbHatch
 10
0.0
 20
0.0
 30
0.0
210
0.0
220
0.0
230
1.0
  2
SOLID
 70
     1
 71
     0
 91
        1
 92
        1
 93
        1
 72
     4
 94
        3
 73
     0
 74
     1
 95
       26
 96
       22
 40
0.0
 40
0.0
 40
0.0
 40
0.0
 40
1.0
 40
1.0
 40
1.0
 40
2.0
 40
2.0
 40
2.0
 40
3.0
 40
3.0
 40
3.0
 40
4.0
 40
4.0
 40
4.0
 40
5.0
 40
5.0
 40
5.0
 40
6.0
 40
6.0
 40
6.0
 40
7.0
 40
7.0
 40
7.0
 40
7.0
 10
103.3480414238158
 20
-129.2854763131647
 10
103.3480414238158
 20
-129.2854763131647
 10
102.2435438112447
 20
-129.2854763131647
 10
102.2435438112447
 20
-129.2854763131647
 10
102.2435438112447
 20
-129.2854763131647
 10
102.2435438112447
 20
-129.6155164606517
 10
102.2435438112447
 20
-129.6155164606517
 10
102.2435438112447
 20
-129.6155164606517
 10
102.0954047053789
 20
-129.6155164606517
 10
102.0954047053789
 20
-129.6155164606517
 10
102.0809353043409
 20
-129.2834092558736
 10
101.91763777834
 20
-129.2369004668227
 10
101.8032606082297
 20
-129.2072726456496
 10
101.8032606082297
 20
-129.2072726456496
 10
101.8032606082297
 20
-129.061200597075
 10
101.8032606082297
 20
-129.061200597075
 10
101.8032606082297
 20
-129.061200597075
 10
103.3480414238158
 20
-129.061200597075
 10
103.3480414238158
 20
-129.061200597075
 10
103.3480414238158
 20
-129.061200597075
 10
103.3480414238158
 20
-129.2854763131647
 10
103.3480414238158
 20
-129.2854763131647
 97
        0
 97
        0
 75
     2
 76
     1
 98
        0
  0
SPLINE
  5
59
330
53
100
AcDbEntity
  8
_U+30EC_U+30A4_U+30E4_U+30FC 1
370
     0
100
AcDbSpline
210
0.0
220
0.0
230
1.0
 70
    11
 71
     3
 72
    29
 73
    25
 74
     0
 42
0.0000000001
 43
0.0000000001
 12
1.0
 22
0.0
 32
0.0
 13
1.0
 23
0.0
 33
0.0
 40
0.0
 40
0.0
 40
0.0
 40
0.0
 40
1.0
 40
1.0
 40
1.0
 40
2.0
 40
2.0
 40
2.0
 40
3.0
 40
3.0
 40
3.0
 40
4.0
 40
4.0
 40
4.0
 40
5.0
 40
5.0
 40
5.0
 40
6.0
 40
6.0
 40
6.0
 40
7.0
 40
7.0
 40
7.0
 40
8.0
 40
8.0
 40
8.0
 40
8.0
 10
103.1702744967769
 20
-127.662147320515
 30
0.0
 10
103.3797363022801
 20
-127.7703233187519
 30
0.0
 10
103.3983398179004
 20
-127.9436116216599
 30
0.0
 10
103.3983398179004
 20
-128.0600558490614
 30
0.0
 10
103.3983398179004
 20
-128.2209418082225
 30
0.0
 10
103.3521755383981
 20
-128.3625352326663
 30
0.0
 10
103.1702744967769
 20
-128.4576198680592
 30
0.0
 10
102.9752820923117
 20
-128.5613172421652
 30
0.0
 10
102.7382595229266
 20
-128.5806097768826
 30
0.0
 10
102.5756510160228
 20
-128.5806097768826
 30
0.0
 10
102.4316460247393
 20
-128.5806097768826
 30
0.0
 10
102.1801540543161
 20
-128.5633842994564
 30
0.0
 10
101.9810275352686
 20
-128.4576198680592
 30
0.0
 10
101.778455920736
 20
-128.3497883793709
 30
0.0
 10
101.7550292714362
 20
-128.1889024202097
 30
0.0
 10
101.7550292714362
 20
-128.0600558490614
 30
0.0
 10
101.7550292714362
 20
-127.9012369471914
 30
0.0
 10
101.7991264936474
 20
-127.7575764654564
 30
0.0
 10
101.9810275352686
 20
-127.662147320515
 30
0.0
 10
102.1739528824426
 20
-127.5629285705398
 30
0.0
 10
102.4020182035662
 20
-127.5395019212401
 30
0.0
 10
102.5756510160228
 20
-127.5395019212401
 30
0.0
 10
102.7472167711882
 20
-127.5395019212401
 30
0.0
 10
102.9773491496029
 20
-127.5608615132487
 30
0.0
 10
103.1702744967769
 20
-127.662147320515
 30
0.0
  0
SPLINE
  5
5A
330
53
100
AcDbEntity
  8
_U+30EC_U+30A4_U+30E4_U+30FC 1
370
     0
100
AcDbSpline
210
0.0
220
0.0
230
1.0
 70
    11
 71
     3
 72
    17
 73
    13
 74
     0
 42
0.0000000001
 43
0.0000000001
 12
1.0
 22
0.0
 32
0.0
 13
1.0
 23
0.0
 33
0.0
 40
0.0
 40
0.0
 40
0.0
 40
0.0
 40
1.0
 40
1.0
 40
1.0
 40
2.0
 40
2.0
 40
2.0
 40
3.0
 40
3.0
 40
3.0
 40
4.0
 40
4.0
 40
4.0
 40
4.0
 10
101.9472655995132
 20
-128.0600558490614
 30
0.0
 10
101.9472655995132
 20
-128.309825271742
 30
0.0
 10
102.2311414674978
 20
-128.3563340607929
 30
0.0
 10
102.5756510160228
 20
-128.3563340607929
 30
0.0
 10
102.8953558770539
 20
-128.3563340607929
 30
0.0
 10
103.2040364325323
 20
-128.3201605581978
 30
0.0
 10
103.2040364325323
 20
-128.0600558490614
 30
0.0
 10
103.2040364325323
 20
-127.8123534836719
 30
0.0
 10
102.9229166409359
 20
-127.7637776373299
 30
0.0
 10
102.5756510160228
 20
-127.7637776373299
 30
0.0
 10
102.2559461549916
 20
-127.7637776373299
 30
0.0
 10
101.9472655995132
 20
-127.8020181972162
 30
0.0
 10
101.9472655995132
 20
-128.0600558490614
 30
0.0
  0
HATCH
  5
5B
330
53
100
AcDbEntity
  8
_U+30EC_U+30A4_U+30E4_U+30FC 1
 62
   179
420
  2234388
100
AcDbHatch
 10
0.0
 20
0.0
 30
0.0
210
0.0
220
0.0
230
1.0
  2
SOLID
 70
     1
 71
     0
 91
        2
 92
        1
 93
        1
 72
     4
 94
        3
 73
     0
 74
     1
 95
       29
 96
       25
 40
0.0
 40
0.0
 40
0.0
 40
0.0
 40
1.0
 40
1.0
 40
1.0
 40
2.0
 40
2.0
 40
2.0
 40
3.0
 40
3.0
 40
3.0
 40
4.0
 40
4.0
 40
4.0
 40
5.0
 40
5.0
 40
5.0
 40
6.0
 40
6.0
 40
6.0
 40
7.0
 40
7.0
 40
7.0
 40
8.0
 40
8.0
 40
8.0
 40
8.0
 10
103.1702744967769
 20
-127.662147320515
 10
103.3797363022801
 20
-127.7703233187519
 10
103.3983398179004
 20
-127.9436116216599
 10
103.3983398179004
 20
-128.0600558490614
 10
103.3983398179004
 20
-128.2209418082225
 10
103.3521755383981
 20
-128.3625352326663
 10
103.1702744967769
 20
-128.4576198680592
 10
102.9752820923117
 20
-128.5613172421652
 10
102.7382595229266
 20
-128.5806097768826
 10
102.5756510160228
 20
-128.5806097768826
 10
102.4316460247393
 20
-128.5806097768826
 10
102.1801540543161
 20
-128.5633842994564
 10
101.9810275352686
 20
-128.4576198680592
 10
101.778455920736
 20
-128.3497883793709
 10
101.7550292714362
 20
-128.1889024202097
 10
101.7550292714362
 20
-128.0600558490614
 10
101.7550292714362
 20
-127.9012369471914
 10
101.7991264936474
 20
-127.7575764654564
 10
101.9810275352686
 20
-127.662147320515
 10
102.1739528824426
 20
-127.5629285705398
 10
102.4020182035662
 20
-127.5395019212401
 10
102.5756510160228
 20
-127.5395019212401
 10
102.7472167711882
 20
-127.5395019212401
 10
102.9773491496029
 20
-127.5608615132487
 10
103.1702744967769
 20
-127.662147320515
 97
        0
 97
        0
 92
        1
 93
        1
 72
     4
 94
        3
 73
     0
 74
     1
 95
       17
 96
       13
 40
0.0
 40
0.0
 40
0.0
 40
0.0
 40
1.0
 40
1.0
 40
1.0
 40
2.0
 40
2.0
 40
2.0
 40
3.0
 40
3.0
 40
3.0
 40
4.0
 40
4.0
 40
4.0
 40
4.0
 10
101.9472655995132
 20
-128.0600558490614
 10
101.9472655995132
 20
-128.309825271742
 10
102.2311414674978
 20
-128.3563340607929
 10
102.5756510160228
 20
-128.3563340607929
 10
102.8953558770539
 20
-128.3563340607929
 10
103.2040364325323
 20
-128.3201605581978
 10
103.2040364325323
 20
-128.0600558490614
 10
103.2040364325323
 20
-127.8123534836719
 10
102.9229166409359
 20
-127.7637776373299
 10
102.5756510160228
 20
-127.7637776373299
 10
102.2559461549916
 20
-127.7637776373299
 10
101.9472655995132
 20
-127.8020181972162
 10
101.9472655995132
 20
-128.0600558490614
 97
        0
 97
        0
 75
     2
 76
     1
 98
        0
  0
ENDBLK
  5
56
330
53
100
AcDbEntity
  8
0
100
AcDbBlockEnd
  0
BLOCK
  5
A0
330
9E
100
AcDbEntity
  8
0
100
AcDbBlockBegin
  2
block 3
 70
     0
 10
0.0
 20
0.0
 30
0.0
  3
block 3
  1

  0
SPLINE
  5
A2
330
9E
100
AcDbEntity
  8
_U+30EC_U+30A4_U+30E4_U+30FC 1
370
     0
100
AcDbSpline
210
0.0
220
0.0
230
1.0
 70
    11
 71
     3
 72
    26
 73
    22
 74
     0
 42
0.0000000001
 43
0.0000000001
 12
1.0
 22
0.0
 32
0.0
 13
1.0
 23
0.0
 33
0.0
 40
0.0
 40
0.0
 40
0.0
 40
0.0
 40
1.0
 40
1.0
 40
1.0
 40
2.0
 40
2.0
 40
2.0
 40
3.0
 40
3.0
 40
3.0
 40
4.0
 40
4.0
 40
4.0
 40
5.0
 40
5.0
 40
5.0
 40
6.0
 40
6.0
 40
6.0
 40
7.0
 40
7.0
 40
7.0
 40
7.0
 10
90.57276609063807
 20
-120.421934648714
 30
0.0
 10
90.57276609063807
 20
-120.421934648714
 30
0.0
 10
90.57276609063807
 20
-119.3177815456914
 30
0.0
 10
90.57276609063807
 20
-119.3177815456914
 30
0.0
 10
90.57276609063807
 20
-119.3177815456914
 30
0.0
 10
90.24272594315113
 20
-119.3177815456914
 30
0.0
 10
90.24272594315113
 20
-119.3177815456914
 30
0.0
 10
90.24272594315113
 20
-119.3177815456914
 30
0.0
 10
90.24272594315113
 20
-119.1696424398257
 30
0.0
 10
90.24272594315113
 20
-119.1696424398257
 30
0.0
 10
90.57483314792921
 20
-119.1548285292391
 30
0.0
 10
90.62134193698009
 20
-118.9918755127868
 30
0.0
 10
90.65096975815324
 20
-118.8774983426765
 30
0.0
 10
90.65096975815324
 20
-118.8774983426765
 30
0.0
 10
90.79704180672783
 20
-118.8774983426765
 30
0.0
 10
90.79704180672783
 20
-118.8774983426765
 30
0.0
 10
90.79704180672783
 20
-118.8774983426765
 30
0.0
 10
90.79704180672783
 20
-120.421934648714
 30
0.0
 10
90.79704180672783
 20
-120.421934648714
 30
0.0
 10
90.79704180672783
 20
-120.421934648714
 30
0.0
 10
90.57276609063807
 20
-120.421934648714
 30
0.0
 10
90.57276609063807
 20
-120.421934648714
 30
0.0
  0
HATCH
  5
A3
330
9E
100
AcDbEntity
  8
_U+30EC_U+30A4_U+30E4_U+30FC 1
 62
   179
420
  2234388
100
AcDbHatch
 10
0.0
 20
0.0
 30
0.0
210
0.0
220
0.0
230
1.0
  2
SOLID
 70
     1
 71
     0
 91
        1
 92
        1
 93
        1
 72
     4
 94
        3
 73
     0
 74
     1
 95
       26
 96
       22
 40
0.0
 40
0.0
 40
0.0
 40
0.0
 40
1.0
 40
1.0
 40
1.0
 40
2.0
 40
2.0
 40
2.0
 40
3.0
 40
3.0
 40
3.0
 40
4.0
 40
4.0
 40
4.0
 40
5.0
 40
5.0
 40
5.0
 40
6.0
 40
6.0
 40
6.0
 40
7.0
 40
7.0
 40
7.0
 40
7.0
 10
90.57276609063807
 20
-120.421934648714
 10
90.57276609063807
 20
-120.421934648714
 10
90.57276609063807
 20
-119.3177815456914
 10
90.57276609063807
 20
-119.3177815456914
 10
90.57276609063807
 20
-119.3177815456914
 10
90.24272594315113
 20
-119.3177815456914
 10
90.24272594315113
 20
-119.3177815456914
 10
90.24272594315113
 20
-119.3177815456914
 10
90.24272594315113
 20
-119.1696424398257
 10
90.24272594315113
 20
-119.1696424398257
 10
90.57483314792921
 20
-119.1548285292391
 10
90.62134193698009
 20
-118.9918755127868
 10
90.65096975815324
 20
-118.8774983426765
 10
90.65096975815324
 20
-118.8774983426765
 10
90.79704180672783
 20
-118.8774983426765
 10
90.79704180672783
 20
-118.8774983426765
 10
90.79704180672783
 20
-118.8774983426765
 10
90.79704180672783
 20
-120.421934648714
 10
90.79704180672783
 20
-120.421934648714
 10
90.79704180672783
 20
-120.421934648714
 10
90.57276609063807
 20
-120.421934648714
 10
90.57276609063807
 20
-120.421934648714
 97
        0
 97
        0
 75
     2
 76
     1
 98
        0
  0
SPLINE
  5
A4
330
9E
100
AcDbEntity
  8
_U+30EC_U+30A4_U+30E4_U+30FC 1
370
     0
100
AcDbSpline
210
0.0
220
0.0
230
1.0
 70
    11
 71
     3
 72
    29
 73
    25
 74
     0
 42
0.0000000001
 43
0.0000000001
 12
1.0
 22
0.0
 32
0.0
 13
1.0
 23
0.0
 33
0.0
 40
0.0
 40
0.0
 40
0.0
 40
0.0
 40
1.0
 40
1.0
 40
1.0
 40
2.0
 40
2.0
 40
2.0
 40
3.0
 40
3.0
 40
3.0
 40
4.0
 40
4.0
 40
4.0
 40
5.0
 40
5.0
 40
5.0
 40
6.0
 40
6.0
 40
6.0
 40
7.0
 40
7.0
 40
7.0
 40
8.0
 40
8.0
 40
8.0
 40
8.0
 10
92.19626733806204
 20
-120.2441677216751
 30
0.0
 10
92.0880913398252
 20
-120.4536295271783
 30
0.0
 10
91.91445852736861
 20
-120.4725775523471
 30
0.0
 10
91.79801429996716
 20
-120.4725775523471
 30
0.0
 10
91.63747285035453
 20
-120.4725775523471
 30
0.0
 10
91.49553491636223
 20
-120.4260687632963
 30
0.0
 10
91.40045028096934
 20
-120.2441677216751
 30
0.0
 10
91.29692516163757
 20
-120.0495198267585
 30
0.0
 10
91.2779771364687
 20
-119.8128417669218
 30
0.0
 10
91.2779771364687
 20
-119.6498887504695
 30
0.0
 10
91.2779771364687
 20
-119.505883759186
 30
0.0
 10
91.29485810434643
 20
-119.2540472792143
 30
0.0
 10
91.40045028096934
 20
-119.0552652697153
 30
0.0
 10
91.50862627920618
 20
-118.8523491456341
 30
0.0
 10
91.66916772881882
 20
-118.8289224963344
 30
0.0
 10
91.79801429996716
 20
-118.8289224963344
 30
0.0
 10
91.95717771138571
 20
-118.8289224963344
 30
0.0
 10
92.1004936835721
 20
-118.8733642280942
 30
0.0
 10
92.19626733806204
 20
-119.0552652697153
 30
0.0
 10
92.29548608803725
 20
-119.2478461073408
 30
0.0
 10
92.31891273733694
 20
-119.4762559380129
 30
0.0
 10
92.31891273733694
 20
-119.6498887504695
 30
0.0
 10
92.31891273733694
 20
-119.8211099960864
 30
0.0
 10
92.2975531453284
 20
-120.0515868840496
 30
0.0
 10
92.19626733806204
 20
-120.2441677216751
 30
0.0
  0
SPLINE
  5
A5
330
9E
100
AcDbEntity
  8
_U+30EC_U+30A4_U+30E4_U+30FC 1
370
     0
100
AcDbSpline
210
0.0
220
0.0
230
1.0
 70
    11
 71
     3
 72
    17
 73
    13
 74
     0
 42
0.0000000001
 43
0.0000000001
 12
1.0
 22
0.0
 32
0.0
 13
1.0
 23
0.0
 33
0.0
 40
0.0
 40
0.0
 40
0.0
 40
0.0
 40
1.0
 40
1.0
 40
1.0
 40
2.0
 40
2.0
 40
2.0
 40
3.0
 40
3.0
 40
3.0
 40
4.0
 40
4.0
 40
4.0
 40
4.0
 10
91.79801429996716
 20
-119.0215033339599
 30
0.0
 10
91.54858938683508
 20
-119.0215033339599
 30
0.0
 10
91.50173608823569
 20
-119.305034692396
 30
0.0
 10
91.50173608823569
 20
-119.6498887504695
 30
0.0
 10
91.50173608823569
 20
-119.9692491019521
 30
0.0
 10
91.53825410037933
 20
-120.2779296574305
 30
0.0
 10
91.79801429996716
 20
-120.2779296574305
 30
0.0
 10
92.04606117490516
 20
-120.2779296574305
 30
0.0
 10
92.09429251169865
 20
-119.9968098658341
 30
0.0
 10
92.09429251169865
 20
-119.6498887504695
 30
0.0
 10
92.09429251169865
 20
-119.3301838894383
 30
0.0
 10
92.0563964613609
 20
-119.0215033339599
 30
0.0
 10
91.79801429996716
 20
-119.0215033339599
 30
0.0
  0
HATCH
  5
A6
330
9E
100
AcDbEntity
  8
_U+30EC_U+30A4_U+30E4_U+30FC 1
 62
   179
420
  2234388
100
AcDbHatch
 10
0.0
 20
0.0
 30
0.0
210
0.0
220
0.0
230
1.0
  2
SOLID
 70
     1
 71
     0
 91
        2
 92
        1
 93
        1
 72
     4
 94
        3
 73
     0
 74
     1
 95
       29
 96
       25
 40
0.0
 40
0.0
 40
0.0
 40
0.0
 40
1.0
 40
1.0
 40
1.0
 40
2.0
 40
2.0
 40
2.0
 40
3.0
 40
3.0
 40
3.0
 40
4.0
 40
4.0
 40
4.0
 40
5.0
 40
5.0
 40
5.0
 40
6.0
 40
6.0
 40
6.0
 40
7.0
 40
7.0
 40
7.0
 40
8.0
 40
8.0
 40
8.0
 40
8.0
 10
92.19626733806204
 20
-120.2441677216751
 10
92.0880913398252
 20
-120.4536295271783
 10
91.91445852736861
 20
-120.4725775523471
 10
91.79801429996716
 20
-120.4725775523471
 10
91.63747285035453
 20
-120.4725775523471
 10
91.49553491636223
 20
-120.4260687632963
 10
91.40045028096934
 20
-120.2441677216751
 10
91.29692516163757
 20
-120.0495198267585
 10
91.2779771364687
 20
-119.8128417669218
 10
91.2779771364687
 20
-119.6498887504695
 10
91.2779771364687
 20
-119.505883759186
 10
91.29485810434643
 20
-119.2540472792143
 10
91.40045028096934
 20
-119.0552652697153
 10
91.50862627920618
 20
-118.8523491456341
 10
91.66916772881882
 20
-118.8289224963344
 10
91.79801429996716
 20
-118.8289224963344
 10
91.95717771138571
 20
-118.8289224963344
 10
92.1004936835721
 20
-118.8733642280942
 10
92.19626733806204
 20
-119.0552652697153
 10
92.29548608803725
 20
-119.2478461073408
 10
92.31891273733694
 20
-119.4762559380129
 10
92.31891273733694
 20
-119.6498887504695
 10
92.31891273733694
 20
-119.8211099960864
 10
92.2975531453284
 20
-120.0515868840496
 10
92.19626733806204
 20
-120.2441677216751
 97
        0
 97
        0
 92
        1
 93
        1
 72
     4
 94
        3
 73
     0
 74
     1
 95
       17
 96
       13
 40
0.0
 40
0.0
 40
0.0
 40
0.0
 40
1.0
 40
1.0
 40
1.0
 40
2.0
 40
2.0
 40
2.0
 40
3.0
 40
3.0
 40
3.0
 40
4.0
 40
4.0
 40
4.0
 40
4.0
 10
91.79801429996716
 20
-119.0215033339599
 10
91.54858938683508
 20
-119.0215033339599
 10
91.50173608823569
 20
-119.305034692396
 10
91.50173608823569
 20
-119.6498887504695
 10
91.50173608823569
 20
-119.9692491019521
 10
91.53825410037933
 20
-120.2779296574305
 10
91.79801429996716
 20
-120.2779296574305
 10
92.04606117490516
 20
-120.2779296574305
 10
92.09429251169865
 20
-119.9968098658341
 10
92.09429251169865
 20
-119.6498887504695
 10
92.09429251169865
 20
-119.3301838894383
 10
92.0563964613609
 20
-119.0215033339599
 10
91.79801429996716
 20
-119.0215033339599
 97
        0
 97
        0
 75
     2
 76
     1
 98
        0
  0
ENDBLK
  5
A1
330
9E
100
AcDbEntity
  8
0
100
AcDbBlockEnd
  0
BLOCK
  5
A9
330
A7
100
AcDbEntity
  8
0
100
AcDbBlockBegin
  2
block 4
 70
     0
 10
0.0
 20
0.0
 30
0.0
  3
block 4
  1

  0
SPLINE
  5
AB
330
A7
100
AcDbEntity
  8
_U+30EC_U+30A4_U+30E4_U+30FC 1
370
     0
100
AcDbSpline
210
0.0
220
0.0
230
1.0
 70
    11
 71
     3
 72
    26
 73
    22
 74
     0
 42
0.0000000001
 43
0.0000000001
 12
1.0
 22
0.0
 32
0.0
 13
1.0
 23
0.0
 33
0.0
 40
0.0
 40
0.0
 40
0.0
 40
0.0
 40
1.0
 40
1.0
 40
1.0
 40
2.0
 40
2.0
 40
2.0
 40
3.0
 40
3.0
 40
3.0
 40
4.0
 40
4.0
 40
4.0
 40
5.0
 40
5.0
 40
5.0
 40
6.0
 40
6.0
 40
6.0
 40
7.0
 40
7.0
 40
7.0
 40
7.0
 10
79.44786374966928
 20
-128.7935166778711
 30
0.0
 10
79.44786374966928
 20
-128.7935166778711
 30
0.0
 10
78.34371064664671
 20
-128.7935166778711
 30
0.0
 10
78.34371064664671
 20
-128.7935166778711
 30
0.0
 10
78.34371064664671
 20
-128.7935166778711
 30
0.0
 10
78.34371064664671
 20
-129.123556825358
 30
0.0
 10
78.34371064664671
 20
-129.123556825358
 30
0.0
 10
78.34371064664671
 20
-129.123556825358
 30
0.0
 10
78.19557154078097
 20
-129.123556825358
 30
0.0
 10
78.19557154078097
 20
-129.123556825358
 30
0.0
 10
78.18075763019439
 20
-128.7914496205799
 30
0.0
 10
78.01780461374209
 20
-128.744940831529
 30
0.0
 10
77.90342744363178
 20
-128.7153130103559
 30
0.0
 10
77.90342744363178
 20
-128.7153130103559
 30
0.0
 10
77.90342744363178
 20
-128.5692409617813
 30
0.0
 10
77.90342744363178
 20
-128.5692409617813
 30
0.0
 10
77.90342744363178
 20
-128.5692409617813
 30
0.0
 10
79.44786374966928
 20
-128.5692409617813
 30
0.0
 10
79.44786374966928
 20
-128.5692409617813
 30
0.0
 10
79.44786374966928
 20
-128.5692409617813
 30
0.0
 10
79.44786374966928
 20
-128.7935166778711
 30
0.0
 10
79.44786374966928
 20
-128.7935166778711
 30
0.0
  0
HATCH
  5
AC
330
A7
100
AcDbEntity
  8
_U+30EC_U+30A4_U+30E4_U+30FC 1
 62
   179
420
  2234388
100
AcDbHatch
 10
0.0
 20
0.0
 30
0.0
210
0.0
220
0.0
230
1.0
  2
SOLID
 70
     1
 71
     0
 91
        1
 92
        1
 93
        1
 72
     4
 94
        3
 73
     0
 74
     1
 95
       26
 96
       22
 40
0.0
 40
0.0
 40
0.0
 40
0.0
 40
1.0
 40
1.0
 40
1.0
 40
2.0
 40
2.0
 40
2.0
 40
3.0
 40
3.0
 40
3.0
 40
4.0
 40
4.0
 40
4.0
 40
5.0
 40
5.0
 40
5.0
 40
6.0
 40
6.0
 40
6.0
 40
7.0
 40
7.0
 40
7.0
 40
7.0
 10
79.44786374966928
 20
-128.7935166778711
 10
79.44786374966928
 20
-128.7935166778711
 10
78.34371064664671
 20
-128.7935166778711
 10
78.34371064664671
 20
-128.7935166778711
 10
78.34371064664671
 20
-128.7935166778711
 10
78.34371064664671
 20
-129.123556825358
 10
78.34371064664671
 20
-129.123556825358
 10
78.34371064664671
 20
-129.123556825358
 10
78.19557154078097
 20
-129.123556825358
 10
78.19557154078097
 20
-129.123556825358
 10
78.18075763019439
 20
-128.7914496205799
 10
78.01780461374209
 20
-128.744940831529
 10
77.90342744363178
 20
-128.7153130103559
 10
77.90342744363178
 20
-128.7153130103559
 10
77.90342744363178
 20
-128.5692409617813
 10
77.90342744363178
 20
-128.5692409617813
 10
77.90342744363178
 20
-128.5692409617813
 10
79.44786374966928
 20
-128.5692409617813
 10
79.44786374966928
 20
-128.5692409617813
 10
79.44786374966928
 20
-128.5692409617813
 10
79.44786374966928
 20
-128.7935166778711
 10
79.44786374966928
 20
-128.7935166778711
 97
        0
 97
        0
 75
     2
 76
     1
 98
        0
  0
SPLINE
  5
AD
330
A7
100
AcDbEntity
  8
_U+30EC_U+30A4_U+30E4_U+30FC 1
370
     0
100
AcDbSpline
210
0.0
220
0.0
230
1.0
 70
    11
 71
     3
 72
    29
 73
    25
 74
     0
 42
0.0000000001
 43
0.0000000001
 12
1.0
 22
0.0
 32
0.0
 13
1.0
 23
0.0
 33
0.0
 40
0.0
 40
0.0
 40
0.0
 40
0.0
 40
1.0
 40
1.0
 40
1.0
 40
2.0
 40
2.0
 40
2.0
 40
3.0
 40
3.0
 40
3.0
 40
4.0
 40
4.0
 40
4.0
 40
5.0
 40
5.0
 40
5.0
 40
6.0
 40
6.0
 40
6.0
 40
7.0
 40
7.0
 40
7.0
 40
8.0
 40
8.0
 40
8.0
 40
8.0
 10
79.27009682263039
 20
-127.1701876852214
 30
0.0
 10
79.47955862813359
 20
-127.2783636834582
 30
0.0
 10
79.49850665330246
 20
-127.4516519863663
 30
0.0
 10
79.49850665330246
 20
-127.5680962137677
 30
0.0
 10
79.49850665330246
 20
-127.7289821729289
 30
0.0
 10
79.45199786425158
 20
-127.8705755973726
 30
0.0
 10
79.27009682263039
 20
-127.9656602327655
 30
0.0
 10
79.07544892771378
 20
-128.0693576068716
 30
0.0
 10
78.83842635832859
 20
-128.0886501415889
 30
0.0
 10
78.6758178514248
 20
-128.0886501415889
 30
0.0
 10
78.53181286014136
 20
-128.0886501415889
 30
0.0
 10
78.27997638016959
 20
-128.0714246641627
 30
0.0
 10
78.08119437067067
 20
-127.9656602327655
 30
0.0
 10
77.87827824658946
 20
-127.8578287440772
 30
0.0
 10
77.85485159728977
 20
-127.696942784916
 30
0.0
 10
77.85485159728977
 20
-127.5680962137677
 30
0.0
 10
77.85485159728977
 20
-127.4092773118977
 30
0.0
 10
77.89929332904948
 20
-127.2656168301628
 30
0.0
 10
78.08119437067067
 20
-127.1701876852214
 30
0.0
 10
78.27377520829614
 20
-127.0709689352462
 30
0.0
 10
78.50218503896821
 20
-127.0475422859464
 30
0.0
 10
78.6758178514248
 20
-127.0475422859464
 30
0.0
 10
78.84703909704172
 20
-127.0475422859464
 30
0.0
 10
79.07751598500494
 20
-127.068901877955
 30
0.0
 10
79.27009682263039
 20
-127.1701876852214
 30
0.0
  0
SPLINE
  5
AE
330
A7
100
AcDbEntity
  8
_U+30EC_U+30A4_U+30E4_U+30FC 1
370
     0
100
AcDbSpline
210
0.0
220
0.0
230
1.0
 70
    11
 71
     3
 72
    17
 73
    13
 74
     0
 42
0.0000000001
 43
0.0000000001
 12
1.0
 22
0.0
 32
0.0
 13
1.0
 23
0.0
 33
0.0
 40
0.0
 40
0.0
 40
0.0
 40
0.0
 40
1.0
 40
1.0
 40
1.0
 40
2.0
 40
2.0
 40
2.0
 40
3.0
 40
3.0
 40
3.0
 40
4.0
 40
4.0
 40
4.0
 40
4.0
 10
78.04743243491522
 20
-127.5680962137677
 30
0.0
 10
78.04743243491522
 20
-127.8178656364483
 30
0.0
 10
78.33096379335129
 20
-127.8643744254992
 30
0.0
 10
78.6758178514248
 20
-127.8643744254992
 30
0.0
 10
78.99517820290745
 20
-127.8643744254992
 30
0.0
 10
79.30385875838584
 20
-127.8282009229041
 30
0.0
 10
79.30385875838584
 20
-127.5680962137677
 30
0.0
 10
79.30385875838584
 20
-127.3203938483782
 30
0.0
 10
79.02273896678946
 20
-127.2718180020362
 30
0.0
 10
78.6758178514248
 20
-127.2718180020362
 30
0.0
 10
78.35611299039361
 20
-127.2718180020362
 30
0.0
 10
78.04743243491522
 20
-127.3100585619225
 30
0.0
 10
78.04743243491522
 20
-127.5680962137677
 30
0.0
  0
HATCH
  5
AF
330
A7
100
AcDbEntity
  8
_U+30EC_U+30A4_U+30E4_U+30FC 1
 62
   179
420
  2234388
100
AcDbHatch
 10
0.0
 20
0.0
 30
0.0
210
0.0
220
0.0
230
1.0
  2
SOLID
 70
     1
 71
     0
 91
        2
 92
        1
 93
        1
 72
     4
 94
        3
 73
     0
 74
     1
 95
       29
 96
       25
 40
0.0
 40
0.0
 40
0.0
 40
0.0
 40
1.0
 40
1.0
 40
1.0
 40
2.0
 40
2.0
 40
2.0
 40
3.0
 40
3.0
 40
3.0
 40
4.0
 40
4.0
 40
4.0
 40
5.0
 40
5.0
 40
5.0
 40
6.0
 40
6.0
 40
6.0
 40
7.0
 40
7.0
 40
7.0
 40
8.0
 40
8.0
 40
8.0
 40
8.0
 10
79.27009682263039
 20
-127.1701876852214
 10
79.47955862813359
 20
-127.2783636834582
 10
79.49850665330246
 20
-127.4516519863663
 10
79.49850665330246
 20
-127.5680962137677
 10
79.49850665330246
 20
-127.7289821729289
 10
79.45199786425158
 20
-127.8705755973726
 10
79.27009682263039
 20
-127.9656602327655
 10
79.07544892771378
 20
-128.0693576068716
 10
78.83842635832859
 20
-128.0886501415889
 10
78.6758178514248
 20
-128.0886501415889
 10
78.53181286014136
 20
-128.0886501415889
 10
78.27997638016959
 20
-128.0714246641627
 10
78.08119437067067
 20
-127.9656602327655
 10
77.87827824658946
 20
-127.8578287440772
 10
77.85485159728977
 20
-127.696942784916
 10
77.85485159728977
 20
-127.5680962137677
 10
77.85485159728977
 20
-127.4092773118977
 10
77.89929332904948
 20
-127.2656168301628
 10
78.08119437067067
 20
-127.1701876852214
 10
78.27377520829614
 20
-127.0709689352462
 10
78.50218503896821
 20
-127.0475422859464
 10
78.6758178514248
 20
-127.0475422859464
 10
78.84703909704172
 20
-127.0475422859464
 10
79.07751598500494
 20
-127.068901877955
 10
79.27009682263039
 20
-127.1701876852214
 97
        0
 97
        0
 92
        1
 93
        1
 72
     4
 94
        3
 73
     0
 74
     1
 95
       17
 96
       13
 40
0.0
 40
0.0
 40
0.0
 40
0.0
 40
1.0
 40
1.0
 40
1.0
 40
2.0
 40
2.0
 40
2.0
 40
3.0
 40
3.0
 40
3.0
 40
4.0
 40
4.0
 40
4.0
 40
4.0
 10
78.04743243491522
 20
-127.5680962137677
 10
78.04743243491522
 20
-127.8178656364483
 10
78.33096379335129
 20
-127.8643744254992
 10
78.6758178514248
 20
-127.8643744254992
 10
78.99517820290745
 20
-127.8643744254992
 10
79.30385875838584
 20
-127.8282009229041
 10
79.30385875838584
 20
-127.5680962137677
 10
79.30385875838584
 20
-127.3203938483782
 10
79.02273896678946
 20
-127.2718180020362
 10
78.6758178514248
 20
-127.2718180020362
 10
78.35611299039361
 20
-127.2718180020362
 10
78.04743243491522
 20
-127.3100585619225
 10
78.04743243491522
 20
-127.5680962137677
 97
        0
 97
        0
 75
     2
 76
     1
 98
        0
  0
ENDBLK
  5
AA
330
A7
100
AcDbEntity
  8
0
100
AcDbBlockEnd
  0
BLOCK
  5
B2
330
B0
100
AcDbEntity
  8
0
100
AcDbBlockBegin
  2
block 5
 70
     0
 10
0.0
 20
0.0
 30
0.0
  3
block 5
  1

  0
SPLINE
  5
B4
330
B0
100
AcDbEntity
  8
_U+30EC_U+30A4_U+30E4_U+30FC 1
370
     0
100
AcDbSpline
210
0.0
220
0.0
230
1.0
 70
    11
 71
     3
 72
    44
 73
    40
 74
     0
 42
0.0000000001
 43
0.0000000001
 12
1.0
 22
0.0
 32
0.0
 13
1.0
 23
0.0
 33
0.0
 40
0.0
 40
0.0
 40
0.0
 40
0.0
 40
1.0
 40
1.0
 40
1.0
 40
2.0
 40
2.0
 40
2.0
 40
3.0
 40
3.0
 40
3.0
 40
4.0
 40
4.0
 40
4.0
 40
5.0
 40
5.0
 40
5.0
 40
6.0
 40
6.0
 40
6.0
 40
7.0
 40
7.0
 40
7.0
 40
8.0
 40
8.0
 40
8.0
 40
9.0
 40
9.0
 40
9.0
 40
10.0
 40
10.0
 40
10.0
 40
11.0
 40
11.0
 40
11.0
 40
12.0
 40
12.0
 40
12.0
 40
13.0
 40
13.0
 40
13.0
 40
13.0
 10
90.56759844741019
 20
-136.3403428478594
 30
0.0
 10
90.3498684127424
 20
-136.4991617497294
 30
0.0
 10
90.25685083464066
 20
-136.5732313026623
 30
0.0
 10
90.2079304787501
 20
-136.7168917843972
 30
0.0
 10
90.2079304787501
 20
-136.7168917843972
 30
0.0
 10
90.98652205841657
 20
-136.7168917843972
 30
0.0
 10
90.98652205841657
 20
-136.7168917843972
 30
0.0
 10
90.98652205841657
 20
-136.7168917843972
 30
0.0
 10
90.98652205841657
 20
-136.9222194753181
 30
0.0
 10
90.98652205841657
 20
-136.9222194753181
 30
0.0
 10
90.98652205841657
 20
-136.9222194753181
 30
0.0
 10
89.95850556561801
 20
-136.9222194753181
 30
0.0
 10
89.95850556561801
 20
-136.9222194753181
 30
0.0
 10
89.99020044408232
 20
-136.5646185639491
 30
0.0
 10
90.05565725830206
 20
-136.486414896434
 30
0.0
 10
90.44081893355299
 20
-136.1880696274113
 30
0.0
 10
90.69678952810706
 20
-135.9892876179124
 30
0.0
 10
90.7622463423268
 20
-135.921419236853
 30
0.0
 10
90.7622463423268
 20
-135.7839599269915
 30
0.0
 10
90.7622463423268
 20
-135.6654486422989
 30
0.0
 10
90.69024384668508
 20
-135.5345350138594
 30
0.0
 10
90.49352889447732
 20
-135.5345350138594
 30
0.0
 10
90.23342418534095
 20
-135.5345350138594
 30
0.0
 10
90.22515595617635
 20
-135.7650119018226
 30
0.0
 10
90.22067733204553
 20
-135.8814561292241
 30
0.0
 10
90.22067733204553
 20
-135.8814561292241
 30
0.0
 10
89.99640161595576
 20
-135.8814561292241
 30
0.0
 10
89.99640161595576
 20
-135.8814561292241
 30
0.0
 10
90.00501435466889
 20
-135.7543321058184
 30
0.0
 10
90.01569415067317
 20
-135.6423665025478
 30
0.0
 10
90.09596487547948
 20
-135.5238552178552
 30
0.0
 10
90.20586342145896
 20
-135.362969258694
 30
0.0
 10
90.39224308721097
 20
-135.3292073229385
 30
0.0
 10
90.50834280506389
 20
-135.3292073229385
 30
0.0
 10
90.7856729916265
 20
-135.3292073229385
 30
0.0
 10
90.99306773983854
 20
-135.5131754218509
 30
0.0
 10
90.99306773983854
 20
-135.7860269842827
 30
0.0
 10
90.99306773983854
 20
-136.0147813245032
 30
0.0
 10
90.87662351243709
 20
-136.1140000744784
 30
0.0
 10
90.56759844741019
 20
-136.3403428478594
 30
0.0
  0
HATCH
  5
B5
330
B0
100
AcDbEntity
  8
_U+30EC_U+30A4_U+30E4_U+30FC 1
 62
   179
420
  2234388
100
AcDbHatch
 10
0.0
 20
0.0
 30
0.0
210
0.0
220
0.0
230
1.0
  2
SOLID
 70
     1
 71
     0
 91
        1
 92
        1
 93
        1
 72
     4
 94
        3
 73
     0
 74
     1
 95
       44
 96
       40
 40
0.0
 40
0.0
 40
0.0
 40
0.0
 40
1.0
 40
1.0
 40
1.0
 40
2.0
 40
2.0
 40
2.0
 40
3.0
 40
3.0
 40
3.0
 40
4.0
 40
4.0
 40
4.0
 40
5.0
 40
5.0
 40
5.0
 40
6.0
 40
6.0
 40
6.0
 40
7.0
 40
7.0
 40
7.0
 40
8.0
 40
8.0
 40
8.0
 40
9.0
 40
9.0
 40
9.0
 40
10.0
 40
10.0
 40
10.0
 40
11.0
 40
11.0
 40
11.0
 40
12.0
 40
12.0
 40
12.0
 40
13.0
 40
13.0
 40
13.0
 40
13.0
 10
90.56759844741019
 20
-136.3403428478594
 10
90.3498684127424
 20
-136.4991617497294
 10
90.25685083464066
 20
-136.5732313026623
 10
90.2079304787501
 20
-136.7168917843972
 10
90.2079304787501
 20
-136.7168917843972
 10
90.98652205841657
 20
-136.7168917843972
 10
90.98652205841657
 20
-136.7168917843972
 10
90.98652205841657
 20
-136.7168917843972
 10
90.98652205841657
 20
-136.9222194753181
 10
90.98652205841657
 20
-136.9222194753181
 10
90.98652205841657
 20
-136.9222194753181
 10
89.95850556561801
 20
-136.9222194753181
 10
89.95850556561801
 20
-136.9222194753181
 10
89.99020044408232
 20
-136.5646185639491
 10
90.05565725830206
 20
-136.486414896434
 10
90.44081893355299
 20
-136.1880696274113
 10
90.69678952810706
 20
-135.9892876179124
 10
90.7622463423268
 20
-135.921419236853
 10
90.7622463423268
 20
-135.7839599269915
 10
90.7622463423268
 20
-135.6654486422989
 10
90.69024384668508
 20
-135.5345350138594
 10
90.49352889447732
 20
-135.5345350138594
 10
90.23342418534095
 20
-135.5345350138594
 10
90.22515595617635
 20
-135.7650119018226
 10
90.22067733204553
 20
-135.8814561292241
 10
90.22067733204553
 20
-135.8814561292241
 10
89.99640161595576
 20
-135.8814561292241
 10
89.99640161595576
 20
-135.8814561292241
 10
90.00501435466889
 20
-135.7543321058184
 10
90.01569415067317
 20
-135.6423665025478
 10
90.09596487547948
 20
-135.5238552178552
 10
90.20586342145896
 20
-135.362969258694
 10
90.39224308721097
 20
-135.3292073229385
 10
90.50834280506389
 20
-135.3292073229385
 10
90.7856729916265
 20
-135.3292073229385
 10
90.99306773983854
 20
-135.5131754218509
 10
90.99306773983854
 20
-135.7860269842827
 10
90.99306773983854
 20
-136.0147813245032
 10
90.87662351243709
 20
-136.1140000744784
 10
90.56759844741019
 20
-136.3403428478594
 97
        0
 97
        0
 75
     2
 76
     1
 98
        0
  0
SPLINE
  5
B6
330
B0
100
AcDbEntity
  8
_U+30EC_U+30A4_U+30E4_U+30FC 1
370
     0
100
AcDbSpline
210
0.0
220
0.0
230
1.0
 70
    11
 71
     3
 72
    29
 73
    25
 74
     0
 42
0.0000000001
 43
0.0000000001
 12
1.0
 22
0.0
 32
0.0
 13
1.0
 23
0.0
 33
0.0
 40
0.0
 40
0.0
 40
0.0
 40
0.0
 40
1.0
 40
1.0
 40
1.0
 40
2.0
 40
2.0
 40
2.0
 40
3.0
 40
3.0
 40
3.0
 40
4.0
 40
4.0
 40
4.0
 40
5.0
 40
5.0
 40
5.0
 40
6.0
 40
6.0
 40
6.0
 40
7.0
 40
7.0
 40
7.0
 40
8.0
 40
8.0
 40
8.0
 40
8.0
 10
91.65125323229553
 20
-136.9728623789512
 30
0.0
 10
91.38460284173719
 20
-136.9728623789512
 30
0.0
 10
91.13121606879706
 20
-136.8354030690898
 30
0.0
 10
91.13121606879706
 20
-136.486414896434
 30
0.0
 10
91.13121606879706
 20
-136.2304443018799
 30
0.0
 10
91.27280949324083
 20
-136.135359666487
 30
0.0
 10
91.37840166986373
 20
-136.0740369668495
 30
0.0
 10
91.25386146807196
 20
-136.0147813245032
 30
0.0
 10
91.17772485784793
 20
-135.900404154393
 30
0.0
 10
91.17772485784793
 20
-135.7395181952318
 30
0.0
 10
91.17772485784793
 20
-135.4645995755089
 30
0.0
 10
91.37633461257259
 20
-135.3292073229385
 30
0.0
 10
91.65125323229553
 20
-135.3292073229385
 30
0.0
 10
91.93512910028011
 20
-135.3292073229385
 30
0.0
 10
92.1252983710659
 20
-135.473212314222
 30
0.0
 10
92.1252983710659
 20
-135.7395181952318
 30
0.0
 10
92.1252983710659
 20
-135.900404154393
 30
0.0
 10
92.0467501940022
 20
-136.0147813245032
 30
0.0
 10
91.92203773743616
 20
-136.0740369668495
 30
0.0
 10
92.01092120095561
 20
-136.1246798704827
 30
0.0
 10
92.17008461237415
 20
-136.2197645058756
 30
0.0
 10
92.17008461237415
 20
-136.4822807818517
 30
0.0
 10
92.17008461237415
 20
-136.8567626610983
 30
0.0
 10
91.89034285897186
 20
-136.9728623789512
 30
0.0
 10
91.65125323229553
 20
-136.9728623789512
 30
0.0
  0
SPLINE
  5
B7
330
B0
100
AcDbEntity
  8
_U+30EC_U+30A4_U+30E4_U+30FC 1
370
     0
100
AcDbSpline
210
0.0
220
0.0
230
1.0
 70
    11
 71
     3
 72
    17
 73
    13
 74
     0
 42
0.0000000001
 43
0.0000000001
 12
1.0
 22
0.0
 32
0.0
 13
1.0
 23
0.0
 33
0.0
 40
0.0
 40
0.0
 40
0.0
 40
0.0
 40
1.0
 40
1.0
 40
1.0
 40
2.0
 40
2.0
 40
2.0
 40
3.0
 40
3.0
 40
3.0
 40
4.0
 40
4.0
 40
4.0
 40
4.0
 10
91.65125323229553
 20
-136.1818684555379
 30
0.0
 10
91.50793726010913
 20
-136.1818684555379
 30
0.0
 10
91.3551472753383
 20
-136.2686848617662
 30
0.0
 10
91.3551472753383
 20
-136.4716009858474
 30
0.0
 10
91.3551472753383
 20
-136.6769286767683
 30
0.0
 10
91.48244355351828
 20
-136.7782144840346
 30
0.0
 10
91.65125323229553
 20
-136.7782144840346
 30
0.0
 10
91.83728838849902
 20
-136.7782144840346
 30
0.0
 10
91.947531444027
 20
-136.6555690847597
 30
0.0
 10
91.947531444027
 20
-136.4778021577208
 30
0.0
 10
91.947531444027
 20
-136.2559380084707
 30
0.0
 10
91.78492293712321
 20
-136.1818684555379
 30
0.0
 10
91.65125323229553
 20
-136.1818684555379
 30
0.0
  0
SPLINE
  5
B8
330
B0
100
AcDbEntity
  8
_U+30EC_U+30A4_U+30E4_U+30FC 1
370
     0
100
AcDbSpline
210
0.0
220
0.0
230
1.0
 70
    11
 71
     3
 72
    17
 73
    13
 74
     0
 42
0.0000000001
 43
0.0000000001
 12
1.0
 22
0.0
 32
0.0
 13
1.0
 23
0.0
 33
0.0
 40
0.0
 40
0.0
 40
0.0
 40
0.0
 40
1.0
 40
1.0
 40
1.0
 40
2.0
 40
2.0
 40
2.0
 40
3.0
 40
3.0
 40
3.0
 40
4.0
 40
4.0
 40
4.0
 40
4.0
 10
91.65125323229553
 20
-135.521788160564
 30
0.0
 10
91.48657766810058
 20
-135.521788160564
 30
0.0
 10
91.40182831916344
 20
-135.6168727959569
 30
0.0
 10
91.40182831916344
 20
-135.7522650485272
 30
0.0
 10
91.40182831916344
 20
-135.8749104478021
 30
0.0
 10
91.47348630525663
 20
-135.9934217324947
 30
0.0
 10
91.65125323229553
 20
-135.9934217324947
 30
0.0
 10
91.82902015933442
 20
-135.9934217324947
 30
0.0
 10
91.90136716452466
 20
-135.8749104478021
 30
0.0
 10
91.90136716452466
 20
-135.7522650485272
 30
0.0
 10
91.90136716452466
 20
-135.6168727959569
 30
0.0
 10
91.81455075829636
 20
-135.521788160564
 30
0.0
 10
91.65125323229553
 20
-135.521788160564
 30
0.0
  0
HATCH
  5
B9
330
B0
100
AcDbEntity
  8
_U+30EC_U+30A4_U+30E4_U+30FC 1
 62
   179
420
  2234388
100
AcDbHatch
 10
0.0
 20
0.0
 30
0.0
210
0.0
220
0.0
230
1.0
  2
SOLID
 70
     1
 71
     0
 91
        3
 92
        1
 93
        1
 72
     4
 94
        3
 73
     0
 74
     1
 95
       29
 96
       25
 40
0.0
 40
0.0
 40
0.0
 40
0.0
 40
1.0
 40
1.0
 40
1.0
 40
2.0
 40
2.0
 40
2.0
 40
3.0
 40
3.0
 40
3.0
 40
4.0
 40
4.0
 40
4.0
 40
5.0
 40
5.0
 40
5.0
 40
6.0
 40
6.0
 40
6.0
 40
7.0
 40
7.0
 40
7.0
 40
8.0
 40
8.0
 40
8.0
 40
8.0
 10
91.65125323229553
 20
-136.9728623789512
 10
91.38460284173719
 20
-136.9728623789512
 10
91.13121606879706
 20
-136.8354030690898
 10
91.13121606879706
 20
-136.486414896434
 10
91.13121606879706
 20
-136.2304443018799
 10
91.27280949324083
 20
-136.135359666487
 10
91.37840166986373
 20
-136.0740369668495
 10
91.25386146807196
 20
-136.0147813245032
 10
91.17772485784793
 20
-135.900404154393
 10
91.17772485784793
 20
-135.7395181952318
 10
91.17772485784793
 20
-135.4645995755089
 10
91.37633461257259
 20
-135.3292073229385
 10
91.65125323229553
 20
-135.3292073229385
 10
91.93512910028011
 20
-135.3292073229385
 10
92.1252983710659
 20
-135.473212314222
 10
92.1252983710659
 20
-135.7395181952318
 10
92.1252983710659
 20
-135.900404154393
 10
92.0467501940022
 20
-136.0147813245032
 10
91.92203773743616
 20
-136.0740369668495
 10
92.01092120095561
 20
-136.1246798704827
 10
92.17008461237415
 20
-136.2197645058756
 10
92.17008461237415
 20
-136.4822807818517
 10
92.17008461237415
 20
-136.8567626610983
 10
91.89034285897186
 20
-136.9728623789512
 10
91.65125323229553
 20
-136.9728623789512
 97
        0
 97
        0
 92
        1
 93
        1
 72
     4
 94
        3
 73
     0
 74
     1
 95
       17
 96
       13
 40
0.0
 40
0.0
 40
0.0
 40
0.0
 40
1.0
 40
1.0
 40
1.0
 40
2.0
 40
2.0
 40
2.0
 40
3.0
 40
3.0
 40
3.0
 40
4.0
 40
4.0
 40
4.0
 40
4.0
 10
91.65125323229553
 20
-136.1818684555379
 10
91.50793726010913
 20
-136.1818684555379
 10
91.3551472753383
 20
-136.2686848617662
 10
91.3551472753383
 20
-136.4716009858474
 10
91.3551472753383
 20
-136.6769286767683
 10
91.48244355351828
 20
-136.7782144840346
 10
91.65125323229553
 20
-136.7782144840346
 10
91.83728838849902
 20
-136.7782144840346
 10
91.947531444027
 20
-136.6555690847597
 10
91.947531444027
 20
-136.4778021577208
 10
91.947531444027
 20
-136.2559380084707
 10
91.78492293712321
 20
-136.1818684555379
 10
91.65125323229553
 20
-136.1818684555379
 97
        0
 97
        0
 92
        1
 93
        1
 72
     4
 94
        3
 73
     0
 74
     1
 95
       17
 96
       13
 40
0.0
 40
0.0
 40
0.0
 40
0.0
 40
1.0
 40
1.0
 40
1.0
 40
2.0
 40
2.0
 40
2.0
 40
3.0
 40
3.0
 40
3.0
 40
4.0
 40
4.0
 40
4.0
 40
4.0
 10
91.65125323229553
 20
-135.521788160564
 10
91.48657766810058
 20
-135.521788160564
 10
91.40182831916344
 20
-135.6168727959569
 10
91.40182831916344
 20
-135.7522650485272
 10
91.40182831916344
 20
-135.8749104478021
 10
91.47348630525663
 20
-135.9934217324947
 10
91.65125323229553
 20
-135.9934217324947
 10
91.82902015933442
 20
-135.9934217324947
 10
91.90136716452466
 20
-135.8749104478021
 10
91.90136716452466
 20
-135.7522650485272
 10
91.90136716452466
 20
-135.6168727959569
 10
91.81455075829636
 20
-135.521788160564
 10
91.65125323229553
 20
-135.521788160564
 97
        0
 97
        0
 75
     2
 76
     1
 98
        0
  0
ENDBLK
  5
B3
330
B0
100
AcDbEntity
  8
0
100
AcDbBlockEnd
  0
ENDSEC
  0
SECTION
  2
ENTITIES
  0
POLYLINE
  5
41
330
1F
100
AcDbEntity
  8
_U+30EC_U+30A4_U+30E4_U+30FC 1
 62
   179
420
  2234388
370
     9
100
AcDb2dPolyline
 66
     1
 10
0.0
 20
0.0
 30
0.0
  0
VERTEX
  5
42
330
41
100
AcDbEntity
  8
_U+30EC_U+30A4_U+30E4_U+30FC 1
 62
   179
420
  2234388
370
     9
100
AcDbVertex
100
AcDb2dVertex
 10
99.86574441947828
 20
-133.3555032999947
 30
0.0
  0
VERTEX
  5
43
330
41
100
AcDbEntity
  8
_U+30EC_U+30A4_U+30E4_U+30FC 1
 62
   179
420
  2234388
370
     9
100
AcDbVertex
100
AcDb2dVertex
 10
99.86574441947828
 20
-138.3564105209664
 30
0.0
  0
SEQEND
  5
44
330
41
100
AcDbEntity
  8
_U+30EC_U+30A4_U+30E4_U+30FC 1
 62
   179
420
  2234388
370
     9
  0
POLYLINE
  5
45
330
1F
100
AcDbEntity
  8
_U+30EC_U+30A4_U+30E4_U+30FC 1
 62
   179
420
  2234388
370
     9
100
AcDb2dPolyline
 66
     1
 10
0.0
 20
0.0
 30
0.0
  0
VERTEX
  5
46
330
45
100
AcDbEntity
  8
_U+30EC_U+30A4_U+30E4_U+30FC 1
 62
   179
420
  2234388
370
     9
100
AcDbVertex
100
AcDb2dVertex
 10
103.9881265137085
 20
-125.3813144130992
 30
0.0
  0
VERTEX
  5
47
330
45
100
AcDbEntity
  8
_U+30EC_U+30A4_U+30E4_U+30FC 1
 62
   179
420
  2234388
370
     9
100
AcDbVertex
100
AcDb2dVertex
 10
103.9881265137085
 20
-131.8348546892632
 30
0.0
  0
SEQEND
  5
48
330
45
100
AcDbEntity
  8
_U+30EC_U+30A4_U+30E4_U+30FC 1
 62
   179
420
  2234388
370
     9
  0
POLYLINE
  5
49
330
1F
100
AcDbEntity
  8
_U+30EC_U+30A4_U+30E4_U+30FC 1
 62
   179
420
  2234388
370
     9
100
AcDb2dPolyline
 66
     1
 10
0.0
 20
0.0
 30
0.0
  0
VERTEX
  5
4A
330
49
100
AcDbEntity
  8
_U+30EC_U+30A4_U+30E4_U+30FC 1
 62
   179
420
  2234388
370
     9
100
AcDbVertex
100
AcDb2dVertex
 10
104.2244876187896
 20
-131.7673330226136
 30
0.0
  0
VERTEX
  5
4B
330
49
100
AcDbEntity
  8
_U+30EC_U+30A4_U+30E4_U+30FC 1
 62
   179
420
  2234388
370
     9
100
AcDbVertex
100
AcDb2dVertex
 10
99.59565523688093
 20
-131.7673330226136
 30
0.0
  0
SEQEND
  5
4C
330
49
100
AcDbEntity
  8
_U+30EC_U+30A4_U+30E4_U+30FC 1
 62
   179
420
  2234388
370
     9
  0
SPLINE
  5
4D
330
1F
100
AcDbEntity
  8
_U+30EC_U+30A4_U+30E4_U+30FC 1
370
     0
100
AcDbSpline
210
0.0
220
0.0
230
1.0
 70
    11
 71
     3
 72
    17
 73
    13
 74
     0
 42
0.0000000001
 43
0.0000000001
 12
1.0
 22
0.0
 32
0.0
 13
1.0
 23
0.0
 33
0.0
 40
0.0
 40
0.0
 40
0.0
 40
0.0
 40
1.0
 40
1.0
 40
1.0
 40
2.0
 40
2.0
 40
2.0
 40
3.0
 40
3.0
 40
3.0
 40
4.0
 40
4.0
 40
4.0
 40
4.0
 10
104.1176665104037
 20
-125.3813144130992
 30
0.0
 10
104.1176665104037
 20
-125.4340194130858
 30
0.0
 10
104.0749451226047
 20
-125.4767408019642
 30
0.0
 10
104.0218873461806
 20
-125.4767408019642
 30
0.0
 10
103.9688295697564
 20
-125.4767408019642
 30
0.0
 10
103.9261434597343
 20
-125.4340194130858
 30
0.0
 10
103.9261434597343
 20
-125.3813144130992
 30
0.0
 10
103.9261434597343
 20
-125.3286094131123
 30
0.0
 10
103.9688295697564
 20
-125.2855352464563
 30
0.0
 10
104.0218873461806
 20
-125.2855352464563
 30
0.0
 10
104.0749451226047
 20
-125.2855352464563
 30
0.0
 10
104.1176665104037
 20
-125.3286094131123
 30
0.0
 10
104.1176665104037
 20
-125.3813144130992
 30
0.0
  0
HATCH
  5
4E
330
1F
100
AcDbEntity
  8
_U+30EC_U+30A4_U+30E4_U+30FC 1
 62
   179
420
  2234388
100
AcDbHatch
 10
0.0
 20
0.0
 30
0.0
210
0.0
220
0.0
230
1.0
  2
SOLID
 70
     1
 71
     0
 91
        1
 92
        1
 93
        1
 72
     4
 94
        3
 73
     0
 74
     1
 95
       17
 96
       13
 40
0.0
 40
0.0
 40
0.0
 40
0.0
 40
1.0
 40
1.0
 40
1.0
 40
2.0
 40
2.0
 40
2.0
 40
3.0
 40
3.0
 40
3.0
 40
4.0
 40
4.0
 40
4.0
 40
4.0
 10
104.1176665104037
 20
-125.3813144130992
 10
104.1176665104037
 20
-125.4340194130858
 10
104.0749451226047
 20
-125.4767408019642
 10
104.0218873461806
 20
-125.4767408019642
 10
103.9688295697564
 20
-125.4767408019642
 10
103.9261434597343
 20
-125.4340194130858
 10
103.9261434597343
 20
-125.3813144130992
 10
103.9261434597343
 20
-125.3286094131123
 10
103.9688295697564
 20
-125.2855352464563
 10
104.0218873461806
 20
-125.2855352464563
 10
104.0749451226047
 20
-125.2855352464563
 10
104.1176665104037
 20
-125.3286094131123
 10
104.1176665104037
 20
-125.3813144130992
 97
        0
 97
        0
 75
     2
 76
     1
 98
        0
  0
SPLINE
  5
4F
330
1F
100
AcDbEntity
  8
_U+30EC_U+30A4_U+30E4_U+30FC 1
370
     0
100
AcDbSpline
210
0.0
220
0.0
230
1.0
 70
    11
 71
     3
 72
    17
 73
    13
 74
     0
 42
0.0000000001
 43
0.0000000001
 12
1.0
 22
0.0
 32
0.0
 13
1.0
 23
0.0
 33
0.0
 40
0.0
 40
0.0
 40
0.0
 40
0.0
 40
1.0
 40
1.0
 40
1.0
 40
2.0
 40
2.0
 40
2.0
 40
3.0
 40
3.0
 40
3.0
 40
4.0
 40
4.0
 40
4.0
 40
4.0
 10
104.1176665104037
 20
-131.7673330226136
 30
0.0
 10
104.1176665104037
 20
-131.8203908003782
 30
0.0
 10
104.0749451226047
 20
-131.8631121892566
 30
0.0
 10
104.0218873461806
 20
-131.8631121892566
 30
0.0
 10
103.9688295697564
 20
-131.8631121892566
 30
0.0
 10
103.9261434597343
 20
-131.8203908003782
 30
0.0
 10
103.9261434597343
 20
-131.7673330226136
 30
0.0
 10
103.9261434597343
 20
-131.7142752448495
 30
0.0
 10
103.9688295697564
 20
-131.6715538559712
 30
0.0
 10
104.0218873461806
 20
-131.6715538559712
 30
0.0
 10
104.0749451226047
 20
-131.6715538559712
 30
0.0
 10
104.1176665104037
 20
-131.7142752448495
 30
0.0
 10
104.1176665104037
 20
-131.7673330226136
 30
0.0
  0
HATCH
  5
50
330
1F
100
AcDbEntity
  8
_U+30EC_U+30A4_U+30E4_U+30FC 1
 62
   179
420
  2234388
100
AcDbHatch
 10
0.0
 20
0.0
 30
0.0
210
0.0
220
0.0
230
1.0
  2
SOLID
 70
     1
 71
     0
 91
        1
 92
        1
 93
        1
 72
     4
 94
        3
 73
     0
 74
     1
 95
       17
 96
       13
 40
0.0
 40
0.0
 40
0.0
 40
0.0
 40
1.0
 40
1.0
 40
1.0
 40
2.0
 40
2.0
 40
2.0
 40
3.0
 40
3.0
 40
3.0
 40
4.0
 40
4.0
 40
4.0
 40
4.0
 10
104.1176665104037
 20
-131.7673330226136
 10
104.1176665104037
 20
-131.8203908003782
 10
104.0749451226047
 20
-131.8631121892566
 10
104.0218873461806
 20
-131.8631121892566
 10
103.9688295697564
 20
-131.8631121892566
 10
103.9261434597343
 20
-131.8203908003782
 10
103.9261434597343
 20
-131.7673330226136
 10
103.9261434597343
 20
-131.7142752448495
 10
103.9688295697564
 20
-131.6715538559712
 10
104.0218873461806
 20
-131.6715538559712
 10
104.0749451226047
 20
-131.6715538559712
 10
104.1176665104037
 20
-131.7142752448495
 10
104.1176665104037
 20
-131.7673330226136
 97
        0
 97
        0
 75
     2
 76
     1
 98
        0
  0
SPLINE
  5
51
330
1F
100
AcDbEntity
  8
_U+30EC_U+30A4_U+30E4_U+30FC 1
370
     0
100
AcDbSpline
210
0.0
220
0.0
230
1.0
 70
    11
 71
     3
 72
    17
 73
    13
 74
     0
 42
0.0000000001
 43
0.0000000001
 12
1.0
 22
0.0
 32
0.0
 13
1.0
 23
0.0
 33
0.0
 40
0.0
 40
0.0
 40
0.0
 40
0.0
 40
1.0
 40
1.0
 40
1.0
 40
2.0
 40
2.0
 40
2.0
 40
3.0
 40
3.0
 40
3.0
 40
4.0
 40
4.0
 40
4.0
 40
4.0
 10
99.93326356160115
 20
-137.9505749655121
 30
0.0
 10
99.93326356160115
 20
-138.0036327432768
 30
0.0
 10
99.89054217380217
 20
-138.0463541321551
 30
0.0
 10
99.83818995291557
 20
-138.0463541321551
 30
0.0
 10
99.78513217649142
 20
-138.0463541321551
 30
0.0
 10
99.74170523315489
 20
-138.0036327432768
 30
0.0
 10
99.74170523315489
 20
-137.9505749655121
 30
0.0
 10
99.74170523315489
 20
-137.898222743303
 30
0.0
 10
99.78513217649142
 20
-137.8547957988698
 30
0.0
 10
99.83818995291557
 20
-137.8547957988698
 30
0.0
 10
99.89054217380217
 20
-137.8547957988698
 30
0.0
 10
99.93326356160115
 20
-137.898222743303
 30
0.0
 10
99.93326356160115
 20
-137.9505749655121
 30
0.0
  0
HATCH
  5
52
330
1F
100
AcDbEntity
  8
_U+30EC_U+30A4_U+30E4_U+30FC 1
 62
   179
420
  2234388
100
AcDbHatch
 10
0.0
 20
0.0
 30
0.0
210
0.0
220
0.0
230
1.0
  2
SOLID
 70
     1
 71
     0
 91
        1
 92
        1
 93
        1
 72
     4
 94
        3
 73
     0
 74
     1
 95
       17
 96
       13
 40
0.0
 40
0.0
 40
0.0
 40
0.0
 40
1.0
 40
1.0
 40
1.0
 40
2.0
 40
2.0
 40
2.0
 40
3.0
 40
3.0
 40
3.0
 40
4.0
 40
4.0
 40
4.0
 40
4.0
 10
99.93326356160115
 20
-137.9505749655121
 10
99.93326356160115
 20
-138.0036327432768
 10
99.89054217380217
 20
-138.0463541321551
 10
99.83818995291557
 20
-138.0463541321551
 10
99.78513217649142
 20
-138.0463541321551
 10
99.74170523315489
 20
-138.0036327432768
 10
99.74170523315489
 20
-137.9505749655121
 10
99.74170523315489
 20
-137.898222743303
 10
99.78513217649142
 20
-137.8547957988698
 10
99.83818995291557
 20
-137.8547957988698
 10
99.89054217380217
 20
-137.8547957988698
 10
99.93326356160115
 20
-137.898222743303
 10
99.93326356160115
 20
-137.9505749655121
 97
        0
 97
        0
 75
     2
 76
     1
 98
        0
  0
INSERT
  5
54
330
1F
100
AcDbEntity
  8
_U+30EC_U+30A4_U+30E4_U+30FC 1
100
AcDbBlockReference
  2
block 2
 10
0.0
 20
0.0
 30
0.0
  0
SPLINE
  5
5C
330
1F
100
AcDbEntity
  8
_U+30EC_U+30A4_U+30E4_U+30FC 1
 62
   179
420
  2234388
370
     9
100
AcDbSpline
210
0.0
220
0.0
230
1.0
 70
     8
 71
     3
 72
    65
 73
    61
 74
     0
 42
0.0000000001
 43
0.0000000001
 12
1.0
 22
0.0
 32
0.0
 13
1.0
 23
0.0
 33
0.0
 40
0.0
 40
0.0
 40
0.0
 40
0.0
 40
1.0
 40
1.0
 40
1.0
 40
2.0
 40
2.0
 40
2.0
 40
3.0
 40
3.0
 40
3.0
 40
4.0
 40
4.0
 40
4.0
 40
5.0
 40
5.0
 40
5.0
 40
6.0
 40
6.0
 40
6.0
 40
7.0
 40
7.0
 40
7.0
 40
8.0
 40
8.0
 40
8.0
 40
9.0
 40
9.0
 40
9.0
 40
10.0
 40
10.0
 40
10.0
 40
11.0
 40
11.0
 40
11.0
 40
12.0
 40
12.0
 40
12.0
 40
13.0
 40
13.0
 40
13.0
 40
14.0
 40
14.0
 40
14.0
 40
15.0
 40
15.0
 40
15.0
 40
16.0
 40
16.0
 40
16.0
 40
17.0
 40
17.0
 40
17.0
 40
18.0
 40
18.0
 40
18.0
 40
19.0
 40
19.0
 40
19.0
 40
20.0
 40
20.0
 40
20.0
 40
20.0
 10
92.77021679990126
 20
-123.3201044136144
 30
0.0
 10
92.77021679990126
 20
-123.3201044136144
 30
0.0
 10
92.19557709233932
 20
-123.0331549692417
 30
0.0
 10
92.19557709233932
 20
-123.0331549692417
 30
0.0
 10
92.19557709233932
 20
-123.0331549692417
 30
0.0
 10
88.56376524055011
 20
-123.0331549692417
 30
0.0
 10
88.56376524055011
 20
-123.0331549692417
 30
0.0
 10
88.1074471966362
 20
-123.0331549692417
 30
0.0
 10
88.14120802910823
 20
-123.4551830246916
 30
0.0
 10
88.14120802910823
 20
-123.4551830246916
 30
0.0
 10
88.14120802910823
 20
-123.4551830246916
 30
0.0
 10
88.14120802910823
 20
-123.7593833023936
 30
0.0
 10
88.14120802910823
 20
-123.7593833023936
 30
0.0
 10
88.14120802910823
 20
-123.7593833023936
 30
0.0
 10
88.68159301532185
 20
-123.7593833023936
 30
0.0
 10
88.68159301532185
 20
-123.7593833023936
 30
0.0
 10
88.68159301532185
 20
-123.7593833023936
 30
0.0
 10
88.68159301532185
 20
-124.2999094133695
 30
0.0
 10
88.68159301532185
 20
-124.2999094133695
 30
0.0
 10
88.68159301532185
 20
-124.2999094133695
 30
0.0
 10
88.14120802910823
 20
-124.2999094133695
 30
0.0
 10
88.14120802910823
 20
-124.2999094133695
 30
0.0
 10
88.14120802910823
 20
-124.2999094133695
 30
0.0
 10
88.14120802910823
 20
-124.6041096910711
 30
0.0
 10
88.14120802910823
 20
-124.6041096910711
 30
0.0
 10
88.14120802910823
 20
-124.6041096910711
 30
0.0
 10
89.2562327228838
 20
-124.6041096910711
 30
0.0
 10
89.2562327228838
 20
-124.6041096910711
 30
0.0
 10
89.2562327228838
 20
-124.6041096910711
 30
0.0
 10
89.45879997763525
 20
-124.5028271910966
 30
0.0
 10
89.22247189041177
 20
-124.2999094133695
 30
0.0
 10
89.22247189041177
 20
-124.2999094133695
 30
0.0
 10
89.12119164438651
 20
-123.7593833023936
 30
0.0
 10
89.99967659280586
 20
-123.7593833023936
 30
0.0
 10
89.99967659280586
 20
-123.7593833023936
 30
0.0
 10
90.97944629003207
 20
-123.7931441357184
 30
0.0
 10
90.97944629003207
 20
-124.3340230244721
 30
0.0
 10
90.97944629003207
 20
-124.3340230244721
 30
0.0
 10
90.97944629003207
 20
-125.0771141353973
 30
0.0
 10
90.97944629003207
 20
-125.0771141353973
 30
0.0
 10
90.97944629003207
 20
-125.0771141353973
 30
0.0
 10
90.60737157730226
 20
-125.7192755241257
 30
0.0
 10
91.2158073951131
 20
-125.9556366351778
 30
0.0
 10
91.2158073951131
 20
-125.9556366351778
 30
0.0
 10
91.79044710267505
 20
-126.0909974684774
 30
0.0
 10
91.79044710267505
 20
-125.3137927464493
 30
0.0
 10
91.79044710267505
 20
-125.3137927464493
 30
0.0
 10
91.89172960009111
 20
-125.2125102464747
 30
0.0
 10
91.62160766253805
 20
-125.0433533020724
 30
0.0
 10
91.62160766253805
 20
-125.0433533020724
 30
0.0
 10
91.62160766253805
 20
-124.3677838577969
 30
0.0
 10
91.62160766253805
 20
-124.3677838577969
 30
0.0
 10
91.62160766253805
 20
-124.3677838577969
 30
0.0
 10
91.68916460525898
 20
-123.9623010801204
 30
0.0
 10
92.12805542739527
 20
-123.9623010801204
 30
0.0
 10
92.12805542739527
 20
-123.9623010801204
 30
0.0
 10
92.46636930765305
 20
-123.9623010801204
 30
0.0
 10
92.46636930765305
 20
-123.9623010801204
 30
0.0
 10
92.46636930765305
 20
-123.9623010801204
 30
0.0
 10
92.77021679990126
 20
-123.7256224690688
 30
0.0
 10
92.77021679990126
 20
-123.7256224690688
 30
0.0
  0
SPLINE
  5
5D
330
1F
100
AcDbEntity
  8
_U+30EC_U+30A4_U+30E4_U+30FC 1
 62
   179
420
  2234388
370
     9
100
AcDbSpline
210
0.0
220
0.0
230
1.0
 70
    11
 71
     3
 72
    17
 73
    13
 74
     0
 42
0.0000000001
 43
0.0000000001
 12
1.0
 22
0.0
 32
0.0
 13
1.0
 23
0.0
 33
0.0
 40
0.0
 40
0.0
 40
0.0
 40
0.0
 40
1.0
 40
1.0
 40
1.0
 40
2.0
 40
2.0
 40
2.0
 40
3.0
 40
3.0
 40
3.0
 40
4.0
 40
4.0
 40
4.0
 40
4.0
 10
92.26309875728336
 20
-123.387661358042
 30
0.0
 10
92.26309875728336
 20
-123.387661358042
 30
0.0
 10
93.9863499765033
 20
-123.387661358042
 30
0.0
 10
93.9863499765033
 20
-123.387661358042
 30
0.0
 10
93.9863499765033
 20
-123.387661358042
 30
0.0
 10
93.9863499765033
 20
-123.6581008024188
 30
0.0
 10
93.9863499765033
 20
-123.6581008024188
 30
0.0
 10
93.9863499765033
 20
-123.6581008024188
 30
0.0
 10
92.56765180506912
 20
-123.6581008024188
 30
0.0
 10
92.56765180506912
 20
-123.6581008024188
 30
0.0
 10
92.56765180506912
 20
-123.6581008024188
 30
0.0
 10
92.26309875728336
 20
-123.8269049690433
 30
0.0
 10
92.26309875728336
 20
-123.387661358042
 30
0.0
  0
SPLINE
  5
5E
330
1F
100
AcDbEntity
  8
_U+30EC_U+30A4_U+30E4_U+30FC 1
 62
   179
420
  2234388
370
     9
100
AcDbSpline
210
0.0
220
0.0
230
1.0
 70
     8
 71
     3
 72
    77
 73
    73
 74
     0
 42
0.0000000001
 43
0.0000000001
 12
1.0
 22
0.0
 32
0.0
 13
1.0
 23
0.0
 33
0.0
 40
0.0
 40
0.0
 40
0.0
 40
0.0
 40
1.0
 40
1.0
 40
1.0
 40
2.0
 40
2.0
 40
2.0
 40
3.0
 40
3.0
 40
3.0
 40
4.0
 40
4.0
 40
4.0
 40
5.0
 40
5.0
 40
5.0
 40
6.0
 40
6.0
 40
6.0
 40
7.0
 40
7.0
 40
7.0
 40
8.0
 40
8.0
 40
8.0
 40
9.0
 40
9.0
 40
9.0
 40
10.0
 40
10.0
 40
10.0
 40
11.0
 40
11.0
 40
11.0
 40
12.0
 40
12.0
 40
12.0
 40
13.0
 40
13.0
 40
13.0
 40
14.0
 40
14.0
 40
14.0
 40
15.0
 40
15.0
 40
15.0
 40
16.0
 40
16.0
 40
16.0
 40
17.0
 40
17.0
 40
17.0
 40
18.0
 40
18.0
 40
18.0
 40
19.0
 40
19.0
 40
19.0
 40
20.0
 40
20.0
 40
20.0
 40
21.0
 40
21.0
 40
21.0
 40
22.0
 40
22.0
 40
22.0
 40
23.0
 40
23.0
 40
23.0
 40
24.0
 40
24.0
 40
24.0
 40
24.0
 10
93.71622566465545
 20
-123.7256224690688
 30
0.0
 10
93.71622566465545
 20
-123.7256224690688
 30
0.0
 10
93.71622566465545
 20
-123.9960619134456
 30
0.0
 10
93.71622566465545
 20
-123.9960619134456
 30
0.0
 10
93.71622566465545
 20
-123.9960619134456
 30
0.0
 10
92.73645831014922
 20
-123.9960619134456
 30
0.0
 10
92.73645831014922
 20
-123.9960619134456
 30
0.0
 10
92.73645831014922
 20
-123.9960619134456
 30
0.0
 10
91.95925126503516
 20
-123.9960619134456
 30
0.0
 10
91.95925126503516
 20
-124.6716313577211
 30
0.0
 10
91.95925126503516
 20
-124.6716313577211
 30
0.0
 10
91.95925126503516
 20
-126.7666021905304
 30
0.0
 10
91.95925126503516
 20
-126.7666021905304
 30
0.0
 10
91.95925126503516
 20
-126.7666021905304
 30
0.0
 10
92.06053608809624
 20
-127.2733674681818
 30
0.0
 10
91.45213322241726
 20
-127.2733674681818
 30
0.0
 10
91.45213322241726
 20
-127.2733674681818
 30
0.0
 10
91.04696795497611
 20
-127.2733674681818
 30
0.0
 10
91.04696795497611
 20
-127.2733674681818
 30
0.0
 10
91.04696795497611
 20
-127.2733674681818
 30
0.0
 10
90.67492852002319
 20
-127.2733674681818
 30
0.0
 10
90.67492852002319
 20
-126.4965155239314
 30
0.0
 10
90.67492852002319
 20
-126.4965155239314
 30
0.0
 10
90.67492852002319
 20
-125.5838794130486
 30
0.0
 10
90.67492852002319
 20
-125.5838794130486
 30
0.0
 10
90.67492852002319
 20
-125.5838794130486
 30
0.0
 10
90.84440296014398
 20
-125.6179930241512
 30
0.0
 10
90.84440296014398
 20
-125.6179930241512
 30
0.0
 10
90.84440296014398
 20
-125.6179930241512
 30
0.0
 10
90.84440296014398
 20
-125.3813144130992
 30
0.0
 10
90.84440296014398
 20
-125.3813144130992
 30
0.0
 10
90.84440296014398
 20
-125.3813144130992
 30
0.0
 10
90.67492852002319
 20
-125.3813144130992
 30
0.0
 10
90.67492852002319
 20
-125.3813144130992
 30
0.0
 10
90.67492852002319
 20
-125.3813144130992
 30
0.0
 10
90.67492852002319
 20
-124.9758316354228
 30
0.0
 10
90.67492852002319
 20
-124.9758316354228
 30
0.0
 10
90.67492852002319
 20
-124.9758316354228
 30
0.0
 10
90.97944629003207
 20
-124.9758316354228
 30
0.0
 10
90.97944629003207
 20
-124.9758316354228
 30
0.0
 10
90.97944629003207
 20
-124.9758316354228
 30
0.0
 10
90.43856741494214
 20
-124.0298227467704
 30
0.0
 10
90.43856741494214
 20
-124.0298227467704
 30
0.0
 10
90.43856741494214
 20
-124.0298227467704
 30
0.0
 10
90.0671982577499
 20
-124.0298227467704
 30
0.0
 10
90.0671982577499
 20
-124.0298227467704
 30
0.0
 10
90.0671982577499
 20
-124.0298227467704
 30
0.0
 10
90.0671982577499
 20
-130.6862455228837
 30
0.0
 10
90.0671982577499
 20
-130.6862455228837
 30
0.0
 10
90.0671982577499
 20
-130.6862455228837
 30
0.0
 10
90.03343742527787
 20
-131.1589324672103
 30
0.0
 10
89.6951235450201
 20
-131.1589324672103
 30
0.0
 10
89.6951235450201
 20
-131.1589324672103
 30
0.0
 10
82.09283318341512
 20
-131.1926933005351
 30
0.0
 10
82.09283318341512
 20
-131.1926933005351
 30
0.0
 10
82.09283318341512
 20
-131.1926933005351
 30
0.0
 10
82.09283318341512
 20
-133.0516558000705
 30
0.0
 10
82.09283318341512
 20
-133.0516558000705
 30
0.0
 10
82.09283318341512
 20
-133.0516558000705
 30
0.0
 10
82.70088094568031
 20
-133.0516558000705
 30
0.0
 10
82.70088094568031
 20
-133.0516558000705
 30
0.0
 10
82.70088094568031
 20
-133.0516558000705
 30
0.0
 10
82.70088094568031
 20
-131.8010938559384
 30
0.0
 10
82.70088094568031
 20
-131.8010938559384
 30
0.0
 10
82.70088094568031
 20
-131.8010938559384
 30
0.0
 10
88.03925525393147
 20
-131.8010938559384
 30
0.0
 10
88.03925525393147
 20
-131.8010938559384
 30
0.0
 10
88.03925525393147
 20
-131.8010938559384
 30
0.0
 10
88.03925525393147
 20
-133.0516558000705
 30
0.0
 10
88.03925525393147
 20
-133.0516558000705
 30
0.0
 10
88.03925525393147
 20
-133.0516558000705
 30
0.0
 10
88.54637329654938
 20
-133.0516558000705
 30
0.0
 10
88.54637329654938
 20
-133.0516558000705
 30
0.0
  0
POLYLINE
  5
5F
330
1F
100
AcDbEntity
  8
_U+30EC_U+30A4_U+30E4_U+30FC 1
 62
   179
420
  2234388
370
     9
100
AcDb2dPolyline
 66
     1
 10
0.0
 20
0.0
 30
0.0
  0
VERTEX
  5
60
330
5F
100
AcDbEntity
  8
_U+30EC_U+30A4_U+30E4_U+30FC 1
 62
   179
420
  2234388
370
     9
100
AcDbVertex
100
AcDb2dVertex
 10
88.54637329654938
 20
-132.7471027445907
 30
0.0
  0
VERTEX
  5
61
330
5F
100
AcDbEntity
  8
_U+30EC_U+30A4_U+30E4_U+30FC 1
 62
   179
420
  2234388
370
     9
100
AcDbVertex
100
AcDb2dVertex
 10
88.54637329654938
 20
-133.152938300045
 30
0.0
  0
VERTEX
  5
62
330
5F
100
AcDbEntity
  8
_U+30EC_U+30A4_U+30E4_U+30FC 1
 62
   179
420
  2234388
370
     9
100
AcDbVertex
100
AcDb2dVertex
 10
90.30352408505405
 20
-133.152938300045
 30
0.0
  0
VERTEX
  5
63
330
5F
100
AcDbEntity
  8
_U+30EC_U+30A4_U+30E4_U+30FC 1
 62
   179
420
  2234388
370
     9
100
AcDbVertex
100
AcDb2dVertex
 10
90.30352408505405
 20
-132.7471027445907
 30
0.0
  0
VERTEX
  5
64
330
5F
100
AcDbEntity
  8
_U+30EC_U+30A4_U+30E4_U+30FC 1
 62
   179
420
  2234388
370
     9
100
AcDbVertex
100
AcDb2dVertex
 10
88.54637329654938
 20
-132.7471027445907
 30
0.0
  0
SEQEND
  5
65
330
5F
100
AcDbEntity
  8
_U+30EC_U+30A4_U+30E4_U+30FC 1
 62
   179
420
  2234388
370
     9
  0
SPLINE
  5
66
330
1F
100
AcDbEntity
  8
_U+30EC_U+30A4_U+30E4_U+30FC 1
 62
   179
420
  2234388
370
     9
100
AcDbSpline
210
0.0
220
0.0
230
1.0
 70
     8
 71
     3
 72
    62
 73
    58
 74
     0
 42
0.0000000001
 43
0.0000000001
 12
1.0
 22
0.0
 32
0.0
 13
1.0
 23
0.0
 33
0.0
 40
0.0
 40
0.0
 40
0.0
 40
0.0
 40
1.0
 40
1.0
 40
1.0
 40
2.0
 40
2.0
 40
2.0
 40
3.0
 40
3.0
 40
3.0
 40
4.0
 40
4.0
 40
4.0
 40
5.0
 40
5.0
 40
5.0
 40
6.0
 40
6.0
 40
6.0
 40
7.0
 40
7.0
 40
7.0
 40
8.0
 40
8.0
 40
8.0
 40
9.0
 40
9.0
 40
9.0
 40
10.0
 40
10.0
 40
10.0
 40
11.0
 40
11.0
 40
11.0
 40
12.0
 40
12.0
 40
12.0
 40
13.0
 40
13.0
 40
13.0
 40
14.0
 40
14.0
 40
14.0
 40
15.0
 40
15.0
 40
15.0
 40
16.0
 40
16.0
 40
16.0
 40
17.0
 40
17.0
 40
17.0
 40
18.0
 40
18.0
 40
18.0
 40
19.0
 40
19.0
 40
19.0
 40
19.0
 10
88.98611078533074
 20
-132.6795810779411
 30
0.0
 10
88.98611078533074
 20
-132.6795810779411
 30
0.0
 10
88.98611078533074
 20
-132.341972744692
 30
0.0
 10
88.98611078533074
 20
-132.341972744692
 30
0.0
 10
88.98611078533074
 20
-132.341972744692
 30
0.0
 10
88.98611078533074
 20
-131.9698980225633
 30
0.0
 10
89.45879997763525
 20
-131.9698980225633
 30
0.0
 10
89.45879997763525
 20
-131.9698980225633
 30
0.0
 10
89.89839409538978
 20
-131.9698980225633
 30
0.0
 10
89.89839409538978
 20
-131.9698980225633
 30
0.0
 10
89.89839409538978
 20
-131.9698980225633
 30
0.0
 10
90.64113240977429
 20
-132.0374196892129
 30
0.0
 10
90.64113240977429
 20
-131.3959285782622
 30
0.0
 10
90.64113240977429
 20
-131.3959285782622
 30
0.0
 10
90.64113240977429
 20
-128.7264944122629
 30
0.0
 10
90.64113240977429
 20
-128.7264944122629
 30
0.0
 10
90.64113240977429
 20
-128.7264944122629
 30
0.0
 10
90.60737157730226
 20
-128.2197291346119
 30
0.0
 10
91.08072878744814
 20
-128.2197291346119
 30
0.0
 10
91.08072878744814
 20
-128.2197291346119
 30
0.0
 10
91.554085997594
 20
-128.2197291346119
 30
0.0
 10
91.554085997594
 20
-128.2197291346119
 30
0.0
 10
91.554085997594
 20
-128.2197291346119
 30
0.0
 10
91.89172960009111
 20
-128.1518546901841
 30
0.0
 10
91.89172960009111
 20
-128.929271078879
 30
0.0
 10
91.89172960009111
 20
-128.929271078879
 30
0.0
 10
91.89172960009111
 20
-131.0914108005606
 30
0.0
 10
91.89172960009111
 20
-131.0914108005606
 30
0.0
 10
91.89172960009111
 20
-131.0914108005606
 30
0.0
 10
91.62160766253805
 20
-131.0914108005606
 30
0.0
 10
91.62160766253805
 20
-131.0914108005606
 30
0.0
 10
91.62160766253805
 20
-131.0914108005606
 30
0.0
 10
92.0267729299792
 20
-131.7335721892887
 30
0.0
 10
92.0267729299792
 20
-131.7335721892887
 30
0.0
 10
92.0267729299792
 20
-131.7335721892887
 30
0.0
 10
92.22933792481135
 20
-131.9361371892384
 30
0.0
 10
92.22933792481135
 20
-131.9361371892384
 30
0.0
 10
92.22933792481135
 20
-131.9361371892384
 30
0.0
 10
92.5338909725971
 20
-131.9361371892384
 30
0.0
 10
92.5338909725971
 20
-131.9361371892384
 30
0.0
 10
92.5338909725971
 20
-131.9361371892384
 30
0.0
 10
92.56765180506912
 20
-124.6716313577211
 30
0.0
 10
92.56765180506912
 20
-124.6716313577211
 30
0.0
 10
92.56765180506912
 20
-124.6716313577211
 30
0.0
 10
93.91882593726447
 20
-124.6716313577211
 30
0.0
 10
93.91882593726447
 20
-124.6716313577211
 30
0.0
 10
93.91882593726447
 20
-124.6716313577211
 30
0.0
 10
93.91882593726447
 20
-125.2800319131244
 30
0.0
 10
93.91882593726447
 20
-125.2800319131244
 30
0.0
 10
93.91882593726447
 20
-125.2800319131244
 30
0.0
 10
94.4934656448264
 20
-125.2800319131244
 30
0.0
 10
94.4934656448264
 20
-125.2800319131244
 30
0.0
 10
94.4934656448264
 20
-125.2800319131244
 30
0.0
 10
94.4934656448264
 20
-123.5905438579912
 30
0.0
 10
94.4934656448264
 20
-123.5905438579912
 30
0.0
 10
94.4934656448264
 20
-123.5905438579912
 30
0.0
 10
94.42594397988236
 20
-123.387661358042
 30
0.0
 10
93.9863499765033
 20
-123.387661358042
 30
0.0
  0
SPLINE
  5
67
330
1F
100
AcDbEntity
  8
_U+30EC_U+30A4_U+30E4_U+30FC 1
 62
   179
420
  2234388
370
     9
100
AcDbSpline
210
0.0
220
0.0
230
1.0
 70
     8
 71
     3
 72
    29
 73
    25
 74
     0
 42
0.0000000001
 43
0.0000000001
 12
1.0
 22
0.0
 32
0.0
 13
1.0
 23
0.0
 33
0.0
 40
0.0
 40
0.0
 40
0.0
 40
0.0
 40
1.0
 40
1.0
 40
1.0
 40
2.0
 40
2.0
 40
2.0
 40
3.0
 40
3.0
 40
3.0
 40
4.0
 40
4.0
 40
4.0
 40
5.0
 40
5.0
 40
5.0
 40
6.0
 40
6.0
 40
6.0
 40
7.0
 40
7.0
 40
7.0
 40
8.0
 40
8.0
 40
8.0
 40
8.0
 10
89.79640831088429
 20
-132.7133419112659
 30
0.0
 10
89.79640831088429
 20
-132.7133419112659
 30
0.0
 10
90.30352408505405
 20
-132.139407744743
 30
0.0
 10
90.30352408505405
 20
-132.139407744743
 30
0.0
 10
90.30352408505405
 20
-132.139407744743
 30
0.0
 10
90.97944629003207
 20
-132.2744510780423
 30
0.0
 10
90.97944629003207
 20
-131.8348546892632
 30
0.0
 10
90.97944629003207
 20
-131.8348546892632
 30
0.0
 10
90.97944629003207
 20
-131.1251716338854
 30
0.0
 10
90.97944629003207
 20
-131.1251716338854
 30
0.0
 10
90.97944629003207
 20
-131.1251716338854
 30
0.0
 10
90.47233053293759
 20
-130.5512021895843
 30
0.0
 10
91.2158073951131
 20
-130.1453666341301
 30
0.0
 10
91.2158073951131
 20
-130.1453666341301
 30
0.0
 10
91.85796876761908
 20
-130.2466491341052
 30
0.0
 10
91.68916460525898
 20
-130.8212888561837
 30
0.0
 10
91.68916460525898
 20
-130.8212888561837
 30
0.0
 10
91.72292775484719
 20
-131.0238891339109
 30
0.0
 10
91.62160766253805
 20
-131.2264541338599
 30
0.0
 10
91.62160766253805
 20
-131.2264541338599
 30
0.0
 10
91.554085997594
 20
-132.139407744743
 30
0.0
 10
92.29685958975539
 20
-132.1056469114181
 30
0.0
 10
92.29685958975539
 20
-132.1056469114181
 30
0.0
 10
99.05477636179101
 20
-132.1056469114181
 30
0.0
 10
99.05477636179101
 20
-132.1056469114181
 30
0.0
  0
POLYLINE
  5
68
330
1F
100
AcDbEntity
  8
_U+30EC_U+30A4_U+30E4_U+30FC 1
 62
   179
420
  2234388
370
     9
100
AcDb2dPolyline
 66
     1
 10
0.0
 20
0.0
 30
0.0
  0
VERTEX
  5
69
330
68
100
AcDbEntity
  8
_U+30EC_U+30A4_U+30E4_U+30FC 1
 62
   179
420
  2234388
370
     9
100
AcDbVertex
100
AcDb2dVertex
 10
98.852176089182
 20
-132.0711805225378
 30
0.0
  0
VERTEX
  5
6A
330
68
100
AcDbEntity
  8
_U+30EC_U+30A4_U+30E4_U+30FC 1
 62
   179
420
  2234388
370
     9
100
AcDbVertex
100
AcDb2dVertex
 10
99.32553329932787
 20
-131.8348546892632
 30
0.0
  0
VERTEX
  5
6B
330
68
100
AcDbEntity
  8
_U+30EC_U+30A4_U+30E4_U+30FC 1
 62
   179
420
  2234388
370
     9
100
AcDbVertex
100
AcDb2dVertex
 10
99.32553329932787
 20
-132.139407744743
 30
0.0
  0
VERTEX
  5
6C
330
68
100
AcDbEntity
  8
_U+30EC_U+30A4_U+30E4_U+30FC 1
 62
   179
420
  2234388
370
     9
100
AcDbVertex
100
AcDb2dVertex
 10
99.93326356160115
 20
-132.139407744743
 30
0.0
  0
VERTEX
  5
6D
330
68
100
AcDbEntity
  8
_U+30EC_U+30A4_U+30E4_U+30FC 1
 62
   179
420
  2234388
370
     9
100
AcDbVertex
100
AcDb2dVertex
 10
98.61585275312356
 20
-133.0854166333953
 30
0.0
  0
VERTEX
  5
6E
330
68
100
AcDbEntity
  8
_U+30EC_U+30A4_U+30E4_U+30FC 1
 62
   179
420
  2234388
370
     9
100
AcDbVertex
100
AcDb2dVertex
 10
90.30352408505405
 20
-133.0516558000705
 30
0.0
  0
SEQEND
  5
6F
330
68
100
AcDbEntity
  8
_U+30EC_U+30A4_U+30E4_U+30FC 1
 62
   179
420
  2234388
370
     9
  0
POLYLINE
  5
70
330
1F
100
AcDbEntity
  8
_U+30EC_U+30A4_U+30E4_U+30FC 1
 62
   179
420
  2234388
370
     9
100
AcDb2dPolyline
 66
     1
 10
0.0
 20
0.0
 30
0.0
  0
VERTEX
  5
71
330
70
100
AcDbEntity
  8
_U+30EC_U+30A4_U+30E4_U+30FC 1
 62
   179
420
  2234388
370
     9
100
AcDbVertex
100
AcDb2dVertex
 10
79.62614046856791
 20
-124.6378705243963
 30
0.0
  0
VERTEX
  5
72
330
70
100
AcDbEntity
  8
_U+30EC_U+30A4_U+30E4_U+30FC 1
 62
   179
420
  2234388
370
     9
100
AcDbVertex
100
AcDb2dVertex
 10
87.9041766462665
 20
-124.6378705243963
 30
0.0
  0
SEQEND
  5
73
330
70
100
AcDbEntity
  8
_U+30EC_U+30A4_U+30E4_U+30FC 1
 62
   179
420
  2234388
370
     9
  0
POLYLINE
  5
74
330
1F
100
AcDbEntity
  8
_U+30EC_U+30A4_U+30E4_U+30FC 1
 62
   179
420
  2234388
370
     9
100
AcDb2dPolyline
 66
     1
 10
0.0
 20
0.0
 30
0.0
  0
VERTEX
  5
75
330
74
100
AcDbEntity
  8
_U+30EC_U+30A4_U+30E4_U+30FC 1
 62
   179
420
  2234388
370
     9
100
AcDbVertex
100
AcDb2dVertex
 10
80.06538609109488
 20
-124.6378705243963
 30
0.0
  0
VERTEX
  5
76
330
74
100
AcDbEntity
  8
_U+30EC_U+30A4_U+30E4_U+30FC 1
 62
   179
420
  2234388
370
     9
100
AcDbVertex
100
AcDb2dVertex
 10
80.06538609109488
 20
-131.2264541338599
 30
0.0
  0
SEQEND
  5
77
330
74
100
AcDbEntity
  8
_U+30EC_U+30A4_U+30E4_U+30FC 1
 62
   179
420
  2234388
370
     9
  0
POLYLINE
  5
78
330
1F
100
AcDbEntity
  8
_U+30EC_U+30A4_U+30E4_U+30FC 1
 62
   179
420
  2234388
370
     9
100
AcDb2dPolyline
 66
     1
 10
0.0
 20
0.0
 30
0.0
  0
VERTEX
  5
79
330
78
100
AcDbEntity
  8
_U+30EC_U+30A4_U+30E4_U+30FC 1
 62
   179
420
  2234388
370
     9
100
AcDbVertex
100
AcDb2dVertex
 10
81.88991541081421
 20
-131.1926933005351
 30
0.0
  0
VERTEX
  5
7A
330
78
100
AcDbEntity
  8
_U+30EC_U+30A4_U+30E4_U+30FC 1
 62
   179
420
  2234388
370
     9
100
AcDbVertex
100
AcDb2dVertex
 10
79.761183798456
 20
-131.1926933005351
 30
0.0
  0
SEQEND
  5
7B
330
78
100
AcDbEntity
  8
_U+30EC_U+30A4_U+30E4_U+30FC 1
 62
   179
420
  2234388
370
     9
  0
POLYLINE
  5
7C
330
1F
100
AcDbEntity
  8
_U+30EC_U+30A4_U+30E4_U+30FC 1
 62
   179
420
  2234388
370
     9
100
AcDb2dPolyline
 66
     1
 10
0.0
 20
0.0
 30
0.0
  0
VERTEX
  5
7D
330
7C
100
AcDbEntity
  8
_U+30EC_U+30A4_U+30E4_U+30FC 1
 62
   179
420
  2234388
370
     9
100
AcDbVertex
100
AcDb2dVertex
 10
82.0249587407023
 20
-133.2879816333444
 30
0.0
  0
VERTEX
  5
7E
330
7C
100
AcDbEntity
  8
_U+30EC_U+30A4_U+30E4_U+30FC 1
 62
   179
420
  2234388
370
     9
100
AcDbVertex
100
AcDb2dVertex
 10
82.0249587407023
 20
-138.2551280209918
 30
0.0
  0
SEQEND
  5
7F
330
7C
100
AcDbEntity
  8
_U+30EC_U+30A4_U+30E4_U+30FC 1
 62
   179
420
  2234388
370
     9
  0
POLYLINE
  5
80
330
1F
100
AcDbEntity
  8
_U+30EC_U+30A4_U+30E4_U+30FC 1
 62
   179
420
  2234388
370
     9
100
AcDb2dPolyline
 66
     1
 10
0.0
 20
0.0
 30
0.0
  0
VERTEX
  5
81
330
80
100
AcDbEntity
  8
_U+30EC_U+30A4_U+30E4_U+30FC 1
 62
   179
420
  2234388
370
     9
100
AcDbVertex
100
AcDb2dVertex
 10
82.0249587407023
 20
-137.9505749655121
 30
0.0
  0
VERTEX
  5
82
330
80
100
AcDbEntity
  8
_U+30EC_U+30A4_U+30E4_U+30FC 1
 62
   179
420
  2234388
370
     9
100
AcDbVertex
100
AcDb2dVertex
 10
99.93326356160115
 20
-137.9505749655121
 30
0.0
  0
SEQEND
  5
83
330
80
100
AcDbEntity
  8
_U+30EC_U+30A4_U+30E4_U+30FC 1
 62
   179
420
  2234388
370
     9
  0
POLYLINE
  5
84
330
1F
100
AcDbEntity
  8
_U+30EC_U+30A4_U+30E4_U+30FC 1
 62
   179
420
  2234388
370
     9
100
AcDb2dPolyline
 66
     1
 10
0.0
 20
0.0
 30
0.0
  0
VERTEX
  5
85
330
84
100
AcDbEntity
  8
_U+30EC_U+30A4_U+30E4_U+30FC 1
 62
   179
420
  2234388
370
     9
100
AcDbVertex
100
AcDb2dVertex
 10
88.14120802910823
 20
-122.8133391359634
 30
0.0
  0
VERTEX
  5
86
330
84
100
AcDbEntity
  8
_U+30EC_U+30A4_U+30E4_U+30FC 1
 62
   179
420
  2234388
370
     9
100
AcDbVertex
100
AcDb2dVertex
 10
88.14120802910823
 20
-120.3804071921273
 30
0.0
  0
SEQEND
  5
87
330
84
100
AcDbEntity
  8
_U+30EC_U+30A4_U+30E4_U+30FC 1
 62
   179
420
  2234388
370
     9
  0
POLYLINE
  5
88
330
1F
100
AcDbEntity
  8
_U+30EC_U+30A4_U+30E4_U+30FC 1
 62
   179
420
  2234388
370
     9
100
AcDb2dPolyline
 66
     1
 10
0.0
 20
0.0
 30
0.0
  0
VERTEX
  5
89
330
88
100
AcDbEntity
  8
_U+30EC_U+30A4_U+30E4_U+30FC 1
 62
   179
420
  2234388
370
     9
100
AcDbVertex
100
AcDb2dVertex
 10
88.14120802910823
 20
-120.7183683031538
 30
0.0
  0
VERTEX
  5
8A
330
88
100
AcDbEntity
  8
_U+30EC_U+30A4_U+30E4_U+30FC 1
 62
   179
420
  2234388
370
     9
100
AcDbVertex
100
AcDb2dVertex
 10
94.4934656448264
 20
-120.7183683031538
 30
0.0
  0
SEQEND
  5
8B
330
88
100
AcDbEntity
  8
_U+30EC_U+30A4_U+30E4_U+30FC 1
 62
   179
420
  2234388
370
     9
  0
POLYLINE
  5
8C
330
1F
100
AcDbEntity
  8
_U+30EC_U+30A4_U+30E4_U+30FC 1
 62
   179
420
  2234388
370
     9
100
AcDb2dPolyline
 66
     1
 10
0.0
 20
0.0
 30
0.0
  0
VERTEX
  5
8D
330
8C
100
AcDbEntity
  8
_U+30EC_U+30A4_U+30E4_U+30FC 1
 62
   179
420
  2234388
370
     9
100
AcDbVertex
100
AcDb2dVertex
 10
94.45970481235439
 20
-120.4141680254521
 30
0.0
  0
VERTEX
  5
8E
330
8C
100
AcDbEntity
  8
_U+30EC_U+30A4_U+30E4_U+30FC 1
 62
   179
420
  2234388
370
     9
100
AcDbVertex
100
AcDb2dVertex
 10
94.45970481235439
 20
-123.2525827469647
 30
0.0
  0
SEQEND
  5
8F
330
8C
100
AcDbEntity
  8
_U+30EC_U+30A4_U+30E4_U+30FC 1
 62
   179
420
  2234388
370
     9
  0
POLYLINE
  5
90
330
1F
100
AcDbEntity
  8
_U+30EC_U+30A4_U+30E4_U+30FC 1
 62
   179
420
  2234388
370
     9
100
AcDb2dPolyline
 66
     1
 10
0.0
 20
0.0
 30
0.0
  0
VERTEX
  5
91
330
90
100
AcDbEntity
  8
_U+30EC_U+30A4_U+30E4_U+30FC 1
 62
   179
420
  2234388
370
     9
100
AcDbVertex
100
AcDb2dVertex
 10
94.76355230460258
 20
-125.3813144130992
 30
0.0
  0
VERTEX
  5
92
330
90
100
AcDbEntity
  8
_U+30EC_U+30A4_U+30E4_U+30FC 1
 62
   179
420
  2234388
370
     9
100
AcDbVertex
100
AcDb2dVertex
 10
104.3595309486777
 20
-125.3813144130992
 30
0.0
  0
SEQEND
  5
93
330
90
100
AcDbEntity
  8
_U+30EC_U+30A4_U+30E4_U+30FC 1
 62
   179
420
  2234388
370
     9
  0
SPLINE
  5
94
330
1F
100
AcDbEntity
  8
_U+30EC_U+30A4_U+30E4_U+30FC 1
370
     0
100
AcDbSpline
210
0.0
220
0.0
230
1.0
 70
    11
 71
     3
 72
    17
 73
    13
 74
     0
 42
0.0000000001
 43
0.0000000001
 12
1.0
 22
0.0
 32
0.0
 13
1.0
 23
0.0
 33
0.0
 40
0.0
 40
0.0
 40
0.0
 40
0.0
 40
1.0
 40
1.0
 40
1.0
 40
2.0
 40
2.0
 40
2.0
 40
3.0
 40
3.0
 40
3.0
 40
4.0
 40
4.0
 40
4.0
 40
4.0
 10
94.58370619807974
 20
-120.7183683031538
 30
0.0
 10
94.58370619807974
 20
-120.7711085809185
 30
0.0
 10
94.54031453252009
 20
-120.8141474697964
 30
0.0
 10
94.4879270338566
 20
-120.8141474697964
 30
0.0
 10
94.43490453520931
 20
-120.8141474697964
 30
0.0
 10
94.39218314741034
 20
-120.7711085809185
 30
0.0
 10
94.39218314741034
 20
-120.7183683031538
 30
0.0
 10
94.39218314741034
 20
-120.6656633031668
 30
0.0
 10
94.43490453520931
 20
-120.6226244142889
 30
0.0
 10
94.4879270338566
 20
-120.6226244142889
 30
0.0
 10
94.54031453252009
 20
-120.6226244142889
 30
0.0
 10
94.58370619807974
 20
-120.6656633031668
 30
0.0
 10
94.58370619807974
 20
-120.7183683031538
 30
0.0
  0
HATCH
  5
95
330
1F
100
AcDbEntity
  8
_U+30EC_U+30A4_U+30E4_U+30FC 1
 62
   179
420
  2234388
100
AcDbHatch
 10
0.0
 20
0.0
 30
0.0
210
0.0
220
0.0
230
1.0
  2
SOLID
 70
     1
 71
     0
 91
        1
 92
        1
 93
        1
 72
     4
 94
        3
 73
     0
 74
     1
 95
       17
 96
       13
 40
0.0
 40
0.0
 40
0.0
 40
0.0
 40
1.0
 40
1.0
 40
1.0
 40
2.0
 40
2.0
 40
2.0
 40
3.0
 40
3.0
 40
3.0
 40
4.0
 40
4.0
 40
4.0
 40
4.0
 10
94.58370619807974
 20
-120.7183683031538
 10
94.58370619807974
 20
-120.7711085809185
 10
94.54031453252009
 20
-120.8141474697964
 10
94.4879270338566
 20
-120.8141474697964
 10
94.43490453520931
 20
-120.8141474697964
 10
94.39218314741034
 20
-120.7711085809185
 10
94.39218314741034
 20
-120.7183683031538
 10
94.39218314741034
 20
-120.6656633031668
 10
94.43490453520931
 20
-120.6226244142889
 10
94.4879270338566
 20
-120.6226244142889
 10
94.54031453252009
 20
-120.6226244142889
 10
94.58370619807974
 20
-120.6656633031668
 10
94.58370619807974
 20
-120.7183683031538
 97
        0
 97
        0
 75
     2
 76
     1
 98
        0
  0
SPLINE
  5
96
330
1F
100
AcDbEntity
  8
_U+30EC_U+30A4_U+30E4_U+30FC 1
370
     0
100
AcDbSpline
210
0.0
220
0.0
230
1.0
 70
    11
 71
     3
 72
    17
 73
    13
 74
     0
 42
0.0000000001
 43
0.0000000001
 12
1.0
 22
0.0
 32
0.0
 13
1.0
 23
0.0
 33
0.0
 40
0.0
 40
0.0
 40
0.0
 40
0.0
 40
1.0
 40
1.0
 40
1.0
 40
2.0
 40
2.0
 40
2.0
 40
3.0
 40
3.0
 40
3.0
 40
4.0
 40
4.0
 40
4.0
 40
4.0
 10
88.20872969405227
 20
-120.7183683031538
 30
0.0
 10
88.20872969405227
 20
-120.7711085809185
 30
0.0
 10
88.16600830625329
 20
-120.8141474697964
 30
0.0
 10
88.11295275574963
 20
-120.8141474697964
 30
0.0
 10
88.05992803118185
 20
-120.8141474697964
 30
0.0
 10
88.01720664338288
 20
-120.7711085809185
 30
0.0
 10
88.01720664338288
 20
-120.7183683031538
 30
0.0
 10
88.01720664338288
 20
-120.6656633031668
 30
0.0
 10
88.05992803118185
 20
-120.6226244142889
 30
0.0
 10
88.11295275574963
 20
-120.6226244142889
 30
0.0
 10
88.16600830625329
 20
-120.6226244142889
 30
0.0
 10
88.20872969405227
 20
-120.6656633031668
 30
0.0
 10
88.20872969405227
 20
-120.7183683031538
 30
0.0
  0
HATCH
  5
97
330
1F
100
AcDbEntity
  8
_U+30EC_U+30A4_U+30E4_U+30FC 1
 62
   179
420
  2234388
100
AcDbHatch
 10
0.0
 20
0.0
 30
0.0
210
0.0
220
0.0
230
1.0
  2
SOLID
 70
     1
 71
     0
 91
        1
 92
        1
 93
        1
 72
     4
 94
        3
 73
     0
 74
     1
 95
       17
 96
       13
 40
0.0
 40
0.0
 40
0.0
 40
0.0
 40
1.0
 40
1.0
 40
1.0
 40
2.0
 40
2.0
 40
2.0
 40
3.0
 40
3.0
 40
3.0
 40
4.0
 40
4.0
 40
4.0
 40
4.0
 10
88.20872969405227
 20
-120.7183683031538
 10
88.20872969405227
 20
-120.7711085809185
 10
88.16600830625329
 20
-120.8141474697964
 10
88.11295275574963
 20
-120.8141474697964
 10
88.05992803118185
 20
-120.8141474697964
 10
88.01720664338288
 20
-120.7711085809185
 10
88.01720664338288
 20
-120.7183683031538
 10
88.01720664338288
 20
-120.6656633031668
 10
88.05992803118185
 20
-120.6226244142889
 10
88.11295275574963
 20
-120.6226244142889
 10
88.16600830625329
 20
-120.6226244142889
 10
88.20872969405227
 20
-120.6656633031668
 10
88.20872969405227
 20
-120.7183683031538
 97
        0
 97
        0
 75
     2
 76
     1
 98
        0
  0
SPLINE
  5
98
330
1F
100
AcDbEntity
  8
_U+30EC_U+30A4_U+30E4_U+30FC 1
370
     0
100
AcDbSpline
210
0.0
220
0.0
230
1.0
 70
    11
 71
     3
 72
    17
 73
    13
 74
     0
 42
0.0000000001
 43
0.0000000001
 12
1.0
 22
0.0
 32
0.0
 13
1.0
 23
0.0
 33
0.0
 40
0.0
 40
0.0
 40
0.0
 40
0.0
 40
1.0
 40
1.0
 40
1.0
 40
2.0
 40
2.0
 40
2.0
 40
3.0
 40
3.0
 40
3.0
 40
4.0
 40
4.0
 40
4.0
 40
4.0
 10
82.12659401588714
 20
-137.9505749655121
 30
0.0
 10
82.12659401588714
 20
-138.0036327432768
 30
0.0
 10
82.08387262808817
 20
-138.0463541321551
 30
0.0
 10
82.030814851664
 20
-138.0463541321551
 30
0.0
 10
81.97810985300862
 20
-138.0463541321551
 30
0.0
 10
81.93503568744087
 20
-138.0036327432768
 30
0.0
 10
81.93503568744087
 20
-137.9505749655121
 30
0.0
 10
81.93503568744087
 20
-137.898222743303
 30
0.0
 10
81.97810985300862
 20
-137.8547957988698
 30
0.0
 10
82.030814851664
 20
-137.8547957988698
 30
0.0
 10
82.08387262808817
 20
-137.8547957988698
 30
0.0
 10
82.12659401588714
 20
-137.898222743303
 30
0.0
 10
82.12659401588714
 20
-137.9505749655121
 30
0.0
  0
HATCH
  5
99
330
1F
100
AcDbEntity
  8
_U+30EC_U+30A4_U+30E4_U+30FC 1
 62
   179
420
  2234388
100
AcDbHatch
 10
0.0
 20
0.0
 30
0.0
210
0.0
220
0.0
230
1.0
  2
SOLID
 70
     1
 71
     0
 91
        1
 92
        1
 93
        1
 72
     4
 94
        3
 73
     0
 74
     1
 95
       17
 96
       13
 40
0.0
 40
0.0
 40
0.0
 40
0.0
 40
1.0
 40
1.0
 40
1.0
 40
2.0
 40
2.0
 40
2.0
 40
3.0
 40
3.0
 40
3.0
 40
4.0
 40
4.0
 40
4.0
 40
4.0
 10
82.12659401588714
 20
-137.9505749655121
 10
82.12659401588714
 20
-138.0036327432768
 10
82.08387262808817
 20
-138.0463541321551
 10
82.030814851664
 20
-138.0463541321551
 10
81.97810985300862
 20
-138.0463541321551
 10
81.93503568744087
 20
-138.0036327432768
 10
81.93503568744087
 20
-137.9505749655121
 10
81.93503568744087
 20
-137.898222743303
 10
81.97810985300862
 20
-137.8547957988698
 10
82.030814851664
 20
-137.8547957988698
 10
82.08387262808817
 20
-137.8547957988698
 10
82.12659401588714
 20
-137.898222743303
 10
82.12659401588714
 20
-137.9505749655121
 97
        0
 97
        0
 75
     2
 76
     1
 98
        0
  0
SPLINE
  5
9A
330
1F
100
AcDbEntity
  8
_U+30EC_U+30A4_U+30E4_U+30FC 1
370
     0
100
AcDbSpline
210
0.0
220
0.0
230
1.0
 70
    11
 71
     3
 72
    17
 73
    13
 74
     0
 42
0.0000000001
 43
0.0000000001
 12
1.0
 22
0.0
 32
0.0
 13
1.0
 23
0.0
 33
0.0
 40
0.0
 40
0.0
 40
0.0
 40
0.0
 40
1.0
 40
1.0
 40
1.0
 40
2.0
 40
2.0
 40
2.0
 40
3.0
 40
3.0
 40
3.0
 40
4.0
 40
4.0
 40
4.0
 40
4.0
 10
80.22282878667846
 20
-124.6378705243963
 30
0.0
 10
80.22282878667846
 20
-124.6905755243829
 30
0.0
 10
80.18010739887949
 20
-124.7336496910389
 30
0.0
 10
80.1274024002241
 20
-124.7336496910389
 30
0.0
 10
80.07469740156873
 20
-124.7336496910389
 30
0.0
 10
80.03162323600097
 20
-124.6905755243829
 30
0.0
 10
80.03162323600097
 20
-124.6378705243963
 30
0.0
 10
80.03162323600097
 20
-124.5851655244094
 30
0.0
 10
80.07469740156873
 20
-124.5420913577533
 30
0.0
 10
80.1274024002241
 20
-124.5420913577533
 30
0.0
 10
80.18010739887949
 20
-124.5420913577533
 30
0.0
 10
80.22282878667846
 20
-124.5851655244094
 30
0.0
 10
80.22282878667846
 20
-124.6378705243963
 30
0.0
  0
HATCH
  5
9B
330
1F
100
AcDbEntity
  8
_U+30EC_U+30A4_U+30E4_U+30FC 1
 62
   179
420
  2234388
100
AcDbHatch
 10
0.0
 20
0.0
 30
0.0
210
0.0
220
0.0
230
1.0
  2
SOLID
 70
     1
 71
     0
 91
        1
 92
        1
 93
        1
 72
     4
 94
        3
 73
     0
 74
     1
 95
       17
 96
       13
 40
0.0
 40
0.0
 40
0.0
 40
0.0
 40
1.0
 40
1.0
 40
1.0
 40
2.0
 40
2.0
 40
2.0
 40
3.0
 40
3.0
 40
3.0
 40
4.0
 40
4.0
 40
4.0
 40
4.0
 10
80.22282878667846
 20
-124.6378705243963
 10
80.22282878667846
 20
-124.6905755243829
 10
80.18010739887949
 20
-124.7336496910389
 10
80.1274024002241
 20
-124.7336496910389
 10
80.07469740156873
 20
-124.7336496910389
 10
80.03162323600097
 20
-124.6905755243829
 10
80.03162323600097
 20
-124.6378705243963
 10
80.03162323600097
 20
-124.5851655244094
 10
80.07469740156873
 20
-124.5420913577533
 10
80.1274024002241
 20
-124.5420913577533
 10
80.18010739887949
 20
-124.5420913577533
 10
80.22282878667846
 20
-124.5851655244094
 10
80.22282878667846
 20
-124.6378705243963
 97
        0
 97
        0
 75
     2
 76
     1
 98
        0
  0
SPLINE
  5
9C
330
1F
100
AcDbEntity
  8
_U+30EC_U+30A4_U+30E4_U+30FC 1
370
     0
100
AcDbSpline
210
0.0
220
0.0
230
1.0
 70
    11
 71
     3
 72
    17
 73
    13
 74
     0
 42
0.0000000001
 43
0.0000000001
 12
1.0
 22
0.0
 32
0.0
 13
1.0
 23
0.0
 33
0.0
 40
0.0
 40
0.0
 40
0.0
 40
0.0
 40
1.0
 40
1.0
 40
1.0
 40
2.0
 40
2.0
 40
2.0
 40
3.0
 40
3.0
 40
3.0
 40
4.0
 40
4.0
 40
4.0
 40
4.0
 10
80.16081045492734
 20
-131.1988669116446
 30
0.0
 10
80.16081045492734
 20
-131.2512544116319
 30
0.0
 10
80.11808906712837
 20
-131.2946460782876
 30
0.0
 10
80.06538609109488
 20
-131.2946460782876
 30
0.0
 10
80.01267906981761
 20
-131.2946460782876
 30
0.0
 10
79.96960490424985
 20
-131.2512544116319
 30
0.0
 10
79.96960490424985
 20
-131.1988669116446
 30
0.0
 10
79.96960490424985
 20
-131.1458444116581
 30
0.0
 10
80.01267906981761
 20
-131.1031230227798
 30
0.0
 10
80.06538609109488
 20
-131.1031230227798
 30
0.0
 10
80.11808906712837
 20
-131.1031230227798
 30
0.0
 10
80.16081045492734
 20
-131.1458444116581
 30
0.0
 10
80.16081045492734
 20
-131.1988669116446
 30
0.0
  0
HATCH
  5
9D
330
1F
100
AcDbEntity
  8
_U+30EC_U+30A4_U+30E4_U+30FC 1
 62
   179
420
  2234388
100
AcDbHatch
 10
0.0
 20
0.0
 30
0.0
210
0.0
220
0.0
230
1.0
  2
SOLID
 70
     1
 71
     0
 91
        1
 92
        1
 93
        1
 72
     4
 94
        3
 73
     0
 74
     1
 95
       17
 96
       13
 40
0.0
 40
0.0
 40
0.0
 40
0.0
 40
1.0
 40
1.0
 40
1.0
 40
2.0
 40
2.0
 40
2.0
 40
3.0
 40
3.0
 40
3.0
 40
4.0
 40
4.0
 40
4.0
 40
4.0
 10
80.16081045492734
 20
-131.1988669116446
 10
80.16081045492734
 20
-131.2512544116319
 10
80.11808906712837
 20
-131.2946460782876
 10
80.06538609109488
 20
-131.2946460782876
 10
80.01267906981761
 20
-131.2946460782876
 10
79.96960490424985
 20
-131.2512544116319
 10
79.96960490424985
 20
-131.1988669116446
 10
79.96960490424985
 20
-131.1458444116581
 10
80.01267906981761
 20
-131.1031230227798
 10
80.06538609109488
 20
-131.1031230227798
 10
80.11808906712837
 20
-131.1031230227798
 10
80.16081045492734
 20
-131.1458444116581
 10
80.16081045492734
 20
-131.1988669116446
 97
        0
 97
        0
 75
     2
 76
     1
 98
        0
  0
INSERT
  5
9F
330
1F
100
AcDbEntity
  8
_U+30EC_U+30A4_U+30E4_U+30FC 1
100
AcDbBlockReference
  2
block 3
 10
0.0
 20
0.0
 30
0.0
  0
INSERT
  5
A8
330
1F
100
AcDbEntity
  8
_U+30EC_U+30A4_U+30E4_U+30FC 1
100
AcDbBlockReference
  2
block 4
 10
0.0
 20
0.0
 30
0.0
  0
INSERT
  5
B1
330
1F
100
AcDbEntity
  8
_U+30EC_U+30A4_U+30E4_U+30FC 1
100
AcDbBlockReference
  2
block 5
 10
0.0
 20
0.0
 30
0.0
  0
ENDSEC
  0
SECTION
  2
OBJECTS
  0
DICTIONARY
  5
C
330
0
100
AcDbDictionary
281
     1
  3
ACAD_GROUP
350
D
  3
ACAD_LAYOUT
350
1A
  3
ACAD_MATERIAL
350
3B
  3
ACAD_MLEADERSTYLE
350
BB
  3
ACAD_MLINESTYLE
350
17
  3
ACAD_PLOTSETTINGS
350
19
  3
ACAD_PLOTSTYLENAME
350
E
  3
ACAD_TABLESTYLE
350
BA
  3
ACAD_VISUALSTYLE
350
2A
  0
SUN
  5
3F
330
29
100
AcDbSun
 90
        1
290
     0
 63
     7
421
 16777215
 40
1.0
291
     1
 91
  2455826
 92
 54000000
292
     0
 70
     2
 71
   256
280
     1
  0
DICTIONARY
  5
D
102
{ACAD_REACTORS
330
C
102
}
330
C
100
AcDbDictionary
281
     1
  0
DICTIONARY
  5
1A
102
{ACAD_REACTORS
330
C
102
}
330
C
100
AcDbDictionary
281
     1
  3
Layout1
350
1E
  3
Layout2
350
26
  3
Model
350
22
  0
DICTIONARY
  5
3B
102
{ACAD_REACTORS
330
C
102
}
330
C
100
AcDbDictionary
281
     1
  3
ByBlock
350
3D
  3
ByLayer
350
3C
  3
Global
350
3E
  0
DICTIONARY
  5
BB
102
{ACAD_REACTORS
330
C
102
}
330
C
100
AcDbDictionary
281
     1
  0
DICTIONARY
  5
17
102
{ACAD_REACTORS
330
C
102
}
330
C
100
AcDbDictionary
281
     1
  3
Standard
350
18
  0
DICTIONARY
  5
19
102
{ACAD_REACTORS
330
C
102
}
330
C
100
AcDbDictionary
281
     1
  0
ACDBDICTIONARYWDFLT
  5
E
102
{ACAD_REACTORS
330
C
102
}
330
C
100
AcDbDictionary
281
     1
  3
Normal
350
F
100
AcDbDictionaryWithDefault
340
F
  0
DICTIONARY
  5
BA
102
{ACAD_REACTORS
330
C
102
}
330
C
100
AcDbDictionary
281
     1
  0
DICTIONARY
  5
2A
102
{ACAD_REACTORS
330
C
102
}
330
C
100
AcDbDictionary
281
     1
  3
2dWireframe
350
2F
  3
3D Hidden
350
31
  3
3dWireframe
350
30
  3
Basic
350
32
  3
Brighten
350
36
  3
ColorChange
350
3A
  3
Conceptual
350
34
  3
Dim
350
35
  3
Facepattern
350
39
  3
Flat
350
2B
  3
FlatWithEdges
350
2C
  3
Gouraud
350
2D
  3
GouraudWithEdges
350
2E
  3
Linepattern
350
38
  3
Realistic
350
33
  3
Thicken
350
37
  0
LAYOUT
  5
1E
102
{ACAD_REACTORS
330
1A
102
}
330
1A
100
AcDbPlotSettings
  1

  2
none_device
  4

  6

 40
0.0
 41
0.0
 42
0.0
 43
0.0
 44
0.0
 45
0.0
 46
0.0
 47
0.0
 48
0.0
 49
0.0
140
0.0
141
0.0
142
1.0
143
1.0
 70
   688
 72
     0
 73
     0
 74
     5
  7

 75
    16
 76
     0
 77
     2
 78
   300
147
1.0
148
0.0
149
0.0
100
AcDbLayout
  1
Layout1
 70
     1
 71
     1
 10
0.0
 20
0.0
 11
12.0
 21
9.0
 12
0.0
 22
0.0
 32
0.0
 14
1.000000000000000E+20
 24
1.000000000000000E+20
 34
1.000000000000000E+20
 15
-1.000000000000000E+20
 25
-1.000000000000000E+20
 35
-1.000000000000000E+20
146
0.0
 13
0.0
 23
0.0
 33
0.0
 16
1.0
 26
0.0
 36
0.0
 17
0.0
 27
1.0
 37
0.0
 76
     0
330
1B
  0
LAYOUT
  5
26
102
{ACAD_REACTORS
330
1A
102
}
330
1A
100
AcDbPlotSettings
  1

  2
none_device
  4

  6

 40
0.0
 41
0.0
 42
0.0
 43
0.0
 44
0.0
 45
0.0
 46
0.0
 47
0.0
 48
0.0
 49
0.0
140
0.0
141
0.0
142
1.0
143
1.0
 70
   688
 72
     0
 73
     0
 74
     5
  7

 75
    16
 76
     0
 77
     2
 78
   300
147
1.0
148
0.0
149
0.0
100
AcDbLayout
  1
Layout2
 70
     1
 71
     2
 10
0.0
 20
0.0
 11
0.0
 21
0.0
 12
0.0
 22
0.0
 32
0.0
 14
0.0
 24
0.0
 34
0.0
 15
0.0
 25
0.0
 35
0.0
146
0.0
 13
0.0
 23
0.0
 33
0.0
 16
1.0
 26
0.0
 36
0.0
 17
0.0
 27
1.0
 37
0.0
 76
     0
330
23
  0
LAYOUT
  5
22
102
{ACAD_REACTORS
330
1A
102
}
330
1A
100
AcDbPlotSettings
  1

  2
none_device
  4

  6

 40
0.0
 41
0.0
 42
0.0
 43
0.0
 44
0.0
 45
0.0
 46
0.0
 47
0.0
 48
0.0
 49
0.0
140
0.0
141
0.0
142
1.0
143
1.0
 70
  1712
 72
     0
 73
     0
 74
     0
  7

 75
     0
 76
     0
 77
     2
 78
   300
147
1.0
148
0.0
149
0.0
100
AcDbLayout
  1
Model
 70
     1
 71
     0
 10
0.0
 20
0.0
 11
12.0
 21
9.0
 12
0.0
 22
0.0
 32
0.0
 14
1.000000000000000E+20
 24
1.000000000000000E+20
 34
1.000000000000000E+20
 15
-1.000000000000000E+20
 25
-1.000000000000000E+20
 35
-1.000000000000000E+20
146
0.0
 13
0.0
 23
0.0
 33
0.0
 16
1.0
 26
0.0
 36
0.0
 17
0.0
 27
1.0
 37
0.0
 76
     0
330
1F
331
29
  0
MATERIAL
  5
3D
102
{ACAD_REACTORS
330
3B
102
}
330
3B
100
AcDbMaterial
  1
ByBlock
 72
     1
 94
      127
  0
MATERIAL
  5
3C
102
{ACAD_REACTORS
330
3B
102
}
330
3B
100
AcDbMaterial
  1
ByLayer
 72
     1
 94
      127
  0
MATERIAL
  5
3E
102
{ACAD_REACTORS
330
3B
102
}
330
3B
100
AcDbMaterial
  1
Global
 72
     1
 94
      127
  0
MLINESTYLE
  5
18
102
{ACAD_REACTORS
330
17
102
}
330
17
100
AcDbMlineStyle
  2
Standard
 70
     0
  3

 62
   256
 51
90.0
 52
90.0
 71
     2
 49
0.5
 62
   256
  6
BYLAYER
 49
-0.5
 62
   256
  6
BYLAYER
  0
ACDBPLACEHOLDER
  5
F
102
{ACAD_REACTORS
330
E
102
}
330
E
  0
VISUALSTYLE
  5
2F
102
{ACAD_REACTORS
330
2A
102
}
330
2A
100
AcDbVisualStyle
  2
2dWireframe
 70
     4
177
     2
291
     0
 71
     0
176
     1
 72
     2
176
     1
 73
     0
176
     1
 90
        0
176
     1
 40
-0.6
176
     1
 41
-30.0
176
     1
 62
     5
 63
     7
421
 16777215
176
     1
 74
     1
176
     1
 91
        4
176
     1
 64
     7
176
     1
 65
   257
176
     1
 75
     1
176
     1
175
     1
176
     1
 42
1.0
176
     1
 92
        0
176
     1
 66
   257
176
     1
 43
1.0
176
     1
 76
     1
176
     1
 77
     6
176
     1
 78
     2
176
     1
 67
     7
176
     1
 79
     5
176
     1
170
     0
176
     1
171
     0
176
     1
290
     0
176
     1
 93
        1
176
     1
 44
0.0
176
     1
173
     0
176
     1
  0
VISUALSTYLE
  5
31
102
{ACAD_REACTORS
330
2A
102
}
330
2A
100
AcDbVisualStyle
  2
3D Hidden
 70
     6
177
     2
291
     0
 71
     1
176
     1
 72
     2
176
     1
 73
     2
176
     1
 90
        0
176
     1
 40
-0.6
176
     1
 41
-30.0
176
     1
 62
     5
 63
     7
421
 16777215
176
     1
 74
     2
176
     1
 91
        2
176
     1
 64
     7
176
     1
 65
   257
176
     1
 75
     2
176
     1
175
     1
176
     1
 42
40.0
176
     1
 92
        0
176
     1
 66
   257
176
     1
 43
1.0
176
     1
 76
     1
176
     1
 77
     6
176
     1
 78
     2
176
     1
 67
     7
176
     1
 79
     3
176
     1
170
     0
176
     1
171
     0
176
     1
290
     0
176
     1
 93
        1
176
     1
 44
0.0
176
     1
173
     0
176
     1
  0
VISUALSTYLE
  5
30
102
{ACAD_REACTORS
330
2A
102
}
330
2A
100
AcDbVisualStyle
  2
3dWireframe
 70
     5
177
     2
291
     0
 71
     0
176
     1
 72
     2
176
     1
 73
     0
176
     1
 90
        0
176
     1
 40
-0.6
176
     1
 41
-30.0
176
     1
 62
     5
 63
     7
421
 16777215
176
     1
 74
     1
176
     1
 91
        4
176
     1
 64
     7
176
     1
 65
   257
176
     1
 75
     1
176
     1
175
     1
176
     1
 42
1.0
176
     1
 92
        0
176
     1
 66
   257
176
     1
 43
1.0
176
     1
 76
     1
176
     1
 77
     6
176
     1
 78
     2
176
     1
 67
     7
176
     1
 79
     5
176
     1
170
     0
176
     1
171
     0
176
     1
290
     0
176
     1
 93
        1
176
     1
 44
0.0
176
     1
173
     0
176
     1
  0
VISUALSTYLE
  5
32
102
{ACAD_REACTORS
330
2A
102
}
330
2A
100
AcDbVisualStyle
  2
Basic
 70
     7
177
     2
291
     1
 71
     1
176
     1
 72
     0
176
     1
 73
     1
176
     1
 90
        0
176
     1
 40
-0.6
176
     1
 41
-30.0
176
     1
 62
     5
 63
     7
421
 16777215
176
     1
 74
     0
176
     1
 91
        4
176
     1
 64
     7
176
     1
 65
   257
176
     1
 75
     1
176
     1
175
     1
176
     1
 42
1.0
176
     1
 92
        8
176
     1
 66
     7
176
     1
 43
1.0
176
     1
 76
     1
176
     1
 77
     6
176
     1
 78
     2
176
     1
 67
     7
176
     1
 79
     5
176
     1
170
     0
176
     1
171
     0
176
     1
290
     0
176
     1
 93
        1
176
     1
 44
0.0
176
     1
173
     0
176
     1
  0
VISUALSTYLE
  5
36
102
{ACAD_REACTORS
330
2A
102
}
330
2A
100
AcDbVisualStyle
  2
Brighten
 70
    12
177
     2
291
     1
 71
     2
176
     1
 72
     2
176
     1
 73
     0
176
     1
 90
        0
176
     1
 40
-0.6
176
     1
 41
-30.0
176
     1
 62
     5
 63
     7
421
 16777215
176
     1
 74
     1
176
     1
 91
        4
176
     1
 64
     7
176
     1
 65
   257
176
     1
 75
     1
176
     1
175
     1
176
     1
 42
1.0
176
     1
 92
        8
176
     1
 66
     7
176
     1
 43
1.0
176
     1
 76
     1
176
     1
 77
     6
176
     1
 78
     2
176
     1
 67
     7
176
     1
 79
     5
176
     1
170
     0
176
     1
171
     0
176
     1
290
     0
176
     1
 93
        1
176
     1
 44
50.0
176
     1
173
     0
176
     1
  0
VISUALSTYLE
  5
3A
102
{ACAD_REACTORS
330
2A
102
}
330
2A
100
AcDbVisualStyle
  2
ColorChange
 70
    16
177
     2
291
     1
 71
     2
176
     1
 72
     2
176
     1
 73
     3
176
     1
 90
        0
176
     1
 40
-0.6
176
     1
 41
-30.0
176
     1
 62
     5
 63
     8
421
  8421504
176
     1
 74
     1
176
     1
 91
        4
176
     1
 64
     7
176
     1
 65
   257
176
     1
 75
     1
176
     1
175
     1
176
     1
 42
1.0
176
     1
 92
        8
176
     1
 66
     8
424
  8421504
176
     1
 43
1.0
176
     1
 76
     1
176
     1
 77
     6
176
     1
 78
     2
176
     1
 67
     7
176
     1
 79
     5
176
     1
170
     0
176
     1
171
     0
176
     1
290
     0
176
     1
 93
        1
176
     1
 44
0.0
176
     1
173
     0
176
     1
  0
VISUALSTYLE
  5
34
102
{ACAD_REACTORS
330
2A
102
}
330
2A
100
AcDbVisualStyle
  2
Conceptual
 70
     9
177
     2
291
     0
 71
     3
176
     1
 72
     2
176
     1
 73
     0
176
     1
 90
        0
176
     1
 40
-0.6
176
     1
 41
-30.0
176
     1
 62
     5
 63
     7
421
 16777215
176
     1
 74
     2
176
     1
 91
        2
176
     1
 64
     7
176
     1
 65
   257
176
     1
 75
     1
176
     1
175
     1
176
     1
 42
40.0
176
     1
 92
        8
176
     1
 66
     7
176
     1
 43
1.0
176
     1
 76
     1
176
     1
 77
     6
176
     1
 78
     2
176
     1
 67
     7
176
     1
 79
     3
176
     1
170
     0
176
     1
171
     0
176
     1
290
     0
176
     1
 93
        1
176
     1
 44
0.0
176
     1
173
     0
176
     1
  0
VISUALSTYLE
  5
35
102
{ACAD_REACTORS
330
2A
102
}
330
2A
100
AcDbVisualStyle
  2
Dim
 70
    11
177
     2
291
     1
 71
     2
176
     1
 72
     2
176
     1
 73
     0
176
     1
 90
        0
176
     1
 40
-0.6
176
     1
 41
-30.0
176
     1
 62
     5
 63
     7
421
 16777215
176
     1
 74
     1
176
     1
 91
        4
176
     1
 64
     7
176
     1
 65
   257
176
     1
 75
     1
176
     1
175
     1
176
     1
 42
1.0
176
     1
 92
        8
176
     1
 66
     7
176
     1
 43
1.0
176
     1
 76
     1
176
     1
 77
     6
176
     1
 78
     2
176
     1
 67
     7
176
     1
 79
     5
176
     1
170
     0
176
     1
171
     0
176
     1
290
     0
176
     1
 93
        1
176
     1
 44
-50.0
176
     1
173
     0
176
     1
  0
VISUALSTYLE
  5
39
102
{ACAD_REACTORS
330
2A
102
}
330
2A
100
AcDbVisualStyle
  2
Facepattern
 70
    15
177
     2
291
     1
 71
     2
176
     1
 72
     2
176
     1
 73
     0
176
     1
 90
        0
176
     1
 40
-0.6
176
     1
 41
-30.0
176
     1
 62
     5
 63
     7
421
 16777215
176
     1
 74
     1
176
     1
 91
        4
176
     1
 64
     7
176
     1
 65
   257
176
     1
 75
     1
176
     1
175
     1
176
     1
 42
1.0
176
     1
 92
        8
176
     1
 66
     7
176
     1
 43
1.0
176
     1
 76
     1
176
     1
 77
     6
176
     1
 78
     2
176
     1
 67
     7
176
     1
 79
     5
176
     1
170
     0
176
     1
171
     0
176
     1
290
     0
176
     1
 93
        1
176
     1
 44
0.0
176
     1
173
     0
176
     1
  0
VISUALSTYLE
  5
2B
102
{ACAD_REACTORS
330
2A
102
}
330
2A
100
AcDbVisualStyle
  2
Flat
 70
     0
177
     2
291
     1
 71
     2
176
     1
 72
     1
176
     1
 73
     1
176
     1
 90
        2
176
     1
 40
-0.6
176
     1
 41
30.0
176
     1
 62
     5
 63
     7
421
 16777215
176
     1
 74
     0
176
     1
 91
        4
176
     1
 64
     7
176
     1
 65
   257
176
     1
 75
     1
176
     1
175
     1
176
     1
 42
1.0
176
     1
 92
        8
176
     1
 66
     7
176
     1
 43
1.0
176
     1
 76
     1
176
     1
 77
     6
176
     1
 78
     2
176
     1
 67
     7
176
     1
 79
     5
176
     1
170
     0
176
     1
171
     0
176
     1
290
     0
176
     1
 93
       13
176
     1
 44
0.0
176
     1
173
     0
176
     1
  0
VISUALSTYLE
  5
2C
102
{ACAD_REACTORS
330
2A
102
}
330
2A
100
AcDbVisualStyle
  2
FlatWithEdges
 70
     1
177
     2
291
     1
 71
     2
176
     1
 72
     1
176
     1
 73
     1
176
     1
 90
        2
176
     1
 40
-0.6
176
     1
 41
30.0
176
     1
 62
     5
 63
     7
421
 16777215
176
     1
 74
     1
176
     1
 91
        4
176
     1
 64
     7
176
     1
 65
   257
176
     1
 75
     1
176
     1
175
     1
176
     1
 42
1.0
176
     1
 92
        0
176
     1
 66
   257
176
     1
 43
1.0
176
     1
 76
     1
176
     1
 77
     6
176
     1
 78
     2
176
     1
 67
     7
176
     1
 79
     5
176
     1
170
     0
176
     1
171
     0
176
     1
290
     0
176
     1
 93
       13
176
     1
 44
0.0
176
     1
173
     0
176
     1
  0
VISUALSTYLE
  5
2D
102
{ACAD_REACTORS
330
2A
102
}
330
2A
100
AcDbVisualStyle
  2
Gouraud
 70
     2
177
     2
291
     1
 71
     2
176
     1
 72
     2
176
     1
 73
     1
176
     1
 90
        2
176
     1
 40
-0.6
176
     1
 41
30.0
176
     1
 62
     5
 63
     7
421
 16777215
176
     1
 74
     0
176
     1
 91
        4
176
     1
 64
     7
176
     1
 65
   257
176
     1
 75
     1
176
     1
175
     1
176
     1
 42
1.0
176
     1
 92
        0
176
     1
 66
     7
176
     1
 43
1.0
176
     1
 76
     1
176
     1
 77
     6
176
     1
 78
     2
176
     1
 67
     7
176
     1
 79
     5
176
     1
170
     0
176
     1
171
     0
176
     1
290
     0
176
     1
 93
       13
176
     1
 44
0.0
176
     1
173
     0
176
     1
  0
VISUALSTYLE
  5
2E
102
{ACAD_REACTORS
330
2A
102
}
330
2A
100
AcDbVisualStyle
  2
GouraudWithEdges
 70
     3
177
     2
291
     1
 71
     2
176
     1
 72
     2
176
     1
 73
     1
176
     1
 90
        2
176
     1
 40
-0.6
176
     1
 41
30.0
176
     1
 62
     5
 63
     7
421
 16777215
176
     1
 74
     1
176
     1
 91
        4
176
     1
 64
     7
176
     1
 65
   257
176
     1
 75
     1
176
     1
175
     1
176
     1
 42
1.0
176
     1
 92
        0
176
     1
 66
   257
176
     1
 43
1.0
176
     1
 76
     1
176
     1
 77
     6
176
     1
 78
     2
176
     1
 67
     7
176
     1
 79
     5
176
     1
170
     0
176
     1
171
     0
176
     1
290
     0
176
     1
 93
       13
176
     1
 44
0.0
176
     1
173
     0
176
     1
  0
VISUALSTYLE
  5
38
102
{ACAD_REACTORS
330
2A
102
}
330
2A
100
AcDbVisualStyle
  2
Linepattern
 70
    14
177
     2
291
     1
 71
     2
176
     1
 72
     2
176
     1
 73
     0
176
     1
 90
        0
176
     1
 40
-0.6
176
     1
 41
-30.0
176
     1
 62
     5
 63
     7
421
 16777215
176
     1
 74
     1
176
     1
 91
        4
176
     1
 64
     7
176
     1
 65
   257
176
     1
 75
     7
176
     1
175
     7
176
     1
 42
1.0
176
     1
 92
        8
176
     1
 66
     7
176
     1
 43
1.0
176
     1
 76
     1
176
     1
 77
     6
176
     1
 78
     2
176
     1
 67
     7
176
     1
 79
     5
176
     1
170
     0
176
     1
171
     0
176
     1
290
     0
176
     1
 93
        1
176
     1
 44
0.0
176
     1
173
     0
176
     1
  0
VISUALSTYLE
  5
33
102
{ACAD_REACTORS
330
2A
102
}
330
2A
100
AcDbVisualStyle
  2
Realistic
 70
     8
177
     2
291
     0
 71
     2
176
     1
 72
     2
176
     1
 73
     0
176
     1
 90
        0
176
     1
 40
-0.6
176
     1
 41
-30.0
176
     1
 62
     5
 63
     7
421
 16777215
176
     1
 74
     1
176
     1
 91
        0
176
     1
 64
     7
176
     1
 65
   257
176
     1
 75
     1
176
     1
175
     1
176
     1
 42
1.0
176
     1
 92
        8
176
     1
 66
     8
424
  7895160
176
     1
 43
1.0
176
     1
 76
     1
176
     1
 77
     6
176
     1
 78
     2
176
     1
 67
     7
176
     1
 79
     5
176
     1
170
     0
176
     1
171
     0
176
     1
290
     0
176
     1
 93
       13
176
     1
 44
0.0
176
     1
173
     0
176
     1
  0
VISUALSTYLE
  5
37
102
{ACAD_REACTORS
330
2A
102
}
330
2A
100
AcDbVisualStyle
  2
Thicken
 70
    13
177
     2
291
     1
 71
     2
176
     1
 72
     2
176
     1
 73
     0
176
     1
 90
        0
176
     1
 40
-0.6
176
     1
 41
-30.0
176
     1
 62
     5
 63
     7
421
 16777215
176
     1
 74
     1
176
     1
 91
        4
176
     1
 64
     7
176
     1
 65
   257
176
     1
 75
     1
176
     1
175
     1
176
     1
 42
1.0
176
     1
 92
       12
176
     1
 66
     7
176
     1
 43
1.0
176
     1
 76
     1
176
     1
 77
     6
176
     1
 78
     2
176
     1
 67
     7
176
     1
 79
     5
176
     1
170
     0
176
     1
171
     0
176
     1
290
     0
176
     1
 93
        1
176
     1
 44
0.0
176
     1
173
     0
176
     1
  0
ENDSEC
  0
EOF
