  0
SECTION
  2
HEADER
  9
$ACADVER
  1
AC1024
  9
$ACADMAINTVER
 70
     6
  9
$DWGCODEPAGE
  3
UNDEFINED
  9
$INSBASE
 10
0.0
 20
0.0
 30
0.0
  9
$EXTMIN
 10
1.000000000000000E+20
 20
1.000000000000000E+20
 30
1.000000000000000E+20
  9
$EXTMAX
 10
-1.000000000000000E+20
 20
-1.000000000000000E+20
 30
-1.000000000000000E+20
  9
$LIMMIN
 10
0.0
 20
0.0
  9
$LIMMAX
 10
12.0
 20
9.0
  9
$ORTHOMODE
 70
     0
  9
$REGENMODE
 70
     1
  9
$FILLMODE
 70
     1
  9
$QTEXTMODE
 70
     0
  9
$MIRRTEXT
 70
     1
  9
$LTSCALE
 40
1.0
  9
$ATTMODE
 70
     1
  9
$TEXTSIZE
 40
0.2
  9
$TRACEWID
 40
0.05
  9
$TEXTSTYLE
  7
Standard
  9
$CLAYER
  8
0
  9
$CELTYPE
  6
ByLayer
  9
$CECOLOR
 62
   256
  9
$CELTSCALE
 40
1.0
  9
$DISPSILH
 70
     0
  9
$DIMSCALE
 40
1.0
  9
$DIMASZ
 40
0.18
  9
$DIMEXO
 40
0.0625
  9
$DIMDLI
 40
0.38
  9
$DIMRND
 40
0.0
  9
$DIMDLE
 40
0.0
  9
$DIMEXE
 40
0.18
  9
$DIMTP
 40
0.0
  9
$DIMTM
 40
0.0
  9
$DIMTXT
 40
0.18
  9
$DIMCEN
 40
0.09
  9
$DIMTSZ
 40
0.0
  9
$DIMTOL
 70
     0
  9
$DIMLIM
 70
     0
  9
$DIMTIH
 70
     1
  9
$DIMTOH
 70
     1
  9
$DIMSE1
 70
     0
  9
$DIMSE2
 70
     0
  9
$DIMTAD
 70
     0
  9
$DIMZIN
 70
     0
  9
$DIMBLK
  1

  9
$DIMASO
 70
     1
  9
$DIMSHO
 70
     1
  9
$DIMPOST
  1

  9
$DIMAPOST
  1

  9
$DIMALT
 70
     0
  9
$DIMALTD
 70
     2
  9
$DIMALTF
 40
25.4
  9
$DIMLFAC
 40
1.0
  9
$DIMTOFL
 70
     0
  9
$DIMTVP
 40
0.0
  9
$DIMTIX
 70
     0
  9
$DIMSOXD
 70
     0
  9
$DIMSAH
 70
     0
  9
$DIMBLK1
  1

  9
$DIMBLK2
  1

  9
$DIMSTYLE
  2
Standard
  9
$DIMCLRD
 70
     0
  9
$DIMCLRE
 70
     0
  9
$DIMCLRT
 70
     0
  9
$DIMTFAC
 40
1.0
  9
$DIMGAP
 40
0.09
  9
$DIMJUST
 70
     0
  9
$DIMSD1
 70
     0
  9
$DIMSD2
 70
     0
  9
$DIMTOLJ
 70
     1
  9
$DIMTZIN
 70
     0
  9
$DIMALTZ
 70
     0
  9
$DIMALTTZ
 70
     0
  9
$DIMUPT
 70
     0
  9
$DIMDEC
 70
     4
  9
$DIMTDEC
 70
     4
  9
$DIMALTU
 70
     2
  9
$DIMALTTD
 70
     2
  9
$DIMTXSTY
  7
Standard
  9
$DIMAUNIT
 70
     0
  9
$DIMADEC
 70
     0
  9
$DIMALTRND
 40
0.0
  9
$DIMAZIN
 70
     0
  9
$DIMDSEP
 70
    46
  9
$DIMATFIT
 70
     3
  9
$DIMFRAC
 70
     0
  9
$DIMLDRBLK
  1

  9
$DIMLUNIT
 70
     2
  9
$DIMLWD
 70
    -2
  9
$DIMLWE
 70
    -2
  9
$DIMTMOVE
 70
     0
  9
$DIMFXL
 40
1.0
  9
$DIMFXLON
 70
     0
  9
$DIMJOGANG
 40
0.7853981633974483
  9
$DIMTFILL
 70
     0
  9
$DIMTFILLCLR
 70
     0
  9
$DIMARCSYM
 70
     0
  9
$DIMLTYPE
  6

  9
$DIMLTEX1
  6

  9
$DIMLTEX2
  6

  9
$DIMTXTDIRECTION
 70
     0
  9
$LUNITS
 70
     2
  9
$LUPREC
 70
     4
  9
$SKETCHINC
 40
0.1
  9
$FILLETRAD
 40
0.5
  9
$AUNITS
 70
     0
  9
$AUPREC
 70
     0
  9
$MENU
  1
.
  9
$ELEVATION
 40
0.0
  9
$PELEVATION
 40
0.0
  9
$THICKNESS
 40
0.0
  9
$LIMCHECK
 70
     0
  9
$CHAMFERA
 40
0.5
  9
$CHAMFERB
 40
0.5
  9
$CHAMFERC
 40
1.0
  9
$CHAMFERD
 40
0.0
  9
$SKPOLY
 70
     0
  9
$TDCREATE
 40
2457917.638773137
  9
$TDUCREATE
 40
2457917.263773148
  9
$TDUPDATE
 40
2457917.638773137
  9
$TDUUPDATE
 40
2457917.263773148
  9
$TDINDWG
 40
0.0000000116
  9
$TDUSRTIMER
 40
0.0000000116
  9
$USRTIMER
 70
     1
  9
$ANGBASE
 50
0.0
  9
$ANGDIR
 70
     0
  9
$PDMODE
 70
     0
  9
$PDSIZE
 40
0.0
  9
$PLINEWID
 40
0.0
  9
$SPLFRAME
 70
     0
  9
$SPLINETYPE
 70
     6
  9
$SPLINESEGS
 70
     8
  9
$HANDSEED
  5
1B7
  9
$SURFTAB1
 70
     6
  9
$SURFTAB2
 70
     6
  9
$SURFTYPE
 70
     6
  9
$SURFU
 70
     6
  9
$SURFV
 70
     6
  9
$UCSBASE
  2

  9
$UCSNAME
  2

  9
$UCSORG
 10
0.0
 20
0.0
 30
0.0
  9
$UCSXDIR
 10
1.0
 20
0.0
 30
0.0
  9
$UCSYDIR
 10
0.0
 20
1.0
 30
0.0
  9
$UCSORTHOREF
  2

  9
$UCSORTHOVIEW
 70
     0
  9
$UCSORGTOP
 10
0.0
 20
0.0
 30
0.0
  9
$UCSORGBOTTOM
 10
0.0
 20
0.0
 30
0.0
  9
$UCSORGLEFT
 10
0.0
 20
0.0
 30
0.0
  9
$UCSORGRIGHT
 10
0.0
 20
0.0
 30
0.0
  9
$UCSORGFRONT
 10
0.0
 20
0.0
 30
0.0
  9
$UCSORGBACK
 10
0.0
 20
0.0
 30
0.0
  9
$PUCSBASE
  2

  9
$PUCSNAME
  2

  9
$PUCSORG
 10
0.0
 20
0.0
 30
0.0
  9
$PUCSXDIR
 10
1.0
 20
0.0
 30
0.0
  9
$PUCSYDIR
 10
0.0
 20
1.0
 30
0.0
  9
$PUCSORTHOREF
  2

  9
$PUCSORTHOVIEW
 70
     0
  9
$PUCSORGTOP
 10
0.0
 20
0.0
 30
0.0
  9
$PUCSORGBOTTOM
 10
0.0
 20
0.0
 30
0.0
  9
$PUCSORGLEFT
 10
0.0
 20
0.0
 30
0.0
  9
$PUCSORGRIGHT
 10
0.0
 20
0.0
 30
0.0
  9
$PUCSORGFRONT
 10
0.0
 20
0.0
 30
0.0
  9
$PUCSORGBACK
 10
0.0
 20
0.0
 30
0.0
  9
$USERI1
 70
     0
  9
$USERI2
 70
     0
  9
$USERI3
 70
     0
  9
$USERI4
 70
     0
  9
$USERI5
 70
     0
  9
$USERR1
 40
0.0
  9
$USERR2
 40
0.0
  9
$USERR3
 40
0.0
  9
$USERR4
 40
0.0
  9
$USERR5
 40
0.0
  9
$WORLDVIEW
 70
     1
  9
$SHADEDGE
 70
     3
  9
$SHADEDIF
 70
    70
  9
$TILEMODE
 70
     1
  9
$MAXACTVP
 70
    64
  9
$PINSBASE
 10
0.0
 20
0.0
 30
0.0
  9
$PLIMCHECK
 70
     0
  9
$PEXTMIN
 10
1.000000000000000E+20
 20
1.000000000000000E+20
 30
1.000000000000000E+20
  9
$PEXTMAX
 10
-1.000000000000000E+20
 20
-1.000000000000000E+20
 30
-1.000000000000000E+20
  9
$PLIMMIN
 10
0.0
 20
0.0
  9
$PLIMMAX
 10
12.0
 20
9.0
  9
$UNITMODE
 70
     0
  9
$VISRETAIN
 70
     1
  9
$PLINEGEN
 70
     0
  9
$PSLTSCALE
 70
     1
  9
$TREEDEPTH
 70
  3020
  9
$CMLSTYLE
  2
Standard
  9
$CMLJUST
 70
     0
  9
$CMLSCALE
 40
1.0
  9
$PROXYGRAPHICS
 70
     1
  9
$MEASUREMENT
 70
     0
  9
$CELWEIGHT
370
    -1
  9
$ENDCAPS
280
     0
  9
$JOINSTYLE
280
     0
  9
$LWDISPLAY
290
     1
  9
$INSUNITS
 70
     1
  9
$HYPERLINKBASE
  1

  9
$STYLESHEET
  1

  9
$XEDIT
290
     1
  9
$CEPSNTYPE
380
     0
  9
$PSTYLEMODE
290
     1
  9
$FINGERPRINTGUID
  2
{9EF5F198-DFDF-35F6-5C52-0546759ADB9D}
  9
$VERSIONGUID
  2
{FAEB1C32-E019-11D5-929B-00C0DF256EC4}
  9
$EXTNAMES
290
     1
  9
$PSVPSCALE
 40
0.0
  9
$OLESTARTUP
290
     0
  9
$SORTENTS
280
   127
  9
$INDEXCTL
280
     0
  9
$HIDETEXT
280
     1
  9
$XCLIPFRAME
280
     2
  9
$HALOGAP
280
     0
  9
$OBSCOLOR
 70
   257
  9
$OBSLTYPE
280
     0
  9
$INTERSECTIONDISPLAY
280
     0
  9
$INTERSECTIONCOLOR
 70
   257
  9
$DIMASSOC
280
     2
  9
$PROJECTNAME
  1

  9
$CAMERADISPLAY
290
     0
  9
$LENSLENGTH
 40
50.0
  9
$CAMERAHEIGHT
 40
0.0
  9
$STEPSPERSEC
 40
2.0
  9
$STEPSIZE
 40
6.0
  9
$3DDWFPREC
 40
2.0
  9
$PSOLWIDTH
 40
0.25
  9
$PSOLHEIGHT
 40
4.0
  9
$LOFTANG1
 40
1.570796326794897
  9
$LOFTANG2
 40
1.570796326794897
  9
$LOFTMAG1
 40
0.0
  9
$LOFTMAG2
 40
0.0
  9
$LOFTPARAM
 70
     7
  9
$LOFTNORMALS
280
     1
  9
$LATITUDE
 40
37.795
  9
$LONGITUDE
 40
-122.394
  9
$NORTHDIRECTION
 40
0.0
  9
$TIMEZONE
 70
 -8000
  9
$LIGHTGLYPHDISPLAY
280
     1
  9
$TILEMODELIGHTSYNCH
280
     1
  9
$CMATERIAL
347
3C
  9
$SOLIDHIST
280
     1
  9
$SHOWHIST
280
     1
  9
$DWFFRAME
280
     2
  9
$DGNFRAME
280
     2
  9
$REALWORLDSCALE
290
     1
  9
$INTERFERECOLOR
 62
   256
  9
$CSHADOW
280
     0
  9
$SHADOWPLANELOCATION
 40
0.0
  0
ENDSEC
  0
SECTION
  2
CLASSES
  0
CLASS
  1
ACDBDICTIONARYWDFLT
  2
AcDbDictionaryWithDefault
  3
ObjectDBX Classes
 90
        0
 91
        4
280
     0
281
     0
  0
CLASS
  1
VISUALSTYLE
  2
AcDbVisualStyle
  3
ObjectDBX Classes
 90
     4095
 91
        4
280
     0
281
     0
  0
CLASS
  1
MATERIAL
  2
AcDbMaterial
  3
ObjectDBX Classes
 90
     1153
 91
        4
280
     0
281
     0
  0
CLASS
  1
SUN
  2
AcDbSun
  3
SCENEOE
 90
     1024
 91
        4
280
     0
281
     0
  0
ENDSEC
  0
SECTION
  2
TABLES
  0
TABLE
  2
VPORT
  5
8
330
0
100
AcDbSymbolTable
 70
     1
  0
VPORT
  5
29
330
8
100
AcDbSymbolTableRecord
100
AcDbViewportTableRecord
  2
*Active
 70
     0
 10
0.0
 20
0.0
 11
1.0
 21
1.0
 12
0.0
 22
0.0
 13
0.0
 23
0.0
 14
0.5
 24
0.5
 15
0.5
 25
0.5
 16
0.0
 26
0.0
 36
1.0
 17
91.00082462281999
 27
-128.4993055234307
 37
0.0
 40
256.9986110468615
 41
0.7081814508812795
 42
50.0
 43
0.0
 44
0.0
 50
0.0
 51
0.0
 71
     0
 72
   100
 73
     1
 74
     3
 75
     0
 76
     0
 77
     0
 78
     0
281
     0
 65
     1
110
0.0
120
0.0
130
0.0
111
1.0
121
0.0
131
0.0
112
0.0
122
1.0
132
0.0
 79
     0
146
0.0
 60
     3
 61
     5
292
     1
282
     1
141
0.0
142
0.0
 63
   250
361
3F
  0
ENDTAB
  0
TABLE
  2
LTYPE
  5
5
330
0
100
AcDbSymbolTable
 70
     2
  0
LTYPE
  5
14
330
5
100
AcDbSymbolTableRecord
100
AcDbLinetypeTableRecord
  2
ByBlock
 70
     0
  3

 72
    65
 73
     0
 40
0.0
  0
LTYPE
  5
15
330
5
100
AcDbSymbolTableRecord
100
AcDbLinetypeTableRecord
  2
ByLayer
 70
     0
  3

 72
    65
 73
     0
 40
0.0
  0
LTYPE
  5
16
330
5
100
AcDbSymbolTableRecord
100
AcDbLinetypeTableRecord
  2
Continuous
 70
     0
  3
Solid line
 72
    65
 73
     0
 40
0.0
  0
LTYPE
  5
4C
330
5
100
AcDbSymbolTableRecord
100
AcDbLinetypeTableRecord
  2
AI-Linetype-1
 70
     0
  3
Adobe Illustrator Linetype No. 1
 72
    65
 73
     4
 40
2.1166666661375
 49
1.05833333306875
 74
     0
 49
-0.3527777776895833
 74
     0
 49
0.3527777776895833
 74
     0
 49
-0.3527777776895833
 74
     0
  0
ENDTAB
  0
TABLE
  2
LAYER
  5
2
330
0
100
AcDbSymbolTable
 70
     2
  0
LAYER
  5
10
330
2
100
AcDbSymbolTableRecord
100
AcDbLayerTableRecord
  2
0
 70
     0
 62
     7
  6
Continuous
370
    -3
390
F
347
3E
  0
LAYER
  5
40
330
2
100
AcDbSymbolTableRecord
100
AcDbLayerTableRecord
  2
_U+30EC_U+30A4_U+30E4_U+30FC 1
 70
     0
 62
     7
  6
Continuous
370
    -3
390
F
347
3E
  0
ENDTAB
  0
TABLE
  2
STYLE
  5
3
330
0
100
AcDbSymbolTable
 70
     1
  0
STYLE
  5
11
330
3
100
AcDbSymbolTableRecord
100
AcDbTextStyleTableRecord
  2
Standard
 70
     0
 40
0.0
 41
1.0
 50
0.0
 71
     0
 42
0.2
  3
txt
  4

  0
ENDTAB
  0
TABLE
  2
VIEW
  5
6
330
0
100
AcDbSymbolTable
 70
     0
  0
ENDTAB
  0
TABLE
  2
UCS
  5
7
330
0
100
AcDbSymbolTable
 70
     0
  0
ENDTAB
  0
TABLE
  2
APPID
  5
9
330
0
100
AcDbSymbolTable
 70
     1
  0
APPID
  5
12
330
9
100
AcDbSymbolTableRecord
100
AcDbRegAppTableRecord
  2
ACAD
 70
     0
  0
ENDTAB
  0
TABLE
  2
DIMSTYLE
  5
A
330
0
100
AcDbSymbolTable
 70
     1
100
AcDbDimStyleTable
  0
DIMSTYLE
105
27
330
A
100
AcDbSymbolTableRecord
100
AcDbDimStyleTableRecord
  2
Standard
 70
     0
178
     0
340
11
  0
ENDTAB
  0
TABLE
  2
BLOCK_RECORD
  5
1
330
0
100
AcDbSymbolTable
 70
    13
  0
BLOCK_RECORD
  5
1F
330
1
100
AcDbSymbolTableRecord
100
AcDbBlockTableRecord
  2
*Model_Space
340
22
 70
     0
280
     1
281
     0
  0
BLOCK_RECORD
  5
1B
330
1
100
AcDbSymbolTableRecord
100
AcDbBlockTableRecord
  2
*Paper_Space
340
1E
 70
     0
280
     1
281
     0
  0
BLOCK_RECORD
  5
23
330
1
100
AcDbSymbolTableRecord
100
AcDbBlockTableRecord
  2
*Paper_Space0
340
26
 70
     0
280
     1
281
     0
  0
BLOCK_RECORD
  5
74
330
1
100
AcDbSymbolTableRecord
100
AcDbBlockTableRecord
  2
block 2
340
0
102
{BLKREFS
331
75
102
}
 70
     0
280
     1
281
     0
  0
BLOCK_RECORD
  5
86
330
1
100
AcDbSymbolTableRecord
100
AcDbBlockTableRecord
  2
block 3
340
0
102
{BLKREFS
331
87
102
}
 70
     0
280
     1
281
     0
  0
BLOCK_RECORD
  5
96
330
1
100
AcDbSymbolTableRecord
100
AcDbBlockTableRecord
  2
block 4
340
0
102
{BLKREFS
331
97
102
}
 70
     0
280
     1
281
     0
  0
BLOCK_RECORD
  5
B9
330
1
100
AcDbSymbolTableRecord
100
AcDbBlockTableRecord
  2
block 5
340
0
102
{BLKREFS
331
BA
102
}
 70
     0
280
     1
281
     0
  0
BLOCK_RECORD
  5
DA
330
1
100
AcDbSymbolTableRecord
100
AcDbBlockTableRecord
  2
block 6
340
0
102
{BLKREFS
331
DB
102
}
 70
     0
280
     1
281
     0
  0
BLOCK_RECORD
  5
E6
330
1
100
AcDbSymbolTableRecord
100
AcDbBlockTableRecord
  2
block 7
340
0
102
{BLKREFS
331
E7
102
}
 70
     0
280
     1
281
     0
  0
BLOCK_RECORD
  5
EC
330
1
100
AcDbSymbolTableRecord
100
AcDbBlockTableRecord
  2
block 8
340
0
102
{BLKREFS
331
ED
102
}
 70
     0
280
     1
281
     0
  0
BLOCK_RECORD
  5
116
330
1
100
AcDbSymbolTableRecord
100
AcDbBlockTableRecord
  2
block 9
340
0
102
{BLKREFS
331
117
102
}
 70
     0
280
     1
281
     0
  0
BLOCK_RECORD
  5
126
330
1
100
AcDbSymbolTableRecord
100
AcDbBlockTableRecord
  2
block 10
340
0
102
{BLKREFS
331
127
102
}
 70
     0
280
     1
281
     0
  0
BLOCK_RECORD
  5
149
330
1
100
AcDbSymbolTableRecord
100
AcDbBlockTableRecord
  2
block 11
340
0
102
{BLKREFS
331
14A
102
}
 70
     0
280
     1
281
     0
  0
BLOCK_RECORD
  5
15B
330
1
100
AcDbSymbolTableRecord
100
AcDbBlockTableRecord
  2
block 12
340
0
102
{BLKREFS
331
15C
102
}
 70
     0
280
     1
281
     0
  0
BLOCK_RECORD
  5
179
330
1
100
AcDbSymbolTableRecord
100
AcDbBlockTableRecord
  2
block 13
340
0
102
{BLKREFS
331
17A
102
}
 70
     0
280
     1
281
     0
  0
ENDTAB
  0
ENDSEC
  0
SECTION
  2
BLOCKS
  0
BLOCK
  5
20
330
1F
100
AcDbEntity
  8
0
100
AcDbBlockBegin
  2
*Model_Space
 70
     0
 10
0.0
 20
0.0
 30
0.0
  3
*Model_Space
  1

  0
ENDBLK
  5
21
330
1F
100
AcDbEntity
  8
0
100
AcDbBlockEnd
  0
BLOCK
  5
1C
330
1B
100
AcDbEntity
 67
     1
  8
0
100
AcDbBlockBegin
  2
*Paper_Space
 70
     0
 10
0.0
 20
0.0
 30
0.0
  3
*Paper_Space
  1

  0
ENDBLK
  5
1D
330
1B
100
AcDbEntity
 67
     1
  8
0
100
AcDbBlockEnd
  0
BLOCK
  5
24
330
23
100
AcDbEntity
  8
0
100
AcDbBlockBegin
  2
*Paper_Space0
 70
     0
 10
0.0
 20
0.0
 30
0.0
  3
*Paper_Space0
  1

  0
ENDBLK
  5
25
330
23
100
AcDbEntity
  8
0
100
AcDbBlockEnd
  0
BLOCK
  5
76
330
74
100
AcDbEntity
  8
0
100
AcDbBlockBegin
  2
block 2
 70
     0
 10
0.0
 20
0.0
 30
0.0
  3
block 2
  1

  0
SPLINE
  5
78
330
74
100
AcDbEntity
  8
_U+30EC_U+30A4_U+30E4_U+30FC 1
370
     0
100
AcDbSpline
210
0.0
220
0.0
230
1.0
 70
    11
 71
     3
 72
    26
 73
    22
 74
     0
 42
0.0000000001
 43
0.0000000001
 12
1.0
 22
0.0
 32
0.0
 13
1.0
 23
0.0
 33
0.0
 40
0.0
 40
0.0
 40
0.0
 40
0.0
 40
1.0
 40
1.0
 40
1.0
 40
2.0
 40
2.0
 40
2.0
 40
3.0
 40
3.0
 40
3.0
 40
4.0
 40
4.0
 40
4.0
 40
5.0
 40
5.0
 40
5.0
 40
6.0
 40
6.0
 40
6.0
 40
7.0
 40
7.0
 40
7.0
 40
7.0
 10
74.46763371619213
 20
-131.2912109046772
 30
0.0
 10
74.46763371619213
 20
-131.2912109046772
 30
0.0
 10
73.36330835839529
 20
-131.2912109046772
 30
0.0
 10
73.36330835839529
 20
-131.2912109046772
 30
0.0
 10
73.36330835839529
 20
-131.2912109046772
 30
0.0
 10
73.36330835839529
 20
-131.6212510521641
 30
0.0
 10
73.36330835839529
 20
-131.6212510521641
 30
0.0
 10
73.36330835839529
 20
-131.6212510521641
 30
0.0
 10
73.2153415073038
 20
-131.6212510521641
 30
0.0
 10
73.2153415073038
 20
-131.6212510521641
 30
0.0
 10
73.20052759671724
 20
-131.289143847386
 30
0.0
 10
73.03757458026492
 20
-131.2426350583352
 30
0.0
 10
72.92336966492888
 20
-131.213007237162
 30
0.0
 10
72.92336966492888
 20
-131.213007237162
 30
0.0
 10
72.92336966492888
 20
-131.0669351885875
 30
0.0
 10
72.92336966492888
 20
-131.0669351885875
 30
0.0
 10
72.92336966492888
 20
-131.0669351885875
 30
0.0
 10
74.46763371619213
 20
-131.0669351885875
 30
0.0
 10
74.46763371619213
 20
-131.0669351885875
 30
0.0
 10
74.46763371619213
 20
-131.0669351885875
 30
0.0
 10
74.46763371619213
 20
-131.2912109046772
 30
0.0
 10
74.46763371619213
 20
-131.2912109046772
 30
0.0
  0
HATCH
  5
79
330
74
100
AcDbEntity
  8
_U+30EC_U+30A4_U+30E4_U+30FC 1
 62
   179
420
  2234388
100
AcDbHatch
 10
0.0
 20
0.0
 30
0.0
210
0.0
220
0.0
230
1.0
  2
SOLID
 70
     1
 71
     0
 91
        1
 92
        1
 93
        1
 72
     4
 94
        3
 73
     0
 74
     1
 95
       26
 96
       22
 40
0.0
 40
0.0
 40
0.0
 40
0.0
 40
1.0
 40
1.0
 40
1.0
 40
2.0
 40
2.0
 40
2.0
 40
3.0
 40
3.0
 40
3.0
 40
4.0
 40
4.0
 40
4.0
 40
5.0
 40
5.0
 40
5.0
 40
6.0
 40
6.0
 40
6.0
 40
7.0
 40
7.0
 40
7.0
 40
7.0
 10
74.46763371619213
 20
-131.2912109046772
 10
74.46763371619213
 20
-131.2912109046772
 10
73.36330835839529
 20
-131.2912109046772
 10
73.36330835839529
 20
-131.2912109046772
 10
73.36330835839529
 20
-131.2912109046772
 10
73.36330835839529
 20
-131.6212510521641
 10
73.36330835839529
 20
-131.6212510521641
 10
73.36330835839529
 20
-131.6212510521641
 10
73.2153415073038
 20
-131.6212510521641
 10
73.2153415073038
 20
-131.6212510521641
 10
73.20052759671724
 20
-131.289143847386
 10
73.03757458026492
 20
-131.2426350583352
 10
72.92336966492888
 20
-131.213007237162
 10
72.92336966492888
 20
-131.213007237162
 10
72.92336966492888
 20
-131.0669351885875
 10
72.92336966492888
 20
-131.0669351885875
 10
72.92336966492888
 20
-131.0669351885875
 10
74.46763371619213
 20
-131.0669351885875
 10
74.46763371619213
 20
-131.0669351885875
 10
74.46763371619213
 20
-131.0669351885875
 10
74.46763371619213
 20
-131.2912109046772
 10
74.46763371619213
 20
-131.2912109046772
 97
        0
 97
        0
 75
     2
 76
     1
 98
        0
  0
SPLINE
  5
7A
330
74
100
AcDbEntity
  8
_U+30EC_U+30A4_U+30E4_U+30FC 1
370
     0
100
AcDbSpline
210
0.0
220
0.0
230
1.0
 70
    11
 71
     3
 72
    53
 73
    49
 74
     0
 42
0.0000000001
 43
0.0000000001
 12
1.0
 22
0.0
 32
0.0
 13
1.0
 23
0.0
 33
0.0
 40
0.0
 40
0.0
 40
0.0
 40
0.0
 40
1.0
 40
1.0
 40
1.0
 40
2.0
 40
2.0
 40
2.0
 40
3.0
 40
3.0
 40
3.0
 40
4.0
 40
4.0
 40
4.0
 40
5.0
 40
5.0
 40
5.0
 40
6.0
 40
6.0
 40
6.0
 40
7.0
 40
7.0
 40
7.0
 40
8.0
 40
8.0
 40
8.0
 40
9.0
 40
9.0
 40
9.0
 40
10.0
 40
10.0
 40
10.0
 40
11.0
 40
11.0
 40
11.0
 40
12.0
 40
12.0
 40
12.0
 40
13.0
 40
13.0
 40
13.0
 40
14.0
 40
14.0
 40
14.0
 40
15.0
 40
15.0
 40
15.0
 40
16.0
 40
16.0
 40
16.0
 40
16.0
 10
74.51844887459956
 20
-130.0847384657427
 30
0.0
 10
74.51844887459956
 20
-130.1632866428064
 30
0.0
 10
74.50139565194758
 20
-130.2645724500728
 30
0.0
 10
74.43800589501897
 20
-130.3662027668876
 30
0.0
 10
74.32793509426524
 20
-130.5394910697957
 30
0.0
 10
74.19684921105149
 20
-130.5608506618042
 30
0.0
 10
74.08901772236317
 20
-130.5797986869731
 30
0.0
 10
74.08901772236317
 20
-130.5797986869731
 30
0.0
 10
74.08901772236317
 20
-130.3575900281745
 30
0.0
 10
74.08901772236317
 20
-130.3575900281745
 30
0.0
 10
74.28779973186208
 20
-130.3024685004105
 30
0.0
 10
74.31742755303523
 20
-130.1756889865533
 30
0.0
 10
74.31742755303523
 20
-130.0826714084516
 30
0.0
 10
74.31742755303523
 20
-129.9431450412989
 30
0.0
 10
74.21803654828577
 20
-129.7905273113024
 30
0.0
 10
73.98532034825715
 20
-129.7905273113024
 30
0.0
 10
73.72934975370308
 20
-129.7905273113024
 30
0.0
 10
73.65958657012678
 20
-129.9703612956324
 30
0.0
 10
73.65958657012678
 20
-130.0909396376162
 30
0.0
 10
73.65958657012678
 20
-130.1226345160805
 30
0.0
 10
73.65958657012678
 20
-130.2645724500728
 30
0.0
 10
73.78860539604938
 20
-130.3534559135922
 30
0.0
 10
73.78860539604938
 20
-130.3534559135922
 30
0.0
 10
73.76948511610624
 20
-130.5291557833399
 30
0.0
 10
73.76948511610624
 20
-130.5291557833399
 30
0.0
 10
73.76948511610624
 20
-130.5291557833399
 30
0.0
 10
72.92336966492888
 20
-130.4085774413562
 30
0.0
 10
72.92336966492888
 20
-130.4085774413562
 30
0.0
 10
72.92336966492888
 20
-130.4085774413562
 30
0.0
 10
72.92336966492888
 20
-129.6299858616897
 30
0.0
 10
72.92336966492888
 20
-129.6299858616897
 30
0.0
 10
72.92336966492888
 20
-129.6299858616897
 30
0.0
 10
73.1180175598455
 20
-129.6299858616897
 30
0.0
 10
73.1180175598455
 20
-129.6299858616897
 30
0.0
 10
73.1180175598455
 20
-129.6299858616897
 30
0.0
 10
73.1180175598455
 20
-130.2456244249039
 30
0.0
 10
73.1180175598455
 20
-130.2456244249039
 30
0.0
 10
73.1180175598455
 20
-130.2456244249039
 30
0.0
 10
73.54107528543418
 20
-130.3110812391236
 30
0.0
 10
73.54107528543418
 20
-130.3110812391236
 30
0.0
 10
73.50714109490447
 20
-130.2497585394862
 30
0.0
 10
73.4670057325013
 20
-130.1674207573887
 30
0.0
 10
73.4670057325013
 20
-130.0489094726961
 30
0.0
 10
73.4670057325013
 20
-129.7950059354332
 30
0.0
 10
73.65321314347906
 20
-129.557983366048
 30
0.0
 10
73.96620006831401
 20
-129.557983366048
 30
0.0
 10
74.28366561727978
 20
-129.557983366048
 30
0.0
 10
74.51844887459956
 20
-129.7822590821378
 30
0.0
 10
74.51844887459956
 20
-130.0847384657427
 30
0.0
  0
HATCH
  5
7B
330
74
100
AcDbEntity
  8
_U+30EC_U+30A4_U+30E4_U+30FC 1
 62
   179
420
  2234388
100
AcDbHatch
 10
0.0
 20
0.0
 30
0.0
210
0.0
220
0.0
230
1.0
  2
SOLID
 70
     1
 71
     0
 91
        1
 92
        1
 93
        1
 72
     4
 94
        3
 73
     0
 74
     1
 95
       53
 96
       49
 40
0.0
 40
0.0
 40
0.0
 40
0.0
 40
1.0
 40
1.0
 40
1.0
 40
2.0
 40
2.0
 40
2.0
 40
3.0
 40
3.0
 40
3.0
 40
4.0
 40
4.0
 40
4.0
 40
5.0
 40
5.0
 40
5.0
 40
6.0
 40
6.0
 40
6.0
 40
7.0
 40
7.0
 40
7.0
 40
8.0
 40
8.0
 40
8.0
 40
9.0
 40
9.0
 40
9.0
 40
10.0
 40
10.0
 40
10.0
 40
11.0
 40
11.0
 40
11.0
 40
12.0
 40
12.0
 40
12.0
 40
13.0
 40
13.0
 40
13.0
 40
14.0
 40
14.0
 40
14.0
 40
15.0
 40
15.0
 40
15.0
 40
16.0
 40
16.0
 40
16.0
 40
16.0
 10
74.51844887459956
 20
-130.0847384657427
 10
74.51844887459956
 20
-130.1632866428064
 10
74.50139565194758
 20
-130.2645724500728
 10
74.43800589501897
 20
-130.3662027668876
 10
74.32793509426524
 20
-130.5394910697957
 10
74.19684921105149
 20
-130.5608506618042
 10
74.08901772236317
 20
-130.5797986869731
 10
74.08901772236317
 20
-130.5797986869731
 10
74.08901772236317
 20
-130.3575900281745
 10
74.08901772236317
 20
-130.3575900281745
 10
74.28779973186208
 20
-130.3024685004105
 10
74.31742755303523
 20
-130.1756889865533
 10
74.31742755303523
 20
-130.0826714084516
 10
74.31742755303523
 20
-129.9431450412989
 10
74.21803654828577
 20
-129.7905273113024
 10
73.98532034825715
 20
-129.7905273113024
 10
73.72934975370308
 20
-129.7905273113024
 10
73.65958657012678
 20
-129.9703612956324
 10
73.65958657012678
 20
-130.0909396376162
 10
73.65958657012678
 20
-130.1226345160805
 10
73.65958657012678
 20
-130.2645724500728
 10
73.78860539604938
 20
-130.3534559135922
 10
73.78860539604938
 20
-130.3534559135922
 10
73.76948511610624
 20
-130.5291557833399
 10
73.76948511610624
 20
-130.5291557833399
 10
73.76948511610624
 20
-130.5291557833399
 10
72.92336966492888
 20
-130.4085774413562
 10
72.92336966492888
 20
-130.4085774413562
 10
72.92336966492888
 20
-130.4085774413562
 10
72.92336966492888
 20
-129.6299858616897
 10
72.92336966492888
 20
-129.6299858616897
 10
72.92336966492888
 20
-129.6299858616897
 10
73.1180175598455
 20
-129.6299858616897
 10
73.1180175598455
 20
-129.6299858616897
 10
73.1180175598455
 20
-129.6299858616897
 10
73.1180175598455
 20
-130.2456244249039
 10
73.1180175598455
 20
-130.2456244249039
 10
73.1180175598455
 20
-130.2456244249039
 10
73.54107528543418
 20
-130.3110812391236
 10
73.54107528543418
 20
-130.3110812391236
 10
73.50714109490447
 20
-130.2497585394862
 10
73.4670057325013
 20
-130.1674207573887
 10
73.4670057325013
 20
-130.0489094726961
 10
73.4670057325013
 20
-129.7950059354332
 10
73.65321314347906
 20
-129.557983366048
 10
73.96620006831401
 20
-129.557983366048
 10
74.28366561727978
 20
-129.557983366048
 10
74.51844887459956
 20
-129.7822590821378
 10
74.51844887459956
 20
-130.0847384657427
 97
        0
 97
        0
 75
     2
 76
     1
 98
        0
  0
POLYLINE
  5
7C
330
74
100
AcDbEntity
  8
_U+30EC_U+30A4_U+30E4_U+30FC 1
370
     0
100
AcDb2dPolyline
 66
     1
 10
0.0
 20
0.0
 30
0.0
  0
VERTEX
  5
7D
330
7C
100
AcDbEntity
  8
_U+30EC_U+30A4_U+30E4_U+30FC 1
370
     0
100
AcDbVertex
100
AcDb2dVertex
 10
74.46763371619213
 20
-129.3288845162789
 30
0.0
  0
VERTEX
  5
7E
330
7C
100
AcDbEntity
  8
_U+30EC_U+30A4_U+30E4_U+30FC 1
370
     0
100
AcDbVertex
100
AcDb2dVertex
 10
74.21596949099462
 20
-129.3288845162789
 30
0.0
  0
VERTEX
  5
7F
330
7C
100
AcDbEntity
  8
_U+30EC_U+30A4_U+30E4_U+30FC 1
370
     0
100
AcDbVertex
100
AcDb2dVertex
 10
74.21596949099462
 20
-129.0773925458556
 30
0.0
  0
VERTEX
  5
80
330
7C
100
AcDbEntity
  8
_U+30EC_U+30A4_U+30E4_U+30FC 1
370
     0
100
AcDbVertex
100
AcDb2dVertex
 10
74.46763371619213
 20
-129.0773925458556
 30
0.0
  0
VERTEX
  5
81
330
7C
100
AcDbEntity
  8
_U+30EC_U+30A4_U+30E4_U+30FC 1
370
     0
100
AcDbVertex
100
AcDb2dVertex
 10
74.46763371619213
 20
-129.3288845162789
 30
0.0
  0
SEQEND
  5
82
330
7C
100
AcDbEntity
  8
_U+30EC_U+30A4_U+30E4_U+30FC 1
370
     0
  0
HATCH
  5
83
330
74
100
AcDbEntity
  8
_U+30EC_U+30A4_U+30E4_U+30FC 1
 62
   179
420
  2234388
100
AcDbHatch
 10
0.0
 20
0.0
 30
0.0
210
0.0
220
0.0
230
1.0
  2
SOLID
 70
     1
 71
     0
 91
        1
 92
        1
 93
        4
 72
     1
 10
74.46763371619213
 20
-129.3288845162789
 11
74.21596949099462
 21
-129.3288845162789
 72
     1
 10
74.21596949099462
 20
-129.3288845162789
 11
74.21596949099462
 21
-129.0773925458556
 72
     1
 10
74.21596949099462
 20
-129.0773925458556
 11
74.46763371619213
 21
-129.0773925458556
 72
     1
 10
74.46763371619213
 20
-129.0773925458556
 11
74.46763371619213
 21
-129.3288845162789
 97
        0
 75
     2
 76
     1
 98
        0
  0
SPLINE
  5
84
330
74
100
AcDbEntity
  8
_U+30EC_U+30A4_U+30E4_U+30FC 1
370
     0
100
AcDbSpline
210
0.0
220
0.0
230
1.0
 70
    11
 71
     3
 72
    53
 73
    49
 74
     0
 42
0.0000000001
 43
0.0000000001
 12
1.0
 22
0.0
 32
0.0
 13
1.0
 23
0.0
 33
0.0
 40
0.0
 40
0.0
 40
0.0
 40
0.0
 40
1.0
 40
1.0
 40
1.0
 40
2.0
 40
2.0
 40
2.0
 40
3.0
 40
3.0
 40
3.0
 40
4.0
 40
4.0
 40
4.0
 40
5.0
 40
5.0
 40
5.0
 40
6.0
 40
6.0
 40
6.0
 40
7.0
 40
7.0
 40
7.0
 40
8.0
 40
8.0
 40
8.0
 40
9.0
 40
9.0
 40
9.0
 40
10.0
 40
10.0
 40
10.0
 40
11.0
 40
11.0
 40
11.0
 40
12.0
 40
12.0
 40
12.0
 40
13.0
 40
13.0
 40
13.0
 40
14.0
 40
14.0
 40
14.0
 40
15.0
 40
15.0
 40
15.0
 40
16.0
 40
16.0
 40
16.0
 40
16.0
 10
74.51844887459956
 20
-128.3596069015039
 30
0.0
 10
74.51844887459956
 20
-128.4379828237933
 30
0.0
 10
74.50139565194758
 20
-128.5394408858339
 30
0.0
 10
74.43800589501897
 20
-128.6410712026488
 30
0.0
 10
74.32793509426524
 20
-128.8145317603311
 30
0.0
 10
74.19684921105149
 20
-128.8355468427911
 30
0.0
 10
74.08901772236317
 20
-128.8548393775085
 30
0.0
 10
74.08901772236317
 20
-128.8548393775085
 30
0.0
 10
74.08901772236317
 20
-128.6326307187099
 30
0.0
 10
74.08901772236317
 20
-128.6326307187099
 30
0.0
 10
74.28779973186208
 20
-128.5775091909459
 30
0.0
 10
74.31742755303523
 20
-128.4505574223145
 30
0.0
 10
74.31742755303523
 20
-128.3575398442127
 30
0.0
 10
74.31742755303523
 20
-128.2178412222858
 30
0.0
 10
74.21803654828577
 20
-128.0655680018378
 30
0.0
 10
73.98532034825715
 20
-128.0655680018378
 30
0.0
 10
73.72934975370308
 20
-128.0655680018378
 30
0.0
 10
73.65958657012678
 20
-128.2454019861678
 30
0.0
 10
73.65958657012678
 20
-128.3659803281516
 30
0.0
 10
73.65958657012678
 20
-128.3976752066159
 30
0.0
 10
73.65958657012678
 20
-128.5394408858339
 30
0.0
 10
73.78860539604938
 20
-128.6283243493533
 30
0.0
 10
73.78860539604938
 20
-128.6283243493533
 30
0.0
 10
73.76948511610624
 20
-128.8038519643268
 30
0.0
 10
73.76948511610624
 20
-128.8038519643268
 30
0.0
 10
73.76948511610624
 20
-128.8038519643268
 30
0.0
 10
72.92336966492888
 20
-128.6832736223431
 30
0.0
 10
72.92336966492888
 20
-128.6832736223431
 30
0.0
 10
72.92336966492888
 20
-128.6832736223431
 30
0.0
 10
72.92336966492888
 20
-127.9048542974509
 30
0.0
 10
72.92336966492888
 20
-127.9048542974509
 30
0.0
 10
72.92336966492888
 20
-127.9048542974509
 30
0.0
 10
73.1180175598455
 20
-127.9048542974509
 30
0.0
 10
73.1180175598455
 20
-127.9048542974509
 30
0.0
 10
73.1180175598455
 20
-127.9048542974509
 30
0.0
 10
73.1180175598455
 20
-128.520492860665
 30
0.0
 10
73.1180175598455
 20
-128.520492860665
 30
0.0
 10
73.1180175598455
 20
-128.520492860665
 30
0.0
 10
73.54107528543418
 20
-128.5859496748848
 30
0.0
 10
73.54107528543418
 20
-128.5859496748848
 30
0.0
 10
73.50714109490447
 20
-128.5246269752473
 30
0.0
 10
73.4670057325013
 20
-128.4421169383756
 30
0.0
 10
73.4670057325013
 20
-128.3237779084573
 30
0.0
 10
73.4670057325013
 20
-128.0698743711943
 30
0.0
 10
73.65321314347906
 20
-127.8328518018092
 30
0.0
 10
73.96620006831401
 20
-127.8328518018092
 30
0.0
 10
74.28366561727978
 20
-127.8328518018092
 30
0.0
 10
74.51844887459956
 20
-128.0571275178989
 30
0.0
 10
74.51844887459956
 20
-128.3596069015039
 30
0.0
  0
HATCH
  5
85
330
74
100
AcDbEntity
  8
_U+30EC_U+30A4_U+30E4_U+30FC 1
 62
   179
420
  2234388
100
AcDbHatch
 10
0.0
 20
0.0
 30
0.0
210
0.0
220
0.0
230
1.0
  2
SOLID
 70
     1
 71
     0
 91
        1
 92
        1
 93
        1
 72
     4
 94
        3
 73
     0
 74
     1
 95
       53
 96
       49
 40
0.0
 40
0.0
 40
0.0
 40
0.0
 40
1.0
 40
1.0
 40
1.0
 40
2.0
 40
2.0
 40
2.0
 40
3.0
 40
3.0
 40
3.0
 40
4.0
 40
4.0
 40
4.0
 40
5.0
 40
5.0
 40
5.0
 40
6.0
 40
6.0
 40
6.0
 40
7.0
 40
7.0
 40
7.0
 40
8.0
 40
8.0
 40
8.0
 40
9.0
 40
9.0
 40
9.0
 40
10.0
 40
10.0
 40
10.0
 40
11.0
 40
11.0
 40
11.0
 40
12.0
 40
12.0
 40
12.0
 40
13.0
 40
13.0
 40
13.0
 40
14.0
 40
14.0
 40
14.0
 40
15.0
 40
15.0
 40
15.0
 40
16.0
 40
16.0
 40
16.0
 40
16.0
 10
74.51844887459956
 20
-128.3596069015039
 10
74.51844887459956
 20
-128.4379828237933
 10
74.50139565194758
 20
-128.5394408858339
 10
74.43800589501897
 20
-128.6410712026488
 10
74.32793509426524
 20
-128.8145317603311
 10
74.19684921105149
 20
-128.8355468427911
 10
74.08901772236317
 20
-128.8548393775085
 10
74.08901772236317
 20
-128.8548393775085
 10
74.08901772236317
 20
-128.6326307187099
 10
74.08901772236317
 20
-128.6326307187099
 10
74.28779973186208
 20
-128.5775091909459
 10
74.31742755303523
 20
-128.4505574223145
 10
74.31742755303523
 20
-128.3575398442127
 10
74.31742755303523
 20
-128.2178412222858
 10
74.21803654828577
 20
-128.0655680018378
 10
73.98532034825715
 20
-128.0655680018378
 10
73.72934975370308
 20
-128.0655680018378
 10
73.65958657012678
 20
-128.2454019861678
 10
73.65958657012678
 20
-128.3659803281516
 10
73.65958657012678
 20
-128.3976752066159
 10
73.65958657012678
 20
-128.5394408858339
 10
73.78860539604938
 20
-128.6283243493533
 10
73.78860539604938
 20
-128.6283243493533
 10
73.76948511610624
 20
-128.8038519643268
 10
73.76948511610624
 20
-128.8038519643268
 10
73.76948511610624
 20
-128.8038519643268
 10
72.92336966492888
 20
-128.6832736223431
 10
72.92336966492888
 20
-128.6832736223431
 10
72.92336966492888
 20
-128.6832736223431
 10
72.92336966492888
 20
-127.9048542974509
 10
72.92336966492888
 20
-127.9048542974509
 10
72.92336966492888
 20
-127.9048542974509
 10
73.1180175598455
 20
-127.9048542974509
 10
73.1180175598455
 20
-127.9048542974509
 10
73.1180175598455
 20
-127.9048542974509
 10
73.1180175598455
 20
-128.520492860665
 10
73.1180175598455
 20
-128.520492860665
 10
73.1180175598455
 20
-128.520492860665
 10
73.54107528543418
 20
-128.5859496748848
 10
73.54107528543418
 20
-128.5859496748848
 10
73.50714109490447
 20
-128.5246269752473
 10
73.4670057325013
 20
-128.4421169383756
 10
73.4670057325013
 20
-128.3237779084573
 10
73.4670057325013
 20
-128.0698743711943
 10
73.65321314347906
 20
-127.8328518018092
 10
73.96620006831401
 20
-127.8328518018092
 10
74.28366561727978
 20
-127.8328518018092
 10
74.51844887459956
 20
-128.0571275178989
 10
74.51844887459956
 20
-128.3596069015039
 97
        0
 97
        0
 75
     2
 76
     1
 98
        0
  0
ENDBLK
  5
77
330
74
100
AcDbEntity
  8
0
100
AcDbBlockEnd
  0
BLOCK
  5
88
330
86
100
AcDbEntity
  8
0
100
AcDbBlockBegin
  2
block 3
 70
     0
 10
0.0
 20
0.0
 30
0.0
  3
block 3
  1

  0
SPLINE
  5
8A
330
86
100
AcDbEntity
  8
_U+30EC_U+30A4_U+30E4_U+30FC 1
370
     0
100
AcDbSpline
210
0.0
220
0.0
230
1.0
 70
    11
 71
     3
 72
    26
 73
    22
 74
     0
 42
0.0000000001
 43
0.0000000001
 12
1.0
 22
0.0
 32
0.0
 13
1.0
 23
0.0
 33
0.0
 40
0.0
 40
0.0
 40
0.0
 40
0.0
 40
1.0
 40
1.0
 40
1.0
 40
2.0
 40
2.0
 40
2.0
 40
3.0
 40
3.0
 40
3.0
 40
4.0
 40
4.0
 40
4.0
 40
5.0
 40
5.0
 40
5.0
 40
6.0
 40
6.0
 40
6.0
 40
7.0
 40
7.0
 40
7.0
 40
7.0
 10
74.46763371619213
 20
-119.2967664632314
 30
0.0
 10
74.46763371619213
 20
-119.2967664632314
 30
0.0
 10
73.36330835839529
 20
-119.2967664632314
 30
0.0
 10
73.36330835839529
 20
-119.2967664632314
 30
0.0
 10
73.36330835839529
 20
-119.2967664632314
 30
0.0
 10
73.36330835839529
 20
-119.6268066107183
 30
0.0
 10
73.36330835839529
 20
-119.6268066107183
 30
0.0
 10
73.36330835839529
 20
-119.6268066107183
 30
0.0
 10
73.2153415073038
 20
-119.6268066107183
 30
0.0
 10
73.2153415073038
 20
-119.6268066107183
 30
0.0
 10
73.20052759671724
 20
-119.2946994059402
 30
0.0
 10
73.03757458026492
 20
-119.2481906168893
 30
0.0
 10
72.92336966492888
 20
-119.2185627957162
 30
0.0
 10
72.92336966492888
 20
-119.2185627957162
 30
0.0
 10
72.92336966492888
 20
-119.0724907471416
 30
0.0
 10
72.92336966492888
 20
-119.0724907471416
 30
0.0
 10
72.92336966492888
 20
-119.0724907471416
 30
0.0
 10
74.46763371619213
 20
-119.0724907471416
 30
0.0
 10
74.46763371619213
 20
-119.0724907471416
 30
0.0
 10
74.46763371619213
 20
-119.0724907471416
 30
0.0
 10
74.46763371619213
 20
-119.2967664632314
 30
0.0
 10
74.46763371619213
 20
-119.2967664632314
 30
0.0
  0
HATCH
  5
8B
330
86
100
AcDbEntity
  8
_U+30EC_U+30A4_U+30E4_U+30FC 1
 62
   179
420
  2234388
100
AcDbHatch
 10
0.0
 20
0.0
 30
0.0
210
0.0
220
0.0
230
1.0
  2
SOLID
 70
     1
 71
     0
 91
        1
 92
        1
 93
        1
 72
     4
 94
        3
 73
     0
 74
     1
 95
       26
 96
       22
 40
0.0
 40
0.0
 40
0.0
 40
0.0
 40
1.0
 40
1.0
 40
1.0
 40
2.0
 40
2.0
 40
2.0
 40
3.0
 40
3.0
 40
3.0
 40
4.0
 40
4.0
 40
4.0
 40
5.0
 40
5.0
 40
5.0
 40
6.0
 40
6.0
 40
6.0
 40
7.0
 40
7.0
 40
7.0
 40
7.0
 10
74.46763371619213
 20
-119.2967664632314
 10
74.46763371619213
 20
-119.2967664632314
 10
73.36330835839529
 20
-119.2967664632314
 10
73.36330835839529
 20
-119.2967664632314
 10
73.36330835839529
 20
-119.2967664632314
 10
73.36330835839529
 20
-119.6268066107183
 10
73.36330835839529
 20
-119.6268066107183
 10
73.36330835839529
 20
-119.6268066107183
 10
73.2153415073038
 20
-119.6268066107183
 10
73.2153415073038
 20
-119.6268066107183
 10
73.20052759671724
 20
-119.2946994059402
 10
73.03757458026492
 20
-119.2481906168893
 10
72.92336966492888
 20
-119.2185627957162
 10
72.92336966492888
 20
-119.2185627957162
 10
72.92336966492888
 20
-119.0724907471416
 10
72.92336966492888
 20
-119.0724907471416
 10
72.92336966492888
 20
-119.0724907471416
 10
74.46763371619213
 20
-119.0724907471416
 10
74.46763371619213
 20
-119.0724907471416
 10
74.46763371619213
 20
-119.0724907471416
 10
74.46763371619213
 20
-119.2967664632314
 10
74.46763371619213
 20
-119.2967664632314
 97
        0
 97
        0
 75
     2
 76
     1
 98
        0
  0
POLYLINE
  5
8C
330
86
100
AcDbEntity
  8
_U+30EC_U+30A4_U+30E4_U+30FC 1
370
     0
100
AcDb2dPolyline
 66
     1
 10
0.0
 20
0.0
 30
0.0
  0
VERTEX
  5
8D
330
8C
100
AcDbEntity
  8
_U+30EC_U+30A4_U+30E4_U+30FC 1
370
     0
100
AcDbVertex
100
AcDb2dVertex
 10
74.46763371619213
 20
-118.5112846925944
 30
0.0
  0
VERTEX
  5
8E
330
8C
100
AcDbEntity
  8
_U+30EC_U+30A4_U+30E4_U+30FC 1
370
     0
100
AcDbVertex
100
AcDb2dVertex
 10
74.21596949099462
 20
-118.5112846925944
 30
0.0
  0
VERTEX
  5
8F
330
8C
100
AcDbEntity
  8
_U+30EC_U+30A4_U+30E4_U+30FC 1
370
     0
100
AcDbVertex
100
AcDb2dVertex
 10
74.21596949099462
 20
-118.2596204673969
 30
0.0
  0
VERTEX
  5
90
330
8C
100
AcDbEntity
  8
_U+30EC_U+30A4_U+30E4_U+30FC 1
370
     0
100
AcDbVertex
100
AcDb2dVertex
 10
74.46763371619213
 20
-118.2596204673969
 30
0.0
  0
VERTEX
  5
91
330
8C
100
AcDbEntity
  8
_U+30EC_U+30A4_U+30E4_U+30FC 1
370
     0
100
AcDbVertex
100
AcDb2dVertex
 10
74.46763371619213
 20
-118.5112846925944
 30
0.0
  0
SEQEND
  5
92
330
8C
100
AcDbEntity
  8
_U+30EC_U+30A4_U+30E4_U+30FC 1
370
     0
  0
HATCH
  5
93
330
86
100
AcDbEntity
  8
_U+30EC_U+30A4_U+30E4_U+30FC 1
 62
   179
420
  2234388
100
AcDbHatch
 10
0.0
 20
0.0
 30
0.0
210
0.0
220
0.0
230
1.0
  2
SOLID
 70
     1
 71
     0
 91
        1
 92
        1
 93
        4
 72
     1
 10
74.46763371619213
 20
-118.5112846925944
 11
74.21596949099462
 21
-118.5112846925944
 72
     1
 10
74.21596949099462
 20
-118.5112846925944
 11
74.21596949099462
 21
-118.2596204673969
 72
     1
 10
74.21596949099462
 20
-118.2596204673969
 11
74.46763371619213
 21
-118.2596204673969
 72
     1
 10
74.46763371619213
 20
-118.2596204673969
 11
74.46763371619213
 21
-118.5112846925944
 97
        0
 75
     2
 76
     1
 98
        0
  0
SPLINE
  5
94
330
86
100
AcDbEntity
  8
_U+30EC_U+30A4_U+30E4_U+30FC 1
370
     0
100
AcDbSpline
210
0.0
220
0.0
230
1.0
 70
    11
 71
     3
 72
    53
 73
    49
 74
     0
 42
0.0000000001
 43
0.0000000001
 12
1.0
 22
0.0
 32
0.0
 13
1.0
 23
0.0
 33
0.0
 40
0.0
 40
0.0
 40
0.0
 40
0.0
 40
1.0
 40
1.0
 40
1.0
 40
2.0
 40
2.0
 40
2.0
 40
3.0
 40
3.0
 40
3.0
 40
4.0
 40
4.0
 40
4.0
 40
5.0
 40
5.0
 40
5.0
 40
6.0
 40
6.0
 40
6.0
 40
7.0
 40
7.0
 40
7.0
 40
8.0
 40
8.0
 40
8.0
 40
9.0
 40
9.0
 40
9.0
 40
10.0
 40
10.0
 40
10.0
 40
11.0
 40
11.0
 40
11.0
 40
12.0
 40
12.0
 40
12.0
 40
13.0
 40
13.0
 40
13.0
 40
14.0
 40
14.0
 40
14.0
 40
15.0
 40
15.0
 40
15.0
 40
16.0
 40
16.0
 40
16.0
 40
16.0
 10
74.51844887459956
 20
-117.5420070778194
 30
0.0
 10
74.51844887459956
 20
-117.6203830001088
 30
0.0
 10
74.50139565194758
 20
-117.7218410621494
 30
0.0
 10
74.43800589501897
 20
-117.8234713789643
 30
0.0
 10
74.32793509426524
 20
-117.9969319366466
 30
0.0
 10
74.19684921105149
 20
-118.0181192738809
 30
0.0
 10
74.08901772236317
 20
-118.0370672990498
 30
0.0
 10
74.08901772236317
 20
-118.0370672990498
 30
0.0
 10
74.08901772236317
 20
-117.8150308950254
 30
0.0
 10
74.08901772236317
 20
-117.8150308950254
 30
0.0
 10
74.28779973186208
 20
-117.7599093672614
 30
0.0
 10
74.31742755303523
 20
-117.63295759863
 30
0.0
 10
74.31742755303523
 20
-117.5399400205282
 30
0.0
 10
74.31742755303523
 20
-117.4002413986013
 30
0.0
 10
74.21803654828577
 20
-117.2479681781533
 30
0.0
 10
73.98532034825715
 20
-117.2479681781533
 30
0.0
 10
73.72934975370308
 20
-117.2479681781533
 30
0.0
 10
73.65958657012678
 20
-117.4278021624833
 30
0.0
 10
73.65958657012678
 20
-117.5483805044671
 30
0.0
 10
73.65958657012678
 20
-117.5800753829314
 30
0.0
 10
73.65958657012678
 20
-117.7218410621494
 30
0.0
 10
73.78860539604938
 20
-117.8107245256688
 30
0.0
 10
73.78860539604938
 20
-117.8107245256688
 30
0.0
 10
73.76948511610624
 20
-117.9862521406423
 30
0.0
 10
73.76948511610624
 20
-117.9862521406423
 30
0.0
 10
73.76948511610624
 20
-117.9862521406423
 30
0.0
 10
72.92336966492888
 20
-117.8656737986586
 30
0.0
 10
72.92336966492888
 20
-117.8656737986586
 30
0.0
 10
72.92336966492888
 20
-117.8656737986586
 30
0.0
 10
72.92336966492888
 20
-117.0872544737664
 30
0.0
 10
72.92336966492888
 20
-117.0872544737664
 30
0.0
 10
72.92336966492888
 20
-117.0872544737664
 30
0.0
 10
73.1180175598455
 20
-117.0872544737664
 30
0.0
 10
73.1180175598455
 20
-117.0872544737664
 30
0.0
 10
73.1180175598455
 20
-117.0872544737664
 30
0.0
 10
73.1180175598455
 20
-117.7028930369805
 30
0.0
 10
73.1180175598455
 20
-117.7028930369805
 30
0.0
 10
73.1180175598455
 20
-117.7028930369805
 30
0.0
 10
73.54107528543418
 20
-117.7683498512003
 30
0.0
 10
73.54107528543418
 20
-117.7683498512003
 30
0.0
 10
73.50714109490447
 20
-117.7070271515628
 30
0.0
 10
73.4670057325013
 20
-117.6245171146911
 30
0.0
 10
73.4670057325013
 20
-117.5061780847728
 30
0.0
 10
73.4670057325013
 20
-117.2522745475099
 30
0.0
 10
73.65321314347906
 20
-117.0152519781247
 30
0.0
 10
73.96620006831401
 20
-117.0152519781247
 30
0.0
 10
74.28366561727978
 20
-117.0152519781247
 30
0.0
 10
74.51844887459956
 20
-117.2395276942144
 30
0.0
 10
74.51844887459956
 20
-117.5420070778194
 30
0.0
  0
HATCH
  5
95
330
86
100
AcDbEntity
  8
_U+30EC_U+30A4_U+30E4_U+30FC 1
 62
   179
420
  2234388
100
AcDbHatch
 10
0.0
 20
0.0
 30
0.0
210
0.0
220
0.0
230
1.0
  2
SOLID
 70
     1
 71
     0
 91
        1
 92
        1
 93
        1
 72
     4
 94
        3
 73
     0
 74
     1
 95
       53
 96
       49
 40
0.0
 40
0.0
 40
0.0
 40
0.0
 40
1.0
 40
1.0
 40
1.0
 40
2.0
 40
2.0
 40
2.0
 40
3.0
 40
3.0
 40
3.0
 40
4.0
 40
4.0
 40
4.0
 40
5.0
 40
5.0
 40
5.0
 40
6.0
 40
6.0
 40
6.0
 40
7.0
 40
7.0
 40
7.0
 40
8.0
 40
8.0
 40
8.0
 40
9.0
 40
9.0
 40
9.0
 40
10.0
 40
10.0
 40
10.0
 40
11.0
 40
11.0
 40
11.0
 40
12.0
 40
12.0
 40
12.0
 40
13.0
 40
13.0
 40
13.0
 40
14.0
 40
14.0
 40
14.0
 40
15.0
 40
15.0
 40
15.0
 40
16.0
 40
16.0
 40
16.0
 40
16.0
 10
74.51844887459956
 20
-117.5420070778194
 10
74.51844887459956
 20
-117.6203830001088
 10
74.50139565194758
 20
-117.7218410621494
 10
74.43800589501897
 20
-117.8234713789643
 10
74.32793509426524
 20
-117.9969319366466
 10
74.19684921105149
 20
-118.0181192738809
 10
74.08901772236317
 20
-118.0370672990498
 10
74.08901772236317
 20
-118.0370672990498
 10
74.08901772236317
 20
-117.8150308950254
 10
74.08901772236317
 20
-117.8150308950254
 10
74.28779973186208
 20
-117.7599093672614
 10
74.31742755303523
 20
-117.63295759863
 10
74.31742755303523
 20
-117.5399400205282
 10
74.31742755303523
 20
-117.4002413986013
 10
74.21803654828577
 20
-117.2479681781533
 10
73.98532034825715
 20
-117.2479681781533
 10
73.72934975370308
 20
-117.2479681781533
 10
73.65958657012678
 20
-117.4278021624833
 10
73.65958657012678
 20
-117.5483805044671
 10
73.65958657012678
 20
-117.5800753829314
 10
73.65958657012678
 20
-117.7218410621494
 10
73.78860539604938
 20
-117.8107245256688
 10
73.78860539604938
 20
-117.8107245256688
 10
73.76948511610624
 20
-117.9862521406423
 10
73.76948511610624
 20
-117.9862521406423
 10
73.76948511610624
 20
-117.9862521406423
 10
72.92336966492888
 20
-117.8656737986586
 10
72.92336966492888
 20
-117.8656737986586
 10
72.92336966492888
 20
-117.8656737986586
 10
72.92336966492888
 20
-117.0872544737664
 10
72.92336966492888
 20
-117.0872544737664
 10
72.92336966492888
 20
-117.0872544737664
 10
73.1180175598455
 20
-117.0872544737664
 10
73.1180175598455
 20
-117.0872544737664
 10
73.1180175598455
 20
-117.0872544737664
 10
73.1180175598455
 20
-117.7028930369805
 10
73.1180175598455
 20
-117.7028930369805
 10
73.1180175598455
 20
-117.7028930369805
 10
73.54107528543418
 20
-117.7683498512003
 10
73.54107528543418
 20
-117.7683498512003
 10
73.50714109490447
 20
-117.7070271515628
 10
73.4670057325013
 20
-117.6245171146911
 10
73.4670057325013
 20
-117.5061780847728
 10
73.4670057325013
 20
-117.2522745475099
 10
73.65321314347906
 20
-117.0152519781247
 10
73.96620006831401
 20
-117.0152519781247
 10
74.28366561727978
 20
-117.0152519781247
 10
74.51844887459956
 20
-117.2395276942144
 10
74.51844887459956
 20
-117.5420070778194
 97
        0
 97
        0
 75
     2
 76
     1
 98
        0
  0
ENDBLK
  5
89
330
86
100
AcDbEntity
  8
0
100
AcDbBlockEnd
  0
BLOCK
  5
98
330
96
100
AcDbEntity
  8
0
100
AcDbBlockBegin
  2
block 4
 70
     0
 10
0.0
 20
0.0
 30
0.0
  3
block 4
  1

  0
SPLINE
  5
9A
330
96
100
AcDbEntity
  8
_U+30EC_U+30A4_U+30E4_U+30FC 1
370
     0
100
AcDbSpline
210
0.0
220
0.0
230
1.0
 70
    11
 71
     3
 72
    44
 73
    40
 74
     0
 42
0.0000000001
 43
0.0000000001
 12
1.0
 22
0.0
 32
0.0
 13
1.0
 23
0.0
 33
0.0
 40
0.0
 40
0.0
 40
0.0
 40
0.0
 40
1.0
 40
1.0
 40
1.0
 40
2.0
 40
2.0
 40
2.0
 40
3.0
 40
3.0
 40
3.0
 40
4.0
 40
4.0
 40
4.0
 40
5.0
 40
5.0
 40
5.0
 40
6.0
 40
6.0
 40
6.0
 40
7.0
 40
7.0
 40
7.0
 40
8.0
 40
8.0
 40
8.0
 40
9.0
 40
9.0
 40
9.0
 40
10.0
 40
10.0
 40
10.0
 40
11.0
 40
11.0
 40
11.0
 40
12.0
 40
12.0
 40
12.0
 40
13.0
 40
13.0
 40
13.0
 40
13.0
 10
73.88592934350768
 20
-141.64441185695
 30
0.0
 10
74.04457599060345
 20
-141.8624864011663
 30
0.0
 10
74.11864554353632
 20
-141.9558484888166
 30
0.0
 10
74.2624782800455
 20
-142.0040798256101
 30
0.0
 10
74.2624782800455
 20
-142.0040798256101
 30
0.0
 10
74.2624782800455
 20
-141.2258327554921
 30
0.0
 10
74.2624782800455
 20
-141.2258327554921
 30
0.0
 10
74.2624782800455
 20
-141.2258327554921
 30
0.0
 10
74.46763371619213
 20
-141.2258327554921
 30
0.0
 10
74.46763371619213
 20
-141.2258327554921
 30
0.0
 10
74.46763371619213
 20
-141.2258327554921
 30
0.0
 10
74.46763371619213
 20
-142.2538492482907
 30
0.0
 10
74.46763371619213
 20
-142.2538492482907
 30
0.0
 10
74.11003280482319
 20
-142.2221543698264
 30
0.0
 10
74.03182913730802
 20
-142.1566975556067
 30
0.0
 10
73.73348386828538
 20
-141.7715358803557
 30
0.0
 10
73.53470185878646
 20
-141.5155652858017
 30
0.0
 10
73.4670057325013
 20
-141.4501084715819
 30
0.0
 10
73.32954642263984
 20
-141.4501084715819
 30
0.0
 10
73.21103513794725
 20
-141.4501084715819
 30
0.0
 10
73.07994925473349
 20
-141.5217664576751
 30
0.0
 10
73.07994925473349
 20
-141.7188259194314
 30
0.0
 10
73.07994925473349
 20
-141.9789306285678
 30
0.0
 10
73.3104261426967
 20
-141.9875433672809
 30
0.0
 10
73.42687037009814
 20
-141.9916774818632
 30
0.0
 10
73.42687037009814
 20
-141.9916774818632
 30
0.0
 10
73.42687037009814
 20
-142.2156086884044
 30
0.0
 10
73.42687037009814
 20
-142.2156086884044
 30
0.0
 10
73.29991860146669
 20
-142.2073404592398
 30
0.0
 10
73.18778074342181
 20
-142.1970051727841
 30
0.0
 10
73.06926945872921
 20
-142.1163899384293
 30
0.0
 10
72.9085557543423
 20
-142.0064913924498
 30
0.0
 10
72.8746215638126
 20
-141.8201117266977
 30
0.0
 10
72.8746215638126
 20
-141.7036674992963
 30
0.0
 10
72.8746215638126
 20
-141.4266818222822
 30
0.0
 10
73.0587619174992
 20
-141.2192870740702
 30
0.0
 10
73.331613479931
 20
-141.2192870740702
 30
0.0
 10
73.56002331060306
 20
-141.2192870740702
 30
0.0
 10
73.65958657012678
 20
-141.3357313014716
 30
0.0
 10
73.88592934350768
 20
-141.64441185695
 30
0.0
  0
HATCH
  5
9B
330
96
100
AcDbEntity
  8
_U+30EC_U+30A4_U+30E4_U+30FC 1
 62
   179
420
  2234388
100
AcDbHatch
 10
0.0
 20
0.0
 30
0.0
210
0.0
220
0.0
230
1.0
  2
SOLID
 70
     1
 71
     0
 91
        1
 92
        1
 93
        1
 72
     4
 94
        3
 73
     0
 74
     1
 95
       44
 96
       40
 40
0.0
 40
0.0
 40
0.0
 40
0.0
 40
1.0
 40
1.0
 40
1.0
 40
2.0
 40
2.0
 40
2.0
 40
3.0
 40
3.0
 40
3.0
 40
4.0
 40
4.0
 40
4.0
 40
5.0
 40
5.0
 40
5.0
 40
6.0
 40
6.0
 40
6.0
 40
7.0
 40
7.0
 40
7.0
 40
8.0
 40
8.0
 40
8.0
 40
9.0
 40
9.0
 40
9.0
 40
10.0
 40
10.0
 40
10.0
 40
11.0
 40
11.0
 40
11.0
 40
12.0
 40
12.0
 40
12.0
 40
13.0
 40
13.0
 40
13.0
 40
13.0
 10
73.88592934350768
 20
-141.64441185695
 10
74.04457599060345
 20
-141.8624864011663
 10
74.11864554353632
 20
-141.9558484888166
 10
74.2624782800455
 20
-142.0040798256101
 10
74.2624782800455
 20
-142.0040798256101
 10
74.2624782800455
 20
-141.2258327554921
 10
74.2624782800455
 20
-141.2258327554921
 10
74.2624782800455
 20
-141.2258327554921
 10
74.46763371619213
 20
-141.2258327554921
 10
74.46763371619213
 20
-141.2258327554921
 10
74.46763371619213
 20
-141.2258327554921
 10
74.46763371619213
 20
-142.2538492482907
 10
74.46763371619213
 20
-142.2538492482907
 10
74.11003280482319
 20
-142.2221543698264
 10
74.03182913730802
 20
-142.1566975556067
 10
73.73348386828538
 20
-141.7715358803557
 10
73.53470185878646
 20
-141.5155652858017
 10
73.4670057325013
 20
-141.4501084715819
 10
73.32954642263984
 20
-141.4501084715819
 10
73.21103513794725
 20
-141.4501084715819
 10
73.07994925473349
 20
-141.5217664576751
 10
73.07994925473349
 20
-141.7188259194314
 10
73.07994925473349
 20
-141.9789306285678
 10
73.3104261426967
 20
-141.9875433672809
 10
73.42687037009814
 20
-141.9916774818632
 10
73.42687037009814
 20
-141.9916774818632
 10
73.42687037009814
 20
-142.2156086884044
 10
73.42687037009814
 20
-142.2156086884044
 10
73.29991860146669
 20
-142.2073404592398
 10
73.18778074342181
 20
-142.1970051727841
 10
73.06926945872921
 20
-142.1163899384293
 10
72.9085557543423
 20
-142.0064913924498
 10
72.8746215638126
 20
-141.8201117266977
 10
72.8746215638126
 20
-141.7036674992963
 10
72.8746215638126
 20
-141.4266818222822
 10
73.0587619174992
 20
-141.2192870740702
 10
73.331613479931
 20
-141.2192870740702
 10
73.56002331060306
 20
-141.2192870740702
 10
73.65958657012678
 20
-141.3357313014716
 10
73.88592934350768
 20
-141.64441185695
 97
        0
 97
        0
 75
     2
 76
     1
 98
        0
  0
POLYLINE
  5
9C
330
96
100
AcDbEntity
  8
_U+30EC_U+30A4_U+30E4_U+30FC 1
370
     0
100
AcDb2dPolyline
 66
     1
 10
0.0
 20
0.0
 30
0.0
  0
VERTEX
  5
9D
330
9C
100
AcDbEntity
  8
_U+30EC_U+30A4_U+30E4_U+30FC 1
370
     0
100
AcDbVertex
100
AcDb2dVertex
 10
74.46763371619213
 20
-141.0008680203053
 30
0.0
  0
VERTEX
  5
9E
330
9C
100
AcDbEntity
  8
_U+30EC_U+30A4_U+30E4_U+30FC 1
370
     0
100
AcDbVertex
100
AcDb2dVertex
 10
74.21596949099462
 20
-141.0008680203053
 30
0.0
  0
VERTEX
  5
9F
330
9C
100
AcDbEntity
  8
_U+30EC_U+30A4_U+30E4_U+30FC 1
370
     0
100
AcDbVertex
100
AcDb2dVertex
 10
74.21596949099462
 20
-140.7493760498821
 30
0.0
  0
VERTEX
  5
A0
330
9C
100
AcDbEntity
  8
_U+30EC_U+30A4_U+30E4_U+30FC 1
370
     0
100
AcDbVertex
100
AcDb2dVertex
 10
74.46763371619213
 20
-140.7493760498821
 30
0.0
  0
VERTEX
  5
A1
330
9C
100
AcDbEntity
  8
_U+30EC_U+30A4_U+30E4_U+30FC 1
370
     0
100
AcDbVertex
100
AcDb2dVertex
 10
74.46763371619213
 20
-141.0008680203053
 30
0.0
  0
SEQEND
  5
A2
330
9C
100
AcDbEntity
  8
_U+30EC_U+30A4_U+30E4_U+30FC 1
370
     0
  0
HATCH
  5
A3
330
96
100
AcDbEntity
  8
_U+30EC_U+30A4_U+30E4_U+30FC 1
 62
   179
420
  2234388
100
AcDbHatch
 10
0.0
 20
0.0
 30
0.0
210
0.0
220
0.0
230
1.0
  2
SOLID
 70
     1
 71
     0
 91
        1
 92
        1
 93
        4
 72
     1
 10
74.46763371619213
 20
-141.0008680203053
 11
74.21596949099462
 21
-141.0008680203053
 72
     1
 10
74.21596949099462
 20
-141.0008680203053
 11
74.21596949099462
 21
-140.7493760498821
 72
     1
 10
74.21596949099462
 20
-140.7493760498821
 11
74.46763371619213
 21
-140.7493760498821
 72
     1
 10
74.46763371619213
 20
-140.7493760498821
 11
74.46763371619213
 21
-141.0008680203053
 97
        0
 75
     2
 76
     1
 98
        0
  0
SPLINE
  5
A4
330
96
100
AcDbEntity
  8
_U+30EC_U+30A4_U+30E4_U+30FC 1
370
     0
100
AcDbSpline
210
0.0
220
0.0
230
1.0
 70
    11
 71
     3
 72
    53
 73
    49
 74
     0
 42
0.0000000001
 43
0.0000000001
 12
1.0
 22
0.0
 32
0.0
 13
1.0
 23
0.0
 33
0.0
 40
0.0
 40
0.0
 40
0.0
 40
0.0
 40
1.0
 40
1.0
 40
1.0
 40
2.0
 40
2.0
 40
2.0
 40
3.0
 40
3.0
 40
3.0
 40
4.0
 40
4.0
 40
4.0
 40
5.0
 40
5.0
 40
5.0
 40
6.0
 40
6.0
 40
6.0
 40
7.0
 40
7.0
 40
7.0
 40
8.0
 40
8.0
 40
8.0
 40
9.0
 40
9.0
 40
9.0
 40
10.0
 40
10.0
 40
10.0
 40
11.0
 40
11.0
 40
11.0
 40
12.0
 40
12.0
 40
12.0
 40
13.0
 40
13.0
 40
13.0
 40
14.0
 40
14.0
 40
14.0
 40
15.0
 40
15.0
 40
15.0
 40
16.0
 40
16.0
 40
16.0
 40
16.0
 10
74.51844887459956
 20
-140.0314181507561
 30
0.0
 10
74.51844887459956
 20
-140.1099663278197
 30
0.0
 10
74.50139565194758
 20
-140.2112521350861
 30
0.0
 10
74.43800589501897
 20
-140.3132269614495
 30
0.0
 10
74.32793509426524
 20
-140.4865152643575
 30
0.0
 10
74.19684921105149
 20
-140.5075303468176
 30
0.0
 10
74.08901772236317
 20
-140.526822881535
 30
0.0
 10
74.08901772236317
 20
-140.526822881535
 30
0.0
 10
74.08901772236317
 20
-140.3046142227363
 30
0.0
 10
74.08901772236317
 20
-140.3046142227363
 30
0.0
 10
74.28779973186208
 20
-140.2494926949724
 30
0.0
 10
74.31742755303523
 20
-140.1223686715666
 30
0.0
 10
74.31742755303523
 20
-140.0293510934649
 30
0.0
 10
74.31742755303523
 20
-139.8898247263123
 30
0.0
 10
74.21803654828577
 20
-139.7375515058642
 30
0.0
 10
73.98532034825715
 20
-139.7375515058642
 30
0.0
 10
73.72934975370308
 20
-139.7375515058642
 30
0.0
 10
73.65958657012678
 20
-139.9173854901943
 30
0.0
 10
73.65958657012678
 20
-140.037963832178
 30
0.0
 10
73.65958657012678
 20
-140.0696587106423
 30
0.0
 10
73.65958657012678
 20
-140.2112521350861
 30
0.0
 10
73.78860539604938
 20
-140.3001355986055
 30
0.0
 10
73.78860539604938
 20
-140.3001355986055
 30
0.0
 10
73.76948511610624
 20
-140.4758354683533
 30
0.0
 10
73.76948511610624
 20
-140.4758354683533
 30
0.0
 10
73.76948511610624
 20
-140.4758354683533
 30
0.0
 10
72.92336966492888
 20
-140.3552571263695
 30
0.0
 10
72.92336966492888
 20
-140.3552571263695
 30
0.0
 10
72.92336966492888
 20
-140.3552571263695
 30
0.0
 10
72.92336966492888
 20
-139.5766655467031
 30
0.0
 10
72.92336966492888
 20
-139.5766655467031
 30
0.0
 10
72.92336966492888
 20
-139.5766655467031
 30
0.0
 10
73.1180175598455
 20
-139.5766655467031
 30
0.0
 10
73.1180175598455
 20
-139.5766655467031
 30
0.0
 10
73.1180175598455
 20
-139.5766655467031
 30
0.0
 10
73.1180175598455
 20
-140.1926486194657
 30
0.0
 10
73.1180175598455
 20
-140.1926486194657
 30
0.0
 10
73.1180175598455
 20
-140.1926486194657
 30
0.0
 10
73.54107528543418
 20
-140.2581054336855
 30
0.0
 10
73.54107528543418
 20
-140.2581054336855
 30
0.0
 10
73.50714109490447
 20
-140.196782734048
 30
0.0
 10
73.4670057325013
 20
-140.114100442402
 30
0.0
 10
73.4670057325013
 20
-139.9955891577094
 30
0.0
 10
73.4670057325013
 20
-139.742030129995
 30
0.0
 10
73.65321314347906
 20
-139.5050075606099
 30
0.0
 10
73.96620006831401
 20
-139.5050075606099
 30
0.0
 10
74.28366561727978
 20
-139.5050075606099
 30
0.0
 10
74.51844887459956
 20
-139.7289387671511
 30
0.0
 10
74.51844887459956
 20
-140.0314181507561
 30
0.0
  0
HATCH
  5
A5
330
96
100
AcDbEntity
  8
_U+30EC_U+30A4_U+30E4_U+30FC 1
 62
   179
420
  2234388
100
AcDbHatch
 10
0.0
 20
0.0
 30
0.0
210
0.0
220
0.0
230
1.0
  2
SOLID
 70
     1
 71
     0
 91
        1
 92
        1
 93
        1
 72
     4
 94
        3
 73
     0
 74
     1
 95
       53
 96
       49
 40
0.0
 40
0.0
 40
0.0
 40
0.0
 40
1.0
 40
1.0
 40
1.0
 40
2.0
 40
2.0
 40
2.0
 40
3.0
 40
3.0
 40
3.0
 40
4.0
 40
4.0
 40
4.0
 40
5.0
 40
5.0
 40
5.0
 40
6.0
 40
6.0
 40
6.0
 40
7.0
 40
7.0
 40
7.0
 40
8.0
 40
8.0
 40
8.0
 40
9.0
 40
9.0
 40
9.0
 40
10.0
 40
10.0
 40
10.0
 40
11.0
 40
11.0
 40
11.0
 40
12.0
 40
12.0
 40
12.0
 40
13.0
 40
13.0
 40
13.0
 40
14.0
 40
14.0
 40
14.0
 40
15.0
 40
15.0
 40
15.0
 40
16.0
 40
16.0
 40
16.0
 40
16.0
 10
74.51844887459956
 20
-140.0314181507561
 10
74.51844887459956
 20
-140.1099663278197
 10
74.50139565194758
 20
-140.2112521350861
 10
74.43800589501897
 20
-140.3132269614495
 10
74.32793509426524
 20
-140.4865152643575
 10
74.19684921105149
 20
-140.5075303468176
 10
74.08901772236317
 20
-140.526822881535
 10
74.08901772236317
 20
-140.526822881535
 10
74.08901772236317
 20
-140.3046142227363
 10
74.08901772236317
 20
-140.3046142227363
 10
74.28779973186208
 20
-140.2494926949724
 10
74.31742755303523
 20
-140.1223686715666
 10
74.31742755303523
 20
-140.0293510934649
 10
74.31742755303523
 20
-139.8898247263123
 10
74.21803654828577
 20
-139.7375515058642
 10
73.98532034825715
 20
-139.7375515058642
 10
73.72934975370308
 20
-139.7375515058642
 10
73.65958657012678
 20
-139.9173854901943
 10
73.65958657012678
 20
-140.037963832178
 10
73.65958657012678
 20
-140.0696587106423
 10
73.65958657012678
 20
-140.2112521350861
 10
73.78860539604938
 20
-140.3001355986055
 10
73.78860539604938
 20
-140.3001355986055
 10
73.76948511610624
 20
-140.4758354683533
 10
73.76948511610624
 20
-140.4758354683533
 10
73.76948511610624
 20
-140.4758354683533
 10
72.92336966492888
 20
-140.3552571263695
 10
72.92336966492888
 20
-140.3552571263695
 10
72.92336966492888
 20
-140.3552571263695
 10
72.92336966492888
 20
-139.5766655467031
 10
72.92336966492888
 20
-139.5766655467031
 10
72.92336966492888
 20
-139.5766655467031
 10
73.1180175598455
 20
-139.5766655467031
 10
73.1180175598455
 20
-139.5766655467031
 10
73.1180175598455
 20
-139.5766655467031
 10
73.1180175598455
 20
-140.1926486194657
 10
73.1180175598455
 20
-140.1926486194657
 10
73.1180175598455
 20
-140.1926486194657
 10
73.54107528543418
 20
-140.2581054336855
 10
73.54107528543418
 20
-140.2581054336855
 10
73.50714109490447
 20
-140.196782734048
 10
73.4670057325013
 20
-140.114100442402
 10
73.4670057325013
 20
-139.9955891577094
 10
73.4670057325013
 20
-139.742030129995
 10
73.65321314347906
 20
-139.5050075606099
 10
73.96620006831401
 20
-139.5050075606099
 10
74.28366561727978
 20
-139.5050075606099
 10
74.51844887459956
 20
-139.7289387671511
 10
74.51844887459956
 20
-140.0314181507561
 97
        0
 97
        0
 75
     2
 76
     1
 98
        0
  0
ENDBLK
  5
99
330
96
100
AcDbEntity
  8
0
100
AcDbBlockEnd
  0
BLOCK
  5
BB
330
B9
100
AcDbEntity
  8
0
100
AcDbBlockBegin
  2
block 5
 70
     0
 10
0.0
 20
0.0
 30
0.0
  3
block 5
  1

  0
SPLINE
  5
BD
330
B9
100
AcDbEntity
  8
_U+30EC_U+30A4_U+30E4_U+30FC 1
370
     0
100
AcDbSpline
210
0.0
220
0.0
230
1.0
 70
    11
 71
     3
 72
    26
 73
    22
 74
     0
 42
0.0000000001
 43
0.0000000001
 12
1.0
 22
0.0
 32
0.0
 13
1.0
 23
0.0
 33
0.0
 40
0.0
 40
0.0
 40
0.0
 40
0.0
 40
1.0
 40
1.0
 40
1.0
 40
2.0
 40
2.0
 40
2.0
 40
3.0
 40
3.0
 40
3.0
 40
4.0
 40
4.0
 40
4.0
 40
5.0
 40
5.0
 40
5.0
 40
6.0
 40
6.0
 40
6.0
 40
7.0
 40
7.0
 40
7.0
 40
7.0
 10
91.1511976226115
 20
-115.1509385562817
 30
0.0
 10
91.1511976226115
 20
-115.1509385562817
 30
0.0
 10
91.1511976226115
 20
-114.0466131984849
 30
0.0
 10
91.1511976226115
 20
-114.0466131984849
 30
0.0
 10
91.1511976226115
 20
-114.0466131984849
 30
0.0
 10
90.82115747512458
 20
-114.0466131984849
 30
0.0
 10
90.82115747512458
 20
-114.0466131984849
 30
0.0
 10
90.82115747512458
 20
-114.0466131984849
 30
0.0
 10
90.82115747512458
 20
-113.8986463473934
 30
0.0
 10
90.82115747512458
 20
-113.8986463473934
 30
0.0
 10
91.15326467990266
 20
-113.8838324368068
 30
0.0
 10
91.19977346895354
 20
-113.7208794203545
 30
0.0
 10
91.22940129012669
 20
-113.6066745050185
 30
0.0
 10
91.22940129012669
 20
-113.6066745050185
 30
0.0
 10
91.37530108392701
 20
-113.6066745050185
 30
0.0
 10
91.37530108392701
 20
-113.6066745050185
 30
0.0
 10
91.37530108392701
 20
-113.6066745050185
 30
0.0
 10
91.37530108392701
 20
-115.1509385562817
 30
0.0
 10
91.37530108392701
 20
-115.1509385562817
 30
0.0
 10
91.37530108392701
 20
-115.1509385562817
 30
0.0
 10
91.1511976226115
 20
-115.1509385562817
 30
0.0
 10
91.1511976226115
 20
-115.1509385562817
 30
0.0
  0
HATCH
  5
BE
330
B9
100
AcDbEntity
  8
_U+30EC_U+30A4_U+30E4_U+30FC 1
 62
   179
420
  2234388
100
AcDbHatch
 10
0.0
 20
0.0
 30
0.0
210
0.0
220
0.0
230
1.0
  2
SOLID
 70
     1
 71
     0
 91
        1
 92
        1
 93
        1
 72
     4
 94
        3
 73
     0
 74
     1
 95
       26
 96
       22
 40
0.0
 40
0.0
 40
0.0
 40
0.0
 40
1.0
 40
1.0
 40
1.0
 40
2.0
 40
2.0
 40
2.0
 40
3.0
 40
3.0
 40
3.0
 40
4.0
 40
4.0
 40
4.0
 40
5.0
 40
5.0
 40
5.0
 40
6.0
 40
6.0
 40
6.0
 40
7.0
 40
7.0
 40
7.0
 40
7.0
 10
91.1511976226115
 20
-115.1509385562817
 10
91.1511976226115
 20
-115.1509385562817
 10
91.1511976226115
 20
-114.0466131984849
 10
91.1511976226115
 20
-114.0466131984849
 10
91.1511976226115
 20
-114.0466131984849
 10
90.82115747512458
 20
-114.0466131984849
 10
90.82115747512458
 20
-114.0466131984849
 10
90.82115747512458
 20
-114.0466131984849
 10
90.82115747512458
 20
-113.8986463473934
 10
90.82115747512458
 20
-113.8986463473934
 10
91.15326467990266
 20
-113.8838324368068
 10
91.19977346895354
 20
-113.7208794203545
 10
91.22940129012669
 20
-113.6066745050185
 10
91.22940129012669
 20
-113.6066745050185
 10
91.37530108392701
 20
-113.6066745050185
 10
91.37530108392701
 20
-113.6066745050185
 10
91.37530108392701
 20
-113.6066745050185
 10
91.37530108392701
 20
-115.1509385562817
 10
91.37530108392701
 20
-115.1509385562817
 10
91.37530108392701
 20
-115.1509385562817
 10
91.1511976226115
 20
-115.1509385562817
 10
91.1511976226115
 20
-115.1509385562817
 97
        0
 97
        0
 75
     2
 76
     1
 98
        0
  0
SPLINE
  5
BF
330
B9
100
AcDbEntity
  8
_U+30EC_U+30A4_U+30E4_U+30FC 1
370
     0
100
AcDbSpline
210
0.0
220
0.0
230
1.0
 70
    11
 71
     3
 72
    53
 73
    49
 74
     0
 42
0.0000000001
 43
0.0000000001
 12
1.0
 22
0.0
 32
0.0
 13
1.0
 23
0.0
 33
0.0
 40
0.0
 40
0.0
 40
0.0
 40
0.0
 40
1.0
 40
1.0
 40
1.0
 40
2.0
 40
2.0
 40
2.0
 40
3.0
 40
3.0
 40
3.0
 40
4.0
 40
4.0
 40
4.0
 40
5.0
 40
5.0
 40
5.0
 40
6.0
 40
6.0
 40
6.0
 40
7.0
 40
7.0
 40
7.0
 40
8.0
 40
8.0
 40
8.0
 40
9.0
 40
9.0
 40
9.0
 40
10.0
 40
10.0
 40
10.0
 40
11.0
 40
11.0
 40
11.0
 40
12.0
 40
12.0
 40
12.0
 40
13.0
 40
13.0
 40
13.0
 40
14.0
 40
14.0
 40
14.0
 40
15.0
 40
15.0
 40
15.0
 40
16.0
 40
16.0
 40
16.0
 40
16.0
 10
92.35749780677175
 20
-115.2017537146891
 30
0.0
 10
92.27929413925656
 20
-115.2017537146891
 30
0.0
 10
92.1776638224417
 20
-115.1847004920372
 30
0.0
 10
92.07603350562682
 20
-115.1213107351086
 30
0.0
 10
91.90274520271876
 20
-115.0112399343548
 30
0.0
 10
91.88138561071021
 20
-114.8801540511411
 30
0.0
 10
91.86243758554134
 20
-114.7723225624528
 30
0.0
 10
91.86243758554134
 20
-114.7723225624528
 30
0.0
 10
92.08464624433995
 20
-114.7723225624528
 30
0.0
 10
92.08464624433995
 20
-114.7723225624528
 30
0.0
 10
92.13942326255543
 20
-114.9711045719517
 30
0.0
 10
92.26654728596114
 20
-115.0007323931248
 30
0.0
 10
92.35956486406289
 20
-115.0007323931248
 30
0.0
 10
92.49909123121552
 20
-115.0007323931248
 30
0.0
 10
92.65136445166355
 20
-114.9013413883754
 30
0.0
 10
92.65136445166355
 20
-114.6686251883467
 30
0.0
 10
92.65136445166355
 20
-114.4126545937927
 30
0.0
 10
92.47153046733351
 20
-114.3428914102164
 30
0.0
 10
92.35095212534976
 20
-114.3428914102164
 30
0.0
 10
92.31925724688547
 20
-114.3428914102164
 30
0.0
 10
92.1776638224417
 20
-114.3428914102164
 30
0.0
 10
92.08878035892225
 20
-114.471910236139
 30
0.0
 10
92.08878035892225
 20
-114.471910236139
 30
0.0
 10
91.91308048917452
 20
-114.4527899561958
 30
0.0
 10
91.91308048917452
 20
-114.4527899561958
 30
0.0
 10
91.91308048917452
 20
-114.4527899561958
 30
0.0
 10
92.03365883115826
 20
-113.6066745050185
 30
0.0
 10
92.03365883115826
 20
-113.6066745050185
 30
0.0
 10
92.03365883115826
 20
-113.6066745050185
 30
0.0
 10
92.81225041082472
 20
-113.6066745050185
 30
0.0
 10
92.81225041082472
 20
-113.6066745050185
 30
0.0
 10
92.81225041082472
 20
-113.6066745050185
 30
0.0
 10
92.81225041082472
 20
-113.8013223999351
 30
0.0
 10
92.81225041082472
 20
-113.8013223999351
 30
0.0
 10
92.81225041082472
 20
-113.8013223999351
 30
0.0
 10
92.19661184761057
 20
-113.8013223999351
 30
0.0
 10
92.19661184761057
 20
-113.8013223999351
 30
0.0
 10
92.19661184761057
 20
-113.8013223999351
 30
0.0
 10
92.13115503339083
 20
-114.2243801255238
 30
0.0
 10
92.13115503339083
 20
-114.2243801255238
 30
0.0
 10
92.19247773302827
 20
-114.1904459349941
 30
0.0
 10
92.27481551512574
 20
-114.1503105725909
 30
0.0
 10
92.39332679981834
 20
-114.1503105725909
 30
0.0
 10
92.64723033708125
 20
-114.1503105725909
 30
0.0
 10
92.88425290646644
 20
-114.3365179835687
 30
0.0
 10
92.88425290646644
 20
-114.6495049084036
 30
0.0
 10
92.88425290646644
 20
-114.9669704573694
 30
0.0
 10
92.65997719037668
 20
-115.2017537146891
 30
0.0
 10
92.35749780677175
 20
-115.2017537146891
 30
0.0
  0
HATCH
  5
C0
330
B9
100
AcDbEntity
  8
_U+30EC_U+30A4_U+30E4_U+30FC 1
 62
   179
420
  2234388
100
AcDbHatch
 10
0.0
 20
0.0
 30
0.0
210
0.0
220
0.0
230
1.0
  2
SOLID
 70
     1
 71
     0
 91
        1
 92
        1
 93
        1
 72
     4
 94
        3
 73
     0
 74
     1
 95
       53
 96
       49
 40
0.0
 40
0.0
 40
0.0
 40
0.0
 40
1.0
 40
1.0
 40
1.0
 40
2.0
 40
2.0
 40
2.0
 40
3.0
 40
3.0
 40
3.0
 40
4.0
 40
4.0
 40
4.0
 40
5.0
 40
5.0
 40
5.0
 40
6.0
 40
6.0
 40
6.0
 40
7.0
 40
7.0
 40
7.0
 40
8.0
 40
8.0
 40
8.0
 40
9.0
 40
9.0
 40
9.0
 40
10.0
 40
10.0
 40
10.0
 40
11.0
 40
11.0
 40
11.0
 40
12.0
 40
12.0
 40
12.0
 40
13.0
 40
13.0
 40
13.0
 40
14.0
 40
14.0
 40
14.0
 40
15.0
 40
15.0
 40
15.0
 40
16.0
 40
16.0
 40
16.0
 40
16.0
 10
92.35749780677175
 20
-115.2017537146891
 10
92.27929413925656
 20
-115.2017537146891
 10
92.1776638224417
 20
-115.1847004920372
 10
92.07603350562682
 20
-115.1213107351086
 10
91.90274520271876
 20
-115.0112399343548
 10
91.88138561071021
 20
-114.8801540511411
 10
91.86243758554134
 20
-114.7723225624528
 10
91.86243758554134
 20
-114.7723225624528
 10
92.08464624433995
 20
-114.7723225624528
 10
92.08464624433995
 20
-114.7723225624528
 10
92.13942326255543
 20
-114.9711045719517
 10
92.26654728596114
 20
-115.0007323931248
 10
92.35956486406289
 20
-115.0007323931248
 10
92.49909123121552
 20
-115.0007323931248
 10
92.65136445166355
 20
-114.9013413883754
 10
92.65136445166355
 20
-114.6686251883467
 10
92.65136445166355
 20
-114.4126545937927
 10
92.47153046733351
 20
-114.3428914102164
 10
92.35095212534976
 20
-114.3428914102164
 10
92.31925724688547
 20
-114.3428914102164
 10
92.1776638224417
 20
-114.3428914102164
 10
92.08878035892225
 20
-114.471910236139
 10
92.08878035892225
 20
-114.471910236139
 10
91.91308048917452
 20
-114.4527899561958
 10
91.91308048917452
 20
-114.4527899561958
 10
91.91308048917452
 20
-114.4527899561958
 10
92.03365883115826
 20
-113.6066745050185
 10
92.03365883115826
 20
-113.6066745050185
 10
92.03365883115826
 20
-113.6066745050185
 10
92.81225041082472
 20
-113.6066745050185
 10
92.81225041082472
 20
-113.6066745050185
 10
92.81225041082472
 20
-113.6066745050185
 10
92.81225041082472
 20
-113.8013223999351
 10
92.81225041082472
 20
-113.8013223999351
 10
92.81225041082472
 20
-113.8013223999351
 10
92.19661184761057
 20
-113.8013223999351
 10
92.19661184761057
 20
-113.8013223999351
 10
92.19661184761057
 20
-113.8013223999351
 10
92.13115503339083
 20
-114.2243801255238
 10
92.13115503339083
 20
-114.2243801255238
 10
92.19247773302827
 20
-114.1904459349941
 10
92.27481551512574
 20
-114.1503105725909
 10
92.39332679981834
 20
-114.1503105725909
 10
92.64723033708125
 20
-114.1503105725909
 10
92.88425290646644
 20
-114.3365179835687
 10
92.88425290646644
 20
-114.6495049084036
 10
92.88425290646644
 20
-114.9669704573694
 10
92.65997719037668
 20
-115.2017537146891
 10
92.35749780677175
 20
-115.2017537146891
 97
        0
 97
        0
 75
     2
 76
     1
 98
        0
  0
POLYLINE
  5
C1
330
B9
100
AcDbEntity
  8
_U+30EC_U+30A4_U+30E4_U+30FC 1
370
     0
100
AcDb2dPolyline
 66
     1
 10
0.0
 20
0.0
 30
0.0
  0
VERTEX
  5
C2
330
C1
100
AcDbEntity
  8
_U+30EC_U+30A4_U+30E4_U+30FC 1
370
     0
100
AcDbVertex
100
AcDb2dVertex
 10
93.11335175623556
 20
-115.1509385562817
 30
0.0
  0
VERTEX
  5
C3
330
C1
100
AcDbEntity
  8
_U+30EC_U+30A4_U+30E4_U+30FC 1
370
     0
100
AcDbVertex
100
AcDb2dVertex
 10
93.11335175623556
 20
-114.8992743310842
 30
0.0
  0
VERTEX
  5
C4
330
C1
100
AcDbEntity
  8
_U+30EC_U+30A4_U+30E4_U+30FC 1
370
     0
100
AcDbVertex
100
AcDb2dVertex
 10
93.36518823620732
 20
-114.8992743310842
 30
0.0
  0
VERTEX
  5
C5
330
C1
100
AcDbEntity
  8
_U+30EC_U+30A4_U+30E4_U+30FC 1
370
     0
100
AcDbVertex
100
AcDb2dVertex
 10
93.36518823620732
 20
-115.1509385562817
 30
0.0
  0
VERTEX
  5
C6
330
C1
100
AcDbEntity
  8
_U+30EC_U+30A4_U+30E4_U+30FC 1
370
     0
100
AcDbVertex
100
AcDb2dVertex
 10
93.11335175623556
 20
-115.1509385562817
 30
0.0
  0
SEQEND
  5
C7
330
C1
100
AcDbEntity
  8
_U+30EC_U+30A4_U+30E4_U+30FC 1
370
     0
  0
HATCH
  5
C8
330
B9
100
AcDbEntity
  8
_U+30EC_U+30A4_U+30E4_U+30FC 1
 62
   179
420
  2234388
100
AcDbHatch
 10
0.0
 20
0.0
 30
0.0
210
0.0
220
0.0
230
1.0
  2
SOLID
 70
     1
 71
     0
 91
        1
 92
        1
 93
        4
 72
     1
 10
93.11335175623556
 20
-115.1509385562817
 11
93.11335175623556
 21
-114.8992743310842
 72
     1
 10
93.11335175623556
 20
-114.8992743310842
 11
93.36518823620732
 21
-114.8992743310842
 72
     1
 10
93.36518823620732
 20
-114.8992743310842
 11
93.36518823620732
 21
-115.1509385562817
 72
     1
 10
93.36518823620732
 20
-115.1509385562817
 11
93.11335175623556
 21
-115.1509385562817
 97
        0
 75
     2
 76
     1
 98
        0
  0
SPLINE
  5
C9
330
B9
100
AcDbEntity
  8
_U+30EC_U+30A4_U+30E4_U+30FC 1
370
     0
100
AcDbSpline
210
0.0
220
0.0
230
1.0
 70
    11
 71
     3
 72
    44
 73
    40
 74
     0
 42
0.0000000001
 43
0.0000000001
 12
1.0
 22
0.0
 32
0.0
 13
1.0
 23
0.0
 33
0.0
 40
0.0
 40
0.0
 40
0.0
 40
0.0
 40
1.0
 40
1.0
 40
1.0
 40
2.0
 40
2.0
 40
2.0
 40
3.0
 40
3.0
 40
3.0
 40
4.0
 40
4.0
 40
4.0
 40
5.0
 40
5.0
 40
5.0
 40
6.0
 40
6.0
 40
6.0
 40
7.0
 40
7.0
 40
7.0
 40
8.0
 40
8.0
 40
8.0
 40
9.0
 40
9.0
 40
9.0
 40
10.0
 40
10.0
 40
10.0
 40
11.0
 40
11.0
 40
11.0
 40
12.0
 40
12.0
 40
12.0
 40
13.0
 40
13.0
 40
13.0
 40
13.0
 10
94.19442271950696
 20
-114.5692341835973
 30
0.0
 10
93.97669268483916
 20
-114.727880830693
 30
0.0
 10
93.88367510673741
 20
-114.8019503836259
 30
0.0
 10
93.83475475084687
 20
-114.9457831201351
 30
0.0
 10
93.83475475084687
 20
-114.9457831201351
 30
0.0
 10
94.61334633051334
 20
-114.9457831201351
 30
0.0
 10
94.61334633051334
 20
-114.9457831201351
 30
0.0
 10
94.61334633051334
 20
-114.9457831201351
 30
0.0
 10
94.61334633051334
 20
-115.1509385562817
 30
0.0
 10
94.61334633051334
 20
-115.1509385562817
 30
0.0
 10
94.61334633051334
 20
-115.1509385562817
 30
0.0
 10
93.58532983771478
 20
-115.1509385562817
 30
0.0
 10
93.58532983771478
 20
-115.1509385562817
 30
0.0
 10
93.61702471617909
 20
-114.7933376449128
 30
0.0
 10
93.68248153039883
 20
-114.7151339773976
 30
0.0
 10
94.06764320564976
 20
-114.416788708375
 30
0.0
 10
94.32361380020382
 20
-114.2180066988761
 30
0.0
 10
94.38907061442357
 20
-114.1503105725909
 30
0.0
 10
94.38907061442357
 20
-114.0128512627294
 30
0.0
 10
94.38907061442357
 20
-113.8943399780368
 30
0.0
 10
94.31706811878185
 20
-113.7632540948231
 30
0.0
 10
94.12035316657408
 20
-113.7632540948231
 30
0.0
 10
93.86024845743772
 20
-113.7632540948231
 30
0.0
 10
93.8516357187246
 20
-113.9937309827863
 30
0.0
 10
93.8475016041423
 20
-114.1101752101877
 30
0.0
 10
93.8475016041423
 20
-114.1101752101877
 30
0.0
 10
93.62322588805253
 20
-114.1101752101877
 30
0.0
 10
93.62322588805253
 20
-114.1101752101877
 30
0.0
 10
93.63183862676566
 20
-113.9832234415563
 30
0.0
 10
93.64251842276992
 20
-113.8710855835114
 30
0.0
 10
93.72278914757625
 20
-113.7525742988188
 30
0.0
 10
93.83268769355573
 20
-113.5918605944319
 30
0.0
 10
94.01906735930774
 20
-113.5579264039022
 30
0.0
 10
94.13516707716066
 20
-113.5579264039022
 30
0.0
 10
94.41249726372327
 20
-113.5579264039022
 30
0.0
 10
94.6198920119353
 20
-113.7420667575888
 30
0.0
 10
94.6198920119353
 20
-114.0149183200206
 30
0.0
 10
94.6198920119353
 20
-114.2433281506926
 30
0.0
 10
94.50344778453386
 20
-114.3428914102164
 30
0.0
 10
94.19442271950696
 20
-114.5692341835973
 30
0.0
  0
HATCH
  5
CA
330
B9
100
AcDbEntity
  8
_U+30EC_U+30A4_U+30E4_U+30FC 1
 62
   179
420
  2234388
100
AcDbHatch
 10
0.0
 20
0.0
 30
0.0
210
0.0
220
0.0
230
1.0
  2
SOLID
 70
     1
 71
     0
 91
        1
 92
        1
 93
        1
 72
     4
 94
        3
 73
     0
 74
     1
 95
       44
 96
       40
 40
0.0
 40
0.0
 40
0.0
 40
0.0
 40
1.0
 40
1.0
 40
1.0
 40
2.0
 40
2.0
 40
2.0
 40
3.0
 40
3.0
 40
3.0
 40
4.0
 40
4.0
 40
4.0
 40
5.0
 40
5.0
 40
5.0
 40
6.0
 40
6.0
 40
6.0
 40
7.0
 40
7.0
 40
7.0
 40
8.0
 40
8.0
 40
8.0
 40
9.0
 40
9.0
 40
9.0
 40
10.0
 40
10.0
 40
10.0
 40
11.0
 40
11.0
 40
11.0
 40
12.0
 40
12.0
 40
12.0
 40
13.0
 40
13.0
 40
13.0
 40
13.0
 10
94.19442271950696
 20
-114.5692341835973
 10
93.97669268483916
 20
-114.727880830693
 10
93.88367510673741
 20
-114.8019503836259
 10
93.83475475084687
 20
-114.9457831201351
 10
93.83475475084687
 20
-114.9457831201351
 10
94.61334633051334
 20
-114.9457831201351
 10
94.61334633051334
 20
-114.9457831201351
 10
94.61334633051334
 20
-114.9457831201351
 10
94.61334633051334
 20
-115.1509385562817
 10
94.61334633051334
 20
-115.1509385562817
 10
94.61334633051334
 20
-115.1509385562817
 10
93.58532983771478
 20
-115.1509385562817
 10
93.58532983771478
 20
-115.1509385562817
 10
93.61702471617909
 20
-114.7933376449128
 10
93.68248153039883
 20
-114.7151339773976
 10
94.06764320564976
 20
-114.416788708375
 10
94.32361380020382
 20
-114.2180066988761
 10
94.38907061442357
 20
-114.1503105725909
 10
94.38907061442357
 20
-114.0128512627294
 10
94.38907061442357
 20
-113.8943399780368
 10
94.31706811878185
 20
-113.7632540948231
 10
94.12035316657408
 20
-113.7632540948231
 10
93.86024845743772
 20
-113.7632540948231
 10
93.8516357187246
 20
-113.9937309827863
 10
93.8475016041423
 20
-114.1101752101877
 10
93.8475016041423
 20
-114.1101752101877
 10
93.62322588805253
 20
-114.1101752101877
 10
93.62322588805253
 20
-114.1101752101877
 10
93.63183862676566
 20
-113.9832234415563
 10
93.64251842276992
 20
-113.8710855835114
 10
93.72278914757625
 20
-113.7525742988188
 10
93.83268769355573
 20
-113.5918605944319
 10
94.01906735930774
 20
-113.5579264039022
 10
94.13516707716066
 20
-113.5579264039022
 10
94.41249726372327
 20
-113.5579264039022
 10
94.6198920119353
 20
-113.7420667575888
 10
94.6198920119353
 20
-114.0149183200206
 10
94.6198920119353
 20
-114.2433281506926
 10
94.50344778453386
 20
-114.3428914102164
 10
94.19442271950696
 20
-114.5692341835973
 97
        0
 97
        0
 75
     2
 76
     1
 98
        0
  0
ENDBLK
  5
BC
330
B9
100
AcDbEntity
  8
0
100
AcDbBlockEnd
  0
BLOCK
  5
DC
330
DA
100
AcDbEntity
  8
0
100
AcDbBlockBegin
  2
block 6
 70
     0
 10
0.0
 20
0.0
 30
0.0
  3
block 6
  1

  0
SPLINE
  5
DE
330
DA
100
AcDbEntity
  8
_U+30EC_U+30A4_U+30E4_U+30FC 1
370
     0
100
AcDbSpline
210
0.0
220
0.0
230
1.0
 70
    11
 71
     3
 72
    32
 73
    28
 74
     0
 42
0.0000000001
 43
0.0000000001
 12
1.0
 22
0.0
 32
0.0
 13
1.0
 23
0.0
 33
0.0
 40
0.0
 40
0.0
 40
0.0
 40
0.0
 40
1.0
 40
1.0
 40
1.0
 40
2.0
 40
2.0
 40
2.0
 40
3.0
 40
3.0
 40
3.0
 40
4.0
 40
4.0
 40
4.0
 40
5.0
 40
5.0
 40
5.0
 40
6.0
 40
6.0
 40
6.0
 40
7.0
 40
7.0
 40
7.0
 40
8.0
 40
8.0
 40
8.0
 40
9.0
 40
9.0
 40
9.0
 40
9.0
 10
83.05005558904652
 20
-130.8777994464472
 30
0.0
 10
82.87676728613845
 20
-130.8777994464472
 30
0.0
 10
82.63113197804013
 20
-130.8075194985481
 30
0.0
 10
82.5932359277024
 20
-130.47541229377
 30
0.0
 10
82.5932359277024
 20
-130.47541229377
 30
0.0
 10
82.80683184778788
 20
-130.47541229377
 30
0.0
 10
82.80683184778788
 20
-130.47541229377
 30
0.0
 10
82.81751164379216
 20
-130.5346679361163
 30
0.0
 10
82.84920652225645
 20
-130.6828070419821
 30
0.0
 10
83.05212264633766
 20
-130.6828070419821
 30
0.0
 10
83.34426674348686
 20
-130.6828070419821
 30
0.0
 10
83.3821627938246
 20
-130.3527668944951
 30
0.0
 10
83.39490964712003
 20
-130.1477837131228
 30
0.0
 10
83.30395912630944
 20
-130.2280544379291
 30
0.0
 10
83.23643525479854
 20
-130.2852430229842
 30
0.0
 10
83.05453421317735
 20
-130.2852430229842
 30
0.0
 10
82.8747002288473
 20
-130.2852430229842
 30
0.0
 10
82.57222084524237
 20
-130.1794785915871
 30
0.0
 10
82.57222084524237
 20
-129.7733018338761
 30
0.0
 10
82.57222084524237
 20
-129.4535969728449
 30
0.0
 10
82.77100285474128
 20
-129.233799880886
 30
0.0
 10
83.08829614893278
 20
-129.233799880886
 30
0.0
 10
83.60230439533207
 20
-129.233799880886
 30
0.0
 10
83.61298419133634
 20
-129.7881157444627
 30
0.0
 10
83.61298419133634
 20
-130.0017116645482
 30
0.0
 10
83.61298419133634
 20
-130.2321885525114
 30
0.0
 10
83.59369165661894
 20
-130.8777994464472
 30
0.0
 10
83.05005558904652
 20
-130.8777994464472
 30
0.0
  0
SPLINE
  5
DF
330
DA
100
AcDbEntity
  8
_U+30EC_U+30A4_U+30E4_U+30FC 1
370
     0
100
AcDbSpline
210
0.0
220
0.0
230
1.0
 70
    11
 71
     3
 72
    17
 73
    13
 74
     0
 42
0.0000000001
 43
0.0000000001
 12
1.0
 22
0.0
 32
0.0
 13
1.0
 23
0.0
 33
0.0
 40
0.0
 40
0.0
 40
0.0
 40
0.0
 40
1.0
 40
1.0
 40
1.0
 40
2.0
 40
2.0
 40
2.0
 40
3.0
 40
3.0
 40
3.0
 40
4.0
 40
4.0
 40
4.0
 40
4.0
 10
83.09036320622394
 20
-129.4263807185115
 30
0.0
 10
82.97185192153135
 20
-129.4263807185115
 30
0.0
 10
82.79615205178361
 20
-129.4832247940181
 30
0.0
 10
82.79615205178361
 20
-129.7691677192938
 30
0.0
 10
82.79615205178361
 20
-129.9951659831262
 30
0.0
 10
82.93602292848475
 20
-130.0905951280676
 30
0.0
 10
83.07141518105507
 20
-130.0905951280676
 30
0.0
 10
83.33358694748257
 20
-130.0905951280676
 30
0.0
 10
83.37182750736885
 20
-129.8811333225644
 30
0.0
 10
83.37182750736885
 20
-129.7650336047115
 30
0.0
 10
83.37182750736885
 20
-129.5893337349638
 30
0.0
 10
83.27639836242743
 20
-129.4263807185115
 30
0.0
 10
83.09036320622394
 20
-129.4263807185115
 30
0.0
  0
HATCH
  5
E0
330
DA
100
AcDbEntity
  8
_U+30EC_U+30A4_U+30E4_U+30FC 1
 62
   179
420
  2234388
100
AcDbHatch
 10
0.0
 20
0.0
 30
0.0
210
0.0
220
0.0
230
1.0
  2
SOLID
 70
     1
 71
     0
 91
        2
 92
        1
 93
        1
 72
     4
 94
        3
 73
     0
 74
     1
 95
       32
 96
       28
 40
0.0
 40
0.0
 40
0.0
 40
0.0
 40
1.0
 40
1.0
 40
1.0
 40
2.0
 40
2.0
 40
2.0
 40
3.0
 40
3.0
 40
3.0
 40
4.0
 40
4.0
 40
4.0
 40
5.0
 40
5.0
 40
5.0
 40
6.0
 40
6.0
 40
6.0
 40
7.0
 40
7.0
 40
7.0
 40
8.0
 40
8.0
 40
8.0
 40
9.0
 40
9.0
 40
9.0
 40
9.0
 10
83.05005558904652
 20
-130.8777994464472
 10
82.87676728613845
 20
-130.8777994464472
 10
82.63113197804013
 20
-130.8075194985481
 10
82.5932359277024
 20
-130.47541229377
 10
82.5932359277024
 20
-130.47541229377
 10
82.80683184778788
 20
-130.47541229377
 10
82.80683184778788
 20
-130.47541229377
 10
82.81751164379216
 20
-130.5346679361163
 10
82.84920652225645
 20
-130.6828070419821
 10
83.05212264633766
 20
-130.6828070419821
 10
83.34426674348686
 20
-130.6828070419821
 10
83.3821627938246
 20
-130.3527668944951
 10
83.39490964712003
 20
-130.1477837131228
 10
83.30395912630944
 20
-130.2280544379291
 10
83.23643525479854
 20
-130.2852430229842
 10
83.05453421317735
 20
-130.2852430229842
 10
82.8747002288473
 20
-130.2852430229842
 10
82.57222084524237
 20
-130.1794785915871
 10
82.57222084524237
 20
-129.7733018338761
 10
82.57222084524237
 20
-129.4535969728449
 10
82.77100285474128
 20
-129.233799880886
 10
83.08829614893278
 20
-129.233799880886
 10
83.60230439533207
 20
-129.233799880886
 10
83.61298419133634
 20
-129.7881157444627
 10
83.61298419133634
 20
-130.0017116645482
 10
83.61298419133634
 20
-130.2321885525114
 10
83.59369165661894
 20
-130.8777994464472
 10
83.05005558904652
 20
-130.8777994464472
 97
        0
 97
        0
 92
        1
 93
        1
 72
     4
 94
        3
 73
     0
 74
     1
 95
       17
 96
       13
 40
0.0
 40
0.0
 40
0.0
 40
0.0
 40
1.0
 40
1.0
 40
1.0
 40
2.0
 40
2.0
 40
2.0
 40
3.0
 40
3.0
 40
3.0
 40
4.0
 40
4.0
 40
4.0
 40
4.0
 10
83.09036320622394
 20
-129.4263807185115
 10
82.97185192153135
 20
-129.4263807185115
 10
82.79615205178361
 20
-129.4832247940181
 10
82.79615205178361
 20
-129.7691677192938
 10
82.79615205178361
 20
-129.9951659831262
 10
82.93602292848475
 20
-130.0905951280676
 10
83.07141518105507
 20
-130.0905951280676
 10
83.33358694748257
 20
-130.0905951280676
 10
83.37182750736885
 20
-129.8811333225644
 10
83.37182750736885
 20
-129.7650336047115
 10
83.37182750736885
 20
-129.5893337349638
 10
83.27639836242743
 20
-129.4263807185115
 10
83.09036320622394
 20
-129.4263807185115
 97
        0
 97
        0
 75
     2
 76
     1
 98
        0
  0
ENDBLK
  5
DD
330
DA
100
AcDbEntity
  8
0
100
AcDbBlockEnd
  0
BLOCK
  5
E8
330
E6
100
AcDbEntity
  8
0
100
AcDbBlockBegin
  2
block 7
 70
     0
 10
0.0
 20
0.0
 30
0.0
  3
block 7
  1

  0
SPLINE
  5
EA
330
E6
100
AcDbEntity
  8
_U+30EC_U+30A4_U+30E4_U+30FC 1
370
     0
100
AcDbSpline
210
0.0
220
0.0
230
1.0
 70
    11
 71
     3
 72
    53
 73
    49
 74
     0
 42
0.0000000001
 43
0.0000000001
 12
1.0
 22
0.0
 32
0.0
 13
1.0
 23
0.0
 33
0.0
 40
0.0
 40
0.0
 40
0.0
 40
0.0
 40
1.0
 40
1.0
 40
1.0
 40
2.0
 40
2.0
 40
2.0
 40
3.0
 40
3.0
 40
3.0
 40
4.0
 40
4.0
 40
4.0
 40
5.0
 40
5.0
 40
5.0
 40
6.0
 40
6.0
 40
6.0
 40
7.0
 40
7.0
 40
7.0
 40
8.0
 40
8.0
 40
8.0
 40
9.0
 40
9.0
 40
9.0
 40
10.0
 40
10.0
 40
10.0
 40
11.0
 40
11.0
 40
11.0
 40
12.0
 40
12.0
 40
12.0
 40
13.0
 40
13.0
 40
13.0
 40
14.0
 40
14.0
 40
14.0
 40
15.0
 40
15.0
 40
15.0
 40
16.0
 40
16.0
 40
16.0
 40
16.0
 10
97.4686414686884
 20
-142.7371961448713
 30
0.0
 10
97.39043780117323
 20
-142.7371961448713
 30
0.0
 10
97.28880748435836
 20
-142.719970667445
 30
0.0
 10
97.18717716754348
 20
-142.6565809105164
 30
0.0
 10
97.01388886463542
 20
-142.5463378549884
 30
0.0
 10
96.99252927262687
 20
-142.4154242265489
 30
0.0
 10
96.973581247458
 20
-142.3075927378606
 30
0.0
 10
96.973581247458
 20
-142.3075927378606
 30
0.0
 10
97.1957899062566
 20
-142.3075927378606
 30
0.0
 10
97.1957899062566
 20
-142.3075927378606
 30
0.0
 10
97.25056692447208
 20
-142.5063747473595
 30
0.0
 10
97.37769094787781
 20
-142.5360025685327
 30
0.0
 10
97.47070852597955
 20
-142.5360025685327
 30
0.0
 10
97.61023489313217
 20
-142.5360025685327
 30
0.0
 10
97.76250811358021
 20
-142.4367838185575
 30
0.0
 10
97.76250811358021
 20
-142.2038953637546
 30
0.0
 10
97.76250811358021
 20
-141.9479247692005
 30
0.0
 10
97.58267412925017
 20
-141.8779893308499
 30
0.0
 10
97.46209578726642
 20
-141.8779893308499
 30
0.0
 10
97.43040090880213
 20
-141.8779893308499
 30
0.0
 10
97.28880748435836
 20
-141.8779893308499
 30
0.0
 10
97.1999240208389
 20
-142.0071804115468
 30
0.0
 10
97.1999240208389
 20
-142.0071804115468
 30
0.0
 10
97.02422415109118
 20
-141.9882323863779
 30
0.0
 10
97.02422415109118
 20
-141.9882323863779
 30
0.0
 10
97.02422415109118
 20
-141.9882323863779
 30
0.0
 10
97.14480249307492
 20
-141.1421169352006
 30
0.0
 10
97.14480249307492
 20
-141.1421169352006
 30
0.0
 10
97.14480249307492
 20
-141.1421169352006
 30
0.0
 10
97.92339407274137
 20
-141.1421169352006
 30
0.0
 10
97.92339407274137
 20
-141.1421169352006
 30
0.0
 10
97.92339407274137
 20
-141.1421169352006
 30
0.0
 10
97.92339407274137
 20
-141.3364203205687
 30
0.0
 10
97.92339407274137
 20
-141.3364203205687
 30
0.0
 10
97.92339407274137
 20
-141.3364203205687
 30
0.0
 10
97.30775550952723
 20
-141.3364203205687
 30
0.0
 10
97.30775550952723
 20
-141.3364203205687
 30
0.0
 10
97.30775550952723
 20
-141.3364203205687
 30
0.0
 10
97.24229869530748
 20
-141.7594780461574
 30
0.0
 10
97.24229869530748
 20
-141.7594780461574
 30
0.0
 10
97.30362139494493
 20
-141.7257161104019
 30
0.0
 10
97.38595917704241
 20
-141.685753002773
 30
0.0
 10
97.504470461735
 20
-141.685753002773
 30
0.0
 10
97.75837399899791
 20
-141.685753002773
 30
0.0
 10
97.9953965683831
 20
-141.8717881589765
 30
0.0
 10
97.9953965683831
 20
-142.1846028290372
 30
0.0
 10
97.9953965683831
 20
-142.5022406327772
 30
0.0
 10
97.77112085229334
 20
-142.7371961448713
 30
0.0
 10
97.4686414686884
 20
-142.7371961448713
 30
0.0
  0
HATCH
  5
EB
330
E6
100
AcDbEntity
  8
_U+30EC_U+30A4_U+30E4_U+30FC 1
 62
   179
420
  2234388
100
AcDbHatch
 10
0.0
 20
0.0
 30
0.0
210
0.0
220
0.0
230
1.0
  2
SOLID
 70
     1
 71
     0
 91
        1
 92
        1
 93
        1
 72
     4
 94
        3
 73
     0
 74
     1
 95
       53
 96
       49
 40
0.0
 40
0.0
 40
0.0
 40
0.0
 40
1.0
 40
1.0
 40
1.0
 40
2.0
 40
2.0
 40
2.0
 40
3.0
 40
3.0
 40
3.0
 40
4.0
 40
4.0
 40
4.0
 40
5.0
 40
5.0
 40
5.0
 40
6.0
 40
6.0
 40
6.0
 40
7.0
 40
7.0
 40
7.0
 40
8.0
 40
8.0
 40
8.0
 40
9.0
 40
9.0
 40
9.0
 40
10.0
 40
10.0
 40
10.0
 40
11.0
 40
11.0
 40
11.0
 40
12.0
 40
12.0
 40
12.0
 40
13.0
 40
13.0
 40
13.0
 40
14.0
 40
14.0
 40
14.0
 40
15.0
 40
15.0
 40
15.0
 40
16.0
 40
16.0
 40
16.0
 40
16.0
 10
97.4686414686884
 20
-142.7371961448713
 10
97.39043780117323
 20
-142.7371961448713
 10
97.28880748435836
 20
-142.719970667445
 10
97.18717716754348
 20
-142.6565809105164
 10
97.01388886463542
 20
-142.5463378549884
 10
96.99252927262687
 20
-142.4154242265489
 10
96.973581247458
 20
-142.3075927378606
 10
96.973581247458
 20
-142.3075927378606
 10
97.1957899062566
 20
-142.3075927378606
 10
97.1957899062566
 20
-142.3075927378606
 10
97.25056692447208
 20
-142.5063747473595
 10
97.37769094787781
 20
-142.5360025685327
 10
97.47070852597955
 20
-142.5360025685327
 10
97.61023489313217
 20
-142.5360025685327
 10
97.76250811358021
 20
-142.4367838185575
 10
97.76250811358021
 20
-142.2038953637546
 10
97.76250811358021
 20
-141.9479247692005
 10
97.58267412925017
 20
-141.8779893308499
 10
97.46209578726642
 20
-141.8779893308499
 10
97.43040090880213
 20
-141.8779893308499
 10
97.28880748435836
 20
-141.8779893308499
 10
97.1999240208389
 20
-142.0071804115468
 10
97.1999240208389
 20
-142.0071804115468
 10
97.02422415109118
 20
-141.9882323863779
 10
97.02422415109118
 20
-141.9882323863779
 10
97.02422415109118
 20
-141.9882323863779
 10
97.14480249307492
 20
-141.1421169352006
 10
97.14480249307492
 20
-141.1421169352006
 10
97.14480249307492
 20
-141.1421169352006
 10
97.92339407274137
 20
-141.1421169352006
 10
97.92339407274137
 20
-141.1421169352006
 10
97.92339407274137
 20
-141.1421169352006
 10
97.92339407274137
 20
-141.3364203205687
 10
97.92339407274137
 20
-141.3364203205687
 10
97.92339407274137
 20
-141.3364203205687
 10
97.30775550952723
 20
-141.3364203205687
 10
97.30775550952723
 20
-141.3364203205687
 10
97.30775550952723
 20
-141.3364203205687
 10
97.24229869530748
 20
-141.7594780461574
 10
97.24229869530748
 20
-141.7594780461574
 10
97.30362139494493
 20
-141.7257161104019
 10
97.38595917704241
 20
-141.685753002773
 10
97.504470461735
 20
-141.685753002773
 10
97.75837399899791
 20
-141.685753002773
 10
97.9953965683831
 20
-141.8717881589765
 10
97.9953965683831
 20
-142.1846028290372
 10
97.9953965683831
 20
-142.5022406327772
 10
97.77112085229334
 20
-142.7371961448713
 10
97.4686414686884
 20
-142.7371961448713
 97
        0
 97
        0
 75
     2
 76
     1
 98
        0
  0
ENDBLK
  5
E9
330
E6
100
AcDbEntity
  8
0
100
AcDbBlockEnd
  0
BLOCK
  5
EE
330
EC
100
AcDbEntity
  8
0
100
AcDbBlockBegin
  2
block 8
 70
     0
 10
0.0
 20
0.0
 30
0.0
  3
block 8
  1

  0
SPLINE
  5
F0
330
EC
100
AcDbEntity
  8
_U+30EC_U+30A4_U+30E4_U+30FC 1
370
     0
100
AcDbSpline
210
0.0
220
0.0
230
1.0
 70
    11
 71
     3
 72
    26
 73
    22
 74
     0
 42
0.0000000001
 43
0.0000000001
 12
1.0
 22
0.0
 32
0.0
 13
1.0
 23
0.0
 33
0.0
 40
0.0
 40
0.0
 40
0.0
 40
0.0
 40
1.0
 40
1.0
 40
1.0
 40
2.0
 40
2.0
 40
2.0
 40
3.0
 40
3.0
 40
3.0
 40
4.0
 40
4.0
 40
4.0
 40
5.0
 40
5.0
 40
5.0
 40
6.0
 40
6.0
 40
6.0
 40
7.0
 40
7.0
 40
7.0
 40
7.0
 10
85.17809107028535
 20
-142.6862087316896
 30
0.0
 10
85.17809107028535
 20
-142.6862087316896
 30
0.0
 10
85.17809107028535
 20
-141.5817111191185
 30
0.0
 10
85.17809107028535
 20
-141.5817111191185
 30
0.0
 10
85.17809107028535
 20
-141.5817111191185
 30
0.0
 10
84.84805092279841
 20
-141.5817111191185
 30
0.0
 10
84.84805092279841
 20
-141.5817111191185
 30
0.0
 10
84.84805092279841
 20
-141.5817111191185
 30
0.0
 10
84.84805092279841
 20
-141.4339165228012
 30
0.0
 10
84.84805092279841
 20
-141.4339165228012
 30
0.0
 10
85.18015812757649
 20
-141.4191026122147
 30
0.0
 10
85.22666691662737
 20
-141.2561495957624
 30
0.0
 10
85.25629473780052
 20
-141.1421169352006
 30
0.0
 10
85.25629473780052
 20
-141.1421169352006
 30
0.0
 10
85.40236678637511
 20
-141.1421169352006
 30
0.0
 10
85.40236678637511
 20
-141.1421169352006
 30
0.0
 10
85.40236678637511
 20
-141.1421169352006
 30
0.0
 10
85.40236678637511
 20
-142.6862087316896
 30
0.0
 10
85.40236678637511
 20
-142.6862087316896
 30
0.0
 10
85.40236678637511
 20
-142.6862087316896
 30
0.0
 10
85.17809107028535
 20
-142.6862087316896
 30
0.0
 10
85.17809107028535
 20
-142.6862087316896
 30
0.0
  0
HATCH
  5
F1
330
EC
100
AcDbEntity
  8
_U+30EC_U+30A4_U+30E4_U+30FC 1
 62
   179
420
  2234388
100
AcDbHatch
 10
0.0
 20
0.0
 30
0.0
210
0.0
220
0.0
230
1.0
  2
SOLID
 70
     1
 71
     0
 91
        1
 92
        1
 93
        1
 72
     4
 94
        3
 73
     0
 74
     1
 95
       26
 96
       22
 40
0.0
 40
0.0
 40
0.0
 40
0.0
 40
1.0
 40
1.0
 40
1.0
 40
2.0
 40
2.0
 40
2.0
 40
3.0
 40
3.0
 40
3.0
 40
4.0
 40
4.0
 40
4.0
 40
5.0
 40
5.0
 40
5.0
 40
6.0
 40
6.0
 40
6.0
 40
7.0
 40
7.0
 40
7.0
 40
7.0
 10
85.17809107028535
 20
-142.6862087316896
 10
85.17809107028535
 20
-142.6862087316896
 10
85.17809107028535
 20
-141.5817111191185
 10
85.17809107028535
 20
-141.5817111191185
 10
85.17809107028535
 20
-141.5817111191185
 10
84.84805092279841
 20
-141.5817111191185
 10
84.84805092279841
 20
-141.5817111191185
 10
84.84805092279841
 20
-141.5817111191185
 10
84.84805092279841
 20
-141.4339165228012
 10
84.84805092279841
 20
-141.4339165228012
 10
85.18015812757649
 20
-141.4191026122147
 10
85.22666691662737
 20
-141.2561495957624
 10
85.25629473780052
 20
-141.1421169352006
 10
85.25629473780052
 20
-141.1421169352006
 10
85.40236678637511
 20
-141.1421169352006
 10
85.40236678637511
 20
-141.1421169352006
 10
85.40236678637511
 20
-141.1421169352006
 10
85.40236678637511
 20
-142.6862087316896
 10
85.40236678637511
 20
-142.6862087316896
 10
85.40236678637511
 20
-142.6862087316896
 10
85.17809107028535
 20
-142.6862087316896
 10
85.17809107028535
 20
-142.6862087316896
 97
        0
 97
        0
 75
     2
 76
     1
 98
        0
  0
SPLINE
  5
F2
330
EC
100
AcDbEntity
  8
_U+30EC_U+30A4_U+30E4_U+30FC 1
370
     0
100
AcDbSpline
210
0.0
220
0.0
230
1.0
 70
    11
 71
     3
 72
    26
 73
    22
 74
     0
 42
0.0000000001
 43
0.0000000001
 12
1.0
 22
0.0
 32
0.0
 13
1.0
 23
0.0
 33
0.0
 40
0.0
 40
0.0
 40
0.0
 40
0.0
 40
1.0
 40
1.0
 40
1.0
 40
2.0
 40
2.0
 40
2.0
 40
3.0
 40
3.0
 40
3.0
 40
4.0
 40
4.0
 40
4.0
 40
5.0
 40
5.0
 40
5.0
 40
6.0
 40
6.0
 40
6.0
 40
7.0
 40
7.0
 40
7.0
 40
7.0
 10
86.31462807086926
 20
-142.6862087316896
 30
0.0
 10
86.31462807086926
 20
-142.6862087316896
 30
0.0
 10
86.07760550148407
 20
-142.6862087316896
 30
0.0
 10
86.07760550148407
 20
-142.6862087316896
 30
0.0
 10
86.10309920807492
 20
-142.3775281762112
 30
0.0
 10
86.2956800457004
 20
-141.8590413056811
 30
0.0
 10
86.70185680341135
 20
-141.3536457979949
 30
0.0
 10
86.70185680341135
 20
-141.3536457979949
 30
0.0
 10
85.86400958139859
 20
-141.3536457979949
 30
0.0
 10
85.86400958139859
 20
-141.3536457979949
 30
0.0
 10
85.86400958139859
 20
-141.3536457979949
 30
0.0
 10
85.86400958139859
 20
-141.1421169352006
 30
0.0
 10
85.86400958139859
 20
-141.1421169352006
 30
0.0
 10
85.86400958139859
 20
-141.1421169352006
 30
0.0
 10
86.93887937279653
 20
-141.1421169352006
 30
0.0
 10
86.93887937279653
 20
-141.1421169352006
 30
0.0
 10
86.93887937279653
 20
-141.1421169352006
 30
0.0
 10
86.93887937279653
 20
-141.3536457979949
 30
0.0
 10
86.93887937279653
 20
-141.3536457979949
 30
0.0
 10
86.61504039718305
 20
-141.6430338187559
 30
0.0
 10
86.34839000662471
 20
-142.2355902422189
 30
0.0
 10
86.31462807086926
 20
-142.6862087316896
 30
0.0
  0
HATCH
  5
F3
330
EC
100
AcDbEntity
  8
_U+30EC_U+30A4_U+30E4_U+30FC 1
 62
   179
420
  2234388
100
AcDbHatch
 10
0.0
 20
0.0
 30
0.0
210
0.0
220
0.0
230
1.0
  2
SOLID
 70
     1
 71
     0
 91
        1
 92
        1
 93
        1
 72
     4
 94
        3
 73
     0
 74
     1
 95
       26
 96
       22
 40
0.0
 40
0.0
 40
0.0
 40
0.0
 40
1.0
 40
1.0
 40
1.0
 40
2.0
 40
2.0
 40
2.0
 40
3.0
 40
3.0
 40
3.0
 40
4.0
 40
4.0
 40
4.0
 40
5.0
 40
5.0
 40
5.0
 40
6.0
 40
6.0
 40
6.0
 40
7.0
 40
7.0
 40
7.0
 40
7.0
 10
86.31462807086926
 20
-142.6862087316896
 10
86.31462807086926
 20
-142.6862087316896
 10
86.07760550148407
 20
-142.6862087316896
 10
86.07760550148407
 20
-142.6862087316896
 10
86.10309920807492
 20
-142.3775281762112
 10
86.2956800457004
 20
-141.8590413056811
 10
86.70185680341135
 20
-141.3536457979949
 10
86.70185680341135
 20
-141.3536457979949
 10
85.86400958139859
 20
-141.3536457979949
 10
85.86400958139859
 20
-141.3536457979949
 10
85.86400958139859
 20
-141.3536457979949
 10
85.86400958139859
 20
-141.1421169352006
 10
85.86400958139859
 20
-141.1421169352006
 10
85.86400958139859
 20
-141.1421169352006
 10
86.93887937279653
 20
-141.1421169352006
 10
86.93887937279653
 20
-141.1421169352006
 10
86.93887937279653
 20
-141.1421169352006
 10
86.93887937279653
 20
-141.3536457979949
 10
86.93887937279653
 20
-141.3536457979949
 10
86.61504039718305
 20
-141.6430338187559
 10
86.34839000662471
 20
-142.2355902422189
 10
86.31462807086926
 20
-142.6862087316896
 97
        0
 97
        0
 75
     2
 76
     1
 98
        0
  0
POLYLINE
  5
F4
330
EC
100
AcDbEntity
  8
_U+30EC_U+30A4_U+30E4_U+30FC 1
370
     0
100
AcDb2dPolyline
 66
     1
 10
0.0
 20
0.0
 30
0.0
  0
VERTEX
  5
F5
330
F4
100
AcDbEntity
  8
_U+30EC_U+30A4_U+30E4_U+30FC 1
370
     0
100
AcDbVertex
100
AcDb2dVertex
 10
87.14041745868364
 20
-142.6862087316896
 30
0.0
  0
VERTEX
  5
F6
330
F4
100
AcDbEntity
  8
_U+30EC_U+30A4_U+30E4_U+30FC 1
370
     0
100
AcDbVertex
100
AcDb2dVertex
 10
87.14041745868364
 20
-142.4347167612663
 30
0.0
  0
VERTEX
  5
F7
330
F4
100
AcDbEntity
  8
_U+30EC_U+30A4_U+30E4_U+30FC 1
370
     0
100
AcDbVertex
100
AcDb2dVertex
 10
87.39225393865541
 20
-142.4347167612663
 30
0.0
  0
VERTEX
  5
F8
330
F4
100
AcDbEntity
  8
_U+30EC_U+30A4_U+30E4_U+30FC 1
370
     0
100
AcDbVertex
100
AcDb2dVertex
 10
87.39225393865541
 20
-142.6862087316896
 30
0.0
  0
VERTEX
  5
F9
330
F4
100
AcDbEntity
  8
_U+30EC_U+30A4_U+30E4_U+30FC 1
370
     0
100
AcDbVertex
100
AcDb2dVertex
 10
87.14041745868364
 20
-142.6862087316896
 30
0.0
  0
SEQEND
  5
FA
330
F4
100
AcDbEntity
  8
_U+30EC_U+30A4_U+30E4_U+30FC 1
370
     0
  0
HATCH
  5
FB
330
EC
100
AcDbEntity
  8
_U+30EC_U+30A4_U+30E4_U+30FC 1
 62
   179
420
  2234388
100
AcDbHatch
 10
0.0
 20
0.0
 30
0.0
210
0.0
220
0.0
230
1.0
  2
SOLID
 70
     1
 71
     0
 91
        1
 92
        1
 93
        4
 72
     1
 10
87.14041745868364
 20
-142.6862087316896
 11
87.14041745868364
 21
-142.4347167612663
 72
     1
 10
87.14041745868364
 20
-142.4347167612663
 11
87.39225393865541
 21
-142.4347167612663
 72
     1
 10
87.39225393865541
 20
-142.4347167612663
 11
87.39225393865541
 21
-142.6862087316896
 72
     1
 10
87.39225393865541
 20
-142.6862087316896
 11
87.14041745868364
 21
-142.6862087316896
 97
        0
 75
     2
 76
     1
 98
        0
  0
SPLINE
  5
FC
330
EC
100
AcDbEntity
  8
_U+30EC_U+30A4_U+30E4_U+30FC 1
370
     0
100
AcDbSpline
210
0.0
220
0.0
230
1.0
 70
    11
 71
     3
 72
    53
 73
    49
 74
     0
 42
0.0000000001
 43
0.0000000001
 12
1.0
 22
0.0
 32
0.0
 13
1.0
 23
0.0
 33
0.0
 40
0.0
 40
0.0
 40
0.0
 40
0.0
 40
1.0
 40
1.0
 40
1.0
 40
2.0
 40
2.0
 40
2.0
 40
3.0
 40
3.0
 40
3.0
 40
4.0
 40
4.0
 40
4.0
 40
5.0
 40
5.0
 40
5.0
 40
6.0
 40
6.0
 40
6.0
 40
7.0
 40
7.0
 40
7.0
 40
8.0
 40
8.0
 40
8.0
 40
9.0
 40
9.0
 40
9.0
 40
10.0
 40
10.0
 40
10.0
 40
11.0
 40
11.0
 40
11.0
 40
12.0
 40
12.0
 40
12.0
 40
13.0
 40
13.0
 40
13.0
 40
14.0
 40
14.0
 40
14.0
 40
15.0
 40
15.0
 40
15.0
 40
16.0
 40
16.0
 40
16.0
 40
16.0
 10
88.10952281868443
 20
-142.7371961448713
 30
0.0
 10
88.03131915116926
 20
-142.7371961448713
 30
0.0
 10
87.9296888343544
 20
-142.719970667445
 30
0.0
 10
87.82805851753952
 20
-142.6565809105164
 30
0.0
 10
87.65477021463145
 20
-142.5463378549884
 30
0.0
 10
87.6334106226229
 20
-142.4154242265489
 30
0.0
 10
87.61446259745402
 20
-142.3075927378606
 30
0.0
 10
87.61446259745402
 20
-142.3075927378606
 30
0.0
 10
87.83667125625264
 20
-142.3075927378606
 30
0.0
 10
87.83667125625264
 20
-142.3075927378606
 30
0.0
 10
87.89144827446812
 20
-142.5063747473595
 30
0.0
 10
88.01857229787383
 20
-142.5360025685327
 30
0.0
 10
88.11158987597558
 20
-142.5360025685327
 30
0.0
 10
88.2511162431282
 20
-142.5360025685327
 30
0.0
 10
88.40338946357625
 20
-142.4367838185575
 30
0.0
 10
88.40338946357625
 20
-142.2038953637546
 30
0.0
 10
88.40338946357625
 20
-141.9479247692005
 30
0.0
 10
88.2235554792462
 20
-141.8779893308499
 30
0.0
 10
88.10297713726246
 20
-141.8779893308499
 30
0.0
 10
88.07128225879815
 20
-141.8779893308499
 30
0.0
 10
87.9296888343544
 20
-141.8779893308499
 30
0.0
 10
87.84080537083494
 20
-142.0071804115468
 30
0.0
 10
87.84080537083494
 20
-142.0071804115468
 30
0.0
 10
87.6651055010872
 20
-141.9882323863779
 30
0.0
 10
87.6651055010872
 20
-141.9882323863779
 30
0.0
 10
87.6651055010872
 20
-141.9882323863779
 30
0.0
 10
87.78568384307094
 20
-141.1421169352006
 30
0.0
 10
87.78568384307094
 20
-141.1421169352006
 30
0.0
 10
87.78568384307094
 20
-141.1421169352006
 30
0.0
 10
88.56427542273741
 20
-141.1421169352006
 30
0.0
 10
88.56427542273741
 20
-141.1421169352006
 30
0.0
 10
88.56427542273741
 20
-141.1421169352006
 30
0.0
 10
88.56427542273741
 20
-141.3364203205687
 30
0.0
 10
88.56427542273741
 20
-141.3364203205687
 30
0.0
 10
88.56427542273741
 20
-141.3364203205687
 30
0.0
 10
87.94863685952326
 20
-141.3364203205687
 30
0.0
 10
87.94863685952326
 20
-141.3364203205687
 30
0.0
 10
87.94863685952326
 20
-141.3364203205687
 30
0.0
 10
87.88318004530352
 20
-141.7594780461574
 30
0.0
 10
87.88318004530352
 20
-141.7594780461574
 30
0.0
 10
87.94450274494096
 20
-141.7257161104019
 30
0.0
 10
88.02684052703843
 20
-141.685753002773
 30
0.0
 10
88.14535181173103
 20
-141.685753002773
 30
0.0
 10
88.39925534899395
 20
-141.685753002773
 30
0.0
 10
88.63627791837914
 20
-141.8717881589765
 30
0.0
 10
88.63627791837914
 20
-142.1846028290372
 30
0.0
 10
88.63627791837914
 20
-142.5022406327772
 30
0.0
 10
88.41200220228936
 20
-142.7371961448713
 30
0.0
 10
88.10952281868443
 20
-142.7371961448713
 30
0.0
  0
HATCH
  5
FD
330
EC
100
AcDbEntity
  8
_U+30EC_U+30A4_U+30E4_U+30FC 1
 62
   179
420
  2234388
100
AcDbHatch
 10
0.0
 20
0.0
 30
0.0
210
0.0
220
0.0
230
1.0
  2
SOLID
 70
     1
 71
     0
 91
        1
 92
        1
 93
        1
 72
     4
 94
        3
 73
     0
 74
     1
 95
       53
 96
       49
 40
0.0
 40
0.0
 40
0.0
 40
0.0
 40
1.0
 40
1.0
 40
1.0
 40
2.0
 40
2.0
 40
2.0
 40
3.0
 40
3.0
 40
3.0
 40
4.0
 40
4.0
 40
4.0
 40
5.0
 40
5.0
 40
5.0
 40
6.0
 40
6.0
 40
6.0
 40
7.0
 40
7.0
 40
7.0
 40
8.0
 40
8.0
 40
8.0
 40
9.0
 40
9.0
 40
9.0
 40
10.0
 40
10.0
 40
10.0
 40
11.0
 40
11.0
 40
11.0
 40
12.0
 40
12.0
 40
12.0
 40
13.0
 40
13.0
 40
13.0
 40
14.0
 40
14.0
 40
14.0
 40
15.0
 40
15.0
 40
15.0
 40
16.0
 40
16.0
 40
16.0
 40
16.0
 10
88.10952281868443
 20
-142.7371961448713
 10
88.03131915116926
 20
-142.7371961448713
 10
87.9296888343544
 20
-142.719970667445
 10
87.82805851753952
 20
-142.6565809105164
 10
87.65477021463145
 20
-142.5463378549884
 10
87.6334106226229
 20
-142.4154242265489
 10
87.61446259745402
 20
-142.3075927378606
 10
87.61446259745402
 20
-142.3075927378606
 10
87.83667125625264
 20
-142.3075927378606
 10
87.83667125625264
 20
-142.3075927378606
 10
87.89144827446812
 20
-142.5063747473595
 10
88.01857229787383
 20
-142.5360025685327
 10
88.11158987597558
 20
-142.5360025685327
 10
88.2511162431282
 20
-142.5360025685327
 10
88.40338946357625
 20
-142.4367838185575
 10
88.40338946357625
 20
-142.2038953637546
 10
88.40338946357625
 20
-141.9479247692005
 10
88.2235554792462
 20
-141.8779893308499
 10
88.10297713726246
 20
-141.8779893308499
 10
88.07128225879815
 20
-141.8779893308499
 10
87.9296888343544
 20
-141.8779893308499
 10
87.84080537083494
 20
-142.0071804115468
 10
87.84080537083494
 20
-142.0071804115468
 10
87.6651055010872
 20
-141.9882323863779
 10
87.6651055010872
 20
-141.9882323863779
 10
87.6651055010872
 20
-141.9882323863779
 10
87.78568384307094
 20
-141.1421169352006
 10
87.78568384307094
 20
-141.1421169352006
 10
87.78568384307094
 20
-141.1421169352006
 10
88.56427542273741
 20
-141.1421169352006
 10
88.56427542273741
 20
-141.1421169352006
 10
88.56427542273741
 20
-141.1421169352006
 10
88.56427542273741
 20
-141.3364203205687
 10
88.56427542273741
 20
-141.3364203205687
 10
88.56427542273741
 20
-141.3364203205687
 10
87.94863685952326
 20
-141.3364203205687
 10
87.94863685952326
 20
-141.3364203205687
 10
87.94863685952326
 20
-141.3364203205687
 10
87.88318004530352
 20
-141.7594780461574
 10
87.88318004530352
 20
-141.7594780461574
 10
87.94450274494096
 20
-141.7257161104019
 10
88.02684052703843
 20
-141.685753002773
 10
88.14535181173103
 20
-141.685753002773
 10
88.39925534899395
 20
-141.685753002773
 10
88.63627791837914
 20
-141.8717881589765
 10
88.63627791837914
 20
-142.1846028290372
 10
88.63627791837914
 20
-142.5022406327772
 10
88.41200220228936
 20
-142.7371961448713
 10
88.10952281868443
 20
-142.7371961448713
 97
        0
 97
        0
 75
     2
 76
     1
 98
        0
  0
ENDBLK
  5
EF
330
EC
100
AcDbEntity
  8
0
100
AcDbBlockEnd
  0
BLOCK
  5
118
330
116
100
AcDbEntity
  8
0
100
AcDbBlockBegin
  2
block 9
 70
     0
 10
0.0
 20
0.0
 30
0.0
  3
block 9
  1

  0
SPLINE
  5
11A
330
116
100
AcDbEntity
  8
_U+30EC_U+30A4_U+30E4_U+30FC 1
370
     0
100
AcDbSpline
210
0.0
220
0.0
230
1.0
 70
    11
 71
     3
 72
    53
 73
    49
 74
     0
 42
0.0000000001
 43
0.0000000001
 12
1.0
 22
0.0
 32
0.0
 13
1.0
 23
0.0
 33
0.0
 40
0.0
 40
0.0
 40
0.0
 40
0.0
 40
1.0
 40
1.0
 40
1.0
 40
2.0
 40
2.0
 40
2.0
 40
3.0
 40
3.0
 40
3.0
 40
4.0
 40
4.0
 40
4.0
 40
5.0
 40
5.0
 40
5.0
 40
6.0
 40
6.0
 40
6.0
 40
7.0
 40
7.0
 40
7.0
 40
8.0
 40
8.0
 40
8.0
 40
9.0
 40
9.0
 40
9.0
 40
10.0
 40
10.0
 40
10.0
 40
11.0
 40
11.0
 40
11.0
 40
12.0
 40
12.0
 40
12.0
 40
13.0
 40
13.0
 40
13.0
 40
14.0
 40
14.0
 40
14.0
 40
15.0
 40
15.0
 40
15.0
 40
16.0
 40
16.0
 40
16.0
 40
16.0
 10
86.59850393885385
 20
-128.2951836159297
 30
0.0
 10
86.52030027133868
 20
-128.2951836159297
 30
0.0
 10
86.4186699545238
 20
-128.2781303932777
 30
0.0
 10
86.31703963770894
 20
-128.2147406363491
 30
0.0
 10
86.14375133480087
 20
-128.1046698355954
 30
0.0
 10
86.12239174279232
 20
-127.9735839523816
 30
0.0
 10
86.10344371762345
 20
-127.8657524636933
 30
0.0
 10
86.10344371762345
 20
-127.8657524636933
 30
0.0
 10
86.32565237642206
 20
-127.8657524636933
 30
0.0
 10
86.32565237642206
 20
-127.8657524636933
 30
0.0
 10
86.38042939463753
 20
-128.0645344731922
 30
0.0
 10
86.50755341804326
 20
-128.0941622943654
 30
0.0
 10
86.600570996145
 20
-128.0941622943654
 30
0.0
 10
86.74009736329762
 20
-128.0941622943654
 30
0.0
 10
86.89237058374566
 20
-127.9947712896159
 30
0.0
 10
86.89237058374566
 20
-127.7620550895873
 30
0.0
 10
86.89237058374566
 20
-127.5060844950332
 30
0.0
 10
86.71253659941561
 20
-127.4363213114569
 30
0.0
 10
86.59195825743187
 20
-127.4363213114569
 30
0.0
 10
86.56026337896758
 20
-127.4363213114569
 30
0.0
 10
86.4186699545238
 20
-127.4363213114569
 30
0.0
 10
86.32978649100437
 20
-127.5653401373795
 30
0.0
 10
86.32978649100437
 20
-127.5653401373795
 30
0.0
 10
86.15408662125662
 20
-127.5462198574364
 30
0.0
 10
86.15408662125662
 20
-127.5462198574364
 30
0.0
 10
86.15408662125662
 20
-127.5462198574364
 30
0.0
 10
86.27466496324037
 20
-126.700104406259
 30
0.0
 10
86.27466496324037
 20
-126.700104406259
 30
0.0
 10
86.27466496324037
 20
-126.700104406259
 30
0.0
 10
87.05325654290682
 20
-126.700104406259
 30
0.0
 10
87.05325654290682
 20
-126.700104406259
 30
0.0
 10
87.05325654290682
 20
-126.700104406259
 30
0.0
 10
87.05325654290682
 20
-126.8947523011756
 30
0.0
 10
87.05325654290682
 20
-126.8947523011756
 30
0.0
 10
87.05325654290682
 20
-126.8947523011756
 30
0.0
 10
86.43761797969269
 20
-126.8947523011756
 30
0.0
 10
86.43761797969269
 20
-126.8947523011756
 30
0.0
 10
86.43761797969269
 20
-126.8947523011756
 30
0.0
 10
86.37216116547293
 20
-127.3178100267643
 30
0.0
 10
86.37216116547293
 20
-127.3178100267643
 30
0.0
 10
86.43348386511039
 20
-127.2838758362346
 30
0.0
 10
86.51582164720786
 20
-127.2437404738314
 30
0.0
 10
86.63433293190045
 20
-127.2437404738314
 30
0.0
 10
86.88823646916336
 20
-127.2437404738314
 30
0.0
 10
87.12525903854855
 20
-127.4299478848092
 30
0.0
 10
87.12525903854855
 20
-127.7429348096441
 30
0.0
 10
87.12525903854855
 20
-128.0604003586099
 30
0.0
 10
86.90098332245879
 20
-128.2951836159297
 30
0.0
 10
86.59850393885385
 20
-128.2951836159297
 30
0.0
  0
HATCH
  5
11B
330
116
100
AcDbEntity
  8
_U+30EC_U+30A4_U+30E4_U+30FC 1
 62
   179
420
  2234388
100
AcDbHatch
 10
0.0
 20
0.0
 30
0.0
210
0.0
220
0.0
230
1.0
  2
SOLID
 70
     1
 71
     0
 91
        1
 92
        1
 93
        1
 72
     4
 94
        3
 73
     0
 74
     1
 95
       53
 96
       49
 40
0.0
 40
0.0
 40
0.0
 40
0.0
 40
1.0
 40
1.0
 40
1.0
 40
2.0
 40
2.0
 40
2.0
 40
3.0
 40
3.0
 40
3.0
 40
4.0
 40
4.0
 40
4.0
 40
5.0
 40
5.0
 40
5.0
 40
6.0
 40
6.0
 40
6.0
 40
7.0
 40
7.0
 40
7.0
 40
8.0
 40
8.0
 40
8.0
 40
9.0
 40
9.0
 40
9.0
 40
10.0
 40
10.0
 40
10.0
 40
11.0
 40
11.0
 40
11.0
 40
12.0
 40
12.0
 40
12.0
 40
13.0
 40
13.0
 40
13.0
 40
14.0
 40
14.0
 40
14.0
 40
15.0
 40
15.0
 40
15.0
 40
16.0
 40
16.0
 40
16.0
 40
16.0
 10
86.59850393885385
 20
-128.2951836159297
 10
86.52030027133868
 20
-128.2951836159297
 10
86.4186699545238
 20
-128.2781303932777
 10
86.31703963770894
 20
-128.2147406363491
 10
86.14375133480087
 20
-128.1046698355954
 10
86.12239174279232
 20
-127.9735839523816
 10
86.10344371762345
 20
-127.8657524636933
 10
86.10344371762345
 20
-127.8657524636933
 10
86.32565237642206
 20
-127.8657524636933
 10
86.32565237642206
 20
-127.8657524636933
 10
86.38042939463753
 20
-128.0645344731922
 10
86.50755341804326
 20
-128.0941622943654
 10
86.600570996145
 20
-128.0941622943654
 10
86.74009736329762
 20
-128.0941622943654
 10
86.89237058374566
 20
-127.9947712896159
 10
86.89237058374566
 20
-127.7620550895873
 10
86.89237058374566
 20
-127.5060844950332
 10
86.71253659941561
 20
-127.4363213114569
 10
86.59195825743187
 20
-127.4363213114569
 10
86.56026337896758
 20
-127.4363213114569
 10
86.4186699545238
 20
-127.4363213114569
 10
86.32978649100437
 20
-127.5653401373795
 10
86.32978649100437
 20
-127.5653401373795
 10
86.15408662125662
 20
-127.5462198574364
 10
86.15408662125662
 20
-127.5462198574364
 10
86.15408662125662
 20
-127.5462198574364
 10
86.27466496324037
 20
-126.700104406259
 10
86.27466496324037
 20
-126.700104406259
 10
86.27466496324037
 20
-126.700104406259
 10
87.05325654290682
 20
-126.700104406259
 10
87.05325654290682
 20
-126.700104406259
 10
87.05325654290682
 20
-126.700104406259
 10
87.05325654290682
 20
-126.8947523011756
 10
87.05325654290682
 20
-126.8947523011756
 10
87.05325654290682
 20
-126.8947523011756
 10
86.43761797969269
 20
-126.8947523011756
 10
86.43761797969269
 20
-126.8947523011756
 10
86.43761797969269
 20
-126.8947523011756
 10
86.37216116547293
 20
-127.3178100267643
 10
86.37216116547293
 20
-127.3178100267643
 10
86.43348386511039
 20
-127.2838758362346
 10
86.51582164720786
 20
-127.2437404738314
 10
86.63433293190045
 20
-127.2437404738314
 10
86.88823646916336
 20
-127.2437404738314
 10
87.12525903854855
 20
-127.4299478848092
 10
87.12525903854855
 20
-127.7429348096441
 10
87.12525903854855
 20
-128.0604003586099
 10
86.90098332245879
 20
-128.2951836159297
 10
86.59850393885385
 20
-128.2951836159297
 97
        0
 97
        0
 75
     2
 76
     1
 98
        0
  0
POLYLINE
  5
11C
330
116
100
AcDbEntity
  8
_U+30EC_U+30A4_U+30E4_U+30FC 1
370
     0
100
AcDb2dPolyline
 66
     1
 10
0.0
 20
0.0
 30
0.0
  0
VERTEX
  5
11D
330
11C
100
AcDbEntity
  8
_U+30EC_U+30A4_U+30E4_U+30FC 1
370
     0
100
AcDbVertex
100
AcDb2dVertex
 10
87.35435788831767
 20
-128.2443684575223
 30
0.0
  0
VERTEX
  5
11E
330
11C
100
AcDbEntity
  8
_U+30EC_U+30A4_U+30E4_U+30FC 1
370
     0
100
AcDbVertex
100
AcDb2dVertex
 10
87.35435788831767
 20
-127.9927042323247
 30
0.0
  0
VERTEX
  5
11F
330
11C
100
AcDbEntity
  8
_U+30EC_U+30A4_U+30E4_U+30FC 1
370
     0
100
AcDbVertex
100
AcDb2dVertex
 10
87.60619436828942
 20
-127.9927042323247
 30
0.0
  0
VERTEX
  5
120
330
11C
100
AcDbEntity
  8
_U+30EC_U+30A4_U+30E4_U+30FC 1
370
     0
100
AcDbVertex
100
AcDb2dVertex
 10
87.60619436828942
 20
-128.2443684575223
 30
0.0
  0
VERTEX
  5
121
330
11C
100
AcDbEntity
  8
_U+30EC_U+30A4_U+30E4_U+30FC 1
370
     0
100
AcDbVertex
100
AcDb2dVertex
 10
87.35435788831767
 20
-128.2443684575223
 30
0.0
  0
SEQEND
  5
122
330
11C
100
AcDbEntity
  8
_U+30EC_U+30A4_U+30E4_U+30FC 1
370
     0
  0
HATCH
  5
123
330
116
100
AcDbEntity
  8
_U+30EC_U+30A4_U+30E4_U+30FC 1
 62
   179
420
  2234388
100
AcDbHatch
 10
0.0
 20
0.0
 30
0.0
210
0.0
220
0.0
230
1.0
  2
SOLID
 70
     1
 71
     0
 91
        1
 92
        1
 93
        4
 72
     1
 10
87.35435788831767
 20
-128.2443684575223
 11
87.35435788831767
 21
-127.9927042323247
 72
     1
 10
87.35435788831767
 20
-127.9927042323247
 11
87.60619436828942
 21
-127.9927042323247
 72
     1
 10
87.60619436828942
 20
-127.9927042323247
 11
87.60619436828942
 21
-128.2443684575223
 72
     1
 10
87.60619436828942
 20
-128.2443684575223
 11
87.35435788831767
 21
-128.2443684575223
 97
        0
 75
     2
 76
     1
 98
        0
  0
SPLINE
  5
124
330
116
100
AcDbEntity
  8
_U+30EC_U+30A4_U+30E4_U+30FC 1
370
     0
100
AcDbSpline
210
0.0
220
0.0
230
1.0
 70
    11
 71
     3
 72
    44
 73
    40
 74
     0
 42
0.0000000001
 43
0.0000000001
 12
1.0
 22
0.0
 32
0.0
 13
1.0
 23
0.0
 33
0.0
 40
0.0
 40
0.0
 40
0.0
 40
0.0
 40
1.0
 40
1.0
 40
1.0
 40
2.0
 40
2.0
 40
2.0
 40
3.0
 40
3.0
 40
3.0
 40
4.0
 40
4.0
 40
4.0
 40
5.0
 40
5.0
 40
5.0
 40
6.0
 40
6.0
 40
6.0
 40
7.0
 40
7.0
 40
7.0
 40
8.0
 40
8.0
 40
8.0
 40
9.0
 40
9.0
 40
9.0
 40
10.0
 40
10.0
 40
10.0
 40
11.0
 40
11.0
 40
11.0
 40
12.0
 40
12.0
 40
12.0
 40
13.0
 40
13.0
 40
13.0
 40
13.0
 10
88.43542885158907
 20
-127.6626640848378
 30
0.0
 10
88.21769881692127
 20
-127.8213107319336
 30
0.0
 10
88.12468123881953
 20
-127.8953802848664
 30
0.0
 10
88.07576088292898
 20
-128.0392130213756
 30
0.0
 10
88.07576088292898
 20
-128.0392130213756
 30
0.0
 10
88.85435246259544
 20
-128.0392130213756
 30
0.0
 10
88.85435246259544
 20
-128.0392130213756
 30
0.0
 10
88.85435246259544
 20
-128.0392130213756
 30
0.0
 10
88.85435246259544
 20
-128.2443684575223
 30
0.0
 10
88.85435246259544
 20
-128.2443684575223
 30
0.0
 10
88.85435246259544
 20
-128.2443684575223
 30
0.0
 10
87.82633596979689
 20
-128.2443684575223
 30
0.0
 10
87.82633596979689
 20
-128.2443684575223
 30
0.0
 10
87.8580308482612
 20
-127.8867675461533
 30
0.0
 10
87.92348766248094
 20
-127.8085638786381
 30
0.0
 10
88.30864933773186
 20
-127.5102186096155
 30
0.0
 10
88.56461993228594
 20
-127.3114366001166
 30
0.0
 10
88.63007674650568
 20
-127.2437404738314
 30
0.0
 10
88.63007674650568
 20
-127.10628116397
 30
0.0
 10
88.63007674650568
 20
-126.9877698792774
 30
0.0
 10
88.55807425086395
 20
-126.8566839960636
 30
0.0
 10
88.3613592986562
 20
-126.8566839960636
 30
0.0
 10
88.10125458951983
 20
-126.8566839960636
 30
0.0
 10
88.0926418508067
 20
-127.0871608840268
 30
0.0
 10
88.0885077362244
 20
-127.2036051114283
 30
0.0
 10
88.0885077362244
 20
-127.2036051114283
 30
0.0
 10
87.86423202013464
 20
-127.2036051114283
 30
0.0
 10
87.86423202013464
 20
-127.2036051114283
 30
0.0
 10
87.87284475884776
 20
-127.0766533427968
 30
0.0
 10
87.88352455485204
 20
-126.9645154847519
 30
0.0
 10
87.96379527965836
 20
-126.8460042000593
 30
0.0
 10
88.07369382563783
 20
-126.6852904956724
 30
0.0
 10
88.26007349138985
 20
-126.6513563051427
 30
0.0
 10
88.37617320924276
 20
-126.6513563051427
 30
0.0
 10
88.65350339580537
 20
-126.6513563051427
 30
0.0
 10
88.86089814401741
 20
-126.8354966588293
 30
0.0
 10
88.86089814401741
 20
-127.1083482212611
 30
0.0
 10
88.86089814401741
 20
-127.3367580519332
 30
0.0
 10
88.74445391661597
 20
-127.4363213114569
 30
0.0
 10
88.43542885158907
 20
-127.6626640848378
 30
0.0
  0
HATCH
  5
125
330
116
100
AcDbEntity
  8
_U+30EC_U+30A4_U+30E4_U+30FC 1
 62
   179
420
  2234388
100
AcDbHatch
 10
0.0
 20
0.0
 30
0.0
210
0.0
220
0.0
230
1.0
  2
SOLID
 70
     1
 71
     0
 91
        1
 92
        1
 93
        1
 72
     4
 94
        3
 73
     0
 74
     1
 95
       44
 96
       40
 40
0.0
 40
0.0
 40
0.0
 40
0.0
 40
1.0
 40
1.0
 40
1.0
 40
2.0
 40
2.0
 40
2.0
 40
3.0
 40
3.0
 40
3.0
 40
4.0
 40
4.0
 40
4.0
 40
5.0
 40
5.0
 40
5.0
 40
6.0
 40
6.0
 40
6.0
 40
7.0
 40
7.0
 40
7.0
 40
8.0
 40
8.0
 40
8.0
 40
9.0
 40
9.0
 40
9.0
 40
10.0
 40
10.0
 40
10.0
 40
11.0
 40
11.0
 40
11.0
 40
12.0
 40
12.0
 40
12.0
 40
13.0
 40
13.0
 40
13.0
 40
13.0
 10
88.43542885158907
 20
-127.6626640848378
 10
88.21769881692127
 20
-127.8213107319336
 10
88.12468123881953
 20
-127.8953802848664
 10
88.07576088292898
 20
-128.0392130213756
 10
88.07576088292898
 20
-128.0392130213756
 10
88.85435246259544
 20
-128.0392130213756
 10
88.85435246259544
 20
-128.0392130213756
 10
88.85435246259544
 20
-128.0392130213756
 10
88.85435246259544
 20
-128.2443684575223
 10
88.85435246259544
 20
-128.2443684575223
 10
88.85435246259544
 20
-128.2443684575223
 10
87.82633596979689
 20
-128.2443684575223
 10
87.82633596979689
 20
-128.2443684575223
 10
87.8580308482612
 20
-127.8867675461533
 10
87.92348766248094
 20
-127.8085638786381
 10
88.30864933773186
 20
-127.5102186096155
 10
88.56461993228594
 20
-127.3114366001166
 10
88.63007674650568
 20
-127.2437404738314
 10
88.63007674650568
 20
-127.10628116397
 10
88.63007674650568
 20
-126.9877698792774
 10
88.55807425086395
 20
-126.8566839960636
 10
88.3613592986562
 20
-126.8566839960636
 10
88.10125458951983
 20
-126.8566839960636
 10
88.0926418508067
 20
-127.0871608840268
 10
88.0885077362244
 20
-127.2036051114283
 10
88.0885077362244
 20
-127.2036051114283
 10
87.86423202013464
 20
-127.2036051114283
 10
87.86423202013464
 20
-127.2036051114283
 10
87.87284475884776
 20
-127.0766533427968
 10
87.88352455485204
 20
-126.9645154847519
 10
87.96379527965836
 20
-126.8460042000593
 10
88.07369382563783
 20
-126.6852904956724
 10
88.26007349138985
 20
-126.6513563051427
 10
88.37617320924276
 20
-126.6513563051427
 10
88.65350339580537
 20
-126.6513563051427
 10
88.86089814401741
 20
-126.8354966588293
 10
88.86089814401741
 20
-127.1083482212611
 10
88.86089814401741
 20
-127.3367580519332
 10
88.74445391661597
 20
-127.4363213114569
 10
88.43542885158907
 20
-127.6626640848378
 97
        0
 97
        0
 75
     2
 76
     1
 98
        0
  0
ENDBLK
  5
119
330
116
100
AcDbEntity
  8
0
100
AcDbBlockEnd
  0
BLOCK
  5
128
330
126
100
AcDbEntity
  8
0
100
AcDbBlockBegin
  2
block 10
 70
     0
 10
0.0
 20
0.0
 30
0.0
  3
block 10
  1

  0
SPLINE
  5
12A
330
126
100
AcDbEntity
  8
_U+30EC_U+30A4_U+30E4_U+30FC 1
370
     0
100
AcDbSpline
210
0.0
220
0.0
230
1.0
 70
    11
 71
     3
 72
    26
 73
    22
 74
     0
 42
0.0000000001
 43
0.0000000001
 12
1.0
 22
0.0
 32
0.0
 13
1.0
 23
0.0
 33
0.0
 40
0.0
 40
0.0
 40
0.0
 40
0.0
 40
1.0
 40
1.0
 40
1.0
 40
2.0
 40
2.0
 40
2.0
 40
3.0
 40
3.0
 40
3.0
 40
4.0
 40
4.0
 40
4.0
 40
5.0
 40
5.0
 40
5.0
 40
6.0
 40
6.0
 40
6.0
 40
7.0
 40
7.0
 40
7.0
 40
7.0
 10
80.1306816748458
 20
-133.4292371628233
 30
0.0
 10
80.1306816748458
 20
-133.4292371628233
 30
0.0
 10
80.1306816748458
 20
-132.3250840598007
 30
0.0
 10
80.1306816748458
 20
-132.3250840598007
 30
0.0
 10
80.1306816748458
 20
-132.3250840598007
 30
0.0
 10
79.80064152735888
 20
-132.3250840598007
 30
0.0
 10
79.80064152735888
 20
-132.3250840598007
 30
0.0
 10
79.80064152735888
 20
-132.3250840598007
 30
0.0
 10
79.80064152735888
 20
-132.1769449539349
 30
0.0
 10
79.80064152735888
 20
-132.1769449539349
 30
0.0
 10
80.13274873213696
 20
-132.1621310433484
 30
0.0
 10
80.17925752118782
 20
-131.999178026896
 30
0.0
 10
80.20888534236097
 20
-131.8851453663343
 30
0.0
 10
80.20888534236097
 20
-131.8851453663343
 30
0.0
 10
80.35495739093557
 20
-131.8851453663343
 30
0.0
 10
80.35495739093557
 20
-131.8851453663343
 30
0.0
 10
80.35495739093557
 20
-131.8851453663343
 30
0.0
 10
80.35495739093557
 20
-133.4292371628233
 30
0.0
 10
80.35495739093557
 20
-133.4292371628233
 30
0.0
 10
80.35495739093557
 20
-133.4292371628233
 30
0.0
 10
80.1306816748458
 20
-133.4292371628233
 30
0.0
 10
80.1306816748458
 20
-133.4292371628233
 30
0.0
  0
HATCH
  5
12B
330
126
100
AcDbEntity
  8
_U+30EC_U+30A4_U+30E4_U+30FC 1
 62
   179
420
  2234388
100
AcDbHatch
 10
0.0
 20
0.0
 30
0.0
210
0.0
220
0.0
230
1.0
  2
SOLID
 70
     1
 71
     0
 91
        1
 92
        1
 93
        1
 72
     4
 94
        3
 73
     0
 74
     1
 95
       26
 96
       22
 40
0.0
 40
0.0
 40
0.0
 40
0.0
 40
1.0
 40
1.0
 40
1.0
 40
2.0
 40
2.0
 40
2.0
 40
3.0
 40
3.0
 40
3.0
 40
4.0
 40
4.0
 40
4.0
 40
5.0
 40
5.0
 40
5.0
 40
6.0
 40
6.0
 40
6.0
 40
7.0
 40
7.0
 40
7.0
 40
7.0
 10
80.1306816748458
 20
-133.4292371628233
 10
80.1306816748458
 20
-133.4292371628233
 10
80.1306816748458
 20
-132.3250840598007
 10
80.1306816748458
 20
-132.3250840598007
 10
80.1306816748458
 20
-132.3250840598007
 10
79.80064152735888
 20
-132.3250840598007
 10
79.80064152735888
 20
-132.3250840598007
 10
79.80064152735888
 20
-132.3250840598007
 10
79.80064152735888
 20
-132.1769449539349
 10
79.80064152735888
 20
-132.1769449539349
 10
80.13274873213696
 20
-132.1621310433484
 10
80.17925752118782
 20
-131.999178026896
 10
80.20888534236097
 20
-131.8851453663343
 10
80.20888534236097
 20
-131.8851453663343
 10
80.35495739093557
 20
-131.8851453663343
 10
80.35495739093557
 20
-131.8851453663343
 10
80.35495739093557
 20
-131.8851453663343
 10
80.35495739093557
 20
-133.4292371628233
 10
80.35495739093557
 20
-133.4292371628233
 10
80.35495739093557
 20
-133.4292371628233
 10
80.1306816748458
 20
-133.4292371628233
 10
80.1306816748458
 20
-133.4292371628233
 97
        0
 97
        0
 75
     2
 76
     1
 98
        0
  0
POLYLINE
  5
12C
330
126
100
AcDbEntity
  8
_U+30EC_U+30A4_U+30E4_U+30FC 1
370
     0
100
AcDb2dPolyline
 66
     1
 10
0.0
 20
0.0
 30
0.0
  0
VERTEX
  5
12D
330
12C
100
AcDbEntity
  8
_U+30EC_U+30A4_U+30E4_U+30FC 1
370
     0
100
AcDbVertex
100
AcDb2dVertex
 10
80.91616344548277
 20
-133.4292371628233
 30
0.0
  0
VERTEX
  5
12E
330
12C
100
AcDbEntity
  8
_U+30EC_U+30A4_U+30E4_U+30FC 1
370
     0
100
AcDbVertex
100
AcDb2dVertex
 10
80.91616344548277
 20
-133.1777451924
 30
0.0
  0
VERTEX
  5
12F
330
12C
100
AcDbEntity
  8
_U+30EC_U+30A4_U+30E4_U+30FC 1
370
     0
100
AcDbVertex
100
AcDb2dVertex
 10
81.16799992545454
 20
-133.1777451924
 30
0.0
  0
VERTEX
  5
130
330
12C
100
AcDbEntity
  8
_U+30EC_U+30A4_U+30E4_U+30FC 1
370
     0
100
AcDbVertex
100
AcDb2dVertex
 10
81.16799992545454
 20
-133.4292371628233
 30
0.0
  0
VERTEX
  5
131
330
12C
100
AcDbEntity
  8
_U+30EC_U+30A4_U+30E4_U+30FC 1
370
     0
100
AcDbVertex
100
AcDb2dVertex
 10
80.91616344548277
 20
-133.4292371628233
 30
0.0
  0
SEQEND
  5
132
330
12C
100
AcDbEntity
  8
_U+30EC_U+30A4_U+30E4_U+30FC 1
370
     0
  0
HATCH
  5
133
330
126
100
AcDbEntity
  8
_U+30EC_U+30A4_U+30E4_U+30FC 1
 62
   179
420
  2234388
100
AcDbHatch
 10
0.0
 20
0.0
 30
0.0
210
0.0
220
0.0
230
1.0
  2
SOLID
 70
     1
 71
     0
 91
        1
 92
        1
 93
        4
 72
     1
 10
80.91616344548277
 20
-133.4292371628233
 11
80.91616344548277
 21
-133.1777451924
 72
     1
 10
80.91616344548277
 20
-133.1777451924
 11
81.16799992545454
 21
-133.1777451924
 72
     1
 10
81.16799992545454
 20
-133.1777451924
 11
81.16799992545454
 21
-133.4292371628233
 72
     1
 10
81.16799992545454
 20
-133.4292371628233
 11
80.91616344548277
 21
-133.4292371628233
 97
        0
 75
     2
 76
     1
 98
        0
  0
SPLINE
  5
134
330
126
100
AcDbEntity
  8
_U+30EC_U+30A4_U+30E4_U+30FC 1
370
     0
100
AcDbSpline
210
0.0
220
0.0
230
1.0
 70
    11
 71
     3
 72
    53
 73
    49
 74
     0
 42
0.0000000001
 43
0.0000000001
 12
1.0
 22
0.0
 32
0.0
 13
1.0
 23
0.0
 33
0.0
 40
0.0
 40
0.0
 40
0.0
 40
0.0
 40
1.0
 40
1.0
 40
1.0
 40
2.0
 40
2.0
 40
2.0
 40
3.0
 40
3.0
 40
3.0
 40
4.0
 40
4.0
 40
4.0
 40
5.0
 40
5.0
 40
5.0
 40
6.0
 40
6.0
 40
6.0
 40
7.0
 40
7.0
 40
7.0
 40
8.0
 40
8.0
 40
8.0
 40
9.0
 40
9.0
 40
9.0
 40
10.0
 40
10.0
 40
10.0
 40
11.0
 40
11.0
 40
11.0
 40
12.0
 40
12.0
 40
12.0
 40
13.0
 40
13.0
 40
13.0
 40
14.0
 40
14.0
 40
14.0
 40
15.0
 40
15.0
 40
15.0
 40
16.0
 40
16.0
 40
16.0
 40
16.0
 10
81.88526880548355
 20
-133.480224576005
 30
0.0
 10
81.80706513796838
 20
-133.480224576005
 30
0.0
 10
81.7054348211535
 20
-133.4629990985787
 30
0.0
 10
81.60380450433864
 20
-133.3996093416501
 30
0.0
 10
81.43051620143056
 20
-133.2897107956706
 30
0.0
 10
81.40915660942203
 20
-133.1584526576826
 30
0.0
 10
81.39020858425314
 20
-133.0506211689943
 30
0.0
 10
81.39020858425314
 20
-133.0506211689943
 30
0.0
 10
81.61241724305177
 20
-133.0506211689943
 30
0.0
 10
81.61241724305177
 20
-133.0506211689943
 30
0.0
 10
81.66719426126723
 20
-133.2494031784932
 30
0.0
 10
81.79431828467295
 20
-133.2790309996664
 30
0.0
 10
81.88733586277469
 20
-133.2790309996664
 30
0.0
 10
82.02686222992732
 20
-133.2790309996664
 30
0.0
 10
82.17913545037536
 20
-133.1798122496912
 30
0.0
 10
82.17913545037536
 20
-132.9469237948883
 30
0.0
 10
82.17913545037536
 20
-132.6909532003342
 30
0.0
 10
81.99930146604532
 20
-132.6213622715322
 30
0.0
 10
81.87872312406158
 20
-132.6213622715322
 30
0.0
 10
81.84702824559727
 20
-132.6213622715322
 30
0.0
 10
81.7054348211535
 20
-132.6213622715322
 30
0.0
 10
81.61655135763407
 20
-132.7502088426805
 30
0.0
 10
81.61655135763407
 20
-132.7502088426805
 30
0.0
 10
81.44085148788632
 20
-132.7312608175116
 30
0.0
 10
81.44085148788632
 20
-132.7312608175116
 30
0.0
 10
81.44085148788632
 20
-132.7312608175116
 30
0.0
 10
81.56142982987006
 20
-131.8851453663343
 30
0.0
 10
81.56142982987006
 20
-131.8851453663343
 30
0.0
 10
81.56142982987006
 20
-131.8851453663343
 30
0.0
 10
82.34002140953653
 20
-131.8851453663343
 30
0.0
 10
82.34002140953653
 20
-131.8851453663343
 30
0.0
 10
82.34002140953653
 20
-131.8851453663343
 30
0.0
 10
82.34002140953653
 20
-132.0797932612509
 30
0.0
 10
82.34002140953653
 20
-132.0797932612509
 30
0.0
 10
82.34002140953653
 20
-132.0797932612509
 30
0.0
 10
81.72438284632238
 20
-132.0797932612509
 30
0.0
 10
81.72438284632238
 20
-132.0797932612509
 30
0.0
 10
81.72438284632238
 20
-132.0797932612509
 30
0.0
 10
81.65892603210263
 20
-132.5028509868396
 30
0.0
 10
81.65892603210263
 20
-132.5028509868396
 30
0.0
 10
81.72024873174009
 20
-132.4687445415356
 30
0.0
 10
81.80258651383755
 20
-132.4287814339067
 30
0.0
 10
81.92109779853014
 20
-132.4287814339067
 30
0.0
 10
82.17500133579306
 20
-132.4287814339067
 30
0.0
 10
82.41202390517824
 20
-132.6148165901102
 30
0.0
 10
82.41202390517824
 20
-132.9279757697194
 30
0.0
 10
82.41202390517824
 20
-133.2452690639109
 30
0.0
 10
82.18774818908848
 20
-133.480224576005
 30
0.0
 10
81.88526880548355
 20
-133.480224576005
 30
0.0
  0
HATCH
  5
135
330
126
100
AcDbEntity
  8
_U+30EC_U+30A4_U+30E4_U+30FC 1
 62
   179
420
  2234388
100
AcDbHatch
 10
0.0
 20
0.0
 30
0.0
210
0.0
220
0.0
230
1.0
  2
SOLID
 70
     1
 71
     0
 91
        1
 92
        1
 93
        1
 72
     4
 94
        3
 73
     0
 74
     1
 95
       53
 96
       49
 40
0.0
 40
0.0
 40
0.0
 40
0.0
 40
1.0
 40
1.0
 40
1.0
 40
2.0
 40
2.0
 40
2.0
 40
3.0
 40
3.0
 40
3.0
 40
4.0
 40
4.0
 40
4.0
 40
5.0
 40
5.0
 40
5.0
 40
6.0
 40
6.0
 40
6.0
 40
7.0
 40
7.0
 40
7.0
 40
8.0
 40
8.0
 40
8.0
 40
9.0
 40
9.0
 40
9.0
 40
10.0
 40
10.0
 40
10.0
 40
11.0
 40
11.0
 40
11.0
 40
12.0
 40
12.0
 40
12.0
 40
13.0
 40
13.0
 40
13.0
 40
14.0
 40
14.0
 40
14.0
 40
15.0
 40
15.0
 40
15.0
 40
16.0
 40
16.0
 40
16.0
 40
16.0
 10
81.88526880548355
 20
-133.480224576005
 10
81.80706513796838
 20
-133.480224576005
 10
81.7054348211535
 20
-133.4629990985787
 10
81.60380450433864
 20
-133.3996093416501
 10
81.43051620143056
 20
-133.2897107956706
 10
81.40915660942203
 20
-133.1584526576826
 10
81.39020858425314
 20
-133.0506211689943
 10
81.39020858425314
 20
-133.0506211689943
 10
81.61241724305177
 20
-133.0506211689943
 10
81.61241724305177
 20
-133.0506211689943
 10
81.66719426126723
 20
-133.2494031784932
 10
81.79431828467295
 20
-133.2790309996664
 10
81.88733586277469
 20
-133.2790309996664
 10
82.02686222992732
 20
-133.2790309996664
 10
82.17913545037536
 20
-133.1798122496912
 10
82.17913545037536
 20
-132.9469237948883
 10
82.17913545037536
 20
-132.6909532003342
 10
81.99930146604532
 20
-132.6213622715322
 10
81.87872312406158
 20
-132.6213622715322
 10
81.84702824559727
 20
-132.6213622715322
 10
81.7054348211535
 20
-132.6213622715322
 10
81.61655135763407
 20
-132.7502088426805
 10
81.61655135763407
 20
-132.7502088426805
 10
81.44085148788632
 20
-132.7312608175116
 10
81.44085148788632
 20
-132.7312608175116
 10
81.44085148788632
 20
-132.7312608175116
 10
81.56142982987006
 20
-131.8851453663343
 10
81.56142982987006
 20
-131.8851453663343
 10
81.56142982987006
 20
-131.8851453663343
 10
82.34002140953653
 20
-131.8851453663343
 10
82.34002140953653
 20
-131.8851453663343
 10
82.34002140953653
 20
-131.8851453663343
 10
82.34002140953653
 20
-132.0797932612509
 10
82.34002140953653
 20
-132.0797932612509
 10
82.34002140953653
 20
-132.0797932612509
 10
81.72438284632238
 20
-132.0797932612509
 10
81.72438284632238
 20
-132.0797932612509
 10
81.72438284632238
 20
-132.0797932612509
 10
81.65892603210263
 20
-132.5028509868396
 10
81.65892603210263
 20
-132.5028509868396
 10
81.72024873174009
 20
-132.4687445415356
 10
81.80258651383755
 20
-132.4287814339067
 10
81.92109779853014
 20
-132.4287814339067
 10
82.17500133579306
 20
-132.4287814339067
 10
82.41202390517824
 20
-132.6148165901102
 10
82.41202390517824
 20
-132.9279757697194
 10
82.41202390517824
 20
-133.2452690639109
 10
82.18774818908848
 20
-133.480224576005
 10
81.88526880548355
 20
-133.480224576005
 97
        0
 97
        0
 75
     2
 76
     1
 98
        0
  0
ENDBLK
  5
129
330
126
100
AcDbEntity
  8
0
100
AcDbBlockEnd
  0
BLOCK
  5
14B
330
149
100
AcDbEntity
  8
0
100
AcDbBlockBegin
  2
block 11
 70
     0
 10
0.0
 20
0.0
 30
0.0
  3
block 11
  1

  0
SPLINE
  5
14D
330
149
100
AcDbEntity
  8
_U+30EC_U+30A4_U+30E4_U+30FC 1
370
     0
100
AcDbSpline
210
0.0
220
0.0
230
1.0
 70
    11
 71
     3
 72
    26
 73
    22
 74
     0
 42
0.0000000001
 43
0.0000000001
 12
1.0
 22
0.0
 32
0.0
 13
1.0
 23
0.0
 33
0.0
 40
0.0
 40
0.0
 40
0.0
 40
0.0
 40
1.0
 40
1.0
 40
1.0
 40
2.0
 40
2.0
 40
2.0
 40
3.0
 40
3.0
 40
3.0
 40
4.0
 40
4.0
 40
4.0
 40
5.0
 40
5.0
 40
5.0
 40
6.0
 40
6.0
 40
6.0
 40
7.0
 40
7.0
 40
7.0
 40
7.0
 10
102.6517876262468
 20
-132.2110513992389
 30
0.0
 10
102.6517876262468
 20
-132.2110513992389
 30
0.0
 10
101.5476345232242
 20
-132.2110513992389
 30
0.0
 10
101.5476345232242
 20
-132.2110513992389
 30
0.0
 10
101.5476345232242
 20
-132.2110513992389
 30
0.0
 10
101.5476345232242
 20
-132.5410915467259
 30
0.0
 10
101.5476345232242
 20
-132.5410915467259
 30
0.0
 10
101.5476345232242
 20
-132.5410915467259
 30
0.0
 10
101.3994954173585
 20
-132.5410915467259
 30
0.0
 10
101.3994954173585
 20
-132.5410915467259
 30
0.0
 10
101.3846815067719
 20
-132.2089843419478
 30
0.0
 10
101.2217284903196
 20
-132.1624755528969
 30
0.0
 10
101.1073513202093
 20
-132.1328477317237
 30
0.0
 10
101.1073513202093
 20
-132.1328477317237
 30
0.0
 10
101.1073513202093
 20
-131.9867756831491
 30
0.0
 10
101.1073513202093
 20
-131.9867756831491
 30
0.0
 10
101.1073513202093
 20
-131.9867756831491
 30
0.0
 10
102.6517876262468
 20
-131.9867756831491
 30
0.0
 10
102.6517876262468
 20
-131.9867756831491
 30
0.0
 10
102.6517876262468
 20
-131.9867756831491
 30
0.0
 10
102.6517876262468
 20
-132.2110513992389
 30
0.0
 10
102.6517876262468
 20
-132.2110513992389
 30
0.0
  0
HATCH
  5
14E
330
149
100
AcDbEntity
  8
_U+30EC_U+30A4_U+30E4_U+30FC 1
 62
     7
420
 16777215
100
AcDbHatch
 10
0.0
 20
0.0
 30
0.0
210
0.0
220
0.0
230
1.0
  2
SOLID
 70
     1
 71
     0
 91
        1
 92
        1
 93
        1
 72
     4
 94
        3
 73
     0
 74
     1
 95
       26
 96
       22
 40
0.0
 40
0.0
 40
0.0
 40
0.0
 40
1.0
 40
1.0
 40
1.0
 40
2.0
 40
2.0
 40
2.0
 40
3.0
 40
3.0
 40
3.0
 40
4.0
 40
4.0
 40
4.0
 40
5.0
 40
5.0
 40
5.0
 40
6.0
 40
6.0
 40
6.0
 40
7.0
 40
7.0
 40
7.0
 40
7.0
 10
102.6517876262468
 20
-132.2110513992389
 10
102.6517876262468
 20
-132.2110513992389
 10
101.5476345232242
 20
-132.2110513992389
 10
101.5476345232242
 20
-132.2110513992389
 10
101.5476345232242
 20
-132.2110513992389
 10
101.5476345232242
 20
-132.5410915467259
 10
101.5476345232242
 20
-132.5410915467259
 10
101.5476345232242
 20
-132.5410915467259
 10
101.3994954173585
 20
-132.5410915467259
 10
101.3994954173585
 20
-132.5410915467259
 10
101.3846815067719
 20
-132.2089843419478
 10
101.2217284903196
 20
-132.1624755528969
 10
101.1073513202093
 20
-132.1328477317237
 10
101.1073513202093
 20
-132.1328477317237
 10
101.1073513202093
 20
-131.9867756831491
 10
101.1073513202093
 20
-131.9867756831491
 10
101.1073513202093
 20
-131.9867756831491
 10
102.6517876262468
 20
-131.9867756831491
 10
102.6517876262468
 20
-131.9867756831491
 10
102.6517876262468
 20
-131.9867756831491
 10
102.6517876262468
 20
-132.2110513992389
 10
102.6517876262468
 20
-132.2110513992389
 97
        0
 97
        0
 75
     2
 76
     1
 98
        0
  0
SPLINE
  5
14F
330
149
100
AcDbEntity
  8
_U+30EC_U+30A4_U+30E4_U+30FC 1
370
     0
100
AcDbSpline
210
0.0
220
0.0
230
1.0
 70
    11
 71
     3
 72
    53
 73
    49
 74
     0
 42
0.0000000001
 43
0.0000000001
 12
1.0
 22
0.0
 32
0.0
 13
1.0
 23
0.0
 33
0.0
 40
0.0
 40
0.0
 40
0.0
 40
0.0
 40
1.0
 40
1.0
 40
1.0
 40
2.0
 40
2.0
 40
2.0
 40
3.0
 40
3.0
 40
3.0
 40
4.0
 40
4.0
 40
4.0
 40
5.0
 40
5.0
 40
5.0
 40
6.0
 40
6.0
 40
6.0
 40
7.0
 40
7.0
 40
7.0
 40
8.0
 40
8.0
 40
8.0
 40
9.0
 40
9.0
 40
9.0
 40
10.0
 40
10.0
 40
10.0
 40
11.0
 40
11.0
 40
11.0
 40
12.0
 40
12.0
 40
12.0
 40
13.0
 40
13.0
 40
13.0
 40
14.0
 40
14.0
 40
14.0
 40
15.0
 40
15.0
 40
15.0
 40
16.0
 40
16.0
 40
16.0
 40
16.0
 10
102.7024305298799
 20
-131.0045789603044
 30
0.0
 10
102.7024305298799
 20
-131.0827826278196
 30
0.0
 10
102.6855495620022
 20
-131.1844129446345
 30
0.0
 10
102.6221598050736
 20
-131.2860432614493
 30
0.0
 10
102.5122612590942
 20
-131.4593315643574
 30
0.0
 10
102.3810031211061
 20
-131.4806911563659
 30
0.0
 10
102.2731716324178
 20
-131.4996391815348
 30
0.0
 10
102.2731716324178
 20
-131.4996391815348
 30
0.0
 10
102.2731716324178
 20
-131.2774305227362
 30
0.0
 10
102.2731716324178
 20
-131.2774305227362
 30
0.0
 10
102.4719536419167
 20
-131.2226535045207
 30
0.0
 10
102.5015814630899
 20
-131.095529481115
 30
0.0
 10
102.5015814630899
 20
-131.0025119030133
 30
0.0
 10
102.5015814630899
 20
-130.8629855358606
 30
0.0
 10
102.4020182035662
 20
-130.7107123154126
 30
0.0
 10
102.1694742583118
 20
-130.7107123154126
 30
0.0
 10
101.9135036637577
 20
-130.7107123154126
 30
0.0
 10
101.8435682254072
 20
-130.8905462997427
 30
0.0
 10
101.8435682254072
 20
-131.0111246417264
 30
0.0
 10
101.8435682254072
 20
-131.0428195201907
 30
0.0
 10
101.8435682254072
 20
-131.1844129446345
 30
0.0
 10
101.972759306104
 20
-131.2732964081539
 30
0.0
 10
101.972759306104
 20
-131.2732964081539
 30
0.0
 10
101.9538112809352
 20
-131.4489962779016
 30
0.0
 10
101.9538112809352
 20
-131.4489962779016
 30
0.0
 10
101.9538112809352
 20
-131.4489962779016
 30
0.0
 10
101.1073513202093
 20
-131.3284179359179
 30
0.0
 10
101.1073513202093
 20
-131.3284179359179
 30
0.0
 10
101.1073513202093
 20
-131.3284179359179
 30
0.0
 10
101.1073513202093
 20
-130.5498263562514
 30
0.0
 10
101.1073513202093
 20
-130.5498263562514
 30
0.0
 10
101.1073513202093
 20
-130.5498263562514
 30
0.0
 10
101.3019992151259
 20
-130.5498263562514
 30
0.0
 10
101.3019992151259
 20
-130.5498263562514
 30
0.0
 10
101.3019992151259
 20
-130.5498263562514
 30
0.0
 10
101.3019992151259
 20
-131.1654649194656
 30
0.0
 10
101.3019992151259
 20
-131.1654649194656
 30
0.0
 10
101.3019992151259
 20
-131.1654649194656
 30
0.0
 10
101.7250569407146
 20
-131.2309217336853
 30
0.0
 10
101.7250569407146
 20
-131.2309217336853
 30
0.0
 10
101.6912950049591
 20
-131.1695990340479
 30
0.0
 10
101.6509873877817
 20
-131.0872612519504
 30
0.0
 10
101.6509873877817
 20
-130.9687499672578
 30
0.0
 10
101.6509873877817
 20
-130.7148464299949
 30
0.0
 10
101.8373670535337
 20
-130.4778238606097
 30
0.0
 10
102.1505262331429
 20
-130.4778238606097
 30
0.0
 10
102.4678195273344
 20
-130.4778238606097
 30
0.0
 10
102.7024305298799
 20
-130.7020995766995
 30
0.0
 10
102.7024305298799
 20
-131.0045789603044
 30
0.0
  0
HATCH
  5
150
330
149
100
AcDbEntity
  8
_U+30EC_U+30A4_U+30E4_U+30FC 1
 62
     7
420
 16777215
100
AcDbHatch
 10
0.0
 20
0.0
 30
0.0
210
0.0
220
0.0
230
1.0
  2
SOLID
 70
     1
 71
     0
 91
        1
 92
        1
 93
        1
 72
     4
 94
        3
 73
     0
 74
     1
 95
       53
 96
       49
 40
0.0
 40
0.0
 40
0.0
 40
0.0
 40
1.0
 40
1.0
 40
1.0
 40
2.0
 40
2.0
 40
2.0
 40
3.0
 40
3.0
 40
3.0
 40
4.0
 40
4.0
 40
4.0
 40
5.0
 40
5.0
 40
5.0
 40
6.0
 40
6.0
 40
6.0
 40
7.0
 40
7.0
 40
7.0
 40
8.0
 40
8.0
 40
8.0
 40
9.0
 40
9.0
 40
9.0
 40
10.0
 40
10.0
 40
10.0
 40
11.0
 40
11.0
 40
11.0
 40
12.0
 40
12.0
 40
12.0
 40
13.0
 40
13.0
 40
13.0
 40
14.0
 40
14.0
 40
14.0
 40
15.0
 40
15.0
 40
15.0
 40
16.0
 40
16.0
 40
16.0
 40
16.0
 10
102.7024305298799
 20
-131.0045789603044
 10
102.7024305298799
 20
-131.0827826278196
 10
102.6855495620022
 20
-131.1844129446345
 10
102.6221598050736
 20
-131.2860432614493
 10
102.5122612590942
 20
-131.4593315643574
 10
102.3810031211061
 20
-131.4806911563659
 10
102.2731716324178
 20
-131.4996391815348
 10
102.2731716324178
 20
-131.4996391815348
 10
102.2731716324178
 20
-131.2774305227362
 10
102.2731716324178
 20
-131.2774305227362
 10
102.4719536419167
 20
-131.2226535045207
 10
102.5015814630899
 20
-131.095529481115
 10
102.5015814630899
 20
-131.0025119030133
 10
102.5015814630899
 20
-130.8629855358606
 10
102.4020182035662
 20
-130.7107123154126
 10
102.1694742583118
 20
-130.7107123154126
 10
101.9135036637577
 20
-130.7107123154126
 10
101.8435682254072
 20
-130.8905462997427
 10
101.8435682254072
 20
-131.0111246417264
 10
101.8435682254072
 20
-131.0428195201907
 10
101.8435682254072
 20
-131.1844129446345
 10
101.972759306104
 20
-131.2732964081539
 10
101.972759306104
 20
-131.2732964081539
 10
101.9538112809352
 20
-131.4489962779016
 10
101.9538112809352
 20
-131.4489962779016
 10
101.9538112809352
 20
-131.4489962779016
 10
101.1073513202093
 20
-131.3284179359179
 10
101.1073513202093
 20
-131.3284179359179
 10
101.1073513202093
 20
-131.3284179359179
 10
101.1073513202093
 20
-130.5498263562514
 10
101.1073513202093
 20
-130.5498263562514
 10
101.1073513202093
 20
-130.5498263562514
 10
101.3019992151259
 20
-130.5498263562514
 10
101.3019992151259
 20
-130.5498263562514
 10
101.3019992151259
 20
-130.5498263562514
 10
101.3019992151259
 20
-131.1654649194656
 10
101.3019992151259
 20
-131.1654649194656
 10
101.3019992151259
 20
-131.1654649194656
 10
101.7250569407146
 20
-131.2309217336853
 10
101.7250569407146
 20
-131.2309217336853
 10
101.6912950049591
 20
-131.1695990340479
 10
101.6509873877817
 20
-131.0872612519504
 10
101.6509873877817
 20
-130.9687499672578
 10
101.6509873877817
 20
-130.7148464299949
 10
101.8373670535337
 20
-130.4778238606097
 10
102.1505262331429
 20
-130.4778238606097
 10
102.4678195273344
 20
-130.4778238606097
 10
102.7024305298799
 20
-130.7020995766995
 10
102.7024305298799
 20
-131.0045789603044
 97
        0
 97
        0
 75
     2
 76
     1
 98
        0
  0
POLYLINE
  5
151
330
149
100
AcDbEntity
  8
_U+30EC_U+30A4_U+30E4_U+30FC 1
370
     0
100
AcDb2dPolyline
 66
     1
 10
0.0
 20
0.0
 30
0.0
  0
VERTEX
  5
152
330
151
100
AcDbEntity
  8
_U+30EC_U+30A4_U+30E4_U+30FC 1
370
     0
100
AcDbVertex
100
AcDb2dVertex
 10
102.6517876262468
 20
-130.2487250108406
 30
0.0
  0
VERTEX
  5
153
330
151
100
AcDbEntity
  8
_U+30EC_U+30A4_U+30E4_U+30FC 1
370
     0
100
AcDbVertex
100
AcDb2dVertex
 10
102.399951146275
 20
-130.2487250108406
 30
0.0
  0
VERTEX
  5
154
330
151
100
AcDbEntity
  8
_U+30EC_U+30A4_U+30E4_U+30FC 1
370
     0
100
AcDbVertex
100
AcDb2dVertex
 10
102.399951146275
 20
-129.9968885308688
 30
0.0
  0
VERTEX
  5
155
330
151
100
AcDbEntity
  8
_U+30EC_U+30A4_U+30E4_U+30FC 1
370
     0
100
AcDbVertex
100
AcDb2dVertex
 10
102.6517876262468
 20
-129.9968885308688
 30
0.0
  0
VERTEX
  5
156
330
151
100
AcDbEntity
  8
_U+30EC_U+30A4_U+30E4_U+30FC 1
370
     0
100
AcDbVertex
100
AcDb2dVertex
 10
102.6517876262468
 20
-130.2487250108406
 30
0.0
  0
SEQEND
  5
157
330
151
100
AcDbEntity
  8
_U+30EC_U+30A4_U+30E4_U+30FC 1
370
     0
  0
HATCH
  5
158
330
149
100
AcDbEntity
  8
_U+30EC_U+30A4_U+30E4_U+30FC 1
 62
     7
420
 16777215
100
AcDbHatch
 10
0.0
 20
0.0
 30
0.0
210
0.0
220
0.0
230
1.0
  2
SOLID
 70
     1
 71
     0
 91
        1
 92
        1
 93
        4
 72
     1
 10
102.6517876262468
 20
-130.2487250108406
 11
102.399951146275
 21
-130.2487250108406
 72
     1
 10
102.399951146275
 20
-130.2487250108406
 11
102.399951146275
 21
-129.9968885308688
 72
     1
 10
102.399951146275
 20
-129.9968885308688
 11
102.6517876262468
 21
-129.9968885308688
 72
     1
 10
102.6517876262468
 20
-129.9968885308688
 11
102.6517876262468
 21
-130.2487250108406
 97
        0
 75
     2
 76
     1
 98
        0
  0
SPLINE
  5
159
330
149
100
AcDbEntity
  8
_U+30EC_U+30A4_U+30E4_U+30FC 1
370
     0
100
AcDbSpline
210
0.0
220
0.0
230
1.0
 70
    11
 71
     3
 72
    53
 73
    49
 74
     0
 42
0.0000000001
 43
0.0000000001
 12
1.0
 22
0.0
 32
0.0
 13
1.0
 23
0.0
 33
0.0
 40
0.0
 40
0.0
 40
0.0
 40
0.0
 40
1.0
 40
1.0
 40
1.0
 40
2.0
 40
2.0
 40
2.0
 40
3.0
 40
3.0
 40
3.0
 40
4.0
 40
4.0
 40
4.0
 40
5.0
 40
5.0
 40
5.0
 40
6.0
 40
6.0
 40
6.0
 40
7.0
 40
7.0
 40
7.0
 40
8.0
 40
8.0
 40
8.0
 40
9.0
 40
9.0
 40
9.0
 40
10.0
 40
10.0
 40
10.0
 40
11.0
 40
11.0
 40
11.0
 40
12.0
 40
12.0
 40
12.0
 40
13.0
 40
13.0
 40
13.0
 40
14.0
 40
14.0
 40
14.0
 40
15.0
 40
15.0
 40
15.0
 40
16.0
 40
16.0
 40
16.0
 40
16.0
 10
102.7024305298799
 20
-129.2796196508398
 30
0.0
 10
102.7024305298799
 20
-129.357823318355
 30
0.0
 10
102.6855495620022
 20
-129.4594536351699
 30
0.0
 10
102.6221598050736
 20
-129.5610839519847
 30
0.0
 10
102.5122612590942
 20
-129.7343722548928
 30
0.0
 10
102.3810031211061
 20
-129.7557318469013
 30
0.0
 10
102.2731716324178
 20
-129.7746798720702
 30
0.0
 10
102.2731716324178
 20
-129.7746798720702
 30
0.0
 10
102.2731716324178
 20
-129.5524712132716
 30
0.0
 10
102.2731716324178
 20
-129.5524712132716
 30
0.0
 10
102.4719536419167
 20
-129.4976941950561
 30
0.0
 10
102.5015814630899
 20
-129.3705701716504
 30
0.0
 10
102.5015814630899
 20
-129.2775525935487
 30
0.0
 10
102.5015814630899
 20
-129.1380262263961
 30
0.0
 10
102.4020182035662
 20
-128.985753005948
 30
0.0
 10
102.1694742583118
 20
-128.985753005948
 30
0.0
 10
101.9135036637577
 20
-128.985753005948
 30
0.0
 10
101.8435682254072
 20
-129.1655869902781
 30
0.0
 10
101.8435682254072
 20
-129.2861653322618
 30
0.0
 10
101.8435682254072
 20
-129.3178602107261
 30
0.0
 10
101.8435682254072
 20
-129.4594536351699
 30
0.0
 10
101.972759306104
 20
-129.5483370986893
 30
0.0
 10
101.972759306104
 20
-129.5483370986893
 30
0.0
 10
101.9538112809352
 20
-129.724036968437
 30
0.0
 10
101.9538112809352
 20
-129.724036968437
 30
0.0
 10
101.9538112809352
 20
-129.724036968437
 30
0.0
 10
101.1073513202093
 20
-129.6034586264533
 30
0.0
 10
101.1073513202093
 20
-129.6034586264533
 30
0.0
 10
101.1073513202093
 20
-129.6034586264533
 30
0.0
 10
101.1073513202093
 20
-128.8248670467868
 30
0.0
 10
101.1073513202093
 20
-128.8248670467868
 30
0.0
 10
101.1073513202093
 20
-128.8248670467868
 30
0.0
 10
101.3019992151259
 20
-128.8248670467868
 30
0.0
 10
101.3019992151259
 20
-128.8248670467868
 30
0.0
 10
101.3019992151259
 20
-128.8248670467868
 30
0.0
 10
101.3019992151259
 20
-129.440505610001
 30
0.0
 10
101.3019992151259
 20
-129.440505610001
 30
0.0
 10
101.3019992151259
 20
-129.440505610001
 30
0.0
 10
101.7250569407146
 20
-129.5059624242207
 30
0.0
 10
101.7250569407146
 20
-129.5059624242207
 30
0.0
 10
101.6912950049591
 20
-129.4446397245833
 30
0.0
 10
101.6509873877817
 20
-129.3623019424858
 30
0.0
 10
101.6509873877817
 20
-129.2437906577932
 30
0.0
 10
101.6509873877817
 20
-128.9898871205303
 30
0.0
 10
101.8373670535337
 20
-128.7528645511451
 30
0.0
 10
102.1505262331429
 20
-128.7528645511451
 30
0.0
 10
102.4678195273344
 20
-128.7528645511451
 30
0.0
 10
102.7024305298799
 20
-128.9771402672349
 30
0.0
 10
102.7024305298799
 20
-129.2796196508398
 30
0.0
  0
HATCH
  5
15A
330
149
100
AcDbEntity
  8
_U+30EC_U+30A4_U+30E4_U+30FC 1
 62
     7
420
 16777215
100
AcDbHatch
 10
0.0
 20
0.0
 30
0.0
210
0.0
220
0.0
230
1.0
  2
SOLID
 70
     1
 71
     0
 91
        1
 92
        1
 93
        1
 72
     4
 94
        3
 73
     0
 74
     1
 95
       53
 96
       49
 40
0.0
 40
0.0
 40
0.0
 40
0.0
 40
1.0
 40
1.0
 40
1.0
 40
2.0
 40
2.0
 40
2.0
 40
3.0
 40
3.0
 40
3.0
 40
4.0
 40
4.0
 40
4.0
 40
5.0
 40
5.0
 40
5.0
 40
6.0
 40
6.0
 40
6.0
 40
7.0
 40
7.0
 40
7.0
 40
8.0
 40
8.0
 40
8.0
 40
9.0
 40
9.0
 40
9.0
 40
10.0
 40
10.0
 40
10.0
 40
11.0
 40
11.0
 40
11.0
 40
12.0
 40
12.0
 40
12.0
 40
13.0
 40
13.0
 40
13.0
 40
14.0
 40
14.0
 40
14.0
 40
15.0
 40
15.0
 40
15.0
 40
16.0
 40
16.0
 40
16.0
 40
16.0
 10
102.7024305298799
 20
-129.2796196508398
 10
102.7024305298799
 20
-129.357823318355
 10
102.6855495620022
 20
-129.4594536351699
 10
102.6221598050736
 20
-129.5610839519847
 10
102.5122612590942
 20
-129.7343722548928
 10
102.3810031211061
 20
-129.7557318469013
 10
102.2731716324178
 20
-129.7746798720702
 10
102.2731716324178
 20
-129.7746798720702
 10
102.2731716324178
 20
-129.5524712132716
 10
102.2731716324178
 20
-129.5524712132716
 10
102.4719536419167
 20
-129.4976941950561
 10
102.5015814630899
 20
-129.3705701716504
 10
102.5015814630899
 20
-129.2775525935487
 10
102.5015814630899
 20
-129.1380262263961
 10
102.4020182035662
 20
-128.985753005948
 10
102.1694742583118
 20
-128.985753005948
 10
101.9135036637577
 20
-128.985753005948
 10
101.8435682254072
 20
-129.1655869902781
 10
101.8435682254072
 20
-129.2861653322618
 10
101.8435682254072
 20
-129.3178602107261
 10
101.8435682254072
 20
-129.4594536351699
 10
101.972759306104
 20
-129.5483370986893
 10
101.972759306104
 20
-129.5483370986893
 10
101.9538112809352
 20
-129.724036968437
 10
101.9538112809352
 20
-129.724036968437
 10
101.9538112809352
 20
-129.724036968437
 10
101.1073513202093
 20
-129.6034586264533
 10
101.1073513202093
 20
-129.6034586264533
 10
101.1073513202093
 20
-129.6034586264533
 10
101.1073513202093
 20
-128.8248670467868
 10
101.1073513202093
 20
-128.8248670467868
 10
101.1073513202093
 20
-128.8248670467868
 10
101.3019992151259
 20
-128.8248670467868
 10
101.3019992151259
 20
-128.8248670467868
 10
101.3019992151259
 20
-128.8248670467868
 10
101.3019992151259
 20
-129.440505610001
 10
101.3019992151259
 20
-129.440505610001
 10
101.3019992151259
 20
-129.440505610001
 10
101.7250569407146
 20
-129.5059624242207
 10
101.7250569407146
 20
-129.5059624242207
 10
101.6912950049591
 20
-129.4446397245833
 10
101.6509873877817
 20
-129.3623019424858
 10
101.6509873877817
 20
-129.2437906577932
 10
101.6509873877817
 20
-128.9898871205303
 10
101.8373670535337
 20
-128.7528645511451
 10
102.1505262331429
 20
-128.7528645511451
 10
102.4678195273344
 20
-128.7528645511451
 10
102.7024305298799
 20
-128.9771402672349
 10
102.7024305298799
 20
-129.2796196508398
 97
        0
 97
        0
 75
     2
 76
     1
 98
        0
  0
ENDBLK
  5
14C
330
149
100
AcDbEntity
  8
0
100
AcDbBlockEnd
  0
BLOCK
  5
15D
330
15B
100
AcDbEntity
  8
0
100
AcDbBlockBegin
  2
block 12
 70
     0
 10
0.0
 20
0.0
 30
0.0
  3
block 12
  1

  0
SPLINE
  5
15F
330
15B
100
AcDbEntity
  8
_U+30EC_U+30A4_U+30E4_U+30FC 1
370
     0
100
AcDbSpline
210
0.0
220
0.0
230
1.0
 70
    11
 71
     3
 72
    62
 73
    58
 74
     0
 42
0.0000000001
 43
0.0000000001
 12
1.0
 22
0.0
 32
0.0
 13
1.0
 23
0.0
 33
0.0
 40
0.0
 40
0.0
 40
0.0
 40
0.0
 40
1.0
 40
1.0
 40
1.0
 40
2.0
 40
2.0
 40
2.0
 40
3.0
 40
3.0
 40
3.0
 40
4.0
 40
4.0
 40
4.0
 40
5.0
 40
5.0
 40
5.0
 40
6.0
 40
6.0
 40
6.0
 40
7.0
 40
7.0
 40
7.0
 40
8.0
 40
8.0
 40
8.0
 40
9.0
 40
9.0
 40
9.0
 40
10.0
 40
10.0
 40
10.0
 40
11.0
 40
11.0
 40
11.0
 40
12.0
 40
12.0
 40
12.0
 40
13.0
 40
13.0
 40
13.0
 40
14.0
 40
14.0
 40
14.0
 40
15.0
 40
15.0
 40
15.0
 40
16.0
 40
16.0
 40
16.0
 40
17.0
 40
17.0
 40
17.0
 40
18.0
 40
18.0
 40
18.0
 40
19.0
 40
19.0
 40
19.0
 40
19.0
 10
102.7024305298799
 20
-122.7029323694979
 30
0.0
 10
102.7024305298799
 20
-122.7983615144393
 30
0.0
 10
102.6814154474199
 20
-123.0160915491071
 30
0.0
 10
102.4953802912164
 20
-123.1411485152217
 30
0.0
 10
102.3830701783973
 20
-123.2152180681545
 30
0.0
 10
102.2838514284221
 20
-123.2193521827368
 30
0.0
 10
102.1991020794849
 20
-123.2234862973191
 30
0.0
 10
102.1991020794849
 20
-123.2234862973191
 30
0.0
 10
102.1991020794849
 20
-123.0033446958117
 30
0.0
 10
102.1991020794849
 20
-123.0033446958117
 30
0.0
 10
102.2731716324178
 20
-123.0012776385205
 30
0.0
 10
102.5077826349633
 20
-122.9909423520648
 30
0.0
 10
102.5077826349633
 20
-122.7074109936287
 30
0.0
 10
102.5077826349633
 20
-122.5699516837672
 30
0.0
 10
102.4381917061613
 20
-122.4173339537707
 30
0.0
 10
102.2097818754892
 20
-122.4173339537707
 30
0.0
 10
102.0933376480878
 20
-122.4173339537707
 30
0.0
 10
102.0447618017458
 20
-122.4555745136569
 30
0.0
 10
102.0130669232815
 20
-122.4872693921212
 30
0.0
 10
101.9389973703486
 20
-122.5613389450541
 30
0.0
 10
101.9262505170532
 20
-122.6777831724556
 30
0.0
 10
101.9262505170532
 20
-122.732560190671
 30
0.0
 10
101.9262505170532
 20
-122.7518527253884
 30
0.0
 10
101.9283175743443
 20
-122.787681718435
 30
0.0
 10
101.9324516889266
 20
-122.815242482317
 30
0.0
 10
101.9324516889266
 20
-122.815242482317
 30
0.0
 10
101.73780379401
 20
-122.815242482317
 30
0.0
 10
101.73780379401
 20
-122.815242482317
 30
0.0
 10
101.744349475432
 20
-122.7770019224308
 30
0.0
 10
101.7464165327231
 20
-122.7349717575107
 30
0.0
 10
101.7464165327231
 20
-122.7284260760887
 30
0.0
 10
101.7464165327231
 20
-122.662969261869
 30
0.0
 10
101.7250569407146
 20
-122.4641872523701
 30
0.0
 10
101.4883788808779
 20
-122.4641872523701
 30
0.0
 10
101.310611953839
 20
-122.4641872523701
 30
0.0
 10
101.255490426075
 20
-122.5951008808096
 30
0.0
 10
101.255490426075
 20
-122.7053439363376
 30
0.0
 10
101.255490426075
 20
-122.9695827600562
 30
0.0
 10
101.4883788808779
 20
-122.9781954987694
 30
0.0
 10
101.5600368669711
 20
-122.9823296133517
 30
0.0
 10
101.5600368669711
 20
-122.9823296133517
 30
0.0
 10
101.5600368669711
 20
-123.1855902469814
 30
0.0
 10
101.5600368669711
 20
-123.1855902469814
 30
0.0
 10
101.4353244104051
 20
-123.1769775082683
 30
0.0
 10
101.0587754738673
 20
-123.1494167443863
 30
0.0
 10
101.0587754738673
 20
-122.6925970830421
 30
0.0
 10
101.0587754738673
 20
-122.4683213669524
 30
0.0
 10
101.185899497273
 20
-122.2271646829849
 30
0.0
 10
101.4818331994559
 20
-122.2271646829849
 30
0.0
 10
101.6682128652079
 20
-122.2271646829849
 30
0.0
 10
101.7505506473054
 20
-122.3222493183778
 30
0.0
 10
101.8118733469429
 20
-122.4218125779015
 30
0.0
 10
101.8394341108249
 20
-122.360489878264
 30
0.0
 10
101.9197048356312
 20
-122.1785888366429
 30
0.0
 10
102.1970350221938
 20
-122.1785888366429
 30
0.0
 10
102.5353433988453
 20
-122.1785888366429
 30
0.0
 10
102.7024305298799
 20
-122.4259466924838
 30
0.0
 10
102.7024305298799
 20
-122.7029323694979
 30
0.0
  0
HATCH
  5
160
330
15B
100
AcDbEntity
  8
_U+30EC_U+30A4_U+30E4_U+30FC 1
 62
     7
420
 16777215
100
AcDbHatch
 10
0.0
 20
0.0
 30
0.0
210
0.0
220
0.0
230
1.0
  2
SOLID
 70
     1
 71
     0
 91
        1
 92
        1
 93
        1
 72
     4
 94
        3
 73
     0
 74
     1
 95
       62
 96
       58
 40
0.0
 40
0.0
 40
0.0
 40
0.0
 40
1.0
 40
1.0
 40
1.0
 40
2.0
 40
2.0
 40
2.0
 40
3.0
 40
3.0
 40
3.0
 40
4.0
 40
4.0
 40
4.0
 40
5.0
 40
5.0
 40
5.0
 40
6.0
 40
6.0
 40
6.0
 40
7.0
 40
7.0
 40
7.0
 40
8.0
 40
8.0
 40
8.0
 40
9.0
 40
9.0
 40
9.0
 40
10.0
 40
10.0
 40
10.0
 40
11.0
 40
11.0
 40
11.0
 40
12.0
 40
12.0
 40
12.0
 40
13.0
 40
13.0
 40
13.0
 40
14.0
 40
14.0
 40
14.0
 40
15.0
 40
15.0
 40
15.0
 40
16.0
 40
16.0
 40
16.0
 40
17.0
 40
17.0
 40
17.0
 40
18.0
 40
18.0
 40
18.0
 40
19.0
 40
19.0
 40
19.0
 40
19.0
 10
102.7024305298799
 20
-122.7029323694979
 10
102.7024305298799
 20
-122.7983615144393
 10
102.6814154474199
 20
-123.0160915491071
 10
102.4953802912164
 20
-123.1411485152217
 10
102.3830701783973
 20
-123.2152180681545
 10
102.2838514284221
 20
-123.2193521827368
 10
102.1991020794849
 20
-123.2234862973191
 10
102.1991020794849
 20
-123.2234862973191
 10
102.1991020794849
 20
-123.0033446958117
 10
102.1991020794849
 20
-123.0033446958117
 10
102.2731716324178
 20
-123.0012776385205
 10
102.5077826349633
 20
-122.9909423520648
 10
102.5077826349633
 20
-122.7074109936287
 10
102.5077826349633
 20
-122.5699516837672
 10
102.4381917061613
 20
-122.4173339537707
 10
102.2097818754892
 20
-122.4173339537707
 10
102.0933376480878
 20
-122.4173339537707
 10
102.0447618017458
 20
-122.4555745136569
 10
102.0130669232815
 20
-122.4872693921212
 10
101.9389973703486
 20
-122.5613389450541
 10
101.9262505170532
 20
-122.6777831724556
 10
101.9262505170532
 20
-122.732560190671
 10
101.9262505170532
 20
-122.7518527253884
 10
101.9283175743443
 20
-122.787681718435
 10
101.9324516889266
 20
-122.815242482317
 10
101.9324516889266
 20
-122.815242482317
 10
101.73780379401
 20
-122.815242482317
 10
101.73780379401
 20
-122.815242482317
 10
101.744349475432
 20
-122.7770019224308
 10
101.7464165327231
 20
-122.7349717575107
 10
101.7464165327231
 20
-122.7284260760887
 10
101.7464165327231
 20
-122.662969261869
 10
101.7250569407146
 20
-122.4641872523701
 10
101.4883788808779
 20
-122.4641872523701
 10
101.310611953839
 20
-122.4641872523701
 10
101.255490426075
 20
-122.5951008808096
 10
101.255490426075
 20
-122.7053439363376
 10
101.255490426075
 20
-122.9695827600562
 10
101.4883788808779
 20
-122.9781954987694
 10
101.5600368669711
 20
-122.9823296133517
 10
101.5600368669711
 20
-122.9823296133517
 10
101.5600368669711
 20
-123.1855902469814
 10
101.5600368669711
 20
-123.1855902469814
 10
101.4353244104051
 20
-123.1769775082683
 10
101.0587754738673
 20
-123.1494167443863
 10
101.0587754738673
 20
-122.6925970830421
 10
101.0587754738673
 20
-122.4683213669524
 10
101.185899497273
 20
-122.2271646829849
 10
101.4818331994559
 20
-122.2271646829849
 10
101.6682128652079
 20
-122.2271646829849
 10
101.7505506473054
 20
-122.3222493183778
 10
101.8118733469429
 20
-122.4218125779015
 10
101.8394341108249
 20
-122.360489878264
 10
101.9197048356312
 20
-122.1785888366429
 10
102.1970350221938
 20
-122.1785888366429
 10
102.5353433988453
 20
-122.1785888366429
 10
102.7024305298799
 20
-122.4259466924838
 10
102.7024305298799
 20
-122.7029323694979
 97
        0
 97
        0
 75
     2
 76
     1
 98
        0
  0
POLYLINE
  5
161
330
15B
100
AcDbEntity
  8
_U+30EC_U+30A4_U+30E4_U+30FC 1
370
     0
100
AcDb2dPolyline
 66
     1
 10
0.0
 20
0.0
 30
0.0
  0
VERTEX
  5
162
330
161
100
AcDbEntity
  8
_U+30EC_U+30A4_U+30E4_U+30FC 1
370
     0
100
AcDbVertex
100
AcDb2dVertex
 10
102.6517876262468
 20
-121.9577582160383
 30
0.0
  0
VERTEX
  5
163
330
161
100
AcDbEntity
  8
_U+30EC_U+30A4_U+30E4_U+30FC 1
370
     0
100
AcDbVertex
100
AcDb2dVertex
 10
102.399951146275
 20
-121.9577582160383
 30
0.0
  0
VERTEX
  5
164
330
161
100
AcDbEntity
  8
_U+30EC_U+30A4_U+30E4_U+30FC 1
370
     0
100
AcDbVertex
100
AcDb2dVertex
 10
102.399951146275
 20
-121.7059217360666
 30
0.0
  0
VERTEX
  5
165
330
161
100
AcDbEntity
  8
_U+30EC_U+30A4_U+30E4_U+30FC 1
370
     0
100
AcDbVertex
100
AcDb2dVertex
 10
102.6517876262468
 20
-121.7059217360666
 30
0.0
  0
VERTEX
  5
166
330
161
100
AcDbEntity
  8
_U+30EC_U+30A4_U+30E4_U+30FC 1
370
     0
100
AcDbVertex
100
AcDb2dVertex
 10
102.6517876262468
 20
-121.9577582160383
 30
0.0
  0
SEQEND
  5
167
330
161
100
AcDbEntity
  8
_U+30EC_U+30A4_U+30E4_U+30FC 1
370
     0
  0
HATCH
  5
168
330
15B
100
AcDbEntity
  8
_U+30EC_U+30A4_U+30E4_U+30FC 1
 62
     7
420
 16777215
100
AcDbHatch
 10
0.0
 20
0.0
 30
0.0
210
0.0
220
0.0
230
1.0
  2
SOLID
 70
     1
 71
     0
 91
        1
 92
        1
 93
        4
 72
     1
 10
102.6517876262468
 20
-121.9577582160383
 11
102.399951146275
 21
-121.9577582160383
 72
     1
 10
102.399951146275
 20
-121.9577582160383
 11
102.399951146275
 21
-121.7059217360666
 72
     1
 10
102.399951146275
 20
-121.7059217360666
 11
102.6517876262468
 21
-121.7059217360666
 72
     1
 10
102.6517876262468
 20
-121.7059217360666
 11
102.6517876262468
 21
-121.9577582160383
 97
        0
 75
     2
 76
     1
 98
        0
  0
SPLINE
  5
169
330
15B
100
AcDbEntity
  8
_U+30EC_U+30A4_U+30E4_U+30FC 1
370
     0
100
AcDbSpline
210
0.0
220
0.0
230
1.0
 70
    11
 71
     3
 72
    53
 73
    49
 74
     0
 42
0.0000000001
 43
0.0000000001
 12
1.0
 22
0.0
 32
0.0
 13
1.0
 23
0.0
 33
0.0
 40
0.0
 40
0.0
 40
0.0
 40
0.0
 40
1.0
 40
1.0
 40
1.0
 40
2.0
 40
2.0
 40
2.0
 40
3.0
 40
3.0
 40
3.0
 40
4.0
 40
4.0
 40
4.0
 40
5.0
 40
5.0
 40
5.0
 40
6.0
 40
6.0
 40
6.0
 40
7.0
 40
7.0
 40
7.0
 40
8.0
 40
8.0
 40
8.0
 40
9.0
 40
9.0
 40
9.0
 40
10.0
 40
10.0
 40
10.0
 40
11.0
 40
11.0
 40
11.0
 40
12.0
 40
12.0
 40
12.0
 40
13.0
 40
13.0
 40
13.0
 40
14.0
 40
14.0
 40
14.0
 40
15.0
 40
15.0
 40
15.0
 40
16.0
 40
16.0
 40
16.0
 40
16.0
 10
102.7024305298799
 20
-120.9886528560376
 30
0.0
 10
102.7024305298799
 20
-121.0668565235527
 30
0.0
 10
102.6855495620022
 20
-121.1684868403676
 30
0.0
 10
102.6221598050736
 20
-121.2701171571825
 30
0.0
 10
102.5122612590942
 20
-121.4434054600905
 30
0.0
 10
102.3810031211061
 20
-121.4647650520991
 30
0.0
 10
102.2731716324178
 20
-121.483713077268
 30
0.0
 10
102.2731716324178
 20
-121.483713077268
 30
0.0
 10
102.2731716324178
 20
-121.2615044184694
 30
0.0
 10
102.2731716324178
 20
-121.2615044184694
 30
0.0
 10
102.4719536419167
 20
-121.2067274002539
 30
0.0
 10
102.5015814630899
 20
-121.0796033768482
 30
0.0
 10
102.5015814630899
 20
-120.9865857987464
 30
0.0
 10
102.5015814630899
 20
-120.8470594315938
 30
0.0
 10
102.4020182035662
 20
-120.6947862111458
 30
0.0
 10
102.1694742583118
 20
-120.6947862111458
 30
0.0
 10
101.9135036637577
 20
-120.6947862111458
 30
0.0
 10
101.8435682254072
 20
-120.8746201954758
 30
0.0
 10
101.8435682254072
 20
-120.9951985374595
 30
0.0
 10
101.8435682254072
 20
-121.0268934159238
 30
0.0
 10
101.8435682254072
 20
-121.1684868403676
 30
0.0
 10
101.972759306104
 20
-121.2573703038871
 30
0.0
 10
101.972759306104
 20
-121.2573703038871
 30
0.0
 10
101.9538112809352
 20
-121.4330701736348
 30
0.0
 10
101.9538112809352
 20
-121.4330701736348
 30
0.0
 10
101.9538112809352
 20
-121.4330701736348
 30
0.0
 10
101.1073513202093
 20
-121.312491831651
 30
0.0
 10
101.1073513202093
 20
-121.312491831651
 30
0.0
 10
101.1073513202093
 20
-121.312491831651
 30
0.0
 10
101.1073513202093
 20
-120.5339002519846
 30
0.0
 10
101.1073513202093
 20
-120.5339002519846
 30
0.0
 10
101.1073513202093
 20
-120.5339002519846
 30
0.0
 10
101.3019992151259
 20
-120.5339002519846
 30
0.0
 10
101.3019992151259
 20
-120.5339002519846
 30
0.0
 10
101.3019992151259
 20
-120.5339002519846
 30
0.0
 10
101.3019992151259
 20
-121.1495388151987
 30
0.0
 10
101.3019992151259
 20
-121.1495388151987
 30
0.0
 10
101.3019992151259
 20
-121.1495388151987
 30
0.0
 10
101.7250569407146
 20
-121.2149956294185
 30
0.0
 10
101.7250569407146
 20
-121.2149956294185
 30
0.0
 10
101.6912950049591
 20
-121.153672929781
 30
0.0
 10
101.6509873877817
 20
-121.0713351476836
 30
0.0
 10
101.6509873877817
 20
-120.952823862991
 30
0.0
 10
101.6509873877817
 20
-120.6989203257281
 30
0.0
 10
101.8373670535337
 20
-120.4618977563429
 30
0.0
 10
102.1505262331429
 20
-120.4618977563429
 30
0.0
 10
102.4678195273344
 20
-120.4618977563429
 30
0.0
 10
102.7024305298799
 20
-120.6861734724326
 30
0.0
 10
102.7024305298799
 20
-120.9886528560376
 30
0.0
  0
HATCH
  5
16A
330
15B
100
AcDbEntity
  8
_U+30EC_U+30A4_U+30E4_U+30FC 1
 62
     7
420
 16777215
100
AcDbHatch
 10
0.0
 20
0.0
 30
0.0
210
0.0
220
0.0
230
1.0
  2
SOLID
 70
     1
 71
     0
 91
        1
 92
        1
 93
        1
 72
     4
 94
        3
 73
     0
 74
     1
 95
       53
 96
       49
 40
0.0
 40
0.0
 40
0.0
 40
0.0
 40
1.0
 40
1.0
 40
1.0
 40
2.0
 40
2.0
 40
2.0
 40
3.0
 40
3.0
 40
3.0
 40
4.0
 40
4.0
 40
4.0
 40
5.0
 40
5.0
 40
5.0
 40
6.0
 40
6.0
 40
6.0
 40
7.0
 40
7.0
 40
7.0
 40
8.0
 40
8.0
 40
8.0
 40
9.0
 40
9.0
 40
9.0
 40
10.0
 40
10.0
 40
10.0
 40
11.0
 40
11.0
 40
11.0
 40
12.0
 40
12.0
 40
12.0
 40
13.0
 40
13.0
 40
13.0
 40
14.0
 40
14.0
 40
14.0
 40
15.0
 40
15.0
 40
15.0
 40
16.0
 40
16.0
 40
16.0
 40
16.0
 10
102.7024305298799
 20
-120.9886528560376
 10
102.7024305298799
 20
-121.0668565235527
 10
102.6855495620022
 20
-121.1684868403676
 10
102.6221598050736
 20
-121.2701171571825
 10
102.5122612590942
 20
-121.4434054600905
 10
102.3810031211061
 20
-121.4647650520991
 10
102.2731716324178
 20
-121.483713077268
 10
102.2731716324178
 20
-121.483713077268
 10
102.2731716324178
 20
-121.2615044184694
 10
102.2731716324178
 20
-121.2615044184694
 10
102.4719536419167
 20
-121.2067274002539
 10
102.5015814630899
 20
-121.0796033768482
 10
102.5015814630899
 20
-120.9865857987464
 10
102.5015814630899
 20
-120.8470594315938
 10
102.4020182035662
 20
-120.6947862111458
 10
102.1694742583118
 20
-120.6947862111458
 10
101.9135036637577
 20
-120.6947862111458
 10
101.8435682254072
 20
-120.8746201954758
 10
101.8435682254072
 20
-120.9951985374595
 10
101.8435682254072
 20
-121.0268934159238
 10
101.8435682254072
 20
-121.1684868403676
 10
101.972759306104
 20
-121.2573703038871
 10
101.972759306104
 20
-121.2573703038871
 10
101.9538112809352
 20
-121.4330701736348
 10
101.9538112809352
 20
-121.4330701736348
 10
101.9538112809352
 20
-121.4330701736348
 10
101.1073513202093
 20
-121.312491831651
 10
101.1073513202093
 20
-121.312491831651
 10
101.1073513202093
 20
-121.312491831651
 10
101.1073513202093
 20
-120.5339002519846
 10
101.1073513202093
 20
-120.5339002519846
 10
101.1073513202093
 20
-120.5339002519846
 10
101.3019992151259
 20
-120.5339002519846
 10
101.3019992151259
 20
-120.5339002519846
 10
101.3019992151259
 20
-120.5339002519846
 10
101.3019992151259
 20
-121.1495388151987
 10
101.3019992151259
 20
-121.1495388151987
 10
101.3019992151259
 20
-121.1495388151987
 10
101.7250569407146
 20
-121.2149956294185
 10
101.7250569407146
 20
-121.2149956294185
 10
101.6912950049591
 20
-121.153672929781
 10
101.6509873877817
 20
-121.0713351476836
 10
101.6509873877817
 20
-120.952823862991
 10
101.6509873877817
 20
-120.6989203257281
 10
101.8373670535337
 20
-120.4618977563429
 10
102.1505262331429
 20
-120.4618977563429
 10
102.4678195273344
 20
-120.4618977563429
 10
102.7024305298799
 20
-120.6861734724326
 10
102.7024305298799
 20
-120.9886528560376
 97
        0
 97
        0
 75
     2
 76
     1
 98
        0
  0
ENDBLK
  5
15E
330
15B
100
AcDbEntity
  8
0
100
AcDbBlockEnd
  0
BLOCK
  5
17B
330
179
100
AcDbEntity
  8
0
100
AcDbBlockBegin
  2
block 13
 70
     0
 10
0.0
 20
0.0
 30
0.0
  3
block 13
  1

  0
SPLINE
  5
17D
330
179
100
AcDbEntity
  8
_U+30EC_U+30A4_U+30E4_U+30FC 1
370
     0
100
AcDbSpline
210
0.0
220
0.0
230
1.0
 70
    11
 71
     3
 72
   197
 73
   193
 74
     0
 42
0.0000000001
 43
0.0000000001
 12
1.0
 22
0.0
 32
0.0
 13
1.0
 23
0.0
 33
0.0
 40
0.0
 40
0.0
 40
0.0
 40
0.0
 40
1.0
 40
1.0
 40
1.0
 40
2.0
 40
2.0
 40
2.0
 40
3.0
 40
3.0
 40
3.0
 40
4.0
 40
4.0
 40
4.0
 40
5.0
 40
5.0
 40
5.0
 40
6.0
 40
6.0
 40
6.0
 40
7.0
 40
7.0
 40
7.0
 40
8.0
 40
8.0
 40
8.0
 40
9.0
 40
9.0
 40
9.0
 40
10.0
 40
10.0
 40
10.0
 40
11.0
 40
11.0
 40
11.0
 40
12.0
 40
12.0
 40
12.0
 40
13.0
 40
13.0
 40
13.0
 40
14.0
 40
14.0
 40
14.0
 40
15.0
 40
15.0
 40
15.0
 40
16.0
 40
16.0
 40
16.0
 40
17.0
 40
17.0
 40
17.0
 40
18.0
 40
18.0
 40
18.0
 40
19.0
 40
19.0
 40
19.0
 40
20.0
 40
20.0
 40
20.0
 40
21.0
 40
21.0
 40
21.0
 40
22.0
 40
22.0
 40
22.0
 40
23.0
 40
23.0
 40
23.0
 40
24.0
 40
24.0
 40
24.0
 40
25.0
 40
25.0
 40
25.0
 40
26.0
 40
26.0
 40
26.0
 40
27.0
 40
27.0
 40
27.0
 40
28.0
 40
28.0
 40
28.0
 40
29.0
 40
29.0
 40
29.0
 40
30.0
 40
30.0
 40
30.0
 40
31.0
 40
31.0
 40
31.0
 40
32.0
 40
32.0
 40
32.0
 40
33.0
 40
33.0
 40
33.0
 40
34.0
 40
34.0
 40
34.0
 40
35.0
 40
35.0
 40
35.0
 40
36.0
 40
36.0
 40
36.0
 40
37.0
 40
37.0
 40
37.0
 40
38.0
 40
38.0
 40
38.0
 40
39.0
 40
39.0
 40
39.0
 40
40.0
 40
40.0
 40
40.0
 40
41.0
 40
41.0
 40
41.0
 40
42.0
 40
42.0
 40
42.0
 40
43.0
 40
43.0
 40
43.0
 40
44.0
 40
44.0
 40
44.0
 40
45.0
 40
45.0
 40
45.0
 40
46.0
 40
46.0
 40
46.0
 40
47.0
 40
47.0
 40
47.0
 40
48.0
 40
48.0
 40
48.0
 40
49.0
 40
49.0
 40
49.0
 40
50.0
 40
50.0
 40
50.0
 40
51.0
 40
51.0
 40
51.0
 40
52.0
 40
52.0
 40
52.0
 40
53.0
 40
53.0
 40
53.0
 40
54.0
 40
54.0
 40
54.0
 40
55.0
 40
55.0
 40
55.0
 40
56.0
 40
56.0
 40
56.0
 40
57.0
 40
57.0
 40
57.0
 40
58.0
 40
58.0
 40
58.0
 40
59.0
 40
59.0
 40
59.0
 40
60.0
 40
60.0
 40
60.0
 40
61.0
 40
61.0
 40
61.0
 40
62.0
 40
62.0
 40
62.0
 40
63.0
 40
63.0
 40
63.0
 40
64.0
 40
64.0
 40
64.0
 40
64.0
 10
105.6472981506715
 20
-114.0009656833053
 30
0.0
 10
105.6369628642158
 20
-114.0305935044785
 30
0.0
 10
105.6135362149161
 20
-114.0771022935293
 30
0.0
 10
105.6028564189118
 20
-114.1046630574113
 30
0.0
 10
105.6028564189118
 20
-114.1046630574113
 30
0.0
 10
105.5415337192743
 20
-114.2569362778594
 30
0.0
 10
105.5415337192743
 20
-114.2569362778594
 30
0.0
 10
105.5308539232701
 20
-114.2824299844502
 30
0.0
 10
105.482278076928
 20
-114.3943955877209
 30
0.0
 10
105.4695312236326
 20
-114.4178222370205
 30
0.0
 10
105.4674641663415
 20
-114.424023408894
 30
0.0
 10
105.4633300517592
 20
-114.4326361476071
 30
0.0
 10
105.461262994468
 20
-114.4388373194806
 30
0.0
 10
105.461262994468
 20
-114.4388373194806
 30
0.0
 10
105.2518011889648
 20
-114.3861273585563
 30
0.0
 10
105.2518011889648
 20
-114.3861273585563
 30
0.0
 10
105.33000485648
 20
-114.2762288125768
 30
0.0
 10
105.3913275561174
 20
-114.1408365600065
 30
0.0
 10
105.4230224345818
 20
-114.0305935044785
 30
0.0
 10
105.4230224345818
 20
-114.0305935044785
 30
0.0
 10
104.9575900345245
 20
-114.0305935044785
 30
0.0
 10
104.9575900345245
 20
-114.0305935044785
 30
0.0
 10
104.8773193097182
 20
-114.1956135782219
 30
0.0
 10
104.8094509286587
 20
-114.2738172457371
 30
0.0
 10
104.7756889929033
 20
-114.3141248629145
 30
0.0
 10
104.7756889929033
 20
-114.3141248629145
 30
0.0
 10
104.6530435936284
 20
-114.2486680486948
 30
0.0
 10
104.6530435936284
 20
-114.2486680486948
 30
0.0
 10
104.6530435936284
 20
-114.2486680486948
 30
0.0
 10
104.6530435936284
 20
-114.4198892943117
 30
0.0
 10
104.6530435936284
 20
-114.4198892943117
 30
0.0
 10
104.6530435936284
 20
-114.527720783
 30
0.0
 10
104.6551106509196
 20
-114.5766411388906
 30
0.0
 10
104.6657904469238
 20
-114.6824055702877
 30
0.0
 10
104.5937879512821
 20
-114.6799940034481
 30
0.0
 10
104.5724283592736
 20
-114.6799940034481
 30
0.0
 10
104.3674451779012
 20
-114.6799940034481
 30
0.0
 10
104.3674451779012
 20
-114.6799940034481
 30
0.0
 10
104.3126681596857
 20
-114.6799940034481
 30
0.0
 10
104.3126681596857
 20
-114.6799940034481
 30
0.0
 10
104.3126681596857
 20
-114.6799940034481
 30
0.0
 10
104.3126681596857
 20
-114.8153862560184
 30
0.0
 10
104.3126681596857
 20
-114.8153862560184
 30
0.0
 10
104.3126681596857
 20
-114.8153862560184
 30
0.0
 10
104.3843261457789
 20
-114.8153862560184
 30
0.0
 10
104.3843261457789
 20
-114.8153862560184
 30
0.0
 10
104.4497829599987
 20
-114.8153862560184
 30
0.0
 10
104.5958550085733
 20
-114.8112521414361
 30
0.0
 10
104.7016194399704
 20
-114.8029839122715
 30
0.0
 10
104.7016194399704
 20
-114.8029839122715
 30
0.0
 10
104.7016194399704
 20
-114.9804063297618
 30
0.0
 10
104.7016194399704
 20
-114.9804063297618
 30
0.0
 10
104.6044677472864
 20
-114.9742051578884
 30
0.0
 10
104.4456488454164
 20
-114.9700710433061
 30
0.0
 10
104.3843261457789
 20
-114.9700710433061
 30
0.0
 10
104.3843261457789
 20
-114.9700710433061
 30
0.0
 10
104.3126681596857
 20
-114.9700710433061
 30
0.0
 10
104.3126681596857
 20
-114.9700710433061
 30
0.0
 10
104.3147352169769
 20
-115.0589545068255
 30
0.0
 10
104.3188693315592
 20
-115.2976996239534
 30
0.0
 10
104.3209363888503
 20
-115.3717691768862
 30
0.0
 10
104.3209363888503
 20
-115.3717691768862
 30
0.0
 10
104.1197428125117
 20
-115.3717691768862
 30
0.0
 10
104.1197428125117
 20
-115.3717691768862
 30
0.0
 10
104.1328341753557
 20
-115.1581732568007
 30
0.0
 10
104.1328341753557
 20
-115.1285454356276
 30
0.0
 10
104.136968289938
 20
-114.9700710433061
 30
0.0
 10
104.136968289938
 20
-114.9700710433061
 30
0.0
 10
104.0670328515874
 20
-114.9700710433061
 30
0.0
 10
104.0670328515874
 20
-114.9700710433061
 30
0.0
 10
104.0101887760808
 20
-114.9700710433061
 30
0.0
 10
103.8575710460842
 20
-114.9742051578884
 30
0.0
 10
103.7476725001048
 20
-114.9804063297618
 30
0.0
 10
103.7476725001048
 20
-114.9804063297618
 30
0.0
 10
103.7476725001048
 20
-114.8029839122715
 30
0.0
 10
103.7476725001048
 20
-114.8029839122715
 30
0.0
 10
103.8534369315019
 20
-114.8112521414361
 30
0.0
 10
103.9970974132368
 20
-114.8153862560184
 30
0.0
 10
104.0670328515874
 20
-114.8153862560184
 30
0.0
 10
104.0670328515874
 20
-114.8153862560184
 30
0.0
 10
104.1411024045203
 20
-114.8153862560184
 30
0.0
 10
104.1411024045203
 20
-114.8153862560184
 30
0.0
 10
104.1411024045203
 20
-114.8153862560184
 30
0.0
 10
104.1411024045203
 20
-114.6799940034481
 30
0.0
 10
104.1411024045203
 20
-114.6799940034481
 30
0.0
 10
104.1411024045203
 20
-114.6799940034481
 30
0.0
 10
104.0966606727606
 20
-114.6799940034481
 30
0.0
 10
104.0966606727606
 20
-114.6799940034481
 30
0.0
 10
104.0205240625365
 20
-114.6799940034481
 30
0.0
 10
103.8279432249111
 20
-114.6824055702877
 30
0.0
 10
103.7941812891556
 20
-114.6824055702877
 30
0.0
 10
103.8007269705776
 20
-114.610403074646
 30
0.0
 10
103.8089951997422
 20
-114.5297878402912
 30
0.0
 10
103.8089951997422
 20
-114.4092094983074
 30
0.0
 10
103.8089951997422
 20
-114.4092094983074
 30
0.0
 10
103.8089951997422
 20
-114.2359211953994
 30
0.0
 10
103.8089951997422
 20
-114.2359211953994
 30
0.0
 10
103.8089951997422
 20
-114.1639186997576
 30
0.0
 10
103.8007269705776
 20
-114.0433403577739
 30
0.0
 10
103.7941812891556
 20
-113.9630696329676
 30
0.0
 10
103.8723849566708
 20
-113.9672037475499
 30
0.0
 10
103.9102810070085
 20
-113.969270804841
 30
0.0
 10
104.0374050304143
 20
-113.969270804841
 30
0.0
 10
104.0374050304143
 20
-113.969270804841
 30
0.0
 10
104.1411024045203
 20
-113.969270804841
 30
0.0
 10
104.1411024045203
 20
-113.969270804841
 30
0.0
 10
104.1411024045203
 20
-113.969270804841
 30
0.0
 10
104.1411024045203
 20
-113.8231987562664
 30
0.0
 10
104.1411024045203
 20
-113.8231987562664
 30
0.0
 10
104.1411024045203
 20
-113.8231987562664
 30
0.0
 10
104.0628987370051
 20
-113.8231987562664
 30
0.0
 10
104.0628987370051
 20
-113.8231987562664
 30
0.0
 10
104.0077772092411
 20
-113.8231987562664
 30
0.0
 10
103.8365559636242
 20
-113.8276773803972
 30
0.0
 10
103.7518066146871
 20
-113.8338785522707
 30
0.0
 10
103.7518066146871
 20
-113.8338785522707
 30
0.0
 10
103.7518066146871
 20
-113.6561116252318
 30
0.0
 10
103.7518066146871
 20
-113.6561116252318
 30
0.0
 10
103.834488906333
 20
-113.6626573066538
 30
0.0
 10
103.9970974132368
 20
-113.6667914212361
 30
0.0
 10
104.0628987370051
 20
-113.6667914212361
 30
0.0
 10
104.0628987370051
 20
-113.6667914212361
 30
0.0
 10
104.1411024045203
 20
-113.6667914212361
 30
0.0
 10
104.1411024045203
 20
-113.6667914212361
 30
0.0
 10
104.1411024045203
 20
-113.6330294854806
 30
0.0
 10
104.136968289938
 20
-113.4786892077414
 30
0.0
 10
104.136968289938
 20
-113.4466498197286
 30
0.0
 10
104.136968289938
 20
-113.4466498197286
 30
0.0
 10
104.3336832421458
 20
-113.4638752971549
 30
0.0
 10
104.3336832421458
 20
-113.4638752971549
 30
0.0
 10
104.3505642100235
 20
-113.465942354446
 30
0.0
 10
104.371923802032
 20
-113.4680094117372
 30
0.0
 10
104.371923802032
 20
-113.4890244941972
 30
0.0
 10
104.371923802032
 20
-113.5124511434969
 30
0.0
 10
104.3505642100235
 20
-113.5207193726615
 30
0.0
 10
104.3230034461415
 20
-113.5334662259569
 30
0.0
 10
104.3230034461415
 20
-113.5548258179655
 30
0.0
 10
104.3209363888503
 20
-113.6499104533584
 30
0.0
 10
104.3209363888503
 20
-113.6667914212361
 30
0.0
 10
104.3209363888503
 20
-113.6667914212361
 30
0.0
 10
104.3801920311966
 20
-113.6667914212361
 30
0.0
 10
104.3801920311966
 20
-113.6667914212361
 30
0.0
 10
104.4477159027075
 20
-113.6667914212361
 30
0.0
 10
104.591720893991
 20
-113.6626573066538
 30
0.0
 10
104.6974853253881
 20
-113.6561116252318
 30
0.0
 10
104.6974853253881
 20
-113.6561116252318
 30
0.0
 10
104.6974853253881
 20
-113.8338785522707
 30
0.0
 10
104.6974853253881
 20
-113.8338785522707
 30
0.0
 10
104.5999891231556
 20
-113.8276773803972
 30
0.0
 10
104.4435817881252
 20
-113.8231987562664
 30
0.0
 10
104.3801920311966
 20
-113.8231987562664
 30
0.0
 10
104.3801920311966
 20
-113.8231987562664
 30
0.0
 10
104.3126681596857
 20
-113.8231987562664
 30
0.0
 10
104.3126681596857
 20
-113.8231987562664
 30
0.0
 10
104.3126681596857
 20
-113.8231987562664
 30
0.0
 10
104.3126681596857
 20
-113.969270804841
 30
0.0
 10
104.3126681596857
 20
-113.969270804841
 30
0.0
 10
104.3126681596857
 20
-113.969270804841
 30
0.0
 10
104.3822590884878
 20
-113.969270804841
 30
0.0
 10
104.3822590884878
 20
-113.969270804841
 30
0.0
 10
104.5324652516447
 20
-113.969270804841
 30
0.0
 10
104.6044677472864
 20
-113.9651366902587
 30
0.0
 10
104.6657904469238
 20
-113.9630696329676
 30
0.0
 10
104.6571777082107
 20
-114.0581542683605
 30
0.0
 10
104.6551106509196
 20
-114.1363579358756
 30
0.0
 10
104.6530435936284
 20
-114.1745984957619
 30
0.0
 10
104.8073838713676
 20
-113.9630696329676
 30
0.0
 10
104.9134928123133
 20
-113.7153672675781
 30
0.0
 10
104.9300292706425
 20
-113.4531955011506
 30
0.0
 10
104.9300292706425
 20
-113.4531955011506
 30
0.0
 10
105.1460367575677
 20
-113.5038384047838
 30
0.0
 10
105.1460367575677
 20
-113.5038384047838
 30
0.0
 10
105.1608506681542
 20
-113.5083170289146
 30
0.0
 10
105.1756645787408
 20
-113.514518200788
 30
0.0
 10
105.1756645787408
 20
-113.5313991686658
 30
0.0
 10
105.1756645787408
 20
-113.5482801365435
 30
0.0
 10
105.17118595461
 20
-113.5503471938346
 30
0.0
 10
105.1205430509768
 20
-113.5717067858432
 30
0.0
 10
105.1036620830991
 20
-113.6478433960672
 30
0.0
 10
105.0781683765082
 20
-113.7387939168778
 30
0.0
 10
105.0295925301662
 20
-113.865573430735
 30
0.0
 10
105.0295925301662
 20
-113.865573430735
 30
0.0
 10
105.3682454163663
 20
-113.865573430735
 30
0.0
 10
105.3682454163663
 20
-113.865573430735
 30
0.0
 10
105.406141466704
 20
-113.865573430735
 30
0.0
 10
105.5349880378524
 20
-113.8614393161527
 30
0.0
 10
105.5839083937429
 20
-113.8552381442793
 30
0.0
 10
105.5839083937429
 20
-113.8552381442793
 30
0.0
 10
105.6769259718447
 20
-113.9248290730813
 30
0.0
 10
105.6769259718447
 20
-113.9248290730813
 30
0.0
 10
105.6686577426801
 20
-113.9461886650898
 30
0.0
 10
105.6621120612581
 20
-113.9651366902587
 30
0.0
 10
105.6472981506715
 20
-114.0009656833053
 30
0.0
  0
POLYLINE
  5
17E
330
179
100
AcDbEntity
  8
_U+30EC_U+30A4_U+30E4_U+30FC 1
370
     0
100
AcDb2dPolyline
 66
     1
 10
0.0
 20
0.0
 30
0.0
  0
VERTEX
  5
17F
330
17E
100
AcDbEntity
  8
_U+30EC_U+30A4_U+30E4_U+30FC 1
370
     0
100
AcDbVertex
100
AcDb2dVertex
 10
104.1411024045203
 20
-114.1260226494199
 30
0.0
  0
VERTEX
  5
180
330
17E
100
AcDbEntity
  8
_U+30EC_U+30A4_U+30E4_U+30FC 1
370
     0
100
AcDbVertex
100
AcDb2dVertex
 10
103.9826280121988
 20
-114.1260226494199
 30
0.0
  0
VERTEX
  5
181
330
17E
100
AcDbEntity
  8
_U+30EC_U+30A4_U+30E4_U+30FC 1
370
     0
100
AcDbVertex
100
AcDb2dVertex
 10
103.9826280121988
 20
-114.2548692205682
 30
0.0
  0
VERTEX
  5
182
330
17E
100
AcDbEntity
  8
_U+30EC_U+30A4_U+30E4_U+30FC 1
370
     0
100
AcDbVertex
100
AcDb2dVertex
 10
104.1411024045203
 20
-114.2548692205682
 30
0.0
  0
VERTEX
  5
183
330
17E
100
AcDbEntity
  8
_U+30EC_U+30A4_U+30E4_U+30FC 1
370
     0
100
AcDbVertex
100
AcDb2dVertex
 10
104.1411024045203
 20
-114.1260226494199
 30
0.0
  0
SEQEND
  5
184
330
17E
100
AcDbEntity
  8
_U+30EC_U+30A4_U+30E4_U+30FC 1
370
     0
  0
POLYLINE
  5
185
330
179
100
AcDbEntity
  8
_U+30EC_U+30A4_U+30E4_U+30FC 1
370
     0
100
AcDb2dPolyline
 66
     1
 10
0.0
 20
0.0
 30
0.0
  0
VERTEX
  5
186
330
185
100
AcDbEntity
  8
_U+30EC_U+30A4_U+30E4_U+30FC 1
370
     0
100
AcDbVertex
100
AcDb2dVertex
 10
104.1411024045203
 20
-114.3988742118517
 30
0.0
  0
VERTEX
  5
187
330
185
100
AcDbEntity
  8
_U+30EC_U+30A4_U+30E4_U+30FC 1
370
     0
100
AcDbVertex
100
AcDb2dVertex
 10
103.9826280121988
 20
-114.3988742118517
 30
0.0
  0
VERTEX
  5
188
330
185
100
AcDbEntity
  8
_U+30EC_U+30A4_U+30E4_U+30FC 1
370
     0
100
AcDbVertex
100
AcDb2dVertex
 10
103.9826280121988
 20
-114.527720783
 30
0.0
  0
VERTEX
  5
189
330
185
100
AcDbEntity
  8
_U+30EC_U+30A4_U+30E4_U+30FC 1
370
     0
100
AcDbVertex
100
AcDb2dVertex
 10
104.1411024045203
 20
-114.527720783
 30
0.0
  0
VERTEX
  5
18A
330
185
100
AcDbEntity
  8
_U+30EC_U+30A4_U+30E4_U+30FC 1
370
     0
100
AcDbVertex
100
AcDb2dVertex
 10
104.1411024045203
 20
-114.3988742118517
 30
0.0
  0
SEQEND
  5
18B
330
185
100
AcDbEntity
  8
_U+30EC_U+30A4_U+30E4_U+30FC 1
370
     0
  0
POLYLINE
  5
18C
330
179
100
AcDbEntity
  8
_U+30EC_U+30A4_U+30E4_U+30FC 1
370
     0
100
AcDb2dPolyline
 66
     1
 10
0.0
 20
0.0
 30
0.0
  0
VERTEX
  5
18D
330
18C
100
AcDbEntity
  8
_U+30EC_U+30A4_U+30E4_U+30FC 1
370
     0
100
AcDbVertex
100
AcDb2dVertex
 10
104.4732096092984
 20
-114.1260226494199
 30
0.0
  0
VERTEX
  5
18E
330
18C
100
AcDbEntity
  8
_U+30EC_U+30A4_U+30E4_U+30FC 1
370
     0
100
AcDbVertex
100
AcDb2dVertex
 10
104.3126681596857
 20
-114.1260226494199
 30
0.0
  0
VERTEX
  5
18F
330
18C
100
AcDbEntity
  8
_U+30EC_U+30A4_U+30E4_U+30FC 1
370
     0
100
AcDbVertex
100
AcDb2dVertex
 10
104.3126681596857
 20
-114.2548692205682
 30
0.0
  0
VERTEX
  5
190
330
18C
100
AcDbEntity
  8
_U+30EC_U+30A4_U+30E4_U+30FC 1
370
     0
100
AcDbVertex
100
AcDb2dVertex
 10
104.4732096092984
 20
-114.2548692205682
 30
0.0
  0
VERTEX
  5
191
330
18C
100
AcDbEntity
  8
_U+30EC_U+30A4_U+30E4_U+30FC 1
370
     0
100
AcDbVertex
100
AcDb2dVertex
 10
104.4732096092984
 20
-114.1260226494199
 30
0.0
  0
SEQEND
  5
192
330
18C
100
AcDbEntity
  8
_U+30EC_U+30A4_U+30E4_U+30FC 1
370
     0
  0
POLYLINE
  5
193
330
179
100
AcDbEntity
  8
_U+30EC_U+30A4_U+30E4_U+30FC 1
370
     0
100
AcDb2dPolyline
 66
     1
 10
0.0
 20
0.0
 30
0.0
  0
VERTEX
  5
194
330
193
100
AcDbEntity
  8
_U+30EC_U+30A4_U+30E4_U+30FC 1
370
     0
100
AcDbVertex
100
AcDb2dVertex
 10
104.4732096092984
 20
-114.3988742118517
 30
0.0
  0
VERTEX
  5
195
330
193
100
AcDbEntity
  8
_U+30EC_U+30A4_U+30E4_U+30FC 1
370
     0
100
AcDbVertex
100
AcDb2dVertex
 10
104.3126681596857
 20
-114.3988742118517
 30
0.0
  0
VERTEX
  5
196
330
193
100
AcDbEntity
  8
_U+30EC_U+30A4_U+30E4_U+30FC 1
370
     0
100
AcDbVertex
100
AcDb2dVertex
 10
104.3126681596857
 20
-114.527720783
 30
0.0
  0
VERTEX
  5
197
330
193
100
AcDbEntity
  8
_U+30EC_U+30A4_U+30E4_U+30FC 1
370
     0
100
AcDbVertex
100
AcDb2dVertex
 10
104.4732096092984
 20
-114.527720783
 30
0.0
  0
VERTEX
  5
198
330
193
100
AcDbEntity
  8
_U+30EC_U+30A4_U+30E4_U+30FC 1
370
     0
100
AcDbVertex
100
AcDb2dVertex
 10
104.4732096092984
 20
-114.3988742118517
 30
0.0
  0
SEQEND
  5
199
330
193
100
AcDbEntity
  8
_U+30EC_U+30A4_U+30E4_U+30FC 1
370
     0
  0
SPLINE
  5
19A
330
179
100
AcDbEntity
  8
_U+30EC_U+30A4_U+30E4_U+30FC 1
370
     0
100
AcDbSpline
210
0.0
220
0.0
230
1.0
 70
    11
 71
     3
 72
    41
 73
    37
 74
     0
 42
0.0000000001
 43
0.0000000001
 12
1.0
 22
0.0
 32
0.0
 13
1.0
 23
0.0
 33
0.0
 40
0.0
 40
0.0
 40
0.0
 40
0.0
 40
1.0
 40
1.0
 40
1.0
 40
2.0
 40
2.0
 40
2.0
 40
3.0
 40
3.0
 40
3.0
 40
4.0
 40
4.0
 40
4.0
 40
5.0
 40
5.0
 40
5.0
 40
6.0
 40
6.0
 40
6.0
 40
7.0
 40
7.0
 40
7.0
 40
8.0
 40
8.0
 40
8.0
 40
9.0
 40
9.0
 40
9.0
 40
10.0
 40
10.0
 40
10.0
 40
11.0
 40
11.0
 40
11.0
 40
12.0
 40
12.0
 40
12.0
 40
12.0
 10
105.5625488017344
 20
-115.3569552662997
 30
0.0
 10
105.3213921177669
 20
-115.2215630137293
 30
0.0
 10
105.143625190728
 20
-114.9256293115464
 30
0.0
 10
105.1036620830991
 20
-114.7964382308495
 30
0.0
 10
104.9830837411154
 20
-115.0610215641167
 30
0.0
 10
104.820130724663
 20
-115.2387884911556
 30
0.0
 10
104.6382296830418
 20
-115.3528211517174
 30
0.0
 10
104.6382296830418
 20
-115.3528211517174
 30
0.0
 10
104.4415147308341
 20
-115.2153618418559
 30
0.0
 10
104.4415147308341
 20
-115.2153618418559
 30
0.0
 10
104.5111056596361
 20
-115.189868135265
 30
0.0
 10
104.6571777082107
 20
-115.1285454356276
 30
0.0
 10
104.7798231074856
 20
-114.9742051578884
 30
0.0
 10
104.9048800736002
 20
-114.8177978228581
 30
0.0
 10
104.9934190275711
 20
-114.5849093680552
 30
0.0
 10
104.9934190275711
 20
-114.3248046589188
 30
0.0
 10
104.9934190275711
 20
-114.2231743421039
 30
0.0
 10
104.9810166838242
 20
-114.1511718464622
 30
0.0
 10
104.9703368878199
 20
-114.1046630574113
 30
0.0
 10
104.9703368878199
 20
-114.1046630574113
 30
0.0
 10
105.1756645787408
 20
-114.1260226494199
 30
0.0
 10
105.1756645787408
 20
-114.1260226494199
 30
0.0
 10
105.1966796612008
 20
-114.128089706711
 30
0.0
 10
105.2180392532094
 20
-114.1301567640022
 30
0.0
 10
105.2180392532094
 20
-114.1511718464622
 30
0.0
 10
105.2180392532094
 20
-114.1704643811796
 30
0.0
 10
105.2073594572051
 20
-114.1787326103442
 30
0.0
 10
105.1732530119011
 20
-114.2000922023528
 30
0.0
 10
105.1649847827365
 20
-114.4009412691428
 30
0.0
 10
105.2221733677917
 20
-114.6441650104015
 30
0.0
 10
105.2834960674291
 20
-114.7647433523852
 30
0.0
 10
105.3744465882397
 20
-114.940443222133
 30
0.0
 10
105.5690944831563
 20
-115.120277206463
 30
0.0
 10
105.7044867357267
 20
-115.1771212819696
 30
0.0
 10
105.7044867357267
 20
-115.1771212819696
 30
0.0
 10
105.5625488017344
 20
-115.3569552662997
 30
0.0
 10
105.5625488017344
 20
-115.3569552662997
 30
0.0
  0
HATCH
  5
19B
330
179
100
AcDbEntity
  8
_U+30EC_U+30A4_U+30E4_U+30FC 1
 62
   179
420
  2234388
100
AcDbHatch
 10
0.0
 20
0.0
 30
0.0
210
0.0
220
0.0
230
1.0
  2
SOLID
 70
     1
 71
     0
 91
        6
 92
        1
 93
        1
 72
     4
 94
        3
 73
     0
 74
     1
 95
      197
 96
      193
 40
0.0
 40
0.0
 40
0.0
 40
0.0
 40
1.0
 40
1.0
 40
1.0
 40
2.0
 40
2.0
 40
2.0
 40
3.0
 40
3.0
 40
3.0
 40
4.0
 40
4.0
 40
4.0
 40
5.0
 40
5.0
 40
5.0
 40
6.0
 40
6.0
 40
6.0
 40
7.0
 40
7.0
 40
7.0
 40
8.0
 40
8.0
 40
8.0
 40
9.0
 40
9.0
 40
9.0
 40
10.0
 40
10.0
 40
10.0
 40
11.0
 40
11.0
 40
11.0
 40
12.0
 40
12.0
 40
12.0
 40
13.0
 40
13.0
 40
13.0
 40
14.0
 40
14.0
 40
14.0
 40
15.0
 40
15.0
 40
15.0
 40
16.0
 40
16.0
 40
16.0
 40
17.0
 40
17.0
 40
17.0
 40
18.0
 40
18.0
 40
18.0
 40
19.0
 40
19.0
 40
19.0
 40
20.0
 40
20.0
 40
20.0
 40
21.0
 40
21.0
 40
21.0
 40
22.0
 40
22.0
 40
22.0
 40
23.0
 40
23.0
 40
23.0
 40
24.0
 40
24.0
 40
24.0
 40
25.0
 40
25.0
 40
25.0
 40
26.0
 40
26.0
 40
26.0
 40
27.0
 40
27.0
 40
27.0
 40
28.0
 40
28.0
 40
28.0
 40
29.0
 40
29.0
 40
29.0
 40
30.0
 40
30.0
 40
30.0
 40
31.0
 40
31.0
 40
31.0
 40
32.0
 40
32.0
 40
32.0
 40
33.0
 40
33.0
 40
33.0
 40
34.0
 40
34.0
 40
34.0
 40
35.0
 40
35.0
 40
35.0
 40
36.0
 40
36.0
 40
36.0
 40
37.0
 40
37.0
 40
37.0
 40
38.0
 40
38.0
 40
38.0
 40
39.0
 40
39.0
 40
39.0
 40
40.0
 40
40.0
 40
40.0
 40
41.0
 40
41.0
 40
41.0
 40
42.0
 40
42.0
 40
42.0
 40
43.0
 40
43.0
 40
43.0
 40
44.0
 40
44.0
 40
44.0
 40
45.0
 40
45.0
 40
45.0
 40
46.0
 40
46.0
 40
46.0
 40
47.0
 40
47.0
 40
47.0
 40
48.0
 40
48.0
 40
48.0
 40
49.0
 40
49.0
 40
49.0
 40
50.0
 40
50.0
 40
50.0
 40
51.0
 40
51.0
 40
51.0
 40
52.0
 40
52.0
 40
52.0
 40
53.0
 40
53.0
 40
53.0
 40
54.0
 40
54.0
 40
54.0
 40
55.0
 40
55.0
 40
55.0
 40
56.0
 40
56.0
 40
56.0
 40
57.0
 40
57.0
 40
57.0
 40
58.0
 40
58.0
 40
58.0
 40
59.0
 40
59.0
 40
59.0
 40
60.0
 40
60.0
 40
60.0
 40
61.0
 40
61.0
 40
61.0
 40
62.0
 40
62.0
 40
62.0
 40
63.0
 40
63.0
 40
63.0
 40
64.0
 40
64.0
 40
64.0
 40
64.0
 10
105.6472981506715
 20
-114.0009656833053
 10
105.6369628642158
 20
-114.0305935044785
 10
105.6135362149161
 20
-114.0771022935293
 10
105.6028564189118
 20
-114.1046630574113
 10
105.6028564189118
 20
-114.1046630574113
 10
105.5415337192743
 20
-114.2569362778594
 10
105.5415337192743
 20
-114.2569362778594
 10
105.5308539232701
 20
-114.2824299844502
 10
105.482278076928
 20
-114.3943955877209
 10
105.4695312236326
 20
-114.4178222370205
 10
105.4674641663415
 20
-114.424023408894
 10
105.4633300517592
 20
-114.4326361476071
 10
105.461262994468
 20
-114.4388373194806
 10
105.461262994468
 20
-114.4388373194806
 10
105.2518011889648
 20
-114.3861273585563
 10
105.2518011889648
 20
-114.3861273585563
 10
105.33000485648
 20
-114.2762288125768
 10
105.3913275561174
 20
-114.1408365600065
 10
105.4230224345818
 20
-114.0305935044785
 10
105.4230224345818
 20
-114.0305935044785
 10
104.9575900345245
 20
-114.0305935044785
 10
104.9575900345245
 20
-114.0305935044785
 10
104.8773193097182
 20
-114.1956135782219
 10
104.8094509286587
 20
-114.2738172457371
 10
104.7756889929033
 20
-114.3141248629145
 10
104.7756889929033
 20
-114.3141248629145
 10
104.6530435936284
 20
-114.2486680486948
 10
104.6530435936284
 20
-114.2486680486948
 10
104.6530435936284
 20
-114.2486680486948
 10
104.6530435936284
 20
-114.4198892943117
 10
104.6530435936284
 20
-114.4198892943117
 10
104.6530435936284
 20
-114.527720783
 10
104.6551106509196
 20
-114.5766411388906
 10
104.6657904469238
 20
-114.6824055702877
 10
104.5937879512821
 20
-114.6799940034481
 10
104.5724283592736
 20
-114.6799940034481
 10
104.3674451779012
 20
-114.6799940034481
 10
104.3674451779012
 20
-114.6799940034481
 10
104.3126681596857
 20
-114.6799940034481
 10
104.3126681596857
 20
-114.6799940034481
 10
104.3126681596857
 20
-114.6799940034481
 10
104.3126681596857
 20
-114.8153862560184
 10
104.3126681596857
 20
-114.8153862560184
 10
104.3126681596857
 20
-114.8153862560184
 10
104.3843261457789
 20
-114.8153862560184
 10
104.3843261457789
 20
-114.8153862560184
 10
104.4497829599987
 20
-114.8153862560184
 10
104.5958550085733
 20
-114.8112521414361
 10
104.7016194399704
 20
-114.8029839122715
 10
104.7016194399704
 20
-114.8029839122715
 10
104.7016194399704
 20
-114.9804063297618
 10
104.7016194399704
 20
-114.9804063297618
 10
104.6044677472864
 20
-114.9742051578884
 10
104.4456488454164
 20
-114.9700710433061
 10
104.3843261457789
 20
-114.9700710433061
 10
104.3843261457789
 20
-114.9700710433061
 10
104.3126681596857
 20
-114.9700710433061
 10
104.3126681596857
 20
-114.9700710433061
 10
104.3147352169769
 20
-115.0589545068255
 10
104.3188693315592
 20
-115.2976996239534
 10
104.3209363888503
 20
-115.3717691768862
 10
104.3209363888503
 20
-115.3717691768862
 10
104.1197428125117
 20
-115.3717691768862
 10
104.1197428125117
 20
-115.3717691768862
 10
104.1328341753557
 20
-115.1581732568007
 10
104.1328341753557
 20
-115.1285454356276
 10
104.136968289938
 20
-114.9700710433061
 10
104.136968289938
 20
-114.9700710433061
 10
104.0670328515874
 20
-114.9700710433061
 10
104.0670328515874
 20
-114.9700710433061
 10
104.0101887760808
 20
-114.9700710433061
 10
103.8575710460842
 20
-114.9742051578884
 10
103.7476725001048
 20
-114.9804063297618
 10
103.7476725001048
 20
-114.9804063297618
 10
103.7476725001048
 20
-114.8029839122715
 10
103.7476725001048
 20
-114.8029839122715
 10
103.8534369315019
 20
-114.8112521414361
 10
103.9970974132368
 20
-114.8153862560184
 10
104.0670328515874
 20
-114.8153862560184
 10
104.0670328515874
 20
-114.8153862560184
 10
104.1411024045203
 20
-114.8153862560184
 10
104.1411024045203
 20
-114.8153862560184
 10
104.1411024045203
 20
-114.8153862560184
 10
104.1411024045203
 20
-114.6799940034481
 10
104.1411024045203
 20
-114.6799940034481
 10
104.1411024045203
 20
-114.6799940034481
 10
104.0966606727606
 20
-114.6799940034481
 10
104.0966606727606
 20
-114.6799940034481
 10
104.0205240625365
 20
-114.6799940034481
 10
103.8279432249111
 20
-114.6824055702877
 10
103.7941812891556
 20
-114.6824055702877
 10
103.8007269705776
 20
-114.610403074646
 10
103.8089951997422
 20
-114.5297878402912
 10
103.8089951997422
 20
-114.4092094983074
 10
103.8089951997422
 20
-114.4092094983074
 10
103.8089951997422
 20
-114.2359211953994
 10
103.8089951997422
 20
-114.2359211953994
 10
103.8089951997422
 20
-114.1639186997576
 10
103.8007269705776
 20
-114.0433403577739
 10
103.7941812891556
 20
-113.9630696329676
 10
103.8723849566708
 20
-113.9672037475499
 10
103.9102810070085
 20
-113.969270804841
 10
104.0374050304143
 20
-113.969270804841
 10
104.0374050304143
 20
-113.969270804841
 10
104.1411024045203
 20
-113.969270804841
 10
104.1411024045203
 20
-113.969270804841
 10
104.1411024045203
 20
-113.969270804841
 10
104.1411024045203
 20
-113.8231987562664
 10
104.1411024045203
 20
-113.8231987562664
 10
104.1411024045203
 20
-113.8231987562664
 10
104.0628987370051
 20
-113.8231987562664
 10
104.0628987370051
 20
-113.8231987562664
 10
104.0077772092411
 20
-113.8231987562664
 10
103.8365559636242
 20
-113.8276773803972
 10
103.7518066146871
 20
-113.8338785522707
 10
103.7518066146871
 20
-113.8338785522707
 10
103.7518066146871
 20
-113.6561116252318
 10
103.7518066146871
 20
-113.6561116252318
 10
103.834488906333
 20
-113.6626573066538
 10
103.9970974132368
 20
-113.6667914212361
 10
104.0628987370051
 20
-113.6667914212361
 10
104.0628987370051
 20
-113.6667914212361
 10
104.1411024045203
 20
-113.6667914212361
 10
104.1411024045203
 20
-113.6667914212361
 10
104.1411024045203
 20
-113.6330294854806
 10
104.136968289938
 20
-113.4786892077414
 10
104.136968289938
 20
-113.4466498197286
 10
104.136968289938
 20
-113.4466498197286
 10
104.3336832421458
 20
-113.4638752971549
 10
104.3336832421458
 20
-113.4638752971549
 10
104.3505642100235
 20
-113.465942354446
 10
104.371923802032
 20
-113.4680094117372
 10
104.371923802032
 20
-113.4890244941972
 10
104.371923802032
 20
-113.5124511434969
 10
104.3505642100235
 20
-113.5207193726615
 10
104.3230034461415
 20
-113.5334662259569
 10
104.3230034461415
 20
-113.5548258179655
 10
104.3209363888503
 20
-113.6499104533584
 10
104.3209363888503
 20
-113.6667914212361
 10
104.3209363888503
 20
-113.6667914212361
 10
104.3801920311966
 20
-113.6667914212361
 10
104.3801920311966
 20
-113.6667914212361
 10
104.4477159027075
 20
-113.6667914212361
 10
104.591720893991
 20
-113.6626573066538
 10
104.6974853253881
 20
-113.6561116252318
 10
104.6974853253881
 20
-113.6561116252318
 10
104.6974853253881
 20
-113.8338785522707
 10
104.6974853253881
 20
-113.8338785522707
 10
104.5999891231556
 20
-113.8276773803972
 10
104.4435817881252
 20
-113.8231987562664
 10
104.3801920311966
 20
-113.8231987562664
 10
104.3801920311966
 20
-113.8231987562664
 10
104.3126681596857
 20
-113.8231987562664
 10
104.3126681596857
 20
-113.8231987562664
 10
104.3126681596857
 20
-113.8231987562664
 10
104.3126681596857
 20
-113.969270804841
 10
104.3126681596857
 20
-113.969270804841
 10
104.3126681596857
 20
-113.969270804841
 10
104.3822590884878
 20
-113.969270804841
 10
104.3822590884878
 20
-113.969270804841
 10
104.5324652516447
 20
-113.969270804841
 10
104.6044677472864
 20
-113.9651366902587
 10
104.6657904469238
 20
-113.9630696329676
 10
104.6571777082107
 20
-114.0581542683605
 10
104.6551106509196
 20
-114.1363579358756
 10
104.6530435936284
 20
-114.1745984957619
 10
104.8073838713676
 20
-113.9630696329676
 10
104.9134928123133
 20
-113.7153672675781
 10
104.9300292706425
 20
-113.4531955011506
 10
104.9300292706425
 20
-113.4531955011506
 10
105.1460367575677
 20
-113.5038384047838
 10
105.1460367575677
 20
-113.5038384047838
 10
105.1608506681542
 20
-113.5083170289146
 10
105.1756645787408
 20
-113.514518200788
 10
105.1756645787408
 20
-113.5313991686658
 10
105.1756645787408
 20
-113.5482801365435
 10
105.17118595461
 20
-113.5503471938346
 10
105.1205430509768
 20
-113.5717067858432
 10
105.1036620830991
 20
-113.6478433960672
 10
105.0781683765082
 20
-113.7387939168778
 10
105.0295925301662
 20
-113.865573430735
 10
105.0295925301662
 20
-113.865573430735
 10
105.3682454163663
 20
-113.865573430735
 10
105.3682454163663
 20
-113.865573430735
 10
105.406141466704
 20
-113.865573430735
 10
105.5349880378524
 20
-113.8614393161527
 10
105.5839083937429
 20
-113.8552381442793
 10
105.5839083937429
 20
-113.8552381442793
 10
105.6769259718447
 20
-113.9248290730813
 10
105.6769259718447
 20
-113.9248290730813
 10
105.6686577426801
 20
-113.9461886650898
 10
105.6621120612581
 20
-113.9651366902587
 10
105.6472981506715
 20
-114.0009656833053
 97
        0
 97
        0
 92
        1
 93
        4
 72
     1
 10
104.1411024045203
 20
-114.1260226494199
 11
103.9826280121988
 21
-114.1260226494199
 72
     1
 10
103.9826280121988
 20
-114.1260226494199
 11
103.9826280121988
 21
-114.2548692205682
 72
     1
 10
103.9826280121988
 20
-114.2548692205682
 11
104.1411024045203
 21
-114.2548692205682
 72
     1
 10
104.1411024045203
 20
-114.2548692205682
 11
104.1411024045203
 21
-114.1260226494199
 97
        0
 92
        1
 93
        4
 72
     1
 10
104.1411024045203
 20
-114.3988742118517
 11
103.9826280121988
 21
-114.3988742118517
 72
     1
 10
103.9826280121988
 20
-114.3988742118517
 11
103.9826280121988
 21
-114.527720783
 72
     1
 10
103.9826280121988
 20
-114.527720783
 11
104.1411024045203
 21
-114.527720783
 72
     1
 10
104.1411024045203
 20
-114.527720783
 11
104.1411024045203
 21
-114.3988742118517
 97
        0
 92
        1
 93
        4
 72
     1
 10
104.4732096092984
 20
-114.1260226494199
 11
104.3126681596857
 21
-114.1260226494199
 72
     1
 10
104.3126681596857
 20
-114.1260226494199
 11
104.3126681596857
 21
-114.2548692205682
 72
     1
 10
104.3126681596857
 20
-114.2548692205682
 11
104.4732096092984
 21
-114.2548692205682
 72
     1
 10
104.4732096092984
 20
-114.2548692205682
 11
104.4732096092984
 21
-114.1260226494199
 97
        0
 92
        1
 93
        4
 72
     1
 10
104.4732096092984
 20
-114.3988742118517
 11
104.3126681596857
 21
-114.3988742118517
 72
     1
 10
104.3126681596857
 20
-114.3988742118517
 11
104.3126681596857
 21
-114.527720783
 72
     1
 10
104.3126681596857
 20
-114.527720783
 11
104.4732096092984
 21
-114.527720783
 72
     1
 10
104.4732096092984
 20
-114.527720783
 11
104.4732096092984
 21
-114.3988742118517
 97
        0
 92
        1
 93
        1
 72
     4
 94
        3
 73
     0
 74
     1
 95
       41
 96
       37
 40
0.0
 40
0.0
 40
0.0
 40
0.0
 40
1.0
 40
1.0
 40
1.0
 40
2.0
 40
2.0
 40
2.0
 40
3.0
 40
3.0
 40
3.0
 40
4.0
 40
4.0
 40
4.0
 40
5.0
 40
5.0
 40
5.0
 40
6.0
 40
6.0
 40
6.0
 40
7.0
 40
7.0
 40
7.0
 40
8.0
 40
8.0
 40
8.0
 40
9.0
 40
9.0
 40
9.0
 40
10.0
 40
10.0
 40
10.0
 40
11.0
 40
11.0
 40
11.0
 40
12.0
 40
12.0
 40
12.0
 40
12.0
 10
105.5625488017344
 20
-115.3569552662997
 10
105.3213921177669
 20
-115.2215630137293
 10
105.143625190728
 20
-114.9256293115464
 10
105.1036620830991
 20
-114.7964382308495
 10
104.9830837411154
 20
-115.0610215641167
 10
104.820130724663
 20
-115.2387884911556
 10
104.6382296830418
 20
-115.3528211517174
 10
104.6382296830418
 20
-115.3528211517174
 10
104.4415147308341
 20
-115.2153618418559
 10
104.4415147308341
 20
-115.2153618418559
 10
104.5111056596361
 20
-115.189868135265
 10
104.6571777082107
 20
-115.1285454356276
 10
104.7798231074856
 20
-114.9742051578884
 10
104.9048800736002
 20
-114.8177978228581
 10
104.9934190275711
 20
-114.5849093680552
 10
104.9934190275711
 20
-114.3248046589188
 10
104.9934190275711
 20
-114.2231743421039
 10
104.9810166838242
 20
-114.1511718464622
 10
104.9703368878199
 20
-114.1046630574113
 10
104.9703368878199
 20
-114.1046630574113
 10
105.1756645787408
 20
-114.1260226494199
 10
105.1756645787408
 20
-114.1260226494199
 10
105.1966796612008
 20
-114.128089706711
 10
105.2180392532094
 20
-114.1301567640022
 10
105.2180392532094
 20
-114.1511718464622
 10
105.2180392532094
 20
-114.1704643811796
 10
105.2073594572051
 20
-114.1787326103442
 10
105.1732530119011
 20
-114.2000922023528
 10
105.1649847827365
 20
-114.4009412691428
 10
105.2221733677917
 20
-114.6441650104015
 10
105.2834960674291
 20
-114.7647433523852
 10
105.3744465882397
 20
-114.940443222133
 10
105.5690944831563
 20
-115.120277206463
 10
105.7044867357267
 20
-115.1771212819696
 10
105.7044867357267
 20
-115.1771212819696
 10
105.5625488017344
 20
-115.3569552662997
 10
105.5625488017344
 20
-115.3569552662997
 97
        0
 97
        0
 75
     2
 76
     1
 98
        0
  0
SPLINE
  5
19C
330
179
100
AcDbEntity
  8
_U+30EC_U+30A4_U+30E4_U+30FC 1
370
     0
100
AcDbSpline
210
0.0
220
0.0
230
1.0
 70
    11
 71
     3
 72
    71
 73
    67
 74
     0
 42
0.0000000001
 43
0.0000000001
 12
1.0
 22
0.0
 32
0.0
 13
1.0
 23
0.0
 33
0.0
 40
0.0
 40
0.0
 40
0.0
 40
0.0
 40
1.0
 40
1.0
 40
1.0
 40
2.0
 40
2.0
 40
2.0
 40
3.0
 40
3.0
 40
3.0
 40
4.0
 40
4.0
 40
4.0
 40
5.0
 40
5.0
 40
5.0
 40
6.0
 40
6.0
 40
6.0
 40
7.0
 40
7.0
 40
7.0
 40
8.0
 40
8.0
 40
8.0
 40
9.0
 40
9.0
 40
9.0
 40
10.0
 40
10.0
 40
10.0
 40
11.0
 40
11.0
 40
11.0
 40
12.0
 40
12.0
 40
12.0
 40
13.0
 40
13.0
 40
13.0
 40
14.0
 40
14.0
 40
14.0
 40
15.0
 40
15.0
 40
15.0
 40
16.0
 40
16.0
 40
16.0
 40
17.0
 40
17.0
 40
17.0
 40
18.0
 40
18.0
 40
18.0
 40
19.0
 40
19.0
 40
19.0
 40
20.0
 40
20.0
 40
20.0
 40
21.0
 40
21.0
 40
21.0
 40
22.0
 40
22.0
 40
22.0
 40
22.0
 10
106.7569634064705
 20
-113.6244167467675
 30
0.0
 10
106.7421494958839
 20
-113.6244167467675
 30
0.0
 10
106.729747152137
 20
-113.6202826321852
 30
0.0
 10
106.7042534455462
 20
-113.6116698934721
 30
0.0
 10
106.5623155115539
 20
-113.6585231920715
 30
0.0
 10
106.3886826990973
 20
-113.6754041599492
 30
0.0
 10
106.2495008414932
 20
-113.6795382745315
 30
0.0
 10
106.2495008414932
 20
-113.6795382745315
 30
0.0
 10
106.247433784202
 20
-113.768421738051
 30
0.0
 10
106.247433784202
 20
-113.768421738051
 30
0.0
 10
106.247433784202
 20
-113.768421738051
 30
0.0
 10
106.5071939837899
 20
-113.768421738051
 30
0.0
 10
106.5071939837899
 20
-113.768421738051
 30
0.0
 10
106.5602484542627
 20
-113.768421738051
 30
0.0
 10
106.7421494958839
 20
-113.7598089993378
 30
0.0
 10
106.7865912276436
 20
-113.7536078274644
 30
0.0
 10
106.7865912276436
 20
-113.7536078274644
 30
0.0
 10
106.7865912276436
 20
-113.9144937866255
 30
0.0
 10
106.7865912276436
 20
-113.9144937866255
 30
0.0
 10
106.7318142094282
 20
-113.9079481052036
 30
0.0
 10
106.6067572433136
 20
-113.9058810479124
 30
0.0
 10
106.5685166834273
 20
-113.9079481052036
 30
0.0
 10
106.5685166834273
 20
-113.9079481052036
 30
0.0
 10
106.5685166834273
 20
-114.017846651183
 30
0.0
 10
106.5685166834273
 20
-114.017846651183
 30
0.0
 10
106.5685166834273
 20
-114.0643554402339
 30
0.0
 10
106.570928250267
 20
-114.128089706711
 30
0.0
 10
106.5771294221404
 20
-114.1659857570488
 30
0.0
 10
106.5771294221404
 20
-114.1659857570488
 30
0.0
 10
106.384548584515
 20
-114.1659857570488
 30
0.0
 10
106.384548584515
 20
-114.1659857570488
 30
0.0
 10
106.391094265937
 20
-114.1260226494199
 30
0.0
 10
106.3976399473589
 20
-114.0433403577739
 30
0.0
 10
106.3976399473589
 20
-114.0285264471873
 30
0.0
 10
106.3976399473589
 20
-114.0285264471873
 30
0.0
 10
106.3976399473589
 20
-113.9079481052036
 30
0.0
 10
106.3976399473589
 20
-113.9079481052036
 30
0.0
 10
106.3976399473589
 20
-113.9079481052036
 30
0.0
 10
106.2322753640669
 20
-113.9079481052036
 30
0.0
 10
106.2322753640669
 20
-113.9079481052036
 30
0.0
 10
106.1902451991469
 20
-114.128089706711
 30
0.0
 10
106.1351236713829
 20
-114.2083604315174
 30
0.0
 10
106.0293592399857
 20
-114.3079236910411
 30
0.0
 10
106.0293592399857
 20
-114.3079236910411
 30
0.0
 10
105.8622721089511
 20
-114.1935465209308
 30
0.0
 10
105.8622721089511
 20
-114.1935465209308
 30
0.0
 10
105.9256618658797
 20
-114.1449706745888
 30
0.0
 10
106.0758680290366
 20
-114.0326605617696
 30
0.0
 10
106.0758680290366
 20
-113.6836723891138
 30
0.0
 10
106.0758680290366
 20
-113.6013346070163
 30
0.0
 10
106.067599799872
 20
-113.5548258179655
 30
0.0
 10
106.0589870611589
 20
-113.5059054620749
 30
0.0
 10
106.2047146001849
 20
-113.5207193726615
 30
0.0
 10
106.21987302032
 20
-113.5207193726615
 30
0.0
 10
106.2557020133666
 20
-113.5207193726615
 30
0.0
 10
106.3635335020549
 20
-113.5207193726615
 30
0.0
 10
106.5051269264987
 20
-113.5038384047838
 30
0.0
 10
106.6660128856599
 20
-113.4425157051463
 30
0.0
 10
106.6660128856599
 20
-113.4425157051463
 30
0.0
 10
106.7800455462217
 20
-113.5737738431343
 30
0.0
 10
106.7800455462217
 20
-113.5737738431343
 30
0.0
 10
106.7865912276436
 20
-113.5799750150078
 30
0.0
 10
106.7910698517745
 20
-113.5885877537209
 30
0.0
 10
106.7910698517745
 20
-113.5968559828855
 30
0.0
 10
106.7910698517745
 20
-113.6202826321852
 30
0.0
 10
106.7717773170571
 20
-113.6244167467675
 30
0.0
 10
106.7569634064705
 20
-113.6244167467675
 30
0.0
  0
SPLINE
  5
19D
330
179
100
AcDbEntity
  8
_U+30EC_U+30A4_U+30E4_U+30FC 1
370
     0
100
AcDbSpline
210
0.0
220
0.0
230
1.0
 70
    11
 71
     3
 72
    74
 73
    70
 74
     0
 42
0.0000000001
 43
0.0000000001
 12
1.0
 22
0.0
 32
0.0
 13
1.0
 23
0.0
 33
0.0
 40
0.0
 40
0.0
 40
0.0
 40
0.0
 40
1.0
 40
1.0
 40
1.0
 40
2.0
 40
2.0
 40
2.0
 40
3.0
 40
3.0
 40
3.0
 40
4.0
 40
4.0
 40
4.0
 40
5.0
 40
5.0
 40
5.0
 40
6.0
 40
6.0
 40
6.0
 40
7.0
 40
7.0
 40
7.0
 40
8.0
 40
8.0
 40
8.0
 40
9.0
 40
9.0
 40
9.0
 40
10.0
 40
10.0
 40
10.0
 40
11.0
 40
11.0
 40
11.0
 40
12.0
 40
12.0
 40
12.0
 40
13.0
 40
13.0
 40
13.0
 40
14.0
 40
14.0
 40
14.0
 40
15.0
 40
15.0
 40
15.0
 40
16.0
 40
16.0
 40
16.0
 40
17.0
 40
17.0
 40
17.0
 40
18.0
 40
18.0
 40
18.0
 40
19.0
 40
19.0
 40
19.0
 40
20.0
 40
20.0
 40
20.0
 40
21.0
 40
21.0
 40
21.0
 40
22.0
 40
22.0
 40
22.0
 40
23.0
 40
23.0
 40
23.0
 40
23.0
 10
107.5948106284832
 20
-115.3910617116036
 30
0.0
 10
107.3808701988492
 20
-115.3803819155994
 30
0.0
 10
107.1803656416077
 20
-115.2935655093711
 30
0.0
 10
107.0046657718599
 20
-115.1729871673873
 30
0.0
 10
107.0046657718599
 20
-115.1729871673873
 30
0.0
 10
107.101817464544
 20
-115.086170761159
 30
0.0
 10
107.101817464544
 20
-115.086170761159
 30
0.0
 10
107.101817464544
 20
-115.086170761159
 30
0.0
 10
106.549913167807
 20
-115.086170761159
 30
0.0
 10
106.549913167807
 20
-115.086170761159
 30
0.0
 10
106.549913167807
 20
-115.086170761159
 30
0.0
 10
106.6298393830648
 20
-115.1499050276361
 30
0.0
 10
106.6298393830648
 20
-115.1499050276361
 30
0.0
 10
106.6363850644867
 20
-115.1540391422184
 30
0.0
 10
106.647064860491
 20
-115.1647189382227
 30
0.0
 10
106.647064860491
 20
-115.1795328488093
 30
0.0
 10
106.647064860491
 20
-115.2194959564382
 30
0.0
 10
106.5729953075581
 20
-115.2132947845647
 30
0.0
 10
106.5581813969716
 20
-115.2112277272736
 30
0.0
 10
106.3273599994598
 20
-115.3507540944262
 30
0.0
 10
106.1836995177249
 20
-115.3824489728905
 30
0.0
 10
106.0800021436189
 20
-115.3993299407682
 30
0.0
 10
106.0800021436189
 20
-115.3993299407682
 30
0.0
 10
105.9511555724706
 20
-115.2215630137293
 30
0.0
 10
105.9511555724706
 20
-115.2215630137293
 30
0.0
 10
106.1985134283115
 20
-115.189868135265
 30
0.0
 10
106.3001437451264
 20
-115.1433593462142
 30
0.0
 10
106.3886826990973
 20
-115.0906493852898
 30
0.0
 10
106.3149576557129
 20
-115.092716442581
 30
0.0
 10
106.2005804856026
 20
-115.0947834998721
 30
0.0
 10
106.1688856071383
 20
-115.0968505571633
 30
0.0
 10
106.1836995177249
 20
-115.0079670936438
 30
0.0
 10
106.1857665750161
 20
-114.8791205224955
 30
0.0
 10
106.1857665750161
 20
-114.8050509695626
 30
0.0
 10
106.1857665750161
 20
-114.8050509695626
 30
0.0
 10
106.1857665750161
 20
-114.5046386432488
 30
0.0
 10
106.1857665750161
 20
-114.5046386432488
 30
0.0
 10
106.1857665750161
 20
-114.4050753837251
 30
0.0
 10
106.1795654031426
 20
-114.3058566337499
 30
0.0
 10
106.1688856071383
 20
-114.2083604315174
 30
0.0
 10
106.2705159239532
 20
-114.2145616033908
 30
0.0
 10
106.5009928119164
 20
-114.2211072848128
 30
0.0
 10
106.6091688101533
 20
-114.2211072848128
 30
0.0
 10
106.6091688101533
 20
-114.2211072848128
 30
0.0
 10
107.032226535742
 20
-114.2211072848128
 30
0.0
 10
107.032226535742
 20
-114.2211072848128
 30
0.0
 10
107.1507378204345
 20
-114.2211072848128
 30
0.0
 10
107.1927679853546
 20
-114.2211072848128
 30
0.0
 10
107.2754502770006
 20
-114.2169731702305
 30
0.0
 10
107.4235893828663
 20
-114.2104274888085
 30
0.0
 10
107.4401258411955
 20
-114.2104274888085
 30
0.0
 10
107.4869791397949
 20
-114.2083604315174
 30
0.0
 10
107.4783664010818
 20
-114.2886311563237
 30
0.0
 10
107.4742322864995
 20
-114.4474500581937
 30
0.0
 10
107.4742322864995
 20
-114.5297878402912
 30
0.0
 10
107.4742322864995
 20
-114.5297878402912
 30
0.0
 10
107.4742322864995
 20
-114.8153862560184
 30
0.0
 10
107.4742322864995
 20
-114.8153862560184
 30
0.0
 10
107.4742322864995
 20
-114.8873887516601
 30
0.0
 10
107.4762993437907
 20
-115.0186468896481
 30
0.0
 10
107.4869791397949
 20
-115.0968505571633
 30
0.0
 10
107.4149766441532
 20
-115.092716442581
 30
0.0
 10
107.2923312448783
 20
-115.0906493852898
 30
0.0
 10
107.2141275773631
 20
-115.0885823279987
 30
0.0
 10
107.3240261233426
 20
-115.1561061995096
 30
0.0
 10
107.4762993437907
 20
-115.2067491031428
 30
0.0
 10
107.687828206585
 20
-115.2112277272736
 30
0.0
 10
107.687828206585
 20
-115.2112277272736
 30
0.0
 10
107.5948106284832
 20
-115.3910617116036
 30
0.0
 10
107.5948106284832
 20
-115.3910617116036
 30
0.0
  0
POLYLINE
  5
19E
330
179
100
AcDbEntity
  8
_U+30EC_U+30A4_U+30E4_U+30FC 1
370
     0
100
AcDb2dPolyline
 66
     1
 10
0.0
 20
0.0
 30
0.0
  0
VERTEX
  5
19F
330
19E
100
AcDbEntity
  8
_U+30EC_U+30A4_U+30E4_U+30FC 1
370
     0
100
AcDbVertex
100
AcDb2dVertex
 10
107.2899196780386
 20
-114.3564995373831
 30
0.0
  0
VERTEX
  5
1A0
330
19E
100
AcDbEntity
  8
_U+30EC_U+30A4_U+30E4_U+30FC 1
370
     0
100
AcDbVertex
100
AcDb2dVertex
 10
106.3783474126415
 20
-114.3564995373831
 30
0.0
  0
VERTEX
  5
1A1
330
19E
100
AcDbEntity
  8
_U+30EC_U+30A4_U+30E4_U+30FC 1
370
     0
100
AcDbVertex
100
AcDb2dVertex
 10
106.3783474126415
 20
-114.4684651406537
 30
0.0
  0
VERTEX
  5
1A2
330
19E
100
AcDbEntity
  8
_U+30EC_U+30A4_U+30E4_U+30FC 1
370
     0
100
AcDbVertex
100
AcDb2dVertex
 10
107.2899196780386
 20
-114.4684651406537
 30
0.0
  0
VERTEX
  5
1A3
330
19E
100
AcDbEntity
  8
_U+30EC_U+30A4_U+30E4_U+30FC 1
370
     0
100
AcDbVertex
100
AcDb2dVertex
 10
107.2899196780386
 20
-114.3564995373831
 30
0.0
  0
SEQEND
  5
1A4
330
19E
100
AcDbEntity
  8
_U+30EC_U+30A4_U+30E4_U+30FC 1
370
     0
  0
POLYLINE
  5
1A5
330
179
100
AcDbEntity
  8
_U+30EC_U+30A4_U+30E4_U+30FC 1
370
     0
100
AcDb2dPolyline
 66
     1
 10
0.0
 20
0.0
 30
0.0
  0
VERTEX
  5
1A6
330
1A5
100
AcDbEntity
  8
_U+30EC_U+30A4_U+30E4_U+30FC 1
370
     0
100
AcDbVertex
100
AcDb2dVertex
 10
107.2899196780386
 20
-114.6017903359329
 30
0.0
  0
VERTEX
  5
1A7
330
1A5
100
AcDbEntity
  8
_U+30EC_U+30A4_U+30E4_U+30FC 1
370
     0
100
AcDbVertex
100
AcDb2dVertex
 10
106.3783474126415
 20
-114.6017903359329
 30
0.0
  0
VERTEX
  5
1A8
330
1A5
100
AcDbEntity
  8
_U+30EC_U+30A4_U+30E4_U+30FC 1
370
     0
100
AcDbVertex
100
AcDb2dVertex
 10
106.3783474126415
 20
-114.7120333914609
 30
0.0
  0
VERTEX
  5
1A9
330
1A5
100
AcDbEntity
  8
_U+30EC_U+30A4_U+30E4_U+30FC 1
370
     0
100
AcDbVertex
100
AcDb2dVertex
 10
107.2899196780386
 20
-114.7120333914609
 30
0.0
  0
VERTEX
  5
1AA
330
1A5
100
AcDbEntity
  8
_U+30EC_U+30A4_U+30E4_U+30FC 1
370
     0
100
AcDbVertex
100
AcDb2dVertex
 10
107.2899196780386
 20
-114.6017903359329
 30
0.0
  0
SEQEND
  5
1AB
330
1A5
100
AcDbEntity
  8
_U+30EC_U+30A4_U+30E4_U+30FC 1
370
     0
  0
POLYLINE
  5
1AC
330
179
100
AcDbEntity
  8
_U+30EC_U+30A4_U+30E4_U+30FC 1
370
     0
100
AcDb2dPolyline
 66
     1
 10
0.0
 20
0.0
 30
0.0
  0
VERTEX
  5
1AD
330
1AC
100
AcDbEntity
  8
_U+30EC_U+30A4_U+30E4_U+30FC 1
370
     0
100
AcDbVertex
100
AcDb2dVertex
 10
107.2899196780386
 20
-114.8474256440312
 30
0.0
  0
VERTEX
  5
1AE
330
1AC
100
AcDbEntity
  8
_U+30EC_U+30A4_U+30E4_U+30FC 1
370
     0
100
AcDbVertex
100
AcDb2dVertex
 10
106.3783474126415
 20
-114.8474256440312
 30
0.0
  0
VERTEX
  5
1AF
330
1AC
100
AcDbEntity
  8
_U+30EC_U+30A4_U+30E4_U+30FC 1
370
     0
100
AcDbVertex
100
AcDb2dVertex
 10
106.3783474126415
 20
-114.9552571327195
 30
0.0
  0
VERTEX
  5
1B0
330
1AC
100
AcDbEntity
  8
_U+30EC_U+30A4_U+30E4_U+30FC 1
370
     0
100
AcDbVertex
100
AcDb2dVertex
 10
107.2899196780386
 20
-114.9552571327195
 30
0.0
  0
VERTEX
  5
1B1
330
1AC
100
AcDbEntity
  8
_U+30EC_U+30A4_U+30E4_U+30FC 1
370
     0
100
AcDbVertex
100
AcDb2dVertex
 10
107.2899196780386
 20
-114.8474256440312
 30
0.0
  0
SEQEND
  5
1B2
330
1AC
100
AcDbEntity
  8
_U+30EC_U+30A4_U+30E4_U+30FC 1
370
     0
  0
SPLINE
  5
1B3
330
179
100
AcDbEntity
  8
_U+30EC_U+30A4_U+30E4_U+30FC 1
370
     0
100
AcDbSpline
210
0.0
220
0.0
230
1.0
 70
    11
 71
     3
 72
    74
 73
    70
 74
     0
 42
0.0000000001
 43
0.0000000001
 12
1.0
 22
0.0
 32
0.0
 13
1.0
 23
0.0
 33
0.0
 40
0.0
 40
0.0
 40
0.0
 40
0.0
 40
1.0
 40
1.0
 40
1.0
 40
2.0
 40
2.0
 40
2.0
 40
3.0
 40
3.0
 40
3.0
 40
4.0
 40
4.0
 40
4.0
 40
5.0
 40
5.0
 40
5.0
 40
6.0
 40
6.0
 40
6.0
 40
7.0
 40
7.0
 40
7.0
 40
8.0
 40
8.0
 40
8.0
 40
9.0
 40
9.0
 40
9.0
 40
10.0
 40
10.0
 40
10.0
 40
11.0
 40
11.0
 40
11.0
 40
12.0
 40
12.0
 40
12.0
 40
13.0
 40
13.0
 40
13.0
 40
14.0
 40
14.0
 40
14.0
 40
15.0
 40
15.0
 40
15.0
 40
16.0
 40
16.0
 40
16.0
 40
17.0
 40
17.0
 40
17.0
 40
18.0
 40
18.0
 40
18.0
 40
19.0
 40
19.0
 40
19.0
 40
20.0
 40
20.0
 40
20.0
 40
21.0
 40
21.0
 40
21.0
 40
22.0
 40
22.0
 40
22.0
 40
23.0
 40
23.0
 40
23.0
 40
23.0
 10
107.6075574817787
 20
-113.9038139906213
 30
0.0
 10
107.6075574817787
 20
-113.9038139906213
 30
0.0
 10
107.4466715226175
 20
-113.9038139906213
 30
0.0
 10
107.4466715226175
 20
-113.9038139906213
 30
0.0
 10
107.4466715226175
 20
-113.9038139906213
 30
0.0
 10
107.4466715226175
 20
-114.017846651183
 30
0.0
 10
107.4466715226175
 20
-114.017846651183
 30
0.0
 10
107.4466715226175
 20
-114.0581542683605
 30
0.0
 10
107.4532172040395
 20
-114.1322238212933
 30
0.0
 10
107.4573513186218
 20
-114.1577175278842
 30
0.0
 10
107.4573513186218
 20
-114.1577175278842
 30
0.0
 10
107.2458224558274
 20
-114.1577175278842
 30
0.0
 10
107.2458224558274
 20
-114.1577175278842
 30
0.0
 10
107.2561577422832
 20
-114.0919162041159
 30
0.0
 10
107.2582247995743
 20
-114.0326605617696
 30
0.0
 10
107.2582247995743
 20
-114.0305935044785
 30
0.0
 10
107.2582247995743
 20
-114.0305935044785
 30
0.0
 10
107.2582247995743
 20
-113.9079481052036
 30
0.0
 10
107.2582247995743
 20
-113.9079481052036
 30
0.0
 10
107.2582247995743
 20
-113.9079481052036
 30
0.0
 10
107.0783908152443
 20
-113.9079481052036
 30
0.0
 10
107.0783908152443
 20
-113.9079481052036
 30
0.0
 10
107.0597872996239
 20
-113.9672037475499
 30
0.0
 10
107.0129340010245
 20
-114.1132757961245
 30
0.0
 10
106.8985568309143
 20
-114.1956135782219
 30
0.0
 10
106.8985568309143
 20
-114.1956135782219
 30
0.0
 10
106.7421494958839
 20
-114.0898491468248
 30
0.0
 10
106.7421494958839
 20
-114.0898491468248
 30
0.0
 10
106.8162190488168
 20
-114.0433403577739
 30
0.0
 10
106.9326632762182
 20
-113.969270804841
 30
0.0
 10
106.9326632762182
 20
-113.6478433960672
 30
0.0
 10
106.9326632762182
 20
-113.5927218683032
 30
0.0
 10
106.9281846520874
 20
-113.5482801365435
 30
0.0
 10
106.9261175947963
 20
-113.5103840862057
 30
0.0
 10
107.0025987145688
 20
-113.5186523153703
 30
0.0
 10
107.0763237579531
 20
-113.5251979967923
 30
0.0
 10
107.1397135148817
 20
-113.5251979967923
 30
0.0
 10
107.3174804419206
 20
-113.5251979967923
 30
0.0
 10
107.5166069609681
 20
-113.465942354446
 30
0.0
 10
107.5779296606055
 20
-113.4363145332729
 30
0.0
 10
107.5779296606055
 20
-113.4363145332729
 30
0.0
 10
107.7047091744627
 20
-113.5717067858432
 30
0.0
 10
107.7047091744627
 20
-113.5717067858432
 30
0.0
 10
107.708843289045
 20
-113.5758409004255
 30
0.0
 10
107.7109103463362
 20
-113.5844536391386
 30
0.0
 10
107.7109103463362
 20
-113.5906548110121
 30
0.0
 10
107.7109103463362
 20
-113.6116698934721
 30
0.0
 10
107.6964409452981
 20
-113.6182155748941
 30
0.0
 10
107.6792154678719
 20
-113.6182155748941
 30
0.0
 10
107.6582003854118
 20
-113.6182155748941
 30
0.0
 10
107.6433864748253
 20
-113.6096028361809
 30
0.0
 10
107.6244384496564
 20
-113.5992675497252
 30
0.0
 10
107.4511501467483
 20
-113.6561116252318
 30
0.0
 10
107.233075602532
 20
-113.6816053318227
 30
0.0
 10
107.0997504072528
 20
-113.6836723891138
 30
0.0
 10
107.0997504072528
 20
-113.6836723891138
 30
0.0
 10
107.0956162926705
 20
-113.7663546807598
 30
0.0
 10
107.0956162926705
 20
-113.7663546807598
 30
0.0
 10
107.0956162926705
 20
-113.7663546807598
 30
0.0
 10
107.3684678551023
 20
-113.7663546807598
 30
0.0
 10
107.3684678551023
 20
-113.7663546807598
 30
0.0
 10
107.4256564401575
 20
-113.7663546807598
 30
0.0
 10
107.687828206585
 20
-113.7470621460424
 30
0.0
 10
107.7322699383447
 20
-113.740860974169
 30
0.0
 10
107.7322699383447
 20
-113.740860974169
 30
0.0
 10
107.7322699383447
 20
-113.9100151624947
 30
0.0
 10
107.7322699383447
 20
-113.9100151624947
 30
0.0
 10
107.6985080025893
 20
-113.9058810479124
 30
0.0
 10
107.6857611492938
 20
-113.9038139906213
 30
0.0
 10
107.6075574817787
 20
-113.9038139906213
 30
0.0
  0
HATCH
  5
1B4
330
179
100
AcDbEntity
  8
_U+30EC_U+30A4_U+30E4_U+30FC 1
 62
   179
420
  2234388
100
AcDbHatch
 10
0.0
 20
0.0
 30
0.0
210
0.0
220
0.0
230
1.0
  2
SOLID
 70
     1
 71
     0
 91
        6
 92
        1
 93
        1
 72
     4
 94
        3
 73
     0
 74
     1
 95
       71
 96
       67
 40
0.0
 40
0.0
 40
0.0
 40
0.0
 40
1.0
 40
1.0
 40
1.0
 40
2.0
 40
2.0
 40
2.0
 40
3.0
 40
3.0
 40
3.0
 40
4.0
 40
4.0
 40
4.0
 40
5.0
 40
5.0
 40
5.0
 40
6.0
 40
6.0
 40
6.0
 40
7.0
 40
7.0
 40
7.0
 40
8.0
 40
8.0
 40
8.0
 40
9.0
 40
9.0
 40
9.0
 40
10.0
 40
10.0
 40
10.0
 40
11.0
 40
11.0
 40
11.0
 40
12.0
 40
12.0
 40
12.0
 40
13.0
 40
13.0
 40
13.0
 40
14.0
 40
14.0
 40
14.0
 40
15.0
 40
15.0
 40
15.0
 40
16.0
 40
16.0
 40
16.0
 40
17.0
 40
17.0
 40
17.0
 40
18.0
 40
18.0
 40
18.0
 40
19.0
 40
19.0
 40
19.0
 40
20.0
 40
20.0
 40
20.0
 40
21.0
 40
21.0
 40
21.0
 40
22.0
 40
22.0
 40
22.0
 40
22.0
 10
106.7569634064705
 20
-113.6244167467675
 10
106.7421494958839
 20
-113.6244167467675
 10
106.729747152137
 20
-113.6202826321852
 10
106.7042534455462
 20
-113.6116698934721
 10
106.5623155115539
 20
-113.6585231920715
 10
106.3886826990973
 20
-113.6754041599492
 10
106.2495008414932
 20
-113.6795382745315
 10
106.2495008414932
 20
-113.6795382745315
 10
106.247433784202
 20
-113.768421738051
 10
106.247433784202
 20
-113.768421738051
 10
106.247433784202
 20
-113.768421738051
 10
106.5071939837899
 20
-113.768421738051
 10
106.5071939837899
 20
-113.768421738051
 10
106.5602484542627
 20
-113.768421738051
 10
106.7421494958839
 20
-113.7598089993378
 10
106.7865912276436
 20
-113.7536078274644
 10
106.7865912276436
 20
-113.7536078274644
 10
106.7865912276436
 20
-113.9144937866255
 10
106.7865912276436
 20
-113.9144937866255
 10
106.7318142094282
 20
-113.9079481052036
 10
106.6067572433136
 20
-113.9058810479124
 10
106.5685166834273
 20
-113.9079481052036
 10
106.5685166834273
 20
-113.9079481052036
 10
106.5685166834273
 20
-114.017846651183
 10
106.5685166834273
 20
-114.017846651183
 10
106.5685166834273
 20
-114.0643554402339
 10
106.570928250267
 20
-114.128089706711
 10
106.5771294221404
 20
-114.1659857570488
 10
106.5771294221404
 20
-114.1659857570488
 10
106.384548584515
 20
-114.1659857570488
 10
106.384548584515
 20
-114.1659857570488
 10
106.391094265937
 20
-114.1260226494199
 10
106.3976399473589
 20
-114.0433403577739
 10
106.3976399473589
 20
-114.0285264471873
 10
106.3976399473589
 20
-114.0285264471873
 10
106.3976399473589
 20
-113.9079481052036
 10
106.3976399473589
 20
-113.9079481052036
 10
106.3976399473589
 20
-113.9079481052036
 10
106.2322753640669
 20
-113.9079481052036
 10
106.2322753640669
 20
-113.9079481052036
 10
106.1902451991469
 20
-114.128089706711
 10
106.1351236713829
 20
-114.2083604315174
 10
106.0293592399857
 20
-114.3079236910411
 10
106.0293592399857
 20
-114.3079236910411
 10
105.8622721089511
 20
-114.1935465209308
 10
105.8622721089511
 20
-114.1935465209308
 10
105.9256618658797
 20
-114.1449706745888
 10
106.0758680290366
 20
-114.0326605617696
 10
106.0758680290366
 20
-113.6836723891138
 10
106.0758680290366
 20
-113.6013346070163
 10
106.067599799872
 20
-113.5548258179655
 10
106.0589870611589
 20
-113.5059054620749
 10
106.2047146001849
 20
-113.5207193726615
 10
106.21987302032
 20
-113.5207193726615
 10
106.2557020133666
 20
-113.5207193726615
 10
106.3635335020549
 20
-113.5207193726615
 10
106.5051269264987
 20
-113.5038384047838
 10
106.6660128856599
 20
-113.4425157051463
 10
106.6660128856599
 20
-113.4425157051463
 10
106.7800455462217
 20
-113.5737738431343
 10
106.7800455462217
 20
-113.5737738431343
 10
106.7865912276436
 20
-113.5799750150078
 10
106.7910698517745
 20
-113.5885877537209
 10
106.7910698517745
 20
-113.5968559828855
 10
106.7910698517745
 20
-113.6202826321852
 10
106.7717773170571
 20
-113.6244167467675
 10
106.7569634064705
 20
-113.6244167467675
 97
        0
 97
        0
 92
        1
 93
        1
 72
     4
 94
        3
 73
     0
 74
     1
 95
       74
 96
       70
 40
0.0
 40
0.0
 40
0.0
 40
0.0
 40
1.0
 40
1.0
 40
1.0
 40
2.0
 40
2.0
 40
2.0
 40
3.0
 40
3.0
 40
3.0
 40
4.0
 40
4.0
 40
4.0
 40
5.0
 40
5.0
 40
5.0
 40
6.0
 40
6.0
 40
6.0
 40
7.0
 40
7.0
 40
7.0
 40
8.0
 40
8.0
 40
8.0
 40
9.0
 40
9.0
 40
9.0
 40
10.0
 40
10.0
 40
10.0
 40
11.0
 40
11.0
 40
11.0
 40
12.0
 40
12.0
 40
12.0
 40
13.0
 40
13.0
 40
13.0
 40
14.0
 40
14.0
 40
14.0
 40
15.0
 40
15.0
 40
15.0
 40
16.0
 40
16.0
 40
16.0
 40
17.0
 40
17.0
 40
17.0
 40
18.0
 40
18.0
 40
18.0
 40
19.0
 40
19.0
 40
19.0
 40
20.0
 40
20.0
 40
20.0
 40
21.0
 40
21.0
 40
21.0
 40
22.0
 40
22.0
 40
22.0
 40
23.0
 40
23.0
 40
23.0
 40
23.0
 10
107.5948106284832
 20
-115.3910617116036
 10
107.3808701988492
 20
-115.3803819155994
 10
107.1803656416077
 20
-115.2935655093711
 10
107.0046657718599
 20
-115.1729871673873
 10
107.0046657718599
 20
-115.1729871673873
 10
107.101817464544
 20
-115.086170761159
 10
107.101817464544
 20
-115.086170761159
 10
107.101817464544
 20
-115.086170761159
 10
106.549913167807
 20
-115.086170761159
 10
106.549913167807
 20
-115.086170761159
 10
106.549913167807
 20
-115.086170761159
 10
106.6298393830648
 20
-115.1499050276361
 10
106.6298393830648
 20
-115.1499050276361
 10
106.6363850644867
 20
-115.1540391422184
 10
106.647064860491
 20
-115.1647189382227
 10
106.647064860491
 20
-115.1795328488093
 10
106.647064860491
 20
-115.2194959564382
 10
106.5729953075581
 20
-115.2132947845647
 10
106.5581813969716
 20
-115.2112277272736
 10
106.3273599994598
 20
-115.3507540944262
 10
106.1836995177249
 20
-115.3824489728905
 10
106.0800021436189
 20
-115.3993299407682
 10
106.0800021436189
 20
-115.3993299407682
 10
105.9511555724706
 20
-115.2215630137293
 10
105.9511555724706
 20
-115.2215630137293
 10
106.1985134283115
 20
-115.189868135265
 10
106.3001437451264
 20
-115.1433593462142
 10
106.3886826990973
 20
-115.0906493852898
 10
106.3149576557129
 20
-115.092716442581
 10
106.2005804856026
 20
-115.0947834998721
 10
106.1688856071383
 20
-115.0968505571633
 10
106.1836995177249
 20
-115.0079670936438
 10
106.1857665750161
 20
-114.8791205224955
 10
106.1857665750161
 20
-114.8050509695626
 10
106.1857665750161
 20
-114.8050509695626
 10
106.1857665750161
 20
-114.5046386432488
 10
106.1857665750161
 20
-114.5046386432488
 10
106.1857665750161
 20
-114.4050753837251
 10
106.1795654031426
 20
-114.3058566337499
 10
106.1688856071383
 20
-114.2083604315174
 10
106.2705159239532
 20
-114.2145616033908
 10
106.5009928119164
 20
-114.2211072848128
 10
106.6091688101533
 20
-114.2211072848128
 10
106.6091688101533
 20
-114.2211072848128
 10
107.032226535742
 20
-114.2211072848128
 10
107.032226535742
 20
-114.2211072848128
 10
107.1507378204345
 20
-114.2211072848128
 10
107.1927679853546
 20
-114.2211072848128
 10
107.2754502770006
 20
-114.2169731702305
 10
107.4235893828663
 20
-114.2104274888085
 10
107.4401258411955
 20
-114.2104274888085
 10
107.4869791397949
 20
-114.2083604315174
 10
107.4783664010818
 20
-114.2886311563237
 10
107.4742322864995
 20
-114.4474500581937
 10
107.4742322864995
 20
-114.5297878402912
 10
107.4742322864995
 20
-114.5297878402912
 10
107.4742322864995
 20
-114.8153862560184
 10
107.4742322864995
 20
-114.8153862560184
 10
107.4742322864995
 20
-114.8873887516601
 10
107.4762993437907
 20
-115.0186468896481
 10
107.4869791397949
 20
-115.0968505571633
 10
107.4149766441532
 20
-115.092716442581
 10
107.2923312448783
 20
-115.0906493852898
 10
107.2141275773631
 20
-115.0885823279987
 10
107.3240261233426
 20
-115.1561061995096
 10
107.4762993437907
 20
-115.2067491031428
 10
107.687828206585
 20
-115.2112277272736
 10
107.687828206585
 20
-115.2112277272736
 10
107.5948106284832
 20
-115.3910617116036
 10
107.5948106284832
 20
-115.3910617116036
 97
        0
 97
        0
 92
        1
 93
        4
 72
     1
 10
107.2899196780386
 20
-114.3564995373831
 11
106.3783474126415
 21
-114.3564995373831
 72
     1
 10
106.3783474126415
 20
-114.3564995373831
 11
106.3783474126415
 21
-114.4684651406537
 72
     1
 10
106.3783474126415
 20
-114.4684651406537
 11
107.2899196780386
 21
-114.4684651406537
 72
     1
 10
107.2899196780386
 20
-114.4684651406537
 11
107.2899196780386
 21
-114.3564995373831
 97
        0
 92
        1
 93
        4
 72
     1
 10
107.2899196780386
 20
-114.6017903359329
 11
106.3783474126415
 21
-114.6017903359329
 72
     1
 10
106.3783474126415
 20
-114.6017903359329
 11
106.3783474126415
 21
-114.7120333914609
 72
     1
 10
106.3783474126415
 20
-114.7120333914609
 11
107.2899196780386
 21
-114.7120333914609
 72
     1
 10
107.2899196780386
 20
-114.7120333914609
 11
107.2899196780386
 21
-114.6017903359329
 97
        0
 92
        1
 93
        4
 72
     1
 10
107.2899196780386
 20
-114.8474256440312
 11
106.3783474126415
 21
-114.8474256440312
 72
     1
 10
106.3783474126415
 20
-114.8474256440312
 11
106.3783474126415
 21
-114.9552571327195
 72
     1
 10
106.3783474126415
 20
-114.9552571327195
 11
107.2899196780386
 21
-114.9552571327195
 72
     1
 10
107.2899196780386
 20
-114.9552571327195
 11
107.2899196780386
 21
-114.8474256440312
 97
        0
 92
        1
 93
        1
 72
     4
 94
        3
 73
     0
 74
     1
 95
       74
 96
       70
 40
0.0
 40
0.0
 40
0.0
 40
0.0
 40
1.0
 40
1.0
 40
1.0
 40
2.0
 40
2.0
 40
2.0
 40
3.0
 40
3.0
 40
3.0
 40
4.0
 40
4.0
 40
4.0
 40
5.0
 40
5.0
 40
5.0
 40
6.0
 40
6.0
 40
6.0
 40
7.0
 40
7.0
 40
7.0
 40
8.0
 40
8.0
 40
8.0
 40
9.0
 40
9.0
 40
9.0
 40
10.0
 40
10.0
 40
10.0
 40
11.0
 40
11.0
 40
11.0
 40
12.0
 40
12.0
 40
12.0
 40
13.0
 40
13.0
 40
13.0
 40
14.0
 40
14.0
 40
14.0
 40
15.0
 40
15.0
 40
15.0
 40
16.0
 40
16.0
 40
16.0
 40
17.0
 40
17.0
 40
17.0
 40
18.0
 40
18.0
 40
18.0
 40
19.0
 40
19.0
 40
19.0
 40
20.0
 40
20.0
 40
20.0
 40
21.0
 40
21.0
 40
21.0
 40
22.0
 40
22.0
 40
22.0
 40
23.0
 40
23.0
 40
23.0
 40
23.0
 10
107.6075574817787
 20
-113.9038139906213
 10
107.6075574817787
 20
-113.9038139906213
 10
107.4466715226175
 20
-113.9038139906213
 10
107.4466715226175
 20
-113.9038139906213
 10
107.4466715226175
 20
-113.9038139906213
 10
107.4466715226175
 20
-114.017846651183
 10
107.4466715226175
 20
-114.017846651183
 10
107.4466715226175
 20
-114.0581542683605
 10
107.4532172040395
 20
-114.1322238212933
 10
107.4573513186218
 20
-114.1577175278842
 10
107.4573513186218
 20
-114.1577175278842
 10
107.2458224558274
 20
-114.1577175278842
 10
107.2458224558274
 20
-114.1577175278842
 10
107.2561577422832
 20
-114.0919162041159
 10
107.2582247995743
 20
-114.0326605617696
 10
107.2582247995743
 20
-114.0305935044785
 10
107.2582247995743
 20
-114.0305935044785
 10
107.2582247995743
 20
-113.9079481052036
 10
107.2582247995743
 20
-113.9079481052036
 10
107.2582247995743
 20
-113.9079481052036
 10
107.0783908152443
 20
-113.9079481052036
 10
107.0783908152443
 20
-113.9079481052036
 10
107.0597872996239
 20
-113.9672037475499
 10
107.0129340010245
 20
-114.1132757961245
 10
106.8985568309143
 20
-114.1956135782219
 10
106.8985568309143
 20
-114.1956135782219
 10
106.7421494958839
 20
-114.0898491468248
 10
106.7421494958839
 20
-114.0898491468248
 10
106.8162190488168
 20
-114.0433403577739
 10
106.9326632762182
 20
-113.969270804841
 10
106.9326632762182
 20
-113.6478433960672
 10
106.9326632762182
 20
-113.5927218683032
 10
106.9281846520874
 20
-113.5482801365435
 10
106.9261175947963
 20
-113.5103840862057
 10
107.0025987145688
 20
-113.5186523153703
 10
107.0763237579531
 20
-113.5251979967923
 10
107.1397135148817
 20
-113.5251979967923
 10
107.3174804419206
 20
-113.5251979967923
 10
107.5166069609681
 20
-113.465942354446
 10
107.5779296606055
 20
-113.4363145332729
 10
107.5779296606055
 20
-113.4363145332729
 10
107.7047091744627
 20
-113.5717067858432
 10
107.7047091744627
 20
-113.5717067858432
 10
107.708843289045
 20
-113.5758409004255
 10
107.7109103463362
 20
-113.5844536391386
 10
107.7109103463362
 20
-113.5906548110121
 10
107.7109103463362
 20
-113.6116698934721
 10
107.6964409452981
 20
-113.6182155748941
 10
107.6792154678719
 20
-113.6182155748941
 10
107.6582003854118
 20
-113.6182155748941
 10
107.6433864748253
 20
-113.6096028361809
 10
107.6244384496564
 20
-113.5992675497252
 10
107.4511501467483
 20
-113.6561116252318
 10
107.233075602532
 20
-113.6816053318227
 10
107.0997504072528
 20
-113.6836723891138
 10
107.0997504072528
 20
-113.6836723891138
 10
107.0956162926705
 20
-113.7663546807598
 10
107.0956162926705
 20
-113.7663546807598
 10
107.0956162926705
 20
-113.7663546807598
 10
107.3684678551023
 20
-113.7663546807598
 10
107.3684678551023
 20
-113.7663546807598
 10
107.4256564401575
 20
-113.7663546807598
 10
107.687828206585
 20
-113.7470621460424
 10
107.7322699383447
 20
-113.740860974169
 10
107.7322699383447
 20
-113.740860974169
 10
107.7322699383447
 20
-113.9100151624947
 10
107.7322699383447
 20
-113.9100151624947
 10
107.6985080025893
 20
-113.9058810479124
 10
107.6857611492938
 20
-113.9038139906213
 10
107.6075574817787
 20
-113.9038139906213
 97
        0
 97
        0
 75
     2
 76
     1
 98
        0
  0
ENDBLK
  5
17C
330
179
100
AcDbEntity
  8
0
100
AcDbBlockEnd
  0
ENDSEC
  0
SECTION
  2
ENTITIES
  0
POLYLINE
  5
41
330
1F
100
AcDbEntity
  8
_U+30EC_U+30A4_U+30E4_U+30FC 1
 62
   179
420
  2234388
370
    25
100
AcDb2dPolyline
 66
     1
 10
0.0
 20
0.0
 30
0.0
  0
VERTEX
  5
42
330
41
100
AcDbEntity
  8
_U+30EC_U+30A4_U+30E4_U+30FC 1
 62
   179
420
  2234388
370
    25
100
AcDbVertex
100
AcDb2dVertex
 10
78.4289891102209
 20
-138.0590894099294
 30
0.0
  0
VERTEX
  5
43
330
41
100
AcDbEntity
  8
_U+30EC_U+30A4_U+30E4_U+30FC 1
 62
   179
420
  2234388
370
    25
100
AcDbVertex
100
AcDb2dVertex
 10
82.5541253938688
 20
-138.0590894099294
 30
0.0
  0
SEQEND
  5
44
330
41
100
AcDbEntity
  8
_U+30EC_U+30A4_U+30E4_U+30FC 1
 62
   179
420
  2234388
370
    25
  0
POLYLINE
  5
45
330
1F
100
AcDbEntity
  8
_U+30EC_U+30A4_U+30E4_U+30FC 1
 62
   179
420
  2234388
370
    25
100
AcDb2dPolyline
 66
     1
 10
0.0
 20
0.0
 30
0.0
  0
VERTEX
  5
46
330
45
100
AcDbEntity
  8
_U+30EC_U+30A4_U+30E4_U+30FC 1
 62
   179
420
  2234388
370
    25
100
AcDbVertex
100
AcDb2dVertex
 10
83.3044837080589
 20
-138.0590894099294
 30
0.0
  0
VERTEX
  5
47
330
45
100
AcDbEntity
  8
_U+30EC_U+30A4_U+30E4_U+30FC 1
 62
   179
420
  2234388
370
    25
100
AcDbVertex
100
AcDb2dVertex
 10
87.42962220036493
 20
-138.0590894099294
 30
0.0
  0
SEQEND
  5
48
330
45
100
AcDbEntity
  8
_U+30EC_U+30A4_U+30E4_U+30FC 1
 62
   179
420
  2234388
370
    25
  0
POLYLINE
  5
49
330
1F
100
AcDbEntity
  8
_U+30EC_U+30A4_U+30E4_U+30FC 1
  6
AI-Linetype-1
 62
   179
420
  2234388
370
     9
100
AcDb2dPolyline
 66
     1
 10
0.0
 20
0.0
 30
0.0
  0
VERTEX
  5
4A
330
49
100
AcDbEntity
  8
_U+30EC_U+30A4_U+30E4_U+30FC 1
  6
AI-Linetype-1
 62
   179
420
  2234388
370
     9
100
AcDbVertex
100
AcDb2dVertex
 10
82.92965732873263
 20
-135.2472035772991
 30
0.0
  0
VERTEX
  5
4B
330
49
100
AcDbEntity
  8
_U+30EC_U+30A4_U+30E4_U+30FC 1
  6
AI-Linetype-1
 62
   179
420
  2234388
370
     9
100
AcDbVertex
100
AcDb2dVertex
 10
82.92965732873263
 20
-138.5166069098155
 30
0.0
  0
SEQEND
  5
4D
330
49
100
AcDbEntity
  8
_U+30EC_U+30A4_U+30E4_U+30FC 1
  6
AI-Linetype-1
 62
   179
420
  2234388
370
     9
  0
SPLINE
  5
4E
330
1F
100
AcDbEntity
  8
_U+30EC_U+30A4_U+30E4_U+30FC 1
 62
   179
420
  2234388
370
    25
100
AcDbSpline
210
0.0
220
0.0
230
1.0
 70
     8
 71
     3
 72
    11
 73
     7
 74
     0
 42
0.0000000001
 43
0.0000000001
 12
1.0
 22
0.0
 32
0.0
 13
1.0
 23
0.0
 33
0.0
 40
0.0
 40
0.0
 40
0.0
 40
0.0
 40
1.0
 40
1.0
 40
1.0
 40
2.0
 40
2.0
 40
2.0
 40
2.0
 10
82.5541253938688
 20
-138.0590894099294
 30
0.0
 10
82.64094400276498
 20
-138.265817187656
 30
0.0
 10
82.87864566336738
 20
-138.3636424654092
 30
0.0
 10
83.08537343587109
 20
-138.2775294098752
 30
0.0
 10
83.18457454445137
 20
-138.2361838543298
 30
0.0
 10
83.26313815355816
 20
-138.1576202432382
 30
0.0
 10
83.3044837080589
 20
-138.0590894099294
 30
0.0
  0
SPLINE
  5
4F
330
1F
100
AcDbEntity
  8
_U+30EC_U+30A4_U+30E4_U+30FC 1
 62
   179
420
  2234388
370
    25
100
AcDbSpline
210
0.0
220
0.0
230
1.0
 70
    11
 71
     3
 72
    53
 73
    49
 74
     0
 42
0.0000000001
 43
0.0000000001
 12
1.0
 22
0.0
 32
0.0
 13
1.0
 23
0.0
 33
0.0
 40
0.0
 40
0.0
 40
0.0
 40
0.0
 40
1.0
 40
1.0
 40
1.0
 40
2.0
 40
2.0
 40
2.0
 40
3.0
 40
3.0
 40
3.0
 40
4.0
 40
4.0
 40
4.0
 40
5.0
 40
5.0
 40
5.0
 40
6.0
 40
6.0
 40
6.0
 40
7.0
 40
7.0
 40
7.0
 40
8.0
 40
8.0
 40
8.0
 40
9.0
 40
9.0
 40
9.0
 40
10.0
 40
10.0
 40
10.0
 40
11.0
 40
11.0
 40
11.0
 40
12.0
 40
12.0
 40
12.0
 40
13.0
 40
13.0
 40
13.0
 40
14.0
 40
14.0
 40
14.0
 40
15.0
 40
15.0
 40
15.0
 40
16.0
 40
16.0
 40
16.0
 40
16.0
 10
85.72912531286781
 20
-121.5591435807215
 30
0.0
 10
85.72912531286781
 20
-121.5591435807215
 30
0.0
 10
91.17859164387197
 20
-121.5591435807215
 30
0.0
 10
91.17859164387197
 20
-121.5591435807215
 30
0.0
 10
91.57613460814261
 20
-121.7748319140008
 30
0.0
 10
91.78078331038787
 20
-122.1503285805737
 30
0.0
 10
91.78078331038787
 20
-122.6340221915636
 30
0.0
 10
91.78078331038787
 20
-123.0012638581386
 30
0.0
 10
91.4721027549095
 20
-123.2513833025204
 30
0.0
 10
91.4721027549095
 20
-123.2513833025204
 30
0.0
 10
91.4721027549095
 20
-123.2513833025204
 30
0.0
 10
91.4721027549095
 20
-123.9252594134632
 30
0.0
 10
91.4721027549095
 20
-123.9252594134632
 30
0.0
 10
91.45488488901373
 20
-123.9886535801139
 30
0.0
 10
91.44246942158395
 20
-124.0540938578755
 30
0.0
 10
91.44246942158395
 20
-124.122991357858
 30
0.0
 10
91.44246942158395
 20
-124.5371171910881
 30
0.0
 10
91.77873488075163
 20
-124.8726441354484
 30
0.0
 10
92.19282775472983
 20
-124.8726441354484
 30
0.0
 10
92.60691597073408
 20
-124.8726441354484
 30
0.0
 10
92.9424805323202
 20
-124.5371171910881
 30
0.0
 10
92.9424805323202
 20
-124.122991357858
 30
0.0
 10
92.9424805323202
 20
-123.9018349690247
 30
0.0
 10
92.84532318687403
 20
-123.7047733024072
 30
0.0
 10
92.69306664349355
 20
-123.5676485802191
 30
0.0
 10
92.69306664349355
 20
-123.5676485802191
 30
0.0
 10
92.69306664349355
 20
-121.5591435807215
 30
0.0
 10
92.69306664349355
 20
-121.5591435807215
 30
0.0
 10
92.69306664349355
 20
-121.5591435807215
 30
0.0
 10
96.01411664266288
 20
-121.5591435807215
 30
0.0
 10
96.01411664266288
 20
-121.5591435807215
 30
0.0
 10
96.01411664266288
 20
-121.5591435807215
 30
0.0
 10
96.89606108688683
 20
-120.8094908031311
 30
0.0
 10
96.89606108688683
 20
-120.8094908031311
 30
0.0
 10
96.89606108688683
 20
-120.8094908031311
 30
0.0
 10
96.01411664266288
 20
-120.0591677477631
 30
0.0
 10
96.01411664266288
 20
-120.0591677477631
 30
0.0
 10
96.01411664266288
 20
-120.0591677477631
 30
0.0
 10
84.72868283839122
 20
-120.0591677477631
 30
0.0
 10
84.72868283839122
 20
-120.0591677477631
 30
0.0
 10
84.72868283839122
 20
-120.0591677477631
 30
0.0
 10
84.72868283839122
 20
-121.0589399697353
 30
0.0
 10
84.72868283839122
 20
-121.0589399697353
 30
0.0
 10
84.72868283839122
 20
-121.0589399697353
 30
0.0
 10
85.72912531286781
 20
-121.0589399697353
 30
0.0
 10
85.72912531286781
 20
-121.0589399697353
 30
0.0
 10
85.72912531286781
 20
-121.0589399697353
 30
0.0
 10
85.72912531286781
 20
-121.5591435807215
 30
0.0
 10
85.72912531286781
 20
-121.5591435807215
 30
0.0
  0
SPLINE
  5
50
330
1F
100
AcDbEntity
  8
_U+30EC_U+30A4_U+30E4_U+30FC 1
 62
   179
420
  2234388
370
    25
100
AcDbSpline
210
0.0
220
0.0
230
1.0
 70
     8
 71
     3
 72
   101
 73
    97
 74
     0
 42
0.0000000001
 43
0.0000000001
 12
1.0
 22
0.0
 32
0.0
 13
1.0
 23
0.0
 33
0.0
 40
0.0
 40
0.0
 40
0.0
 40
0.0
 40
1.0
 40
1.0
 40
1.0
 40
2.0
 40
2.0
 40
2.0
 40
3.0
 40
3.0
 40
3.0
 40
4.0
 40
4.0
 40
4.0
 40
5.0
 40
5.0
 40
5.0
 40
6.0
 40
6.0
 40
6.0
 40
7.0
 40
7.0
 40
7.0
 40
8.0
 40
8.0
 40
8.0
 40
9.0
 40
9.0
 40
9.0
 40
10.0
 40
10.0
 40
10.0
 40
11.0
 40
11.0
 40
11.0
 40
12.0
 40
12.0
 40
12.0
 40
13.0
 40
13.0
 40
13.0
 40
14.0
 40
14.0
 40
14.0
 40
15.0
 40
15.0
 40
15.0
 40
16.0
 40
16.0
 40
16.0
 40
17.0
 40
17.0
 40
17.0
 40
18.0
 40
18.0
 40
18.0
 40
19.0
 40
19.0
 40
19.0
 40
20.0
 40
20.0
 40
20.0
 40
21.0
 40
21.0
 40
21.0
 40
22.0
 40
22.0
 40
22.0
 40
23.0
 40
23.0
 40
23.0
 40
24.0
 40
24.0
 40
24.0
 40
25.0
 40
25.0
 40
25.0
 40
26.0
 40
26.0
 40
26.0
 40
27.0
 40
27.0
 40
27.0
 40
28.0
 40
28.0
 40
28.0
 40
29.0
 40
29.0
 40
29.0
 40
30.0
 40
30.0
 40
30.0
 40
31.0
 40
31.0
 40
31.0
 40
32.0
 40
32.0
 40
32.0
 40
32.0
 10
78.4289891102209
 20
-138.0590894099294
 30
0.0
 10
78.4289891102209
 20
-138.0590894099294
 30
0.0
 10
78.4289891102209
 20
-136.5591135769714
 30
0.0
 10
78.4289891102209
 20
-136.5591135769714
 30
0.0
 10
78.4289891102209
 20
-136.5591135769714
 30
0.0
 10
77.429216913505
 20
-136.5591135769714
 30
0.0
 10
77.429216913505
 20
-136.5591135769714
 30
0.0
 10
77.429216913505
 20
-136.5591135769714
 30
0.0
 10
77.429216913505
 20
-139.0595671874575
 30
0.0
 10
77.429216913505
 20
-139.0595671874575
 30
0.0
 10
77.429216913505
 20
-139.0595671874575
 30
0.0
 10
94.92889924482868
 20
-139.0595671874575
 30
0.0
 10
94.92889924482868
 20
-139.0595671874575
 30
0.0
 10
94.92889924482868
 20
-139.0595671874575
 30
0.0
 10
94.92889924482868
 20
-122.5596213582489
 30
0.0
 10
94.92889924482868
 20
-122.5596213582489
 30
0.0
 10
94.92889924482868
 20
-122.5596213582489
 30
0.0
 10
98.928658309453
 20
-122.5596213582489
 30
0.0
 10
98.928658309453
 20
-122.5596213582489
 30
0.0
 10
98.928658309453
 20
-122.5596213582489
 30
0.0
 10
98.928658309453
 20
-123.5593935802211
 30
0.0
 10
98.928658309453
 20
-123.5593935802211
 30
0.0
 10
98.928658309453
 20
-123.5593935802211
 30
0.0
 10
99.92913606170646
 20
-123.5593935802211
 30
0.0
 10
99.92913606170646
 20
-123.5593935802211
 30
0.0
 10
99.92913606170646
 20
-123.5593935802211
 30
0.0
 10
99.92913606170646
 20
-120.0591677477631
 30
0.0
 10
99.92913606170646
 20
-120.0591677477631
 30
0.0
 10
99.92913606170646
 20
-120.0591677477631
 30
0.0
 10
98.928658309453
 20
-120.0591677477631
 30
0.0
 10
98.928658309453
 20
-120.0591677477631
 30
0.0
 10
98.928658309453
 20
-120.0591677477631
 30
0.0
 10
98.928658309453
 20
-121.059610247513
 30
0.0
 10
98.928658309453
 20
-121.059610247513
 30
0.0
 10
98.928658309453
 20
-121.059610247513
 30
0.0
 10
97.92892139051396
 20
-121.059610247513
 30
0.0
 10
97.92892139051396
 20
-121.059610247513
 30
0.0
 10
97.92892139051396
 20
-121.059610247513
 30
0.0
 10
97.92892139051396
 20
-121.5591435807215
 30
0.0
 10
97.92892139051396
 20
-121.5591435807215
 30
0.0
 10
97.92892139051396
 20
-121.5591435807215
 30
0.0
 10
94.26539719865615
 20
-121.5591435807215
 30
0.0
 10
94.26539719865615
 20
-121.5591435807215
 30
0.0
 10
94.00010830983342
 20
-121.5591435807215
 30
0.0
 10
93.42892344976292
 20
-121.9608516361764
 30
0.0
 10
93.42892344976292
 20
-122.618888024901
 30
0.0
 10
93.42892344976292
 20
-123.2768891358473
 30
0.0
 10
93.92916232588965
 20
-123.5593935802211
 30
0.0
 10
93.92916232588965
 20
-123.5593935802211
 30
0.0
 10
93.92916232588965
 20
-123.5593935802211
 30
0.0
 10
93.92916232588965
 20
-125.8965463574146
 30
0.0
 10
93.92916232588965
 20
-125.8965463574146
 30
0.0
 10
93.92916232588965
 20
-125.8965463574146
 30
0.0
 10
91.42871108825382
 20
-125.8965463574146
 30
0.0
 10
91.42871108825382
 20
-125.8965463574146
 30
0.0
 10
91.15308350782443
 20
-125.8965463574146
 30
0.0
 10
90.92917775504563
 20
-125.6733085796929
 30
0.0
 10
90.92917775504563
 20
-125.3970130242064
 30
0.0
 10
90.92917775504563
 20
-125.3970130242064
 30
0.0
 10
90.92917775504563
 20
-123.0591546914574
 30
0.0
 10
90.92917775504563
 20
-123.0591546914574
 30
0.0
 10
91.20476545095036
 20
-123.0591546914574
 30
0.0
 10
91.42871108825382
 20
-122.8359169137353
 30
0.0
 10
91.42871108825382
 20
-122.5596213582489
 30
0.0
 10
91.42871108825382
 20
-122.2833258027625
 30
0.0
 10
91.20476545095036
 20
-122.0593824694852
 30
0.0
 10
90.92917775504563
 20
-122.0593824694852
 30
0.0
 10
90.92917775504563
 20
-122.0593824694852
 30
0.0
 10
89.9286999775179
 20
-122.0593824694852
 30
0.0
 10
89.9286999775179
 20
-122.0593824694852
 30
0.0
 10
89.9286999775179
 20
-122.0593824694852
 30
0.0
 10
89.9286999775179
 20
-125.8965463574146
 30
0.0
 10
89.9286999775179
 20
-125.8965463574146
 30
0.0
 10
89.9286999775179
 20
-126.4491374683878
 30
0.0
 10
90.37654908319104
 20
-126.8969888571645
 30
0.0
 10
90.92917775504563
 20
-126.8969888571645
 30
0.0
 10
90.92917775504563
 20
-126.8969888571645
 30
0.0
 10
93.42892344976292
 20
-126.8969888571645
 30
0.0
 10
93.42892344976292
 20
-126.8969888571645
 30
0.0
 10
93.42892344976292
 20
-126.8969888571645
 30
0.0
 10
93.42892344976292
 20
-137.0593171879576
 30
0.0
 10
93.42892344976292
 20
-137.0593171879576
 30
0.0
 10
93.42892344976292
 20
-137.6119435767079
 30
0.0
 10
92.98107207229967
 20
-138.0590894099294
 30
0.0
 10
92.42915125304701
 20
-138.0590894099294
 30
0.0
 10
92.42915125304701
 20
-138.0590894099294
 30
0.0
 10
88.42939442233715
 20
-138.0590894099294
 30
0.0
 10
88.42939442233715
 20
-138.0590894099294
 30
0.0
 10
88.42939442233715
 20
-138.0590894099294
 30
0.0
 10
88.42939442233715
 20
-136.5591135769714
 30
0.0
 10
88.42939442233715
 20
-136.5591135769714
 30
0.0
 10
88.42939442233715
 20
-136.5591135769714
 30
0.0
 10
87.42894971394611
 20
-136.5591135769714
 30
0.0
 10
87.42894971394611
 20
-136.5591135769714
 30
0.0
 10
87.42894971394611
 20
-136.5591135769714
 30
0.0
 10
87.42894971394611
 20
-138.0590894099294
 30
0.0
 10
87.42894971394611
 20
-138.0590894099294
 30
0.0
  0
POLYLINE
  5
51
330
1F
100
AcDbEntity
  8
_U+30EC_U+30A4_U+30E4_U+30FC 1
 62
   179
420
  2234388
370
    25
100
AcDb2dPolyline
 66
     1
 10
0.0
 20
0.0
 30
0.0
  0
VERTEX
  5
52
330
51
100
AcDbEntity
  8
_U+30EC_U+30A4_U+30E4_U+30FC 1
 62
   179
420
  2234388
370
    25
100
AcDbVertex
100
AcDb2dVertex
 10
98.928658309453
 20
-121.059610247513
 30
0.0
  0
VERTEX
  5
53
330
51
100
AcDbEntity
  8
_U+30EC_U+30A4_U+30E4_U+30FC 1
 62
   179
420
  2234388
370
    25
100
AcDbVertex
100
AcDb2dVertex
 10
95.9286714415446
 20
-121.059610247513
 30
0.0
  0
VERTEX
  5
54
330
51
100
AcDbEntity
  8
_U+30EC_U+30A4_U+30E4_U+30FC 1
 62
   179
420
  2234388
370
    25
100
AcDbVertex
100
AcDb2dVertex
 10
95.9286714415446
 20
-120.5594066365268
 30
0.0
  0
VERTEX
  5
55
330
51
100
AcDbEntity
  8
_U+30EC_U+30A4_U+30E4_U+30FC 1
 62
   179
420
  2234388
370
    25
100
AcDbVertex
100
AcDb2dVertex
 10
98.928658309453
 20
-120.5594066365268
 30
0.0
  0
VERTEX
  5
56
330
51
100
AcDbEntity
  8
_U+30EC_U+30A4_U+30E4_U+30FC 1
 62
   179
420
  2234388
370
    25
100
AcDbVertex
100
AcDb2dVertex
 10
98.928658309453
 20
-121.059610247513
 30
0.0
  0
SEQEND
  5
58
330
51
100
AcDbEntity
  8
_U+30EC_U+30A4_U+30E4_U+30FC 1
 62
   179
420
  2234388
370
    25
  0
HATCH
  5
57
330
1F
100
AcDbEntity
  8
_U+30EC_U+30A4_U+30E4_U+30FC 1
 62
     7
420
 16711422
100
AcDbHatch
 10
0.0
 20
0.0
 30
0.0
210
0.0
220
0.0
230
1.0
  2
SOLID
 70
     1
 71
     0
 91
        1
 92
        1
 93
        4
 72
     1
 10
98.928658309453
 20
-121.059610247513
 11
95.9286714415446
 21
-121.059610247513
 72
     1
 10
95.9286714415446
 20
-121.059610247513
 11
95.9286714415446
 21
-120.5594066365268
 72
     1
 10
95.9286714415446
 20
-120.5594066365268
 11
98.928658309453
 21
-120.5594066365268
 72
     1
 10
98.928658309453
 20
-120.5594066365268
 11
98.928658309453
 21
-121.059610247513
 97
        0
 75
     2
 76
     1
 98
        0
  0
SPLINE
  5
59
330
1F
100
AcDbEntity
  8
_U+30EC_U+30A4_U+30E4_U+30FC 1
 62
   179
420
  2234388
370
     9
100
AcDbSpline
210
0.0
220
0.0
230
1.0
 70
    11
 71
     3
 72
    17
 73
    13
 74
     0
 42
0.0000000001
 43
0.0000000001
 12
1.0
 22
0.0
 32
0.0
 13
1.0
 23
0.0
 33
0.0
 40
0.0
 40
0.0
 40
0.0
 40
0.0
 40
1.0
 40
1.0
 40
1.0
 40
2.0
 40
2.0
 40
2.0
 40
3.0
 40
3.0
 40
3.0
 40
4.0
 40
4.0
 40
4.0
 40
4.0
 10
84.82859164545947
 20
-115.5240330266744
 30
0.0
 10
84.82859164545947
 20
-115.4689291377995
 30
0.0
 10
84.78449442324826
 20
-115.4241263600328
 30
0.0
 10
84.72868283839122
 20
-115.4241263600328
 30
0.0
 10
84.67354367313126
 20
-115.4241263600328
 30
0.0
 10
84.62877617427338
 20
-115.4689291377995
 30
0.0
 10
84.62877617427338
 20
-115.5240330266744
 30
0.0
 10
84.62877617427338
 20
-115.578466637772
 30
0.0
 10
84.67354367313126
 20
-115.6239396933164
 30
0.0
 10
84.72868283839122
 20
-115.6239396933164
 30
0.0
 10
84.78449442324826
 20
-115.6239396933164
 30
0.0
 10
84.82859164545947
 20
-115.578466637772
 30
0.0
 10
84.82859164545947
 20
-115.5240330266744
 30
0.0
  0
SPLINE
  5
5A
330
1F
100
AcDbEntity
  8
_U+30EC_U+30A4_U+30E4_U+30FC 1
 62
   179
420
  2234388
370
     9
100
AcDbSpline
210
0.0
220
0.0
230
1.0
 70
    11
 71
     3
 72
    17
 73
    13
 74
     0
 42
0.0000000001
 43
0.0000000001
 12
1.0
 22
0.0
 32
0.0
 13
1.0
 23
0.0
 33
0.0
 40
0.0
 40
0.0
 40
0.0
 40
0.0
 40
1.0
 40
1.0
 40
1.0
 40
2.0
 40
2.0
 40
2.0
 40
3.0
 40
3.0
 40
3.0
 40
4.0
 40
4.0
 40
4.0
 40
4.0
 10
100.0290427258243
 20
-115.5240330266744
 30
0.0
 10
100.0290427258243
 20
-115.4689291377995
 30
0.0
 10
99.98423994918953
 20
-115.4241263600328
 30
0.0
 10
99.92913606170646
 20
-115.4241263600328
 30
0.0
 10
99.87399689644651
 20
-115.4241263600328
 30
0.0
 10
99.82922939758862
 20
-115.4689291377995
 30
0.0
 10
99.82922939758862
 20
-115.5240330266744
 30
0.0
 10
99.82922939758862
 20
-115.578466637772
 30
0.0
 10
99.87399689644651
 20
-115.6239396933164
 30
0.0
 10
99.92913606170646
 20
-115.6239396933164
 30
0.0
 10
99.98423994918953
 20
-115.6239396933164
 30
0.0
 10
100.0290427258243
 20
-115.578466637772
 30
0.0
 10
100.0290427258243
 20
-115.5240330266744
 30
0.0
  0
SPLINE
  5
5B
330
1F
100
AcDbEntity
  8
_U+30EC_U+30A4_U+30E4_U+30FC 1
 62
   179
420
  2234388
370
     9
100
AcDbSpline
210
0.0
220
0.0
230
1.0
 70
    11
 71
     3
 72
    17
 73
    13
 74
     0
 42
0.0000000001
 43
0.0000000001
 12
1.0
 22
0.0
 32
0.0
 13
1.0
 23
0.0
 33
0.0
 40
0.0
 40
0.0
 40
0.0
 40
0.0
 40
1.0
 40
1.0
 40
1.0
 40
2.0
 40
2.0
 40
2.0
 40
3.0
 40
3.0
 40
3.0
 40
4.0
 40
4.0
 40
4.0
 40
4.0
 10
74.93977003257163
 20
-120.0591677477631
 30
0.0
 10
74.93977003257163
 20
-120.00402858111
 30
0.0
 10
74.89500253371375
 20
-119.9592610811214
 30
0.0
 10
74.83986336845379
 20
-119.9592610811214
 30
0.0
 10
74.7854297587314
 20
-119.9592610811214
 30
0.0
 10
74.74066225987352
 20
-120.00402858111
 30
0.0
 10
74.74066225987352
 20
-120.0591677477631
 30
0.0
 10
74.74066225987352
 20
-120.114271636638
 30
0.0
 10
74.7854297587314
 20
-120.1590744144047
 30
0.0
 10
74.83986336845379
 20
-120.1590744144047
 30
0.0
 10
74.89500253371375
 20
-120.1590744144047
 30
0.0
 10
74.93977003257163
 20
-120.114271636638
 30
0.0
 10
74.93977003257163
 20
-120.0591677477631
 30
0.0
  0
SPLINE
  5
5C
330
1F
100
AcDbEntity
  8
_U+30EC_U+30A4_U+30E4_U+30FC 1
 62
   179
420
  2234388
370
     9
100
AcDbSpline
210
0.0
220
0.0
230
1.0
 70
    11
 71
     3
 72
    17
 73
    13
 74
     0
 42
0.0000000001
 43
0.0000000001
 12
1.0
 22
0.0
 32
0.0
 13
1.0
 23
0.0
 33
0.0
 40
0.0
 40
0.0
 40
0.0
 40
0.0
 40
1.0
 40
1.0
 40
1.0
 40
2.0
 40
2.0
 40
2.0
 40
3.0
 40
3.0
 40
3.0
 40
4.0
 40
4.0
 40
4.0
 40
4.0
 10
74.93977003257163
 20
-139.0595671874575
 30
0.0
 10
74.93977003257163
 20
-139.0044280208044
 30
0.0
 10
74.89500253371375
 20
-138.9596605208159
 30
0.0
 10
74.83986336845379
 20
-138.9596605208159
 30
0.0
 10
74.7854297587314
 20
-138.9596605208159
 30
0.0
 10
74.74066225987352
 20
-139.0044280208044
 30
0.0
 10
74.74066225987352
 20
-139.0595671874575
 30
0.0
 10
74.74066225987352
 20
-139.1146710763324
 30
0.0
 10
74.7854297587314
 20
-139.1594738540992
 30
0.0
 10
74.83986336845379
 20
-139.1594738540992
 30
0.0
 10
74.89500253371375
 20
-139.1594738540992
 30
0.0
 10
74.93977003257163
 20
-139.1146710763324
 30
0.0
 10
74.93977003257163
 20
-139.0595671874575
 30
0.0
  0
POLYLINE
  5
5D
330
1F
100
AcDbEntity
  8
_U+30EC_U+30A4_U+30E4_U+30FC 1
 62
   179
420
  2234388
370
     9
100
AcDb2dPolyline
 66
     1
 10
0.0
 20
0.0
 30
0.0
  0
VERTEX
  5
5E
330
5D
100
AcDbEntity
  8
_U+30EC_U+30A4_U+30E4_U+30FC 1
 62
   179
420
  2234388
370
     9
100
AcDbVertex
100
AcDb2dVertex
 10
77.429216913505
 20
-141.5985794090445
 30
0.0
  0
VERTEX
  5
5F
330
5D
100
AcDbEntity
  8
_U+30EC_U+30A4_U+30E4_U+30FC 1
 62
   179
420
  2234388
370
     9
100
AcDbVertex
100
AcDb2dVertex
 10
77.429216913505
 20
-144.0590632973188
 30
0.0
  0
SEQEND
  5
60
330
5D
100
AcDbEntity
  8
_U+30EC_U+30A4_U+30E4_U+30FC 1
 62
   179
420
  2234388
370
     9
  0
POLYLINE
  5
61
330
1F
100
AcDbEntity
  8
_U+30EC_U+30A4_U+30E4_U+30FC 1
 62
   179
420
  2234388
370
     9
100
AcDb2dPolyline
 66
     1
 10
0.0
 20
0.0
 30
0.0
  0
VERTEX
  5
62
330
61
100
AcDbEntity
  8
_U+30EC_U+30A4_U+30E4_U+30FC 1
 62
   179
420
  2234388
370
     9
100
AcDbVertex
100
AcDb2dVertex
 10
76.29990472009392
 20
-139.0595671874575
 30
0.0
  0
VERTEX
  5
63
330
61
100
AcDbEntity
  8
_U+30EC_U+30A4_U+30E4_U+30FC 1
 62
   179
420
  2234388
370
     9
100
AcDbVertex
100
AcDb2dVertex
 10
73.84009117173788
 20
-139.0595671874575
 30
0.0
  0
SEQEND
  5
64
330
61
100
AcDbEntity
  8
_U+30EC_U+30A4_U+30E4_U+30FC 1
 62
   179
420
  2234388
370
     9
  0
SPLINE
  5
65
330
1F
100
AcDbEntity
  8
_U+30EC_U+30A4_U+30E4_U+30FC 1
 62
   179
420
  2234388
370
     9
100
AcDbSpline
210
0.0
220
0.0
230
1.0
 70
    11
 71
     3
 72
    17
 73
    13
 74
     0
 42
0.0000000001
 43
0.0000000001
 12
1.0
 22
0.0
 32
0.0
 13
1.0
 23
0.0
 33
0.0
 40
0.0
 40
0.0
 40
0.0
 40
0.0
 40
1.0
 40
1.0
 40
1.0
 40
2.0
 40
2.0
 40
2.0
 40
3.0
 40
3.0
 40
3.0
 40
4.0
 40
4.0
 40
4.0
 40
4.0
 10
74.87570558976161
 20
-139.0595671874575
 30
0.0
 10
74.87570558976161
 20
-139.0788641318967
 30
0.0
 10
74.85986586794348
 20
-139.0947038541152
 30
0.0
 10
74.83986336845379
 20
-139.0947038541152
 30
0.0
 10
74.82127198003921
 20
-139.0947038541152
 30
0.0
 10
74.80472670268354
 20
-139.0788641318967
 30
0.0
 10
74.80472670268354
 20
-139.0595671874575
 30
0.0
 10
74.80472670268354
 20
-139.0395646874622
 30
0.0
 10
74.82127198003921
 20
-139.0244305207991
 30
0.0
 10
74.83986336845379
 20
-139.0244305207991
 30
0.0
 10
74.85986586794348
 20
-139.0244305207991
 30
0.0
 10
74.87570558976161
 20
-139.0395646874622
 30
0.0
 10
74.87570558976161
 20
-139.0595671874575
 30
0.0
  0
SPLINE
  5
66
330
1F
100
AcDbEntity
  8
_U+30EC_U+30A4_U+30E4_U+30FC 1
 62
   179
420
  2234388
370
     9
100
AcDbSpline
210
0.0
220
0.0
230
1.0
 70
    11
 71
     3
 72
    17
 73
    13
 74
     0
 42
0.0000000001
 43
0.0000000001
 12
1.0
 22
0.0
 32
0.0
 13
1.0
 23
0.0
 33
0.0
 40
0.0
 40
0.0
 40
0.0
 40
0.0
 40
1.0
 40
1.0
 40
1.0
 40
2.0
 40
2.0
 40
2.0
 40
3.0
 40
3.0
 40
3.0
 40
4.0
 40
4.0
 40
4.0
 40
4.0
 10
74.93977003257163
 20
-136.5591135769714
 30
0.0
 10
74.93977003257163
 20
-136.5046799658738
 30
0.0
 10
74.89500253371375
 20
-136.4592069103297
 30
0.0
 10
74.83986336845379
 20
-136.4592069103297
 30
0.0
 10
74.7854297587314
 20
-136.4592069103297
 30
0.0
 10
74.74066225987352
 20
-136.5046799658738
 30
0.0
 10
74.74066225987352
 20
-136.5591135769714
 30
0.0
 10
74.74066225987352
 20
-136.6142174658463
 30
0.0
 10
74.7854297587314
 20
-136.659020243613
 30
0.0
 10
74.83986336845379
 20
-136.659020243613
 30
0.0
 10
74.89500253371375
 20
-136.659020243613
 30
0.0
 10
74.93977003257163
 20
-136.6142174658463
 30
0.0
 10
74.93977003257163
 20
-136.5591135769714
 30
0.0
  0
POLYLINE
  5
67
330
1F
100
AcDbEntity
  8
_U+30EC_U+30A4_U+30E4_U+30FC 1
 62
   179
420
  2234388
370
     9
100
AcDb2dPolyline
 66
     1
 10
0.0
 20
0.0
 30
0.0
  0
VERTEX
  5
68
330
67
100
AcDbEntity
  8
_U+30EC_U+30A4_U+30E4_U+30FC 1
 62
   179
420
  2234388
370
     9
100
AcDbVertex
100
AcDb2dVertex
 10
76.29990472009392
 20
-136.5591135769714
 30
0.0
  0
VERTEX
  5
69
330
67
100
AcDbEntity
  8
_U+30EC_U+30A4_U+30E4_U+30FC 1
 62
   179
420
  2234388
370
     9
100
AcDbVertex
100
AcDb2dVertex
 10
73.84009117173788
 20
-136.5591135769714
 30
0.0
  0
SEQEND
  5
6A
330
67
100
AcDbEntity
  8
_U+30EC_U+30A4_U+30E4_U+30FC 1
 62
   179
420
  2234388
370
     9
  0
SPLINE
  5
6B
330
1F
100
AcDbEntity
  8
_U+30EC_U+30A4_U+30E4_U+30FC 1
 62
   179
420
  2234388
370
     9
100
AcDbSpline
210
0.0
220
0.0
230
1.0
 70
    11
 71
     3
 72
    17
 73
    13
 74
     0
 42
0.0000000001
 43
0.0000000001
 12
1.0
 22
0.0
 32
0.0
 13
1.0
 23
0.0
 33
0.0
 40
0.0
 40
0.0
 40
0.0
 40
0.0
 40
1.0
 40
1.0
 40
1.0
 40
2.0
 40
2.0
 40
2.0
 40
3.0
 40
3.0
 40
3.0
 40
4.0
 40
4.0
 40
4.0
 40
4.0
 10
74.87570558976161
 20
-136.5591135769714
 30
0.0
 10
74.87570558976161
 20
-136.5790807991885
 30
0.0
 10
74.85986586794348
 20
-136.5949205214071
 30
0.0
 10
74.83986336845379
 20
-136.5949205214071
 30
0.0
 10
74.82127198003921
 20
-136.5949205214071
 30
0.0
 10
74.80472670268354
 20
-136.5790807991885
 30
0.0
 10
74.80472670268354
 20
-136.5591135769714
 30
0.0
 10
74.80472670268354
 20
-136.5391110769766
 30
0.0
 10
74.82127198003921
 20
-136.5239769103136
 30
0.0
 10
74.83986336845379
 20
-136.5239769103136
 30
0.0
 10
74.85986586794348
 20
-136.5239769103136
 30
0.0
 10
74.87570558976161
 20
-136.5391110769766
 30
0.0
 10
74.87570558976161
 20
-136.5591135769714
 30
0.0
  0
POLYLINE
  5
6C
330
1F
100
AcDbEntity
  8
_U+30EC_U+30A4_U+30E4_U+30FC 1
 62
   179
420
  2234388
370
     9
100
AcDb2dPolyline
 66
     1
 10
0.0
 20
0.0
 30
0.0
  0
VERTEX
  5
6D
330
6C
100
AcDbEntity
  8
_U+30EC_U+30A4_U+30E4_U+30FC 1
 62
   179
420
  2234388
370
     9
100
AcDbVertex
100
AcDb2dVertex
 10
74.83986336845379
 20
-142.55908746436
 30
0.0
  0
VERTEX
  5
6E
330
6C
100
AcDbEntity
  8
_U+30EC_U+30A4_U+30E4_U+30FC 1
 62
   179
420
  2234388
370
     9
100
AcDbVertex
100
AcDb2dVertex
 10
74.83986336845379
 20
-116.5589419153047
 30
0.0
  0
SEQEND
  5
6F
330
6C
100
AcDbEntity
  8
_U+30EC_U+30A4_U+30E4_U+30FC 1
 62
   179
420
  2234388
370
     9
  0
POLYLINE
  5
70
330
1F
100
AcDbEntity
  8
_U+30EC_U+30A4_U+30E4_U+30FC 1
 62
   179
420
  2234388
370
     9
100
AcDb2dPolyline
 66
     1
 10
0.0
 20
0.0
 30
0.0
  0
VERTEX
  5
71
330
70
100
AcDbEntity
  8
_U+30EC_U+30A4_U+30E4_U+30FC 1
 62
   179
420
  2234388
370
     9
100
AcDbVertex
100
AcDb2dVertex
 10
82.22889956883266
 20
-120.0591677477631
 30
0.0
  0
VERTEX
  5
72
330
70
100
AcDbEntity
  8
_U+30EC_U+30A4_U+30E4_U+30FC 1
 62
   179
420
  2234388
370
     9
100
AcDbVertex
100
AcDb2dVertex
 10
73.84009117173788
 20
-120.0591677477631
 30
0.0
  0
SEQEND
  5
73
330
70
100
AcDbEntity
  8
_U+30EC_U+30A4_U+30E4_U+30FC 1
 62
   179
420
  2234388
370
     9
  0
INSERT
  5
75
330
1F
100
AcDbEntity
  8
_U+30EC_U+30A4_U+30E4_U+30FC 1
100
AcDbBlockReference
  2
block 2
 10
0.0
 20
0.0
 30
0.0
  0
INSERT
  5
87
330
1F
100
AcDbEntity
  8
_U+30EC_U+30A4_U+30E4_U+30FC 1
100
AcDbBlockReference
  2
block 3
 10
0.0
 20
0.0
 30
0.0
  0
INSERT
  5
97
330
1F
100
AcDbEntity
  8
_U+30EC_U+30A4_U+30E4_U+30FC 1
100
AcDbBlockReference
  2
block 4
 10
0.0
 20
0.0
 30
0.0
  0
SPLINE
  5
A6
330
1F
100
AcDbEntity
  8
_U+30EC_U+30A4_U+30E4_U+30FC 1
 62
   179
420
  2234388
370
     9
100
AcDbSpline
210
0.0
220
0.0
230
1.0
 70
    11
 71
     3
 72
    17
 73
    13
 74
     0
 42
0.0000000001
 43
0.0000000001
 12
1.0
 22
0.0
 32
0.0
 13
1.0
 23
0.0
 33
0.0
 40
0.0
 40
0.0
 40
0.0
 40
0.0
 40
1.0
 40
1.0
 40
1.0
 40
2.0
 40
2.0
 40
2.0
 40
3.0
 40
3.0
 40
3.0
 40
4.0
 40
4.0
 40
4.0
 40
4.0
 10
74.87570558976161
 20
-120.0591677477631
 30
0.0
 10
74.87570558976161
 20
-120.0791349699803
 30
0.0
 10
74.85986586794348
 20
-120.0943044144208
 30
0.0
 10
74.83986336845379
 20
-120.0943044144208
 30
0.0
 10
74.82127198003921
 20
-120.0943044144208
 30
0.0
 10
74.80472670268354
 20
-120.0791349699803
 30
0.0
 10
74.80472670268354
 20
-120.0591677477631
 30
0.0
 10
74.80472670268354
 20
-120.0398708033232
 30
0.0
 10
74.82127198003921
 20
-120.024031081105
 30
0.0
 10
74.83986336845379
 20
-120.024031081105
 30
0.0
 10
74.85986586794348
 20
-120.024031081105
 30
0.0
 10
74.87570558976161
 20
-120.0398708033232
 30
0.0
 10
74.87570558976161
 20
-120.0591677477631
 30
0.0
  0
SPLINE
  5
A7
330
1F
100
AcDbEntity
  8
_U+30EC_U+30A4_U+30E4_U+30FC 1
 62
   179
420
  2234388
370
     9
100
AcDbSpline
210
0.0
220
0.0
230
1.0
 70
    11
 71
     3
 72
    17
 73
    13
 74
     0
 42
0.0000000001
 43
0.0000000001
 12
1.0
 22
0.0
 32
0.0
 13
1.0
 23
0.0
 33
0.0
 40
0.0
 40
0.0
 40
0.0
 40
0.0
 40
1.0
 40
1.0
 40
1.0
 40
2.0
 40
2.0
 40
2.0
 40
3.0
 40
3.0
 40
3.0
 40
4.0
 40
4.0
 40
4.0
 40
4.0
 10
74.93977003257163
 20
-121.5591435807215
 30
0.0
 10
74.93977003257163
 20
-121.5040396918462
 30
0.0
 10
74.89500253371375
 20
-121.4592369140795
 30
0.0
 10
74.83986336845379
 20
-121.4592369140795
 30
0.0
 10
74.7854297587314
 20
-121.4592369140795
 30
0.0
 10
74.74066225987352
 20
-121.5040396918462
 30
0.0
 10
74.74066225987352
 20
-121.5591435807215
 30
0.0
 10
74.74066225987352
 20
-121.6142827473742
 30
0.0
 10
74.7854297587314
 20
-121.6590855251406
 30
0.0
 10
74.83986336845379
 20
-121.6590855251406
 30
0.0
 10
74.89500253371375
 20
-121.6590855251406
 30
0.0
 10
74.93977003257163
 20
-121.6142827473742
 30
0.0
 10
74.93977003257163
 20
-121.5591435807215
 30
0.0
  0
POLYLINE
  5
A8
330
1F
100
AcDbEntity
  8
_U+30EC_U+30A4_U+30E4_U+30FC 1
 62
   179
420
  2234388
370
     9
100
AcDb2dPolyline
 66
     1
 10
0.0
 20
0.0
 30
0.0
  0
VERTEX
  5
A9
330
A8
100
AcDbEntity
  8
_U+30EC_U+30A4_U+30E4_U+30FC 1
 62
   179
420
  2234388
370
     9
100
AcDbVertex
100
AcDb2dVertex
 10
83.22867176554857
 20
-121.5591435807215
 30
0.0
  0
VERTEX
  5
AA
330
A8
100
AcDbEntity
  8
_U+30EC_U+30A4_U+30E4_U+30FC 1
 62
   179
420
  2234388
370
     9
100
AcDbVertex
100
AcDb2dVertex
 10
73.84009117173788
 20
-121.5591435807215
 30
0.0
  0
SEQEND
  5
AB
330
A8
100
AcDbEntity
  8
_U+30EC_U+30A4_U+30E4_U+30FC 1
 62
   179
420
  2234388
370
     9
  0
SPLINE
  5
AC
330
1F
100
AcDbEntity
  8
_U+30EC_U+30A4_U+30E4_U+30FC 1
 62
   179
420
  2234388
370
     9
100
AcDbSpline
210
0.0
220
0.0
230
1.0
 70
    11
 71
     3
 72
    17
 73
    13
 74
     0
 42
0.0000000001
 43
0.0000000001
 12
1.0
 22
0.0
 32
0.0
 13
1.0
 23
0.0
 33
0.0
 40
0.0
 40
0.0
 40
0.0
 40
0.0
 40
1.0
 40
1.0
 40
1.0
 40
2.0
 40
2.0
 40
2.0
 40
3.0
 40
3.0
 40
3.0
 40
4.0
 40
4.0
 40
4.0
 40
4.0
 10
74.87570558976161
 20
-121.5591435807215
 30
0.0
 10
74.87570558976161
 20
-121.5791460807162
 30
0.0
 10
74.85986586794348
 20
-121.594315525157
 30
0.0
 10
74.83986336845379
 20
-121.594315525157
 30
0.0
 10
74.82127198003921
 20
-121.594315525157
 30
0.0
 10
74.80472670268354
 20
-121.5791460807162
 30
0.0
 10
74.80472670268354
 20
-121.5591435807215
 30
0.0
 10
74.80472670268354
 20
-121.5398819140595
 30
0.0
 10
74.82127198003921
 20
-121.5240069140634
 30
0.0
 10
74.83986336845379
 20
-121.5240069140634
 30
0.0
 10
74.85986586794348
 20
-121.5240069140634
 30
0.0
 10
74.87570558976161
 20
-121.5398819140595
 30
0.0
 10
74.87570558976161
 20
-121.5591435807215
 30
0.0
  0
POLYLINE
  5
AD
330
1F
100
AcDbEntity
  8
_U+30EC_U+30A4_U+30E4_U+30FC 1
 62
   179
420
  2234388
370
     9
100
AcDb2dPolyline
 66
     1
 10
0.0
 20
0.0
 30
0.0
  0
VERTEX
  5
AE
330
AD
100
AcDbEntity
  8
_U+30EC_U+30A4_U+30E4_U+30FC 1
 62
   179
420
  2234388
370
     9
100
AcDbVertex
100
AcDb2dVertex
 10
84.72868283839122
 20
-115.5240330266744
 30
0.0
  0
VERTEX
  5
AF
330
AD
100
AcDbEntity
  8
_U+30EC_U+30A4_U+30E4_U+30FC 1
 62
   179
420
  2234388
370
     9
100
AcDbVertex
100
AcDb2dVertex
 10
99.92843050616891
 20
-115.5240330266744
 30
0.0
  0
SEQEND
  5
B0
330
AD
100
AcDbEntity
  8
_U+30EC_U+30A4_U+30E4_U+30FC 1
 62
   179
420
  2234388
370
     9
  0
POLYLINE
  5
B1
330
1F
100
AcDbEntity
  8
_U+30EC_U+30A4_U+30E4_U+30FC 1
 62
   179
420
  2234388
370
     9
100
AcDb2dPolyline
 66
     1
 10
0.0
 20
0.0
 30
0.0
  0
VERTEX
  5
B2
330
B1
100
AcDbEntity
  8
_U+30EC_U+30A4_U+30E4_U+30FC 1
 62
   179
420
  2234388
370
     9
100
AcDbVertex
100
AcDb2dVertex
 10
84.72868283839122
 20
-116.9840744151985
 30
0.0
  0
VERTEX
  5
B3
330
B1
100
AcDbEntity
  8
_U+30EC_U+30A4_U+30E4_U+30FC 1
 62
   179
420
  2234388
370
     9
100
AcDbVertex
100
AcDb2dVertex
 10
84.72868283839122
 20
-114.5235905269245
 30
0.0
  0
SEQEND
  5
B4
330
B1
100
AcDbEntity
  8
_U+30EC_U+30A4_U+30E4_U+30FC 1
 62
   179
420
  2234388
370
     9
  0
POLYLINE
  5
B5
330
1F
100
AcDbEntity
  8
_U+30EC_U+30A4_U+30E4_U+30FC 1
 62
   179
420
  2234388
370
     9
100
AcDb2dPolyline
 66
     1
 10
0.0
 20
0.0
 30
0.0
  0
VERTEX
  5
B6
330
B5
100
AcDbEntity
  8
_U+30EC_U+30A4_U+30E4_U+30FC 1
 62
   179
420
  2234388
370
     9
100
AcDbVertex
100
AcDb2dVertex
 10
99.92913606170646
 20
-116.9840744151985
 30
0.0
  0
VERTEX
  5
B7
330
B5
100
AcDbEntity
  8
_U+30EC_U+30A4_U+30E4_U+30FC 1
 62
   179
420
  2234388
370
     9
100
AcDbVertex
100
AcDb2dVertex
 10
99.92913606170646
 20
-114.5235905269245
 30
0.0
  0
SEQEND
  5
B8
330
B5
100
AcDbEntity
  8
_U+30EC_U+30A4_U+30E4_U+30FC 1
 62
   179
420
  2234388
370
     9
  0
INSERT
  5
BA
330
1F
100
AcDbEntity
  8
_U+30EC_U+30A4_U+30E4_U+30FC 1
100
AcDbBlockReference
  2
block 5
 10
0.0
 20
0.0
 30
0.0
  0
SPLINE
  5
CB
330
1F
100
AcDbEntity
  8
_U+30EC_U+30A4_U+30E4_U+30FC 1
 62
   179
420
  2234388
370
     9
100
AcDbSpline
210
0.0
220
0.0
230
1.0
 70
    11
 71
     3
 72
    17
 73
    13
 74
     0
 42
0.0000000001
 43
0.0000000001
 12
1.0
 22
0.0
 32
0.0
 13
1.0
 23
0.0
 33
0.0
 40
0.0
 40
0.0
 40
0.0
 40
0.0
 40
1.0
 40
1.0
 40
1.0
 40
2.0
 40
2.0
 40
2.0
 40
3.0
 40
3.0
 40
3.0
 40
4.0
 40
4.0
 40
4.0
 40
4.0
 10
99.96427272747671
 20
-115.5240330266744
 30
0.0
 10
99.96427272747671
 20
-115.5433299711143
 30
0.0
 10
99.94910328341928
 20
-115.5591696933325
 30
0.0
 10
99.92913606170646
 20
-115.5591696933325
 30
0.0
 10
99.90984164168947
 20
-115.5591696933325
 30
0.0
 10
99.8939993959362
 20
-115.5433299711143
 30
0.0
 10
99.8939993959362
 20
-115.5240330266744
 30
0.0
 10
99.8939993959362
 20
-115.5040658044572
 30
0.0
 10
99.90984164168947
 20
-115.488226082239
 30
0.0
 10
99.92913606170646
 20
-115.488226082239
 30
0.0
 10
99.94910328341928
 20
-115.488226082239
 30
0.0
 10
99.96427272747671
 20
-115.5040658044572
 30
0.0
 10
99.96427272747671
 20
-115.5240330266744
 30
0.0
  0
SPLINE
  5
CC
330
1F
100
AcDbEntity
  8
_U+30EC_U+30A4_U+30E4_U+30FC 1
 62
   179
420
  2234388
370
     9
100
AcDbSpline
210
0.0
220
0.0
230
1.0
 70
    11
 71
     3
 72
    17
 73
    13
 74
     0
 42
0.0000000001
 43
0.0000000001
 12
1.0
 22
0.0
 32
0.0
 13
1.0
 23
0.0
 33
0.0
 40
0.0
 40
0.0
 40
0.0
 40
0.0
 40
1.0
 40
1.0
 40
1.0
 40
2.0
 40
2.0
 40
2.0
 40
3.0
 40
3.0
 40
3.0
 40
4.0
 40
4.0
 40
4.0
 40
4.0
 10
78.52889577433874
 20
-131.1992196894224
 30
0.0
 10
78.52889577433874
 20
-131.1447860783248
 30
0.0
 10
78.48479855324153
 20
-131.0993130227808
 30
0.0
 10
78.4289891102209
 20
-131.0993130227808
 30
0.0
 10
78.37384994496095
 20
-131.0993130227808
 30
0.0
 10
78.32908244610307
 20
-131.1447860783248
 30
0.0
 10
78.32908244610307
 20
-131.1992196894224
 30
0.0
 10
78.32908244610307
 20
-131.2543588560755
 30
0.0
 10
78.37384994496095
 20
-131.2991263560641
 30
0.0
 10
78.4289891102209
 20
-131.2991263560641
 30
0.0
 10
78.48479855324153
 20
-131.2991263560641
 30
0.0
 10
78.52889577433874
 20
-131.2543588560755
 30
0.0
 10
78.52889577433874
 20
-131.1992196894224
 30
0.0
  0
SPLINE
  5
CD
330
1F
100
AcDbEntity
  8
_U+30EC_U+30A4_U+30E4_U+30FC 1
 62
   179
420
  2234388
370
     9
100
AcDbSpline
210
0.0
220
0.0
230
1.0
 70
    11
 71
     3
 72
    17
 73
    13
 74
     0
 42
0.0000000001
 43
0.0000000001
 12
1.0
 22
0.0
 32
0.0
 13
1.0
 23
0.0
 33
0.0
 40
0.0
 40
0.0
 40
0.0
 40
0.0
 40
1.0
 40
1.0
 40
1.0
 40
2.0
 40
2.0
 40
2.0
 40
3.0
 40
3.0
 40
3.0
 40
4.0
 40
4.0
 40
4.0
 40
4.0
 10
87.52885637806395
 20
-131.1992196894224
 30
0.0
 10
87.52885637806395
 20
-131.1447860783248
 30
0.0
 10
87.48405360142918
 20
-131.0993130227808
 30
0.0
 10
87.42894971394611
 20
-131.0993130227808
 30
0.0
 10
87.37381054868617
 20
-131.0993130227808
 30
0.0
 10
87.32904304982827
 20
-131.1447860783248
 30
0.0
 10
87.32904304982827
 20
-131.1992196894224
 30
0.0
 10
87.32904304982827
 20
-131.2543588560755
 30
0.0
 10
87.37381054868617
 20
-131.2991263560641
 30
0.0
 10
87.42894971394611
 20
-131.2991263560641
 30
0.0
 10
87.48405360142918
 20
-131.2991263560641
 30
0.0
 10
87.52885637806395
 20
-131.2543588560755
 30
0.0
 10
87.52885637806395
 20
-131.1992196894224
 30
0.0
  0
POLYLINE
  5
CE
330
1F
100
AcDbEntity
  8
_U+30EC_U+30A4_U+30E4_U+30FC 1
 62
   179
420
  2234388
370
     9
100
AcDb2dPolyline
 66
     1
 10
0.0
 20
0.0
 30
0.0
  0
VERTEX
  5
CF
330
CE
100
AcDbEntity
  8
_U+30EC_U+30A4_U+30E4_U+30FC 1
 62
   179
420
  2234388
370
     9
100
AcDbVertex
100
AcDb2dVertex
 10
78.4289891102209
 20
-131.1992196894224
 30
0.0
  0
VERTEX
  5
D0
330
CE
100
AcDbEntity
  8
_U+30EC_U+30A4_U+30E4_U+30FC 1
 62
   179
420
  2234388
370
     9
100
AcDbVertex
100
AcDb2dVertex
 10
87.42894971394611
 20
-131.1992196894224
 30
0.0
  0
SEQEND
  5
D1
330
CE
100
AcDbEntity
  8
_U+30EC_U+30A4_U+30E4_U+30FC 1
 62
   179
420
  2234388
370
     9
  0
POLYLINE
  5
D2
330
1F
100
AcDbEntity
  8
_U+30EC_U+30A4_U+30E4_U+30FC 1
 62
   179
420
  2234388
370
     9
100
AcDb2dPolyline
 66
     1
 10
0.0
 20
0.0
 30
0.0
  0
VERTEX
  5
D3
330
D2
100
AcDbEntity
  8
_U+30EC_U+30A4_U+30E4_U+30FC 1
 62
   179
420
  2234388
370
     9
100
AcDbVertex
100
AcDb2dVertex
 10
78.4289891102209
 20
-132.6592610779461
 30
0.0
  0
VERTEX
  5
D4
330
D2
100
AcDbEntity
  8
_U+30EC_U+30A4_U+30E4_U+30FC 1
 62
   179
420
  2234388
370
     9
100
AcDbVertex
100
AcDb2dVertex
 10
78.4289891102209
 20
-130.1994474674499
 30
0.0
  0
SEQEND
  5
D5
330
D2
100
AcDbEntity
  8
_U+30EC_U+30A4_U+30E4_U+30FC 1
 62
   179
420
  2234388
370
     9
  0
POLYLINE
  5
D6
330
1F
100
AcDbEntity
  8
_U+30EC_U+30A4_U+30E4_U+30FC 1
 62
   179
420
  2234388
370
     9
100
AcDb2dPolyline
 66
     1
 10
0.0
 20
0.0
 30
0.0
  0
VERTEX
  5
D7
330
D6
100
AcDbEntity
  8
_U+30EC_U+30A4_U+30E4_U+30FC 1
 62
   179
420
  2234388
370
     9
100
AcDbVertex
100
AcDb2dVertex
 10
87.42894971394611
 20
-132.6592610779461
 30
0.0
  0
VERTEX
  5
D8
330
D6
100
AcDbEntity
  8
_U+30EC_U+30A4_U+30E4_U+30FC 1
 62
   179
420
  2234388
370
     9
100
AcDbVertex
100
AcDb2dVertex
 10
87.42894971394611
 20
-130.1994474674499
 30
0.0
  0
SEQEND
  5
D9
330
D6
100
AcDbEntity
  8
_U+30EC_U+30A4_U+30E4_U+30FC 1
 62
   179
420
  2234388
370
     9
  0
INSERT
  5
DB
330
1F
100
AcDbEntity
  8
_U+30EC_U+30A4_U+30E4_U+30FC 1
100
AcDbBlockReference
  2
block 6
 10
0.0
 20
0.0
 30
0.0
  0
SPLINE
  5
E1
330
1F
100
AcDbEntity
  8
_U+30EC_U+30A4_U+30E4_U+30FC 1
 62
   179
420
  2234388
370
     9
100
AcDbSpline
210
0.0
220
0.0
230
1.0
 70
    11
 71
     3
 72
    17
 73
    13
 74
     0
 42
0.0000000001
 43
0.0000000001
 12
1.0
 22
0.0
 32
0.0
 13
1.0
 23
0.0
 33
0.0
 40
0.0
 40
0.0
 40
0.0
 40
0.0
 40
1.0
 40
1.0
 40
1.0
 40
2.0
 40
2.0
 40
2.0
 40
3.0
 40
3.0
 40
3.0
 40
4.0
 40
4.0
 40
4.0
 40
4.0
 10
87.46408637971636
 20
-131.1992196894224
 30
0.0
 10
87.46408637971636
 20
-131.2192221894171
 30
0.0
 10
87.44891693565893
 20
-131.2350619116357
 30
0.0
 10
87.42894971394611
 20
-131.2350619116357
 30
0.0
 10
87.40965276999397
 20
-131.2350619116357
 30
0.0
 10
87.39381304817586
 20
-131.2192221894171
 30
0.0
 10
87.39381304817586
 20
-131.1992196894224
 30
0.0
 10
87.39381304817586
 20
-131.1799227449826
 30
0.0
 10
87.40965276999397
 20
-131.1640830227647
 30
0.0
 10
87.42894971394611
 20
-131.1640830227647
 30
0.0
 10
87.44891693565893
 20
-131.1640830227647
 30
0.0
 10
87.46408637971636
 20
-131.1799227449826
 30
0.0
 10
87.46408637971636
 20
-131.1992196894224
 30
0.0
  0
POLYLINE
  5
E2
330
1F
100
AcDbEntity
  8
_U+30EC_U+30A4_U+30E4_U+30FC 1
 62
   179
420
  2234388
370
     9
100
AcDb2dPolyline
 66
     1
 10
0.0
 20
0.0
 30
0.0
  0
VERTEX
  5
E3
330
E2
100
AcDbEntity
  8
_U+30EC_U+30A4_U+30E4_U+30FC 1
 62
   179
420
  2234388
370
     9
100
AcDbVertex
100
AcDb2dVertex
 10
99.92913606170646
 20
-126.5593805239158
 30
0.0
  0
VERTEX
  5
E4
330
E2
100
AcDbEntity
  8
_U+30EC_U+30A4_U+30E4_U+30FC 1
 62
   179
420
  2234388
370
     9
100
AcDbVertex
100
AcDb2dVertex
 10
99.92913606170646
 20
-144.0590632973188
 30
0.0
  0
SEQEND
  5
E5
330
E2
100
AcDbEntity
  8
_U+30EC_U+30A4_U+30E4_U+30FC 1
 62
   179
420
  2234388
370
     9
  0
INSERT
  5
E7
330
1F
100
AcDbEntity
  8
_U+30EC_U+30A4_U+30E4_U+30FC 1
100
AcDbBlockReference
  2
block 7
 10
0.0
 20
0.0
 30
0.0
  0
INSERT
  5
ED
330
1F
100
AcDbEntity
  8
_U+30EC_U+30A4_U+30E4_U+30FC 1
100
AcDbBlockReference
  2
block 8
 10
0.0
 20
0.0
 30
0.0
  0
SPLINE
  5
FE
330
1F
100
AcDbEntity
  8
_U+30EC_U+30A4_U+30E4_U+30FC 1
 62
   179
420
  2234388
370
     9
100
AcDbSpline
210
0.0
220
0.0
230
1.0
 70
    11
 71
     3
 72
    17
 73
    13
 74
     0
 42
0.0000000001
 43
0.0000000001
 12
1.0
 22
0.0
 32
0.0
 13
1.0
 23
0.0
 33
0.0
 40
0.0
 40
0.0
 40
0.0
 40
0.0
 40
1.0
 40
1.0
 40
1.0
 40
2.0
 40
2.0
 40
2.0
 40
3.0
 40
3.0
 40
3.0
 40
4.0
 40
4.0
 40
4.0
 40
4.0
 10
84.82859164545947
 20
-128.6167805234012
 30
0.0
 10
84.82859164545947
 20
-128.562346912304
 30
0.0
 10
84.78378886769306
 20
-128.5168738567596
 30
0.0
 10
84.72868283839122
 20
-128.5168738567596
 30
0.0
 10
84.67424922866883
 20
-128.5168738567596
 30
0.0
 10
84.62944645203406
 20
-128.562346912304
 30
0.0
 10
84.62944645203406
 20
-128.6167805234012
 30
0.0
 10
84.62944645203406
 20
-128.6719196900543
 30
0.0
 10
84.67424922866883
 20
-128.7166871900432
 30
0.0
 10
84.72868283839122
 20
-128.7166871900432
 30
0.0
 10
84.78378886769306
 20
-128.7166871900432
 30
0.0
 10
84.82859164545947
 20
-128.6719196900543
 30
0.0
 10
84.82859164545947
 20
-128.6167805234012
 30
0.0
  0
POLYLINE
  5
FF
330
1F
100
AcDbEntity
  8
_U+30EC_U+30A4_U+30E4_U+30FC 1
 62
   179
420
  2234388
370
     9
100
AcDb2dPolyline
 66
     1
 10
0.0
 20
0.0
 30
0.0
  0
VERTEX
  5
100
330
FF
100
AcDbEntity
  8
_U+30EC_U+30A4_U+30E4_U+30FC 1
 62
   179
420
  2234388
370
     9
100
AcDbVertex
100
AcDb2dVertex
 10
84.72868283839122
 20
-123.0591546914574
 30
0.0
  0
VERTEX
  5
101
330
FF
100
AcDbEntity
  8
_U+30EC_U+30A4_U+30E4_U+30FC 1
 62
   179
420
  2234388
370
     9
100
AcDbVertex
100
AcDb2dVertex
 10
84.72868283839122
 20
-129.6172230231515
 30
0.0
  0
SEQEND
  5
102
330
FF
100
AcDbEntity
  8
_U+30EC_U+30A4_U+30E4_U+30FC 1
 62
   179
420
  2234388
370
     9
  0
SPLINE
  5
103
330
1F
100
AcDbEntity
  8
_U+30EC_U+30A4_U+30E4_U+30FC 1
 62
   179
420
  2234388
370
     9
100
AcDbSpline
210
0.0
220
0.0
230
1.0
 70
    11
 71
     3
 72
    17
 73
    13
 74
     0
 42
0.0000000001
 43
0.0000000001
 12
1.0
 22
0.0
 32
0.0
 13
1.0
 23
0.0
 33
0.0
 40
0.0
 40
0.0
 40
0.0
 40
0.0
 40
1.0
 40
1.0
 40
1.0
 40
2.0
 40
2.0
 40
2.0
 40
3.0
 40
3.0
 40
3.0
 40
4.0
 40
4.0
 40
4.0
 40
4.0
 10
90.02860436984562
 20
-128.6167805234012
 30
0.0
 10
90.02860436984562
 20
-128.562346912304
 30
0.0
 10
89.98383687098773
 20
-128.5168738567596
 30
0.0
 10
89.9286999775179
 20
-128.5168738567596
 30
0.0
 10
89.87426409600539
 20
-128.5168738567596
 30
0.0
 10
89.82949659714751
 20
-128.562346912304
 30
0.0
 10
89.82949659714751
 20
-128.6167805234012
 30
0.0
 10
89.82949659714751
 20
-128.6719196900543
 30
0.0
 10
89.87426409600539
 20
-128.7166871900432
 30
0.0
 10
89.9286999775179
 20
-128.7166871900432
 30
0.0
 10
89.98383687098773
 20
-128.7166871900432
 30
0.0
 10
90.02860436984562
 20
-128.6719196900543
 30
0.0
 10
90.02860436984562
 20
-128.6167805234012
 30
0.0
  0
POLYLINE
  5
104
330
1F
100
AcDbEntity
  8
_U+30EC_U+30A4_U+30E4_U+30FC 1
 62
   179
420
  2234388
370
     9
100
AcDb2dPolyline
 66
     1
 10
0.0
 20
0.0
 30
0.0
  0
VERTEX
  5
105
330
104
100
AcDbEntity
  8
_U+30EC_U+30A4_U+30E4_U+30FC 1
 62
   179
420
  2234388
370
     9
100
AcDbVertex
100
AcDb2dVertex
 10
89.9286999775179
 20
-127.1567391348775
 30
0.0
  0
VERTEX
  5
106
330
104
100
AcDbEntity
  8
_U+30EC_U+30A4_U+30E4_U+30FC 1
 62
   179
420
  2234388
370
     9
100
AcDbVertex
100
AcDb2dVertex
 10
89.9286999775179
 20
-129.6172230231515
 30
0.0
  0
SEQEND
  5
107
330
104
100
AcDbEntity
  8
_U+30EC_U+30A4_U+30E4_U+30FC 1
 62
   179
420
  2234388
370
     9
  0
POLYLINE
  5
108
330
1F
100
AcDbEntity
  8
_U+30EC_U+30A4_U+30E4_U+30FC 1
 62
   179
420
  2234388
370
     9
100
AcDb2dPolyline
 66
     1
 10
0.0
 20
0.0
 30
0.0
  0
VERTEX
  5
109
330
108
100
AcDbEntity
  8
_U+30EC_U+30A4_U+30E4_U+30FC 1
 62
   179
420
  2234388
370
     9
100
AcDbVertex
100
AcDb2dVertex
 10
84.72868283839122
 20
-128.6167805234012
 30
0.0
  0
VERTEX
  5
10A
330
108
100
AcDbEntity
  8
_U+30EC_U+30A4_U+30E4_U+30FC 1
 62
   179
420
  2234388
370
     9
100
AcDbVertex
100
AcDb2dVertex
 10
89.9286999775179
 20
-128.6167805234012
 30
0.0
  0
SEQEND
  5
10B
330
108
100
AcDbEntity
  8
_U+30EC_U+30A4_U+30E4_U+30FC 1
 62
   179
420
  2234388
370
     9
  0
SPLINE
  5
10C
330
1F
100
AcDbEntity
  8
_U+30EC_U+30A4_U+30E4_U+30FC 1
 62
   179
420
  2234388
370
     9
100
AcDbSpline
210
0.0
220
0.0
230
1.0
 70
    11
 71
     3
 72
    17
 73
    13
 74
     0
 42
0.0000000001
 43
0.0000000001
 12
1.0
 22
0.0
 32
0.0
 13
1.0
 23
0.0
 33
0.0
 40
0.0
 40
0.0
 40
0.0
 40
0.0
 40
1.0
 40
1.0
 40
1.0
 40
2.0
 40
2.0
 40
2.0
 40
3.0
 40
3.0
 40
3.0
 40
4.0
 40
4.0
 40
4.0
 40
4.0
 10
84.29596562720853
 20
-136.5591135769714
 30
0.0
 10
84.29596562720853
 20
-136.5046799658738
 30
0.0
 10
84.25119812835064
 20
-136.4592069103297
 30
0.0
 10
84.19606109006216
 20
-136.4592069103297
 30
0.0
 10
84.1416253533683
 20
-136.4592069103297
 30
0.0
 10
84.09685785451042
 20
-136.5046799658738
 30
0.0
 10
84.09685785451042
 20
-136.5591135769714
 30
0.0
 10
84.09685785451042
 20
-136.6142174658463
 30
0.0
 10
84.1416253533683
 20
-136.659020243613
 30
0.0
 10
84.19606109006216
 20
-136.659020243613
 30
0.0
 10
84.25119812835064
 20
-136.659020243613
 30
0.0
 10
84.29596562720853
 20
-136.6142174658463
 30
0.0
 10
84.29596562720853
 20
-136.5591135769714
 30
0.0
  0
SPLINE
  5
10D
330
1F
100
AcDbEntity
  8
_U+30EC_U+30A4_U+30E4_U+30FC 1
 62
   179
420
  2234388
370
     9
100
AcDbSpline
210
0.0
220
0.0
230
1.0
 70
    11
 71
     3
 72
    17
 73
    13
 74
     0
 42
0.0000000001
 43
0.0000000001
 12
1.0
 22
0.0
 32
0.0
 13
1.0
 23
0.0
 33
0.0
 40
0.0
 40
0.0
 40
0.0
 40
0.0
 40
1.0
 40
1.0
 40
1.0
 40
2.0
 40
2.0
 40
2.0
 40
3.0
 40
3.0
 40
3.0
 40
4.0
 40
4.0
 40
4.0
 40
4.0
 10
84.29596562720853
 20
-138.0590894099294
 30
0.0
 10
84.29596562720853
 20
-138.0046557988319
 30
0.0
 10
84.25119812835064
 20
-137.9591827432878
 30
0.0
 10
84.19606109006216
 20
-137.9591827432878
 30
0.0
 10
84.1416253533683
 20
-137.9591827432878
 30
0.0
 10
84.09685785451042
 20
-138.0046557988319
 30
0.0
 10
84.09685785451042
 20
-138.0590894099294
 30
0.0
 10
84.09685785451042
 20
-138.1142285765825
 30
0.0
 10
84.1416253533683
 20
-138.1589960765711
 30
0.0
 10
84.19606109006216
 20
-138.1589960765711
 30
0.0
 10
84.25119812835064
 20
-138.1589960765711
 30
0.0
 10
84.29596562720853
 20
-138.1142285765825
 30
0.0
 10
84.29596562720853
 20
-138.0590894099294
 30
0.0
  0
POLYLINE
  5
10E
330
1F
100
AcDbEntity
  8
_U+30EC_U+30A4_U+30E4_U+30FC 1
 62
   179
420
  2234388
370
     9
100
AcDb2dPolyline
 66
     1
 10
0.0
 20
0.0
 30
0.0
  0
VERTEX
  5
10F
330
10E
100
AcDbEntity
  8
_U+30EC_U+30A4_U+30E4_U+30FC 1
 62
   179
420
  2234388
370
     9
100
AcDbVertex
100
AcDb2dVertex
 10
84.19606109006216
 20
-136.5591135769714
 30
0.0
  0
VERTEX
  5
110
330
10E
100
AcDbEntity
  8
_U+30EC_U+30A4_U+30E4_U+30FC 1
 62
   179
420
  2234388
370
     9
100
AcDbVertex
100
AcDb2dVertex
 10
84.19606109006216
 20
-138.0590894099294
 30
0.0
  0
SEQEND
  5
111
330
10E
100
AcDbEntity
  8
_U+30EC_U+30A4_U+30E4_U+30FC 1
 62
   179
420
  2234388
370
     9
  0
POLYLINE
  5
112
330
1F
100
AcDbEntity
  8
_U+30EC_U+30A4_U+30E4_U+30FC 1
 62
   179
420
  2234388
370
     9
100
AcDb2dPolyline
 66
     1
 10
0.0
 20
0.0
 30
0.0
  0
VERTEX
  5
113
330
112
100
AcDbEntity
  8
_U+30EC_U+30A4_U+30E4_U+30FC 1
 62
   179
420
  2234388
370
     9
100
AcDbVertex
100
AcDb2dVertex
 10
84.19606109006216
 20
-136.5591135769714
 30
0.0
  0
VERTEX
  5
114
330
112
100
AcDbEntity
  8
_U+30EC_U+30A4_U+30E4_U+30FC 1
 62
   179
420
  2234388
370
     9
100
AcDbVertex
100
AcDb2dVertex
 10
86.4291775172302
 20
-136.5591135769714
 30
0.0
  0
SEQEND
  5
115
330
112
100
AcDbEntity
  8
_U+30EC_U+30A4_U+30E4_U+30FC 1
 62
   179
420
  2234388
370
     9
  0
INSERT
  5
117
330
1F
100
AcDbEntity
  8
_U+30EC_U+30A4_U+30E4_U+30FC 1
100
AcDbBlockReference
  2
block 9
 10
0.0
 20
0.0
 30
0.0
  0
INSERT
  5
127
330
1F
100
AcDbEntity
  8
_U+30EC_U+30A4_U+30E4_U+30FC 1
100
AcDbBlockReference
  2
block 10
 10
0.0
 20
0.0
 30
0.0
  0
POLYLINE
  5
136
330
1F
100
AcDbEntity
  8
_U+30EC_U+30A4_U+30E4_U+30FC 1
 62
   179
420
  2234388
370
     9
100
AcDb2dPolyline
 66
     1
 10
0.0
 20
0.0
 30
0.0
  0
VERTEX
  5
137
330
136
100
AcDbEntity
  8
_U+30EC_U+30A4_U+30E4_U+30FC 1
 62
   179
420
  2234388
370
     9
100
AcDbVertex
100
AcDb2dVertex
 10
94.92889924482868
 20
-141.5985794090445
 30
0.0
  0
VERTEX
  5
138
330
136
100
AcDbEntity
  8
_U+30EC_U+30A4_U+30E4_U+30FC 1
 62
   179
420
  2234388
370
     9
100
AcDbVertex
100
AcDb2dVertex
 10
94.92889924482868
 20
-144.0590632973188
 30
0.0
  0
SEQEND
  5
139
330
136
100
AcDbEntity
  8
_U+30EC_U+30A4_U+30E4_U+30FC 1
 62
   179
420
  2234388
370
     9
  0
SPLINE
  5
13A
330
1F
100
AcDbEntity
  8
_U+30EC_U+30A4_U+30E4_U+30FC 1
 62
     7
420
 16777215
370
     9
100
AcDbSpline
210
0.0
220
0.0
230
1.0
 70
    11
 71
     3
 72
    17
 73
    13
 74
     0
 42
0.0000000001
 43
0.0000000001
 12
1.0
 22
0.0
 32
0.0
 13
1.0
 23
0.0
 33
0.0
 40
0.0
 40
0.0
 40
0.0
 40
0.0
 40
1.0
 40
1.0
 40
1.0
 40
2.0
 40
2.0
 40
2.0
 40
3.0
 40
3.0
 40
3.0
 40
4.0
 40
4.0
 40
4.0
 40
4.0
 10
103.3335826415185
 20
-139.0595671874575
 30
0.0
 10
103.3335826415185
 20
-139.0044280208044
 30
0.0
 10
103.2887798648837
 20
-138.9596605208159
 30
0.0
 10
103.2336759774006
 20
-138.9596605208159
 30
0.0
 10
103.1785368121407
 20
-138.9596605208159
 30
0.0
 10
103.1337693132828
 20
-139.0044280208044
 30
0.0
 10
103.1337693132828
 20
-139.0595671874575
 30
0.0
 10
103.1337693132828
 20
-139.1146710763324
 30
0.0
 10
103.1785368121407
 20
-139.1594738540992
 30
0.0
 10
103.2336759774006
 20
-139.1594738540992
 30
0.0
 10
103.2887798648837
 20
-139.1594738540992
 30
0.0
 10
103.3335826415185
 20
-139.1146710763324
 30
0.0
 10
103.3335826415185
 20
-139.0595671874575
 30
0.0
  0
POLYLINE
  5
13B
330
1F
100
AcDbEntity
  8
_U+30EC_U+30A4_U+30E4_U+30FC 1
 62
     7
420
 16777215
370
     9
100
AcDb2dPolyline
 66
     1
 10
0.0
 20
0.0
 30
0.0
  0
VERTEX
  5
13C
330
13B
100
AcDbEntity
  8
_U+30EC_U+30A4_U+30E4_U+30FC 1
 62
     7
420
 16777215
370
     9
100
AcDbVertex
100
AcDb2dVertex
 10
97.42935279214791
 20
-139.0595671874575
 30
0.0
  0
VERTEX
  5
13D
330
13B
100
AcDbEntity
  8
_U+30EC_U+30A4_U+30E4_U+30FC 1
 62
     7
420
 16777215
370
     9
100
AcDbVertex
100
AcDb2dVertex
 10
104.2334128963397
 20
-139.0595671874575
 30
0.0
  0
SEQEND
  5
13E
330
13B
100
AcDbEntity
  8
_U+30EC_U+30A4_U+30E4_U+30FC 1
 62
     7
420
 16777215
370
     9
  0
SPLINE
  5
13F
330
1F
100
AcDbEntity
  8
_U+30EC_U+30A4_U+30E4_U+30FC 1
 62
     7
420
 16777215
370
     9
100
AcDbSpline
210
0.0
220
0.0
230
1.0
 70
    11
 71
     3
 72
    17
 73
    13
 74
     0
 42
0.0000000001
 43
0.0000000001
 12
1.0
 22
0.0
 32
0.0
 13
1.0
 23
0.0
 33
0.0
 40
0.0
 40
0.0
 40
0.0
 40
0.0
 40
1.0
 40
1.0
 40
1.0
 40
2.0
 40
2.0
 40
2.0
 40
3.0
 40
3.0
 40
3.0
 40
4.0
 40
4.0
 40
4.0
 40
4.0
 10
103.3335826415185
 20
-123.5593935802211
 30
0.0
 10
103.3335826415185
 20
-123.5042544135684
 30
0.0
 10
103.2887798648837
 20
-123.4594869135795
 30
0.0
 10
103.2336759774006
 20
-123.4594869135795
 30
0.0
 10
103.1785368121407
 20
-123.4594869135795
 30
0.0
 10
103.1337693132828
 20
-123.5042544135684
 30
0.0
 10
103.1337693132828
 20
-123.5593935802211
 30
0.0
 10
103.1337693132828
 20
-123.6144974690964
 30
0.0
 10
103.1785368121407
 20
-123.6593002468631
 30
0.0
 10
103.2336759774006
 20
-123.6593002468631
 30
0.0
 10
103.2887798648837
 20
-123.6593002468631
 30
0.0
 10
103.3335826415185
 20
-123.6144974690964
 30
0.0
 10
103.3335826415185
 20
-123.5593935802211
 30
0.0
  0
POLYLINE
  5
140
330
1F
100
AcDbEntity
  8
_U+30EC_U+30A4_U+30E4_U+30FC 1
 62
     7
420
 16777215
370
     9
100
AcDb2dPolyline
 66
     1
 10
0.0
 20
0.0
 30
0.0
  0
VERTEX
  5
141
330
140
100
AcDbEntity
  8
_U+30EC_U+30A4_U+30E4_U+30FC 1
 62
     7
420
 16777215
370
     9
100
AcDbVertex
100
AcDb2dVertex
 10
100.7731921512839
 20
-123.5593935802211
 30
0.0
  0
VERTEX
  5
142
330
140
100
AcDbEntity
  8
_U+30EC_U+30A4_U+30E4_U+30FC 1
 62
     7
420
 16777215
370
     9
100
AcDbVertex
100
AcDb2dVertex
 10
104.2334128963397
 20
-123.5593935802211
 30
0.0
  0
SEQEND
  5
143
330
140
100
AcDbEntity
  8
_U+30EC_U+30A4_U+30E4_U+30FC 1
 62
     7
420
 16777215
370
     9
  0
SPLINE
  5
144
330
1F
100
AcDbEntity
  8
_U+30EC_U+30A4_U+30E4_U+30FC 1
 62
     7
420
 16777215
370
     9
100
AcDbSpline
210
0.0
220
0.0
230
1.0
 70
    11
 71
     3
 72
    17
 73
    13
 74
     0
 42
0.0000000001
 43
0.0000000001
 12
1.0
 22
0.0
 32
0.0
 13
1.0
 23
0.0
 33
0.0
 40
0.0
 40
0.0
 40
0.0
 40
0.0
 40
1.0
 40
1.0
 40
1.0
 40
2.0
 40
2.0
 40
2.0
 40
3.0
 40
3.0
 40
3.0
 40
4.0
 40
4.0
 40
4.0
 40
4.0
 10
103.3335826415185
 20
-120.0591677477631
 30
0.0
 10
103.3335826415185
 20
-120.00402858111
 30
0.0
 10
103.2887798648837
 20
-119.9592610811214
 30
0.0
 10
103.2336759774006
 20
-119.9592610811214
 30
0.0
 10
103.1785368121407
 20
-119.9592610811214
 30
0.0
 10
103.1337693132828
 20
-120.00402858111
 30
0.0
 10
103.1337693132828
 20
-120.0591677477631
 30
0.0
 10
103.1337693132828
 20
-120.114271636638
 30
0.0
 10
103.1785368121407
 20
-120.1590744144047
 30
0.0
 10
103.2336759774006
 20
-120.1590744144047
 30
0.0
 10
103.2887798648837
 20
-120.1590744144047
 30
0.0
 10
103.3335826415185
 20
-120.114271636638
 30
0.0
 10
103.3335826415185
 20
-120.0591677477631
 30
0.0
  0
POLYLINE
  5
145
330
1F
100
AcDbEntity
  8
_U+30EC_U+30A4_U+30E4_U+30FC 1
 62
     7
420
 16777215
370
     9
100
AcDb2dPolyline
 66
     1
 10
0.0
 20
0.0
 30
0.0
  0
VERTEX
  5
146
330
145
100
AcDbEntity
  8
_U+30EC_U+30A4_U+30E4_U+30FC 1
 62
     7
420
 16777215
370
     9
100
AcDbVertex
100
AcDb2dVertex
 10
100.7731921512839
 20
-120.0591677477631
 30
0.0
  0
VERTEX
  5
147
330
145
100
AcDbEntity
  8
_U+30EC_U+30A4_U+30E4_U+30FC 1
 62
     7
420
 16777215
370
     9
100
AcDbVertex
100
AcDb2dVertex
 10
104.2334128963397
 20
-120.0591677477631
 30
0.0
  0
SEQEND
  5
148
330
145
100
AcDbEntity
  8
_U+30EC_U+30A4_U+30E4_U+30FC 1
 62
     7
420
 16777215
370
     9
  0
INSERT
  5
14A
330
1F
100
AcDbEntity
  8
_U+30EC_U+30A4_U+30E4_U+30FC 1
100
AcDbBlockReference
  2
block 11
 10
0.0
 20
0.0
 30
0.0
  0
INSERT
  5
15C
330
1F
100
AcDbEntity
  8
_U+30EC_U+30A4_U+30E4_U+30FC 1
100
AcDbBlockReference
  2
block 12
 10
0.0
 20
0.0
 30
0.0
  0
POLYLINE
  5
16B
330
1F
100
AcDbEntity
  8
_U+30EC_U+30A4_U+30E4_U+30FC 1
 62
     7
420
 16777215
370
     9
100
AcDb2dPolyline
 66
     1
 10
0.0
 20
0.0
 30
0.0
  0
VERTEX
  5
16C
330
16B
100
AcDbEntity
  8
_U+30EC_U+30A4_U+30E4_U+30FC 1
 62
     7
420
 16777215
370
     9
100
AcDbVertex
100
AcDb2dVertex
 10
103.2336759774006
 20
-139.0595671874575
 30
0.0
  0
VERTEX
  5
16D
330
16B
100
AcDbEntity
  8
_U+30EC_U+30A4_U+30E4_U+30FC 1
 62
     7
420
 16777215
370
     9
100
AcDbVertex
100
AcDb2dVertex
 10
103.2336759774006
 20
-116.5589419153047
 30
0.0
  0
SEQEND
  5
16E
330
16B
100
AcDbEntity
  8
_U+30EC_U+30A4_U+30E4_U+30FC 1
 62
     7
420
 16777215
370
     9
  0
POLYLINE
  5
16F
330
1F
100
AcDbEntity
  8
_U+30EC_U+30A4_U+30E4_U+30FC 1
 62
   179
420
  2234388
370
     9
100
AcDb2dPolyline
 66
     1
 10
0.0
 20
0.0
 30
0.0
  0
VERTEX
  5
170
330
16F
100
AcDbEntity
  8
_U+30EC_U+30A4_U+30E4_U+30FC 1
 62
   179
420
  2234388
370
     9
100
AcDbVertex
100
AcDb2dVertex
 10
108.2290471951647
 20
-116.093169415421
 30
0.0
  0
VERTEX
  5
171
330
16F
100
AcDbEntity
  8
_U+30EC_U+30A4_U+30E4_U+30FC 1
 62
   179
420
  2234388
370
     9
100
AcDbVertex
100
AcDb2dVertex
 10
101.7688015703282
 20
-116.093169415421
 30
0.0
  0
VERTEX
  5
172
330
16F
100
AcDbEntity
  8
_U+30EC_U+30A4_U+30E4_U+30FC 1
 62
   179
420
  2234388
370
     9
100
AcDbVertex
100
AcDb2dVertex
 10
97.02835275352044
 20
-120.8115721920192
 30
0.0
  0
SEQEND
  5
173
330
16F
100
AcDbEntity
  8
_U+30EC_U+30A4_U+30E4_U+30FC 1
 62
   179
420
  2234388
370
     9
  0
POLYLINE
  5
174
330
1F
100
AcDbEntity
  8
_U+30EC_U+30A4_U+30E4_U+30FC 1
 62
   179
420
  2234388
370
     9
100
AcDb2dPolyline
 66
     1
 10
0.0
 20
0.0
 30
0.0
  0
VERTEX
  5
175
330
174
100
AcDbEntity
  8
_U+30EC_U+30A4_U+30E4_U+30FC 1
 62
   179
420
  2234388
370
     9
100
AcDbVertex
100
AcDb2dVertex
 10
79.45768908397658
 20
-133.8457585776498
 30
0.0
  0
VERTEX
  5
176
330
174
100
AcDbEntity
  8
_U+30EC_U+30A4_U+30E4_U+30FC 1
 62
   179
420
  2234388
370
     9
100
AcDbVertex
100
AcDb2dVertex
 10
82.9262001065986
 20
-133.8457585776498
 30
0.0
  0
VERTEX
  5
177
330
174
100
AcDbEntity
  8
_U+30EC_U+30A4_U+30E4_U+30FC 1
 62
   179
420
  2234388
370
     9
100
AcDbVertex
100
AcDb2dVertex
 10
84.19606109006216
 20
-137.4803221878524
 30
0.0
  0
SEQEND
  5
178
330
174
100
AcDbEntity
  8
_U+30EC_U+30A4_U+30E4_U+30FC 1
 62
   179
420
  2234388
370
     9
  0
INSERT
  5
17A
330
1F
100
AcDbEntity
  8
_U+30EC_U+30A4_U+30E4_U+30FC 1
100
AcDbBlockReference
  2
block 13
 10
0.0
 20
0.0
 30
0.0
  0
ENDSEC
  0
SECTION
  2
OBJECTS
  0
DICTIONARY
  5
C
330
0
100
AcDbDictionary
281
     1
  3
ACAD_GROUP
350
D
  3
ACAD_LAYOUT
350
1A
  3
ACAD_MATERIAL
350
3B
  3
ACAD_MLEADERSTYLE
350
1B6
  3
ACAD_MLINESTYLE
350
17
  3
ACAD_PLOTSETTINGS
350
19
  3
ACAD_PLOTSTYLENAME
350
E
  3
ACAD_TABLESTYLE
350
1B5
  3
ACAD_VISUALSTYLE
350
2A
  0
SUN
  5
3F
330
29
100
AcDbSun
 90
        1
290
     0
 63
     7
421
 16777215
 40
1.0
291
     1
 91
  2455826
 92
 54000000
292
     0
 70
     2
 71
   256
280
     1
  0
DICTIONARY
  5
D
102
{ACAD_REACTORS
330
C
102
}
330
C
100
AcDbDictionary
281
     1
  0
DICTIONARY
  5
1A
102
{ACAD_REACTORS
330
C
102
}
330
C
100
AcDbDictionary
281
     1
  3
Layout1
350
1E
  3
Layout2
350
26
  3
Model
350
22
  0
DICTIONARY
  5
3B
102
{ACAD_REACTORS
330
C
102
}
330
C
100
AcDbDictionary
281
     1
  3
ByBlock
350
3D
  3
ByLayer
350
3C
  3
Global
350
3E
  0
DICTIONARY
  5
1B6
102
{ACAD_REACTORS
330
C
102
}
330
C
100
AcDbDictionary
281
     1
  0
DICTIONARY
  5
17
102
{ACAD_REACTORS
330
C
102
}
330
C
100
AcDbDictionary
281
     1
  3
Standard
350
18
  0
DICTIONARY
  5
19
102
{ACAD_REACTORS
330
C
102
}
330
C
100
AcDbDictionary
281
     1
  0
ACDBDICTIONARYWDFLT
  5
E
102
{ACAD_REACTORS
330
C
102
}
330
C
100
AcDbDictionary
281
     1
  3
Normal
350
F
100
AcDbDictionaryWithDefault
340
F
  0
DICTIONARY
  5
1B5
102
{ACAD_REACTORS
330
C
102
}
330
C
100
AcDbDictionary
281
     1
  0
DICTIONARY
  5
2A
102
{ACAD_REACTORS
330
C
102
}
330
C
100
AcDbDictionary
281
     1
  3
2dWireframe
350
2F
  3
3D Hidden
350
31
  3
3dWireframe
350
30
  3
Basic
350
32
  3
Brighten
350
36
  3
ColorChange
350
3A
  3
Conceptual
350
34
  3
Dim
350
35
  3
Facepattern
350
39
  3
Flat
350
2B
  3
FlatWithEdges
350
2C
  3
Gouraud
350
2D
  3
GouraudWithEdges
350
2E
  3
Linepattern
350
38
  3
Realistic
350
33
  3
Thicken
350
37
  0
LAYOUT
  5
1E
102
{ACAD_REACTORS
330
1A
102
}
330
1A
100
AcDbPlotSettings
  1

  2
none_device
  4

  6

 40
0.0
 41
0.0
 42
0.0
 43
0.0
 44
0.0
 45
0.0
 46
0.0
 47
0.0
 48
0.0
 49
0.0
140
0.0
141
0.0
142
1.0
143
1.0
 70
   688
 72
     0
 73
     0
 74
     5
  7

 75
    16
 76
     0
 77
     2
 78
   300
147
1.0
148
0.0
149
0.0
100
AcDbLayout
  1
Layout1
 70
     1
 71
     1
 10
0.0
 20
0.0
 11
12.0
 21
9.0
 12
0.0
 22
0.0
 32
0.0
 14
1.000000000000000E+20
 24
1.000000000000000E+20
 34
1.000000000000000E+20
 15
-1.000000000000000E+20
 25
-1.000000000000000E+20
 35
-1.000000000000000E+20
146
0.0
 13
0.0
 23
0.0
 33
0.0
 16
1.0
 26
0.0
 36
0.0
 17
0.0
 27
1.0
 37
0.0
 76
     0
330
1B
  0
LAYOUT
  5
26
102
{ACAD_REACTORS
330
1A
102
}
330
1A
100
AcDbPlotSettings
  1

  2
none_device
  4

  6

 40
0.0
 41
0.0
 42
0.0
 43
0.0
 44
0.0
 45
0.0
 46
0.0
 47
0.0
 48
0.0
 49
0.0
140
0.0
141
0.0
142
1.0
143
1.0
 70
   688
 72
     0
 73
     0
 74
     5
  7

 75
    16
 76
     0
 77
     2
 78
   300
147
1.0
148
0.0
149
0.0
100
AcDbLayout
  1
Layout2
 70
     1
 71
     2
 10
0.0
 20
0.0
 11
0.0
 21
0.0
 12
0.0
 22
0.0
 32
0.0
 14
0.0
 24
0.0
 34
0.0
 15
0.0
 25
0.0
 35
0.0
146
0.0
 13
0.0
 23
0.0
 33
0.0
 16
1.0
 26
0.0
 36
0.0
 17
0.0
 27
1.0
 37
0.0
 76
     0
330
23
  0
LAYOUT
  5
22
102
{ACAD_REACTORS
330
1A
102
}
330
1A
100
AcDbPlotSettings
  1

  2
none_device
  4

  6

 40
0.0
 41
0.0
 42
0.0
 43
0.0
 44
0.0
 45
0.0
 46
0.0
 47
0.0
 48
0.0
 49
0.0
140
0.0
141
0.0
142
1.0
143
1.0
 70
  1712
 72
     0
 73
     0
 74
     0
  7

 75
     0
 76
     0
 77
     2
 78
   300
147
1.0
148
0.0
149
0.0
100
AcDbLayout
  1
Model
 70
     1
 71
     0
 10
0.0
 20
0.0
 11
12.0
 21
9.0
 12
0.0
 22
0.0
 32
0.0
 14
1.000000000000000E+20
 24
1.000000000000000E+20
 34
1.000000000000000E+20
 15
-1.000000000000000E+20
 25
-1.000000000000000E+20
 35
-1.000000000000000E+20
146
0.0
 13
0.0
 23
0.0
 33
0.0
 16
1.0
 26
0.0
 36
0.0
 17
0.0
 27
1.0
 37
0.0
 76
     0
330
1F
331
29
  0
MATERIAL
  5
3D
102
{ACAD_REACTORS
330
3B
102
}
330
3B
100
AcDbMaterial
  1
ByBlock
 72
     1
 94
      127
  0
MATERIAL
  5
3C
102
{ACAD_REACTORS
330
3B
102
}
330
3B
100
AcDbMaterial
  1
ByLayer
 72
     1
 94
      127
  0
MATERIAL
  5
3E
102
{ACAD_REACTORS
330
3B
102
}
330
3B
100
AcDbMaterial
  1
Global
 72
     1
 94
      127
  0
MLINESTYLE
  5
18
102
{ACAD_REACTORS
330
17
102
}
330
17
100
AcDbMlineStyle
  2
Standard
 70
     0
  3

 62
   256
 51
90.0
 52
90.0
 71
     2
 49
0.5
 62
   256
  6
BYLAYER
 49
-0.5
 62
   256
  6
BYLAYER
  0
ACDBPLACEHOLDER
  5
F
102
{ACAD_REACTORS
330
E
102
}
330
E
  0
VISUALSTYLE
  5
2F
102
{ACAD_REACTORS
330
2A
102
}
330
2A
100
AcDbVisualStyle
  2
2dWireframe
 70
     4
177
     2
291
     0
 71
     0
176
     1
 72
     2
176
     1
 73
     0
176
     1
 90
        0
176
     1
 40
-0.6
176
     1
 41
-30.0
176
     1
 62
     5
 63
     7
421
 16777215
176
     1
 74
     1
176
     1
 91
        4
176
     1
 64
     7
176
     1
 65
   257
176
     1
 75
     1
176
     1
175
     1
176
     1
 42
1.0
176
     1
 92
        0
176
     1
 66
   257
176
     1
 43
1.0
176
     1
 76
     1
176
     1
 77
     6
176
     1
 78
     2
176
     1
 67
     7
176
     1
 79
     5
176
     1
170
     0
176
     1
171
     0
176
     1
290
     0
176
     1
 93
        1
176
     1
 44
0.0
176
     1
173
     0
176
     1
  0
VISUALSTYLE
  5
31
102
{ACAD_REACTORS
330
2A
102
}
330
2A
100
AcDbVisualStyle
  2
3D Hidden
 70
     6
177
     2
291
     0
 71
     1
176
     1
 72
     2
176
     1
 73
     2
176
     1
 90
        0
176
     1
 40
-0.6
176
     1
 41
-30.0
176
     1
 62
     5
 63
     7
421
 16777215
176
     1
 74
     2
176
     1
 91
        2
176
     1
 64
     7
176
     1
 65
   257
176
     1
 75
     2
176
     1
175
     1
176
     1
 42
40.0
176
     1
 92
        0
176
     1
 66
   257
176
     1
 43
1.0
176
     1
 76
     1
176
     1
 77
     6
176
     1
 78
     2
176
     1
 67
     7
176
     1
 79
     3
176
     1
170
     0
176
     1
171
     0
176
     1
290
     0
176
     1
 93
        1
176
     1
 44
0.0
176
     1
173
     0
176
     1
  0
VISUALSTYLE
  5
30
102
{ACAD_REACTORS
330
2A
102
}
330
2A
100
AcDbVisualStyle
  2
3dWireframe
 70
     5
177
     2
291
     0
 71
     0
176
     1
 72
     2
176
     1
 73
     0
176
     1
 90
        0
176
     1
 40
-0.6
176
     1
 41
-30.0
176
     1
 62
     5
 63
     7
421
 16777215
176
     1
 74
     1
176
     1
 91
        4
176
     1
 64
     7
176
     1
 65
   257
176
     1
 75
     1
176
     1
175
     1
176
     1
 42
1.0
176
     1
 92
        0
176
     1
 66
   257
176
     1
 43
1.0
176
     1
 76
     1
176
     1
 77
     6
176
     1
 78
     2
176
     1
 67
     7
176
     1
 79
     5
176
     1
170
     0
176
     1
171
     0
176
     1
290
     0
176
     1
 93
        1
176
     1
 44
0.0
176
     1
173
     0
176
     1
  0
VISUALSTYLE
  5
32
102
{ACAD_REACTORS
330
2A
102
}
330
2A
100
AcDbVisualStyle
  2
Basic
 70
     7
177
     2
291
     1
 71
     1
176
     1
 72
     0
176
     1
 73
     1
176
     1
 90
        0
176
     1
 40
-0.6
176
     1
 41
-30.0
176
     1
 62
     5
 63
     7
421
 16777215
176
     1
 74
     0
176
     1
 91
        4
176
     1
 64
     7
176
     1
 65
   257
176
     1
 75
     1
176
     1
175
     1
176
     1
 42
1.0
176
     1
 92
        8
176
     1
 66
     7
176
     1
 43
1.0
176
     1
 76
     1
176
     1
 77
     6
176
     1
 78
     2
176
     1
 67
     7
176
     1
 79
     5
176
     1
170
     0
176
     1
171
     0
176
     1
290
     0
176
     1
 93
        1
176
     1
 44
0.0
176
     1
173
     0
176
     1
  0
VISUALSTYLE
  5
36
102
{ACAD_REACTORS
330
2A
102
}
330
2A
100
AcDbVisualStyle
  2
Brighten
 70
    12
177
     2
291
     1
 71
     2
176
     1
 72
     2
176
     1
 73
     0
176
     1
 90
        0
176
     1
 40
-0.6
176
     1
 41
-30.0
176
     1
 62
     5
 63
     7
421
 16777215
176
     1
 74
     1
176
     1
 91
        4
176
     1
 64
     7
176
     1
 65
   257
176
     1
 75
     1
176
     1
175
     1
176
     1
 42
1.0
176
     1
 92
        8
176
     1
 66
     7
176
     1
 43
1.0
176
     1
 76
     1
176
     1
 77
     6
176
     1
 78
     2
176
     1
 67
     7
176
     1
 79
     5
176
     1
170
     0
176
     1
171
     0
176
     1
290
     0
176
     1
 93
        1
176
     1
 44
50.0
176
     1
173
     0
176
     1
  0
VISUALSTYLE
  5
3A
102
{ACAD_REACTORS
330
2A
102
}
330
2A
100
AcDbVisualStyle
  2
ColorChange
 70
    16
177
     2
291
     1
 71
     2
176
     1
 72
     2
176
     1
 73
     3
176
     1
 90
        0
176
     1
 40
-0.6
176
     1
 41
-30.0
176
     1
 62
     5
 63
     8
421
  8421504
176
     1
 74
     1
176
     1
 91
        4
176
     1
 64
     7
176
     1
 65
   257
176
     1
 75
     1
176
     1
175
     1
176
     1
 42
1.0
176
     1
 92
        8
176
     1
 66
     8
424
  8421504
176
     1
 43
1.0
176
     1
 76
     1
176
     1
 77
     6
176
     1
 78
     2
176
     1
 67
     7
176
     1
 79
     5
176
     1
170
     0
176
     1
171
     0
176
     1
290
     0
176
     1
 93
        1
176
     1
 44
0.0
176
     1
173
     0
176
     1
  0
VISUALSTYLE
  5
34
102
{ACAD_REACTORS
330
2A
102
}
330
2A
100
AcDbVisualStyle
  2
Conceptual
 70
     9
177
     2
291
     0
 71
     3
176
     1
 72
     2
176
     1
 73
     0
176
     1
 90
        0
176
     1
 40
-0.6
176
     1
 41
-30.0
176
     1
 62
     5
 63
     7
421
 16777215
176
     1
 74
     2
176
     1
 91
        2
176
     1
 64
     7
176
     1
 65
   257
176
     1
 75
     1
176
     1
175
     1
176
     1
 42
40.0
176
     1
 92
        8
176
     1
 66
     7
176
     1
 43
1.0
176
     1
 76
     1
176
     1
 77
     6
176
     1
 78
     2
176
     1
 67
     7
176
     1
 79
     3
176
     1
170
     0
176
     1
171
     0
176
     1
290
     0
176
     1
 93
        1
176
     1
 44
0.0
176
     1
173
     0
176
     1
  0
VISUALSTYLE
  5
35
102
{ACAD_REACTORS
330
2A
102
}
330
2A
100
AcDbVisualStyle
  2
Dim
 70
    11
177
     2
291
     1
 71
     2
176
     1
 72
     2
176
     1
 73
     0
176
     1
 90
        0
176
     1
 40
-0.6
176
     1
 41
-30.0
176
     1
 62
     5
 63
     7
421
 16777215
176
     1
 74
     1
176
     1
 91
        4
176
     1
 64
     7
176
     1
 65
   257
176
     1
 75
     1
176
     1
175
     1
176
     1
 42
1.0
176
     1
 92
        8
176
     1
 66
     7
176
     1
 43
1.0
176
     1
 76
     1
176
     1
 77
     6
176
     1
 78
     2
176
     1
 67
     7
176
     1
 79
     5
176
     1
170
     0
176
     1
171
     0
176
     1
290
     0
176
     1
 93
        1
176
     1
 44
-50.0
176
     1
173
     0
176
     1
  0
VISUALSTYLE
  5
39
102
{ACAD_REACTORS
330
2A
102
}
330
2A
100
AcDbVisualStyle
  2
Facepattern
 70
    15
177
     2
291
     1
 71
     2
176
     1
 72
     2
176
     1
 73
     0
176
     1
 90
        0
176
     1
 40
-0.6
176
     1
 41
-30.0
176
     1
 62
     5
 63
     7
421
 16777215
176
     1
 74
     1
176
     1
 91
        4
176
     1
 64
     7
176
     1
 65
   257
176
     1
 75
     1
176
     1
175
     1
176
     1
 42
1.0
176
     1
 92
        8
176
     1
 66
     7
176
     1
 43
1.0
176
     1
 76
     1
176
     1
 77
     6
176
     1
 78
     2
176
     1
 67
     7
176
     1
 79
     5
176
     1
170
     0
176
     1
171
     0
176
     1
290
     0
176
     1
 93
        1
176
     1
 44
0.0
176
     1
173
     0
176
     1
  0
VISUALSTYLE
  5
2B
102
{ACAD_REACTORS
330
2A
102
}
330
2A
100
AcDbVisualStyle
  2
Flat
 70
     0
177
     2
291
     1
 71
     2
176
     1
 72
     1
176
     1
 73
     1
176
     1
 90
        2
176
     1
 40
-0.6
176
     1
 41
30.0
176
     1
 62
     5
 63
     7
421
 16777215
176
     1
 74
     0
176
     1
 91
        4
176
     1
 64
     7
176
     1
 65
   257
176
     1
 75
     1
176
     1
175
     1
176
     1
 42
1.0
176
     1
 92
        8
176
     1
 66
     7
176
     1
 43
1.0
176
     1
 76
     1
176
     1
 77
     6
176
     1
 78
     2
176
     1
 67
     7
176
     1
 79
     5
176
     1
170
     0
176
     1
171
     0
176
     1
290
     0
176
     1
 93
       13
176
     1
 44
0.0
176
     1
173
     0
176
     1
  0
VISUALSTYLE
  5
2C
102
{ACAD_REACTORS
330
2A
102
}
330
2A
100
AcDbVisualStyle
  2
FlatWithEdges
 70
     1
177
     2
291
     1
 71
     2
176
     1
 72
     1
176
     1
 73
     1
176
     1
 90
        2
176
     1
 40
-0.6
176
     1
 41
30.0
176
     1
 62
     5
 63
     7
421
 16777215
176
     1
 74
     1
176
     1
 91
        4
176
     1
 64
     7
176
     1
 65
   257
176
     1
 75
     1
176
     1
175
     1
176
     1
 42
1.0
176
     1
 92
        0
176
     1
 66
   257
176
     1
 43
1.0
176
     1
 76
     1
176
     1
 77
     6
176
     1
 78
     2
176
     1
 67
     7
176
     1
 79
     5
176
     1
170
     0
176
     1
171
     0
176
     1
290
     0
176
     1
 93
       13
176
     1
 44
0.0
176
     1
173
     0
176
     1
  0
VISUALSTYLE
  5
2D
102
{ACAD_REACTORS
330
2A
102
}
330
2A
100
AcDbVisualStyle
  2
Gouraud
 70
     2
177
     2
291
     1
 71
     2
176
     1
 72
     2
176
     1
 73
     1
176
     1
 90
        2
176
     1
 40
-0.6
176
     1
 41
30.0
176
     1
 62
     5
 63
     7
421
 16777215
176
     1
 74
     0
176
     1
 91
        4
176
     1
 64
     7
176
     1
 65
   257
176
     1
 75
     1
176
     1
175
     1
176
     1
 42
1.0
176
     1
 92
        0
176
     1
 66
     7
176
     1
 43
1.0
176
     1
 76
     1
176
     1
 77
     6
176
     1
 78
     2
176
     1
 67
     7
176
     1
 79
     5
176
     1
170
     0
176
     1
171
     0
176
     1
290
     0
176
     1
 93
       13
176
     1
 44
0.0
176
     1
173
     0
176
     1
  0
VISUALSTYLE
  5
2E
102
{ACAD_REACTORS
330
2A
102
}
330
2A
100
AcDbVisualStyle
  2
GouraudWithEdges
 70
     3
177
     2
291
     1
 71
     2
176
     1
 72
     2
176
     1
 73
     1
176
     1
 90
        2
176
     1
 40
-0.6
176
     1
 41
30.0
176
     1
 62
     5
 63
     7
421
 16777215
176
     1
 74
     1
176
     1
 91
        4
176
     1
 64
     7
176
     1
 65
   257
176
     1
 75
     1
176
     1
175
     1
176
     1
 42
1.0
176
     1
 92
        0
176
     1
 66
   257
176
     1
 43
1.0
176
     1
 76
     1
176
     1
 77
     6
176
     1
 78
     2
176
     1
 67
     7
176
     1
 79
     5
176
     1
170
     0
176
     1
171
     0
176
     1
290
     0
176
     1
 93
       13
176
     1
 44
0.0
176
     1
173
     0
176
     1
  0
VISUALSTYLE
  5
38
102
{ACAD_REACTORS
330
2A
102
}
330
2A
100
AcDbVisualStyle
  2
Linepattern
 70
    14
177
     2
291
     1
 71
     2
176
     1
 72
     2
176
     1
 73
     0
176
     1
 90
        0
176
     1
 40
-0.6
176
     1
 41
-30.0
176
     1
 62
     5
 63
     7
421
 16777215
176
     1
 74
     1
176
     1
 91
        4
176
     1
 64
     7
176
     1
 65
   257
176
     1
 75
     7
176
     1
175
     7
176
     1
 42
1.0
176
     1
 92
        8
176
     1
 66
     7
176
     1
 43
1.0
176
     1
 76
     1
176
     1
 77
     6
176
     1
 78
     2
176
     1
 67
     7
176
     1
 79
     5
176
     1
170
     0
176
     1
171
     0
176
     1
290
     0
176
     1
 93
        1
176
     1
 44
0.0
176
     1
173
     0
176
     1
  0
VISUALSTYLE
  5
33
102
{ACAD_REACTORS
330
2A
102
}
330
2A
100
AcDbVisualStyle
  2
Realistic
 70
     8
177
     2
291
     0
 71
     2
176
     1
 72
     2
176
     1
 73
     0
176
     1
 90
        0
176
     1
 40
-0.6
176
     1
 41
-30.0
176
     1
 62
     5
 63
     7
421
 16777215
176
     1
 74
     1
176
     1
 91
        0
176
     1
 64
     7
176
     1
 65
   257
176
     1
 75
     1
176
     1
175
     1
176
     1
 42
1.0
176
     1
 92
        8
176
     1
 66
     8
424
  7895160
176
     1
 43
1.0
176
     1
 76
     1
176
     1
 77
     6
176
     1
 78
     2
176
     1
 67
     7
176
     1
 79
     5
176
     1
170
     0
176
     1
171
     0
176
     1
290
     0
176
     1
 93
       13
176
     1
 44
0.0
176
     1
173
     0
176
     1
  0
VISUALSTYLE
  5
37
102
{ACAD_REACTORS
330
2A
102
}
330
2A
100
AcDbVisualStyle
  2
Thicken
 70
    13
177
     2
291
     1
 71
     2
176
     1
 72
     2
176
     1
 73
     0
176
     1
 90
        0
176
     1
 40
-0.6
176
     1
 41
-30.0
176
     1
 62
     5
 63
     7
421
 16777215
176
     1
 74
     1
176
     1
 91
        4
176
     1
 64
     7
176
     1
 65
   257
176
     1
 75
     1
176
     1
175
     1
176
     1
 42
1.0
176
     1
 92
       12
176
     1
 66
     7
176
     1
 43
1.0
176
     1
 76
     1
176
     1
 77
     6
176
     1
 78
     2
176
     1
 67
     7
176
     1
 79
     5
176
     1
170
     0
176
     1
171
     0
176
     1
290
     0
176
     1
 93
        1
176
     1
 44
0.0
176
     1
173
     0
176
     1
  0
ENDSEC
  0
EOF
