  0
SECTION
  2
HEADER
  9
$ACADVER
  1
AC1024
  9
$ACADMAINTVER
 70
     6
  9
$DWGCODEPAGE
  3
UNDEFINED
  9
$INSBASE
 10
0.0
 20
0.0
 30
0.0
  9
$EXTMIN
 10
1.000000000000000E+20
 20
1.000000000000000E+20
 30
1.000000000000000E+20
  9
$EXTMAX
 10
-1.000000000000000E+20
 20
-1.000000000000000E+20
 30
-1.000000000000000E+20
  9
$LIMMIN
 10
0.0
 20
0.0
  9
$LIMMAX
 10
12.0
 20
9.0
  9
$ORTHOMODE
 70
     0
  9
$REGENMODE
 70
     1
  9
$FILLMODE
 70
     1
  9
$QTEXTMODE
 70
     0
  9
$MIRRTEXT
 70
     1
  9
$LTSCALE
 40
1.0
  9
$ATTMODE
 70
     1
  9
$TEXTSIZE
 40
0.2
  9
$TRACEWID
 40
0.05
  9
$TEXTSTYLE
  7
Standard
  9
$CLAYER
  8
0
  9
$CELTYPE
  6
ByLayer
  9
$CECOLOR
 62
   256
  9
$CELTSCALE
 40
1.0
  9
$DISPSILH
 70
     0
  9
$DIMSCALE
 40
1.0
  9
$DIMASZ
 40
0.18
  9
$DIMEXO
 40
0.0625
  9
$DIMDLI
 40
0.38
  9
$DIMRND
 40
0.0
  9
$DIMDLE
 40
0.0
  9
$DIMEXE
 40
0.18
  9
$DIMTP
 40
0.0
  9
$DIMTM
 40
0.0
  9
$DIMTXT
 40
0.18
  9
$DIMCEN
 40
0.09
  9
$DIMTSZ
 40
0.0
  9
$DIMTOL
 70
     0
  9
$DIMLIM
 70
     0
  9
$DIMTIH
 70
     1
  9
$DIMTOH
 70
     1
  9
$DIMSE1
 70
     0
  9
$DIMSE2
 70
     0
  9
$DIMTAD
 70
     0
  9
$DIMZIN
 70
     0
  9
$DIMBLK
  1

  9
$DIMASO
 70
     1
  9
$DIMSHO
 70
     1
  9
$DIMPOST
  1

  9
$DIMAPOST
  1

  9
$DIMALT
 70
     0
  9
$DIMALTD
 70
     2
  9
$DIMALTF
 40
25.4
  9
$DIMLFAC
 40
1.0
  9
$DIMTOFL
 70
     0
  9
$DIMTVP
 40
0.0
  9
$DIMTIX
 70
     0
  9
$DIMSOXD
 70
     0
  9
$DIMSAH
 70
     0
  9
$DIMBLK1
  1

  9
$DIMBLK2
  1

  9
$DIMSTYLE
  2
Standard
  9
$DIMCLRD
 70
     0
  9
$DIMCLRE
 70
     0
  9
$DIMCLRT
 70
     0
  9
$DIMTFAC
 40
1.0
  9
$DIMGAP
 40
0.09
  9
$DIMJUST
 70
     0
  9
$DIMSD1
 70
     0
  9
$DIMSD2
 70
     0
  9
$DIMTOLJ
 70
     1
  9
$DIMTZIN
 70
     0
  9
$DIMALTZ
 70
     0
  9
$DIMALTTZ
 70
     0
  9
$DIMUPT
 70
     0
  9
$DIMDEC
 70
     4
  9
$DIMTDEC
 70
     4
  9
$DIMALTU
 70
     2
  9
$DIMALTTD
 70
     2
  9
$DIMTXSTY
  7
Standard
  9
$DIMAUNIT
 70
     0
  9
$DIMADEC
 70
     0
  9
$DIMALTRND
 40
0.0
  9
$DIMAZIN
 70
     0
  9
$DIMDSEP
 70
    46
  9
$DIMATFIT
 70
     3
  9
$DIMFRAC
 70
     0
  9
$DIMLDRBLK
  1

  9
$DIMLUNIT
 70
     2
  9
$DIMLWD
 70
    -2
  9
$DIMLWE
 70
    -2
  9
$DIMTMOVE
 70
     0
  9
$DIMFXL
 40
1.0
  9
$DIMFXLON
 70
     0
  9
$DIMJOGANG
 40
0.7853981633974483
  9
$DIMTFILL
 70
     0
  9
$DIMTFILLCLR
 70
     0
  9
$DIMARCSYM
 70
     0
  9
$DIMLTYPE
  6

  9
$DIMLTEX1
  6

  9
$DIMLTEX2
  6

  9
$DIMTXTDIRECTION
 70
     0
  9
$LUNITS
 70
     2
  9
$LUPREC
 70
     4
  9
$SKETCHINC
 40
0.1
  9
$FILLETRAD
 40
0.5
  9
$AUNITS
 70
     0
  9
$AUPREC
 70
     0
  9
$MENU
  1
.
  9
$ELEVATION
 40
0.0
  9
$PELEVATION
 40
0.0
  9
$THICKNESS
 40
0.0
  9
$LIMCHECK
 70
     0
  9
$CHAMFERA
 40
0.5
  9
$CHAMFERB
 40
0.5
  9
$CHAMFERC
 40
1.0
  9
$CHAMFERD
 40
0.0
  9
$SKPOLY
 70
     0
  9
$TDCREATE
 40
2458263.584386574
  9
$TDUCREATE
 40
2458263.209386574
  9
$TDUPDATE
 40
2458263.584386574
  9
$TDUUPDATE
 40
2458263.209386574
  9
$TDINDWG
 40
0.0000000116
  9
$TDUSRTIMER
 40
0.0000000116
  9
$USRTIMER
 70
     1
  9
$ANGBASE
 50
0.0
  9
$ANGDIR
 70
     0
  9
$PDMODE
 70
     0
  9
$PDSIZE
 40
0.0
  9
$PLINEWID
 40
0.0
  9
$SPLFRAME
 70
     0
  9
$SPLINETYPE
 70
     6
  9
$SPLINESEGS
 70
     8
  9
$HANDSEED
  5
173
  9
$SURFTAB1
 70
     6
  9
$SURFTAB2
 70
     6
  9
$SURFTYPE
 70
     6
  9
$SURFU
 70
     6
  9
$SURFV
 70
     6
  9
$UCSBASE
  2

  9
$UCSNAME
  2

  9
$UCSORG
 10
0.0
 20
0.0
 30
0.0
  9
$UCSXDIR
 10
1.0
 20
0.0
 30
0.0
  9
$UCSYDIR
 10
0.0
 20
1.0
 30
0.0
  9
$UCSORTHOREF
  2

  9
$UCSORTHOVIEW
 70
     0
  9
$UCSORGTOP
 10
0.0
 20
0.0
 30
0.0
  9
$UCSORGBOTTOM
 10
0.0
 20
0.0
 30
0.0
  9
$UCSORGLEFT
 10
0.0
 20
0.0
 30
0.0
  9
$UCSORGRIGHT
 10
0.0
 20
0.0
 30
0.0
  9
$UCSORGFRONT
 10
0.0
 20
0.0
 30
0.0
  9
$UCSORGBACK
 10
0.0
 20
0.0
 30
0.0
  9
$PUCSBASE
  2

  9
$PUCSNAME
  2

  9
$PUCSORG
 10
0.0
 20
0.0
 30
0.0
  9
$PUCSXDIR
 10
1.0
 20
0.0
 30
0.0
  9
$PUCSYDIR
 10
0.0
 20
1.0
 30
0.0
  9
$PUCSORTHOREF
  2

  9
$PUCSORTHOVIEW
 70
     0
  9
$PUCSORGTOP
 10
0.0
 20
0.0
 30
0.0
  9
$PUCSORGBOTTOM
 10
0.0
 20
0.0
 30
0.0
  9
$PUCSORGLEFT
 10
0.0
 20
0.0
 30
0.0
  9
$PUCSORGRIGHT
 10
0.0
 20
0.0
 30
0.0
  9
$PUCSORGFRONT
 10
0.0
 20
0.0
 30
0.0
  9
$PUCSORGBACK
 10
0.0
 20
0.0
 30
0.0
  9
$USERI1
 70
     0
  9
$USERI2
 70
     0
  9
$USERI3
 70
     0
  9
$USERI4
 70
     0
  9
$USERI5
 70
     0
  9
$USERR1
 40
0.0
  9
$USERR2
 40
0.0
  9
$USERR3
 40
0.0
  9
$USERR4
 40
0.0
  9
$USERR5
 40
0.0
  9
$WORLDVIEW
 70
     1
  9
$SHADEDGE
 70
     3
  9
$SHADEDIF
 70
    70
  9
$TILEMODE
 70
     1
  9
$MAXACTVP
 70
    64
  9
$PINSBASE
 10
0.0
 20
0.0
 30
0.0
  9
$PLIMCHECK
 70
     0
  9
$PEXTMIN
 10
1.000000000000000E+20
 20
1.000000000000000E+20
 30
1.000000000000000E+20
  9
$PEXTMAX
 10
-1.000000000000000E+20
 20
-1.000000000000000E+20
 30
-1.000000000000000E+20
  9
$PLIMMIN
 10
0.0
 20
0.0
  9
$PLIMMAX
 10
12.0
 20
9.0
  9
$UNITMODE
 70
     0
  9
$VISRETAIN
 70
     1
  9
$PLINEGEN
 70
     0
  9
$PSLTSCALE
 70
     1
  9
$TREEDEPTH
 70
  3020
  9
$CMLSTYLE
  2
Standard
  9
$CMLJUST
 70
     0
  9
$CMLSCALE
 40
1.0
  9
$PROXYGRAPHICS
 70
     1
  9
$MEASUREMENT
 70
     0
  9
$CELWEIGHT
370
    -1
  9
$ENDCAPS
280
     0
  9
$JOINSTYLE
280
     0
  9
$LWDISPLAY
290
     1
  9
$INSUNITS
 70
     1
  9
$HYPERLINKBASE
  1

  9
$STYLESHEET
  1

  9
$XEDIT
290
     1
  9
$CEPSNTYPE
380
     0
  9
$PSTYLEMODE
290
     1
  9
$FINGERPRINTGUID
  2
{D7027717-2663-F4C1-89C8-39FAED11BE1A}
  9
$VERSIONGUID
  2
{FAEB1C32-E019-11D5-929B-00C0DF256EC4}
  9
$EXTNAMES
290
     1
  9
$PSVPSCALE
 40
0.0
  9
$OLESTARTUP
290
     0
  9
$SORTENTS
280
   127
  9
$INDEXCTL
280
     0
  9
$HIDETEXT
280
     1
  9
$XCLIPFRAME
280
     2
  9
$HALOGAP
280
     0
  9
$OBSCOLOR
 70
   257
  9
$OBSLTYPE
280
     0
  9
$INTERSECTIONDISPLAY
280
     0
  9
$INTERSECTIONCOLOR
 70
   257
  9
$DIMASSOC
280
     2
  9
$PROJECTNAME
  1

  9
$CAMERADISPLAY
290
     0
  9
$LENSLENGTH
 40
50.0
  9
$CAMERAHEIGHT
 40
0.0
  9
$STEPSPERSEC
 40
2.0
  9
$STEPSIZE
 40
6.0
  9
$3DDWFPREC
 40
2.0
  9
$PSOLWIDTH
 40
0.25
  9
$PSOLHEIGHT
 40
4.0
  9
$LOFTANG1
 40
1.570796326794897
  9
$LOFTANG2
 40
1.570796326794897
  9
$LOFTMAG1
 40
0.0
  9
$LOFTMAG2
 40
0.0
  9
$LOFTPARAM
 70
     7
  9
$LOFTNORMALS
280
     1
  9
$LATITUDE
 40
37.795
  9
$LONGITUDE
 40
-122.394
  9
$NORTHDIRECTION
 40
0.0
  9
$TIMEZONE
 70
 -8000
  9
$LIGHTGLYPHDISPLAY
280
     1
  9
$TILEMODELIGHTSYNCH
280
     1
  9
$CMATERIAL
347
3C
  9
$SOLIDHIST
280
     1
  9
$SHOWHIST
280
     1
  9
$DWFFRAME
280
     2
  9
$DGNFRAME
280
     2
  9
$REALWORLDSCALE
290
     1
  9
$INTERFERECOLOR
 62
   256
  9
$CSHADOW
280
     0
  9
$SHADOWPLANELOCATION
 40
0.0
  0
ENDSEC
  0
SECTION
  2
CLASSES
  0
CLASS
  1
ACDBDICTIONARYWDFLT
  2
AcDbDictionaryWithDefault
  3
ObjectDBX Classes
 90
        0
 91
        4
280
     0
281
     0
  0
CLASS
  1
VISUALSTYLE
  2
AcDbVisualStyle
  3
ObjectDBX Classes
 90
     4095
 91
        4
280
     0
281
     0
  0
CLASS
  1
MATERIAL
  2
AcDbMaterial
  3
ObjectDBX Classes
 90
     1153
 91
        4
280
     0
281
     0
  0
CLASS
  1
SUN
  2
AcDbSun
  3
SCENEOE
 90
     1024
 91
        4
280
     0
281
     0
  0
ENDSEC
  0
SECTION
  2
TABLES
  0
TABLE
  2
VPORT
  5
8
330
0
100
AcDbSymbolTable
 70
     1
  0
VPORT
  5
29
330
8
100
AcDbSymbolTableRecord
100
AcDbViewportTableRecord
  2
*Active
 70
     0
 10
0.0
 20
0.0
 11
1.0
 21
1.0
 12
0.0
 22
0.0
 13
0.0
 23
0.0
 14
0.5
 24
0.5
 15
0.5
 25
0.5
 16
0.0
 26
0.0
 36
1.0
 17
105.0007777515277
 27
-148.5000416295416
 37
0.0
 40
297.0000832590831
 41
0.7070757462376333
 42
50.0
 43
0.0
 44
0.0
 50
0.0
 51
0.0
 71
     0
 72
   100
 73
     1
 74
     3
 75
     0
 76
     0
 77
     0
 78
     0
281
     0
 65
     1
110
0.0
120
0.0
130
0.0
111
1.0
121
0.0
131
0.0
112
0.0
122
1.0
132
0.0
 79
     0
146
0.0
 60
     3
 61
     5
292
     1
282
     1
141
0.0
142
0.0
 63
   250
361
3F
  0
ENDTAB
  0
TABLE
  2
LTYPE
  5
5
330
0
100
AcDbSymbolTable
 70
     1
  0
LTYPE
  5
14
330
5
100
AcDbSymbolTableRecord
100
AcDbLinetypeTableRecord
  2
ByBlock
 70
     0
  3

 72
    65
 73
     0
 40
0.0
  0
LTYPE
  5
15
330
5
100
AcDbSymbolTableRecord
100
AcDbLinetypeTableRecord
  2
ByLayer
 70
     0
  3

 72
    65
 73
     0
 40
0.0
  0
LTYPE
  5
16
330
5
100
AcDbSymbolTableRecord
100
AcDbLinetypeTableRecord
  2
Continuous
 70
     0
  3
Solid line
 72
    65
 73
     0
 40
0.0
  0
ENDTAB
  0
TABLE
  2
LAYER
  5
2
330
0
100
AcDbSymbolTable
 70
     2
  0
LAYER
  5
10
330
2
100
AcDbSymbolTableRecord
100
AcDbLayerTableRecord
  2
0
 70
     0
 62
     7
  6
Continuous
370
    -3
390
F
347
3E
  0
LAYER
  5
40
330
2
100
AcDbSymbolTableRecord
100
AcDbLayerTableRecord
  2
_U+30EC_U+30A4_U+30E4_U+30FC 1
 70
     0
 62
     7
  6
Continuous
370
    -3
390
F
347
3E
  0
ENDTAB
  0
TABLE
  2
STYLE
  5
3
330
0
100
AcDbSymbolTable
 70
     1
  0
STYLE
  5
11
330
3
100
AcDbSymbolTableRecord
100
AcDbTextStyleTableRecord
  2
Standard
 70
     0
 40
0.0
 41
1.0
 50
0.0
 71
     0
 42
0.2
  3
txt
  4

  0
ENDTAB
  0
TABLE
  2
VIEW
  5
6
330
0
100
AcDbSymbolTable
 70
     0
  0
ENDTAB
  0
TABLE
  2
UCS
  5
7
330
0
100
AcDbSymbolTable
 70
     0
  0
ENDTAB
  0
TABLE
  2
APPID
  5
9
330
0
100
AcDbSymbolTable
 70
     1
  0
APPID
  5
12
330
9
100
AcDbSymbolTableRecord
100
AcDbRegAppTableRecord
  2
ACAD
 70
     0
  0
ENDTAB
  0
TABLE
  2
DIMSTYLE
  5
A
330
0
100
AcDbSymbolTable
 70
     1
100
AcDbDimStyleTable
  0
DIMSTYLE
105
27
330
A
100
AcDbSymbolTableRecord
100
AcDbDimStyleTableRecord
  2
Standard
 70
     0
178
     0
340
11
  0
ENDTAB
  0
TABLE
  2
BLOCK_RECORD
  5
1
330
0
100
AcDbSymbolTable
 70
    10
  0
BLOCK_RECORD
  5
1F
330
1
100
AcDbSymbolTableRecord
100
AcDbBlockTableRecord
  2
*Model_Space
340
22
 70
     0
280
     1
281
     0
  0
BLOCK_RECORD
  5
1B
330
1
100
AcDbSymbolTableRecord
100
AcDbBlockTableRecord
  2
*Paper_Space
340
1E
 70
     0
280
     1
281
     0
  0
BLOCK_RECORD
  5
23
330
1
100
AcDbSymbolTableRecord
100
AcDbBlockTableRecord
  2
*Paper_Space0
340
26
 70
     0
280
     1
281
     0
  0
BLOCK_RECORD
  5
41
330
1
100
AcDbSymbolTableRecord
100
AcDbBlockTableRecord
  2
block 2
340
0
102
{BLKREFS
331
42
102
}
 70
     0
280
     1
281
     0
  0
BLOCK_RECORD
  5
49
330
1
100
AcDbSymbolTableRecord
100
AcDbBlockTableRecord
  2
block 3
340
0
102
{BLKREFS
331
4A
102
}
 70
     0
280
     1
281
     0
  0
BLOCK_RECORD
  5
85
330
1
100
AcDbSymbolTableRecord
100
AcDbBlockTableRecord
  2
block 4
340
0
102
{BLKREFS
331
86
102
}
 70
     0
280
     1
281
     0
  0
BLOCK_RECORD
  5
98
330
1
100
AcDbSymbolTableRecord
100
AcDbBlockTableRecord
  2
block 5
340
0
102
{BLKREFS
331
99
102
}
 70
     0
280
     1
281
     0
  0
BLOCK_RECORD
  5
A8
330
1
100
AcDbSymbolTableRecord
100
AcDbBlockTableRecord
  2
block 6
340
0
102
{BLKREFS
331
A9
102
}
 70
     0
280
     1
281
     0
  0
BLOCK_RECORD
  5
B0
330
1
100
AcDbSymbolTableRecord
100
AcDbBlockTableRecord
  2
block 7
340
0
102
{BLKREFS
331
B1
102
}
 70
     0
280
     1
281
     0
  0
BLOCK_RECORD
  5
B8
330
1
100
AcDbSymbolTableRecord
100
AcDbBlockTableRecord
  2
block 8
340
0
102
{BLKREFS
331
B9
102
}
 70
     0
280
     1
281
     0
  0
BLOCK_RECORD
  5
C0
330
1
100
AcDbSymbolTableRecord
100
AcDbBlockTableRecord
  2
block 9
340
0
102
{BLKREFS
331
C1
102
}
 70
     0
280
     1
281
     0
  0
BLOCK_RECORD
  5
D2
330
1
100
AcDbSymbolTableRecord
100
AcDbBlockTableRecord
  2
block 10
340
0
102
{BLKREFS
331
D3
102
}
 70
     0
280
     1
281
     0
  0
ENDTAB
  0
ENDSEC
  0
SECTION
  2
BLOCKS
  0
BLOCK
  5
20
330
1F
100
AcDbEntity
  8
0
100
AcDbBlockBegin
  2
*Model_Space
 70
     0
 10
0.0
 20
0.0
 30
0.0
  3
*Model_Space
  1

  0
ENDBLK
  5
21
330
1F
100
AcDbEntity
  8
0
100
AcDbBlockEnd
  0
BLOCK
  5
1C
330
1B
100
AcDbEntity
 67
     1
  8
0
100
AcDbBlockBegin
  2
*Paper_Space
 70
     0
 10
0.0
 20
0.0
 30
0.0
  3
*Paper_Space
  1

  0
ENDBLK
  5
1D
330
1B
100
AcDbEntity
 67
     1
  8
0
100
AcDbBlockEnd
  0
BLOCK
  5
24
330
23
100
AcDbEntity
  8
0
100
AcDbBlockBegin
  2
*Paper_Space0
 70
     0
 10
0.0
 20
0.0
 30
0.0
  3
*Paper_Space0
  1

  0
ENDBLK
  5
25
330
23
100
AcDbEntity
  8
0
100
AcDbBlockEnd
  0
BLOCK
  5
43
330
41
100
AcDbEntity
  8
0
100
AcDbBlockBegin
  2
block 2
 70
     0
 10
0.0
 20
0.0
 30
0.0
  3
block 2
  1

  0
SPLINE
  5
45
330
41
100
AcDbEntity
  8
_U+30EC_U+30A4_U+30E4_U+30FC 1
370
     0
100
AcDbSpline
210
0.0
220
0.0
230
1.0
 70
    11
 71
     3
 72
    62
 73
    58
 74
     0
 42
0.0000000001
 43
0.0000000001
 12
1.0
 22
0.0
 32
0.0
 13
1.0
 23
0.0
 33
0.0
 40
0.0
 40
0.0
 40
0.0
 40
0.0
 40
1.0
 40
1.0
 40
1.0
 40
2.0
 40
2.0
 40
2.0
 40
3.0
 40
3.0
 40
3.0
 40
4.0
 40
4.0
 40
4.0
 40
5.0
 40
5.0
 40
5.0
 40
6.0
 40
6.0
 40
6.0
 40
7.0
 40
7.0
 40
7.0
 40
8.0
 40
8.0
 40
8.0
 40
9.0
 40
9.0
 40
9.0
 40
10.0
 40
10.0
 40
10.0
 40
11.0
 40
11.0
 40
11.0
 40
12.0
 40
12.0
 40
12.0
 40
13.0
 40
13.0
 40
13.0
 40
14.0
 40
14.0
 40
14.0
 40
15.0
 40
15.0
 40
15.0
 40
16.0
 40
16.0
 40
16.0
 40
17.0
 40
17.0
 40
17.0
 40
18.0
 40
18.0
 40
18.0
 40
19.0
 40
19.0
 40
19.0
 40
19.0
 10
98.65272078696877
 20
-131.5783596133728
 30
0.0
 10
98.56934947622572
 20
-131.5783596133728
 30
0.0
 10
98.37849118634288
 20
-131.5573445309128
 30
0.0
 10
98.26928165946046
 20
-131.3713093747093
 30
0.0
 10
98.20451386433777
 20
-131.2589992618901
 30
0.0
 10
98.200724259304
 20
-131.1597805119149
 30
0.0
 10
98.19693465427021
 20
-131.0750311629778
 30
0.0
 10
98.19693465427021
 20
-131.0750311629778
 30
0.0
 10
98.3898600014442
 20
-131.0750311629778
 30
0.0
 10
98.3898600014442
 20
-131.0750311629778
 30
0.0
 10
98.39158254918684
 20
-131.1491007159106
 30
0.0
 10
98.400884306997
 20
-131.3837117184562
 30
0.0
 10
98.648931181935
 20
-131.3837117184562
 30
0.0
 10
98.76916501437022
 20
-131.3837117184562
 30
0.0
 10
98.90249020964939
 20
-131.3141207896541
 30
0.0
 10
98.90249020964939
 20
-131.085710958982
 30
0.0
 10
98.90249020964939
 20
-130.9692667315806
 30
0.0
 10
98.86941729299099
 20
-130.9206908852386
 30
0.0
 10
98.84151201956045
 20
-130.8889960067743
 30
0.0
 10
98.77674422443776
 20
-130.8149264538414
 30
0.0
 10
98.67476939807437
 20
-130.802179600546
 30
0.0
 10
98.6268825708294
 20
-130.802179600546
 30
0.0
 10
98.61000160295167
 20
-130.802179600546
 30
0.0
 10
98.5786512340359
 20
-130.8042466578371
 30
0.0
 10
98.55453556563914
 20
-130.8083807724194
 30
0.0
 10
98.55453556563914
 20
-130.8083807724194
 30
0.0
 10
98.55453556563914
 20
-130.6137328775028
 30
0.0
 10
98.55453556563914
 20
-130.6137328775028
 30
0.0
 10
98.58795299184607
 20
-130.6202785589248
 30
0.0
 10
98.62481551353825
 20
-130.6223456162159
 30
0.0
 10
98.63032766631464
 20
-130.6223456162159
 30
0.0
 10
98.68786076091831
 20
-130.6223456162159
 30
0.0
 10
98.86183808292343
 20
-130.6009860242074
 30
0.0
 10
98.86183808292343
 20
-130.3643079643707
 30
0.0
 10
98.86183808292343
 20
-130.1865410373318
 30
0.0
 10
98.74711640326461
 20
-130.1314195095678
 30
0.0
 10
98.65065372967761
 20
-130.1314195095678
 30
0.0
 10
98.41948782261736
 20
-130.1314195095678
 30
0.0
 10
98.41190861254981
 20
-130.3643079643707
 30
0.0
 10
98.40811900751604
 20
-130.4359659504639
 30
0.0
 10
98.40811900751604
 20
-130.4359659504639
 30
0.0
 10
98.23035208047713
 20
-130.4359659504639
 30
0.0
 10
98.23035208047713
 20
-130.4359659504639
 30
0.0
 10
98.2379312905447
 20
-130.3112534938979
 30
0.0
 10
98.26204695894144
 20
-129.9347045573601
 30
0.0
 10
98.66202254477895
 20
-129.9347045573601
 30
0.0
 10
98.85804847788965
 20
-129.9347045573601
 30
0.0
 10
99.06923283113548
 20
-130.0618285807658
 30
0.0
 10
99.06923283113548
 20
-130.3577622829488
 30
0.0
 10
99.06923283113548
 20
-130.5441419487008
 30
0.0
 10
98.98586152039243
 20
-130.6264797307983
 30
0.0
 10
98.89904511416414
 20
-130.6878024304357
 30
0.0
 10
98.95278860373404
 20
-130.7153631943177
 30
0.0
 10
99.11195201515257
 20
-130.795633919124
 30
0.0
 10
99.11195201515257
 20
-131.0729641056866
 30
0.0
 10
99.11195201515257
 20
-131.4112724823381
 30
0.0
 10
98.89525550913035
 20
-131.5783596133728
 30
0.0
 10
98.65272078696877
 20
-131.5783596133728
 30
0.0
  0
HATCH
  5
46
330
41
100
AcDbEntity
  8
_U+30EC_U+30A4_U+30E4_U+30FC 1
 62
   179
420
  2234388
100
AcDbHatch
 10
0.0
 20
0.0
 30
0.0
210
0.0
220
0.0
230
1.0
  2
SOLID
 70
     1
 71
     0
 91
        1
 92
        1
 93
        1
 72
     4
 94
        3
 73
     0
 74
     1
 95
       62
 96
       58
 40
0.0
 40
0.0
 40
0.0
 40
0.0
 40
1.0
 40
1.0
 40
1.0
 40
2.0
 40
2.0
 40
2.0
 40
3.0
 40
3.0
 40
3.0
 40
4.0
 40
4.0
 40
4.0
 40
5.0
 40
5.0
 40
5.0
 40
6.0
 40
6.0
 40
6.0
 40
7.0
 40
7.0
 40
7.0
 40
8.0
 40
8.0
 40
8.0
 40
9.0
 40
9.0
 40
9.0
 40
10.0
 40
10.0
 40
10.0
 40
11.0
 40
11.0
 40
11.0
 40
12.0
 40
12.0
 40
12.0
 40
13.0
 40
13.0
 40
13.0
 40
14.0
 40
14.0
 40
14.0
 40
15.0
 40
15.0
 40
15.0
 40
16.0
 40
16.0
 40
16.0
 40
17.0
 40
17.0
 40
17.0
 40
18.0
 40
18.0
 40
18.0
 40
19.0
 40
19.0
 40
19.0
 40
19.0
 10
98.65272078696877
 20
-131.5783596133728
 10
98.56934947622572
 20
-131.5783596133728
 10
98.37849118634288
 20
-131.5573445309128
 10
98.26928165946046
 20
-131.3713093747093
 10
98.20451386433777
 20
-131.2589992618901
 10
98.200724259304
 20
-131.1597805119149
 10
98.19693465427021
 20
-131.0750311629778
 10
98.19693465427021
 20
-131.0750311629778
 10
98.3898600014442
 20
-131.0750311629778
 10
98.3898600014442
 20
-131.0750311629778
 10
98.39158254918684
 20
-131.1491007159106
 10
98.400884306997
 20
-131.3837117184562
 10
98.648931181935
 20
-131.3837117184562
 10
98.76916501437022
 20
-131.3837117184562
 10
98.90249020964939
 20
-131.3141207896541
 10
98.90249020964939
 20
-131.085710958982
 10
98.90249020964939
 20
-130.9692667315806
 10
98.86941729299099
 20
-130.9206908852386
 10
98.84151201956045
 20
-130.8889960067743
 10
98.77674422443776
 20
-130.8149264538414
 10
98.67476939807437
 20
-130.802179600546
 10
98.6268825708294
 20
-130.802179600546
 10
98.61000160295167
 20
-130.802179600546
 10
98.5786512340359
 20
-130.8042466578371
 10
98.55453556563914
 20
-130.8083807724194
 10
98.55453556563914
 20
-130.8083807724194
 10
98.55453556563914
 20
-130.6137328775028
 10
98.55453556563914
 20
-130.6137328775028
 10
98.58795299184607
 20
-130.6202785589248
 10
98.62481551353825
 20
-130.6223456162159
 10
98.63032766631464
 20
-130.6223456162159
 10
98.68786076091831
 20
-130.6223456162159
 10
98.86183808292343
 20
-130.6009860242074
 10
98.86183808292343
 20
-130.3643079643707
 10
98.86183808292343
 20
-130.1865410373318
 10
98.74711640326461
 20
-130.1314195095678
 10
98.65065372967761
 20
-130.1314195095678
 10
98.41948782261736
 20
-130.1314195095678
 10
98.41190861254981
 20
-130.3643079643707
 10
98.40811900751604
 20
-130.4359659504639
 10
98.40811900751604
 20
-130.4359659504639
 10
98.23035208047713
 20
-130.4359659504639
 10
98.23035208047713
 20
-130.4359659504639
 10
98.2379312905447
 20
-130.3112534938979
 10
98.26204695894144
 20
-129.9347045573601
 10
98.66202254477895
 20
-129.9347045573601
 10
98.85804847788965
 20
-129.9347045573601
 10
99.06923283113548
 20
-130.0618285807658
 10
99.06923283113548
 20
-130.3577622829488
 10
99.06923283113548
 20
-130.5441419487008
 10
98.98586152039243
 20
-130.6264797307983
 10
98.89904511416414
 20
-130.6878024304357
 10
98.95278860373404
 20
-130.7153631943177
 10
99.11195201515257
 20
-130.795633919124
 10
99.11195201515257
 20
-131.0729641056866
 10
99.11195201515257
 20
-131.4112724823381
 10
98.89525550913035
 20
-131.5783596133728
 10
98.65272078696877
 20
-131.5783596133728
 97
        0
 97
        0
 75
     2
 76
     1
 98
        0
  0
SPLINE
  5
47
330
41
100
AcDbEntity
  8
_U+30EC_U+30A4_U+30E4_U+30FC 1
370
     0
100
AcDbSpline
210
0.0
220
0.0
230
1.0
 70
    11
 71
     3
 72
    44
 73
    40
 74
     0
 42
0.0000000001
 43
0.0000000001
 12
1.0
 22
0.0
 32
0.0
 13
1.0
 23
0.0
 33
0.0
 40
0.0
 40
0.0
 40
0.0
 40
0.0
 40
1.0
 40
1.0
 40
1.0
 40
2.0
 40
2.0
 40
2.0
 40
3.0
 40
3.0
 40
3.0
 40
4.0
 40
4.0
 40
4.0
 40
5.0
 40
5.0
 40
5.0
 40
6.0
 40
6.0
 40
6.0
 40
7.0
 40
7.0
 40
7.0
 40
8.0
 40
8.0
 40
8.0
 40
9.0
 40
9.0
 40
9.0
 40
10.0
 40
10.0
 40
10.0
 40
11.0
 40
11.0
 40
11.0
 40
12.0
 40
12.0
 40
12.0
 40
13.0
 40
13.0
 40
13.0
 40
13.0
 10
99.77237681967496
 20
-130.9458400822809
 30
0.0
 10
99.58151852979212
 20
-131.1046589841509
 30
0.0
 10
99.50021427634023
 20
-131.1787285370838
 30
0.0
 10
99.45749509232313
 20
-131.3223890188187
 30
0.0
 10
99.45749509232313
 20
-131.3223890188187
 30
0.0
 10
100.1389349793055
 20
-131.3223890188187
 30
0.0
 10
100.1389349793055
 20
-131.3223890188187
 30
0.0
 10
100.1389349793055
 20
-131.3223890188187
 30
0.0
 10
100.1389349793055
 20
-131.5277167097396
 30
0.0
 10
100.1389349793055
 20
-131.5277167097396
 30
0.0
 10
100.1389349793055
 20
-131.5277167097396
 30
0.0
 10
99.2390760385583
 20
-131.5277167097396
 30
0.0
 10
99.2390760385583
 20
-131.5277167097396
 30
0.0
 10
99.26663680244029
 20
-131.1701157983707
 30
0.0
 10
99.32416989704396
 20
-131.0919121308555
 30
0.0
 10
99.6611002355014
 20
-130.7935668618329
 30
0.0
 10
99.88537595159116
 20
-130.594784852334
 30
0.0
 10
99.9425645366463
 20
-130.5269164712745
 30
0.0
 10
99.9425645366463
 20
-130.389457161413
 30
0.0
 10
99.9425645366463
 20
-130.2709458767205
 30
0.0
 10
99.87951928926624
 20
-130.140032248281
 30
0.0
 10
99.70760902455227
 20
-130.140032248281
 30
0.0
 10
99.47988821297726
 20
-130.140032248281
 30
0.0
 10
99.47230900290971
 20
-130.3705091362442
 30
0.0
 10
99.46851939787594
 20
-130.4869533636456
 30
0.0
 10
99.46851939787594
 20
-130.4869533636456
 30
0.0
 10
99.27249346476522
 20
-130.4869533636456
 30
0.0
 10
99.27249346476522
 20
-130.4869533636456
 30
0.0
 10
99.27972816528424
 20
-130.3598293402399
 30
0.0
 10
99.28902992309442
 20
-130.2478637369693
 30
0.0
 10
99.35930987099351
 20
-130.1293524522767
 30
0.0
 10
99.45577254458051
 20
-129.9684664931155
 30
0.0
 10
99.61872556103282
 20
-129.9347045573601
 30
0.0
 10
99.7203558778477
 20
-129.9347045573601
 30
0.0
 10
99.96289060000929
 20
-129.9347045573601
 30
0.0
 10
100.144447132082
 20
-130.1186726562724
 30
0.0
 10
100.144447132082
 20
-130.3915242187042
 30
0.0
 10
100.144447132082
 20
-130.6202785589248
 30
0.0
 10
100.0428168152671
 20
-130.7194973089
 30
0.0
 10
99.77237681967496
 20
-130.9458400822809
 30
0.0
  0
HATCH
  5
48
330
41
100
AcDbEntity
  8
_U+30EC_U+30A4_U+30E4_U+30FC 1
 62
   179
420
  2234388
100
AcDbHatch
 10
0.0
 20
0.0
 30
0.0
210
0.0
220
0.0
230
1.0
  2
SOLID
 70
     1
 71
     0
 91
        1
 92
        1
 93
        1
 72
     4
 94
        3
 73
     0
 74
     1
 95
       44
 96
       40
 40
0.0
 40
0.0
 40
0.0
 40
0.0
 40
1.0
 40
1.0
 40
1.0
 40
2.0
 40
2.0
 40
2.0
 40
3.0
 40
3.0
 40
3.0
 40
4.0
 40
4.0
 40
4.0
 40
5.0
 40
5.0
 40
5.0
 40
6.0
 40
6.0
 40
6.0
 40
7.0
 40
7.0
 40
7.0
 40
8.0
 40
8.0
 40
8.0
 40
9.0
 40
9.0
 40
9.0
 40
10.0
 40
10.0
 40
10.0
 40
11.0
 40
11.0
 40
11.0
 40
12.0
 40
12.0
 40
12.0
 40
13.0
 40
13.0
 40
13.0
 40
13.0
 10
99.77237681967496
 20
-130.9458400822809
 10
99.58151852979212
 20
-131.1046589841509
 10
99.50021427634023
 20
-131.1787285370838
 10
99.45749509232313
 20
-131.3223890188187
 10
99.45749509232313
 20
-131.3223890188187
 10
100.1389349793055
 20
-131.3223890188187
 10
100.1389349793055
 20
-131.3223890188187
 10
100.1389349793055
 20
-131.3223890188187
 10
100.1389349793055
 20
-131.5277167097396
 10
100.1389349793055
 20
-131.5277167097396
 10
100.1389349793055
 20
-131.5277167097396
 10
99.2390760385583
 20
-131.5277167097396
 10
99.2390760385583
 20
-131.5277167097396
 10
99.26663680244029
 20
-131.1701157983707
 10
99.32416989704396
 20
-131.0919121308555
 10
99.6611002355014
 20
-130.7935668618329
 10
99.88537595159116
 20
-130.594784852334
 10
99.9425645366463
 20
-130.5269164712745
 10
99.9425645366463
 20
-130.389457161413
 10
99.9425645366463
 20
-130.2709458767205
 10
99.87951928926624
 20
-130.140032248281
 10
99.70760902455227
 20
-130.140032248281
 10
99.47988821297726
 20
-130.140032248281
 10
99.47230900290971
 20
-130.3705091362442
 10
99.46851939787594
 20
-130.4869533636456
 10
99.46851939787594
 20
-130.4869533636456
 10
99.27249346476522
 20
-130.4869533636456
 10
99.27249346476522
 20
-130.4869533636456
 10
99.27972816528424
 20
-130.3598293402399
 10
99.28902992309442
 20
-130.2478637369693
 10
99.35930987099351
 20
-130.1293524522767
 10
99.45577254458051
 20
-129.9684664931155
 10
99.61872556103282
 20
-129.9347045573601
 10
99.7203558778477
 20
-129.9347045573601
 10
99.96289060000929
 20
-129.9347045573601
 10
100.144447132082
 20
-130.1186726562724
 10
100.144447132082
 20
-130.3915242187042
 10
100.144447132082
 20
-130.6202785589248
 10
100.0428168152671
 20
-130.7194973089
 10
99.77237681967496
 20
-130.9458400822809
 97
        0
 97
        0
 75
     2
 76
     1
 98
        0
  0
ENDBLK
  5
44
330
41
100
AcDbEntity
  8
0
100
AcDbBlockEnd
  0
BLOCK
  5
4B
330
49
100
AcDbEntity
  8
0
100
AcDbBlockBegin
  2
block 3
 70
     0
 10
0.0
 20
0.0
 30
0.0
  3
block 3
  1

  0
SPLINE
  5
4D
330
49
100
AcDbEntity
  8
_U+30EC_U+30A4_U+30E4_U+30FC 1
370
     0
100
AcDbSpline
210
0.0
220
0.0
230
1.0
 70
    11
 71
     3
 72
   197
 73
   193
 74
     0
 42
0.0000000001
 43
0.0000000001
 12
1.0
 22
0.0
 32
0.0
 13
1.0
 23
0.0
 33
0.0
 40
0.0
 40
0.0
 40
0.0
 40
0.0
 40
1.0
 40
1.0
 40
1.0
 40
2.0
 40
2.0
 40
2.0
 40
3.0
 40
3.0
 40
3.0
 40
4.0
 40
4.0
 40
4.0
 40
5.0
 40
5.0
 40
5.0
 40
6.0
 40
6.0
 40
6.0
 40
7.0
 40
7.0
 40
7.0
 40
8.0
 40
8.0
 40
8.0
 40
9.0
 40
9.0
 40
9.0
 40
10.0
 40
10.0
 40
10.0
 40
11.0
 40
11.0
 40
11.0
 40
12.0
 40
12.0
 40
12.0
 40
13.0
 40
13.0
 40
13.0
 40
14.0
 40
14.0
 40
14.0
 40
15.0
 40
15.0
 40
15.0
 40
16.0
 40
16.0
 40
16.0
 40
17.0
 40
17.0
 40
17.0
 40
18.0
 40
18.0
 40
18.0
 40
19.0
 40
19.0
 40
19.0
 40
20.0
 40
20.0
 40
20.0
 40
21.0
 40
21.0
 40
21.0
 40
22.0
 40
22.0
 40
22.0
 40
23.0
 40
23.0
 40
23.0
 40
24.0
 40
24.0
 40
24.0
 40
25.0
 40
25.0
 40
25.0
 40
26.0
 40
26.0
 40
26.0
 40
27.0
 40
27.0
 40
27.0
 40
28.0
 40
28.0
 40
28.0
 40
29.0
 40
29.0
 40
29.0
 40
30.0
 40
30.0
 40
30.0
 40
31.0
 40
31.0
 40
31.0
 40
32.0
 40
32.0
 40
32.0
 40
33.0
 40
33.0
 40
33.0
 40
34.0
 40
34.0
 40
34.0
 40
35.0
 40
35.0
 40
35.0
 40
36.0
 40
36.0
 40
36.0
 40
37.0
 40
37.0
 40
37.0
 40
38.0
 40
38.0
 40
38.0
 40
39.0
 40
39.0
 40
39.0
 40
40.0
 40
40.0
 40
40.0
 40
41.0
 40
41.0
 40
41.0
 40
42.0
 40
42.0
 40
42.0
 40
43.0
 40
43.0
 40
43.0
 40
44.0
 40
44.0
 40
44.0
 40
45.0
 40
45.0
 40
45.0
 40
46.0
 40
46.0
 40
46.0
 40
47.0
 40
47.0
 40
47.0
 40
48.0
 40
48.0
 40
48.0
 40
49.0
 40
49.0
 40
49.0
 40
50.0
 40
50.0
 40
50.0
 40
51.0
 40
51.0
 40
51.0
 40
52.0
 40
52.0
 40
52.0
 40
53.0
 40
53.0
 40
53.0
 40
54.0
 40
54.0
 40
54.0
 40
55.0
 40
55.0
 40
55.0
 40
56.0
 40
56.0
 40
56.0
 40
57.0
 40
57.0
 40
57.0
 40
58.0
 40
58.0
 40
58.0
 40
59.0
 40
59.0
 40
59.0
 40
60.0
 40
60.0
 40
60.0
 40
61.0
 40
61.0
 40
61.0
 40
62.0
 40
62.0
 40
62.0
 40
63.0
 40
63.0
 40
63.0
 40
64.0
 40
64.0
 40
64.0
 40
64.0
 10
122.3639349737493
 20
-132.8998982415146
 30
0.0
 10
122.3546332159391
 20
-132.9295260626878
 30
0.0
 10
122.3343071525761
 20
-132.9760348517386
 30
0.0
 10
122.325005394766
 20
-133.0035956156206
 30
0.0
 10
122.325005394766
 20
-133.0035956156206
 30
0.0
 10
122.2712619051961
 20
-133.1558688360687
 30
0.0
 10
122.2712619051961
 20
-133.1558688360687
 30
0.0
 10
122.2619601473859
 20
-133.1813625426595
 30
0.0
 10
122.2192409633688
 20
-133.2933281459301
 30
0.0
 10
122.208216657816
 20
-133.3167547952299
 30
0.0
 10
122.2064941100734
 20
-133.3229559671033
 30
0.0
 10
122.2027045050396
 20
-133.3315687058164
 30
0.0
 10
122.200981957297
 20
-133.3377698776899
 30
0.0
 10
122.200981957297
 20
-133.3377698776899
 30
0.0
 10
122.0177028774817
 20
-133.2850599167655
 30
0.0
 10
122.0177028774817
 20
-133.2850599167655
 30
0.0
 10
122.0859157680896
 20
-133.1751613707861
 30
0.0
 10
122.1396592576595
 20
-133.0397691182158
 30
0.0
 10
122.1675645310901
 20
-132.9295260626878
 30
0.0
 10
122.1675645310901
 20
-132.9295260626878
 30
0.0
 10
121.760009735185
 20
-132.9295260626878
 30
0.0
 10
121.760009735185
 20
-132.9295260626878
 30
0.0
 10
121.6897297872859
 20
-133.0945461364312
 30
0.0
 10
121.6304741449396
 20
-133.1727498039464
 30
0.0
 10
121.6008463237665
 20
-133.2130574211238
 30
0.0
 10
121.6008463237665
 20
-133.2130574211238
 30
0.0
 10
121.4933593446267
 20
-133.1476006069041
 30
0.0
 10
121.4933593446267
 20
-133.1476006069041
 30
0.0
 10
121.4933593446267
 20
-133.1476006069041
 30
0.0
 10
121.4933593446267
 20
-133.318821852521
 30
0.0
 10
121.4933593446267
 20
-133.318821852521
 30
0.0
 10
121.4933593446267
 20
-133.4266533412093
 30
0.0
 10
121.4954264019178
 20
-133.4755736970999
 30
0.0
 10
121.504728159728
 20
-133.581338128497
 30
0.0
 10
121.4416829123479
 20
-133.5789265616574
 30
0.0
 10
121.4230793967276
 20
-133.5789265616574
 30
0.0
 10
121.2435899219461
 20
-133.5789265616574
 30
0.0
 10
121.2435899219461
 20
-133.5789265616574
 30
0.0
 10
121.1953585851526
 20
-133.5789265616574
 30
0.0
 10
121.1953585851526
 20
-133.5789265616574
 30
0.0
 10
121.1953585851526
 20
-133.5789265616574
 30
0.0
 10
121.1953585851526
 20
-133.7143188142277
 30
0.0
 10
121.1953585851526
 20
-133.7143188142277
 30
0.0
 10
121.1953585851526
 20
-133.7143188142277
 30
0.0
 10
121.2584038325326
 20
-133.7143188142277
 30
0.0
 10
121.2584038325326
 20
-133.7143188142277
 30
0.0
 10
121.3155924175878
 20
-133.7143188142277
 30
0.0
 10
121.4434054600905
 20
-133.7101846996454
 30
0.0
 10
121.5360785286438
 20
-133.7019164704808
 30
0.0
 10
121.5360785286438
 20
-133.7019164704808
 30
0.0
 10
121.5360785286438
 20
-133.8793388879711
 30
0.0
 10
121.5360785286438
 20
-133.8793388879711
 30
0.0
 10
121.4509846701581
 20
-133.8731377160977
 30
0.0
 10
121.3121473221025
 20
-133.8690036015154
 30
0.0
 10
121.2584038325326
 20
-133.8690036015154
 30
0.0
 10
121.2584038325326
 20
-133.8690036015154
 30
0.0
 10
121.1953585851526
 20
-133.8690036015154
 30
0.0
 10
121.1953585851526
 20
-133.8690036015154
 30
0.0
 10
121.1970811328952
 20
-133.9578870650348
 30
0.0
 10
121.200870737929
 20
-134.1966321821627
 30
0.0
 10
121.2025932856716
 20
-134.2707017350955
 30
0.0
 10
121.2025932856716
 20
-134.2707017350955
 30
0.0
 10
121.0268934159238
 20
-134.2707017350955
 30
0.0
 10
121.0268934159238
 20
-134.2707017350955
 30
0.0
 10
121.0379177214766
 20
-134.05710581501
 30
0.0
 10
121.0379177214766
 20
-134.0274779938369
 30
0.0
 10
121.0417073265104
 20
-133.8690036015154
 30
0.0
 10
121.0417073265104
 20
-133.8690036015154
 30
0.0
 10
120.9807291364215
 20
-133.8690036015154
 30
0.0
 10
120.9807291364215
 20
-133.8690036015154
 30
0.0
 10
120.9304307423368
 20
-133.8690036015154
 30
0.0
 10
120.7971055470577
 20
-133.8731377160977
 30
0.0
 10
120.7009873830192
 20
-133.8793388879711
 30
0.0
 10
120.7009873830192
 20
-133.8793388879711
 30
0.0
 10
120.7009873830192
 20
-133.7019164704808
 30
0.0
 10
120.7009873830192
 20
-133.7019164704808
 30
0.0
 10
120.7936604515724
 20
-133.7101846996454
 30
0.0
 10
120.919406436784
 20
-133.7143188142277
 30
0.0
 10
120.9807291364215
 20
-133.7143188142277
 30
0.0
 10
120.9807291364215
 20
-133.7143188142277
 30
0.0
 10
121.0454969315442
 20
-133.7143188142277
 30
0.0
 10
121.0454969315442
 20
-133.7143188142277
 30
0.0
 10
121.0454969315442
 20
-133.7143188142277
 30
0.0
 10
121.0454969315442
 20
-133.5789265616574
 30
0.0
 10
121.0454969315442
 20
-133.5789265616574
 30
0.0
 10
121.0454969315442
 20
-133.5789265616574
 30
0.0
 10
121.0065673525609
 20
-133.5789265616574
 30
0.0
 10
121.0065673525609
 20
-133.5789265616574
 30
0.0
 10
120.939732500147
 20
-133.5789265616574
 30
0.0
 10
120.7712673309183
 20
-133.581338128497
 30
0.0
 10
120.7416395097452
 20
-133.581338128497
 30
0.0
 10
120.7471516625215
 20
-133.5093356328553
 30
0.0
 10
120.7547308725891
 20
-133.4287203985005
 30
0.0
 10
120.7547308725891
 20
-133.3081420565167
 30
0.0
 10
120.7547308725891
 20
-133.3081420565167
 30
0.0
 10
120.7547308725891
 20
-133.1348537536087
 30
0.0
 10
120.7547308725891
 20
-133.1348537536087
 30
0.0
 10
120.7547308725891
 20
-133.0628512579669
 30
0.0
 10
120.7471516625215
 20
-132.9422729159832
 30
0.0
 10
120.7416395097452
 20
-132.8620021911769
 30
0.0
 10
120.8101969099016
 20
-132.8661363057592
 30
0.0
 10
120.8436143361085
 20
-132.8682033630503
 30
0.0
 10
120.9545464107336
 20
-132.8682033630503
 30
0.0
 10
120.9545464107336
 20
-132.8682033630503
 30
0.0
 10
121.0454969315442
 20
-132.8682033630503
 30
0.0
 10
121.0454969315442
 20
-132.8682033630503
 30
0.0
 10
121.0454969315442
 20
-132.8682033630503
 30
0.0
 10
121.0454969315442
 20
-132.7221313144757
 30
0.0
 10
121.0454969315442
 20
-132.7221313144757
 30
0.0
 10
121.0454969315442
 20
-132.7221313144757
 30
0.0
 10
120.9769395313877
 20
-132.7221313144757
 30
0.0
 10
120.9769395313877
 20
-132.7221313144757
 30
0.0
 10
120.9287081945942
 20
-132.7221313144757
 30
0.0
 10
120.7788465409859
 20
-132.7266099386065
 30
0.0
 10
120.704776988053
 20
-132.73281111048
 30
0.0
 10
120.704776988053
 20
-132.73281111048
 30
0.0
 10
120.704776988053
 20
-132.5550441834411
 30
0.0
 10
120.704776988053
 20
-132.5550441834411
 30
0.0
 10
120.7767794836947
 20
-132.5615898648631
 30
0.0
 10
120.919406436784
 20
-132.5657239794454
 30
0.0
 10
120.9769395313877
 20
-132.5657239794454
 30
0.0
 10
120.9769395313877
 20
-132.5657239794454
 30
0.0
 10
121.0454969315442
 20
-132.5657239794454
 30
0.0
 10
121.0454969315442
 20
-132.5657239794454
 30
0.0
 10
121.0454969315442
 20
-132.5319620436899
 30
0.0
 10
121.0417073265104
 20
-132.3776217659507
 30
0.0
 10
121.0417073265104
 20
-132.3455823779379
 30
0.0
 10
121.0417073265104
 20
-132.3455823779379
 30
0.0
 10
121.2139621007729
 20
-132.3628078553642
 30
0.0
 10
121.2139621007729
 20
-132.3628078553642
 30
0.0
 10
121.2287760113595
 20
-132.3648749126553
 30
0.0
 10
121.2473795269798
 20
-132.3669419699465
 30
0.0
 10
121.2473795269798
 20
-132.3879570524065
 30
0.0
 10
121.2473795269798
 20
-132.4113837017062
 30
0.0
 10
121.2287760113595
 20
-132.4196519308708
 30
0.0
 10
121.2046603429627
 20
-132.4323987841662
 30
0.0
 10
121.2046603429627
 20
-132.4537583761748
 30
0.0
 10
121.2025932856716
 20
-132.5488430115677
 30
0.0
 10
121.2025932856716
 20
-132.5657239794454
 30
0.0
 10
121.2025932856716
 20
-132.5657239794454
 30
0.0
 10
121.2546142274988
 20
-132.5657239794454
 30
0.0
 10
121.2546142274988
 20
-132.5657239794454
 30
0.0
 10
121.3138698698451
 20
-132.5657239794454
 30
0.0
 10
121.4396158550568
 20
-132.5615898648631
 30
0.0
 10
121.53228892361
 20
-132.5550441834411
 30
0.0
 10
121.53228892361
 20
-132.5550441834411
 30
0.0
 10
121.53228892361
 20
-132.73281111048
 30
0.0
 10
121.53228892361
 20
-132.73281111048
 30
0.0
 10
121.4471950651243
 20
-132.7266099386065
 30
0.0
 10
121.3100802648114
 20
-132.7221313144757
 30
0.0
 10
121.2546142274988
 20
-132.7221313144757
 30
0.0
 10
121.2546142274988
 20
-132.7221313144757
 30
0.0
 10
121.1953585851526
 20
-132.7221313144757
 30
0.0
 10
121.1953585851526
 20
-132.7221313144757
 30
0.0
 10
121.1953585851526
 20
-132.7221313144757
 30
0.0
 10
121.1953585851526
 20
-132.8682033630503
 30
0.0
 10
121.1953585851526
 20
-132.8682033630503
 30
0.0
 10
121.1953585851526
 20
-132.8682033630503
 30
0.0
 10
121.2563367752415
 20
-132.8682033630503
 30
0.0
 10
121.2563367752415
 20
-132.8682033630503
 30
0.0
 10
121.387939422778
 20
-132.8682033630503
 30
0.0
 10
121.4509846701581
 20
-132.864069248468
 30
0.0
 10
121.504728159728
 20
-132.8620021911769
 30
0.0
 10
121.4971489496604
 20
-132.9570868265698
 30
0.0
 10
121.4954264019178
 20
-133.0352904940849
 30
0.0
 10
121.4933593446267
 20
-133.0735310539712
 30
0.0
 10
121.628751597197
 20
-132.8620021911769
 30
0.0
 10
121.7214246657502
 20
-132.6142998257874
 30
0.0
 10
121.7358940667882
 20
-132.3521280593599
 30
0.0
 10
121.7358940667882
 20
-132.3521280593599
 30
0.0
 10
121.9250298089285
 20
-132.4027709629931
 30
0.0
 10
121.9250298089285
 20
-132.4027709629931
 30
0.0
 10
121.9377766622239
 20
-132.4072495871239
 30
0.0
 10
121.9508680250678
 20
-132.4134507589973
 30
0.0
 10
121.9508680250678
 20
-132.4303317268751
 30
0.0
 10
121.9508680250678
 20
-132.4472126947528
 30
0.0
 10
121.9470784200341
 20
-132.4492797520439
 30
0.0
 10
121.9026366882743
 20
-132.4706393440525
 30
0.0
 10
121.8878227776878
 20
-132.5467759542765
 30
0.0
 10
121.8657741665822
 20
-132.6377264750871
 30
0.0
 10
121.8230549825651
 20
-132.7645059889443
 30
0.0
 10
121.8230549825651
 20
-132.7645059889443
 30
0.0
 10
122.1193331942966
 20
-132.7645059889443
 30
0.0
 10
122.1193331942966
 20
-132.7645059889443
 30
0.0
 10
122.1527506205035
 20
-132.7645059889443
 30
0.0
 10
122.2657497524197
 20
-132.760371874362
 30
0.0
 10
122.3081244268883
 20
-132.7541707024886
 30
0.0
 10
122.3081244268883
 20
-132.7541707024886
 30
0.0
 10
122.3897731898887
 20
-132.8237616312906
 30
0.0
 10
122.3897731898887
 20
-132.8237616312906
 30
0.0
 10
122.3821939798211
 20
-132.8451212232991
 30
0.0
 10
122.3766818270447
 20
-132.864069248468
 30
0.0
 10
122.3639349737493
 20
-132.8998982415146
 30
0.0
  0
POLYLINE
  5
4E
330
49
100
AcDbEntity
  8
_U+30EC_U+30A4_U+30E4_U+30FC 1
370
     0
100
AcDb2dPolyline
 66
     1
 10
0.0
 20
0.0
 30
0.0
  0
VERTEX
  5
4F
330
4E
100
AcDbEntity
  8
_U+30EC_U+30A4_U+30E4_U+30FC 1
370
     0
100
AcDbVertex
100
AcDb2dVertex
 10
121.0454969315442
 20
-133.0249552076292
 30
0.0
  0
VERTEX
  5
50
330
4E
100
AcDbEntity
  8
_U+30EC_U+30A4_U+30E4_U+30FC 1
370
     0
100
AcDbVertex
100
AcDb2dVertex
 10
120.9063150739401
 20
-133.0249552076292
 30
0.0
  0
VERTEX
  5
51
330
4E
100
AcDbEntity
  8
_U+30EC_U+30A4_U+30E4_U+30FC 1
370
     0
100
AcDbVertex
100
AcDb2dVertex
 10
120.9063150739401
 20
-133.1538017787775
 30
0.0
  0
VERTEX
  5
52
330
4E
100
AcDbEntity
  8
_U+30EC_U+30A4_U+30E4_U+30FC 1
370
     0
100
AcDbVertex
100
AcDb2dVertex
 10
121.0454969315442
 20
-133.1538017787775
 30
0.0
  0
VERTEX
  5
53
330
4E
100
AcDbEntity
  8
_U+30EC_U+30A4_U+30E4_U+30FC 1
370
     0
100
AcDbVertex
100
AcDb2dVertex
 10
121.0454969315442
 20
-133.0249552076292
 30
0.0
  0
SEQEND
  5
54
330
4E
100
AcDbEntity
  8
_U+30EC_U+30A4_U+30E4_U+30FC 1
370
     0
  0
POLYLINE
  5
55
330
49
100
AcDbEntity
  8
_U+30EC_U+30A4_U+30E4_U+30FC 1
370
     0
100
AcDb2dPolyline
 66
     1
 10
0.0
 20
0.0
 30
0.0
  0
VERTEX
  5
56
330
55
100
AcDbEntity
  8
_U+30EC_U+30A4_U+30E4_U+30FC 1
370
     0
100
AcDbVertex
100
AcDb2dVertex
 10
121.0454969315442
 20
-133.297806770061
 30
0.0
  0
VERTEX
  5
57
330
55
100
AcDbEntity
  8
_U+30EC_U+30A4_U+30E4_U+30FC 1
370
     0
100
AcDbVertex
100
AcDb2dVertex
 10
120.9063150739401
 20
-133.297806770061
 30
0.0
  0
VERTEX
  5
58
330
55
100
AcDbEntity
  8
_U+30EC_U+30A4_U+30E4_U+30FC 1
370
     0
100
AcDbVertex
100
AcDb2dVertex
 10
120.9063150739401
 20
-133.4266533412093
 30
0.0
  0
VERTEX
  5
59
330
55
100
AcDbEntity
  8
_U+30EC_U+30A4_U+30E4_U+30FC 1
370
     0
100
AcDbVertex
100
AcDb2dVertex
 10
121.0454969315442
 20
-133.4266533412093
 30
0.0
  0
VERTEX
  5
5A
330
55
100
AcDbEntity
  8
_U+30EC_U+30A4_U+30E4_U+30FC 1
370
     0
100
AcDbVertex
100
AcDb2dVertex
 10
121.0454969315442
 20
-133.297806770061
 30
0.0
  0
SEQEND
  5
5B
330
55
100
AcDbEntity
  8
_U+30EC_U+30A4_U+30E4_U+30FC 1
370
     0
  0
POLYLINE
  5
5C
330
49
100
AcDbEntity
  8
_U+30EC_U+30A4_U+30E4_U+30FC 1
370
     0
100
AcDb2dPolyline
 66
     1
 10
0.0
 20
0.0
 30
0.0
  0
VERTEX
  5
5D
330
5C
100
AcDbEntity
  8
_U+30EC_U+30A4_U+30E4_U+30FC 1
370
     0
100
AcDbVertex
100
AcDb2dVertex
 10
121.3362629904993
 20
-133.0249552076292
 30
0.0
  0
VERTEX
  5
5E
330
5C
100
AcDbEntity
  8
_U+30EC_U+30A4_U+30E4_U+30FC 1
370
     0
100
AcDbVertex
100
AcDb2dVertex
 10
121.1953585851526
 20
-133.0249552076292
 30
0.0
  0
VERTEX
  5
5F
330
5C
100
AcDbEntity
  8
_U+30EC_U+30A4_U+30E4_U+30FC 1
370
     0
100
AcDbVertex
100
AcDb2dVertex
 10
121.1953585851526
 20
-133.1538017787775
 30
0.0
  0
VERTEX
  5
60
330
5C
100
AcDbEntity
  8
_U+30EC_U+30A4_U+30E4_U+30FC 1
370
     0
100
AcDbVertex
100
AcDb2dVertex
 10
121.3362629904993
 20
-133.1538017787775
 30
0.0
  0
VERTEX
  5
61
330
5C
100
AcDbEntity
  8
_U+30EC_U+30A4_U+30E4_U+30FC 1
370
     0
100
AcDbVertex
100
AcDb2dVertex
 10
121.3362629904993
 20
-133.0249552076292
 30
0.0
  0
SEQEND
  5
62
330
5C
100
AcDbEntity
  8
_U+30EC_U+30A4_U+30E4_U+30FC 1
370
     0
  0
POLYLINE
  5
63
330
49
100
AcDbEntity
  8
_U+30EC_U+30A4_U+30E4_U+30FC 1
370
     0
100
AcDb2dPolyline
 66
     1
 10
0.0
 20
0.0
 30
0.0
  0
VERTEX
  5
64
330
63
100
AcDbEntity
  8
_U+30EC_U+30A4_U+30E4_U+30FC 1
370
     0
100
AcDbVertex
100
AcDb2dVertex
 10
121.3362629904993
 20
-133.297806770061
 30
0.0
  0
VERTEX
  5
65
330
63
100
AcDbEntity
  8
_U+30EC_U+30A4_U+30E4_U+30FC 1
370
     0
100
AcDbVertex
100
AcDb2dVertex
 10
121.1953585851526
 20
-133.297806770061
 30
0.0
  0
VERTEX
  5
66
330
63
100
AcDbEntity
  8
_U+30EC_U+30A4_U+30E4_U+30FC 1
370
     0
100
AcDbVertex
100
AcDb2dVertex
 10
121.1953585851526
 20
-133.4266533412093
 30
0.0
  0
VERTEX
  5
67
330
63
100
AcDbEntity
  8
_U+30EC_U+30A4_U+30E4_U+30FC 1
370
     0
100
AcDbVertex
100
AcDb2dVertex
 10
121.3362629904993
 20
-133.4266533412093
 30
0.0
  0
VERTEX
  5
68
330
63
100
AcDbEntity
  8
_U+30EC_U+30A4_U+30E4_U+30FC 1
370
     0
100
AcDbVertex
100
AcDb2dVertex
 10
121.3362629904993
 20
-133.297806770061
 30
0.0
  0
SEQEND
  5
69
330
63
100
AcDbEntity
  8
_U+30EC_U+30A4_U+30E4_U+30FC 1
370
     0
  0
SPLINE
  5
6A
330
49
100
AcDbEntity
  8
_U+30EC_U+30A4_U+30E4_U+30FC 1
370
     0
100
AcDbSpline
210
0.0
220
0.0
230
1.0
 70
    11
 71
     3
 72
    41
 73
    37
 74
     0
 42
0.0000000001
 43
0.0000000001
 12
1.0
 22
0.0
 32
0.0
 13
1.0
 23
0.0
 33
0.0
 40
0.0
 40
0.0
 40
0.0
 40
0.0
 40
1.0
 40
1.0
 40
1.0
 40
2.0
 40
2.0
 40
2.0
 40
3.0
 40
3.0
 40
3.0
 40
4.0
 40
4.0
 40
4.0
 40
5.0
 40
5.0
 40
5.0
 40
6.0
 40
6.0
 40
6.0
 40
7.0
 40
7.0
 40
7.0
 40
8.0
 40
8.0
 40
8.0
 40
9.0
 40
9.0
 40
9.0
 40
10.0
 40
10.0
 40
10.0
 40
11.0
 40
11.0
 40
11.0
 40
12.0
 40
12.0
 40
12.0
 40
12.0
 10
122.2898654208164
 20
-134.255887824509
 30
0.0
 10
122.0786810675706
 20
-134.1204955719386
 30
0.0
 10
121.9229627516373
 20
-133.8245618697557
 30
0.0
 10
121.8878227776878
 20
-133.6953707890588
 30
0.0
 10
121.7824028558391
 20
-133.959954122326
 30
0.0
 10
121.6397759027498
 20
-134.1377210493649
 30
0.0
 10
121.4806124913312
 20
-134.2517537099266
 30
0.0
 10
121.4806124913312
 20
-134.2517537099266
 30
0.0
 10
121.3083577170687
 20
-134.1142944000652
 30
0.0
 10
121.3083577170687
 20
-134.1142944000652
 30
0.0
 10
121.3693359071577
 20
-134.0888006934743
 30
0.0
 10
121.4971489496604
 20
-134.0274779938369
 30
0.0
 10
121.6046359288002
 20
-133.8731377160977
 30
0.0
 10
121.7138454556827
 20
-133.7167303810674
 30
0.0
 10
121.7917046136493
 20
-133.4838419262645
 30
0.0
 10
121.7917046136493
 20
-133.2237372171281
 30
0.0
 10
121.7917046136493
 20
-133.1221069003132
 30
0.0
 10
121.7806803080965
 20
-133.0501044046715
 30
0.0
 10
121.7713785502863
 20
-133.0035956156206
 30
0.0
 10
121.7713785502863
 20
-133.0035956156206
 30
0.0
 10
121.9508680250678
 20
-133.0249552076292
 30
0.0
 10
121.9508680250678
 20
-133.0249552076292
 30
0.0
 10
121.9694715406882
 20
-133.0270222649203
 30
0.0
 10
121.9880750563085
 20
-133.0290893222115
 30
0.0
 10
121.9880750563085
 20
-133.0501044046715
 30
0.0
 10
121.9880750563085
 20
-133.0693969393889
 30
0.0
 10
121.9787732984984
 20
-133.0776651685535
 30
0.0
 10
121.9491454773252
 20
-133.0986802510135
 30
0.0
 10
121.9415662672577
 20
-133.2998738273521
 30
0.0
 10
121.9915201517938
 20
-133.5430975686108
 30
0.0
 10
122.0452636413637
 20
-133.6636759105945
 30
0.0
 10
122.124845347073
 20
-133.8393757803422
 30
0.0
 10
122.2953775735928
 20
-134.0192097646723
 30
0.0
 10
122.4138888582854
 20
-134.0760538401789
 30
0.0
 10
122.4138888582854
 20
-134.0760538401789
 30
0.0
 10
122.2898654208164
 20
-134.255887824509
 30
0.0
 10
122.2898654208164
 20
-134.255887824509
 30
0.0
  0
HATCH
  5
6B
330
49
100
AcDbEntity
  8
_U+30EC_U+30A4_U+30E4_U+30FC 1
 62
   179
420
  2234388
100
AcDbHatch
 10
0.0
 20
0.0
 30
0.0
210
0.0
220
0.0
230
1.0
  2
SOLID
 70
     1
 71
     0
 91
        6
 92
        1
 93
        1
 72
     4
 94
        3
 73
     0
 74
     1
 95
      197
 96
      193
 40
0.0
 40
0.0
 40
0.0
 40
0.0
 40
1.0
 40
1.0
 40
1.0
 40
2.0
 40
2.0
 40
2.0
 40
3.0
 40
3.0
 40
3.0
 40
4.0
 40
4.0
 40
4.0
 40
5.0
 40
5.0
 40
5.0
 40
6.0
 40
6.0
 40
6.0
 40
7.0
 40
7.0
 40
7.0
 40
8.0
 40
8.0
 40
8.0
 40
9.0
 40
9.0
 40
9.0
 40
10.0
 40
10.0
 40
10.0
 40
11.0
 40
11.0
 40
11.0
 40
12.0
 40
12.0
 40
12.0
 40
13.0
 40
13.0
 40
13.0
 40
14.0
 40
14.0
 40
14.0
 40
15.0
 40
15.0
 40
15.0
 40
16.0
 40
16.0
 40
16.0
 40
17.0
 40
17.0
 40
17.0
 40
18.0
 40
18.0
 40
18.0
 40
19.0
 40
19.0
 40
19.0
 40
20.0
 40
20.0
 40
20.0
 40
21.0
 40
21.0
 40
21.0
 40
22.0
 40
22.0
 40
22.0
 40
23.0
 40
23.0
 40
23.0
 40
24.0
 40
24.0
 40
24.0
 40
25.0
 40
25.0
 40
25.0
 40
26.0
 40
26.0
 40
26.0
 40
27.0
 40
27.0
 40
27.0
 40
28.0
 40
28.0
 40
28.0
 40
29.0
 40
29.0
 40
29.0
 40
30.0
 40
30.0
 40
30.0
 40
31.0
 40
31.0
 40
31.0
 40
32.0
 40
32.0
 40
32.0
 40
33.0
 40
33.0
 40
33.0
 40
34.0
 40
34.0
 40
34.0
 40
35.0
 40
35.0
 40
35.0
 40
36.0
 40
36.0
 40
36.0
 40
37.0
 40
37.0
 40
37.0
 40
38.0
 40
38.0
 40
38.0
 40
39.0
 40
39.0
 40
39.0
 40
40.0
 40
40.0
 40
40.0
 40
41.0
 40
41.0
 40
41.0
 40
42.0
 40
42.0
 40
42.0
 40
43.0
 40
43.0
 40
43.0
 40
44.0
 40
44.0
 40
44.0
 40
45.0
 40
45.0
 40
45.0
 40
46.0
 40
46.0
 40
46.0
 40
47.0
 40
47.0
 40
47.0
 40
48.0
 40
48.0
 40
48.0
 40
49.0
 40
49.0
 40
49.0
 40
50.0
 40
50.0
 40
50.0
 40
51.0
 40
51.0
 40
51.0
 40
52.0
 40
52.0
 40
52.0
 40
53.0
 40
53.0
 40
53.0
 40
54.0
 40
54.0
 40
54.0
 40
55.0
 40
55.0
 40
55.0
 40
56.0
 40
56.0
 40
56.0
 40
57.0
 40
57.0
 40
57.0
 40
58.0
 40
58.0
 40
58.0
 40
59.0
 40
59.0
 40
59.0
 40
60.0
 40
60.0
 40
60.0
 40
61.0
 40
61.0
 40
61.0
 40
62.0
 40
62.0
 40
62.0
 40
63.0
 40
63.0
 40
63.0
 40
64.0
 40
64.0
 40
64.0
 40
64.0
 10
122.3639349737493
 20
-132.8998982415146
 10
122.3546332159391
 20
-132.9295260626878
 10
122.3343071525761
 20
-132.9760348517386
 10
122.325005394766
 20
-133.0035956156206
 10
122.325005394766
 20
-133.0035956156206
 10
122.2712619051961
 20
-133.1558688360687
 10
122.2712619051961
 20
-133.1558688360687
 10
122.2619601473859
 20
-133.1813625426595
 10
122.2192409633688
 20
-133.2933281459301
 10
122.208216657816
 20
-133.3167547952299
 10
122.2064941100734
 20
-133.3229559671033
 10
122.2027045050396
 20
-133.3315687058164
 10
122.200981957297
 20
-133.3377698776899
 10
122.200981957297
 20
-133.3377698776899
 10
122.0177028774817
 20
-133.2850599167655
 10
122.0177028774817
 20
-133.2850599167655
 10
122.0859157680896
 20
-133.1751613707861
 10
122.1396592576595
 20
-133.0397691182158
 10
122.1675645310901
 20
-132.9295260626878
 10
122.1675645310901
 20
-132.9295260626878
 10
121.760009735185
 20
-132.9295260626878
 10
121.760009735185
 20
-132.9295260626878
 10
121.6897297872859
 20
-133.0945461364312
 10
121.6304741449396
 20
-133.1727498039464
 10
121.6008463237665
 20
-133.2130574211238
 10
121.6008463237665
 20
-133.2130574211238
 10
121.4933593446267
 20
-133.1476006069041
 10
121.4933593446267
 20
-133.1476006069041
 10
121.4933593446267
 20
-133.1476006069041
 10
121.4933593446267
 20
-133.318821852521
 10
121.4933593446267
 20
-133.318821852521
 10
121.4933593446267
 20
-133.4266533412093
 10
121.4954264019178
 20
-133.4755736970999
 10
121.504728159728
 20
-133.581338128497
 10
121.4416829123479
 20
-133.5789265616574
 10
121.4230793967276
 20
-133.5789265616574
 10
121.2435899219461
 20
-133.5789265616574
 10
121.2435899219461
 20
-133.5789265616574
 10
121.1953585851526
 20
-133.5789265616574
 10
121.1953585851526
 20
-133.5789265616574
 10
121.1953585851526
 20
-133.5789265616574
 10
121.1953585851526
 20
-133.7143188142277
 10
121.1953585851526
 20
-133.7143188142277
 10
121.1953585851526
 20
-133.7143188142277
 10
121.2584038325326
 20
-133.7143188142277
 10
121.2584038325326
 20
-133.7143188142277
 10
121.3155924175878
 20
-133.7143188142277
 10
121.4434054600905
 20
-133.7101846996454
 10
121.5360785286438
 20
-133.7019164704808
 10
121.5360785286438
 20
-133.7019164704808
 10
121.5360785286438
 20
-133.8793388879711
 10
121.5360785286438
 20
-133.8793388879711
 10
121.4509846701581
 20
-133.8731377160977
 10
121.3121473221025
 20
-133.8690036015154
 10
121.2584038325326
 20
-133.8690036015154
 10
121.2584038325326
 20
-133.8690036015154
 10
121.1953585851526
 20
-133.8690036015154
 10
121.1953585851526
 20
-133.8690036015154
 10
121.1970811328952
 20
-133.9578870650348
 10
121.200870737929
 20
-134.1966321821627
 10
121.2025932856716
 20
-134.2707017350955
 10
121.2025932856716
 20
-134.2707017350955
 10
121.0268934159238
 20
-134.2707017350955
 10
121.0268934159238
 20
-134.2707017350955
 10
121.0379177214766
 20
-134.05710581501
 10
121.0379177214766
 20
-134.0274779938369
 10
121.0417073265104
 20
-133.8690036015154
 10
121.0417073265104
 20
-133.8690036015154
 10
120.9807291364215
 20
-133.8690036015154
 10
120.9807291364215
 20
-133.8690036015154
 10
120.9304307423368
 20
-133.8690036015154
 10
120.7971055470577
 20
-133.8731377160977
 10
120.7009873830192
 20
-133.8793388879711
 10
120.7009873830192
 20
-133.8793388879711
 10
120.7009873830192
 20
-133.7019164704808
 10
120.7009873830192
 20
-133.7019164704808
 10
120.7936604515724
 20
-133.7101846996454
 10
120.919406436784
 20
-133.7143188142277
 10
120.9807291364215
 20
-133.7143188142277
 10
120.9807291364215
 20
-133.7143188142277
 10
121.0454969315442
 20
-133.7143188142277
 10
121.0454969315442
 20
-133.7143188142277
 10
121.0454969315442
 20
-133.7143188142277
 10
121.0454969315442
 20
-133.5789265616574
 10
121.0454969315442
 20
-133.5789265616574
 10
121.0454969315442
 20
-133.5789265616574
 10
121.0065673525609
 20
-133.5789265616574
 10
121.0065673525609
 20
-133.5789265616574
 10
120.939732500147
 20
-133.5789265616574
 10
120.7712673309183
 20
-133.581338128497
 10
120.7416395097452
 20
-133.581338128497
 10
120.7471516625215
 20
-133.5093356328553
 10
120.7547308725891
 20
-133.4287203985005
 10
120.7547308725891
 20
-133.3081420565167
 10
120.7547308725891
 20
-133.3081420565167
 10
120.7547308725891
 20
-133.1348537536087
 10
120.7547308725891
 20
-133.1348537536087
 10
120.7547308725891
 20
-133.0628512579669
 10
120.7471516625215
 20
-132.9422729159832
 10
120.7416395097452
 20
-132.8620021911769
 10
120.8101969099016
 20
-132.8661363057592
 10
120.8436143361085
 20
-132.8682033630503
 10
120.9545464107336
 20
-132.8682033630503
 10
120.9545464107336
 20
-132.8682033630503
 10
121.0454969315442
 20
-132.8682033630503
 10
121.0454969315442
 20
-132.8682033630503
 10
121.0454969315442
 20
-132.8682033630503
 10
121.0454969315442
 20
-132.7221313144757
 10
121.0454969315442
 20
-132.7221313144757
 10
121.0454969315442
 20
-132.7221313144757
 10
120.9769395313877
 20
-132.7221313144757
 10
120.9769395313877
 20
-132.7221313144757
 10
120.9287081945942
 20
-132.7221313144757
 10
120.7788465409859
 20
-132.7266099386065
 10
120.704776988053
 20
-132.73281111048
 10
120.704776988053
 20
-132.73281111048
 10
120.704776988053
 20
-132.5550441834411
 10
120.704776988053
 20
-132.5550441834411
 10
120.7767794836947
 20
-132.5615898648631
 10
120.919406436784
 20
-132.5657239794454
 10
120.9769395313877
 20
-132.5657239794454
 10
120.9769395313877
 20
-132.5657239794454
 10
121.0454969315442
 20
-132.5657239794454
 10
121.0454969315442
 20
-132.5657239794454
 10
121.0454969315442
 20
-132.5319620436899
 10
121.0417073265104
 20
-132.3776217659507
 10
121.0417073265104
 20
-132.3455823779379
 10
121.0417073265104
 20
-132.3455823779379
 10
121.2139621007729
 20
-132.3628078553642
 10
121.2139621007729
 20
-132.3628078553642
 10
121.2287760113595
 20
-132.3648749126553
 10
121.2473795269798
 20
-132.3669419699465
 10
121.2473795269798
 20
-132.3879570524065
 10
121.2473795269798
 20
-132.4113837017062
 10
121.2287760113595
 20
-132.4196519308708
 10
121.2046603429627
 20
-132.4323987841662
 10
121.2046603429627
 20
-132.4537583761748
 10
121.2025932856716
 20
-132.5488430115677
 10
121.2025932856716
 20
-132.5657239794454
 10
121.2025932856716
 20
-132.5657239794454
 10
121.2546142274988
 20
-132.5657239794454
 10
121.2546142274988
 20
-132.5657239794454
 10
121.3138698698451
 20
-132.5657239794454
 10
121.4396158550568
 20
-132.5615898648631
 10
121.53228892361
 20
-132.5550441834411
 10
121.53228892361
 20
-132.5550441834411
 10
121.53228892361
 20
-132.73281111048
 10
121.53228892361
 20
-132.73281111048
 10
121.4471950651243
 20
-132.7266099386065
 10
121.3100802648114
 20
-132.7221313144757
 10
121.2546142274988
 20
-132.7221313144757
 10
121.2546142274988
 20
-132.7221313144757
 10
121.1953585851526
 20
-132.7221313144757
 10
121.1953585851526
 20
-132.7221313144757
 10
121.1953585851526
 20
-132.7221313144757
 10
121.1953585851526
 20
-132.8682033630503
 10
121.1953585851526
 20
-132.8682033630503
 10
121.1953585851526
 20
-132.8682033630503
 10
121.2563367752415
 20
-132.8682033630503
 10
121.2563367752415
 20
-132.8682033630503
 10
121.387939422778
 20
-132.8682033630503
 10
121.4509846701581
 20
-132.864069248468
 10
121.504728159728
 20
-132.8620021911769
 10
121.4971489496604
 20
-132.9570868265698
 10
121.4954264019178
 20
-133.0352904940849
 10
121.4933593446267
 20
-133.0735310539712
 10
121.628751597197
 20
-132.8620021911769
 10
121.7214246657502
 20
-132.6142998257874
 10
121.7358940667882
 20
-132.3521280593599
 10
121.7358940667882
 20
-132.3521280593599
 10
121.9250298089285
 20
-132.4027709629931
 10
121.9250298089285
 20
-132.4027709629931
 10
121.9377766622239
 20
-132.4072495871239
 10
121.9508680250678
 20
-132.4134507589973
 10
121.9508680250678
 20
-132.4303317268751
 10
121.9508680250678
 20
-132.4472126947528
 10
121.9470784200341
 20
-132.4492797520439
 10
121.9026366882743
 20
-132.4706393440525
 10
121.8878227776878
 20
-132.5467759542765
 10
121.8657741665822
 20
-132.6377264750871
 10
121.8230549825651
 20
-132.7645059889443
 10
121.8230549825651
 20
-132.7645059889443
 10
122.1193331942966
 20
-132.7645059889443
 10
122.1193331942966
 20
-132.7645059889443
 10
122.1527506205035
 20
-132.7645059889443
 10
122.2657497524197
 20
-132.760371874362
 10
122.3081244268883
 20
-132.7541707024886
 10
122.3081244268883
 20
-132.7541707024886
 10
122.3897731898887
 20
-132.8237616312906
 10
122.3897731898887
 20
-132.8237616312906
 10
122.3821939798211
 20
-132.8451212232991
 10
122.3766818270447
 20
-132.864069248468
 10
122.3639349737493
 20
-132.8998982415146
 97
        0
 97
        0
 92
        1
 93
        4
 72
     1
 10
121.0454969315442
 20
-133.0249552076292
 11
120.9063150739401
 21
-133.0249552076292
 72
     1
 10
120.9063150739401
 20
-133.0249552076292
 11
120.9063150739401
 21
-133.1538017787775
 72
     1
 10
120.9063150739401
 20
-133.1538017787775
 11
121.0454969315442
 21
-133.1538017787775
 72
     1
 10
121.0454969315442
 20
-133.1538017787775
 11
121.0454969315442
 21
-133.0249552076292
 97
        0
 92
        1
 93
        4
 72
     1
 10
121.0454969315442
 20
-133.297806770061
 11
120.9063150739401
 21
-133.297806770061
 72
     1
 10
120.9063150739401
 20
-133.297806770061
 11
120.9063150739401
 21
-133.4266533412093
 72
     1
 10
120.9063150739401
 20
-133.4266533412093
 11
121.0454969315442
 21
-133.4266533412093
 72
     1
 10
121.0454969315442
 20
-133.4266533412093
 11
121.0454969315442
 21
-133.297806770061
 97
        0
 92
        1
 93
        4
 72
     1
 10
121.3362629904993
 20
-133.0249552076292
 11
121.1953585851526
 21
-133.0249552076292
 72
     1
 10
121.1953585851526
 20
-133.0249552076292
 11
121.1953585851526
 21
-133.1538017787775
 72
     1
 10
121.1953585851526
 20
-133.1538017787775
 11
121.3362629904993
 21
-133.1538017787775
 72
     1
 10
121.3362629904993
 20
-133.1538017787775
 11
121.3362629904993
 21
-133.0249552076292
 97
        0
 92
        1
 93
        4
 72
     1
 10
121.3362629904993
 20
-133.297806770061
 11
121.1953585851526
 21
-133.297806770061
 72
     1
 10
121.1953585851526
 20
-133.297806770061
 11
121.1953585851526
 21
-133.4266533412093
 72
     1
 10
121.1953585851526
 20
-133.4266533412093
 11
121.3362629904993
 21
-133.4266533412093
 72
     1
 10
121.3362629904993
 20
-133.4266533412093
 11
121.3362629904993
 21
-133.297806770061
 97
        0
 92
        1
 93
        1
 72
     4
 94
        3
 73
     0
 74
     1
 95
       41
 96
       37
 40
0.0
 40
0.0
 40
0.0
 40
0.0
 40
1.0
 40
1.0
 40
1.0
 40
2.0
 40
2.0
 40
2.0
 40
3.0
 40
3.0
 40
3.0
 40
4.0
 40
4.0
 40
4.0
 40
5.0
 40
5.0
 40
5.0
 40
6.0
 40
6.0
 40
6.0
 40
7.0
 40
7.0
 40
7.0
 40
8.0
 40
8.0
 40
8.0
 40
9.0
 40
9.0
 40
9.0
 40
10.0
 40
10.0
 40
10.0
 40
11.0
 40
11.0
 40
11.0
 40
12.0
 40
12.0
 40
12.0
 40
12.0
 10
122.2898654208164
 20
-134.255887824509
 10
122.0786810675706
 20
-134.1204955719386
 10
121.9229627516373
 20
-133.8245618697557
 10
121.8878227776878
 20
-133.6953707890588
 10
121.7824028558391
 20
-133.959954122326
 10
121.6397759027498
 20
-134.1377210493649
 10
121.4806124913312
 20
-134.2517537099266
 10
121.4806124913312
 20
-134.2517537099266
 10
121.3083577170687
 20
-134.1142944000652
 10
121.3083577170687
 20
-134.1142944000652
 10
121.3693359071577
 20
-134.0888006934743
 10
121.4971489496604
 20
-134.0274779938369
 10
121.6046359288002
 20
-133.8731377160977
 10
121.7138454556827
 20
-133.7167303810674
 10
121.7917046136493
 20
-133.4838419262645
 10
121.7917046136493
 20
-133.2237372171281
 10
121.7917046136493
 20
-133.1221069003132
 10
121.7806803080965
 20
-133.0501044046715
 10
121.7713785502863
 20
-133.0035956156206
 10
121.7713785502863
 20
-133.0035956156206
 10
121.9508680250678
 20
-133.0249552076292
 10
121.9508680250678
 20
-133.0249552076292
 10
121.9694715406882
 20
-133.0270222649203
 10
121.9880750563085
 20
-133.0290893222115
 10
121.9880750563085
 20
-133.0501044046715
 10
121.9880750563085
 20
-133.0693969393889
 10
121.9787732984984
 20
-133.0776651685535
 10
121.9491454773252
 20
-133.0986802510135
 10
121.9415662672577
 20
-133.2998738273521
 10
121.9915201517938
 20
-133.5430975686108
 10
122.0452636413637
 20
-133.6636759105945
 10
122.124845347073
 20
-133.8393757803422
 10
122.2953775735928
 20
-134.0192097646723
 10
122.4138888582854
 20
-134.0760538401789
 10
122.4138888582854
 20
-134.0760538401789
 10
122.2898654208164
 20
-134.255887824509
 10
122.2898654208164
 20
-134.255887824509
 97
        0
 97
        0
 75
     2
 76
     1
 98
        0
  0
SPLINE
  5
6C
330
49
100
AcDbEntity
  8
_U+30EC_U+30A4_U+30E4_U+30FC 1
370
     0
100
AcDbSpline
210
0.0
220
0.0
230
1.0
 70
    11
 71
     3
 72
    71
 73
    67
 74
     0
 42
0.0000000001
 43
0.0000000001
 12
1.0
 22
0.0
 32
0.0
 13
1.0
 23
0.0
 33
0.0
 40
0.0
 40
0.0
 40
0.0
 40
0.0
 40
1.0
 40
1.0
 40
1.0
 40
2.0
 40
2.0
 40
2.0
 40
3.0
 40
3.0
 40
3.0
 40
4.0
 40
4.0
 40
4.0
 40
5.0
 40
5.0
 40
5.0
 40
6.0
 40
6.0
 40
6.0
 40
7.0
 40
7.0
 40
7.0
 40
8.0
 40
8.0
 40
8.0
 40
9.0
 40
9.0
 40
9.0
 40
10.0
 40
10.0
 40
10.0
 40
11.0
 40
11.0
 40
11.0
 40
12.0
 40
12.0
 40
12.0
 40
13.0
 40
13.0
 40
13.0
 40
14.0
 40
14.0
 40
14.0
 40
15.0
 40
15.0
 40
15.0
 40
16.0
 40
16.0
 40
16.0
 40
17.0
 40
17.0
 40
17.0
 40
18.0
 40
18.0
 40
18.0
 40
19.0
 40
19.0
 40
19.0
 40
20.0
 40
20.0
 40
20.0
 40
21.0
 40
21.0
 40
21.0
 40
22.0
 40
22.0
 40
22.0
 40
22.0
 10
123.3364854292353
 20
-132.5233493049768
 30
0.0
 10
123.3233940663914
 20
-132.5233493049768
 30
0.0
 10
123.3123697608386
 20
-132.5192151903945
 30
0.0
 10
123.290321149733
 20
-132.5106024516814
 30
0.0
 10
123.166297712264
 20
-132.5571112407323
 30
0.0
 10
123.0143690013645
 20
-132.5743367181585
 30
0.0
 10
122.8920681116381
 20
-132.5784708327408
 30
0.0
 10
122.8920681116381
 20
-132.5784708327408
 30
0.0
 10
122.8903455638955
 20
-132.6673542962602
 30
0.0
 10
122.8903455638955
 20
-132.6673542962602
 30
0.0
 10
122.8903455638955
 20
-132.6673542962602
 30
0.0
 10
123.1180663754705
 20
-132.6673542962602
 30
0.0
 10
123.1180663754705
 20
-132.6673542962602
 30
0.0
 10
123.1642306549728
 20
-132.6673542962602
 30
0.0
 10
123.3233940663914
 20
-132.6587415575471
 30
0.0
 10
123.3623236453747
 20
-132.6525403856737
 30
0.0
 10
123.3623236453747
 20
-132.6525403856737
 30
0.0
 10
123.3623236453747
 20
-132.8134263448349
 30
0.0
 10
123.3623236453747
 20
-132.8134263448349
 30
0.0
 10
123.3144368181297
 20
-132.8068806634129
 30
0.0
 10
123.2048827816988
 20
-132.8048136061217
 30
0.0
 10
123.1718098650404
 20
-132.8068806634129
 30
0.0
 10
123.1718098650404
 20
-132.8068806634129
 30
0.0
 10
123.1718098650404
 20
-132.9167792093923
 30
0.0
 10
123.1718098650404
 20
-132.9167792093923
 30
0.0
 10
123.1718098650404
 20
-132.9636325079917
 30
0.0
 10
123.173532412783
 20
-133.0270222649203
 30
0.0
 10
123.1790445655594
 20
-133.0649183152581
 30
0.0
 10
123.1790445655594
 20
-133.0649183152581
 30
0.0
 10
123.0105793963307
 20
-133.0649183152581
 30
0.0
 10
123.0105793963307
 20
-133.0649183152581
 30
0.0
 10
123.0160915491071
 20
-133.0249552076292
 30
0.0
 10
123.0216037018835
 20
-132.9422729159832
 30
0.0
 10
123.0216037018835
 20
-132.9274590053966
 30
0.0
 10
123.0216037018835
 20
-132.9274590053966
 30
0.0
 10
123.0216037018835
 20
-132.8068806634129
 30
0.0
 10
123.0216037018835
 20
-132.8068806634129
 30
0.0
 10
123.0216037018835
 20
-132.8068806634129
 30
0.0
 10
122.8772542010515
 20
-132.8068806634129
 30
0.0
 10
122.8772542010515
 20
-132.8068806634129
 30
0.0
 10
122.8403916793594
 20
-133.0270222649203
 30
0.0
 10
122.7921603425659
 20
-133.1072929897267
 30
0.0
 10
122.6994872740126
 20
-133.2068562492504
 30
0.0
 10
122.6994872740126
 20
-133.2068562492504
 30
0.0
 10
122.5530707158895
 20
-133.0924790791401
 30
0.0
 10
122.5530707158895
 20
-133.0924790791401
 30
0.0
 10
122.6088812627506
 20
-133.043903232798
 30
0.0
 10
122.7401394007386
 20
-132.9315931199789
 30
0.0
 10
122.7401394007386
 20
-132.5826049473231
 30
0.0
 10
122.7401394007386
 20
-132.5002671652256
 30
0.0
 10
122.7329047002196
 20
-132.4537583761748
 30
0.0
 10
122.725325490152
 20
-132.4048380202842
 30
0.0
 10
122.8531385326548
 20
-132.4196519308708
 30
0.0
 10
122.8662298954987
 20
-132.4196519308708
 30
0.0
 10
122.8975802644145
 20
-132.4196519308708
 30
0.0
 10
122.9919758807103
 20
-132.4196519308708
 30
0.0
 10
123.1159993181793
 20
-132.4027709629931
 30
0.0
 10
123.2569037235261
 20
-132.3414482633556
 30
0.0
 10
123.2569037235261
 20
-132.3414482633556
 30
0.0
 10
123.3568114925983
 20
-132.4727064013436
 30
0.0
 10
123.3568114925983
 20
-132.4727064013436
 30
0.0
 10
123.3623236453747
 20
-132.4789075732171
 30
0.0
 10
123.3661132504085
 20
-132.4875203119302
 30
0.0
 10
123.3661132504085
 20
-132.4957885410948
 30
0.0
 10
123.3661132504085
 20
-132.5192151903945
 30
0.0
 10
123.3495767920793
 20
-132.5233493049768
 30
0.0
 10
123.3364854292353
 20
-132.5233493049768
 30
0.0
  0
SPLINE
  5
6D
330
49
100
AcDbEntity
  8
_U+30EC_U+30A4_U+30E4_U+30FC 1
370
     0
100
AcDbSpline
210
0.0
220
0.0
230
1.0
 70
    11
 71
     3
 72
    74
 73
    70
 74
     0
 42
0.0000000001
 43
0.0000000001
 12
1.0
 22
0.0
 32
0.0
 13
1.0
 23
0.0
 33
0.0
 40
0.0
 40
0.0
 40
0.0
 40
0.0
 40
1.0
 40
1.0
 40
1.0
 40
2.0
 40
2.0
 40
2.0
 40
3.0
 40
3.0
 40
3.0
 40
4.0
 40
4.0
 40
4.0
 40
5.0
 40
5.0
 40
5.0
 40
6.0
 40
6.0
 40
6.0
 40
7.0
 40
7.0
 40
7.0
 40
8.0
 40
8.0
 40
8.0
 40
9.0
 40
9.0
 40
9.0
 40
10.0
 40
10.0
 40
10.0
 40
11.0
 40
11.0
 40
11.0
 40
12.0
 40
12.0
 40
12.0
 40
13.0
 40
13.0
 40
13.0
 40
14.0
 40
14.0
 40
14.0
 40
15.0
 40
15.0
 40
15.0
 40
16.0
 40
16.0
 40
16.0
 40
17.0
 40
17.0
 40
17.0
 40
18.0
 40
18.0
 40
18.0
 40
19.0
 40
19.0
 40
19.0
 40
20.0
 40
20.0
 40
20.0
 40
21.0
 40
21.0
 40
21.0
 40
22.0
 40
22.0
 40
22.0
 40
23.0
 40
23.0
 40
23.0
 40
23.0
 10
124.069946258045
 20
-134.2899942698129
 30
0.0
 10
123.882877573196
 20
-134.2793144738087
 30
0.0
 10
123.7068331938997
 20
-134.1924980675803
 30
0.0
 10
123.5531819352575
 20
-134.0719197255966
 30
0.0
 10
123.5531819352575
 20
-134.0719197255966
 30
0.0
 10
123.6382757937432
 20
-133.9851033193683
 30
0.0
 10
123.6382757937432
 20
-133.9851033193683
 30
0.0
 10
123.6382757937432
 20
-133.9851033193683
 30
0.0
 10
123.1549288971627
 20
-133.9851033193683
 30
0.0
 10
123.1549288971627
 20
-133.9851033193683
 30
0.0
 10
123.1549288971627
 20
-133.9851033193683
 30
0.0
 10
123.2255533546103
 20
-134.0488375858454
 30
0.0
 10
123.2255533546103
 20
-134.0488375858454
 30
0.0
 10
123.2310655073867
 20
-134.0529717004277
 30
0.0
 10
123.2403672651969
 20
-134.063651496432
 30
0.0
 10
123.2403672651969
 20
-134.0784654070186
 30
0.0
 10
123.2403672651969
 20
-134.1184285146475
 30
0.0
 10
123.1752549605256
 20
-134.112227342774
 30
0.0
 10
123.1625081072302
 20
-134.1101602854829
 30
0.0
 10
122.9606255117946
 20
-134.2496866526355
 30
0.0
 10
122.834879526583
 20
-134.2813815310998
 30
0.0
 10
122.7439290057724
 20
-134.2982624989775
 30
0.0
 10
122.7439290057724
 20
-134.2982624989775
 30
0.0
 10
122.6309298738562
 20
-134.1204955719386
 30
0.0
 10
122.6309298738562
 20
-134.1204955719386
 30
0.0
 10
122.8476263798784
 20
-134.0888006934743
 30
0.0
 10
122.9365098433978
 20
-134.0422919044235
 30
0.0
 10
123.0143690013645
 20
-133.9895819434991
 30
0.0
 10
122.9496012062418
 20
-133.9916490007903
 30
0.0
 10
122.849348927621
 20
-133.9937160580814
 30
0.0
 10
122.821788163739
 20
-133.9957831153726
 30
0.0
 10
122.834879526583
 20
-133.9068996518531
 30
0.0
 10
122.8366020743256
 20
-133.7780530807048
 30
0.0
 10
122.8366020743256
 20
-133.7039835277719
 30
0.0
 10
122.8366020743256
 20
-133.7039835277719
 30
0.0
 10
122.8366020743256
 20
-133.4035712014581
 30
0.0
 10
122.8366020743256
 20
-133.4035712014581
 30
0.0
 10
122.8366020743256
 20
-133.3040079419344
 30
0.0
 10
122.8310899215492
 20
-133.2047891919592
 30
0.0
 10
122.821788163739
 20
-133.1072929897267
 30
0.0
 10
122.9106716272585
 20
-133.1134941616001
 30
0.0
 10
123.1125542226941
 20
-133.1200398430221
 30
0.0
 10
123.2069498389899
 20
-133.1200398430221
 30
0.0
 10
123.2069498389899
 20
-133.1200398430221
 30
0.0
 10
123.5772976036543
 20
-133.1200398430221
 30
0.0
 10
123.5772976036543
 20
-133.1200398430221
 30
0.0
 10
123.6809949777603
 20
-133.1200398430221
 30
0.0
 10
123.7178574994525
 20
-133.1200398430221
 30
0.0
 10
123.7902045046427
 20
-133.1159057284398
 30
0.0
 10
123.9197400948881
 20
-133.1093600470178
 30
0.0
 10
123.9345540054747
 20
-133.1093600470178
 30
0.0
 10
123.9752061322007
 20
-133.1072929897267
 30
0.0
 10
123.9679714316816
 20
-133.187563714533
 30
0.0
 10
123.9641818266478
 20
-133.346382616403
 30
0.0
 10
123.9641818266478
 20
-133.4287203985005
 30
0.0
 10
123.9641818266478
 20
-133.4287203985005
 30
0.0
 10
123.9641818266478
 20
-133.7143188142277
 30
0.0
 10
123.9641818266478
 20
-133.7143188142277
 30
0.0
 10
123.9641818266478
 20
-133.7863213098694
 30
0.0
 10
123.966248883939
 20
-133.9175794478574
 30
0.0
 10
123.9752061322007
 20
-133.9957831153726
 30
0.0
 10
123.9125053943691
 20
-133.9916490007903
 30
0.0
 10
123.8050184152293
 20
-133.9895819434991
 30
0.0
 10
123.7364610150728
 20
-133.987514886208
 30
0.0
 10
123.8329236886598
 20
-134.0550387577189
 30
0.0
 10
123.966248883939
 20
-134.1056816613521
 30
0.0
 10
124.1512505114969
 20
-134.1101602854829
 30
0.0
 10
124.1512505114969
 20
-134.1101602854829
 30
0.0
 10
124.069946258045
 20
-134.2899942698129
 30
0.0
 10
124.069946258045
 20
-134.2899942698129
 30
0.0
  0
POLYLINE
  5
6E
330
49
100
AcDbEntity
  8
_U+30EC_U+30A4_U+30E4_U+30FC 1
370
     0
100
AcDb2dPolyline
 66
     1
 10
0.0
 20
0.0
 30
0.0
  0
VERTEX
  5
6F
330
6E
100
AcDbEntity
  8
_U+30EC_U+30A4_U+30E4_U+30FC 1
370
     0
100
AcDbVertex
100
AcDb2dVertex
 10
123.8032958674867
 20
-133.2554320955924
 30
0.0
  0
VERTEX
  5
70
330
6E
100
AcDbEntity
  8
_U+30EC_U+30A4_U+30E4_U+30FC 1
370
     0
100
AcDbVertex
100
AcDb2dVertex
 10
123.0050672435543
 20
-133.2554320955924
 30
0.0
  0
VERTEX
  5
71
330
6E
100
AcDbEntity
  8
_U+30EC_U+30A4_U+30E4_U+30FC 1
370
     0
100
AcDbVertex
100
AcDb2dVertex
 10
123.0050672435543
 20
-133.367397698863
 30
0.0
  0
VERTEX
  5
72
330
6E
100
AcDbEntity
  8
_U+30EC_U+30A4_U+30E4_U+30FC 1
370
     0
100
AcDbVertex
100
AcDb2dVertex
 10
123.8032958674867
 20
-133.367397698863
 30
0.0
  0
VERTEX
  5
73
330
6E
100
AcDbEntity
  8
_U+30EC_U+30A4_U+30E4_U+30FC 1
370
     0
100
AcDbVertex
100
AcDb2dVertex
 10
123.8032958674867
 20
-133.2554320955924
 30
0.0
  0
SEQEND
  5
74
330
6E
100
AcDbEntity
  8
_U+30EC_U+30A4_U+30E4_U+30FC 1
370
     0
  0
POLYLINE
  5
75
330
49
100
AcDbEntity
  8
_U+30EC_U+30A4_U+30E4_U+30FC 1
370
     0
100
AcDb2dPolyline
 66
     1
 10
0.0
 20
0.0
 30
0.0
  0
VERTEX
  5
76
330
75
100
AcDbEntity
  8
_U+30EC_U+30A4_U+30E4_U+30FC 1
370
     0
100
AcDbVertex
100
AcDb2dVertex
 10
123.8032958674867
 20
-133.5007228941422
 30
0.0
  0
VERTEX
  5
77
330
75
100
AcDbEntity
  8
_U+30EC_U+30A4_U+30E4_U+30FC 1
370
     0
100
AcDbVertex
100
AcDb2dVertex
 10
123.0050672435543
 20
-133.5007228941422
 30
0.0
  0
VERTEX
  5
78
330
75
100
AcDbEntity
  8
_U+30EC_U+30A4_U+30E4_U+30FC 1
370
     0
100
AcDbVertex
100
AcDb2dVertex
 10
123.0050672435543
 20
-133.6109659496702
 30
0.0
  0
VERTEX
  5
79
330
75
100
AcDbEntity
  8
_U+30EC_U+30A4_U+30E4_U+30FC 1
370
     0
100
AcDbVertex
100
AcDb2dVertex
 10
123.8032958674867
 20
-133.6109659496702
 30
0.0
  0
VERTEX
  5
7A
330
75
100
AcDbEntity
  8
_U+30EC_U+30A4_U+30E4_U+30FC 1
370
     0
100
AcDbVertex
100
AcDb2dVertex
 10
123.8032958674867
 20
-133.5007228941422
 30
0.0
  0
SEQEND
  5
7B
330
75
100
AcDbEntity
  8
_U+30EC_U+30A4_U+30E4_U+30FC 1
370
     0
  0
POLYLINE
  5
7C
330
49
100
AcDbEntity
  8
_U+30EC_U+30A4_U+30E4_U+30FC 1
370
     0
100
AcDb2dPolyline
 66
     1
 10
0.0
 20
0.0
 30
0.0
  0
VERTEX
  5
7D
330
7C
100
AcDbEntity
  8
_U+30EC_U+30A4_U+30E4_U+30FC 1
370
     0
100
AcDbVertex
100
AcDb2dVertex
 10
123.8032958674867
 20
-133.7463582022405
 30
0.0
  0
VERTEX
  5
7E
330
7C
100
AcDbEntity
  8
_U+30EC_U+30A4_U+30E4_U+30FC 1
370
     0
100
AcDbVertex
100
AcDb2dVertex
 10
123.0050672435543
 20
-133.7463582022405
 30
0.0
  0
VERTEX
  5
7F
330
7C
100
AcDbEntity
  8
_U+30EC_U+30A4_U+30E4_U+30FC 1
370
     0
100
AcDbVertex
100
AcDb2dVertex
 10
123.0050672435543
 20
-133.8541896909288
 30
0.0
  0
VERTEX
  5
80
330
7C
100
AcDbEntity
  8
_U+30EC_U+30A4_U+30E4_U+30FC 1
370
     0
100
AcDbVertex
100
AcDb2dVertex
 10
123.8032958674867
 20
-133.8541896909288
 30
0.0
  0
VERTEX
  5
81
330
7C
100
AcDbEntity
  8
_U+30EC_U+30A4_U+30E4_U+30FC 1
370
     0
100
AcDbVertex
100
AcDb2dVertex
 10
123.8032958674867
 20
-133.7463582022405
 30
0.0
  0
SEQEND
  5
82
330
7C
100
AcDbEntity
  8
_U+30EC_U+30A4_U+30E4_U+30FC 1
370
     0
  0
SPLINE
  5
83
330
49
100
AcDbEntity
  8
_U+30EC_U+30A4_U+30E4_U+30FC 1
370
     0
100
AcDbSpline
210
0.0
220
0.0
230
1.0
 70
    11
 71
     3
 72
    74
 73
    70
 74
     0
 42
0.0000000001
 43
0.0000000001
 12
1.0
 22
0.0
 32
0.0
 13
1.0
 23
0.0
 33
0.0
 40
0.0
 40
0.0
 40
0.0
 40
0.0
 40
1.0
 40
1.0
 40
1.0
 40
2.0
 40
2.0
 40
2.0
 40
3.0
 40
3.0
 40
3.0
 40
4.0
 40
4.0
 40
4.0
 40
5.0
 40
5.0
 40
5.0
 40
6.0
 40
6.0
 40
6.0
 40
7.0
 40
7.0
 40
7.0
 40
8.0
 40
8.0
 40
8.0
 40
9.0
 40
9.0
 40
9.0
 40
10.0
 40
10.0
 40
10.0
 40
11.0
 40
11.0
 40
11.0
 40
12.0
 40
12.0
 40
12.0
 40
13.0
 40
13.0
 40
13.0
 40
14.0
 40
14.0
 40
14.0
 40
15.0
 40
15.0
 40
15.0
 40
16.0
 40
16.0
 40
16.0
 40
17.0
 40
17.0
 40
17.0
 40
18.0
 40
18.0
 40
18.0
 40
19.0
 40
19.0
 40
19.0
 40
20.0
 40
20.0
 40
20.0
 40
21.0
 40
21.0
 40
21.0
 40
22.0
 40
22.0
 40
22.0
 40
23.0
 40
23.0
 40
23.0
 40
23.0
 10
124.0809705635978
 20
-132.8027465488306
 30
0.0
 10
124.0809705635978
 20
-132.8027465488306
 30
0.0
 10
123.9400661582511
 20
-132.8027465488306
 30
0.0
 10
123.9400661582511
 20
-132.8027465488306
 30
0.0
 10
123.9400661582511
 20
-132.8027465488306
 30
0.0
 10
123.9400661582511
 20
-132.9167792093923
 30
0.0
 10
123.9400661582511
 20
-132.9167792093923
 30
0.0
 10
123.9400661582511
 20
-132.9570868265698
 30
0.0
 10
123.9455783110275
 20
-133.0311563795026
 30
0.0
 10
123.9493679160613
 20
-133.0566500860935
 30
0.0
 10
123.9493679160613
 20
-133.0566500860935
 30
0.0
 10
123.7643662885034
 20
-133.0566500860935
 30
0.0
 10
123.7643662885034
 20
-133.0566500860935
 30
0.0
 10
123.7736680463135
 20
-132.9908487623252
 30
0.0
 10
123.7753905940562
 20
-132.9315931199789
 30
0.0
 10
123.7753905940562
 20
-132.9295260626878
 30
0.0
 10
123.7753905940562
 20
-132.9295260626878
 30
0.0
 10
123.7753905940562
 20
-132.8068806634129
 30
0.0
 10
123.7753905940562
 20
-132.8068806634129
 30
0.0
 10
123.7753905940562
 20
-132.8068806634129
 30
0.0
 10
123.6179497303802
 20
-132.8068806634129
 30
0.0
 10
123.6179497303802
 20
-132.8068806634129
 30
0.0
 10
123.601413272051
 20
-132.8661363057592
 30
0.0
 10
123.5604166357766
 20
-133.0122083543338
 30
0.0
 10
123.4605088667043
 20
-133.0945461364312
 30
0.0
 10
123.4605088667043
 20
-133.0945461364312
 30
0.0
 10
123.3233940663914
 20
-132.9887817050341
 30
0.0
 10
123.3233940663914
 20
-132.9887817050341
 30
0.0
 10
123.3885063710626
 20
-132.9422729159832
 30
0.0
 10
123.4901366878775
 20
-132.8682033630503
 30
0.0
 10
123.4901366878775
 20
-132.5467759542765
 30
0.0
 10
123.4901366878775
 20
-132.4916544265125
 30
0.0
 10
123.4866915923922
 20
-132.4472126947528
 30
0.0
 10
123.4846245351011
 20
-132.409316644415
 30
0.0
 10
123.5514593875149
 20
-132.4175848735796
 30
0.0
 10
123.6162271826376
 20
-132.4241305550016
 30
0.0
 10
123.6716932199501
 20
-132.4241305550016
 30
0.0
 10
123.8270670263349
 20
-132.4241305550016
 30
0.0
 10
124.0013888578885
 20
-132.3648749126553
 30
0.0
 10
124.0551323474584
 20
-132.3352470914822
 30
0.0
 10
124.0551323474584
 20
-132.3352470914822
 30
0.0
 10
124.1660644220835
 20
-132.4706393440525
 30
0.0
 10
124.1660644220835
 20
-132.4706393440525
 30
0.0
 10
124.1698540271173
 20
-132.4747734586348
 30
0.0
 10
124.1715765748599
 20
-132.4833861973479
 30
0.0
 10
124.1715765748599
 20
-132.4895873692214
 30
0.0
 10
124.1715765748599
 20
-132.5106024516814
 30
0.0
 10
124.1588297215645
 20
-132.5171481331033
 30
0.0
 10
124.1440158109779
 20
-132.5171481331033
 30
0.0
 10
124.1254122953575
 20
-132.5171481331033
 30
0.0
 10
124.1123209325136
 20
-132.5085353943902
 30
0.0
 10
124.0957844741844
 20
-132.4982001079345
 30
0.0
 10
123.9438557632849
 20
-132.5550441834411
 30
0.0
 10
123.7533419829506
 20
-132.580537890032
 30
0.0
 10
123.6365532460006
 20
-132.5826049473231
 30
0.0
 10
123.6365532460006
 20
-132.5826049473231
 30
0.0
 10
123.6327636409668
 20
-132.6652872389691
 30
0.0
 10
123.6327636409668
 20
-132.6652872389691
 30
0.0
 10
123.6327636409668
 20
-132.6652872389691
 30
0.0
 10
123.8718532676431
 20
-132.6652872389691
 30
0.0
 10
123.8718532676431
 20
-132.6652872389691
 30
0.0
 10
123.9218071521793
 20
-132.6652872389691
 30
0.0
 10
124.1512505114969
 20
-132.6459947042517
 30
0.0
 10
124.1901800904802
 20
-132.6397935323783
 30
0.0
 10
124.1901800904802
 20
-132.6397935323783
 30
0.0
 10
124.1901800904802
 20
-132.808947720704
 30
0.0
 10
124.1901800904802
 20
-132.808947720704
 30
0.0
 10
124.1605522693071
 20
-132.8048136061217
 30
0.0
 10
124.1495279637543
 20
-132.8027465488306
 30
0.0
 10
124.0809705635978
 20
-132.8027465488306
 30
0.0
  0
HATCH
  5
84
330
49
100
AcDbEntity
  8
_U+30EC_U+30A4_U+30E4_U+30FC 1
 62
   179
420
  2234388
100
AcDbHatch
 10
0.0
 20
0.0
 30
0.0
210
0.0
220
0.0
230
1.0
  2
SOLID
 70
     1
 71
     0
 91
        6
 92
        1
 93
        1
 72
     4
 94
        3
 73
     0
 74
     1
 95
       71
 96
       67
 40
0.0
 40
0.0
 40
0.0
 40
0.0
 40
1.0
 40
1.0
 40
1.0
 40
2.0
 40
2.0
 40
2.0
 40
3.0
 40
3.0
 40
3.0
 40
4.0
 40
4.0
 40
4.0
 40
5.0
 40
5.0
 40
5.0
 40
6.0
 40
6.0
 40
6.0
 40
7.0
 40
7.0
 40
7.0
 40
8.0
 40
8.0
 40
8.0
 40
9.0
 40
9.0
 40
9.0
 40
10.0
 40
10.0
 40
10.0
 40
11.0
 40
11.0
 40
11.0
 40
12.0
 40
12.0
 40
12.0
 40
13.0
 40
13.0
 40
13.0
 40
14.0
 40
14.0
 40
14.0
 40
15.0
 40
15.0
 40
15.0
 40
16.0
 40
16.0
 40
16.0
 40
17.0
 40
17.0
 40
17.0
 40
18.0
 40
18.0
 40
18.0
 40
19.0
 40
19.0
 40
19.0
 40
20.0
 40
20.0
 40
20.0
 40
21.0
 40
21.0
 40
21.0
 40
22.0
 40
22.0
 40
22.0
 40
22.0
 10
123.3364854292353
 20
-132.5233493049768
 10
123.3233940663914
 20
-132.5233493049768
 10
123.3123697608386
 20
-132.5192151903945
 10
123.290321149733
 20
-132.5106024516814
 10
123.166297712264
 20
-132.5571112407323
 10
123.0143690013645
 20
-132.5743367181585
 10
122.8920681116381
 20
-132.5784708327408
 10
122.8920681116381
 20
-132.5784708327408
 10
122.8903455638955
 20
-132.6673542962602
 10
122.8903455638955
 20
-132.6673542962602
 10
122.8903455638955
 20
-132.6673542962602
 10
123.1180663754705
 20
-132.6673542962602
 10
123.1180663754705
 20
-132.6673542962602
 10
123.1642306549728
 20
-132.6673542962602
 10
123.3233940663914
 20
-132.6587415575471
 10
123.3623236453747
 20
-132.6525403856737
 10
123.3623236453747
 20
-132.6525403856737
 10
123.3623236453747
 20
-132.8134263448349
 10
123.3623236453747
 20
-132.8134263448349
 10
123.3144368181297
 20
-132.8068806634129
 10
123.2048827816988
 20
-132.8048136061217
 10
123.1718098650404
 20
-132.8068806634129
 10
123.1718098650404
 20
-132.8068806634129
 10
123.1718098650404
 20
-132.9167792093923
 10
123.1718098650404
 20
-132.9167792093923
 10
123.1718098650404
 20
-132.9636325079917
 10
123.173532412783
 20
-133.0270222649203
 10
123.1790445655594
 20
-133.0649183152581
 10
123.1790445655594
 20
-133.0649183152581
 10
123.0105793963307
 20
-133.0649183152581
 10
123.0105793963307
 20
-133.0649183152581
 10
123.0160915491071
 20
-133.0249552076292
 10
123.0216037018835
 20
-132.9422729159832
 10
123.0216037018835
 20
-132.9274590053966
 10
123.0216037018835
 20
-132.9274590053966
 10
123.0216037018835
 20
-132.8068806634129
 10
123.0216037018835
 20
-132.8068806634129
 10
123.0216037018835
 20
-132.8068806634129
 10
122.8772542010515
 20
-132.8068806634129
 10
122.8772542010515
 20
-132.8068806634129
 10
122.8403916793594
 20
-133.0270222649203
 10
122.7921603425659
 20
-133.1072929897267
 10
122.6994872740126
 20
-133.2068562492504
 10
122.6994872740126
 20
-133.2068562492504
 10
122.5530707158895
 20
-133.0924790791401
 10
122.5530707158895
 20
-133.0924790791401
 10
122.6088812627506
 20
-133.043903232798
 10
122.7401394007386
 20
-132.9315931199789
 10
122.7401394007386
 20
-132.5826049473231
 10
122.7401394007386
 20
-132.5002671652256
 10
122.7329047002196
 20
-132.4537583761748
 10
122.725325490152
 20
-132.4048380202842
 10
122.8531385326548
 20
-132.4196519308708
 10
122.8662298954987
 20
-132.4196519308708
 10
122.8975802644145
 20
-132.4196519308708
 10
122.9919758807103
 20
-132.4196519308708
 10
123.1159993181793
 20
-132.4027709629931
 10
123.2569037235261
 20
-132.3414482633556
 10
123.2569037235261
 20
-132.3414482633556
 10
123.3568114925983
 20
-132.4727064013436
 10
123.3568114925983
 20
-132.4727064013436
 10
123.3623236453747
 20
-132.4789075732171
 10
123.3661132504085
 20
-132.4875203119302
 10
123.3661132504085
 20
-132.4957885410948
 10
123.3661132504085
 20
-132.5192151903945
 10
123.3495767920793
 20
-132.5233493049768
 10
123.3364854292353
 20
-132.5233493049768
 97
        0
 97
        0
 92
        1
 93
        1
 72
     4
 94
        3
 73
     0
 74
     1
 95
       74
 96
       70
 40
0.0
 40
0.0
 40
0.0
 40
0.0
 40
1.0
 40
1.0
 40
1.0
 40
2.0
 40
2.0
 40
2.0
 40
3.0
 40
3.0
 40
3.0
 40
4.0
 40
4.0
 40
4.0
 40
5.0
 40
5.0
 40
5.0
 40
6.0
 40
6.0
 40
6.0
 40
7.0
 40
7.0
 40
7.0
 40
8.0
 40
8.0
 40
8.0
 40
9.0
 40
9.0
 40
9.0
 40
10.0
 40
10.0
 40
10.0
 40
11.0
 40
11.0
 40
11.0
 40
12.0
 40
12.0
 40
12.0
 40
13.0
 40
13.0
 40
13.0
 40
14.0
 40
14.0
 40
14.0
 40
15.0
 40
15.0
 40
15.0
 40
16.0
 40
16.0
 40
16.0
 40
17.0
 40
17.0
 40
17.0
 40
18.0
 40
18.0
 40
18.0
 40
19.0
 40
19.0
 40
19.0
 40
20.0
 40
20.0
 40
20.0
 40
21.0
 40
21.0
 40
21.0
 40
22.0
 40
22.0
 40
22.0
 40
23.0
 40
23.0
 40
23.0
 40
23.0
 10
124.069946258045
 20
-134.2899942698129
 10
123.882877573196
 20
-134.2793144738087
 10
123.7068331938997
 20
-134.1924980675803
 10
123.5531819352575
 20
-134.0719197255966
 10
123.5531819352575
 20
-134.0719197255966
 10
123.6382757937432
 20
-133.9851033193683
 10
123.6382757937432
 20
-133.9851033193683
 10
123.6382757937432
 20
-133.9851033193683
 10
123.1549288971627
 20
-133.9851033193683
 10
123.1549288971627
 20
-133.9851033193683
 10
123.1549288971627
 20
-133.9851033193683
 10
123.2255533546103
 20
-134.0488375858454
 10
123.2255533546103
 20
-134.0488375858454
 10
123.2310655073867
 20
-134.0529717004277
 10
123.2403672651969
 20
-134.063651496432
 10
123.2403672651969
 20
-134.0784654070186
 10
123.2403672651969
 20
-134.1184285146475
 10
123.1752549605256
 20
-134.112227342774
 10
123.1625081072302
 20
-134.1101602854829
 10
122.9606255117946
 20
-134.2496866526355
 10
122.834879526583
 20
-134.2813815310998
 10
122.7439290057724
 20
-134.2982624989775
 10
122.7439290057724
 20
-134.2982624989775
 10
122.6309298738562
 20
-134.1204955719386
 10
122.6309298738562
 20
-134.1204955719386
 10
122.8476263798784
 20
-134.0888006934743
 10
122.9365098433978
 20
-134.0422919044235
 10
123.0143690013645
 20
-133.9895819434991
 10
122.9496012062418
 20
-133.9916490007903
 10
122.849348927621
 20
-133.9937160580814
 10
122.821788163739
 20
-133.9957831153726
 10
122.834879526583
 20
-133.9068996518531
 10
122.8366020743256
 20
-133.7780530807048
 10
122.8366020743256
 20
-133.7039835277719
 10
122.8366020743256
 20
-133.7039835277719
 10
122.8366020743256
 20
-133.4035712014581
 10
122.8366020743256
 20
-133.4035712014581
 10
122.8366020743256
 20
-133.3040079419344
 10
122.8310899215492
 20
-133.2047891919592
 10
122.821788163739
 20
-133.1072929897267
 10
122.9106716272585
 20
-133.1134941616001
 10
123.1125542226941
 20
-133.1200398430221
 10
123.2069498389899
 20
-133.1200398430221
 10
123.2069498389899
 20
-133.1200398430221
 10
123.5772976036543
 20
-133.1200398430221
 10
123.5772976036543
 20
-133.1200398430221
 10
123.6809949777603
 20
-133.1200398430221
 10
123.7178574994525
 20
-133.1200398430221
 10
123.7902045046427
 20
-133.1159057284398
 10
123.9197400948881
 20
-133.1093600470178
 10
123.9345540054747
 20
-133.1093600470178
 10
123.9752061322007
 20
-133.1072929897267
 10
123.9679714316816
 20
-133.187563714533
 10
123.9641818266478
 20
-133.346382616403
 10
123.9641818266478
 20
-133.4287203985005
 10
123.9641818266478
 20
-133.4287203985005
 10
123.9641818266478
 20
-133.7143188142277
 10
123.9641818266478
 20
-133.7143188142277
 10
123.9641818266478
 20
-133.7863213098694
 10
123.966248883939
 20
-133.9175794478574
 10
123.9752061322007
 20
-133.9957831153726
 10
123.9125053943691
 20
-133.9916490007903
 10
123.8050184152293
 20
-133.9895819434991
 10
123.7364610150728
 20
-133.987514886208
 10
123.8329236886598
 20
-134.0550387577189
 10
123.966248883939
 20
-134.1056816613521
 10
124.1512505114969
 20
-134.1101602854829
 10
124.1512505114969
 20
-134.1101602854829
 10
124.069946258045
 20
-134.2899942698129
 10
124.069946258045
 20
-134.2899942698129
 97
        0
 97
        0
 92
        1
 93
        4
 72
     1
 10
123.8032958674867
 20
-133.2554320955924
 11
123.0050672435543
 21
-133.2554320955924
 72
     1
 10
123.0050672435543
 20
-133.2554320955924
 11
123.0050672435543
 21
-133.367397698863
 72
     1
 10
123.0050672435543
 20
-133.367397698863
 11
123.8032958674867
 21
-133.367397698863
 72
     1
 10
123.8032958674867
 20
-133.367397698863
 11
123.8032958674867
 21
-133.2554320955924
 97
        0
 92
        1
 93
        4
 72
     1
 10
123.8032958674867
 20
-133.5007228941422
 11
123.0050672435543
 21
-133.5007228941422
 72
     1
 10
123.0050672435543
 20
-133.5007228941422
 11
123.0050672435543
 21
-133.6109659496702
 72
     1
 10
123.0050672435543
 20
-133.6109659496702
 11
123.8032958674867
 21
-133.6109659496702
 72
     1
 10
123.8032958674867
 20
-133.6109659496702
 11
123.8032958674867
 21
-133.5007228941422
 97
        0
 92
        1
 93
        4
 72
     1
 10
123.8032958674867
 20
-133.7463582022405
 11
123.0050672435543
 21
-133.7463582022405
 72
     1
 10
123.0050672435543
 20
-133.7463582022405
 11
123.0050672435543
 21
-133.8541896909288
 72
     1
 10
123.0050672435543
 20
-133.8541896909288
 11
123.8032958674867
 21
-133.8541896909288
 72
     1
 10
123.8032958674867
 20
-133.8541896909288
 11
123.8032958674867
 21
-133.7463582022405
 97
        0
 92
        1
 93
        1
 72
     4
 94
        3
 73
     0
 74
     1
 95
       74
 96
       70
 40
0.0
 40
0.0
 40
0.0
 40
0.0
 40
1.0
 40
1.0
 40
1.0
 40
2.0
 40
2.0
 40
2.0
 40
3.0
 40
3.0
 40
3.0
 40
4.0
 40
4.0
 40
4.0
 40
5.0
 40
5.0
 40
5.0
 40
6.0
 40
6.0
 40
6.0
 40
7.0
 40
7.0
 40
7.0
 40
8.0
 40
8.0
 40
8.0
 40
9.0
 40
9.0
 40
9.0
 40
10.0
 40
10.0
 40
10.0
 40
11.0
 40
11.0
 40
11.0
 40
12.0
 40
12.0
 40
12.0
 40
13.0
 40
13.0
 40
13.0
 40
14.0
 40
14.0
 40
14.0
 40
15.0
 40
15.0
 40
15.0
 40
16.0
 40
16.0
 40
16.0
 40
17.0
 40
17.0
 40
17.0
 40
18.0
 40
18.0
 40
18.0
 40
19.0
 40
19.0
 40
19.0
 40
20.0
 40
20.0
 40
20.0
 40
21.0
 40
21.0
 40
21.0
 40
22.0
 40
22.0
 40
22.0
 40
23.0
 40
23.0
 40
23.0
 40
23.0
 10
124.0809705635978
 20
-132.8027465488306
 10
124.0809705635978
 20
-132.8027465488306
 10
123.9400661582511
 20
-132.8027465488306
 10
123.9400661582511
 20
-132.8027465488306
 10
123.9400661582511
 20
-132.8027465488306
 10
123.9400661582511
 20
-132.9167792093923
 10
123.9400661582511
 20
-132.9167792093923
 10
123.9400661582511
 20
-132.9570868265698
 10
123.9455783110275
 20
-133.0311563795026
 10
123.9493679160613
 20
-133.0566500860935
 10
123.9493679160613
 20
-133.0566500860935
 10
123.7643662885034
 20
-133.0566500860935
 10
123.7643662885034
 20
-133.0566500860935
 10
123.7736680463135
 20
-132.9908487623252
 10
123.7753905940562
 20
-132.9315931199789
 10
123.7753905940562
 20
-132.9295260626878
 10
123.7753905940562
 20
-132.9295260626878
 10
123.7753905940562
 20
-132.8068806634129
 10
123.7753905940562
 20
-132.8068806634129
 10
123.7753905940562
 20
-132.8068806634129
 10
123.6179497303802
 20
-132.8068806634129
 10
123.6179497303802
 20
-132.8068806634129
 10
123.601413272051
 20
-132.8661363057592
 10
123.5604166357766
 20
-133.0122083543338
 10
123.4605088667043
 20
-133.0945461364312
 10
123.4605088667043
 20
-133.0945461364312
 10
123.3233940663914
 20
-132.9887817050341
 10
123.3233940663914
 20
-132.9887817050341
 10
123.3885063710626
 20
-132.9422729159832
 10
123.4901366878775
 20
-132.8682033630503
 10
123.4901366878775
 20
-132.5467759542765
 10
123.4901366878775
 20
-132.4916544265125
 10
123.4866915923922
 20
-132.4472126947528
 10
123.4846245351011
 20
-132.409316644415
 10
123.5514593875149
 20
-132.4175848735796
 10
123.6162271826376
 20
-132.4241305550016
 10
123.6716932199501
 20
-132.4241305550016
 10
123.8270670263349
 20
-132.4241305550016
 10
124.0013888578885
 20
-132.3648749126553
 10
124.0551323474584
 20
-132.3352470914822
 10
124.0551323474584
 20
-132.3352470914822
 10
124.1660644220835
 20
-132.4706393440525
 10
124.1660644220835
 20
-132.4706393440525
 10
124.1698540271173
 20
-132.4747734586348
 10
124.1715765748599
 20
-132.4833861973479
 10
124.1715765748599
 20
-132.4895873692214
 10
124.1715765748599
 20
-132.5106024516814
 10
124.1588297215645
 20
-132.5171481331033
 10
124.1440158109779
 20
-132.5171481331033
 10
124.1254122953575
 20
-132.5171481331033
 10
124.1123209325136
 20
-132.5085353943902
 10
124.0957844741844
 20
-132.4982001079345
 10
123.9438557632849
 20
-132.5550441834411
 10
123.7533419829506
 20
-132.580537890032
 10
123.6365532460006
 20
-132.5826049473231
 10
123.6365532460006
 20
-132.5826049473231
 10
123.6327636409668
 20
-132.6652872389691
 10
123.6327636409668
 20
-132.6652872389691
 10
123.6327636409668
 20
-132.6652872389691
 10
123.8718532676431
 20
-132.6652872389691
 10
123.8718532676431
 20
-132.6652872389691
 10
123.9218071521793
 20
-132.6652872389691
 10
124.1512505114969
 20
-132.6459947042517
 10
124.1901800904802
 20
-132.6397935323783
 10
124.1901800904802
 20
-132.6397935323783
 10
124.1901800904802
 20
-132.808947720704
 10
124.1901800904802
 20
-132.808947720704
 10
124.1605522693071
 20
-132.8048136061217
 10
124.1495279637543
 20
-132.8027465488306
 10
124.0809705635978
 20
-132.8027465488306
 97
        0
 97
        0
 75
     2
 76
     1
 98
        0
  0
ENDBLK
  5
4C
330
49
100
AcDbEntity
  8
0
100
AcDbBlockEnd
  0
BLOCK
  5
87
330
85
100
AcDbEntity
  8
0
100
AcDbBlockBegin
  2
block 4
 70
     0
 10
0.0
 20
0.0
 30
0.0
  3
block 4
  1

  0
SPLINE
  5
89
330
85
100
AcDbEntity
  8
_U+30EC_U+30A4_U+30E4_U+30FC 1
370
     0
100
AcDbSpline
210
0.0
220
0.0
230
1.0
 70
    11
 71
     3
 72
    26
 73
    22
 74
     0
 42
0.0000000001
 43
0.0000000001
 12
1.0
 22
0.0
 32
0.0
 13
1.0
 23
0.0
 33
0.0
 40
0.0
 40
0.0
 40
0.0
 40
0.0
 40
1.0
 40
1.0
 40
1.0
 40
2.0
 40
2.0
 40
2.0
 40
3.0
 40
3.0
 40
3.0
 40
4.0
 40
4.0
 40
4.0
 40
5.0
 40
5.0
 40
5.0
 40
6.0
 40
6.0
 40
6.0
 40
7.0
 40
7.0
 40
7.0
 40
7.0
 10
126.1945366437986
 20
-152.3155951225114
 30
0.0
 10
126.1945366437986
 20
-152.3155951225114
 30
0.0
 10
125.090383540776
 20
-152.3155951225114
 30
0.0
 10
125.090383540776
 20
-152.3155951225114
 30
0.0
 10
125.090383540776
 20
-152.3155951225114
 30
0.0
 10
125.090383540776
 20
-152.6046386337239
 30
0.0
 10
125.090383540776
 20
-152.6046386337239
 30
0.0
 10
125.090383540776
 20
-152.6046386337239
 30
0.0
 10
124.9422444349103
 20
-152.6046386337239
 30
0.0
 10
124.9422444349103
 20
-152.6046386337239
 30
0.0
 10
124.9274305243237
 20
-152.3138725747688
 30
0.0
 10
124.7644775078714
 20
-152.2732204480428
 30
0.0
 10
124.6501003377611
 20
-152.2470377223549
 30
0.0
 10
124.6501003377611
 20
-152.2470377223549
 30
0.0
 10
124.6501003377611
 20
-152.1195691894007
 30
0.0
 10
124.6501003377611
 20
-152.1195691894007
 30
0.0
 10
124.6501003377611
 20
-152.1195691894007
 30
0.0
 10
126.1945366437986
 20
-152.1195691894007
 30
0.0
 10
126.1945366437986
 20
-152.1195691894007
 30
0.0
 10
126.1945366437986
 20
-152.1195691894007
 30
0.0
 10
126.1945366437986
 20
-152.3155951225114
 30
0.0
 10
126.1945366437986
 20
-152.3155951225114
 30
0.0
  0
HATCH
  5
8A
330
85
100
AcDbEntity
  8
_U+30EC_U+30A4_U+30E4_U+30FC 1
 62
   179
420
  2234388
100
AcDbHatch
 10
0.0
 20
0.0
 30
0.0
210
0.0
220
0.0
230
1.0
  2
SOLID
 70
     1
 71
     0
 91
        1
 92
        1
 93
        1
 72
     4
 94
        3
 73
     0
 74
     1
 95
       26
 96
       22
 40
0.0
 40
0.0
 40
0.0
 40
0.0
 40
1.0
 40
1.0
 40
1.0
 40
2.0
 40
2.0
 40
2.0
 40
3.0
 40
3.0
 40
3.0
 40
4.0
 40
4.0
 40
4.0
 40
5.0
 40
5.0
 40
5.0
 40
6.0
 40
6.0
 40
6.0
 40
7.0
 40
7.0
 40
7.0
 40
7.0
 10
126.1945366437986
 20
-152.3155951225114
 10
126.1945366437986
 20
-152.3155951225114
 10
125.090383540776
 20
-152.3155951225114
 10
125.090383540776
 20
-152.3155951225114
 10
125.090383540776
 20
-152.3155951225114
 10
125.090383540776
 20
-152.6046386337239
 10
125.090383540776
 20
-152.6046386337239
 10
125.090383540776
 20
-152.6046386337239
 10
124.9422444349103
 20
-152.6046386337239
 10
124.9422444349103
 20
-152.6046386337239
 10
124.9274305243237
 20
-152.3138725747688
 10
124.7644775078714
 20
-152.2732204480428
 10
124.6501003377611
 20
-152.2470377223549
 10
124.6501003377611
 20
-152.2470377223549
 10
124.6501003377611
 20
-152.1195691894007
 10
124.6501003377611
 20
-152.1195691894007
 10
124.6501003377611
 20
-152.1195691894007
 10
126.1945366437986
 20
-152.1195691894007
 10
126.1945366437986
 20
-152.1195691894007
 10
126.1945366437986
 20
-152.1195691894007
 10
126.1945366437986
 20
-152.3155951225114
 10
126.1945366437986
 20
-152.3155951225114
 97
        0
 97
        0
 75
     2
 76
     1
 98
        0
  0
SPLINE
  5
8B
330
85
100
AcDbEntity
  8
_U+30EC_U+30A4_U+30E4_U+30FC 1
370
     0
100
AcDbSpline
210
0.0
220
0.0
230
1.0
 70
    11
 71
     3
 72
    32
 73
    28
 74
     0
 42
0.0000000001
 43
0.0000000001
 12
1.0
 22
0.0
 32
0.0
 13
1.0
 23
0.0
 33
0.0
 40
0.0
 40
0.0
 40
0.0
 40
0.0
 40
1.0
 40
1.0
 40
1.0
 40
2.0
 40
2.0
 40
2.0
 40
3.0
 40
3.0
 40
3.0
 40
4.0
 40
4.0
 40
4.0
 40
5.0
 40
5.0
 40
5.0
 40
6.0
 40
6.0
 40
6.0
 40
7.0
 40
7.0
 40
7.0
 40
8.0
 40
8.0
 40
8.0
 40
9.0
 40
9.0
 40
9.0
 40
9.0
 10
126.2451795474318
 20
-151.2386582738223
 30
0.0
 10
126.2451795474318
 20
-151.6903102919385
 30
0.0
 10
125.6912081934036
 20
-151.6978895020061
 30
0.0
 10
125.4772677637696
 20
-151.6978895020061
 30
0.0
 10
125.2467908758064
 20
-151.6978895020061
 30
0.0
 10
124.5994574341279
 20
-151.6813530436769
 30
0.0
 10
124.5994574341279
 20
-151.2052408476154
 30
0.0
 10
124.5994574341279
 20
-151.0536566462644
 30
0.0
 10
124.6693928724785
 20
-150.8386826879848
 30
0.0
 10
125.0015000772566
 20
-150.8052652617779
 30
0.0
 10
125.0015000772566
 20
-150.8052652617779
 30
0.0
 10
125.0015000772566
 20
-150.9923339466269
 30
0.0
 10
125.0015000772566
 20
-150.9923339466269
 30
0.0
 10
124.9443114922014
 20
-151.0016357044371
 30
0.0
 10
124.7961723863357
 20
-151.0295409778676
 30
0.0
 10
124.7961723863357
 20
-151.2073079049065
 30
0.0
 10
124.7961723863357
 20
-151.4625894803635
 30
0.0
 10
125.1241454765315
 20
-151.4980739638616
 30
0.0
 10
125.3291286579038
 20
-151.5090982694144
 30
0.0
 10
125.2509249903887
 20
-151.427449506414
 30
0.0
 10
125.1916693480424
 20
-151.3681938640677
 30
0.0
 10
125.1916693480424
 20
-151.2090304526491
 30
0.0
 10
125.1916693480424
 20
-151.0515895889732
 30
0.0
 10
125.2998453462792
 20
-150.787006255706
 30
0.0
 10
125.7060221039902
 20
-150.787006255706
 30
0.0
 10
126.0253824554728
 20
-150.787006255706
 30
0.0
 10
126.2451795474318
 20
-150.9609835777111
 30
0.0
 10
126.2451795474318
 20
-151.2386582738223
 30
0.0
  0
SPLINE
  5
8C
330
85
100
AcDbEntity
  8
_U+30EC_U+30A4_U+30E4_U+30FC 1
370
     0
100
AcDbSpline
210
0.0
220
0.0
230
1.0
 70
    11
 71
     3
 72
    17
 73
    13
 74
     0
 42
0.0000000001
 43
0.0000000001
 12
1.0
 22
0.0
 32
0.0
 13
1.0
 23
0.0
 33
0.0
 40
0.0
 40
0.0
 40
0.0
 40
0.0
 40
1.0
 40
1.0
 40
1.0
 40
2.0
 40
2.0
 40
2.0
 40
3.0
 40
3.0
 40
3.0
 40
4.0
 40
4.0
 40
4.0
 40
4.0
 10
125.386317242959
 20
-151.2238443632357
 30
0.0
 10
125.386317242959
 20
-151.4532877225533
 30
0.0
 10
125.5978461057533
 20
-151.4867051487603
 30
0.0
 10
125.7142903331548
 20
-151.4867051487603
 30
0.0
 10
125.8899902029025
 20
-151.4867051487603
 30
0.0
 10
126.0529432193548
 20
-151.4033338380172
 30
0.0
 10
126.0529432193548
 20
-151.2424478788561
 30
0.0
 10
126.0529432193548
 20
-151.1366834474589
 30
0.0
 10
125.9936875770085
 20
-150.9830321888167
 30
0.0
 10
125.7080891612813
 20
-150.9830321888167
 30
0.0
 10
125.4838134451916
 20
-150.9830321888167
 30
0.0
 10
125.386317242959
 20
-151.1053330785431
 30
0.0
 10
125.386317242959
 20
-151.2238443632357
 30
0.0
  0
HATCH
  5
8D
330
85
100
AcDbEntity
  8
_U+30EC_U+30A4_U+30E4_U+30FC 1
 62
   179
420
  2234388
100
AcDbHatch
 10
0.0
 20
0.0
 30
0.0
210
0.0
220
0.0
230
1.0
  2
SOLID
 70
     1
 71
     0
 91
        2
 92
        1
 93
        1
 72
     4
 94
        3
 73
     0
 74
     1
 95
       32
 96
       28
 40
0.0
 40
0.0
 40
0.0
 40
0.0
 40
1.0
 40
1.0
 40
1.0
 40
2.0
 40
2.0
 40
2.0
 40
3.0
 40
3.0
 40
3.0
 40
4.0
 40
4.0
 40
4.0
 40
5.0
 40
5.0
 40
5.0
 40
6.0
 40
6.0
 40
6.0
 40
7.0
 40
7.0
 40
7.0
 40
8.0
 40
8.0
 40
8.0
 40
9.0
 40
9.0
 40
9.0
 40
9.0
 10
126.2451795474318
 20
-151.2386582738223
 10
126.2451795474318
 20
-151.6903102919385
 10
125.6912081934036
 20
-151.6978895020061
 10
125.4772677637696
 20
-151.6978895020061
 10
125.2467908758064
 20
-151.6978895020061
 10
124.5994574341279
 20
-151.6813530436769
 10
124.5994574341279
 20
-151.2052408476154
 10
124.5994574341279
 20
-151.0536566462644
 10
124.6693928724785
 20
-150.8386826879848
 10
125.0015000772566
 20
-150.8052652617779
 10
125.0015000772566
 20
-150.8052652617779
 10
125.0015000772566
 20
-150.9923339466269
 10
125.0015000772566
 20
-150.9923339466269
 10
124.9443114922014
 20
-151.0016357044371
 10
124.7961723863357
 20
-151.0295409778676
 10
124.7961723863357
 20
-151.2073079049065
 10
124.7961723863357
 20
-151.4625894803635
 10
125.1241454765315
 20
-151.4980739638616
 10
125.3291286579038
 20
-151.5090982694144
 10
125.2509249903887
 20
-151.427449506414
 10
125.1916693480424
 20
-151.3681938640677
 10
125.1916693480424
 20
-151.2090304526491
 10
125.1916693480424
 20
-151.0515895889732
 10
125.2998453462792
 20
-150.787006255706
 10
125.7060221039902
 20
-150.787006255706
 10
126.0253824554728
 20
-150.787006255706
 10
126.2451795474318
 20
-150.9609835777111
 10
126.2451795474318
 20
-151.2386582738223
 97
        0
 97
        0
 92
        1
 93
        1
 72
     4
 94
        3
 73
     0
 74
     1
 95
       17
 96
       13
 40
0.0
 40
0.0
 40
0.0
 40
0.0
 40
1.0
 40
1.0
 40
1.0
 40
2.0
 40
2.0
 40
2.0
 40
3.0
 40
3.0
 40
3.0
 40
4.0
 40
4.0
 40
4.0
 40
4.0
 10
125.386317242959
 20
-151.2238443632357
 10
125.386317242959
 20
-151.4532877225533
 10
125.5978461057533
 20
-151.4867051487603
 10
125.7142903331548
 20
-151.4867051487603
 10
125.8899902029025
 20
-151.4867051487603
 10
126.0529432193548
 20
-151.4033338380172
 10
126.0529432193548
 20
-151.2424478788561
 10
126.0529432193548
 20
-151.1366834474589
 10
125.9936875770085
 20
-150.9830321888167
 10
125.7080891612813
 20
-150.9830321888167
 10
125.4838134451916
 20
-150.9830321888167
 10
125.386317242959
 20
-151.1053330785431
 10
125.386317242959
 20
-151.2238443632357
 97
        0
 97
        0
 75
     2
 76
     1
 98
        0
  0
POLYLINE
  5
8E
330
85
100
AcDbEntity
  8
_U+30EC_U+30A4_U+30E4_U+30FC 1
370
     0
100
AcDb2dPolyline
 66
     1
 10
0.0
 20
0.0
 30
0.0
  0
VERTEX
  5
8F
330
8E
100
AcDbEntity
  8
_U+30EC_U+30A4_U+30E4_U+30FC 1
370
     0
100
AcDbVertex
100
AcDb2dVertex
 10
126.1945366437986
 20
-150.5968369849202
 30
0.0
  0
VERTEX
  5
90
330
8E
100
AcDbEntity
  8
_U+30EC_U+30A4_U+30E4_U+30FC 1
370
     0
100
AcDbVertex
100
AcDb2dVertex
 10
125.9427001638268
 20
-150.5968369849202
 30
0.0
  0
VERTEX
  5
91
330
8E
100
AcDbEntity
  8
_U+30EC_U+30A4_U+30E4_U+30FC 1
370
     0
100
AcDbVertex
100
AcDb2dVertex
 10
125.9427001638268
 20
-150.3763508738643
 30
0.0
  0
VERTEX
  5
92
330
8E
100
AcDbEntity
  8
_U+30EC_U+30A4_U+30E4_U+30FC 1
370
     0
100
AcDbVertex
100
AcDb2dVertex
 10
126.1945366437986
 20
-150.3763508738643
 30
0.0
  0
VERTEX
  5
93
330
8E
100
AcDbEntity
  8
_U+30EC_U+30A4_U+30E4_U+30FC 1
370
     0
100
AcDbVertex
100
AcDb2dVertex
 10
126.1945366437986
 20
-150.5968369849202
 30
0.0
  0
SEQEND
  5
94
330
8E
100
AcDbEntity
  8
_U+30EC_U+30A4_U+30E4_U+30FC 1
370
     0
  0
HATCH
  5
95
330
85
100
AcDbEntity
  8
_U+30EC_U+30A4_U+30E4_U+30FC 1
 62
   179
420
  2234388
100
AcDbHatch
 10
0.0
 20
0.0
 30
0.0
210
0.0
220
0.0
230
1.0
  2
SOLID
 70
     1
 71
     0
 91
        1
 92
        1
 93
        4
 72
     1
 10
126.1945366437986
 20
-150.5968369849202
 11
125.9427001638268
 21
-150.5968369849202
 72
     1
 10
125.9427001638268
 20
-150.5968369849202
 11
125.9427001638268
 21
-150.3763508738643
 72
     1
 10
125.9427001638268
 20
-150.3763508738643
 11
126.1945366437986
 21
-150.3763508738643
 72
     1
 10
126.1945366437986
 20
-150.3763508738643
 11
126.1945366437986
 21
-150.5968369849202
 97
        0
 75
     2
 76
     1
 98
        0
  0
SPLINE
  5
96
330
85
100
AcDbEntity
  8
_U+30EC_U+30A4_U+30E4_U+30FC 1
370
     0
100
AcDbSpline
210
0.0
220
0.0
230
1.0
 70
    11
 71
     3
 72
    44
 73
    40
 74
     0
 42
0.0000000001
 43
0.0000000001
 12
1.0
 22
0.0
 32
0.0
 13
1.0
 23
0.0
 33
0.0
 40
0.0
 40
0.0
 40
0.0
 40
0.0
 40
1.0
 40
1.0
 40
1.0
 40
2.0
 40
2.0
 40
2.0
 40
3.0
 40
3.0
 40
3.0
 40
4.0
 40
4.0
 40
4.0
 40
5.0
 40
5.0
 40
5.0
 40
6.0
 40
6.0
 40
6.0
 40
7.0
 40
7.0
 40
7.0
 40
8.0
 40
8.0
 40
8.0
 40
9.0
 40
9.0
 40
9.0
 40
10.0
 40
10.0
 40
10.0
 40
11.0
 40
11.0
 40
11.0
 40
12.0
 40
12.0
 40
12.0
 40
13.0
 40
13.0
 40
13.0
 40
13.0
 10
125.6126600163399
 20
-149.6497802360251
 30
0.0
 10
125.7714789182099
 20
-149.8406385259079
 30
0.0
 10
125.8455484711428
 20
-149.9219427793598
 30
0.0
 10
125.9892089528777
 20
-149.9646619633769
 30
0.0
 10
125.9892089528777
 20
-149.9646619633769
 30
0.0
 10
125.9892089528777
 20
-149.2832220763945
 30
0.0
 10
125.9892089528777
 20
-149.2832220763945
 30
0.0
 10
125.9892089528777
 20
-149.2832220763945
 30
0.0
 10
126.1945366437986
 20
-149.2832220763945
 30
0.0
 10
126.1945366437986
 20
-149.2832220763945
 30
0.0
 10
126.1945366437986
 20
-149.2832220763945
 30
0.0
 10
126.1945366437986
 20
-150.1830810171417
 30
0.0
 10
126.1945366437986
 20
-150.1830810171417
 30
0.0
 10
125.8369357324297
 20
-150.1555202532597
 30
0.0
 10
125.7587320649145
 20
-150.0979871586561
 30
0.0
 10
125.4603867958918
 20
-149.7610568201986
 30
0.0
 10
125.2616047863929
 20
-149.5367811041089
 30
0.0
 10
125.1937364053335
 20
-149.4795925190537
 30
0.0
 10
125.056277095472
 20
-149.4795925190537
 30
0.0
 10
124.9377658107795
 20
-149.4795925190537
 30
0.0
 10
124.80685218234
 20
-149.5426377664338
 30
0.0
 10
124.80685218234
 20
-149.7145480311478
 30
0.0
 10
124.80685218234
 20
-149.9422688427228
 30
0.0
 10
125.0373290703032
 20
-149.9498480527903
 30
0.0
 10
125.1537732977046
 20
-149.9536376578241
 30
0.0
 10
125.1537732977046
 20
-149.9536376578241
 30
0.0
 10
125.1537732977046
 20
-150.1496635909348
 30
0.0
 10
125.1537732977046
 20
-150.1496635909348
 30
0.0
 10
125.0266492742989
 20
-150.1424288904158
 30
0.0
 10
124.9146836710283
 20
-150.1331271326056
 30
0.0
 10
124.7961723863357
 20
-150.0628471847065
 30
0.0
 10
124.6352864271745
 20
-149.9663845111195
 30
0.0
 10
124.6015244914191
 20
-149.8034314946672
 30
0.0
 10
124.6015244914191
 20
-149.7018011778523
 30
0.0
 10
124.6015244914191
 20
-149.4592664556907
 30
0.0
 10
124.7854925903314
 20
-149.2777099236181
 30
0.0
 10
125.0583441527632
 20
-149.2777099236181
 30
0.0
 10
125.2870984929838
 20
-149.2777099236181
 30
0.0
 10
125.386317242959
 20
-149.379340240433
 30
0.0
 10
125.6126600163399
 20
-149.6497802360251
 30
0.0
  0
HATCH
  5
97
330
85
100
AcDbEntity
  8
_U+30EC_U+30A4_U+30E4_U+30FC 1
 62
   179
420
  2234388
100
AcDbHatch
 10
0.0
 20
0.0
 30
0.0
210
0.0
220
0.0
230
1.0
  2
SOLID
 70
     1
 71
     0
 91
        1
 92
        1
 93
        1
 72
     4
 94
        3
 73
     0
 74
     1
 95
       44
 96
       40
 40
0.0
 40
0.0
 40
0.0
 40
0.0
 40
1.0
 40
1.0
 40
1.0
 40
2.0
 40
2.0
 40
2.0
 40
3.0
 40
3.0
 40
3.0
 40
4.0
 40
4.0
 40
4.0
 40
5.0
 40
5.0
 40
5.0
 40
6.0
 40
6.0
 40
6.0
 40
7.0
 40
7.0
 40
7.0
 40
8.0
 40
8.0
 40
8.0
 40
9.0
 40
9.0
 40
9.0
 40
10.0
 40
10.0
 40
10.0
 40
11.0
 40
11.0
 40
11.0
 40
12.0
 40
12.0
 40
12.0
 40
13.0
 40
13.0
 40
13.0
 40
13.0
 10
125.6126600163399
 20
-149.6497802360251
 10
125.7714789182099
 20
-149.8406385259079
 10
125.8455484711428
 20
-149.9219427793598
 10
125.9892089528777
 20
-149.9646619633769
 10
125.9892089528777
 20
-149.9646619633769
 10
125.9892089528777
 20
-149.2832220763945
 10
125.9892089528777
 20
-149.2832220763945
 10
125.9892089528777
 20
-149.2832220763945
 10
126.1945366437986
 20
-149.2832220763945
 10
126.1945366437986
 20
-149.2832220763945
 10
126.1945366437986
 20
-149.2832220763945
 10
126.1945366437986
 20
-150.1830810171417
 10
126.1945366437986
 20
-150.1830810171417
 10
125.8369357324297
 20
-150.1555202532597
 10
125.7587320649145
 20
-150.0979871586561
 10
125.4603867958918
 20
-149.7610568201986
 10
125.2616047863929
 20
-149.5367811041089
 10
125.1937364053335
 20
-149.4795925190537
 10
125.056277095472
 20
-149.4795925190537
 10
124.9377658107795
 20
-149.4795925190537
 10
124.80685218234
 20
-149.5426377664338
 10
124.80685218234
 20
-149.7145480311478
 10
124.80685218234
 20
-149.9422688427228
 10
125.0373290703032
 20
-149.9498480527903
 10
125.1537732977046
 20
-149.9536376578241
 10
125.1537732977046
 20
-149.9536376578241
 10
125.1537732977046
 20
-150.1496635909348
 10
125.1537732977046
 20
-150.1496635909348
 10
125.0266492742989
 20
-150.1424288904158
 10
124.9146836710283
 20
-150.1331271326056
 10
124.7961723863357
 20
-150.0628471847065
 10
124.6352864271745
 20
-149.9663845111195
 10
124.6015244914191
 20
-149.8034314946672
 10
124.6015244914191
 20
-149.7018011778523
 10
124.6015244914191
 20
-149.4592664556907
 10
124.7854925903314
 20
-149.2777099236181
 10
125.0583441527632
 20
-149.2777099236181
 10
125.2870984929838
 20
-149.2777099236181
 10
125.386317242959
 20
-149.379340240433
 10
125.6126600163399
 20
-149.6497802360251
 97
        0
 97
        0
 75
     2
 76
     1
 98
        0
  0
ENDBLK
  5
88
330
85
100
AcDbEntity
  8
0
100
AcDbBlockEnd
  0
BLOCK
  5
9A
330
98
100
AcDbEntity
  8
0
100
AcDbBlockBegin
  2
block 5
 70
     0
 10
0.0
 20
0.0
 30
0.0
  3
block 5
  1

  0
SPLINE
  5
9C
330
98
100
AcDbEntity
  8
_U+30EC_U+30A4_U+30E4_U+30FC 1
370
     0
100
AcDbSpline
210
0.0
220
0.0
230
1.0
 70
    11
 71
     3
 72
    62
 73
    58
 74
     0
 42
0.0000000001
 43
0.0000000001
 12
1.0
 22
0.0
 32
0.0
 13
1.0
 23
0.0
 33
0.0
 40
0.0
 40
0.0
 40
0.0
 40
0.0
 40
1.0
 40
1.0
 40
1.0
 40
2.0
 40
2.0
 40
2.0
 40
3.0
 40
3.0
 40
3.0
 40
4.0
 40
4.0
 40
4.0
 40
5.0
 40
5.0
 40
5.0
 40
6.0
 40
6.0
 40
6.0
 40
7.0
 40
7.0
 40
7.0
 40
8.0
 40
8.0
 40
8.0
 40
9.0
 40
9.0
 40
9.0
 40
10.0
 40
10.0
 40
10.0
 40
11.0
 40
11.0
 40
11.0
 40
12.0
 40
12.0
 40
12.0
 40
13.0
 40
13.0
 40
13.0
 40
14.0
 40
14.0
 40
14.0
 40
15.0
 40
15.0
 40
15.0
 40
16.0
 40
16.0
 40
16.0
 40
17.0
 40
17.0
 40
17.0
 40
18.0
 40
18.0
 40
18.0
 40
19.0
 40
19.0
 40
19.0
 40
19.0
 10
121.3831162890987
 20
-145.1721896338458
 30
0.0
 10
121.3831162890987
 20
-145.2555609445889
 30
0.0
 10
121.3621012066386
 20
-145.4464192344717
 30
0.0
 10
121.1760660504352
 20
-145.5556287613541
 30
0.0
 10
121.063755937616
 20
-145.6203965564769
 30
0.0
 10
120.9645371876408
 20
-145.6241861615106
 30
0.0
 10
120.8797878387037
 20
-145.6276312569959
 30
0.0
 10
120.8797878387037
 20
-145.6276312569959
 30
0.0
 10
120.8797878387037
 20
-145.4353949289189
 30
0.0
 10
120.8797878387037
 20
-145.4353949289189
 30
0.0
 10
120.9538573916365
 20
-145.4333278716278
 30
0.0
 10
121.1884683941821
 20
-145.4240261138176
 30
0.0
 10
121.1884683941821
 20
-145.1759792388796
 30
0.0
 10
121.1884683941821
 20
-145.0557454064444
 30
0.0
 10
121.11887746538
 20
-144.9224202111652
 30
0.0
 10
120.8904676347079
 20
-144.9224202111652
 30
0.0
 10
120.7740234073065
 20
-144.9224202111652
 30
0.0
 10
120.7254475609645
 20
-144.9554931278236
 30
0.0
 10
120.6937526825002
 20
-144.9833984012542
 30
0.0
 10
120.6196831295673
 20
-145.0481661963769
 30
0.0
 10
120.6069362762719
 20
-145.1501410227403
 30
0.0
 10
120.6069362762719
 20
-145.1983723595337
 30
0.0
 10
120.6069362762719
 20
-145.2149088178629
 30
0.0
 10
120.609003333563
 20
-145.2462591867787
 30
0.0
 10
120.6131374481453
 20
-145.2703748551755
 30
0.0
 10
120.6131374481453
 20
-145.2703748551755
 30
0.0
 10
120.4184895532287
 20
-145.2703748551755
 30
0.0
 10
120.4184895532287
 20
-145.2703748551755
 30
0.0
 10
120.4250352346507
 20
-145.2369574289685
 30
0.0
 10
120.4271022919418
 20
-145.2000949072764
 30
0.0
 10
120.4271022919418
 20
-145.1945827545
 30
0.0
 10
120.4271022919418
 20
-145.1370496598963
 30
0.0
 10
120.4057426999333
 20
-144.9630723378912
 30
0.0
 10
120.1690646400966
 20
-144.9630723378912
 30
0.0
 10
119.9912977130577
 20
-144.9630723378912
 30
0.0
 10
119.9361761852937
 20
-145.07779401755
 30
0.0
 10
119.9361761852937
 20
-145.174256691137
 30
0.0
 10
119.9361761852937
 20
-145.4057671077458
 30
0.0
 10
120.1690646400966
 20
-145.4130018082648
 30
0.0
 10
120.2407226261898
 20
-145.4167914132986
 30
0.0
 10
120.2407226261898
 20
-145.4167914132986
 30
0.0
 10
120.2407226261898
 20
-145.5945583403375
 30
0.0
 10
120.2407226261898
 20
-145.5945583403375
 30
0.0
 10
120.1160101696238
 20
-145.5869791302699
 30
0.0
 10
119.739461233086
 20
-145.5628634618732
 30
0.0
 10
119.739461233086
 20
-145.1628878760357
 30
0.0
 10
119.739461233086
 20
-144.966861942925
 30
0.0
 10
119.8665852564917
 20
-144.7556775896792
 30
0.0
 10
120.1625189586747
 20
-144.7556775896792
 30
0.0
 10
120.3488986244267
 20
-144.7556775896792
 30
0.0
 10
120.4312364065241
 20
-144.8390489004222
 30
0.0
 10
120.4925591061616
 20
-144.9258653066505
 30
0.0
 10
120.5201198700436
 20
-144.8724663266291
 30
0.0
 10
120.6003905948499
 20
-144.7129584056621
 30
0.0
 10
120.8777207814125
 20
-144.7129584056621
 30
0.0
 10
121.2160291580641
 20
-144.7129584056621
 30
0.0
 10
121.3831162890987
 20
-144.9296549116843
 30
0.0
 10
121.3831162890987
 20
-145.1721896338458
 30
0.0
  0
HATCH
  5
9D
330
98
100
AcDbEntity
  8
_U+30EC_U+30A4_U+30E4_U+30FC 1
 62
   179
420
  2234388
100
AcDbHatch
 10
0.0
 20
0.0
 30
0.0
210
0.0
220
0.0
230
1.0
  2
SOLID
 70
     1
 71
     0
 91
        1
 92
        1
 93
        1
 72
     4
 94
        3
 73
     0
 74
     1
 95
       62
 96
       58
 40
0.0
 40
0.0
 40
0.0
 40
0.0
 40
1.0
 40
1.0
 40
1.0
 40
2.0
 40
2.0
 40
2.0
 40
3.0
 40
3.0
 40
3.0
 40
4.0
 40
4.0
 40
4.0
 40
5.0
 40
5.0
 40
5.0
 40
6.0
 40
6.0
 40
6.0
 40
7.0
 40
7.0
 40
7.0
 40
8.0
 40
8.0
 40
8.0
 40
9.0
 40
9.0
 40
9.0
 40
10.0
 40
10.0
 40
10.0
 40
11.0
 40
11.0
 40
11.0
 40
12.0
 40
12.0
 40
12.0
 40
13.0
 40
13.0
 40
13.0
 40
14.0
 40
14.0
 40
14.0
 40
15.0
 40
15.0
 40
15.0
 40
16.0
 40
16.0
 40
16.0
 40
17.0
 40
17.0
 40
17.0
 40
18.0
 40
18.0
 40
18.0
 40
19.0
 40
19.0
 40
19.0
 40
19.0
 10
121.3831162890987
 20
-145.1721896338458
 10
121.3831162890987
 20
-145.2555609445889
 10
121.3621012066386
 20
-145.4464192344717
 10
121.1760660504352
 20
-145.5556287613541
 10
121.063755937616
 20
-145.6203965564769
 10
120.9645371876408
 20
-145.6241861615106
 10
120.8797878387037
 20
-145.6276312569959
 10
120.8797878387037
 20
-145.6276312569959
 10
120.8797878387037
 20
-145.4353949289189
 10
120.8797878387037
 20
-145.4353949289189
 10
120.9538573916365
 20
-145.4333278716278
 10
121.1884683941821
 20
-145.4240261138176
 10
121.1884683941821
 20
-145.1759792388796
 10
121.1884683941821
 20
-145.0557454064444
 10
121.11887746538
 20
-144.9224202111652
 10
120.8904676347079
 20
-144.9224202111652
 10
120.7740234073065
 20
-144.9224202111652
 10
120.7254475609645
 20
-144.9554931278236
 10
120.6937526825002
 20
-144.9833984012542
 10
120.6196831295673
 20
-145.0481661963769
 10
120.6069362762719
 20
-145.1501410227403
 10
120.6069362762719
 20
-145.1983723595337
 10
120.6069362762719
 20
-145.2149088178629
 10
120.609003333563
 20
-145.2462591867787
 10
120.6131374481453
 20
-145.2703748551755
 10
120.6131374481453
 20
-145.2703748551755
 10
120.4184895532287
 20
-145.2703748551755
 10
120.4184895532287
 20
-145.2703748551755
 10
120.4250352346507
 20
-145.2369574289685
 10
120.4271022919418
 20
-145.2000949072764
 10
120.4271022919418
 20
-145.1945827545
 10
120.4271022919418
 20
-145.1370496598963
 10
120.4057426999333
 20
-144.9630723378912
 10
120.1690646400966
 20
-144.9630723378912
 10
119.9912977130577
 20
-144.9630723378912
 10
119.9361761852937
 20
-145.07779401755
 10
119.9361761852937
 20
-145.174256691137
 10
119.9361761852937
 20
-145.4057671077458
 10
120.1690646400966
 20
-145.4130018082648
 10
120.2407226261898
 20
-145.4167914132986
 10
120.2407226261898
 20
-145.4167914132986
 10
120.2407226261898
 20
-145.5945583403375
 10
120.2407226261898
 20
-145.5945583403375
 10
120.1160101696238
 20
-145.5869791302699
 10
119.739461233086
 20
-145.5628634618732
 10
119.739461233086
 20
-145.1628878760357
 10
119.739461233086
 20
-144.966861942925
 10
119.8665852564917
 20
-144.7556775896792
 10
120.1625189586747
 20
-144.7556775896792
 10
120.3488986244267
 20
-144.7556775896792
 10
120.4312364065241
 20
-144.8390489004222
 10
120.4925591061616
 20
-144.9258653066505
 10
120.5201198700436
 20
-144.8724663266291
 10
120.6003905948499
 20
-144.7129584056621
 10
120.8777207814125
 20
-144.7129584056621
 10
121.2160291580641
 20
-144.7129584056621
 10
121.3831162890987
 20
-144.9296549116843
 10
121.3831162890987
 20
-145.1721896338458
 97
        0
 97
        0
 75
     2
 76
     1
 98
        0
  0
POLYLINE
  5
9E
330
98
100
AcDbEntity
  8
_U+30EC_U+30A4_U+30E4_U+30FC 1
370
     0
100
AcDb2dPolyline
 66
     1
 10
0.0
 20
0.0
 30
0.0
  0
VERTEX
  5
9F
330
9E
100
AcDbEntity
  8
_U+30EC_U+30A4_U+30E4_U+30FC 1
370
     0
100
AcDbVertex
100
AcDb2dVertex
 10
121.3324733854655
 20
-144.519344039391
 30
0.0
  0
VERTEX
  5
A0
330
9E
100
AcDbEntity
  8
_U+30EC_U+30A4_U+30E4_U+30FC 1
370
     0
100
AcDbVertex
100
AcDb2dVertex
 10
121.0806369054937
 20
-144.519344039391
 30
0.0
  0
VERTEX
  5
A1
330
9E
100
AcDbEntity
  8
_U+30EC_U+30A4_U+30E4_U+30FC 1
370
     0
100
AcDbVertex
100
AcDb2dVertex
 10
121.0806369054937
 20
-144.298857928335
 30
0.0
  0
VERTEX
  5
A2
330
9E
100
AcDbEntity
  8
_U+30EC_U+30A4_U+30E4_U+30FC 1
370
     0
100
AcDbVertex
100
AcDb2dVertex
 10
121.3324733854655
 20
-144.298857928335
 30
0.0
  0
VERTEX
  5
A3
330
9E
100
AcDbEntity
  8
_U+30EC_U+30A4_U+30E4_U+30FC 1
370
     0
100
AcDbVertex
100
AcDb2dVertex
 10
121.3324733854655
 20
-144.519344039391
 30
0.0
  0
SEQEND
  5
A4
330
9E
100
AcDbEntity
  8
_U+30EC_U+30A4_U+30E4_U+30FC 1
370
     0
  0
HATCH
  5
A5
330
98
100
AcDbEntity
  8
_U+30EC_U+30A4_U+30E4_U+30FC 1
 62
   179
420
  2234388
100
AcDbHatch
 10
0.0
 20
0.0
 30
0.0
210
0.0
220
0.0
230
1.0
  2
SOLID
 70
     1
 71
     0
 91
        1
 92
        1
 93
        4
 72
     1
 10
121.3324733854655
 20
-144.519344039391
 11
121.0806369054937
 21
-144.519344039391
 72
     1
 10
121.0806369054937
 20
-144.519344039391
 11
121.0806369054937
 21
-144.298857928335
 72
     1
 10
121.0806369054937
 20
-144.298857928335
 11
121.3324733854655
 21
-144.298857928335
 72
     1
 10
121.3324733854655
 20
-144.298857928335
 11
121.3324733854655
 21
-144.519344039391
 97
        0
 75
     2
 76
     1
 98
        0
  0
SPLINE
  5
A6
330
98
100
AcDbEntity
  8
_U+30EC_U+30A4_U+30E4_U+30FC 1
370
     0
100
AcDbSpline
210
0.0
220
0.0
230
1.0
 70
    11
 71
     3
 72
    44
 73
    40
 74
     0
 42
0.0000000001
 43
0.0000000001
 12
1.0
 22
0.0
 32
0.0
 13
1.0
 23
0.0
 33
0.0
 40
0.0
 40
0.0
 40
0.0
 40
0.0
 40
1.0
 40
1.0
 40
1.0
 40
2.0
 40
2.0
 40
2.0
 40
3.0
 40
3.0
 40
3.0
 40
4.0
 40
4.0
 40
4.0
 40
5.0
 40
5.0
 40
5.0
 40
6.0
 40
6.0
 40
6.0
 40
7.0
 40
7.0
 40
7.0
 40
8.0
 40
8.0
 40
8.0
 40
9.0
 40
9.0
 40
9.0
 40
10.0
 40
10.0
 40
10.0
 40
11.0
 40
11.0
 40
11.0
 40
12.0
 40
12.0
 40
12.0
 40
13.0
 40
13.0
 40
13.0
 40
13.0
 10
120.7505967580068
 20
-143.5722872904958
 30
0.0
 10
120.9094156598768
 20
-143.7631455803787
 30
0.0
 10
120.9834852128097
 20
-143.8444498338306
 30
0.0
 10
121.1271456945446
 20
-143.8871690178477
 30
0.0
 10
121.1271456945446
 20
-143.8871690178477
 30
0.0
 10
121.1271456945446
 20
-143.2057291308653
 30
0.0
 10
121.1271456945446
 20
-143.2057291308653
 30
0.0
 10
121.1271456945446
 20
-143.2057291308653
 30
0.0
 10
121.3324733854655
 20
-143.2057291308653
 30
0.0
 10
121.3324733854655
 20
-143.2057291308653
 30
0.0
 10
121.3324733854655
 20
-143.2057291308653
 30
0.0
 10
121.3324733854655
 20
-144.1055880716125
 30
0.0
 10
121.3324733854655
 20
-144.1055880716125
 30
0.0
 10
120.9748724740966
 20
-144.0780273077305
 30
0.0
 10
120.8966688065814
 20
-144.0204942131268
 30
0.0
 10
120.5983235375588
 20
-143.6835638746694
 30
0.0
 10
120.3995415280598
 20
-143.4592881585796
 30
0.0
 10
120.3316731470004
 20
-143.4020995735245
 30
0.0
 10
120.1942138371389
 20
-143.4020995735245
 30
0.0
 10
120.0757025524464
 20
-143.4020995735245
 30
0.0
 10
119.9447889240069
 20
-143.464800311356
 30
0.0
 10
119.9447889240069
 20
-143.6370550856185
 30
0.0
 10
119.9447889240069
 20
-143.8651204067421
 30
0.0
 10
120.1752658119701
 20
-143.8723551072611
 30
0.0
 10
120.2917100393715
 20
-143.8761447122949
 30
0.0
 10
120.2917100393715
 20
-143.8761447122949
 30
0.0
 10
120.2917100393715
 20
-144.0725151549541
 30
0.0
 10
120.2917100393715
 20
-144.0725151549541
 30
0.0
 10
120.1645860159658
 20
-144.0649359448865
 30
0.0
 10
120.0526204126952
 20
-144.0556341870764
 30
0.0
 10
119.9341091280026
 20
-143.9853542391773
 30
0.0
 10
119.7732231688414
 20
-143.8888915655903
 30
0.0
 10
119.739461233086
 20
-143.725938549138
 30
0.0
 10
119.739461233086
 20
-143.6243082323231
 30
0.0
 10
119.739461233086
 20
-143.3817735101615
 30
0.0
 10
119.9234293319983
 20
-143.2002169780888
 30
0.0
 10
120.1962808944301
 20
-143.2002169780888
 30
0.0
 10
120.4250352346507
 20
-143.2002169780888
 30
0.0
 10
120.5242539846259
 20
-143.3021918044522
 30
0.0
 10
120.7505967580068
 20
-143.5722872904958
 30
0.0
  0
HATCH
  5
A7
330
98
100
AcDbEntity
  8
_U+30EC_U+30A4_U+30E4_U+30FC 1
 62
   179
420
  2234388
100
AcDbHatch
 10
0.0
 20
0.0
 30
0.0
210
0.0
220
0.0
230
1.0
  2
SOLID
 70
     1
 71
     0
 91
        1
 92
        1
 93
        1
 72
     4
 94
        3
 73
     0
 74
     1
 95
       44
 96
       40
 40
0.0
 40
0.0
 40
0.0
 40
0.0
 40
1.0
 40
1.0
 40
1.0
 40
2.0
 40
2.0
 40
2.0
 40
3.0
 40
3.0
 40
3.0
 40
4.0
 40
4.0
 40
4.0
 40
5.0
 40
5.0
 40
5.0
 40
6.0
 40
6.0
 40
6.0
 40
7.0
 40
7.0
 40
7.0
 40
8.0
 40
8.0
 40
8.0
 40
9.0
 40
9.0
 40
9.0
 40
10.0
 40
10.0
 40
10.0
 40
11.0
 40
11.0
 40
11.0
 40
12.0
 40
12.0
 40
12.0
 40
13.0
 40
13.0
 40
13.0
 40
13.0
 10
120.7505967580068
 20
-143.5722872904958
 10
120.9094156598768
 20
-143.7631455803787
 10
120.9834852128097
 20
-143.8444498338306
 10
121.1271456945446
 20
-143.8871690178477
 10
121.1271456945446
 20
-143.8871690178477
 10
121.1271456945446
 20
-143.2057291308653
 10
121.1271456945446
 20
-143.2057291308653
 10
121.1271456945446
 20
-143.2057291308653
 10
121.3324733854655
 20
-143.2057291308653
 10
121.3324733854655
 20
-143.2057291308653
 10
121.3324733854655
 20
-143.2057291308653
 10
121.3324733854655
 20
-144.1055880716125
 10
121.3324733854655
 20
-144.1055880716125
 10
120.9748724740966
 20
-144.0780273077305
 10
120.8966688065814
 20
-144.0204942131268
 10
120.5983235375588
 20
-143.6835638746694
 10
120.3995415280598
 20
-143.4592881585796
 10
120.3316731470004
 20
-143.4020995735245
 10
120.1942138371389
 20
-143.4020995735245
 10
120.0757025524464
 20
-143.4020995735245
 10
119.9447889240069
 20
-143.464800311356
 10
119.9447889240069
 20
-143.6370550856185
 10
119.9447889240069
 20
-143.8651204067421
 10
120.1752658119701
 20
-143.8723551072611
 10
120.2917100393715
 20
-143.8761447122949
 10
120.2917100393715
 20
-143.8761447122949
 10
120.2917100393715
 20
-144.0725151549541
 10
120.2917100393715
 20
-144.0725151549541
 10
120.1645860159658
 20
-144.0649359448865
 10
120.0526204126952
 20
-144.0556341870764
 10
119.9341091280026
 20
-143.9853542391773
 10
119.7732231688414
 20
-143.8888915655903
 10
119.739461233086
 20
-143.725938549138
 10
119.739461233086
 20
-143.6243082323231
 10
119.739461233086
 20
-143.3817735101615
 10
119.9234293319983
 20
-143.2002169780888
 10
120.1962808944301
 20
-143.2002169780888
 10
120.4250352346507
 20
-143.2002169780888
 10
120.5242539846259
 20
-143.3021918044522
 10
120.7505967580068
 20
-143.5722872904958
 97
        0
 97
        0
 75
     2
 76
     1
 98
        0
  0
ENDBLK
  5
9B
330
98
100
AcDbEntity
  8
0
100
AcDbBlockEnd
  0
BLOCK
  5
AA
330
A8
100
AcDbEntity
  8
0
100
AcDbBlockBegin
  2
block 6
 70
     0
 10
0.0
 20
0.0
 30
0.0
  3
block 6
  1

  0
SPLINE
  5
AC
330
A8
100
AcDbEntity
  8
_U+30EC_U+30A4_U+30E4_U+30FC 1
370
     0
100
AcDbSpline
210
0.0
220
0.0
230
1.0
 70
    11
 71
     3
 72
    26
 73
    22
 74
     0
 42
0.0000000001
 43
0.0000000001
 12
1.0
 22
0.0
 32
0.0
 13
1.0
 23
0.0
 33
0.0
 40
0.0
 40
0.0
 40
0.0
 40
0.0
 40
1.0
 40
1.0
 40
1.0
 40
2.0
 40
2.0
 40
2.0
 40
3.0
 40
3.0
 40
3.0
 40
4.0
 40
4.0
 40
4.0
 40
5.0
 40
5.0
 40
5.0
 40
6.0
 40
6.0
 40
6.0
 40
7.0
 40
7.0
 40
7.0
 40
7.0
 10
121.042740855156
 20
-153.2612738332125
 30
0.0
 10
121.042740855156
 20
-153.2612738332125
 30
0.0
 10
119.9385877521334
 20
-153.2612738332125
 30
0.0
 10
119.9385877521334
 20
-153.2612738332125
 30
0.0
 10
119.9385877521334
 20
-153.2612738332125
 30
0.0
 10
119.9385877521334
 20
-153.5503173444249
 30
0.0
 10
119.9385877521334
 20
-153.5503173444249
 30
0.0
 10
119.9385877521334
 20
-153.5503173444249
 30
0.0
 10
119.7904486462677
 20
-153.5503173444249
 30
0.0
 10
119.7904486462677
 20
-153.5503173444249
 30
0.0
 10
119.7756347356811
 20
-153.2595512854699
 30
0.0
 10
119.6126817192288
 20
-153.2188991587439
 30
0.0
 10
119.4983045491185
 20
-153.1930609426045
 30
0.0
 10
119.4983045491185
 20
-153.1930609426045
 30
0.0
 10
119.4983045491185
 20
-153.0652479001018
 30
0.0
 10
119.4983045491185
 20
-153.0652479001018
 30
0.0
 10
119.4983045491185
 20
-153.0652479001018
 30
0.0
 10
121.042740855156
 20
-153.0652479001018
 30
0.0
 10
121.042740855156
 20
-153.0652479001018
 30
0.0
 10
121.042740855156
 20
-153.0652479001018
 30
0.0
 10
121.042740855156
 20
-153.2612738332125
 30
0.0
 10
121.042740855156
 20
-153.2612738332125
 30
0.0
  0
HATCH
  5
AD
330
A8
100
AcDbEntity
  8
_U+30EC_U+30A4_U+30E4_U+30FC 1
 62
   179
420
  2234388
100
AcDbHatch
 10
0.0
 20
0.0
 30
0.0
210
0.0
220
0.0
230
1.0
  2
SOLID
 70
     1
 71
     0
 91
        1
 92
        1
 93
        1
 72
     4
 94
        3
 73
     0
 74
     1
 95
       26
 96
       22
 40
0.0
 40
0.0
 40
0.0
 40
0.0
 40
1.0
 40
1.0
 40
1.0
 40
2.0
 40
2.0
 40
2.0
 40
3.0
 40
3.0
 40
3.0
 40
4.0
 40
4.0
 40
4.0
 40
5.0
 40
5.0
 40
5.0
 40
6.0
 40
6.0
 40
6.0
 40
7.0
 40
7.0
 40
7.0
 40
7.0
 10
121.042740855156
 20
-153.2612738332125
 10
121.042740855156
 20
-153.2612738332125
 10
119.9385877521334
 20
-153.2612738332125
 10
119.9385877521334
 20
-153.2612738332125
 10
119.9385877521334
 20
-153.2612738332125
 10
119.9385877521334
 20
-153.5503173444249
 10
119.9385877521334
 20
-153.5503173444249
 10
119.9385877521334
 20
-153.5503173444249
 10
119.7904486462677
 20
-153.5503173444249
 10
119.7904486462677
 20
-153.5503173444249
 10
119.7756347356811
 20
-153.2595512854699
 10
119.6126817192288
 20
-153.2188991587439
 10
119.4983045491185
 20
-153.1930609426045
 10
119.4983045491185
 20
-153.1930609426045
 10
119.4983045491185
 20
-153.0652479001018
 10
119.4983045491185
 20
-153.0652479001018
 10
119.4983045491185
 20
-153.0652479001018
 10
121.042740855156
 20
-153.0652479001018
 10
121.042740855156
 20
-153.0652479001018
 10
121.042740855156
 20
-153.0652479001018
 10
121.042740855156
 20
-153.2612738332125
 10
121.042740855156
 20
-153.2612738332125
 97
        0
 97
        0
 75
     2
 76
     1
 98
        0
  0
SPLINE
  5
AE
330
A8
100
AcDbEntity
  8
_U+30EC_U+30A4_U+30E4_U+30FC 1
370
     0
100
AcDbSpline
210
0.0
220
0.0
230
1.0
 70
    11
 71
     3
 72
    62
 73
    58
 74
     0
 42
0.0000000001
 43
0.0000000001
 12
1.0
 22
0.0
 32
0.0
 13
1.0
 23
0.0
 33
0.0
 40
0.0
 40
0.0
 40
0.0
 40
0.0
 40
1.0
 40
1.0
 40
1.0
 40
2.0
 40
2.0
 40
2.0
 40
3.0
 40
3.0
 40
3.0
 40
4.0
 40
4.0
 40
4.0
 40
5.0
 40
5.0
 40
5.0
 40
6.0
 40
6.0
 40
6.0
 40
7.0
 40
7.0
 40
7.0
 40
8.0
 40
8.0
 40
8.0
 40
9.0
 40
9.0
 40
9.0
 40
10.0
 40
10.0
 40
10.0
 40
11.0
 40
11.0
 40
11.0
 40
12.0
 40
12.0
 40
12.0
 40
13.0
 40
13.0
 40
13.0
 40
14.0
 40
14.0
 40
14.0
 40
15.0
 40
15.0
 40
15.0
 40
16.0
 40
16.0
 40
16.0
 40
17.0
 40
17.0
 40
17.0
 40
18.0
 40
18.0
 40
18.0
 40
19.0
 40
19.0
 40
19.0
 40
19.0
 10
121.0933837587892
 20
-152.1953612900762
 30
0.0
 10
121.0933837587892
 20
-152.2787326008192
 30
0.0
 10
121.0723686763291
 20
-152.4695908907021
 30
0.0
 10
120.8863335201256
 20
-152.5788004175845
 30
0.0
 10
120.7740234073065
 20
-152.6435682127072
 30
0.0
 10
120.6748046573313
 20
-152.647357817741
 30
0.0
 10
120.5900553083942
 20
-152.6508029132262
 30
0.0
 10
120.5900553083942
 20
-152.6508029132262
 30
0.0
 10
120.5900553083942
 20
-152.4585665851492
 30
0.0
 10
120.5900553083942
 20
-152.4585665851492
 30
0.0
 10
120.664124861327
 20
-152.4564995278581
 30
0.0
 10
120.8987358638725
 20
-152.4471977700479
 30
0.0
 10
120.8987358638725
 20
-152.1991508951099
 30
0.0
 10
120.8987358638725
 20
-152.0789170626747
 30
0.0
 10
120.8291449350705
 20
-151.9455918673956
 30
0.0
 10
120.6007351043984
 20
-151.9455918673956
 30
0.0
 10
120.484290876997
 20
-151.9455918673956
 30
0.0
 10
120.435715030655
 20
-151.978664784054
 30
0.0
 10
120.4040201521907
 20
-152.0065700574845
 30
0.0
 10
120.3299505992578
 20
-152.0713378526072
 30
0.0
 10
120.3172037459624
 20
-152.1733126789706
 30
0.0
 10
120.3172037459624
 20
-152.2215440157641
 30
0.0
 10
120.3172037459624
 20
-152.2380804740933
 30
0.0
 10
120.3192708032535
 20
-152.269430843009
 30
0.0
 10
120.3234049178358
 20
-152.2935465114058
 30
0.0
 10
120.3234049178358
 20
-152.2935465114058
 30
0.0
 10
120.1287570229192
 20
-152.2935465114058
 30
0.0
 10
120.1287570229192
 20
-152.2935465114058
 30
0.0
 10
120.1353027043412
 20
-152.2601290851989
 30
0.0
 10
120.1373697616323
 20
-152.2232665635067
 30
0.0
 10
120.1373697616323
 20
-152.2177544107303
 30
0.0
 10
120.1373697616323
 20
-152.1602213161266
 30
0.0
 10
120.1160101696238
 20
-151.9862439941215
 30
0.0
 10
119.8793321097871
 20
-151.9862439941215
 30
0.0
 10
119.7015651827482
 20
-151.9862439941215
 30
0.0
 10
119.6464436549842
 20
-152.1009656737803
 30
0.0
 10
119.6464436549842
 20
-152.1974283473673
 30
0.0
 10
119.6464436549842
 20
-152.4289387639761
 30
0.0
 10
119.8793321097871
 20
-152.4361734644951
 30
0.0
 10
119.9509900958803
 20
-152.4399630695289
 30
0.0
 10
119.9509900958803
 20
-152.4399630695289
 30
0.0
 10
119.9509900958803
 20
-152.6177299965678
 30
0.0
 10
119.9509900958803
 20
-152.6177299965678
 30
0.0
 10
119.8262776393143
 20
-152.6101507865002
 30
0.0
 10
119.4497287027765
 20
-152.5860351181035
 30
0.0
 10
119.4497287027765
 20
-152.186059532266
 30
0.0
 10
119.4497287027765
 20
-151.9900335991553
 30
0.0
 10
119.5768527261822
 20
-151.7788492459095
 30
0.0
 10
119.8727864283651
 20
-151.7788492459095
 30
0.0
 10
120.0591660941172
 20
-151.7788492459095
 30
0.0
 10
120.1415038762146
 20
-151.8622205566525
 30
0.0
 10
120.2028265758521
 20
-151.9490369628808
 30
0.0
 10
120.2303873397341
 20
-151.8956379828594
 30
0.0
 10
120.3106580645404
 20
-151.7361300618924
 30
0.0
 10
120.587988251103
 20
-151.7361300618924
 30
0.0
 10
120.9262966277545
 20
-151.7361300618924
 30
0.0
 10
121.0933837587892
 20
-151.9528265679146
 30
0.0
 10
121.0933837587892
 20
-152.1953612900762
 30
0.0
  0
HATCH
  5
AF
330
A8
100
AcDbEntity
  8
_U+30EC_U+30A4_U+30E4_U+30FC 1
 62
   179
420
  2234388
100
AcDbHatch
 10
0.0
 20
0.0
 30
0.0
210
0.0
220
0.0
230
1.0
  2
SOLID
 70
     1
 71
     0
 91
        1
 92
        1
 93
        1
 72
     4
 94
        3
 73
     0
 74
     1
 95
       62
 96
       58
 40
0.0
 40
0.0
 40
0.0
 40
0.0
 40
1.0
 40
1.0
 40
1.0
 40
2.0
 40
2.0
 40
2.0
 40
3.0
 40
3.0
 40
3.0
 40
4.0
 40
4.0
 40
4.0
 40
5.0
 40
5.0
 40
5.0
 40
6.0
 40
6.0
 40
6.0
 40
7.0
 40
7.0
 40
7.0
 40
8.0
 40
8.0
 40
8.0
 40
9.0
 40
9.0
 40
9.0
 40
10.0
 40
10.0
 40
10.0
 40
11.0
 40
11.0
 40
11.0
 40
12.0
 40
12.0
 40
12.0
 40
13.0
 40
13.0
 40
13.0
 40
14.0
 40
14.0
 40
14.0
 40
15.0
 40
15.0
 40
15.0
 40
16.0
 40
16.0
 40
16.0
 40
17.0
 40
17.0
 40
17.0
 40
18.0
 40
18.0
 40
18.0
 40
19.0
 40
19.0
 40
19.0
 40
19.0
 10
121.0933837587892
 20
-152.1953612900762
 10
121.0933837587892
 20
-152.2787326008192
 10
121.0723686763291
 20
-152.4695908907021
 10
120.8863335201256
 20
-152.5788004175845
 10
120.7740234073065
 20
-152.6435682127072
 10
120.6748046573313
 20
-152.647357817741
 10
120.5900553083942
 20
-152.6508029132262
 10
120.5900553083942
 20
-152.6508029132262
 10
120.5900553083942
 20
-152.4585665851492
 10
120.5900553083942
 20
-152.4585665851492
 10
120.664124861327
 20
-152.4564995278581
 10
120.8987358638725
 20
-152.4471977700479
 10
120.8987358638725
 20
-152.1991508951099
 10
120.8987358638725
 20
-152.0789170626747
 10
120.8291449350705
 20
-151.9455918673956
 10
120.6007351043984
 20
-151.9455918673956
 10
120.484290876997
 20
-151.9455918673956
 10
120.435715030655
 20
-151.978664784054
 10
120.4040201521907
 20
-152.0065700574845
 10
120.3299505992578
 20
-152.0713378526072
 10
120.3172037459624
 20
-152.1733126789706
 10
120.3172037459624
 20
-152.2215440157641
 10
120.3172037459624
 20
-152.2380804740933
 10
120.3192708032535
 20
-152.269430843009
 10
120.3234049178358
 20
-152.2935465114058
 10
120.3234049178358
 20
-152.2935465114058
 10
120.1287570229192
 20
-152.2935465114058
 10
120.1287570229192
 20
-152.2935465114058
 10
120.1353027043412
 20
-152.2601290851989
 10
120.1373697616323
 20
-152.2232665635067
 10
120.1373697616323
 20
-152.2177544107303
 10
120.1373697616323
 20
-152.1602213161266
 10
120.1160101696238
 20
-151.9862439941215
 10
119.8793321097871
 20
-151.9862439941215
 10
119.7015651827482
 20
-151.9862439941215
 10
119.6464436549842
 20
-152.1009656737803
 10
119.6464436549842
 20
-152.1974283473673
 10
119.6464436549842
 20
-152.4289387639761
 10
119.8793321097871
 20
-152.4361734644951
 10
119.9509900958803
 20
-152.4399630695289
 10
119.9509900958803
 20
-152.4399630695289
 10
119.9509900958803
 20
-152.6177299965678
 10
119.9509900958803
 20
-152.6177299965678
 10
119.8262776393143
 20
-152.6101507865002
 10
119.4497287027765
 20
-152.5860351181035
 10
119.4497287027765
 20
-152.186059532266
 10
119.4497287027765
 20
-151.9900335991553
 10
119.5768527261822
 20
-151.7788492459095
 10
119.8727864283651
 20
-151.7788492459095
 10
120.0591660941172
 20
-151.7788492459095
 10
120.1415038762146
 20
-151.8622205566525
 10
120.2028265758521
 20
-151.9490369628808
 10
120.2303873397341
 20
-151.8956379828594
 10
120.3106580645404
 20
-151.7361300618924
 10
120.587988251103
 20
-151.7361300618924
 10
120.9262966277545
 20
-151.7361300618924
 10
121.0933837587892
 20
-151.9528265679146
 10
121.0933837587892
 20
-152.1953612900762
 97
        0
 97
        0
 75
     2
 76
     1
 98
        0
  0
ENDBLK
  5
AB
330
A8
100
AcDbEntity
  8
0
100
AcDbBlockEnd
  0
BLOCK
  5
B2
330
B0
100
AcDbEntity
  8
0
100
AcDbBlockBegin
  2
block 7
 70
     0
 10
0.0
 20
0.0
 30
0.0
  3
block 7
  1

  0
SPLINE
  5
B4
330
B0
100
AcDbEntity
  8
_U+30EC_U+30A4_U+30E4_U+30FC 1
370
     0
100
AcDbSpline
210
0.0
220
0.0
230
1.0
 70
    11
 71
     3
 72
    26
 73
    22
 74
     0
 42
0.0000000001
 43
0.0000000001
 12
1.0
 22
0.0
 32
0.0
 13
1.0
 23
0.0
 33
0.0
 40
0.0
 40
0.0
 40
0.0
 40
0.0
 40
1.0
 40
1.0
 40
1.0
 40
2.0
 40
2.0
 40
2.0
 40
3.0
 40
3.0
 40
3.0
 40
4.0
 40
4.0
 40
4.0
 40
5.0
 40
5.0
 40
5.0
 40
6.0
 40
6.0
 40
6.0
 40
7.0
 40
7.0
 40
7.0
 40
7.0
 10
98.61758081301922
 20
-136.5678914046601
 30
0.0
 10
98.61758081301922
 20
-136.5678914046601
 30
0.0
 10
98.61758081301922
 20
-135.4637383016375
 30
0.0
 10
98.61758081301922
 20
-135.4637383016375
 30
0.0
 10
98.61758081301922
 20
-135.4637383016375
 30
0.0
 10
98.32853730180676
 20
-135.4637383016375
 30
0.0
 10
98.32853730180676
 20
-135.4637383016375
 30
0.0
 10
98.32853730180676
 20
-135.4637383016375
 30
0.0
 10
98.32853730180676
 20
-135.3155991957718
 30
0.0
 10
98.32853730180676
 20
-135.3155991957718
 30
0.0
 10
98.61930336076185
 20
-135.3007852851852
 30
0.0
 10
98.65995548748779
 20
-135.1378322687329
 30
0.0
 10
98.6861382131757
 20
-135.0234550986226
 30
0.0
 10
98.6861382131757
 20
-135.0234550986226
 30
0.0
 10
98.81360674612993
 20
-135.0234550986226
 30
0.0
 10
98.81360674612993
 20
-135.0234550986226
 30
0.0
 10
98.81360674612993
 20
-135.0234550986226
 30
0.0
 10
98.81360674612993
 20
-136.5678914046601
 30
0.0
 10
98.81360674612993
 20
-136.5678914046601
 30
0.0
 10
98.81360674612993
 20
-136.5678914046601
 30
0.0
 10
98.61758081301922
 20
-136.5678914046601
 30
0.0
 10
98.61758081301922
 20
-136.5678914046601
 30
0.0
  0
HATCH
  5
B5
330
B0
100
AcDbEntity
  8
_U+30EC_U+30A4_U+30E4_U+30FC 1
 62
   179
420
  2234388
100
AcDbHatch
 10
0.0
 20
0.0
 30
0.0
210
0.0
220
0.0
230
1.0
  2
SOLID
 70
     1
 71
     0
 91
        1
 92
        1
 93
        1
 72
     4
 94
        3
 73
     0
 74
     1
 95
       26
 96
       22
 40
0.0
 40
0.0
 40
0.0
 40
0.0
 40
1.0
 40
1.0
 40
1.0
 40
2.0
 40
2.0
 40
2.0
 40
3.0
 40
3.0
 40
3.0
 40
4.0
 40
4.0
 40
4.0
 40
5.0
 40
5.0
 40
5.0
 40
6.0
 40
6.0
 40
6.0
 40
7.0
 40
7.0
 40
7.0
 40
7.0
 10
98.61758081301922
 20
-136.5678914046601
 10
98.61758081301922
 20
-136.5678914046601
 10
98.61758081301922
 20
-135.4637383016375
 10
98.61758081301922
 20
-135.4637383016375
 10
98.61758081301922
 20
-135.4637383016375
 10
98.32853730180676
 20
-135.4637383016375
 10
98.32853730180676
 20
-135.4637383016375
 10
98.32853730180676
 20
-135.4637383016375
 10
98.32853730180676
 20
-135.3155991957718
 10
98.32853730180676
 20
-135.3155991957718
 10
98.61930336076185
 20
-135.3007852851852
 10
98.65995548748779
 20
-135.1378322687329
 10
98.6861382131757
 20
-135.0234550986226
 10
98.6861382131757
 20
-135.0234550986226
 10
98.81360674612993
 20
-135.0234550986226
 10
98.81360674612993
 20
-135.0234550986226
 10
98.81360674612993
 20
-135.0234550986226
 10
98.81360674612993
 20
-136.5678914046601
 10
98.81360674612993
 20
-136.5678914046601
 10
98.81360674612993
 20
-136.5678914046601
 10
98.61758081301922
 20
-136.5678914046601
 10
98.61758081301922
 20
-136.5678914046601
 97
        0
 97
        0
 75
     2
 76
     1
 98
        0
  0
SPLINE
  5
B6
330
B0
100
AcDbEntity
  8
_U+30EC_U+30A4_U+30E4_U+30FC 1
370
     0
100
AcDbSpline
210
0.0
220
0.0
230
1.0
 70
    11
 71
     3
 72
    44
 73
    40
 74
     0
 42
0.0000000001
 43
0.0000000001
 12
1.0
 22
0.0
 32
0.0
 13
1.0
 23
0.0
 33
0.0
 40
0.0
 40
0.0
 40
0.0
 40
0.0
 40
1.0
 40
1.0
 40
1.0
 40
2.0
 40
2.0
 40
2.0
 40
3.0
 40
3.0
 40
3.0
 40
4.0
 40
4.0
 40
4.0
 40
5.0
 40
5.0
 40
5.0
 40
6.0
 40
6.0
 40
6.0
 40
7.0
 40
7.0
 40
7.0
 40
8.0
 40
8.0
 40
8.0
 40
9.0
 40
9.0
 40
9.0
 40
10.0
 40
10.0
 40
10.0
 40
11.0
 40
11.0
 40
11.0
 40
12.0
 40
12.0
 40
12.0
 40
13.0
 40
13.0
 40
13.0
 40
13.0
 10
99.77237681967496
 20
-135.9860147772014
 30
0.0
 10
99.58151852979212
 20
-136.1448336790714
 30
0.0
 10
99.50021427634023
 20
-136.2189032320043
 30
0.0
 10
99.45749509232313
 20
-136.3625637137392
 30
0.0
 10
99.45749509232313
 20
-136.3625637137392
 30
0.0
 10
100.1389349793055
 20
-136.3625637137392
 30
0.0
 10
100.1389349793055
 20
-136.3625637137392
 30
0.0
 10
100.1389349793055
 20
-136.3625637137392
 30
0.0
 10
100.1389349793055
 20
-136.5678914046601
 30
0.0
 10
100.1389349793055
 20
-136.5678914046601
 30
0.0
 10
100.1389349793055
 20
-136.5678914046601
 30
0.0
 10
99.2390760385583
 20
-136.5678914046601
 30
0.0
 10
99.2390760385583
 20
-136.5678914046601
 30
0.0
 10
99.26663680244029
 20
-136.2102904932912
 30
0.0
 10
99.32416989704396
 20
-136.132086825776
 30
0.0
 10
99.6611002355014
 20
-135.8337415567534
 30
0.0
 10
99.88537595159116
 20
-135.6349595472545
 30
0.0
 10
99.9425645366463
 20
-135.567091166195
 30
0.0
 10
99.9425645366463
 20
-135.4296318563336
 30
0.0
 10
99.9425645366463
 20
-135.311120571641
 30
0.0
 10
99.87951928926624
 20
-135.1802069432015
 30
0.0
 10
99.70760902455227
 20
-135.1802069432015
 30
0.0
 10
99.47988821297726
 20
-135.1802069432015
 30
0.0
 10
99.47230900290971
 20
-135.4106838311647
 30
0.0
 10
99.46851939787594
 20
-135.5271280585661
 30
0.0
 10
99.46851939787594
 20
-135.5271280585661
 30
0.0
 10
99.27249346476522
 20
-135.5271280585661
 30
0.0
 10
99.27249346476522
 20
-135.5271280585661
 30
0.0
 10
99.27972816528424
 20
-135.4000040351604
 30
0.0
 10
99.28902992309442
 20
-135.2880384318898
 30
0.0
 10
99.35930987099351
 20
-135.1695271471972
 30
0.0
 10
99.45577254458051
 20
-135.0086411880361
 30
0.0
 10
99.61872556103282
 20
-134.9748792522806
 30
0.0
 10
99.7203558778477
 20
-134.9748792522806
 30
0.0
 10
99.96289060000929
 20
-134.9748792522806
 30
0.0
 10
100.144447132082
 20
-135.1588473511929
 30
0.0
 10
100.144447132082
 20
-135.4316989136247
 30
0.0
 10
100.144447132082
 20
-135.6604532538453
 30
0.0
 10
100.0428168152671
 20
-135.7596720038205
 30
0.0
 10
99.77237681967496
 20
-135.9860147772014
 30
0.0
  0
HATCH
  5
B7
330
B0
100
AcDbEntity
  8
_U+30EC_U+30A4_U+30E4_U+30FC 1
 62
   179
420
  2234388
100
AcDbHatch
 10
0.0
 20
0.0
 30
0.0
210
0.0
220
0.0
230
1.0
  2
SOLID
 70
     1
 71
     0
 91
        1
 92
        1
 93
        1
 72
     4
 94
        3
 73
     0
 74
     1
 95
       44
 96
       40
 40
0.0
 40
0.0
 40
0.0
 40
0.0
 40
1.0
 40
1.0
 40
1.0
 40
2.0
 40
2.0
 40
2.0
 40
3.0
 40
3.0
 40
3.0
 40
4.0
 40
4.0
 40
4.0
 40
5.0
 40
5.0
 40
5.0
 40
6.0
 40
6.0
 40
6.0
 40
7.0
 40
7.0
 40
7.0
 40
8.0
 40
8.0
 40
8.0
 40
9.0
 40
9.0
 40
9.0
 40
10.0
 40
10.0
 40
10.0
 40
11.0
 40
11.0
 40
11.0
 40
12.0
 40
12.0
 40
12.0
 40
13.0
 40
13.0
 40
13.0
 40
13.0
 10
99.77237681967496
 20
-135.9860147772014
 10
99.58151852979212
 20
-136.1448336790714
 10
99.50021427634023
 20
-136.2189032320043
 10
99.45749509232313
 20
-136.3625637137392
 10
99.45749509232313
 20
-136.3625637137392
 10
100.1389349793055
 20
-136.3625637137392
 10
100.1389349793055
 20
-136.3625637137392
 10
100.1389349793055
 20
-136.3625637137392
 10
100.1389349793055
 20
-136.5678914046601
 10
100.1389349793055
 20
-136.5678914046601
 10
100.1389349793055
 20
-136.5678914046601
 10
99.2390760385583
 20
-136.5678914046601
 10
99.2390760385583
 20
-136.5678914046601
 10
99.26663680244029
 20
-136.2102904932912
 10
99.32416989704396
 20
-136.132086825776
 10
99.6611002355014
 20
-135.8337415567534
 10
99.88537595159116
 20
-135.6349595472545
 10
99.9425645366463
 20
-135.567091166195
 10
99.9425645366463
 20
-135.4296318563336
 10
99.9425645366463
 20
-135.311120571641
 10
99.87951928926624
 20
-135.1802069432015
 10
99.70760902455227
 20
-135.1802069432015
 10
99.47988821297726
 20
-135.1802069432015
 10
99.47230900290971
 20
-135.4106838311647
 10
99.46851939787594
 20
-135.5271280585661
 10
99.46851939787594
 20
-135.5271280585661
 10
99.27249346476522
 20
-135.5271280585661
 10
99.27249346476522
 20
-135.5271280585661
 10
99.27972816528424
 20
-135.4000040351604
 10
99.28902992309442
 20
-135.2880384318898
 10
99.35930987099351
 20
-135.1695271471972
 10
99.45577254458051
 20
-135.0086411880361
 10
99.61872556103282
 20
-134.9748792522806
 10
99.7203558778477
 20
-134.9748792522806
 10
99.96289060000929
 20
-134.9748792522806
 10
100.144447132082
 20
-135.1588473511929
 10
100.144447132082
 20
-135.4316989136247
 10
100.144447132082
 20
-135.6604532538453
 10
100.0428168152671
 20
-135.7596720038205
 10
99.77237681967496
 20
-135.9860147772014
 97
        0
 97
        0
 75
     2
 76
     1
 98
        0
  0
ENDBLK
  5
B3
330
B0
100
AcDbEntity
  8
0
100
AcDbBlockEnd
  0
BLOCK
  5
BA
330
B8
100
AcDbEntity
  8
0
100
AcDbBlockBegin
  2
block 8
 70
     0
 10
0.0
 20
0.0
 30
0.0
  3
block 8
  1

  0
SPLINE
  5
BC
330
B8
100
AcDbEntity
  8
_U+30EC_U+30A4_U+30E4_U+30FC 1
370
     0
100
AcDbSpline
210
0.0
220
0.0
230
1.0
 70
    11
 71
     3
 72
    26
 73
    22
 74
     0
 42
0.0000000001
 43
0.0000000001
 12
1.0
 22
0.0
 32
0.0
 13
1.0
 23
0.0
 33
0.0
 40
0.0
 40
0.0
 40
0.0
 40
0.0
 40
1.0
 40
1.0
 40
1.0
 40
2.0
 40
2.0
 40
2.0
 40
3.0
 40
3.0
 40
3.0
 40
4.0
 40
4.0
 40
4.0
 40
5.0
 40
5.0
 40
5.0
 40
6.0
 40
6.0
 40
6.0
 40
7.0
 40
7.0
 40
7.0
 40
7.0
 10
99.31280108194264
 20
-167.2804008913396
 30
0.0
 10
99.31280108194264
 20
-167.2804008913396
 30
0.0
 10
99.31280108194264
 20
-166.1762477883171
 30
0.0
 10
99.31280108194264
 20
-166.1762477883171
 30
0.0
 10
99.31280108194264
 20
-166.1762477883171
 30
0.0
 10
99.02375757073018
 20
-166.1762477883171
 30
0.0
 10
99.02375757073018
 20
-166.1762477883171
 30
0.0
 10
99.02375757073018
 20
-166.1762477883171
 30
0.0
 10
99.02375757073018
 20
-166.0281086824513
 30
0.0
 10
99.02375757073018
 20
-166.0281086824513
 30
0.0
 10
99.31452362968527
 20
-166.0132947718647
 30
0.0
 10
99.35517575641121
 20
-165.8503417554124
 30
0.0
 10
99.3813584820991
 20
-165.7359645853021
 30
0.0
 10
99.3813584820991
 20
-165.7359645853021
 30
0.0
 10
99.50882701505336
 20
-165.7359645853021
 30
0.0
 10
99.50882701505336
 20
-165.7359645853021
 30
0.0
 10
99.50882701505336
 20
-165.7359645853021
 30
0.0
 10
99.50882701505336
 20
-167.2804008913396
 30
0.0
 10
99.50882701505336
 20
-167.2804008913396
 30
0.0
 10
99.50882701505336
 20
-167.2804008913396
 30
0.0
 10
99.31280108194264
 20
-167.2804008913396
 30
0.0
 10
99.31280108194264
 20
-167.2804008913396
 30
0.0
  0
HATCH
  5
BD
330
B8
100
AcDbEntity
  8
_U+30EC_U+30A4_U+30E4_U+30FC 1
 62
   179
420
  2234388
100
AcDbHatch
 10
0.0
 20
0.0
 30
0.0
210
0.0
220
0.0
230
1.0
  2
SOLID
 70
     1
 71
     0
 91
        1
 92
        1
 93
        1
 72
     4
 94
        3
 73
     0
 74
     1
 95
       26
 96
       22
 40
0.0
 40
0.0
 40
0.0
 40
0.0
 40
1.0
 40
1.0
 40
1.0
 40
2.0
 40
2.0
 40
2.0
 40
3.0
 40
3.0
 40
3.0
 40
4.0
 40
4.0
 40
4.0
 40
5.0
 40
5.0
 40
5.0
 40
6.0
 40
6.0
 40
6.0
 40
7.0
 40
7.0
 40
7.0
 40
7.0
 10
99.31280108194264
 20
-167.2804008913396
 10
99.31280108194264
 20
-167.2804008913396
 10
99.31280108194264
 20
-166.1762477883171
 10
99.31280108194264
 20
-166.1762477883171
 10
99.31280108194264
 20
-166.1762477883171
 10
99.02375757073018
 20
-166.1762477883171
 10
99.02375757073018
 20
-166.1762477883171
 10
99.02375757073018
 20
-166.1762477883171
 10
99.02375757073018
 20
-166.0281086824513
 10
99.02375757073018
 20
-166.0281086824513
 10
99.31452362968527
 20
-166.0132947718647
 10
99.35517575641121
 20
-165.8503417554124
 10
99.3813584820991
 20
-165.7359645853021
 10
99.3813584820991
 20
-165.7359645853021
 10
99.50882701505336
 20
-165.7359645853021
 10
99.50882701505336
 20
-165.7359645853021
 10
99.50882701505336
 20
-165.7359645853021
 10
99.50882701505336
 20
-167.2804008913396
 10
99.50882701505336
 20
-167.2804008913396
 10
99.50882701505336
 20
-167.2804008913396
 10
99.31280108194264
 20
-167.2804008913396
 10
99.31280108194264
 20
-167.2804008913396
 97
        0
 97
        0
 75
     2
 76
     1
 98
        0
  0
SPLINE
  5
BE
330
B8
100
AcDbEntity
  8
_U+30EC_U+30A4_U+30E4_U+30FC 1
370
     0
100
AcDbSpline
210
0.0
220
0.0
230
1.0
 70
    11
 71
     3
 72
    53
 73
    49
 74
     0
 42
0.0000000001
 43
0.0000000001
 12
1.0
 22
0.0
 32
0.0
 13
1.0
 23
0.0
 33
0.0
 40
0.0
 40
0.0
 40
0.0
 40
0.0
 40
1.0
 40
1.0
 40
1.0
 40
2.0
 40
2.0
 40
2.0
 40
3.0
 40
3.0
 40
3.0
 40
4.0
 40
4.0
 40
4.0
 40
5.0
 40
5.0
 40
5.0
 40
6.0
 40
6.0
 40
6.0
 40
7.0
 40
7.0
 40
7.0
 40
8.0
 40
8.0
 40
8.0
 40
9.0
 40
9.0
 40
9.0
 40
10.0
 40
10.0
 40
10.0
 40
11.0
 40
11.0
 40
11.0
 40
12.0
 40
12.0
 40
12.0
 40
13.0
 40
13.0
 40
13.0
 40
14.0
 40
14.0
 40
14.0
 40
15.0
 40
15.0
 40
15.0
 40
16.0
 40
16.0
 40
16.0
 40
16.0
 10
100.3694118672688
 20
-167.3310437949728
 30
0.0
 10
100.3008544671123
 20
-167.3310437949728
 30
0.0
 10
100.2119710035929
 20
-167.3141628270951
 30
0.0
 10
100.1230875400734
 20
-167.2507730701665
 30
0.0
 10
99.97115882917389
 20
-167.140874524187
 30
0.0
 10
99.95255531355353
 20
-167.009616386199
 30
0.0
 10
99.93601885522433
 20
-166.9017848975107
 30
0.0
 10
99.93601885522433
 20
-166.9017848975107
 30
0.0
 10
100.1303222405924
 20
-166.9017848975107
 30
0.0
 10
100.1303222405924
 20
-166.9017848975107
 30
0.0
 10
100.1785535773859
 20
-167.1005669070096
 30
0.0
 10
100.2898301615595
 20
-167.1301947281827
 30
0.0
 10
100.3711344150114
 20
-167.1301947281827
 30
0.0
 10
100.4934353047378
 20
-167.1301947281827
 30
0.0
 10
100.6267605000169
 20
-167.030631468659
 30
0.0
 10
100.6267605000169
 20
-166.7980875234047
 30
0.0
 10
100.6267605000169
 20
-166.5421169288506
 30
0.0
 10
100.469319636341
 20
-166.4721814905
 30
0.0
 10
100.3638997144924
 20
-166.4721814905
 30
0.0
 10
100.3359944410618
 20
-166.4721814905
 30
0.0
 10
100.2119710035929
 20
-166.4721814905
 30
0.0
 10
100.1341118456262
 20
-166.6013725711969
 30
0.0
 10
100.1341118456262
 20
-166.6013725711969
 30
0.0
 10
99.98046058698405
 20
-166.582424546028
 30
0.0
 10
99.98046058698405
 20
-166.582424546028
 30
0.0
 10
99.98046058698405
 20
-166.582424546028
 30
0.0
 10
100.0862250183812
 20
-165.7359645853021
 30
0.0
 10
100.0862250183812
 20
-165.7359645853021
 30
0.0
 10
100.0862250183812
 20
-165.7359645853021
 30
0.0
 10
100.7676649053636
 20
-165.7359645853021
 30
0.0
 10
100.7676649053636
 20
-165.7359645853021
 30
0.0
 10
100.7676649053636
 20
-165.7359645853021
 30
0.0
 10
100.7676649053636
 20
-165.9306124802187
 30
0.0
 10
100.7676649053636
 20
-165.9306124802187
 30
0.0
 10
100.7676649053636
 20
-165.9306124802187
 30
0.0
 10
100.228507461922
 20
-165.9306124802187
 30
0.0
 10
100.228507461922
 20
-165.9306124802187
 30
0.0
 10
100.228507461922
 20
-165.9306124802187
 30
0.0
 10
100.1713188768669
 20
-166.3536702058074
 30
0.0
 10
100.1713188768669
 20
-166.3536702058074
 30
0.0
 10
100.2250623664368
 20
-166.319908270052
 30
0.0
 10
100.2970648620785
 20
-166.2796006528746
 30
0.0
 10
100.4007622361845
 20
-166.2796006528746
 30
0.0
 10
100.6229708949832
 20
-166.2796006528746
 30
0.0
 10
100.8303656431952
 20
-166.4659803186266
 30
0.0
 10
100.8303656431952
 20
-166.7791394982358
 30
0.0
 10
100.8303656431952
 20
-167.0964327924273
 30
0.0
 10
100.6339952005359
 20
-167.3310437949728
 30
0.0
 10
100.3694118672688
 20
-167.3310437949728
 30
0.0
  0
HATCH
  5
BF
330
B8
100
AcDbEntity
  8
_U+30EC_U+30A4_U+30E4_U+30FC 1
 62
   179
420
  2234388
100
AcDbHatch
 10
0.0
 20
0.0
 30
0.0
210
0.0
220
0.0
230
1.0
  2
SOLID
 70
     1
 71
     0
 91
        1
 92
        1
 93
        1
 72
     4
 94
        3
 73
     0
 74
     1
 95
       53
 96
       49
 40
0.0
 40
0.0
 40
0.0
 40
0.0
 40
1.0
 40
1.0
 40
1.0
 40
2.0
 40
2.0
 40
2.0
 40
3.0
 40
3.0
 40
3.0
 40
4.0
 40
4.0
 40
4.0
 40
5.0
 40
5.0
 40
5.0
 40
6.0
 40
6.0
 40
6.0
 40
7.0
 40
7.0
 40
7.0
 40
8.0
 40
8.0
 40
8.0
 40
9.0
 40
9.0
 40
9.0
 40
10.0
 40
10.0
 40
10.0
 40
11.0
 40
11.0
 40
11.0
 40
12.0
 40
12.0
 40
12.0
 40
13.0
 40
13.0
 40
13.0
 40
14.0
 40
14.0
 40
14.0
 40
15.0
 40
15.0
 40
15.0
 40
16.0
 40
16.0
 40
16.0
 40
16.0
 10
100.3694118672688
 20
-167.3310437949728
 10
100.3008544671123
 20
-167.3310437949728
 10
100.2119710035929
 20
-167.3141628270951
 10
100.1230875400734
 20
-167.2507730701665
 10
99.97115882917389
 20
-167.140874524187
 10
99.95255531355353
 20
-167.009616386199
 10
99.93601885522433
 20
-166.9017848975107
 10
99.93601885522433
 20
-166.9017848975107
 10
100.1303222405924
 20
-166.9017848975107
 10
100.1303222405924
 20
-166.9017848975107
 10
100.1785535773859
 20
-167.1005669070096
 10
100.2898301615595
 20
-167.1301947281827
 10
100.3711344150114
 20
-167.1301947281827
 10
100.4934353047378
 20
-167.1301947281827
 10
100.6267605000169
 20
-167.030631468659
 10
100.6267605000169
 20
-166.7980875234047
 10
100.6267605000169
 20
-166.5421169288506
 10
100.469319636341
 20
-166.4721814905
 10
100.3638997144924
 20
-166.4721814905
 10
100.3359944410618
 20
-166.4721814905
 10
100.2119710035929
 20
-166.4721814905
 10
100.1341118456262
 20
-166.6013725711969
 10
100.1341118456262
 20
-166.6013725711969
 10
99.98046058698405
 20
-166.582424546028
 10
99.98046058698405
 20
-166.582424546028
 10
99.98046058698405
 20
-166.582424546028
 10
100.0862250183812
 20
-165.7359645853021
 10
100.0862250183812
 20
-165.7359645853021
 10
100.0862250183812
 20
-165.7359645853021
 10
100.7676649053636
 20
-165.7359645853021
 10
100.7676649053636
 20
-165.7359645853021
 10
100.7676649053636
 20
-165.7359645853021
 10
100.7676649053636
 20
-165.9306124802187
 10
100.7676649053636
 20
-165.9306124802187
 10
100.7676649053636
 20
-165.9306124802187
 10
100.228507461922
 20
-165.9306124802187
 10
100.228507461922
 20
-165.9306124802187
 10
100.228507461922
 20
-165.9306124802187
 10
100.1713188768669
 20
-166.3536702058074
 10
100.1713188768669
 20
-166.3536702058074
 10
100.2250623664368
 20
-166.319908270052
 10
100.2970648620785
 20
-166.2796006528746
 10
100.4007622361845
 20
-166.2796006528746
 10
100.6229708949832
 20
-166.2796006528746
 10
100.8303656431952
 20
-166.4659803186266
 10
100.8303656431952
 20
-166.7791394982358
 10
100.8303656431952
 20
-167.0964327924273
 10
100.6339952005359
 20
-167.3310437949728
 10
100.3694118672688
 20
-167.3310437949728
 97
        0
 97
        0
 75
     2
 76
     1
 98
        0
  0
ENDBLK
  5
BB
330
B8
100
AcDbEntity
  8
0
100
AcDbBlockEnd
  0
BLOCK
  5
C2
330
C0
100
AcDbEntity
  8
0
100
AcDbBlockBegin
  2
block 9
 70
     0
 10
0.0
 20
0.0
 30
0.0
  3
block 9
  1

  0
SPLINE
  5
C4
330
C0
100
AcDbEntity
  8
_U+30EC_U+30A4_U+30E4_U+30FC 1
370
     0
100
AcDbSpline
210
0.0
220
0.0
230
1.0
 70
    11
 71
     3
 72
    29
 73
    25
 74
     0
 42
0.0000000001
 43
0.0000000001
 12
1.0
 22
0.0
 32
0.0
 13
1.0
 23
0.0
 33
0.0
 40
0.0
 40
0.0
 40
0.0
 40
0.0
 40
1.0
 40
1.0
 40
1.0
 40
2.0
 40
2.0
 40
2.0
 40
3.0
 40
3.0
 40
3.0
 40
4.0
 40
4.0
 40
4.0
 40
5.0
 40
5.0
 40
5.0
 40
6.0
 40
6.0
 40
6.0
 40
7.0
 40
7.0
 40
7.0
 40
8.0
 40
8.0
 40
8.0
 40
8.0
 10
86.9445637803472
 20
-167.3310437949728
 30
0.0
 10
86.71133081599578
 20
-167.3310437949728
 30
0.0
 10
86.48912215719717
 20
-167.1935844851113
 30
0.0
 10
86.48912215719717
 20
-166.8445963124555
 30
0.0
 10
86.48912215719717
 20
-166.5886257179015
 30
0.0
 10
86.61314559466616
 20
-166.4935410825086
 30
0.0
 10
86.70581866321939
 20
-166.4322183828711
 30
0.0
 10
86.59660913633697
 20
-166.3729627405248
 30
0.0
 10
86.52977428392312
 20
-166.2585855704145
 30
0.0
 10
86.52977428392312
 20
-166.0976996112533
 30
0.0
 10
86.52977428392312
 20
-165.8227809915304
 30
0.0
 10
86.70409611547676
 20
-165.6873887389601
 30
0.0
 10
86.9445637803472
 20
-165.6873887389601
 30
0.0
 10
87.19261065528518
 20
-165.6873887389601
 30
0.0
 10
87.35935327677127
 20
-165.8313937302435
 30
0.0
 10
87.35935327677127
 20
-166.0976996112533
 30
0.0
 10
87.35935327677127
 20
-166.2585855704145
 30
0.0
 10
87.29079587661481
 20
-166.3729627405248
 30
0.0
 10
87.18158634973238
 20
-166.4322183828711
 30
0.0
 10
87.25944550769903
 20
-166.4828612865043
 30
0.0
 10
87.3982828557546
 20
-166.5779459218972
 30
0.0
 10
87.3982828557546
 20
-166.8404621978732
 30
0.0
 10
87.3982828557546
 20
-167.2149440771199
 30
0.0
 10
87.15402558585039
 20
-167.3310437949728
 30
0.0
 10
86.9445637803472
 20
-167.3310437949728
 30
0.0
  0
SPLINE
  5
C5
330
C0
100
AcDbEntity
  8
_U+30EC_U+30A4_U+30E4_U+30FC 1
370
     0
100
AcDbSpline
210
0.0
220
0.0
230
1.0
 70
    11
 71
     3
 72
    17
 73
    13
 74
     0
 42
0.0000000001
 43
0.0000000001
 12
1.0
 22
0.0
 32
0.0
 13
1.0
 23
0.0
 33
0.0
 40
0.0
 40
0.0
 40
0.0
 40
0.0
 40
1.0
 40
1.0
 40
1.0
 40
2.0
 40
2.0
 40
2.0
 40
3.0
 40
3.0
 40
3.0
 40
4.0
 40
4.0
 40
4.0
 40
4.0
 10
86.9445637803472
 20
-166.5400498715594
 30
0.0
 10
86.81881779513557
 20
-166.5400498715594
 30
0.0
 10
86.6854925998564
 20
-166.6268662777877
 30
0.0
 10
86.6854925998564
 20
-166.829782401869
 30
0.0
 10
86.6854925998564
 20
-167.0351100927898
 30
0.0
 10
86.79642467448146
 20
-167.1363959000562
 30
0.0
 10
86.9445637803472
 20
-167.1363959000562
 30
0.0
 10
87.10751679679952
 20
-167.1363959000562
 30
0.0
 10
87.20397947038651
 20
-167.0137505007813
 30
0.0
 10
87.20397947038651
 20
-166.8359835737424
 30
0.0
 10
87.20397947038651
 20
-166.6141194244923
 30
0.0
 10
87.06135251729717
 20
-166.5400498715594
 30
0.0
 10
86.9445637803472
 20
-166.5400498715594
 30
0.0
  0
SPLINE
  5
C6
330
C0
100
AcDbEntity
  8
_U+30EC_U+30A4_U+30E4_U+30FC 1
370
     0
100
AcDbSpline
210
0.0
220
0.0
230
1.0
 70
    11
 71
     3
 72
    17
 73
    13
 74
     0
 42
0.0000000001
 43
0.0000000001
 12
1.0
 22
0.0
 32
0.0
 13
1.0
 23
0.0
 33
0.0
 40
0.0
 40
0.0
 40
0.0
 40
0.0
 40
1.0
 40
1.0
 40
1.0
 40
2.0
 40
2.0
 40
2.0
 40
3.0
 40
3.0
 40
3.0
 40
4.0
 40
4.0
 40
4.0
 40
4.0
 10
86.9445637803472
 20
-165.8799695765856
 30
0.0
 10
86.80021427951523
 20
-165.8799695765856
 30
0.0
 10
86.72614472658236
 20
-165.9750542119785
 30
0.0
 10
86.72614472658236
 20
-166.1104464645488
 30
0.0
 10
86.72614472658236
 20
-166.2330918638237
 30
0.0
 10
86.78918997396242
 20
-166.3516031485163
 30
0.0
 10
86.9445637803472
 20
-166.3516031485163
 30
0.0
 10
87.1002820962805
 20
-166.3516031485163
 30
0.0
 10
87.16298283411204
 20
-166.2330918638237
 30
0.0
 10
87.16298283411204
 20
-166.1104464645488
 30
0.0
 10
87.16298283411204
 20
-165.9750542119785
 30
0.0
 10
87.08719073343654
 20
-165.8799695765856
 30
0.0
 10
86.9445637803472
 20
-165.8799695765856
 30
0.0
  0
HATCH
  5
C7
330
C0
100
AcDbEntity
  8
_U+30EC_U+30A4_U+30E4_U+30FC 1
 62
   179
420
  2234388
100
AcDbHatch
 10
0.0
 20
0.0
 30
0.0
210
0.0
220
0.0
230
1.0
  2
SOLID
 70
     1
 71
     0
 91
        3
 92
        1
 93
        1
 72
     4
 94
        3
 73
     0
 74
     1
 95
       29
 96
       25
 40
0.0
 40
0.0
 40
0.0
 40
0.0
 40
1.0
 40
1.0
 40
1.0
 40
2.0
 40
2.0
 40
2.0
 40
3.0
 40
3.0
 40
3.0
 40
4.0
 40
4.0
 40
4.0
 40
5.0
 40
5.0
 40
5.0
 40
6.0
 40
6.0
 40
6.0
 40
7.0
 40
7.0
 40
7.0
 40
8.0
 40
8.0
 40
8.0
 40
8.0
 10
86.9445637803472
 20
-167.3310437949728
 10
86.71133081599578
 20
-167.3310437949728
 10
86.48912215719717
 20
-167.1935844851113
 10
86.48912215719717
 20
-166.8445963124555
 10
86.48912215719717
 20
-166.5886257179015
 10
86.61314559466616
 20
-166.4935410825086
 10
86.70581866321939
 20
-166.4322183828711
 10
86.59660913633697
 20
-166.3729627405248
 10
86.52977428392312
 20
-166.2585855704145
 10
86.52977428392312
 20
-166.0976996112533
 10
86.52977428392312
 20
-165.8227809915304
 10
86.70409611547676
 20
-165.6873887389601
 10
86.9445637803472
 20
-165.6873887389601
 10
87.19261065528518
 20
-165.6873887389601
 10
87.35935327677127
 20
-165.8313937302435
 10
87.35935327677127
 20
-166.0976996112533
 10
87.35935327677127
 20
-166.2585855704145
 10
87.29079587661481
 20
-166.3729627405248
 10
87.18158634973238
 20
-166.4322183828711
 10
87.25944550769903
 20
-166.4828612865043
 10
87.3982828557546
 20
-166.5779459218972
 10
87.3982828557546
 20
-166.8404621978732
 10
87.3982828557546
 20
-167.2149440771199
 10
87.15402558585039
 20
-167.3310437949728
 10
86.9445637803472
 20
-167.3310437949728
 97
        0
 97
        0
 92
        1
 93
        1
 72
     4
 94
        3
 73
     0
 74
     1
 95
       17
 96
       13
 40
0.0
 40
0.0
 40
0.0
 40
0.0
 40
1.0
 40
1.0
 40
1.0
 40
2.0
 40
2.0
 40
2.0
 40
3.0
 40
3.0
 40
3.0
 40
4.0
 40
4.0
 40
4.0
 40
4.0
 10
86.9445637803472
 20
-166.5400498715594
 10
86.81881779513557
 20
-166.5400498715594
 10
86.6854925998564
 20
-166.6268662777877
 10
86.6854925998564
 20
-166.829782401869
 10
86.6854925998564
 20
-167.0351100927898
 10
86.79642467448146
 20
-167.1363959000562
 10
86.9445637803472
 20
-167.1363959000562
 10
87.10751679679952
 20
-167.1363959000562
 10
87.20397947038651
 20
-167.0137505007813
 10
87.20397947038651
 20
-166.8359835737424
 10
87.20397947038651
 20
-166.6141194244923
 10
87.06135251729717
 20
-166.5400498715594
 10
86.9445637803472
 20
-166.5400498715594
 97
        0
 97
        0
 92
        1
 93
        1
 72
     4
 94
        3
 73
     0
 74
     1
 95
       17
 96
       13
 40
0.0
 40
0.0
 40
0.0
 40
0.0
 40
1.0
 40
1.0
 40
1.0
 40
2.0
 40
2.0
 40
2.0
 40
3.0
 40
3.0
 40
3.0
 40
4.0
 40
4.0
 40
4.0
 40
4.0
 10
86.9445637803472
 20
-165.8799695765856
 10
86.80021427951523
 20
-165.8799695765856
 10
86.72614472658236
 20
-165.9750542119785
 10
86.72614472658236
 20
-166.1104464645488
 10
86.72614472658236
 20
-166.2330918638237
 10
86.78918997396242
 20
-166.3516031485163
 10
86.9445637803472
 20
-166.3516031485163
 10
87.1002820962805
 20
-166.3516031485163
 10
87.16298283411204
 20
-166.2330918638237
 10
87.16298283411204
 20
-166.1104464645488
 10
87.16298283411204
 20
-165.9750542119785
 10
87.08719073343654
 20
-165.8799695765856
 10
86.9445637803472
 20
-165.8799695765856
 97
        0
 97
        0
 75
     2
 76
     1
 98
        0
  0
POLYLINE
  5
C8
330
C0
100
AcDbEntity
  8
_U+30EC_U+30A4_U+30E4_U+30FC 1
370
     0
100
AcDb2dPolyline
 66
     1
 10
0.0
 20
0.0
 30
0.0
  0
VERTEX
  5
C9
330
C8
100
AcDbEntity
  8
_U+30EC_U+30A4_U+30E4_U+30FC 1
370
     0
100
AcDbVertex
100
AcDb2dVertex
 10
87.59017467428302
 20
-167.2804008913396
 30
0.0
  0
VERTEX
  5
CA
330
C8
100
AcDbEntity
  8
_U+30EC_U+30A4_U+30E4_U+30FC 1
370
     0
100
AcDbVertex
100
AcDb2dVertex
 10
87.59017467428302
 20
-167.0285644113679
 30
0.0
  0
VERTEX
  5
CB
330
C8
100
AcDbEntity
  8
_U+30EC_U+30A4_U+30E4_U+30FC 1
370
     0
100
AcDbVertex
100
AcDb2dVertex
 10
87.81066078533901
 20
-167.0285644113679
 30
0.0
  0
VERTEX
  5
CC
330
C8
100
AcDbEntity
  8
_U+30EC_U+30A4_U+30E4_U+30FC 1
370
     0
100
AcDbVertex
100
AcDb2dVertex
 10
87.81066078533901
 20
-167.2804008913396
 30
0.0
  0
VERTEX
  5
CD
330
C8
100
AcDbEntity
  8
_U+30EC_U+30A4_U+30E4_U+30FC 1
370
     0
100
AcDbVertex
100
AcDb2dVertex
 10
87.59017467428302
 20
-167.2804008913396
 30
0.0
  0
SEQEND
  5
CE
330
C8
100
AcDbEntity
  8
_U+30EC_U+30A4_U+30E4_U+30FC 1
370
     0
  0
HATCH
  5
CF
330
C0
100
AcDbEntity
  8
_U+30EC_U+30A4_U+30E4_U+30FC 1
 62
   179
420
  2234388
100
AcDbHatch
 10
0.0
 20
0.0
 30
0.0
210
0.0
220
0.0
230
1.0
  2
SOLID
 70
     1
 71
     0
 91
        1
 92
        1
 93
        4
 72
     1
 10
87.59017467428302
 20
-167.2804008913396
 11
87.59017467428302
 21
-167.0285644113679
 72
     1
 10
87.59017467428302
 20
-167.0285644113679
 11
87.81066078533901
 21
-167.0285644113679
 72
     1
 10
87.81066078533901
 20
-167.0285644113679
 11
87.81066078533901
 21
-167.2804008913396
 72
     1
 10
87.81066078533901
 20
-167.2804008913396
 11
87.59017467428302
 21
-167.2804008913396
 97
        0
 75
     2
 76
     1
 98
        0
  0
SPLINE
  5
D0
330
C0
100
AcDbEntity
  8
_U+30EC_U+30A4_U+30E4_U+30FC 1
370
     0
100
AcDbSpline
210
0.0
220
0.0
230
1.0
 70
    11
 71
     3
 72
    53
 73
    49
 74
     0
 42
0.0000000001
 43
0.0000000001
 12
1.0
 22
0.0
 32
0.0
 13
1.0
 23
0.0
 33
0.0
 40
0.0
 40
0.0
 40
0.0
 40
0.0
 40
1.0
 40
1.0
 40
1.0
 40
2.0
 40
2.0
 40
2.0
 40
3.0
 40
3.0
 40
3.0
 40
4.0
 40
4.0
 40
4.0
 40
5.0
 40
5.0
 40
5.0
 40
6.0
 40
6.0
 40
6.0
 40
7.0
 40
7.0
 40
7.0
 40
8.0
 40
8.0
 40
8.0
 40
9.0
 40
9.0
 40
9.0
 40
10.0
 40
10.0
 40
10.0
 40
11.0
 40
11.0
 40
11.0
 40
12.0
 40
12.0
 40
12.0
 40
13.0
 40
13.0
 40
13.0
 40
14.0
 40
14.0
 40
14.0
 40
15.0
 40
15.0
 40
15.0
 40
16.0
 40
16.0
 40
16.0
 40
16.0
 10
88.43904620184857
 20
-167.3310437949728
 30
0.0
 10
88.3704888016921
 20
-167.3310437949728
 30
0.0
 10
88.28160533817265
 20
-167.3141628270951
 30
0.0
 10
88.19272187465322
 20
-167.2507730701665
 30
0.0
 10
88.04079316375369
 20
-167.140874524187
 30
0.0
 10
88.02218964813335
 20
-167.009616386199
 30
0.0
 10
88.00565318980415
 20
-166.9017848975107
 30
0.0
 10
88.00565318980415
 20
-166.9017848975107
 30
0.0
 10
88.19995657517224
 20
-166.9017848975107
 30
0.0
 10
88.19995657517224
 20
-166.9017848975107
 30
0.0
 10
88.24818791196573
 20
-167.1005669070096
 30
0.0
 10
88.35946449613931
 20
-167.1301947281827
 30
0.0
 10
88.4407687495912
 20
-167.1301947281827
 30
0.0
 10
88.56306963931758
 20
-167.1301947281827
 30
0.0
 10
88.69639483459675
 20
-167.030631468659
 30
0.0
 10
88.69639483459675
 20
-166.7980875234047
 30
0.0
 10
88.69639483459675
 20
-166.5421169288506
 30
0.0
 10
88.53895397092082
 20
-166.4721814905
 30
0.0
 10
88.43353404907218
 20
-166.4721814905
 30
0.0
 10
88.40562877564166
 20
-166.4721814905
 30
0.0
 10
88.28160533817265
 20
-166.4721814905
 30
0.0
 10
88.20374618020601
 20
-166.6013725711969
 30
0.0
 10
88.20374618020601
 20
-166.6013725711969
 30
0.0
 10
88.05009492156387
 20
-166.582424546028
 30
0.0
 10
88.05009492156387
 20
-166.582424546028
 30
0.0
 10
88.05009492156387
 20
-166.582424546028
 30
0.0
 10
88.15585935296104
 20
-165.7359645853021
 30
0.0
 10
88.15585935296104
 20
-165.7359645853021
 30
0.0
 10
88.15585935296104
 20
-165.7359645853021
 30
0.0
 10
88.83729923994346
 20
-165.7359645853021
 30
0.0
 10
88.83729923994346
 20
-165.7359645853021
 30
0.0
 10
88.83729923994346
 20
-165.7359645853021
 30
0.0
 10
88.83729923994346
 20
-165.9306124802187
 30
0.0
 10
88.83729923994346
 20
-165.9306124802187
 30
0.0
 10
88.83729923994346
 20
-165.9306124802187
 30
0.0
 10
88.29814179650185
 20
-165.9306124802187
 30
0.0
 10
88.29814179650185
 20
-165.9306124802187
 30
0.0
 10
88.29814179650185
 20
-165.9306124802187
 30
0.0
 10
88.24095321144671
 20
-166.3536702058074
 30
0.0
 10
88.24095321144671
 20
-166.3536702058074
 30
0.0
 10
88.2946967010166
 20
-166.319908270052
 30
0.0
 10
88.36669919665833
 20
-166.2796006528746
 30
0.0
 10
88.47039657076435
 20
-166.2796006528746
 30
0.0
 10
88.69260522956296
 20
-166.2796006528746
 30
0.0
 10
88.89999997777501
 20
-166.4659803186266
 30
0.0
 10
88.89999997777501
 20
-166.7791394982358
 30
0.0
 10
88.89999997777501
 20
-167.0964327924273
 30
0.0
 10
88.70362953511577
 20
-167.3310437949728
 30
0.0
 10
88.43904620184857
 20
-167.3310437949728
 30
0.0
  0
HATCH
  5
D1
330
C0
100
AcDbEntity
  8
_U+30EC_U+30A4_U+30E4_U+30FC 1
 62
   179
420
  2234388
100
AcDbHatch
 10
0.0
 20
0.0
 30
0.0
210
0.0
220
0.0
230
1.0
  2
SOLID
 70
     1
 71
     0
 91
        1
 92
        1
 93
        1
 72
     4
 94
        3
 73
     0
 74
     1
 95
       53
 96
       49
 40
0.0
 40
0.0
 40
0.0
 40
0.0
 40
1.0
 40
1.0
 40
1.0
 40
2.0
 40
2.0
 40
2.0
 40
3.0
 40
3.0
 40
3.0
 40
4.0
 40
4.0
 40
4.0
 40
5.0
 40
5.0
 40
5.0
 40
6.0
 40
6.0
 40
6.0
 40
7.0
 40
7.0
 40
7.0
 40
8.0
 40
8.0
 40
8.0
 40
9.0
 40
9.0
 40
9.0
 40
10.0
 40
10.0
 40
10.0
 40
11.0
 40
11.0
 40
11.0
 40
12.0
 40
12.0
 40
12.0
 40
13.0
 40
13.0
 40
13.0
 40
14.0
 40
14.0
 40
14.0
 40
15.0
 40
15.0
 40
15.0
 40
16.0
 40
16.0
 40
16.0
 40
16.0
 10
88.43904620184857
 20
-167.3310437949728
 10
88.3704888016921
 20
-167.3310437949728
 10
88.28160533817265
 20
-167.3141628270951
 10
88.19272187465322
 20
-167.2507730701665
 10
88.04079316375369
 20
-167.140874524187
 10
88.02218964813335
 20
-167.009616386199
 10
88.00565318980415
 20
-166.9017848975107
 10
88.00565318980415
 20
-166.9017848975107
 10
88.19995657517224
 20
-166.9017848975107
 10
88.19995657517224
 20
-166.9017848975107
 10
88.24818791196573
 20
-167.1005669070096
 10
88.35946449613931
 20
-167.1301947281827
 10
88.4407687495912
 20
-167.1301947281827
 10
88.56306963931758
 20
-167.1301947281827
 10
88.69639483459675
 20
-167.030631468659
 10
88.69639483459675
 20
-166.7980875234047
 10
88.69639483459675
 20
-166.5421169288506
 10
88.53895397092082
 20
-166.4721814905
 10
88.43353404907218
 20
-166.4721814905
 10
88.40562877564166
 20
-166.4721814905
 10
88.28160533817265
 20
-166.4721814905
 10
88.20374618020601
 20
-166.6013725711969
 10
88.20374618020601
 20
-166.6013725711969
 10
88.05009492156387
 20
-166.582424546028
 10
88.05009492156387
 20
-166.582424546028
 10
88.05009492156387
 20
-166.582424546028
 10
88.15585935296104
 20
-165.7359645853021
 10
88.15585935296104
 20
-165.7359645853021
 10
88.15585935296104
 20
-165.7359645853021
 10
88.83729923994346
 20
-165.7359645853021
 10
88.83729923994346
 20
-165.7359645853021
 10
88.83729923994346
 20
-165.7359645853021
 10
88.83729923994346
 20
-165.9306124802187
 10
88.83729923994346
 20
-165.9306124802187
 10
88.83729923994346
 20
-165.9306124802187
 10
88.29814179650185
 20
-165.9306124802187
 10
88.29814179650185
 20
-165.9306124802187
 10
88.29814179650185
 20
-165.9306124802187
 10
88.24095321144671
 20
-166.3536702058074
 10
88.24095321144671
 20
-166.3536702058074
 10
88.2946967010166
 20
-166.319908270052
 10
88.36669919665833
 20
-166.2796006528746
 10
88.47039657076435
 20
-166.2796006528746
 10
88.69260522956296
 20
-166.2796006528746
 10
88.89999997777501
 20
-166.4659803186266
 10
88.89999997777501
 20
-166.7791394982358
 10
88.89999997777501
 20
-167.0964327924273
 10
88.70362953511577
 20
-167.3310437949728
 10
88.43904620184857
 20
-167.3310437949728
 97
        0
 97
        0
 75
     2
 76
     1
 98
        0
  0
ENDBLK
  5
C3
330
C0
100
AcDbEntity
  8
0
100
AcDbBlockEnd
  0
BLOCK
  5
D4
330
D2
100
AcDbEntity
  8
0
100
AcDbBlockBegin
  2
block 10
 70
     0
 10
0.0
 20
0.0
 30
0.0
  3
block 10
  1

  0
SPLINE
  5
D6
330
D2
100
AcDbEntity
  8
_U+30EC_U+30A4_U+30E4_U+30FC 1
370
     0
100
AcDbSpline
210
0.0
220
0.0
230
1.0
 70
    11
 71
     3
 72
    29
 73
    25
 74
     0
 42
0.0000000001
 43
0.0000000001
 12
1.0
 22
0.0
 32
0.0
 13
1.0
 23
0.0
 33
0.0
 40
0.0
 40
0.0
 40
0.0
 40
0.0
 40
1.0
 40
1.0
 40
1.0
 40
2.0
 40
2.0
 40
2.0
 40
3.0
 40
3.0
 40
3.0
 40
4.0
 40
4.0
 40
4.0
 40
5.0
 40
5.0
 40
5.0
 40
6.0
 40
6.0
 40
6.0
 40
7.0
 40
7.0
 40
7.0
 40
8.0
 40
8.0
 40
8.0
 40
8.0
 10
110.5238308100427
 20
-167.3310437949728
 30
0.0
 10
110.2905978456912
 20
-167.3310437949728
 30
0.0
 10
110.0683891868926
 20
-167.1935844851113
 30
0.0
 10
110.0683891868926
 20
-166.8445963124555
 30
0.0
 10
110.0683891868926
 20
-166.5886257179015
 30
0.0
 10
110.1924126243616
 20
-166.4935410825086
 30
0.0
 10
110.2850856929148
 20
-166.4322183828711
 30
0.0
 10
110.1758761660324
 20
-166.3729627405248
 30
0.0
 10
110.1090413136186
 20
-166.2585855704145
 30
0.0
 10
110.1090413136186
 20
-166.0976996112533
 30
0.0
 10
110.1090413136186
 20
-165.8227809915304
 30
0.0
 10
110.2830186356237
 20
-165.6873887389601
 30
0.0
 10
110.5238308100427
 20
-165.6873887389601
 30
0.0
 10
110.7722221945292
 20
-165.6873887389601
 30
0.0
 10
110.9386203064667
 20
-165.8313937302435
 30
0.0
 10
110.9386203064667
 20
-166.0976996112533
 30
0.0
 10
110.9386203064667
 20
-166.2585855704145
 30
0.0
 10
110.8700629063103
 20
-166.3729627405248
 30
0.0
 10
110.7608533794278
 20
-166.4322183828711
 30
0.0
 10
110.8387125373945
 20
-166.4828612865043
 30
0.0
 10
110.9775498854501
 20
-166.5779459218972
 30
0.0
 10
110.9775498854501
 20
-166.8404621978732
 30
0.0
 10
110.9775498854501
 20
-167.2149440771199
 30
0.0
 10
110.7332926155458
 20
-167.3310437949728
 30
0.0
 10
110.5238308100427
 20
-167.3310437949728
 30
0.0
  0
SPLINE
  5
D7
330
D2
100
AcDbEntity
  8
_U+30EC_U+30A4_U+30E4_U+30FC 1
370
     0
100
AcDbSpline
210
0.0
220
0.0
230
1.0
 70
    11
 71
     3
 72
    17
 73
    13
 74
     0
 42
0.0000000001
 43
0.0000000001
 12
1.0
 22
0.0
 32
0.0
 13
1.0
 23
0.0
 33
0.0
 40
0.0
 40
0.0
 40
0.0
 40
0.0
 40
1.0
 40
1.0
 40
1.0
 40
2.0
 40
2.0
 40
2.0
 40
3.0
 40
3.0
 40
3.0
 40
4.0
 40
4.0
 40
4.0
 40
4.0
 10
110.5238308100427
 20
-166.5400498715594
 30
0.0
 10
110.398084824831
 20
-166.5400498715594
 30
0.0
 10
110.2647596295519
 20
-166.6268662777877
 30
0.0
 10
110.2647596295519
 20
-166.829782401869
 30
0.0
 10
110.2647596295519
 20
-167.0351100927898
 30
0.0
 10
110.3756917041769
 20
-167.1363959000562
 30
0.0
 10
110.5238308100427
 20
-167.1363959000562
 30
0.0
 10
110.686783826495
 20
-167.1363959000562
 30
0.0
 10
110.783246500082
 20
-167.0137505007813
 30
0.0
 10
110.783246500082
 20
-166.8359835737424
 30
0.0
 10
110.783246500082
 20
-166.6141194244923
 30
0.0
 10
110.6406195469926
 20
-166.5400498715594
 30
0.0
 10
110.5238308100427
 20
-166.5400498715594
 30
0.0
  0
SPLINE
  5
D8
330
D2
100
AcDbEntity
  8
_U+30EC_U+30A4_U+30E4_U+30FC 1
370
     0
100
AcDbSpline
210
0.0
220
0.0
230
1.0
 70
    11
 71
     3
 72
    17
 73
    13
 74
     0
 42
0.0000000001
 43
0.0000000001
 12
1.0
 22
0.0
 32
0.0
 13
1.0
 23
0.0
 33
0.0
 40
0.0
 40
0.0
 40
0.0
 40
0.0
 40
1.0
 40
1.0
 40
1.0
 40
2.0
 40
2.0
 40
2.0
 40
3.0
 40
3.0
 40
3.0
 40
4.0
 40
4.0
 40
4.0
 40
4.0
 10
110.5238308100427
 20
-165.8799695765856
 30
0.0
 10
110.3794813092107
 20
-165.8799695765856
 30
0.0
 10
110.3054117562778
 20
-165.9750542119785
 30
0.0
 10
110.3054117562778
 20
-166.1104464645488
 30
0.0
 10
110.3054117562778
 20
-166.2330918638237
 30
0.0
 10
110.3684570036579
 20
-166.3516031485163
 30
0.0
 10
110.5238308100427
 20
-166.3516031485163
 30
0.0
 10
110.679549125976
 20
-166.3516031485163
 30
0.0
 10
110.742594373356
 20
-166.2330918638237
 30
0.0
 10
110.742594373356
 20
-166.1104464645488
 30
0.0
 10
110.742594373356
 20
-165.9750542119785
 30
0.0
 10
110.666457763132
 20
-165.8799695765856
 30
0.0
 10
110.5238308100427
 20
-165.8799695765856
 30
0.0
  0
HATCH
  5
D9
330
D2
100
AcDbEntity
  8
_U+30EC_U+30A4_U+30E4_U+30FC 1
 62
   179
420
  2234388
100
AcDbHatch
 10
0.0
 20
0.0
 30
0.0
210
0.0
220
0.0
230
1.0
  2
SOLID
 70
     1
 71
     0
 91
        3
 92
        1
 93
        1
 72
     4
 94
        3
 73
     0
 74
     1
 95
       29
 96
       25
 40
0.0
 40
0.0
 40
0.0
 40
0.0
 40
1.0
 40
1.0
 40
1.0
 40
2.0
 40
2.0
 40
2.0
 40
3.0
 40
3.0
 40
3.0
 40
4.0
 40
4.0
 40
4.0
 40
5.0
 40
5.0
 40
5.0
 40
6.0
 40
6.0
 40
6.0
 40
7.0
 40
7.0
 40
7.0
 40
8.0
 40
8.0
 40
8.0
 40
8.0
 10
110.5238308100427
 20
-167.3310437949728
 10
110.2905978456912
 20
-167.3310437949728
 10
110.0683891868926
 20
-167.1935844851113
 10
110.0683891868926
 20
-166.8445963124555
 10
110.0683891868926
 20
-166.5886257179015
 10
110.1924126243616
 20
-166.4935410825086
 10
110.2850856929148
 20
-166.4322183828711
 10
110.1758761660324
 20
-166.3729627405248
 10
110.1090413136186
 20
-166.2585855704145
 10
110.1090413136186
 20
-166.0976996112533
 10
110.1090413136186
 20
-165.8227809915304
 10
110.2830186356237
 20
-165.6873887389601
 10
110.5238308100427
 20
-165.6873887389601
 10
110.7722221945292
 20
-165.6873887389601
 10
110.9386203064667
 20
-165.8313937302435
 10
110.9386203064667
 20
-166.0976996112533
 10
110.9386203064667
 20
-166.2585855704145
 10
110.8700629063103
 20
-166.3729627405248
 10
110.7608533794278
 20
-166.4322183828711
 10
110.8387125373945
 20
-166.4828612865043
 10
110.9775498854501
 20
-166.5779459218972
 10
110.9775498854501
 20
-166.8404621978732
 10
110.9775498854501
 20
-167.2149440771199
 10
110.7332926155458
 20
-167.3310437949728
 10
110.5238308100427
 20
-167.3310437949728
 97
        0
 97
        0
 92
        1
 93
        1
 72
     4
 94
        3
 73
     0
 74
     1
 95
       17
 96
       13
 40
0.0
 40
0.0
 40
0.0
 40
0.0
 40
1.0
 40
1.0
 40
1.0
 40
2.0
 40
2.0
 40
2.0
 40
3.0
 40
3.0
 40
3.0
 40
4.0
 40
4.0
 40
4.0
 40
4.0
 10
110.5238308100427
 20
-166.5400498715594
 10
110.398084824831
 20
-166.5400498715594
 10
110.2647596295519
 20
-166.6268662777877
 10
110.2647596295519
 20
-166.829782401869
 10
110.2647596295519
 20
-167.0351100927898
 10
110.3756917041769
 20
-167.1363959000562
 10
110.5238308100427
 20
-167.1363959000562
 10
110.686783826495
 20
-167.1363959000562
 10
110.783246500082
 20
-167.0137505007813
 10
110.783246500082
 20
-166.8359835737424
 10
110.783246500082
 20
-166.6141194244923
 10
110.6406195469926
 20
-166.5400498715594
 10
110.5238308100427
 20
-166.5400498715594
 97
        0
 97
        0
 92
        1
 93
        1
 72
     4
 94
        3
 73
     0
 74
     1
 95
       17
 96
       13
 40
0.0
 40
0.0
 40
0.0
 40
0.0
 40
1.0
 40
1.0
 40
1.0
 40
2.0
 40
2.0
 40
2.0
 40
3.0
 40
3.0
 40
3.0
 40
4.0
 40
4.0
 40
4.0
 40
4.0
 10
110.5238308100427
 20
-165.8799695765856
 10
110.3794813092107
 20
-165.8799695765856
 10
110.3054117562778
 20
-165.9750542119785
 10
110.3054117562778
 20
-166.1104464645488
 10
110.3054117562778
 20
-166.2330918638237
 10
110.3684570036579
 20
-166.3516031485163
 10
110.5238308100427
 20
-166.3516031485163
 10
110.679549125976
 20
-166.3516031485163
 10
110.742594373356
 20
-166.2330918638237
 10
110.742594373356
 20
-166.1104464645488
 10
110.742594373356
 20
-165.9750542119785
 10
110.666457763132
 20
-165.8799695765856
 10
110.5238308100427
 20
-165.8799695765856
 97
        0
 97
        0
 75
     2
 76
     1
 98
        0
  0
POLYLINE
  5
DA
330
D2
100
AcDbEntity
  8
_U+30EC_U+30A4_U+30E4_U+30FC 1
370
     0
100
AcDb2dPolyline
 66
     1
 10
0.0
 20
0.0
 30
0.0
  0
VERTEX
  5
DB
330
DA
100
AcDbEntity
  8
_U+30EC_U+30A4_U+30E4_U+30FC 1
370
     0
100
AcDbVertex
100
AcDb2dVertex
 10
111.1694417039785
 20
-167.2804008913396
 30
0.0
  0
VERTEX
  5
DC
330
DA
100
AcDbEntity
  8
_U+30EC_U+30A4_U+30E4_U+30FC 1
370
     0
100
AcDbVertex
100
AcDb2dVertex
 10
111.1694417039785
 20
-167.0285644113679
 30
0.0
  0
VERTEX
  5
DD
330
DA
100
AcDbEntity
  8
_U+30EC_U+30A4_U+30E4_U+30FC 1
370
     0
100
AcDbVertex
100
AcDb2dVertex
 10
111.3899278150345
 20
-167.0285644113679
 30
0.0
  0
VERTEX
  5
DE
330
DA
100
AcDbEntity
  8
_U+30EC_U+30A4_U+30E4_U+30FC 1
370
     0
100
AcDbVertex
100
AcDb2dVertex
 10
111.3899278150345
 20
-167.2804008913396
 30
0.0
  0
VERTEX
  5
DF
330
DA
100
AcDbEntity
  8
_U+30EC_U+30A4_U+30E4_U+30FC 1
370
     0
100
AcDbVertex
100
AcDb2dVertex
 10
111.1694417039785
 20
-167.2804008913396
 30
0.0
  0
SEQEND
  5
E0
330
DA
100
AcDbEntity
  8
_U+30EC_U+30A4_U+30E4_U+30FC 1
370
     0
  0
HATCH
  5
E1
330
D2
100
AcDbEntity
  8
_U+30EC_U+30A4_U+30E4_U+30FC 1
 62
   179
420
  2234388
100
AcDbHatch
 10
0.0
 20
0.0
 30
0.0
210
0.0
220
0.0
230
1.0
  2
SOLID
 70
     1
 71
     0
 91
        1
 92
        1
 93
        4
 72
     1
 10
111.1694417039785
 20
-167.2804008913396
 11
111.1694417039785
 21
-167.0285644113679
 72
     1
 10
111.1694417039785
 20
-167.0285644113679
 11
111.3899278150345
 21
-167.0285644113679
 72
     1
 10
111.3899278150345
 20
-167.0285644113679
 11
111.3899278150345
 21
-167.2804008913396
 72
     1
 10
111.3899278150345
 20
-167.2804008913396
 11
111.1694417039785
 21
-167.2804008913396
 97
        0
 75
     2
 76
     1
 98
        0
  0
SPLINE
  5
E2
330
D2
100
AcDbEntity
  8
_U+30EC_U+30A4_U+30E4_U+30FC 1
370
     0
100
AcDbSpline
210
0.0
220
0.0
230
1.0
 70
    11
 71
     3
 72
    53
 73
    49
 74
     0
 42
0.0000000001
 43
0.0000000001
 12
1.0
 22
0.0
 32
0.0
 13
1.0
 23
0.0
 33
0.0
 40
0.0
 40
0.0
 40
0.0
 40
0.0
 40
1.0
 40
1.0
 40
1.0
 40
2.0
 40
2.0
 40
2.0
 40
3.0
 40
3.0
 40
3.0
 40
4.0
 40
4.0
 40
4.0
 40
5.0
 40
5.0
 40
5.0
 40
6.0
 40
6.0
 40
6.0
 40
7.0
 40
7.0
 40
7.0
 40
8.0
 40
8.0
 40
8.0
 40
9.0
 40
9.0
 40
9.0
 40
10.0
 40
10.0
 40
10.0
 40
11.0
 40
11.0
 40
11.0
 40
12.0
 40
12.0
 40
12.0
 40
13.0
 40
13.0
 40
13.0
 40
14.0
 40
14.0
 40
14.0
 40
15.0
 40
15.0
 40
15.0
 40
16.0
 40
16.0
 40
16.0
 40
16.0
 10
112.018313231544
 20
-167.3310437949728
 30
0.0
 10
111.9497558313876
 20
-167.3310437949728
 30
0.0
 10
111.8608723678681
 20
-167.3141628270951
 30
0.0
 10
111.7719889043487
 20
-167.2507730701665
 30
0.0
 10
111.6200601934492
 20
-167.140874524187
 30
0.0
 10
111.6018011873773
 20
-167.009616386199
 30
0.0
 10
111.5849202194996
 20
-166.9017848975107
 30
0.0
 10
111.5849202194996
 20
-166.9017848975107
 30
0.0
 10
111.7795681144162
 20
-166.9017848975107
 30
0.0
 10
111.7795681144162
 20
-166.9017848975107
 30
0.0
 10
111.8274549416612
 20
-167.1005669070096
 30
0.0
 10
111.9387315258348
 20
-167.1301947281827
 30
0.0
 10
112.0200357792867
 20
-167.1301947281827
 30
0.0
 10
112.142336669013
 20
-167.1301947281827
 30
0.0
 10
112.2756618642922
 20
-167.030631468659
 30
0.0
 10
112.2756618642922
 20
-166.7980875234047
 30
0.0
 10
112.2756618642922
 20
-166.5421169288506
 30
0.0
 10
112.1182210006163
 20
-166.4721814905
 30
0.0
 10
112.0128010787676
 20
-166.4721814905
 30
0.0
 10
111.9848958053371
 20
-166.4721814905
 30
0.0
 10
111.8608723678681
 20
-166.4721814905
 30
0.0
 10
111.7830132099015
 20
-166.6013725711969
 30
0.0
 10
111.7830132099015
 20
-166.6013725711969
 30
0.0
 10
111.6293619512593
 20
-166.582424546028
 30
0.0
 10
111.6293619512593
 20
-166.582424546028
 30
0.0
 10
111.6293619512593
 20
-166.582424546028
 30
0.0
 10
111.734781873108
 20
-165.7359645853021
 30
0.0
 10
111.734781873108
 20
-165.7359645853021
 30
0.0
 10
111.734781873108
 20
-165.7359645853021
 30
0.0
 10
112.4162217600904
 20
-165.7359645853021
 30
0.0
 10
112.4162217600904
 20
-165.7359645853021
 30
0.0
 10
112.4162217600904
 20
-165.7359645853021
 30
0.0
 10
112.4162217600904
 20
-165.9306124802187
 30
0.0
 10
112.4162217600904
 20
-165.9306124802187
 30
0.0
 10
112.4162217600904
 20
-165.9306124802187
 30
0.0
 10
111.8774088261973
 20
-165.9306124802187
 30
0.0
 10
111.8774088261973
 20
-165.9306124802187
 30
0.0
 10
111.8774088261973
 20
-165.9306124802187
 30
0.0
 10
111.8202202411422
 20
-166.3536702058074
 30
0.0
 10
111.8202202411422
 20
-166.3536702058074
 30
0.0
 10
111.8739637307121
 20
-166.319908270052
 30
0.0
 10
111.9459662263538
 20
-166.2796006528746
 30
0.0
 10
112.0496636004598
 20
-166.2796006528746
 30
0.0
 10
112.2718722592584
 20
-166.2796006528746
 30
0.0
 10
112.4792670074705
 20
-166.4659803186266
 30
0.0
 10
112.4792670074705
 20
-166.7791394982358
 30
0.0
 10
112.4792670074705
 20
-167.0964327924273
 30
0.0
 10
112.2832410743598
 20
-167.3310437949728
 30
0.0
 10
112.018313231544
 20
-167.3310437949728
 30
0.0
  0
HATCH
  5
E3
330
D2
100
AcDbEntity
  8
_U+30EC_U+30A4_U+30E4_U+30FC 1
 62
   179
420
  2234388
100
AcDbHatch
 10
0.0
 20
0.0
 30
0.0
210
0.0
220
0.0
230
1.0
  2
SOLID
 70
     1
 71
     0
 91
        1
 92
        1
 93
        1
 72
     4
 94
        3
 73
     0
 74
     1
 95
       53
 96
       49
 40
0.0
 40
0.0
 40
0.0
 40
0.0
 40
1.0
 40
1.0
 40
1.0
 40
2.0
 40
2.0
 40
2.0
 40
3.0
 40
3.0
 40
3.0
 40
4.0
 40
4.0
 40
4.0
 40
5.0
 40
5.0
 40
5.0
 40
6.0
 40
6.0
 40
6.0
 40
7.0
 40
7.0
 40
7.0
 40
8.0
 40
8.0
 40
8.0
 40
9.0
 40
9.0
 40
9.0
 40
10.0
 40
10.0
 40
10.0
 40
11.0
 40
11.0
 40
11.0
 40
12.0
 40
12.0
 40
12.0
 40
13.0
 40
13.0
 40
13.0
 40
14.0
 40
14.0
 40
14.0
 40
15.0
 40
15.0
 40
15.0
 40
16.0
 40
16.0
 40
16.0
 40
16.0
 10
112.018313231544
 20
-167.3310437949728
 10
111.9497558313876
 20
-167.3310437949728
 10
111.8608723678681
 20
-167.3141628270951
 10
111.7719889043487
 20
-167.2507730701665
 10
111.6200601934492
 20
-167.140874524187
 10
111.6018011873773
 20
-167.009616386199
 10
111.5849202194996
 20
-166.9017848975107
 10
111.5849202194996
 20
-166.9017848975107
 10
111.7795681144162
 20
-166.9017848975107
 10
111.7795681144162
 20
-166.9017848975107
 10
111.8274549416612
 20
-167.1005669070096
 10
111.9387315258348
 20
-167.1301947281827
 10
112.0200357792867
 20
-167.1301947281827
 10
112.142336669013
 20
-167.1301947281827
 10
112.2756618642922
 20
-167.030631468659
 10
112.2756618642922
 20
-166.7980875234047
 10
112.2756618642922
 20
-166.5421169288506
 10
112.1182210006163
 20
-166.4721814905
 10
112.0128010787676
 20
-166.4721814905
 10
111.9848958053371
 20
-166.4721814905
 10
111.8608723678681
 20
-166.4721814905
 10
111.7830132099015
 20
-166.6013725711969
 10
111.7830132099015
 20
-166.6013725711969
 10
111.6293619512593
 20
-166.582424546028
 10
111.6293619512593
 20
-166.582424546028
 10
111.6293619512593
 20
-166.582424546028
 10
111.734781873108
 20
-165.7359645853021
 10
111.734781873108
 20
-165.7359645853021
 10
111.734781873108
 20
-165.7359645853021
 10
112.4162217600904
 20
-165.7359645853021
 10
112.4162217600904
 20
-165.7359645853021
 10
112.4162217600904
 20
-165.7359645853021
 10
112.4162217600904
 20
-165.9306124802187
 10
112.4162217600904
 20
-165.9306124802187
 10
112.4162217600904
 20
-165.9306124802187
 10
111.8774088261973
 20
-165.9306124802187
 10
111.8774088261973
 20
-165.9306124802187
 10
111.8774088261973
 20
-165.9306124802187
 10
111.8202202411422
 20
-166.3536702058074
 10
111.8202202411422
 20
-166.3536702058074
 10
111.8739637307121
 20
-166.319908270052
 10
111.9459662263538
 20
-166.2796006528746
 10
112.0496636004598
 20
-166.2796006528746
 10
112.2718722592584
 20
-166.2796006528746
 10
112.4792670074705
 20
-166.4659803186266
 10
112.4792670074705
 20
-166.7791394982358
 10
112.4792670074705
 20
-167.0964327924273
 10
112.2832410743598
 20
-167.3310437949728
 10
112.018313231544
 20
-167.3310437949728
 97
        0
 97
        0
 75
     2
 76
     1
 98
        0
  0
ENDBLK
  5
D5
330
D2
100
AcDbEntity
  8
0
100
AcDbBlockEnd
  0
ENDSEC
  0
SECTION
  2
ENTITIES
  0
INSERT
  5
42
330
1F
100
AcDbEntity
  8
_U+30EC_U+30A4_U+30E4_U+30FC 1
100
AcDbBlockReference
  2
block 2
 10
0.0
 20
0.0
 30
0.0
  0
INSERT
  5
4A
330
1F
100
AcDbEntity
  8
_U+30EC_U+30A4_U+30E4_U+30FC 1
100
AcDbBlockReference
  2
block 3
 10
0.0
 20
0.0
 30
0.0
  0
INSERT
  5
86
330
1F
100
AcDbEntity
  8
_U+30EC_U+30A4_U+30E4_U+30FC 1
100
AcDbBlockReference
  2
block 4
 10
0.0
 20
0.0
 30
0.0
  0
INSERT
  5
99
330
1F
100
AcDbEntity
  8
_U+30EC_U+30A4_U+30E4_U+30FC 1
100
AcDbBlockReference
  2
block 5
 10
0.0
 20
0.0
 30
0.0
  0
INSERT
  5
A9
330
1F
100
AcDbEntity
  8
_U+30EC_U+30A4_U+30E4_U+30FC 1
100
AcDbBlockReference
  2
block 6
 10
0.0
 20
0.0
 30
0.0
  0
INSERT
  5
B1
330
1F
100
AcDbEntity
  8
_U+30EC_U+30A4_U+30E4_U+30FC 1
100
AcDbBlockReference
  2
block 7
 10
0.0
 20
0.0
 30
0.0
  0
INSERT
  5
B9
330
1F
100
AcDbEntity
  8
_U+30EC_U+30A4_U+30E4_U+30FC 1
100
AcDbBlockReference
  2
block 8
 10
0.0
 20
0.0
 30
0.0
  0
INSERT
  5
C1
330
1F
100
AcDbEntity
  8
_U+30EC_U+30A4_U+30E4_U+30FC 1
100
AcDbBlockReference
  2
block 9
 10
0.0
 20
0.0
 30
0.0
  0
INSERT
  5
D3
330
1F
100
AcDbEntity
  8
_U+30EC_U+30A4_U+30E4_U+30FC 1
100
AcDbBlockReference
  2
block 10
 10
0.0
 20
0.0
 30
0.0
  0
POLYLINE
  5
E4
330
1F
100
AcDbEntity
  8
_U+30EC_U+30A4_U+30E4_U+30FC 1
 62
   179
420
  2234388
370
    18
100
AcDb2dPolyline
 66
     1
 10
0.0
 20
0.0
 30
0.0
  0
VERTEX
  5
E5
330
E4
100
AcDbEntity
  8
_U+30EC_U+30A4_U+30E4_U+30FC 1
 62
   179
420
  2234388
370
    18
100
AcDbVertex
100
AcDb2dVertex
 10
85.14355398804571
 20
-146.0631989855654
 30
0.0
  0
VERTEX
  5
E6
330
E4
100
AcDbEntity
  8
_U+30EC_U+30A4_U+30E4_U+30FC 1
 62
   179
420
  2234388
370
    18
100
AcDbVertex
100
AcDb2dVertex
 10
83.80828880757983
 20
-146.0631989855654
 30
0.0
  0
VERTEX
  5
E7
330
E4
100
AcDbEntity
  8
_U+30EC_U+30A4_U+30E4_U+30FC 1
 62
   179
420
  2234388
370
    18
100
AcDbVertex
100
AcDb2dVertex
 10
83.80828880757983
 20
-142.8511642098927
 30
0.0
  0
VERTEX
  5
E8
330
E4
100
AcDbEntity
  8
_U+30EC_U+30A4_U+30E4_U+30FC 1
 62
   179
420
  2234388
370
    18
100
AcDbVertex
100
AcDb2dVertex
 10
93.68430097145198
 20
-142.8511642098927
 30
0.0
  0
VERTEX
  5
E9
330
E4
100
AcDbEntity
  8
_U+30EC_U+30A4_U+30E4_U+30FC 1
 62
   179
420
  2234388
370
    18
100
AcDbVertex
100
AcDb2dVertex
 10
93.68430097145198
 20
-144.2220538308607
 30
0.0
  0
VERTEX
  5
EA
330
E4
100
AcDbEntity
  8
_U+30EC_U+30A4_U+30E4_U+30FC 1
 62
   179
420
  2234388
370
    18
100
AcDbVertex
100
AcDb2dVertex
 10
95.15044748258718
 20
-144.2220538308607
 30
0.0
  0
VERTEX
  5
EB
330
E4
100
AcDbEntity
  8
_U+30EC_U+30A4_U+30E4_U+30FC 1
 62
   179
420
  2234388
370
    18
100
AcDbVertex
100
AcDb2dVertex
 10
95.15044748258718
 20
-145.0366251265013
 30
0.0
  0
VERTEX
  5
EC
330
E4
100
AcDbEntity
  8
_U+30EC_U+30A4_U+30E4_U+30FC 1
 62
   179
420
  2234388
370
    18
100
AcDbVertex
100
AcDb2dVertex
 10
93.68430097145198
 20
-145.0366251265013
 30
0.0
  0
VERTEX
  5
ED
330
E4
100
AcDbEntity
  8
_U+30EC_U+30A4_U+30E4_U+30FC 1
 62
   179
420
  2234388
370
    18
100
AcDbVertex
100
AcDb2dVertex
 10
93.68430097145198
 20
-157.6784137755489
 30
0.0
  0
VERTEX
  5
EE
330
E4
100
AcDbEntity
  8
_U+30EC_U+30A4_U+30E4_U+30FC 1
 62
   179
420
  2234388
370
    18
100
AcDbVertex
100
AcDb2dVertex
 10
99.27406528958036
 20
-157.6784137755489
 30
0.0
  0
VERTEX
  5
EF
330
E4
100
AcDbEntity
  8
_U+30EC_U+30A4_U+30E4_U+30FC 1
 62
   179
420
  2234388
370
    18
100
AcDbVertex
100
AcDb2dVertex
 10
99.8639087003487
 20
-158.1260824020104
 30
0.0
  0
VERTEX
  5
F0
330
E4
100
AcDbEntity
  8
_U+30EC_U+30A4_U+30E4_U+30FC 1
 62
   179
420
  2234388
370
    18
100
AcDbVertex
100
AcDb2dVertex
 10
100.3186397725552
 20
-157.6784137755489
 30
0.0
  0
VERTEX
  5
F1
330
E4
100
AcDbEntity
  8
_U+30EC_U+30A4_U+30E4_U+30FC 1
 62
   179
420
  2234388
370
    18
100
AcDbVertex
100
AcDb2dVertex
 10
105.6843867567549
 20
-157.6784137755489
 30
0.0
  0
VERTEX
  5
F2
330
E4
100
AcDbEntity
  8
_U+30EC_U+30A4_U+30E4_U+30FC 1
 62
   179
420
  2234388
370
    18
100
AcDbVertex
100
AcDb2dVertex
 10
105.6843867567549
 20
-142.8511642098927
 30
0.0
  0
VERTEX
  5
F3
330
E4
100
AcDbEntity
  8
_U+30EC_U+30A4_U+30E4_U+30FC 1
 62
   179
420
  2234388
370
    18
100
AcDbVertex
100
AcDb2dVertex
 10
115.8091132828153
 20
-142.8511642098927
 30
0.0
  0
VERTEX
  5
F4
330
E4
100
AcDbEntity
  8
_U+30EC_U+30A4_U+30E4_U+30FC 1
 62
   179
420
  2234388
370
    18
100
AcDbVertex
100
AcDb2dVertex
 10
115.8091132828153
 20
-146.0631989855654
 30
0.0
  0
VERTEX
  5
F5
330
E4
100
AcDbEntity
  8
_U+30EC_U+30A4_U+30E4_U+30FC 1
 62
   179
420
  2234388
370
    18
100
AcDbVertex
100
AcDb2dVertex
 10
114.5345248465834
 20
-146.0631989855654
 30
0.0
  0
VERTEX
  5
F6
330
E4
100
AcDbEntity
  8
_U+30EC_U+30A4_U+30E4_U+30FC 1
 62
   179
420
  2234388
370
    18
100
AcDbVertex
100
AcDb2dVertex
 10
114.5345248465834
 20
-144.2220538308607
 30
0.0
  0
VERTEX
  5
F7
330
E4
100
AcDbEntity
  8
_U+30EC_U+30A4_U+30E4_U+30FC 1
 62
   179
420
  2234388
370
    18
100
AcDbVertex
100
AcDb2dVertex
 10
107.2281448096188
 20
-144.2220538308607
 30
0.0
  0
VERTEX
  5
F8
330
E4
100
AcDbEntity
  8
_U+30EC_U+30A4_U+30E4_U+30FC 1
 62
   179
420
  2234388
370
    18
100
AcDbVertex
100
AcDb2dVertex
 10
107.2281448096188
 20
-159.0507137324813
 30
0.0
  0
VERTEX
  5
F9
330
E4
100
AcDbEntity
  8
_U+30EC_U+30A4_U+30E4_U+30FC 1
 62
   179
420
  2234388
370
    18
100
AcDbVertex
100
AcDb2dVertex
 10
92.22133040771725
 20
-159.0507137324813
 30
0.0
  0
VERTEX
  5
FA
330
E4
100
AcDbEntity
  8
_U+30EC_U+30A4_U+30E4_U+30FC 1
 62
   179
420
  2234388
370
    18
100
AcDbVertex
100
AcDb2dVertex
 10
92.22133040771725
 20
-144.2220538308607
 30
0.0
  0
VERTEX
  5
FB
330
E4
100
AcDbEntity
  8
_U+30EC_U+30A4_U+30E4_U+30FC 1
 62
   179
420
  2234388
370
    18
100
AcDbVertex
100
AcDb2dVertex
 10
85.14355398804571
 20
-144.2220538308607
 30
0.0
  0
VERTEX
  5
FC
330
E4
100
AcDbEntity
  8
_U+30EC_U+30A4_U+30E4_U+30FC 1
 62
   179
420
  2234388
370
    18
100
AcDbVertex
100
AcDb2dVertex
 10
85.14355398804571
 20
-146.0631989855654
 30
0.0
  0
SEQEND
  5
FD
330
E4
100
AcDbEntity
  8
_U+30EC_U+30A4_U+30E4_U+30FC 1
 62
   179
420
  2234388
370
    18
  0
SPLINE
  5
FE
330
1F
100
AcDbEntity
  8
_U+30EC_U+30A4_U+30E4_U+30FC 1
 62
   179
420
  2234388
370
    18
100
AcDbSpline
210
0.0
220
0.0
230
1.0
 70
    11
 71
     3
 72
    38
 73
    34
 74
     0
 42
0.0000000001
 43
0.0000000001
 12
1.0
 22
0.0
 32
0.0
 13
1.0
 23
0.0
 33
0.0
 40
0.0
 40
0.0
 40
0.0
 40
0.0
 40
1.0
 40
1.0
 40
1.0
 40
2.0
 40
2.0
 40
2.0
 40
3.0
 40
3.0
 40
3.0
 40
4.0
 40
4.0
 40
4.0
 40
5.0
 40
5.0
 40
5.0
 40
6.0
 40
6.0
 40
6.0
 40
7.0
 40
7.0
 40
7.0
 40
8.0
 40
8.0
 40
8.0
 40
9.0
 40
9.0
 40
9.0
 40
10.0
 40
10.0
 40
10.0
 40
11.0
 40
11.0
 40
11.0
 40
11.0
 10
95.16022294102657
 20
-143.9754603555806
 30
0.0
 10
95.16022294102657
 20
-143.9754603555806
 30
0.0
 10
94.3816421272835
 20
-143.9754603555806
 30
0.0
 10
94.3816421272835
 20
-143.9754603555806
 30
0.0
 10
94.3816421272835
 20
-143.9754603555806
 30
0.0
 10
94.3816421272835
 20
-142.8508089344208
 30
0.0
 10
94.3816421272835
 20
-142.8508089344208
 30
0.0
 10
94.3816421272835
 20
-142.8508089344208
 30
0.0
 10
104.8862980898266
 20
-142.8508089344208
 30
0.0
 10
104.8862980898266
 20
-142.8508089344208
 30
0.0
 10
104.8862980898266
 20
-142.8508089344208
 30
0.0
 10
104.8862980898266
 20
-144.2220538308607
 30
0.0
 10
104.8862980898266
 20
-144.2220538308607
 30
0.0
 10
104.8862980898266
 20
-144.2220538308607
 30
0.0
 10
96.42951454294992
 20
-144.2220538308607
 30
0.0
 10
96.42951454294992
 20
-144.2220538308607
 30
0.0
 10
96.42951454294992
 20
-144.2220538308607
 30
0.0
 10
96.42951454294992
 20
-146.5454477579603
 30
0.0
 10
96.42951454294992
 20
-146.5454477579603
 30
0.0
 10
96.42951454294992
 20
-146.5454477579603
 30
0.0
 10
95.83542935836536
 20
-146.6516428262931
 30
0.0
 10
95.44702714017362
 20
-146.3510690111282
 30
0.0
 10
95.05826964650996
 20
-146.0522715733231
 30
0.0
 10
94.96442309230707
 20
-145.6331649416191
 30
0.0
 10
94.96442309230707
 20
-145.6331649416191
 30
0.0
 10
94.96442309230707
 20
-145.6331649416191
 30
0.0
 10
94.90269128758108
 20
-145.035214790537
 30
0.0
 10
94.90269128758108
 20
-145.035214790537
 30
0.0
 10
94.90269128758108
 20
-145.035214790537
 30
0.0
 10
95.16022294102657
 20
-145.035214790537
 30
0.0
 10
95.16022294102657
 20
-145.035214790537
 30
0.0
 10
95.16022294102657
 20
-145.035214790537
 30
0.0
 10
95.16022294102657
 20
-143.9754603555806
 30
0.0
 10
95.16022294102657
 20
-143.9754603555806
 30
0.0
  0
POLYLINE
  5
FF
330
1F
100
AcDbEntity
  8
_U+30EC_U+30A4_U+30E4_U+30FC 1
370
     0
100
AcDb2dPolyline
 66
     1
 10
0.0
 20
0.0
 30
0.0
  0
VERTEX
  5
100
330
FF
100
AcDbEntity
  8
_U+30EC_U+30A4_U+30E4_U+30FC 1
370
     0
100
AcDbVertex
100
AcDb2dVertex
 10
107.3605118377161
 20
-143.3399694296327
 30
0.0
  0
VERTEX
  5
101
330
FF
100
AcDbEntity
  8
_U+30EC_U+30A4_U+30E4_U+30FC 1
370
     0
100
AcDbVertex
100
AcDb2dVertex
 10
103.921983565735
 20
-143.3399694296327
 30
0.0
  0
VERTEX
  5
102
330
FF
100
AcDbEntity
  8
_U+30EC_U+30A4_U+30E4_U+30FC 1
370
     0
100
AcDbVertex
100
AcDb2dVertex
 10
103.921983565735
 20
-142.850668977417
 30
0.0
  0
VERTEX
  5
103
330
FF
100
AcDbEntity
  8
_U+30EC_U+30A4_U+30E4_U+30FC 1
370
     0
100
AcDbVertex
100
AcDb2dVertex
 10
107.3605118377161
 20
-142.850668977417
 30
0.0
  0
VERTEX
  5
104
330
FF
100
AcDbEntity
  8
_U+30EC_U+30A4_U+30E4_U+30FC 1
370
     0
100
AcDbVertex
100
AcDb2dVertex
 10
107.3605118377161
 20
-143.3399694296327
 30
0.0
  0
SEQEND
  5
106
330
FF
100
AcDbEntity
  8
_U+30EC_U+30A4_U+30E4_U+30FC 1
370
     0
  0
HATCH
  5
105
330
1F
100
AcDbEntity
  8
_U+30EC_U+30A4_U+30E4_U+30FC 1
 62
     7
420
 16711422
100
AcDbHatch
 10
0.0
 20
0.0
 30
0.0
210
0.0
220
0.0
230
1.0
  2
SOLID
 70
     1
 71
     0
 91
        1
 92
        1
 93
        4
 72
     1
 10
107.3605118377161
 20
-143.3399694296327
 11
103.921983565735
 21
-143.3399694296327
 72
     1
 10
103.921983565735
 20
-143.3399694296327
 11
103.921983565735
 21
-142.850668977417
 72
     1
 10
103.921983565735
 20
-142.850668977417
 11
107.3605118377161
 21
-142.850668977417
 72
     1
 10
107.3605118377161
 20
-142.850668977417
 11
107.3605118377161
 21
-143.3399694296327
 97
        0
 75
     2
 76
     1
 98
        0
  0
POLYLINE
  5
107
330
1F
100
AcDbEntity
  8
_U+30EC_U+30A4_U+30E4_U+30FC 1
 62
   179
420
  2234388
370
    18
100
AcDb2dPolyline
 66
     1
 10
0.0
 20
0.0
 30
0.0
  0
VERTEX
  5
108
330
107
100
AcDbEntity
  8
_U+30EC_U+30A4_U+30E4_U+30FC 1
 62
   179
420
  2234388
370
    18
100
AcDbVertex
100
AcDb2dVertex
 10
107.3604687740225
 20
-143.3401093866368
 30
0.0
  0
VERTEX
  5
109
330
107
100
AcDbEntity
  8
_U+30EC_U+30A4_U+30E4_U+30FC 1
 62
   179
420
  2234388
370
    18
100
AcDbVertex
100
AcDb2dVertex
 10
103.9219405020414
 20
-143.3401093866368
 30
0.0
  0
VERTEX
  5
10A
330
107
100
AcDbEntity
  8
_U+30EC_U+30A4_U+30E4_U+30FC 1
 62
   179
420
  2234388
370
    18
100
AcDbVertex
100
AcDb2dVertex
 10
103.9219405020414
 20
-142.8508089344208
 30
0.0
  0
VERTEX
  5
10B
330
107
100
AcDbEntity
  8
_U+30EC_U+30A4_U+30E4_U+30FC 1
 62
   179
420
  2234388
370
    18
100
AcDbVertex
100
AcDb2dVertex
 10
107.3604687740225
 20
-142.8508089344208
 30
0.0
  0
VERTEX
  5
10C
330
107
100
AcDbEntity
  8
_U+30EC_U+30A4_U+30E4_U+30FC 1
 62
   179
420
  2234388
370
    18
100
AcDbVertex
100
AcDb2dVertex
 10
107.3604687740225
 20
-143.3401093866368
 30
0.0
  0
SEQEND
  5
10D
330
107
100
AcDbEntity
  8
_U+30EC_U+30A4_U+30E4_U+30FC 1
 62
   179
420
  2234388
370
    18
  0
SPLINE
  5
10E
330
1F
100
AcDbEntity
  8
_U+30EC_U+30A4_U+30E4_U+30FC 1
370
     0
100
AcDbSpline
210
0.0
220
0.0
230
1.0
 70
    11
 71
     3
 72
    17
 73
    13
 74
     0
 42
0.0000000001
 43
0.0000000001
 12
1.0
 22
0.0
 32
0.0
 13
1.0
 23
0.0
 33
0.0
 40
0.0
 40
0.0
 40
0.0
 40
0.0
 40
1.0
 40
1.0
 40
1.0
 40
2.0
 40
2.0
 40
2.0
 40
3.0
 40
3.0
 40
3.0
 40
4.0
 40
4.0
 40
4.0
 40
4.0
 10
83.68421154049388
 20
-132.1177862048992
 30
0.0
 10
83.79462685079613
 20
-132.1177862048992
 30
0.0
 10
83.88423163118281
 20
-132.0281814245125
 30
0.0
 10
83.88423163118281
 20
-131.9177661142102
 30
0.0
 10
83.88423163118281
 20
-131.807350803908
 30
0.0
 10
83.79462685079613
 20
-131.7173907480494
 30
0.0
 10
83.68421154049388
 20
-131.7173907480494
 30
0.0
 10
83.57378546426823
 20
-131.7173907480494
 30
0.0
 10
83.48418068388189
 20
-131.807350803908
 30
0.0
 10
83.48418068388189
 20
-131.9177661142102
 30
0.0
 10
83.48418068388189
 20
-132.0281814245125
 30
0.0
 10
83.57378546426823
 20
-132.1177862048992
 30
0.0
 10
83.68421154049388
 20
-132.1177862048992
 30
0.0
  0
HATCH
  5
10F
330
1F
100
AcDbEntity
  8
_U+30EC_U+30A4_U+30E4_U+30FC 1
 62
   179
420
  2234388
100
AcDbHatch
 10
0.0
 20
0.0
 30
0.0
210
0.0
220
0.0
230
1.0
  2
SOLID
 70
     1
 71
     0
 91
        1
 92
        1
 93
        2
 72
     4
 94
        3
 73
     0
 74
     0
 95
       17
 96
       13
 40
0.0
 40
0.0
 40
0.0
 40
0.0
 40
0.3527777776895833
 40
0.3527777776895833
 40
0.3527777776895833
 40
0.7055555553791667
 40
0.7055555553791667
 40
0.7055555553791667
 40
1.05833333306875
 40
1.05833333306875
 40
1.05833333306875
 40
1.411111110758333
 40
1.411111110758333
 40
1.411111110758333
 40
1.411111110758333
 10
83.68421154049388
 20
-132.1177862048992
 10
83.79462685079613
 20
-132.1177862048992
 10
83.88423163118281
 20
-132.0281814245125
 10
83.88423163118281
 20
-131.9177661142102
 10
83.88423163118281
 20
-131.807350803908
 10
83.79462685079613
 20
-131.7173907480494
 10
83.68421154049388
 20
-131.7173907480494
 10
83.57378546426823
 20
-131.7173907480494
 10
83.48418068388189
 20
-131.807350803908
 10
83.48418068388189
 20
-131.9177661142102
 10
83.48418068388189
 20
-132.0281814245125
 10
83.57378546426823
 20
-132.1177862048992
 10
83.68421154049388
 20
-132.1177862048992
 97
        0
 72
     1
 10
83.68421154049388
 20
-132.1177862048992
 11
83.68421154049388
 21
-132.1177862048992
 97
        0
 75
     2
 76
     1
 98
        0
  0
SPLINE
  5
110
330
1F
100
AcDbEntity
  8
_U+30EC_U+30A4_U+30E4_U+30FC 1
370
     0
100
AcDbSpline
210
0.0
220
0.0
230
1.0
 70
    11
 71
     3
 72
    17
 73
    13
 74
     0
 42
0.0000000001
 43
0.0000000001
 12
1.0
 22
0.0
 32
0.0
 13
1.0
 23
0.0
 33
0.0
 40
0.0
 40
0.0
 40
0.0
 40
0.0
 40
1.0
 40
1.0
 40
1.0
 40
2.0
 40
2.0
 40
2.0
 40
3.0
 40
3.0
 40
3.0
 40
4.0
 40
4.0
 40
4.0
 40
4.0
 10
115.6850360157294
 20
-132.1177862048992
 30
0.0
 10
115.7954513260316
 20
-132.1177862048992
 30
0.0
 10
115.8850561064183
 20
-132.0281814245125
 30
0.0
 10
115.8850561064183
 20
-131.9177661142102
 30
0.0
 10
115.8850561064183
 20
-131.807350803908
 30
0.0
 10
115.7954513260316
 20
-131.7173907480494
 30
0.0
 10
115.6850360157294
 20
-131.7173907480494
 30
0.0
 10
115.5746099395037
 20
-131.7173907480494
 30
0.0
 10
115.485360434589
 20
-131.807350803908
 30
0.0
 10
115.485360434589
 20
-131.9177661142102
 30
0.0
 10
115.485360434589
 20
-132.0281814245125
 30
0.0
 10
115.5746099395037
 20
-132.1177862048992
 30
0.0
 10
115.6850360157294
 20
-132.1177862048992
 30
0.0
  0
HATCH
  5
111
330
1F
100
AcDbEntity
  8
_U+30EC_U+30A4_U+30E4_U+30FC 1
 62
   179
420
  2234388
100
AcDbHatch
 10
0.0
 20
0.0
 30
0.0
210
0.0
220
0.0
230
1.0
  2
SOLID
 70
     1
 71
     0
 91
        1
 92
        1
 93
        2
 72
     4
 94
        3
 73
     0
 74
     0
 95
       17
 96
       13
 40
0.0
 40
0.0
 40
0.0
 40
0.0
 40
0.3527777776895833
 40
0.3527777776895833
 40
0.3527777776895833
 40
0.7055555553791667
 40
0.7055555553791667
 40
0.7055555553791667
 40
1.05833333306875
 40
1.05833333306875
 40
1.05833333306875
 40
1.411111110758333
 40
1.411111110758333
 40
1.411111110758333
 40
1.411111110758333
 10
115.6850360157294
 20
-132.1177862048992
 10
115.7954513260316
 20
-132.1177862048992
 10
115.8850561064183
 20
-132.0281814245125
 10
115.8850561064183
 20
-131.9177661142102
 10
115.8850561064183
 20
-131.807350803908
 10
115.7954513260316
 20
-131.7173907480494
 10
115.6850360157294
 20
-131.7173907480494
 10
115.5746099395037
 20
-131.7173907480494
 10
115.485360434589
 20
-131.807350803908
 10
115.485360434589
 20
-131.9177661142102
 10
115.485360434589
 20
-132.0281814245125
 10
115.5746099395037
 20
-132.1177862048992
 10
115.6850360157294
 20
-132.1177862048992
 97
        0
 72
     1
 10
115.6850360157294
 20
-132.1177862048992
 11
115.6850360157294
 21
-132.1177862048992
 97
        0
 75
     2
 76
     1
 98
        0
  0
SPLINE
  5
112
330
1F
100
AcDbEntity
  8
_U+30EC_U+30A4_U+30E4_U+30FC 1
370
     0
100
AcDbSpline
210
0.0
220
0.0
230
1.0
 70
    11
 71
     3
 72
    17
 73
    13
 74
     0
 42
0.0000000001
 43
0.0000000001
 12
1.0
 22
0.0
 32
0.0
 13
1.0
 23
0.0
 33
0.0
 40
0.0
 40
0.0
 40
0.0
 40
0.0
 40
1.0
 40
1.0
 40
1.0
 40
2.0
 40
2.0
 40
2.0
 40
3.0
 40
3.0
 40
3.0
 40
4.0
 40
4.0
 40
4.0
 40
4.0
 10
105.7011815972455
 20
-137.0511737057003
 30
0.0
 10
105.8115969075478
 20
-137.0511737057003
 30
0.0
 10
105.9008464124625
 20
-136.9615689253137
 30
0.0
 10
105.9008464124625
 20
-136.8511536150114
 30
0.0
 10
105.9008464124625
 20
-136.7407383047091
 30
0.0
 10
105.8115969075478
 20
-136.6507782488505
 30
0.0
 10
105.7011815972455
 20
-136.6507782488505
 30
0.0
 10
105.5907555210198
 20
-136.6507782488505
 30
0.0
 10
105.5011507406332
 20
-136.7407383047091
 30
0.0
 10
105.5011507406332
 20
-136.8511536150114
 30
0.0
 10
105.5011507406332
 20
-136.9615689253137
 30
0.0
 10
105.5907555210198
 20
-137.0511737057003
 30
0.0
 10
105.7011815972455
 20
-137.0511737057003
 30
0.0
  0
HATCH
  5
113
330
1F
100
AcDbEntity
  8
_U+30EC_U+30A4_U+30E4_U+30FC 1
 62
   179
420
  2234388
100
AcDbHatch
 10
0.0
 20
0.0
 30
0.0
210
0.0
220
0.0
230
1.0
  2
SOLID
 70
     1
 71
     0
 91
        1
 92
        1
 93
        2
 72
     4
 94
        3
 73
     0
 74
     0
 95
       17
 96
       13
 40
0.0
 40
0.0
 40
0.0
 40
0.0
 40
0.3527777776895833
 40
0.3527777776895833
 40
0.3527777776895833
 40
0.7055555553791667
 40
0.7055555553791667
 40
0.7055555553791667
 40
1.05833333306875
 40
1.05833333306875
 40
1.05833333306875
 40
1.411111110758333
 40
1.411111110758333
 40
1.411111110758333
 40
1.411111110758333
 10
105.7011815972455
 20
-137.0511737057003
 10
105.8115969075478
 20
-137.0511737057003
 10
105.9008464124625
 20
-136.9615689253137
 10
105.9008464124625
 20
-136.8511536150114
 10
105.9008464124625
 20
-136.7407383047091
 10
105.8115969075478
 20
-136.6507782488505
 10
105.7011815972455
 20
-136.6507782488505
 10
105.5907555210198
 20
-136.6507782488505
 10
105.5011507406332
 20
-136.7407383047091
 10
105.5011507406332
 20
-136.8511536150114
 10
105.5011507406332
 20
-136.9615689253137
 10
105.5907555210198
 20
-137.0511737057003
 10
105.7011815972455
 20
-137.0511737057003
 97
        0
 72
     1
 10
105.7011815972455
 20
-137.0511737057003
 11
105.7011815972455
 21
-137.0511737057003
 97
        0
 75
     2
 76
     1
 98
        0
  0
SPLINE
  5
114
330
1F
100
AcDbEntity
  8
_U+30EC_U+30A4_U+30E4_U+30FC 1
370
     0
100
AcDbSpline
210
0.0
220
0.0
230
1.0
 70
    11
 71
     3
 72
    17
 73
    13
 74
     0
 42
0.0000000001
 43
0.0000000001
 12
1.0
 22
0.0
 32
0.0
 13
1.0
 23
0.0
 33
0.0
 40
0.0
 40
0.0
 40
0.0
 40
0.0
 40
1.0
 40
1.0
 40
1.0
 40
2.0
 40
2.0
 40
2.0
 40
3.0
 40
3.0
 40
3.0
 40
4.0
 40
4.0
 40
4.0
 40
4.0
 10
121.6850466106106
 20
-143.0511520028114
 30
0.0
 10
121.7954619209129
 20
-143.0511520028114
 30
0.0
 10
121.8847114258277
 20
-142.9615472224248
 30
0.0
 10
121.8847114258277
 20
-142.8511319121225
 30
0.0
 10
121.8847114258277
 20
-142.7407166018203
 30
0.0
 10
121.7954619209129
 20
-142.6507565459617
 30
0.0
 10
121.6850466106106
 20
-142.6507565459617
 30
0.0
 10
121.574620534385
 20
-142.6507565459617
 30
0.0
 10
121.4850157539983
 20
-142.7407166018203
 30
0.0
 10
121.4850157539983
 20
-142.8511319121225
 30
0.0
 10
121.4850157539983
 20
-142.9615472224248
 30
0.0
 10
121.574620534385
 20
-143.0511520028114
 30
0.0
 10
121.6850466106106
 20
-143.0511520028114
 30
0.0
  0
HATCH
  5
115
330
1F
100
AcDbEntity
  8
_U+30EC_U+30A4_U+30E4_U+30FC 1
 62
   179
420
  2234388
100
AcDbHatch
 10
0.0
 20
0.0
 30
0.0
210
0.0
220
0.0
230
1.0
  2
SOLID
 70
     1
 71
     0
 91
        1
 92
        1
 93
        2
 72
     4
 94
        3
 73
     0
 74
     0
 95
       17
 96
       13
 40
0.0
 40
0.0
 40
0.0
 40
0.0
 40
0.3527777776895833
 40
0.3527777776895833
 40
0.3527777776895833
 40
0.7055555553791667
 40
0.7055555553791667
 40
0.7055555553791667
 40
1.05833333306875
 40
1.05833333306875
 40
1.05833333306875
 40
1.411111110758333
 40
1.411111110758333
 40
1.411111110758333
 40
1.411111110758333
 10
121.6850466106106
 20
-143.0511520028114
 10
121.7954619209129
 20
-143.0511520028114
 10
121.8847114258277
 20
-142.9615472224248
 10
121.8847114258277
 20
-142.8511319121225
 10
121.8847114258277
 20
-142.7407166018203
 10
121.7954619209129
 20
-142.6507565459617
 10
121.6850466106106
 20
-142.6507565459617
 10
121.574620534385
 20
-142.6507565459617
 10
121.4850157539983
 20
-142.7407166018203
 10
121.4850157539983
 20
-142.8511319121225
 10
121.4850157539983
 20
-142.9615472224248
 10
121.574620534385
 20
-143.0511520028114
 10
121.6850466106106
 20
-143.0511520028114
 97
        0
 72
     1
 10
121.6850466106106
 20
-143.0511520028114
 11
121.6850466106106
 21
-143.0511520028114
 97
        0
 75
     2
 76
     1
 98
        0
  0
SPLINE
  5
116
330
1F
100
AcDbEntity
  8
_U+30EC_U+30A4_U+30E4_U+30FC 1
370
     0
100
AcDbSpline
210
0.0
220
0.0
230
1.0
 70
    11
 71
     3
 72
    17
 73
    13
 74
     0
 42
0.0000000001
 43
0.0000000001
 12
1.0
 22
0.0
 32
0.0
 13
1.0
 23
0.0
 33
0.0
 40
0.0
 40
0.0
 40
0.0
 40
0.0
 40
1.0
 40
1.0
 40
1.0
 40
2.0
 40
2.0
 40
2.0
 40
3.0
 40
3.0
 40
3.0
 40
4.0
 40
4.0
 40
4.0
 40
4.0
 10
121.6850466106106
 20
-146.2344094652589
 30
0.0
 10
121.7954619209129
 20
-146.2344094652589
 30
0.0
 10
121.8847114258277
 20
-146.1448046848722
 30
0.0
 10
121.8847114258277
 20
-146.03438937457
 30
0.0
 10
121.8847114258277
 20
-145.9239740642677
 30
0.0
 10
121.7954619209129
 20
-145.8340140084091
 30
0.0
 10
121.6850466106106
 20
-145.8340140084091
 30
0.0
 10
121.574620534385
 20
-145.8340140084091
 30
0.0
 10
121.4850157539983
 20
-145.9239740642677
 30
0.0
 10
121.4850157539983
 20
-146.03438937457
 30
0.0
 10
121.4850157539983
 20
-146.1448046848722
 30
0.0
 10
121.574620534385
 20
-146.2344094652589
 30
0.0
 10
121.6850466106106
 20
-146.2344094652589
 30
0.0
  0
HATCH
  5
117
330
1F
100
AcDbEntity
  8
_U+30EC_U+30A4_U+30E4_U+30FC 1
 62
   179
420
  2234388
100
AcDbHatch
 10
0.0
 20
0.0
 30
0.0
210
0.0
220
0.0
230
1.0
  2
SOLID
 70
     1
 71
     0
 91
        1
 92
        1
 93
        2
 72
     4
 94
        3
 73
     0
 74
     0
 95
       17
 96
       13
 40
0.0
 40
0.0
 40
0.0
 40
0.0
 40
0.3527777776895833
 40
0.3527777776895833
 40
0.3527777776895833
 40
0.7055555553791667
 40
0.7055555553791667
 40
0.7055555553791667
 40
1.05833333306875
 40
1.05833333306875
 40
1.05833333306875
 40
1.411111110758333
 40
1.411111110758333
 40
1.411111110758333
 40
1.411111110758333
 10
121.6850466106106
 20
-146.2344094652589
 10
121.7954619209129
 20
-146.2344094652589
 10
121.8847114258277
 20
-146.1448046848722
 10
121.8847114258277
 20
-146.03438937457
 10
121.8847114258277
 20
-145.9239740642677
 10
121.7954619209129
 20
-145.8340140084091
 10
121.6850466106106
 20
-145.8340140084091
 10
121.574620534385
 20
-145.8340140084091
 10
121.4850157539983
 20
-145.9239740642677
 10
121.4850157539983
 20
-146.03438937457
 10
121.4850157539983
 20
-146.1448046848722
 10
121.574620534385
 20
-146.2344094652589
 10
121.6850466106106
 20
-146.2344094652589
 97
        0
 72
     1
 10
121.6850466106106
 20
-146.2344094652589
 11
121.6850466106106
 21
-146.2344094652589
 97
        0
 75
     2
 76
     1
 98
        0
  0
SPLINE
  5
118
330
1F
100
AcDbEntity
  8
_U+30EC_U+30A4_U+30E4_U+30FC 1
370
     0
100
AcDbSpline
210
0.0
220
0.0
230
1.0
 70
    11
 71
     3
 72
    17
 73
    13
 74
     0
 42
0.0000000001
 43
0.0000000001
 12
1.0
 22
0.0
 32
0.0
 13
1.0
 23
0.0
 33
0.0
 40
0.0
 40
0.0
 40
0.0
 40
0.0
 40
1.0
 40
1.0
 40
1.0
 40
2.0
 40
2.0
 40
2.0
 40
3.0
 40
3.0
 40
3.0
 40
4.0
 40
4.0
 40
4.0
 40
4.0
 10
121.6850466106106
 20
-159.2509922053316
 30
0.0
 10
121.7954619209129
 20
-159.2509922053316
 30
0.0
 10
121.8847114258277
 20
-159.1613874249449
 30
0.0
 10
121.8847114258277
 20
-159.0509721146426
 30
0.0
 10
121.8847114258277
 20
-158.9405568043404
 30
0.0
 10
121.7954619209129
 20
-158.8505967484818
 30
0.0
 10
121.6850466106106
 20
-158.8505967484818
 30
0.0
 10
121.574620534385
 20
-158.8505967484818
 30
0.0
 10
121.4850157539983
 20
-158.9405568043404
 30
0.0
 10
121.4850157539983
 20
-159.0509721146426
 30
0.0
 10
121.4850157539983
 20
-159.1613874249449
 30
0.0
 10
121.574620534385
 20
-159.2509922053316
 30
0.0
 10
121.6850466106106
 20
-159.2509922053316
 30
0.0
  0
HATCH
  5
119
330
1F
100
AcDbEntity
  8
_U+30EC_U+30A4_U+30E4_U+30FC 1
 62
   179
420
  2234388
100
AcDbHatch
 10
0.0
 20
0.0
 30
0.0
210
0.0
220
0.0
230
1.0
  2
SOLID
 70
     1
 71
     0
 91
        1
 92
        1
 93
        2
 72
     4
 94
        3
 73
     0
 74
     0
 95
       17
 96
       13
 40
0.0
 40
0.0
 40
0.0
 40
0.0
 40
0.3527777776895833
 40
0.3527777776895833
 40
0.3527777776895833
 40
0.7055555553791667
 40
0.7055555553791667
 40
0.7055555553791667
 40
1.05833333306875
 40
1.05833333306875
 40
1.05833333306875
 40
1.411111110758333
 40
1.411111110758333
 40
1.411111110758333
 40
1.411111110758333
 10
121.6850466106106
 20
-159.2509922053316
 10
121.7954619209129
 20
-159.2509922053316
 10
121.8847114258277
 20
-159.1613874249449
 10
121.8847114258277
 20
-159.0509721146426
 10
121.8847114258277
 20
-158.9405568043404
 10
121.7954619209129
 20
-158.8505967484818
 10
121.6850466106106
 20
-158.8505967484818
 10
121.574620534385
 20
-158.8505967484818
 10
121.4850157539983
 20
-158.9405568043404
 10
121.4850157539983
 20
-159.0509721146426
 10
121.4850157539983
 20
-159.1613874249449
 10
121.574620534385
 20
-159.2509922053316
 10
121.6850466106106
 20
-159.2509922053316
 97
        0
 72
     1
 10
121.6850466106106
 20
-159.2509922053316
 11
121.6850466106106
 21
-159.2509922053316
 97
        0
 75
     2
 76
     1
 98
        0
  0
SPLINE
  5
11A
330
1F
100
AcDbEntity
  8
_U+30EC_U+30A4_U+30E4_U+30FC 1
370
     0
100
AcDbSpline
210
0.0
220
0.0
230
1.0
 70
    11
 71
     3
 72
    17
 73
    13
 74
     0
 42
0.0000000001
 43
0.0000000001
 12
1.0
 22
0.0
 32
0.0
 13
1.0
 23
0.0
 33
0.0
 40
0.0
 40
0.0
 40
0.0
 40
0.0
 40
1.0
 40
1.0
 40
1.0
 40
2.0
 40
2.0
 40
2.0
 40
3.0
 40
3.0
 40
3.0
 40
4.0
 40
4.0
 40
4.0
 40
4.0
 10
126.684536881035
 20
-159.2509922053316
 30
0.0
 10
126.7949521913373
 20
-159.2509922053316
 30
0.0
 10
126.884201696252
 20
-159.1613874249449
 30
0.0
 10
126.884201696252
 20
-159.0509721146426
 30
0.0
 10
126.884201696252
 20
-158.9405568043404
 30
0.0
 10
126.7949521913373
 20
-158.8505967484818
 30
0.0
 10
126.684536881035
 20
-158.8505967484818
 30
0.0
 10
126.574100038886
 20
-158.8505967484818
 30
0.0
 10
126.4845060244227
 20
-158.9405568043404
 30
0.0
 10
126.4845060244227
 20
-159.0509721146426
 30
0.0
 10
126.4845060244227
 20
-159.1613874249449
 30
0.0
 10
126.574100038886
 20
-159.2509922053316
 30
0.0
 10
126.684536881035
 20
-159.2509922053316
 30
0.0
  0
HATCH
  5
11B
330
1F
100
AcDbEntity
  8
_U+30EC_U+30A4_U+30E4_U+30FC 1
 62
   179
420
  2234388
100
AcDbHatch
 10
0.0
 20
0.0
 30
0.0
210
0.0
220
0.0
230
1.0
  2
SOLID
 70
     1
 71
     0
 91
        1
 92
        1
 93
        2
 72
     4
 94
        3
 73
     0
 74
     0
 95
       17
 96
       13
 40
0.0
 40
0.0
 40
0.0
 40
0.0
 40
0.3527777776895833
 40
0.3527777776895833
 40
0.3527777776895833
 40
0.7055555553791667
 40
0.7055555553791667
 40
0.7055555553791667
 40
1.05833333306875
 40
1.05833333306875
 40
1.05833333306875
 40
1.411111110758333
 40
1.411111110758333
 40
1.411111110758333
 40
1.411111110758333
 10
126.684536881035
 20
-159.2509922053316
 10
126.7949521913373
 20
-159.2509922053316
 10
126.884201696252
 20
-159.1613874249449
 10
126.884201696252
 20
-159.0509721146426
 10
126.884201696252
 20
-158.9405568043404
 10
126.7949521913373
 20
-158.8505967484818
 10
126.684536881035
 20
-158.8505967484818
 10
126.574100038886
 20
-158.8505967484818
 10
126.4845060244227
 20
-158.9405568043404
 10
126.4845060244227
 20
-159.0509721146426
 10
126.4845060244227
 20
-159.1613874249449
 10
126.574100038886
 20
-159.2509922053316
 10
126.684536881035
 20
-159.2509922053316
 97
        0
 72
     1
 10
126.684536881035
 20
-159.2509922053316
 11
126.684536881035
 21
-159.2509922053316
 97
        0
 75
     2
 76
     1
 98
        0
  0
SPLINE
  5
11C
330
1F
100
AcDbEntity
  8
_U+30EC_U+30A4_U+30E4_U+30FC 1
370
     0
100
AcDbSpline
210
0.0
220
0.0
230
1.0
 70
    11
 71
     3
 72
    17
 73
    13
 74
     0
 42
0.0000000001
 43
0.0000000001
 12
1.0
 22
0.0
 32
0.0
 13
1.0
 23
0.0
 33
0.0
 40
0.0
 40
0.0
 40
0.0
 40
0.0
 40
1.0
 40
1.0
 40
1.0
 40
2.0
 40
2.0
 40
2.0
 40
3.0
 40
3.0
 40
3.0
 40
4.0
 40
4.0
 40
4.0
 40
4.0
 10
115.6823230030347
 20
-165.2509974172512
 30
0.0
 10
115.792738313337
 20
-165.2509974172512
 30
0.0
 10
115.8823430937236
 20
-165.1613926368645
 30
0.0
 10
115.8823430937236
 20
-165.0509773265622
 30
0.0
 10
115.8823430937236
 20
-164.9405566332983
 30
0.0
 10
115.792738313337
 20
-164.8505965774397
 30
0.0
 10
115.6823230030347
 20
-164.8505965774397
 30
0.0
 10
115.5718969268091
 20
-164.8505965774397
 30
0.0
 10
115.4826474218943
 20
-164.9405566332983
 30
0.0
 10
115.4826474218943
 20
-165.0509773265622
 30
0.0
 10
115.4826474218943
 20
-165.1613926368645
 30
0.0
 10
115.5718969268091
 20
-165.2509974172512
 30
0.0
 10
115.6823230030347
 20
-165.2509974172512
 30
0.0
  0
HATCH
  5
11D
330
1F
100
AcDbEntity
  8
_U+30EC_U+30A4_U+30E4_U+30FC 1
 62
   179
420
  2234388
100
AcDbHatch
 10
0.0
 20
0.0
 30
0.0
210
0.0
220
0.0
230
1.0
  2
SOLID
 70
     1
 71
     0
 91
        1
 92
        1
 93
        2
 72
     4
 94
        3
 73
     0
 74
     0
 95
       17
 96
       13
 40
0.0
 40
0.0
 40
0.0
 40
0.0
 40
0.3527777776895833
 40
0.3527777776895833
 40
0.3527777776895833
 40
0.7055555553791667
 40
0.7055555553791667
 40
0.7055555553791667
 40
1.05833333306875
 40
1.05833333306875
 40
1.05833333306875
 40
1.411111110758333
 40
1.411111110758333
 40
1.411111110758333
 40
1.411111110758333
 10
115.6823230030347
 20
-165.2509974172512
 10
115.792738313337
 20
-165.2509974172512
 10
115.8823430937236
 20
-165.1613926368645
 10
115.8823430937236
 20
-165.0509773265622
 10
115.8823430937236
 20
-164.9405566332983
 10
115.792738313337
 20
-164.8505965774397
 10
115.6823230030347
 20
-164.8505965774397
 10
115.5718969268091
 20
-164.8505965774397
 10
115.4826474218943
 20
-164.9405566332983
 10
115.4826474218943
 20
-165.0509773265622
 10
115.4826474218943
 20
-165.1613926368645
 10
115.5718969268091
 20
-165.2509974172512
 10
115.6823230030347
 20
-165.2509974172512
 97
        0
 72
     1
 10
115.6823230030347
 20
-165.2509974172512
 11
115.6823230030347
 21
-165.2509974172512
 97
        0
 75
     2
 76
     1
 98
        0
  0
SPLINE
  5
11E
330
1F
100
AcDbEntity
  8
_U+30EC_U+30A4_U+30E4_U+30FC 1
370
     0
100
AcDbSpline
210
0.0
220
0.0
230
1.0
 70
    11
 71
     3
 72
    17
 73
    13
 74
     0
 42
0.0000000001
 43
0.0000000001
 12
1.0
 22
0.0
 32
0.0
 13
1.0
 23
0.0
 33
0.0
 40
0.0
 40
0.0
 40
0.0
 40
0.0
 40
1.0
 40
1.0
 40
1.0
 40
2.0
 40
2.0
 40
2.0
 40
3.0
 40
3.0
 40
3.0
 40
4.0
 40
4.0
 40
4.0
 40
4.0
 10
107.1039706492223
 20
-165.2509974172512
 30
0.0
 10
107.2143859595245
 20
-165.2509974172512
 30
0.0
 10
107.3036354644393
 20
-165.1613926368645
 30
0.0
 10
107.3036354644393
 20
-165.0509773265622
 30
0.0
 10
107.3036354644393
 20
-164.9405566332983
 30
0.0
 10
107.2143859595245
 20
-164.8505965774397
 30
0.0
 10
107.1039706492223
 20
-164.8505965774397
 30
0.0
 10
106.9935445729966
 20
-164.8505965774397
 30
0.0
 10
106.90393979261
 20
-164.9405566332983
 30
0.0
 10
106.90393979261
 20
-165.0509773265622
 30
0.0
 10
106.90393979261
 20
-165.1613926368645
 30
0.0
 10
106.9935445729966
 20
-165.2509974172512
 30
0.0
 10
107.1039706492223
 20
-165.2509974172512
 30
0.0
  0
HATCH
  5
11F
330
1F
100
AcDbEntity
  8
_U+30EC_U+30A4_U+30E4_U+30FC 1
 62
   179
420
  2234388
100
AcDbHatch
 10
0.0
 20
0.0
 30
0.0
210
0.0
220
0.0
230
1.0
  2
SOLID
 70
     1
 71
     0
 91
        1
 92
        1
 93
        2
 72
     4
 94
        3
 73
     0
 74
     0
 95
       17
 96
       13
 40
0.0
 40
0.0
 40
0.0
 40
0.0
 40
0.3527777776895833
 40
0.3527777776895833
 40
0.3527777776895833
 40
0.7055555553791667
 40
0.7055555553791667
 40
0.7055555553791667
 40
1.05833333306875
 40
1.05833333306875
 40
1.05833333306875
 40
1.411111110758333
 40
1.411111110758333
 40
1.411111110758333
 40
1.411111110758333
 10
107.1039706492223
 20
-165.2509974172512
 10
107.2143859595245
 20
-165.2509974172512
 10
107.3036354644393
 20
-165.1613926368645
 10
107.3036354644393
 20
-165.0509773265622
 10
107.3036354644393
 20
-164.9405566332983
 10
107.2143859595245
 20
-164.8505965774397
 10
107.1039706492223
 20
-164.8505965774397
 10
106.9935445729966
 20
-164.8505965774397
 10
106.90393979261
 20
-164.9405566332983
 10
106.90393979261
 20
-165.0509773265622
 10
106.90393979261
 20
-165.1613926368645
 10
106.9935445729966
 20
-165.2509974172512
 10
107.1039706492223
 20
-165.2509974172512
 97
        0
 72
     1
 10
107.1039706492223
 20
-165.2509974172512
 11
107.1039706492223
 21
-165.2509974172512
 97
        0
 75
     2
 76
     1
 98
        0
  0
SPLINE
  5
120
330
1F
100
AcDbEntity
  8
_U+30EC_U+30A4_U+30E4_U+30FC 1
370
     0
100
AcDbSpline
210
0.0
220
0.0
230
1.0
 70
    11
 71
     3
 72
    17
 73
    13
 74
     0
 42
0.0000000001
 43
0.0000000001
 12
1.0
 22
0.0
 32
0.0
 13
1.0
 23
0.0
 33
0.0
 40
0.0
 40
0.0
 40
0.0
 40
0.0
 40
1.0
 40
1.0
 40
1.0
 40
2.0
 40
2.0
 40
2.0
 40
3.0
 40
3.0
 40
3.0
 40
4.0
 40
4.0
 40
4.0
 40
4.0
 10
92.02137491256866
 20
-165.2509974172512
 30
0.0
 10
92.13179022287092
 20
-165.2509974172512
 30
0.0
 10
92.22139500325758
 20
-165.1613926368645
 30
0.0
 10
92.22139500325758
 20
-165.0509773265622
 30
0.0
 10
92.22139500325758
 20
-164.9405566332983
 30
0.0
 10
92.13179022287092
 20
-164.8505965774397
 30
0.0
 10
92.02137491256866
 20
-164.8505965774397
 30
0.0
 10
91.91094883634301
 20
-164.8505965774397
 30
0.0
 10
91.82169933142826
 20
-164.9405566332983
 30
0.0
 10
91.82169933142826
 20
-165.0509773265622
 30
0.0
 10
91.82169933142826
 20
-165.1613926368645
 30
0.0
 10
91.91094883634301
 20
-165.2509974172512
 30
0.0
 10
92.02137491256866
 20
-165.2509974172512
 30
0.0
  0
HATCH
  5
121
330
1F
100
AcDbEntity
  8
_U+30EC_U+30A4_U+30E4_U+30FC 1
 62
   179
420
  2234388
100
AcDbHatch
 10
0.0
 20
0.0
 30
0.0
210
0.0
220
0.0
230
1.0
  2
SOLID
 70
     1
 71
     0
 91
        1
 92
        1
 93
        2
 72
     4
 94
        3
 73
     0
 74
     0
 95
       17
 96
       13
 40
0.0
 40
0.0
 40
0.0
 40
0.0
 40
0.3527777776895833
 40
0.3527777776895833
 40
0.3527777776895833
 40
0.7055555553791667
 40
0.7055555553791667
 40
0.7055555553791667
 40
1.05833333306875
 40
1.05833333306875
 40
1.05833333306875
 40
1.411111110758333
 40
1.411111110758333
 40
1.411111110758333
 40
1.411111110758333
 10
92.02137491256866
 20
-165.2509974172512
 10
92.13179022287092
 20
-165.2509974172512
 10
92.22139500325758
 20
-165.1613926368645
 10
92.22139500325758
 20
-165.0509773265622
 10
92.22139500325758
 20
-164.9405566332983
 10
92.13179022287092
 20
-164.8505965774397
 10
92.02137491256866
 20
-164.8505965774397
 10
91.91094883634301
 20
-164.8505965774397
 10
91.82169933142826
 20
-164.9405566332983
 10
91.82169933142826
 20
-165.0509773265622
 10
91.82169933142826
 20
-165.1613926368645
 10
91.91094883634301
 20
-165.2509974172512
 10
92.02137491256866
 20
-165.2509974172512
 97
        0
 72
     1
 10
92.02137491256866
 20
-165.2509974172512
 11
92.02137491256866
 21
-165.2509974172512
 97
        0
 75
     2
 76
     1
 98
        0
  0
SPLINE
  5
122
330
1F
100
AcDbEntity
  8
_U+30EC_U+30A4_U+30E4_U+30FC 1
370
     0
100
AcDbSpline
210
0.0
220
0.0
230
1.0
 70
    11
 71
     3
 72
    17
 73
    13
 74
     0
 42
0.0000000001
 43
0.0000000001
 12
1.0
 22
0.0
 32
0.0
 13
1.0
 23
0.0
 33
0.0
 40
0.0
 40
0.0
 40
0.0
 40
0.0
 40
1.0
 40
1.0
 40
1.0
 40
2.0
 40
2.0
 40
2.0
 40
3.0
 40
3.0
 40
3.0
 40
4.0
 40
4.0
 40
4.0
 40
4.0
 10
83.68421154049388
 20
-165.2509974172512
 30
0.0
 10
83.79462685079613
 20
-165.2509974172512
 30
0.0
 10
83.88423163118281
 20
-165.1613926368645
 30
0.0
 10
83.88423163118281
 20
-165.0509773265622
 30
0.0
 10
83.88423163118281
 20
-164.9405566332983
 30
0.0
 10
83.79462685079613
 20
-164.8505965774397
 30
0.0
 10
83.68421154049388
 20
-164.8505965774397
 30
0.0
 10
83.57378546426823
 20
-164.8505965774397
 30
0.0
 10
83.48418068388189
 20
-164.9405566332983
 30
0.0
 10
83.48418068388189
 20
-165.0509773265622
 30
0.0
 10
83.48418068388189
 20
-165.1613926368645
 30
0.0
 10
83.57378546426823
 20
-165.2509974172512
 30
0.0
 10
83.68421154049388
 20
-165.2509974172512
 30
0.0
  0
HATCH
  5
123
330
1F
100
AcDbEntity
  8
_U+30EC_U+30A4_U+30E4_U+30FC 1
 62
   179
420
  2234388
100
AcDbHatch
 10
0.0
 20
0.0
 30
0.0
210
0.0
220
0.0
230
1.0
  2
SOLID
 70
     1
 71
     0
 91
        1
 92
        1
 93
        2
 72
     4
 94
        3
 73
     0
 74
     0
 95
       17
 96
       13
 40
0.0
 40
0.0
 40
0.0
 40
0.0
 40
0.3527777776895833
 40
0.3527777776895833
 40
0.3527777776895833
 40
0.7055555553791667
 40
0.7055555553791667
 40
0.7055555553791667
 40
1.05833333306875
 40
1.05833333306875
 40
1.05833333306875
 40
1.411111110758333
 40
1.411111110758333
 40
1.411111110758333
 40
1.411111110758333
 10
83.68421154049388
 20
-165.2509974172512
 10
83.79462685079613
 20
-165.2509974172512
 10
83.88423163118281
 20
-165.1613926368645
 10
83.88423163118281
 20
-165.0509773265622
 10
83.88423163118281
 20
-164.9405566332983
 10
83.79462685079613
 20
-164.8505965774397
 10
83.68421154049388
 20
-164.8505965774397
 10
83.57378546426823
 20
-164.8505965774397
 10
83.48418068388189
 20
-164.9405566332983
 10
83.48418068388189
 20
-165.0509773265622
 10
83.48418068388189
 20
-165.1613926368645
 10
83.57378546426823
 20
-165.2509974172512
 10
83.68421154049388
 20
-165.2509974172512
 97
        0
 72
     1
 10
83.68421154049388
 20
-165.2509974172512
 11
83.68421154049388
 21
-165.2509974172512
 97
        0
 75
     2
 76
     1
 98
        0
  0
SPLINE
  5
124
330
1F
100
AcDbEntity
  8
_U+30EC_U+30A4_U+30E4_U+30FC 1
370
     0
100
AcDbSpline
210
0.0
220
0.0
230
1.0
 70
    11
 71
     3
 72
    17
 73
    13
 74
     0
 42
0.0000000001
 43
0.0000000001
 12
1.0
 22
0.0
 32
0.0
 13
1.0
 23
0.0
 33
0.0
 40
0.0
 40
0.0
 40
0.0
 40
0.0
 40
1.0
 40
1.0
 40
1.0
 40
2.0
 40
2.0
 40
2.0
 40
3.0
 40
3.0
 40
3.0
 40
4.0
 40
4.0
 40
4.0
 40
4.0
 10
126.684536881035
 20
-143.0511520028114
 30
0.0
 10
126.7949521913373
 20
-143.0511520028114
 30
0.0
 10
126.884201696252
 20
-142.9615472224248
 30
0.0
 10
126.884201696252
 20
-142.8511319121225
 30
0.0
 10
126.884201696252
 20
-142.7407166018203
 30
0.0
 10
126.7949521913373
 20
-142.6507565459617
 30
0.0
 10
126.684536881035
 20
-142.6507565459617
 30
0.0
 10
126.574100038886
 20
-142.6507565459617
 30
0.0
 10
126.4845060244227
 20
-142.7407166018203
 30
0.0
 10
126.4845060244227
 20
-142.8511319121225
 30
0.0
 10
126.4845060244227
 20
-142.9615472224248
 30
0.0
 10
126.574100038886
 20
-143.0511520028114
 30
0.0
 10
126.684536881035
 20
-143.0511520028114
 30
0.0
  0
HATCH
  5
125
330
1F
100
AcDbEntity
  8
_U+30EC_U+30A4_U+30E4_U+30FC 1
 62
   179
420
  2234388
100
AcDbHatch
 10
0.0
 20
0.0
 30
0.0
210
0.0
220
0.0
230
1.0
  2
SOLID
 70
     1
 71
     0
 91
        1
 92
        1
 93
        2
 72
     4
 94
        3
 73
     0
 74
     0
 95
       17
 96
       13
 40
0.0
 40
0.0
 40
0.0
 40
0.0
 40
0.3527777776895833
 40
0.3527777776895833
 40
0.3527777776895833
 40
0.7055555553791667
 40
0.7055555553791667
 40
0.7055555553791667
 40
1.05833333306875
 40
1.05833333306875
 40
1.05833333306875
 40
1.411111110758333
 40
1.411111110758333
 40
1.411111110758333
 40
1.411111110758333
 10
126.684536881035
 20
-143.0511520028114
 10
126.7949521913373
 20
-143.0511520028114
 10
126.884201696252
 20
-142.9615472224248
 10
126.884201696252
 20
-142.8511319121225
 10
126.884201696252
 20
-142.7407166018203
 10
126.7949521913373
 20
-142.6507565459617
 10
126.684536881035
 20
-142.6507565459617
 10
126.574100038886
 20
-142.6507565459617
 10
126.4845060244227
 20
-142.7407166018203
 10
126.4845060244227
 20
-142.8511319121225
 10
126.4845060244227
 20
-142.9615472224248
 10
126.574100038886
 20
-143.0511520028114
 10
126.684536881035
 20
-143.0511520028114
 97
        0
 72
     1
 10
126.684536881035
 20
-143.0511520028114
 11
126.684536881035
 21
-143.0511520028114
 97
        0
 75
     2
 76
     1
 98
        0
  0
SPLINE
  5
126
330
1F
100
AcDbEntity
  8
_U+30EC_U+30A4_U+30E4_U+30FC 1
370
     0
100
AcDbSpline
210
0.0
220
0.0
230
1.0
 70
    11
 71
     3
 72
    17
 73
    13
 74
     0
 42
0.0000000001
 43
0.0000000001
 12
1.0
 22
0.0
 32
0.0
 13
1.0
 23
0.0
 33
0.0
 40
0.0
 40
0.0
 40
0.0
 40
0.0
 40
1.0
 40
1.0
 40
1.0
 40
2.0
 40
2.0
 40
2.0
 40
3.0
 40
3.0
 40
3.0
 40
4.0
 40
4.0
 40
4.0
 40
4.0
 10
93.68433326922248
 20
-137.0511737057003
 30
0.0
 10
93.79474857952472
 20
-137.0511737057003
 30
0.0
 10
93.88399808443916
 20
-136.9615689253137
 30
0.0
 10
93.88399808443916
 20
-136.8511536150114
 30
0.0
 10
93.88399808443916
 20
-136.7407383047091
 30
0.0
 10
93.79474857952472
 20
-136.6507782488505
 30
0.0
 10
93.68433326922248
 20
-136.6507782488505
 30
0.0
 10
93.5739071929965
 20
-136.6507782488505
 30
0.0
 10
93.48430241260984
 20
-136.7407383047091
 30
0.0
 10
93.48430241260984
 20
-136.8511536150114
 30
0.0
 10
93.48430241260984
 20
-136.9615689253137
 30
0.0
 10
93.5739071929965
 20
-137.0511737057003
 30
0.0
 10
93.68433326922248
 20
-137.0511737057003
 30
0.0
  0
HATCH
  5
127
330
1F
100
AcDbEntity
  8
_U+30EC_U+30A4_U+30E4_U+30FC 1
 62
   179
420
  2234388
100
AcDbHatch
 10
0.0
 20
0.0
 30
0.0
210
0.0
220
0.0
230
1.0
  2
SOLID
 70
     1
 71
     0
 91
        1
 92
        1
 93
        2
 72
     4
 94
        3
 73
     0
 74
     0
 95
       17
 96
       13
 40
0.0
 40
0.0
 40
0.0
 40
0.0
 40
0.3527777776895833
 40
0.3527777776895833
 40
0.3527777776895833
 40
0.7055555553791667
 40
0.7055555553791667
 40
0.7055555553791667
 40
1.05833333306875
 40
1.05833333306875
 40
1.05833333306875
 40
1.411111110758333
 40
1.411111110758333
 40
1.411111110758333
 40
1.411111110758333
 10
93.68433326922248
 20
-137.0511737057003
 10
93.79474857952472
 20
-137.0511737057003
 10
93.88399808443916
 20
-136.9615689253137
 10
93.88399808443916
 20
-136.8511536150114
 10
93.88399808443916
 20
-136.7407383047091
 10
93.79474857952472
 20
-136.6507782488505
 10
93.68433326922248
 20
-136.6507782488505
 10
93.5739071929965
 20
-136.6507782488505
 10
93.48430241260984
 20
-136.7407383047091
 10
93.48430241260984
 20
-136.8511536150114
 10
93.48430241260984
 20
-136.9615689253137
 10
93.5739071929965
 20
-137.0511737057003
 10
93.68433326922248
 20
-137.0511737057003
 97
        0
 72
     1
 10
93.68433326922248
 20
-137.0511737057003
 11
93.68433326922248
 21
-137.0511737057003
 97
        0
 75
     2
 76
     1
 98
        0
  0
POLYLINE
  5
128
330
1F
100
AcDbEntity
  8
_U+30EC_U+30A4_U+30E4_U+30FC 1
 62
   179
420
  2234388
370
     9
100
AcDb2dPolyline
 66
     1
 10
0.0
 20
0.0
 30
0.0
  0
VERTEX
  5
129
330
128
100
AcDbEntity
  8
_U+30EC_U+30A4_U+30E4_U+30FC 1
 62
   179
420
  2234388
370
     9
100
AcDbVertex
100
AcDb2dVertex
 10
101.6387034691921
 20
-136.8509705943137
 30
0.0
  0
VERTEX
  5
12A
330
128
100
AcDbEntity
  8
_U+30EC_U+30A4_U+30E4_U+30FC 1
 62
   179
420
  2234388
370
     9
100
AcDbVertex
100
AcDb2dVertex
 10
105.7012892564794
 20
-136.8509705943137
 30
0.0
  0
VERTEX
  5
12B
330
128
100
AcDbEntity
  8
_U+30EC_U+30A4_U+30E4_U+30FC 1
 62
   179
420
  2234388
370
     9
100
AcDbVertex
100
AcDb2dVertex
 10
105.7012892564794
 20
-141.0497345465789
 30
0.0
  0
SEQEND
  5
12C
330
128
100
AcDbEntity
  8
_U+30EC_U+30A4_U+30E4_U+30FC 1
 62
   179
420
  2234388
370
     9
  0
POLYLINE
  5
12D
330
1F
100
AcDbEntity
  8
_U+30EC_U+30A4_U+30E4_U+30FC 1
 62
   179
420
  2234388
370
     9
100
AcDb2dPolyline
 66
     1
 10
0.0
 20
0.0
 30
0.0
  0
VERTEX
  5
12E
330
12D
100
AcDbEntity
  8
_U+30EC_U+30A4_U+30E4_U+30FC 1
 62
   179
420
  2234388
370
     9
100
AcDbVertex
100
AcDb2dVertex
 10
93.68433326922248
 20
-140.7963370077154
 30
0.0
  0
VERTEX
  5
12F
330
12D
100
AcDbEntity
  8
_U+30EC_U+30A4_U+30E4_U+30FC 1
 62
   179
420
  2234388
370
     9
100
AcDbVertex
100
AcDb2dVertex
 10
93.68433326922248
 20
-136.8508737010032
 30
0.0
  0
VERTEX
  5
130
330
12D
100
AcDbEntity
  8
_U+30EC_U+30A4_U+30E4_U+30FC 1
 62
   179
420
  2234388
370
     9
100
AcDbVertex
100
AcDb2dVertex
 10
101.8701815880307
 20
-136.8508737010032
 30
0.0
  0
SEQEND
  5
131
330
12D
100
AcDbEntity
  8
_U+30EC_U+30A4_U+30E4_U+30FC 1
 62
   179
420
  2234388
370
     9
  0
POLYLINE
  5
132
330
1F
100
AcDbEntity
  8
_U+30EC_U+30A4_U+30E4_U+30FC 1
 62
   179
420
  2234388
370
     9
100
AcDb2dPolyline
 66
     1
 10
0.0
 20
0.0
 30
0.0
  0
VERTEX
  5
133
330
132
100
AcDbEntity
  8
_U+30EC_U+30A4_U+30E4_U+30FC 1
 62
   179
420
  2234388
370
     9
100
AcDbVertex
100
AcDb2dVertex
 10
102.0369457413636
 20
-131.9176261572061
 30
0.0
  0
VERTEX
  5
134
330
132
100
AcDbEntity
  8
_U+30EC_U+30A4_U+30E4_U+30FC 1
 62
   179
420
  2234388
370
     9
100
AcDbVertex
100
AcDb2dVertex
 10
115.6852082705036
 20
-131.9176261572061
 30
0.0
  0
VERTEX
  5
135
330
132
100
AcDbEntity
  8
_U+30EC_U+30A4_U+30E4_U+30FC 1
 62
   179
420
  2234388
370
     9
100
AcDbVertex
100
AcDb2dVertex
 10
115.6852082705036
 20
-140.9547360385732
 30
0.0
  0
SEQEND
  5
136
330
132
100
AcDbEntity
  8
_U+30EC_U+30A4_U+30E4_U+30FC 1
 62
   179
420
  2234388
370
     9
  0
POLYLINE
  5
137
330
1F
100
AcDbEntity
  8
_U+30EC_U+30A4_U+30E4_U+30FC 1
 62
   179
420
  2234388
370
     9
100
AcDb2dPolyline
 66
     1
 10
0.0
 20
0.0
 30
0.0
  0
VERTEX
  5
138
330
137
100
AcDbEntity
  8
_U+30EC_U+30A4_U+30E4_U+30FC 1
 62
   179
420
  2234388
370
     9
100
AcDbVertex
100
AcDb2dVertex
 10
83.68421154049388
 20
-140.9548006341135
 30
0.0
  0
VERTEX
  5
139
330
137
100
AcDbEntity
  8
_U+30EC_U+30A4_U+30E4_U+30FC 1
 62
   179
420
  2234388
370
     9
100
AcDbVertex
100
AcDb2dVertex
 10
83.68421154049388
 20
-131.9177015186699
 30
0.0
  0
VERTEX
  5
13A
330
137
100
AcDbEntity
  8
_U+30EC_U+30A4_U+30E4_U+30FC 1
 62
   179
420
  2234388
370
     9
100
AcDbVertex
100
AcDb2dVertex
 10
102.2022134313451
 20
-131.9177015186699
 30
0.0
  0
SEQEND
  5
13B
330
137
100
AcDbEntity
  8
_U+30EC_U+30A4_U+30E4_U+30FC 1
 62
   179
420
  2234388
370
     9
  0
POLYLINE
  5
13C
330
1F
100
AcDbEntity
  8
_U+30EC_U+30A4_U+30E4_U+30FC 1
 62
   179
420
  2234388
370
     9
100
AcDb2dPolyline
 66
     1
 10
0.0
 20
0.0
 30
0.0
  0
VERTEX
  5
13D
330
13C
100
AcDbEntity
  8
_U+30EC_U+30A4_U+30E4_U+30FC 1
 62
   179
420
  2234388
370
     9
100
AcDbVertex
100
AcDb2dVertex
 10
126.684536881035
 20
-154.7775572495814
 30
0.0
  0
VERTEX
  5
13E
330
13C
100
AcDbEntity
  8
_U+30EC_U+30A4_U+30E4_U+30FC 1
 62
   179
420
  2234388
370
     9
100
AcDbVertex
100
AcDb2dVertex
 10
126.684536881035
 20
-159.0507567961748
 30
0.0
  0
VERTEX
  5
13F
330
13C
100
AcDbEntity
  8
_U+30EC_U+30A4_U+30E4_U+30FC 1
 62
   179
420
  2234388
370
     9
100
AcDbVertex
100
AcDb2dVertex
 10
108.6240759683952
 20
-159.0507567961748
 30
0.0
  0
SEQEND
  5
140
330
13C
100
AcDbEntity
  8
_U+30EC_U+30A4_U+30E4_U+30FC 1
 62
   179
420
  2234388
370
     9
  0
POLYLINE
  5
141
330
1F
100
AcDbEntity
  8
_U+30EC_U+30A4_U+30E4_U+30FC 1
 62
   179
420
  2234388
370
     9
100
AcDb2dPolyline
 66
     1
 10
0.0
 20
0.0
 30
0.0
  0
VERTEX
  5
142
330
141
100
AcDbEntity
  8
_U+30EC_U+30A4_U+30E4_U+30FC 1
 62
   179
420
  2234388
370
     9
100
AcDbVertex
100
AcDb2dVertex
 10
117.2683803689034
 20
-142.850981189195
 30
0.0
  0
VERTEX
  5
143
330
141
100
AcDbEntity
  8
_U+30EC_U+30A4_U+30E4_U+30FC 1
 62
   179
420
  2234388
370
     9
100
AcDbVertex
100
AcDb2dVertex
 10
126.6843646262608
 20
-142.850981189195
 30
0.0
  0
VERTEX
  5
144
330
141
100
AcDbEntity
  8
_U+30EC_U+30A4_U+30E4_U+30FC 1
 62
   179
420
  2234388
370
     9
100
AcDbVertex
100
AcDb2dVertex
 10
126.6843646262608
 20
-154.7776972065855
 30
0.0
  0
SEQEND
  5
145
330
141
100
AcDbEntity
  8
_U+30EC_U+30A4_U+30E4_U+30FC 1
 62
   179
420
  2234388
370
     9
  0
POLYLINE
  5
146
330
1F
100
AcDbEntity
  8
_U+30EC_U+30A4_U+30E4_U+30FC 1
 62
   179
420
  2234388
370
     9
100
AcDb2dPolyline
 66
     1
 10
0.0
 20
0.0
 30
0.0
  0
VERTEX
  5
147
330
146
100
AcDbEntity
  8
_U+30EC_U+30A4_U+30E4_U+30FC 1
 62
   179
420
  2234388
370
     9
100
AcDbVertex
100
AcDb2dVertex
 10
121.6850466106106
 20
-156.425690929725
 30
0.0
  0
VERTEX
  5
148
330
146
100
AcDbEntity
  8
_U+30EC_U+30A4_U+30E4_U+30FC 1
 62
   179
420
  2234388
370
     9
100
AcDbVertex
100
AcDb2dVertex
 10
121.6850466106106
 20
-159.0507137324813
 30
0.0
  0
SEQEND
  5
149
330
146
100
AcDbEntity
  8
_U+30EC_U+30A4_U+30E4_U+30FC 1
 62
   179
420
  2234388
370
     9
  0
POLYLINE
  5
14A
330
1F
100
AcDbEntity
  8
_U+30EC_U+30A4_U+30E4_U+30FC 1
 62
   179
420
  2234388
370
     9
100
AcDb2dPolyline
 66
     1
 10
0.0
 20
0.0
 30
0.0
  0
VERTEX
  5
14B
330
14A
100
AcDbEntity
  8
_U+30EC_U+30A4_U+30E4_U+30FC 1
 62
   179
420
  2234388
370
     9
100
AcDbVertex
100
AcDb2dVertex
 10
121.6850466106106
 20
-142.850981189195
 30
0.0
  0
VERTEX
  5
14C
330
14A
100
AcDbEntity
  8
_U+30EC_U+30A4_U+30E4_U+30FC 1
 62
   179
420
  2234388
370
     9
100
AcDbVertex
100
AcDb2dVertex
 10
121.6850466106106
 20
-156.5359447511763
 30
0.0
  0
SEQEND
  5
14D
330
14A
100
AcDbEntity
  8
_U+30EC_U+30A4_U+30E4_U+30FC 1
 62
   179
420
  2234388
370
     9
  0
POLYLINE
  5
14E
330
1F
100
AcDbEntity
  8
_U+30EC_U+30A4_U+30E4_U+30FC 1
 62
   179
420
  2234388
370
     9
100
AcDb2dPolyline
 66
     1
 10
0.0
 20
0.0
 30
0.0
  0
VERTEX
  5
14F
330
14E
100
AcDbEntity
  8
_U+30EC_U+30A4_U+30E4_U+30FC 1
 62
   179
420
  2234388
370
     9
100
AcDbVertex
100
AcDb2dVertex
 10
117.3055981660675
 20
-146.0342386516425
 30
0.0
  0
VERTEX
  5
150
330
14E
100
AcDbEntity
  8
_U+30EC_U+30A4_U+30E4_U+30FC 1
 62
   179
420
  2234388
370
     9
100
AcDbVertex
100
AcDb2dVertex
 10
121.6849712491469
 20
-146.0342386516425
 30
0.0
  0
SEQEND
  5
151
330
14E
100
AcDbEntity
  8
_U+30EC_U+30A4_U+30E4_U+30FC 1
 62
   179
420
  2234388
370
     9
  0
POLYLINE
  5
152
330
1F
100
AcDbEntity
  8
_U+30EC_U+30A4_U+30E4_U+30FC 1
 62
   179
420
  2234388
370
     9
100
AcDb2dPolyline
 66
     1
 10
0.0
 20
0.0
 30
0.0
  0
VERTEX
  5
153
330
152
100
AcDbEntity
  8
_U+30EC_U+30A4_U+30E4_U+30FC 1
 62
   179
420
  2234388
370
     9
100
AcDbVertex
100
AcDb2dVertex
 10
114.3772885354519
 20
-165.0508319865964
 30
0.0
  0
VERTEX
  5
154
330
152
100
AcDbEntity
  8
_U+30EC_U+30A4_U+30E4_U+30FC 1
 62
   179
420
  2234388
370
     9
100
AcDbVertex
100
AcDb2dVertex
 10
115.6822045778774
 20
-165.0508319865964
 30
0.0
  0
VERTEX
  5
155
330
152
100
AcDbEntity
  8
_U+30EC_U+30A4_U+30E4_U+30FC 1
 62
   179
420
  2234388
370
     9
100
AcDbVertex
100
AcDb2dVertex
 10
115.6822045778774
 20
-148.0628185325915
 30
0.0
  0
SEQEND
  5
156
330
152
100
AcDbEntity
  8
_U+30EC_U+30A4_U+30E4_U+30FC 1
 62
   179
420
  2234388
370
     9
  0
POLYLINE
  5
157
330
1F
100
AcDbEntity
  8
_U+30EC_U+30A4_U+30E4_U+30FC 1
 62
   179
420
  2234388
370
     9
100
AcDb2dPolyline
 66
     1
 10
0.0
 20
0.0
 30
0.0
  0
VERTEX
  5
158
330
157
100
AcDbEntity
  8
_U+30EC_U+30A4_U+30E4_U+30FC 1
 62
   179
420
  2234388
370
     9
100
AcDbVertex
100
AcDb2dVertex
 10
101.5064118025585
 20
-165.0508319865964
 30
0.0
  0
VERTEX
  5
159
330
157
100
AcDbEntity
  8
_U+30EC_U+30A4_U+30E4_U+30FC 1
 62
   179
420
  2234388
370
     9
100
AcDbVertex
100
AcDb2dVertex
 10
114.3771485784478
 20
-165.0508319865964
 30
0.0
  0
SEQEND
  5
15A
330
157
100
AcDbEntity
  8
_U+30EC_U+30A4_U+30E4_U+30FC 1
 62
   179
420
  2234388
370
     9
  0
POLYLINE
  5
15B
330
1F
100
AcDbEntity
  8
_U+30EC_U+30A4_U+30E4_U+30FC 1
 62
   179
420
  2234388
370
     9
100
AcDb2dPolyline
 66
     1
 10
0.0
 20
0.0
 30
0.0
  0
VERTEX
  5
15C
330
15B
100
AcDbEntity
  8
_U+30EC_U+30A4_U+30E4_U+30FC 1
 62
   179
420
  2234388
370
     9
100
AcDbVertex
100
AcDb2dVertex
 10
90.82521622824314
 20
-165.0508319865964
 30
0.0
  0
VERTEX
  5
15D
330
15B
100
AcDbEntity
  8
_U+30EC_U+30A4_U+30E4_U+30FC 1
 62
   179
420
  2234388
370
     9
100
AcDbVertex
100
AcDb2dVertex
 10
101.6717117903102
 20
-165.0508319865964
 30
0.0
  0
SEQEND
  5
15E
330
15B
100
AcDbEntity
  8
_U+30EC_U+30A4_U+30E4_U+30FC 1
 62
   179
420
  2234388
370
     9
  0
POLYLINE
  5
15F
330
1F
100
AcDbEntity
  8
_U+30EC_U+30A4_U+30E4_U+30FC 1
 62
   179
420
  2234388
370
     9
100
AcDb2dPolyline
 66
     1
 10
0.0
 20
0.0
 30
0.0
  0
VERTEX
  5
160
330
15F
100
AcDbEntity
  8
_U+30EC_U+30A4_U+30E4_U+30FC 1
 62
   179
420
  2234388
370
     9
100
AcDbVertex
100
AcDb2dVertex
 10
83.68421154049388
 20
-148.0627108733576
 30
0.0
  0
VERTEX
  5
161
330
15F
100
AcDbEntity
  8
_U+30EC_U+30A4_U+30E4_U+30FC 1
 62
   179
420
  2234388
370
     9
100
AcDbVertex
100
AcDb2dVertex
 10
83.68421154049388
 20
-165.0507243273625
 30
0.0
  0
VERTEX
  5
162
330
15F
100
AcDbEntity
  8
_U+30EC_U+30A4_U+30E4_U+30FC 1
 62
   179
420
  2234388
370
     9
100
AcDbVertex
100
AcDb2dVertex
 10
90.825130100856
 20
-165.0507243273625
 30
0.0
  0
SEQEND
  5
163
330
15F
100
AcDbEntity
  8
_U+30EC_U+30A4_U+30E4_U+30FC 1
 62
   179
420
  2234388
370
     9
  0
POLYLINE
  5
164
330
1F
100
AcDbEntity
  8
_U+30EC_U+30A4_U+30E4_U+30FC 1
 62
   179
420
  2234388
370
     9
100
AcDb2dPolyline
 66
     1
 10
0.0
 20
0.0
 30
0.0
  0
VERTEX
  5
165
330
164
100
AcDbEntity
  8
_U+30EC_U+30A4_U+30E4_U+30FC 1
 62
   179
420
  2234388
370
     9
100
AcDbVertex
100
AcDb2dVertex
 10
92.02137491256866
 20
-160.0705911871959
 30
0.0
  0
VERTEX
  5
166
330
164
100
AcDbEntity
  8
_U+30EC_U+30A4_U+30E4_U+30FC 1
 62
   179
420
  2234388
370
     9
100
AcDbVertex
100
AcDb2dVertex
 10
92.02137491256866
 20
-165.0507566251327
 30
0.0
  0
SEQEND
  5
167
330
164
100
AcDbEntity
  8
_U+30EC_U+30A4_U+30E4_U+30FC 1
 62
   179
420
  2234388
370
     9
  0
POLYLINE
  5
168
330
1F
100
AcDbEntity
  8
_U+30EC_U+30A4_U+30E4_U+30FC 1
 62
   179
420
  2234388
370
     9
100
AcDb2dPolyline
 66
     1
 10
0.0
 20
0.0
 30
0.0
  0
VERTEX
  5
169
330
168
100
AcDbEntity
  8
_U+30EC_U+30A4_U+30E4_U+30FC 1
 62
   179
420
  2234388
370
     9
100
AcDbVertex
100
AcDb2dVertex
 10
107.1039706492223
 20
-160.0705911871959
 30
0.0
  0
VERTEX
  5
16A
330
168
100
AcDbEntity
  8
_U+30EC_U+30A4_U+30E4_U+30FC 1
 62
   179
420
  2234388
370
     9
100
AcDbVertex
100
AcDb2dVertex
 10
107.1039706492223
 20
-165.0507566251327
 30
0.0
  0
SEQEND
  5
16B
330
168
100
AcDbEntity
  8
_U+30EC_U+30A4_U+30E4_U+30FC 1
 62
   179
420
  2234388
370
     9
  0
POLYLINE
  5
16C
330
1F
100
AcDbEntity
  8
_U+30EC_U+30A4_U+30E4_U+30FC 1
 62
   179
420
  2234388
370
     9
100
AcDb2dPolyline
 66
     1
 10
0.0
 20
0.0
 30
0.0
  0
VERTEX
  5
16D
330
16C
100
AcDbEntity
  8
_U+30EC_U+30A4_U+30E4_U+30FC 1
 62
   179
420
  2234388
370
     9
100
AcDbVertex
100
AcDb2dVertex
 10
105.5175580078817
 20
-142.850981189195
 30
0.0
  0
VERTEX
  5
16E
330
16C
100
AcDbEntity
  8
_U+30EC_U+30A4_U+30E4_U+30FC 1
 62
   179
420
  2234388
370
     9
100
AcDbVertex
100
AcDb2dVertex
 10
110.099782619502
 20
-135.0969325257689
 30
0.0
  0
VERTEX
  5
16F
330
16C
100
AcDbEntity
  8
_U+30EC_U+30A4_U+30E4_U+30FC 1
 62
   179
420
  2234388
370
     9
100
AcDbVertex
100
AcDb2dVertex
 10
124.3237851997676
 20
-135.0969325257689
 30
0.0
  0
SEQEND
  5
170
330
16C
100
AcDbEntity
  8
_U+30EC_U+30A4_U+30E4_U+30FC 1
 62
   179
420
  2234388
370
     9
  0
ENDSEC
  0
SECTION
  2
OBJECTS
  0
DICTIONARY
  5
C
330
0
100
AcDbDictionary
281
     1
  3
ACAD_GROUP
350
D
  3
ACAD_LAYOUT
350
1A
  3
ACAD_MATERIAL
350
3B
  3
ACAD_MLEADERSTYLE
350
172
  3
ACAD_MLINESTYLE
350
17
  3
ACAD_PLOTSETTINGS
350
19
  3
ACAD_PLOTSTYLENAME
350
E
  3
ACAD_TABLESTYLE
350
171
  3
ACAD_VISUALSTYLE
350
2A
  0
SUN
  5
3F
330
29
100
AcDbSun
 90
        1
290
     0
 63
     7
421
 16777215
 40
1.0
291
     1
 91
  2455826
 92
 54000000
292
     0
 70
     2
 71
   256
280
     1
  0
DICTIONARY
  5
D
102
{ACAD_REACTORS
330
C
102
}
330
C
100
AcDbDictionary
281
     1
  0
DICTIONARY
  5
1A
102
{ACAD_REACTORS
330
C
102
}
330
C
100
AcDbDictionary
281
     1
  3
Layout1
350
1E
  3
Layout2
350
26
  3
Model
350
22
  0
DICTIONARY
  5
3B
102
{ACAD_REACTORS
330
C
102
}
330
C
100
AcDbDictionary
281
     1
  3
ByBlock
350
3D
  3
ByLayer
350
3C
  3
Global
350
3E
  0
DICTIONARY
  5
172
102
{ACAD_REACTORS
330
C
102
}
330
C
100
AcDbDictionary
281
     1
  0
DICTIONARY
  5
17
102
{ACAD_REACTORS
330
C
102
}
330
C
100
AcDbDictionary
281
     1
  3
Standard
350
18
  0
DICTIONARY
  5
19
102
{ACAD_REACTORS
330
C
102
}
330
C
100
AcDbDictionary
281
     1
  0
ACDBDICTIONARYWDFLT
  5
E
102
{ACAD_REACTORS
330
C
102
}
330
C
100
AcDbDictionary
281
     1
  3
Normal
350
F
100
AcDbDictionaryWithDefault
340
F
  0
DICTIONARY
  5
171
102
{ACAD_REACTORS
330
C
102
}
330
C
100
AcDbDictionary
281
     1
  0
DICTIONARY
  5
2A
102
{ACAD_REACTORS
330
C
102
}
330
C
100
AcDbDictionary
281
     1
  3
2dWireframe
350
2F
  3
3D Hidden
350
31
  3
3dWireframe
350
30
  3
Basic
350
32
  3
Brighten
350
36
  3
ColorChange
350
3A
  3
Conceptual
350
34
  3
Dim
350
35
  3
Facepattern
350
39
  3
Flat
350
2B
  3
FlatWithEdges
350
2C
  3
Gouraud
350
2D
  3
GouraudWithEdges
350
2E
  3
Linepattern
350
38
  3
Realistic
350
33
  3
Thicken
350
37
  0
LAYOUT
  5
1E
102
{ACAD_REACTORS
330
1A
102
}
330
1A
100
AcDbPlotSettings
  1

  2
none_device
  4

  6

 40
0.0
 41
0.0
 42
0.0
 43
0.0
 44
0.0
 45
0.0
 46
0.0
 47
0.0
 48
0.0
 49
0.0
140
0.0
141
0.0
142
1.0
143
1.0
 70
   688
 72
     0
 73
     0
 74
     5
  7

 75
    16
 76
     0
 77
     2
 78
   300
147
1.0
148
0.0
149
0.0
100
AcDbLayout
  1
Layout1
 70
     1
 71
     1
 10
0.0
 20
0.0
 11
12.0
 21
9.0
 12
0.0
 22
0.0
 32
0.0
 14
1.000000000000000E+20
 24
1.000000000000000E+20
 34
1.000000000000000E+20
 15
-1.000000000000000E+20
 25
-1.000000000000000E+20
 35
-1.000000000000000E+20
146
0.0
 13
0.0
 23
0.0
 33
0.0
 16
1.0
 26
0.0
 36
0.0
 17
0.0
 27
1.0
 37
0.0
 76
     0
330
1B
  0
LAYOUT
  5
26
102
{ACAD_REACTORS
330
1A
102
}
330
1A
100
AcDbPlotSettings
  1

  2
none_device
  4

  6

 40
0.0
 41
0.0
 42
0.0
 43
0.0
 44
0.0
 45
0.0
 46
0.0
 47
0.0
 48
0.0
 49
0.0
140
0.0
141
0.0
142
1.0
143
1.0
 70
   688
 72
     0
 73
     0
 74
     5
  7

 75
    16
 76
     0
 77
     2
 78
   300
147
1.0
148
0.0
149
0.0
100
AcDbLayout
  1
Layout2
 70
     1
 71
     2
 10
0.0
 20
0.0
 11
0.0
 21
0.0
 12
0.0
 22
0.0
 32
0.0
 14
0.0
 24
0.0
 34
0.0
 15
0.0
 25
0.0
 35
0.0
146
0.0
 13
0.0
 23
0.0
 33
0.0
 16
1.0
 26
0.0
 36
0.0
 17
0.0
 27
1.0
 37
0.0
 76
     0
330
23
  0
LAYOUT
  5
22
102
{ACAD_REACTORS
330
1A
102
}
330
1A
100
AcDbPlotSettings
  1

  2
none_device
  4

  6

 40
0.0
 41
0.0
 42
0.0
 43
0.0
 44
0.0
 45
0.0
 46
0.0
 47
0.0
 48
0.0
 49
0.0
140
0.0
141
0.0
142
1.0
143
1.0
 70
  1712
 72
     0
 73
     0
 74
     0
  7

 75
     0
 76
     0
 77
     2
 78
   300
147
1.0
148
0.0
149
0.0
100
AcDbLayout
  1
Model
 70
     1
 71
     0
 10
0.0
 20
0.0
 11
12.0
 21
9.0
 12
0.0
 22
0.0
 32
0.0
 14
1.000000000000000E+20
 24
1.000000000000000E+20
 34
1.000000000000000E+20
 15
-1.000000000000000E+20
 25
-1.000000000000000E+20
 35
-1.000000000000000E+20
146
0.0
 13
0.0
 23
0.0
 33
0.0
 16
1.0
 26
0.0
 36
0.0
 17
0.0
 27
1.0
 37
0.0
 76
     0
330
1F
331
29
  0
MATERIAL
  5
3D
102
{ACAD_REACTORS
330
3B
102
}
330
3B
100
AcDbMaterial
  1
ByBlock
 72
     1
 94
      127
  0
MATERIAL
  5
3C
102
{ACAD_REACTORS
330
3B
102
}
330
3B
100
AcDbMaterial
  1
ByLayer
 72
     1
 94
      127
  0
MATERIAL
  5
3E
102
{ACAD_REACTORS
330
3B
102
}
330
3B
100
AcDbMaterial
  1
Global
 72
     1
 94
      127
  0
MLINESTYLE
  5
18
102
{ACAD_REACTORS
330
17
102
}
330
17
100
AcDbMlineStyle
  2
Standard
 70
     0
  3

 62
   256
 51
90.0
 52
90.0
 71
     2
 49
0.5
 62
   256
  6
BYLAYER
 49
-0.5
 62
   256
  6
BYLAYER
  0
ACDBPLACEHOLDER
  5
F
102
{ACAD_REACTORS
330
E
102
}
330
E
  0
VISUALSTYLE
  5
2F
102
{ACAD_REACTORS
330
2A
102
}
330
2A
100
AcDbVisualStyle
  2
2dWireframe
 70
     4
177
     2
291
     0
 71
     0
176
     1
 72
     2
176
     1
 73
     0
176
     1
 90
        0
176
     1
 40
-0.6
176
     1
 41
-30.0
176
     1
 62
     5
 63
     7
421
 16777215
176
     1
 74
     1
176
     1
 91
        4
176
     1
 64
     7
176
     1
 65
   257
176
     1
 75
     1
176
     1
175
     1
176
     1
 42
1.0
176
     1
 92
        0
176
     1
 66
   257
176
     1
 43
1.0
176
     1
 76
     1
176
     1
 77
     6
176
     1
 78
     2
176
     1
 67
     7
176
     1
 79
     5
176
     1
170
     0
176
     1
171
     0
176
     1
290
     0
176
     1
 93
        1
176
     1
 44
0.0
176
     1
173
     0
176
     1
  0
VISUALSTYLE
  5
31
102
{ACAD_REACTORS
330
2A
102
}
330
2A
100
AcDbVisualStyle
  2
3D Hidden
 70
     6
177
     2
291
     0
 71
     1
176
     1
 72
     2
176
     1
 73
     2
176
     1
 90
        0
176
     1
 40
-0.6
176
     1
 41
-30.0
176
     1
 62
     5
 63
     7
421
 16777215
176
     1
 74
     2
176
     1
 91
        2
176
     1
 64
     7
176
     1
 65
   257
176
     1
 75
     2
176
     1
175
     1
176
     1
 42
40.0
176
     1
 92
        0
176
     1
 66
   257
176
     1
 43
1.0
176
     1
 76
     1
176
     1
 77
     6
176
     1
 78
     2
176
     1
 67
     7
176
     1
 79
     3
176
     1
170
     0
176
     1
171
     0
176
     1
290
     0
176
     1
 93
        1
176
     1
 44
0.0
176
     1
173
     0
176
     1
  0
VISUALSTYLE
  5
30
102
{ACAD_REACTORS
330
2A
102
}
330
2A
100
AcDbVisualStyle
  2
3dWireframe
 70
     5
177
     2
291
     0
 71
     0
176
     1
 72
     2
176
     1
 73
     0
176
     1
 90
        0
176
     1
 40
-0.6
176
     1
 41
-30.0
176
     1
 62
     5
 63
     7
421
 16777215
176
     1
 74
     1
176
     1
 91
        4
176
     1
 64
     7
176
     1
 65
   257
176
     1
 75
     1
176
     1
175
     1
176
     1
 42
1.0
176
     1
 92
        0
176
     1
 66
   257
176
     1
 43
1.0
176
     1
 76
     1
176
     1
 77
     6
176
     1
 78
     2
176
     1
 67
     7
176
     1
 79
     5
176
     1
170
     0
176
     1
171
     0
176
     1
290
     0
176
     1
 93
        1
176
     1
 44
0.0
176
     1
173
     0
176
     1
  0
VISUALSTYLE
  5
32
102
{ACAD_REACTORS
330
2A
102
}
330
2A
100
AcDbVisualStyle
  2
Basic
 70
     7
177
     2
291
     1
 71
     1
176
     1
 72
     0
176
     1
 73
     1
176
     1
 90
        0
176
     1
 40
-0.6
176
     1
 41
-30.0
176
     1
 62
     5
 63
     7
421
 16777215
176
     1
 74
     0
176
     1
 91
        4
176
     1
 64
     7
176
     1
 65
   257
176
     1
 75
     1
176
     1
175
     1
176
     1
 42
1.0
176
     1
 92
        8
176
     1
 66
     7
176
     1
 43
1.0
176
     1
 76
     1
176
     1
 77
     6
176
     1
 78
     2
176
     1
 67
     7
176
     1
 79
     5
176
     1
170
     0
176
     1
171
     0
176
     1
290
     0
176
     1
 93
        1
176
     1
 44
0.0
176
     1
173
     0
176
     1
  0
VISUALSTYLE
  5
36
102
{ACAD_REACTORS
330
2A
102
}
330
2A
100
AcDbVisualStyle
  2
Brighten
 70
    12
177
     2
291
     1
 71
     2
176
     1
 72
     2
176
     1
 73
     0
176
     1
 90
        0
176
     1
 40
-0.6
176
     1
 41
-30.0
176
     1
 62
     5
 63
     7
421
 16777215
176
     1
 74
     1
176
     1
 91
        4
176
     1
 64
     7
176
     1
 65
   257
176
     1
 75
     1
176
     1
175
     1
176
     1
 42
1.0
176
     1
 92
        8
176
     1
 66
     7
176
     1
 43
1.0
176
     1
 76
     1
176
     1
 77
     6
176
     1
 78
     2
176
     1
 67
     7
176
     1
 79
     5
176
     1
170
     0
176
     1
171
     0
176
     1
290
     0
176
     1
 93
        1
176
     1
 44
50.0
176
     1
173
     0
176
     1
  0
VISUALSTYLE
  5
3A
102
{ACAD_REACTORS
330
2A
102
}
330
2A
100
AcDbVisualStyle
  2
ColorChange
 70
    16
177
     2
291
     1
 71
     2
176
     1
 72
     2
176
     1
 73
     3
176
     1
 90
        0
176
     1
 40
-0.6
176
     1
 41
-30.0
176
     1
 62
     5
 63
     8
421
  8421504
176
     1
 74
     1
176
     1
 91
        4
176
     1
 64
     7
176
     1
 65
   257
176
     1
 75
     1
176
     1
175
     1
176
     1
 42
1.0
176
     1
 92
        8
176
     1
 66
     8
424
  8421504
176
     1
 43
1.0
176
     1
 76
     1
176
     1
 77
     6
176
     1
 78
     2
176
     1
 67
     7
176
     1
 79
     5
176
     1
170
     0
176
     1
171
     0
176
     1
290
     0
176
     1
 93
        1
176
     1
 44
0.0
176
     1
173
     0
176
     1
  0
VISUALSTYLE
  5
34
102
{ACAD_REACTORS
330
2A
102
}
330
2A
100
AcDbVisualStyle
  2
Conceptual
 70
     9
177
     2
291
     0
 71
     3
176
     1
 72
     2
176
     1
 73
     0
176
     1
 90
        0
176
     1
 40
-0.6
176
     1
 41
-30.0
176
     1
 62
     5
 63
     7
421
 16777215
176
     1
 74
     2
176
     1
 91
        2
176
     1
 64
     7
176
     1
 65
   257
176
     1
 75
     1
176
     1
175
     1
176
     1
 42
40.0
176
     1
 92
        8
176
     1
 66
     7
176
     1
 43
1.0
176
     1
 76
     1
176
     1
 77
     6
176
     1
 78
     2
176
     1
 67
     7
176
     1
 79
     3
176
     1
170
     0
176
     1
171
     0
176
     1
290
     0
176
     1
 93
        1
176
     1
 44
0.0
176
     1
173
     0
176
     1
  0
VISUALSTYLE
  5
35
102
{ACAD_REACTORS
330
2A
102
}
330
2A
100
AcDbVisualStyle
  2
Dim
 70
    11
177
     2
291
     1
 71
     2
176
     1
 72
     2
176
     1
 73
     0
176
     1
 90
        0
176
     1
 40
-0.6
176
     1
 41
-30.0
176
     1
 62
     5
 63
     7
421
 16777215
176
     1
 74
     1
176
     1
 91
        4
176
     1
 64
     7
176
     1
 65
   257
176
     1
 75
     1
176
     1
175
     1
176
     1
 42
1.0
176
     1
 92
        8
176
     1
 66
     7
176
     1
 43
1.0
176
     1
 76
     1
176
     1
 77
     6
176
     1
 78
     2
176
     1
 67
     7
176
     1
 79
     5
176
     1
170
     0
176
     1
171
     0
176
     1
290
     0
176
     1
 93
        1
176
     1
 44
-50.0
176
     1
173
     0
176
     1
  0
VISUALSTYLE
  5
39
102
{ACAD_REACTORS
330
2A
102
}
330
2A
100
AcDbVisualStyle
  2
Facepattern
 70
    15
177
     2
291
     1
 71
     2
176
     1
 72
     2
176
     1
 73
     0
176
     1
 90
        0
176
     1
 40
-0.6
176
     1
 41
-30.0
176
     1
 62
     5
 63
     7
421
 16777215
176
     1
 74
     1
176
     1
 91
        4
176
     1
 64
     7
176
     1
 65
   257
176
     1
 75
     1
176
     1
175
     1
176
     1
 42
1.0
176
     1
 92
        8
176
     1
 66
     7
176
     1
 43
1.0
176
     1
 76
     1
176
     1
 77
     6
176
     1
 78
     2
176
     1
 67
     7
176
     1
 79
     5
176
     1
170
     0
176
     1
171
     0
176
     1
290
     0
176
     1
 93
        1
176
     1
 44
0.0
176
     1
173
     0
176
     1
  0
VISUALSTYLE
  5
2B
102
{ACAD_REACTORS
330
2A
102
}
330
2A
100
AcDbVisualStyle
  2
Flat
 70
     0
177
     2
291
     1
 71
     2
176
     1
 72
     1
176
     1
 73
     1
176
     1
 90
        2
176
     1
 40
-0.6
176
     1
 41
30.0
176
     1
 62
     5
 63
     7
421
 16777215
176
     1
 74
     0
176
     1
 91
        4
176
     1
 64
     7
176
     1
 65
   257
176
     1
 75
     1
176
     1
175
     1
176
     1
 42
1.0
176
     1
 92
        8
176
     1
 66
     7
176
     1
 43
1.0
176
     1
 76
     1
176
     1
 77
     6
176
     1
 78
     2
176
     1
 67
     7
176
     1
 79
     5
176
     1
170
     0
176
     1
171
     0
176
     1
290
     0
176
     1
 93
       13
176
     1
 44
0.0
176
     1
173
     0
176
     1
  0
VISUALSTYLE
  5
2C
102
{ACAD_REACTORS
330
2A
102
}
330
2A
100
AcDbVisualStyle
  2
FlatWithEdges
 70
     1
177
     2
291
     1
 71
     2
176
     1
 72
     1
176
     1
 73
     1
176
     1
 90
        2
176
     1
 40
-0.6
176
     1
 41
30.0
176
     1
 62
     5
 63
     7
421
 16777215
176
     1
 74
     1
176
     1
 91
        4
176
     1
 64
     7
176
     1
 65
   257
176
     1
 75
     1
176
     1
175
     1
176
     1
 42
1.0
176
     1
 92
        0
176
     1
 66
   257
176
     1
 43
1.0
176
     1
 76
     1
176
     1
 77
     6
176
     1
 78
     2
176
     1
 67
     7
176
     1
 79
     5
176
     1
170
     0
176
     1
171
     0
176
     1
290
     0
176
     1
 93
       13
176
     1
 44
0.0
176
     1
173
     0
176
     1
  0
VISUALSTYLE
  5
2D
102
{ACAD_REACTORS
330
2A
102
}
330
2A
100
AcDbVisualStyle
  2
Gouraud
 70
     2
177
     2
291
     1
 71
     2
176
     1
 72
     2
176
     1
 73
     1
176
     1
 90
        2
176
     1
 40
-0.6
176
     1
 41
30.0
176
     1
 62
     5
 63
     7
421
 16777215
176
     1
 74
     0
176
     1
 91
        4
176
     1
 64
     7
176
     1
 65
   257
176
     1
 75
     1
176
     1
175
     1
176
     1
 42
1.0
176
     1
 92
        0
176
     1
 66
     7
176
     1
 43
1.0
176
     1
 76
     1
176
     1
 77
     6
176
     1
 78
     2
176
     1
 67
     7
176
     1
 79
     5
176
     1
170
     0
176
     1
171
     0
176
     1
290
     0
176
     1
 93
       13
176
     1
 44
0.0
176
     1
173
     0
176
     1
  0
VISUALSTYLE
  5
2E
102
{ACAD_REACTORS
330
2A
102
}
330
2A
100
AcDbVisualStyle
  2
GouraudWithEdges
 70
     3
177
     2
291
     1
 71
     2
176
     1
 72
     2
176
     1
 73
     1
176
     1
 90
        2
176
     1
 40
-0.6
176
     1
 41
30.0
176
     1
 62
     5
 63
     7
421
 16777215
176
     1
 74
     1
176
     1
 91
        4
176
     1
 64
     7
176
     1
 65
   257
176
     1
 75
     1
176
     1
175
     1
176
     1
 42
1.0
176
     1
 92
        0
176
     1
 66
   257
176
     1
 43
1.0
176
     1
 76
     1
176
     1
 77
     6
176
     1
 78
     2
176
     1
 67
     7
176
     1
 79
     5
176
     1
170
     0
176
     1
171
     0
176
     1
290
     0
176
     1
 93
       13
176
     1
 44
0.0
176
     1
173
     0
176
     1
  0
VISUALSTYLE
  5
38
102
{ACAD_REACTORS
330
2A
102
}
330
2A
100
AcDbVisualStyle
  2
Linepattern
 70
    14
177
     2
291
     1
 71
     2
176
     1
 72
     2
176
     1
 73
     0
176
     1
 90
        0
176
     1
 40
-0.6
176
     1
 41
-30.0
176
     1
 62
     5
 63
     7
421
 16777215
176
     1
 74
     1
176
     1
 91
        4
176
     1
 64
     7
176
     1
 65
   257
176
     1
 75
     7
176
     1
175
     7
176
     1
 42
1.0
176
     1
 92
        8
176
     1
 66
     7
176
     1
 43
1.0
176
     1
 76
     1
176
     1
 77
     6
176
     1
 78
     2
176
     1
 67
     7
176
     1
 79
     5
176
     1
170
     0
176
     1
171
     0
176
     1
290
     0
176
     1
 93
        1
176
     1
 44
0.0
176
     1
173
     0
176
     1
  0
VISUALSTYLE
  5
33
102
{ACAD_REACTORS
330
2A
102
}
330
2A
100
AcDbVisualStyle
  2
Realistic
 70
     8
177
     2
291
     0
 71
     2
176
     1
 72
     2
176
     1
 73
     0
176
     1
 90
        0
176
     1
 40
-0.6
176
     1
 41
-30.0
176
     1
 62
     5
 63
     7
421
 16777215
176
     1
 74
     1
176
     1
 91
        0
176
     1
 64
     7
176
     1
 65
   257
176
     1
 75
     1
176
     1
175
     1
176
     1
 42
1.0
176
     1
 92
        8
176
     1
 66
     8
424
  7895160
176
     1
 43
1.0
176
     1
 76
     1
176
     1
 77
     6
176
     1
 78
     2
176
     1
 67
     7
176
     1
 79
     5
176
     1
170
     0
176
     1
171
     0
176
     1
290
     0
176
     1
 93
       13
176
     1
 44
0.0
176
     1
173
     0
176
     1
  0
VISUALSTYLE
  5
37
102
{ACAD_REACTORS
330
2A
102
}
330
2A
100
AcDbVisualStyle
  2
Thicken
 70
    13
177
     2
291
     1
 71
     2
176
     1
 72
     2
176
     1
 73
     0
176
     1
 90
        0
176
     1
 40
-0.6
176
     1
 41
-30.0
176
     1
 62
     5
 63
     7
421
 16777215
176
     1
 74
     1
176
     1
 91
        4
176
     1
 64
     7
176
     1
 65
   257
176
     1
 75
     1
176
     1
175
     1
176
     1
 42
1.0
176
     1
 92
       12
176
     1
 66
     7
176
     1
 43
1.0
176
     1
 76
     1
176
     1
 77
     6
176
     1
 78
     2
176
     1
 67
     7
176
     1
 79
     5
176
     1
170
     0
176
     1
171
     0
176
     1
290
     0
176
     1
 93
        1
176
     1
 44
0.0
176
     1
173
     0
176
     1
  0
ENDSEC
  0
EOF
