  0
SECTION
  2
HEADER
  9
$ACADVER
  1
AC1024
  9
$ACADMAINTVER
 70
     6
  9
$DWGCODEPAGE
  3
UNDEFINED
  9
$INSBASE
 10
0.0
 20
0.0
 30
0.0
  9
$EXTMIN
 10
1.000000000000000E+20
 20
1.000000000000000E+20
 30
1.000000000000000E+20
  9
$EXTMAX
 10
-1.000000000000000E+20
 20
-1.000000000000000E+20
 30
-1.000000000000000E+20
  9
$LIMMIN
 10
0.0
 20
0.0
  9
$LIMMAX
 10
12.0
 20
9.0
  9
$ORTHOMODE
 70
     0
  9
$REGENMODE
 70
     1
  9
$FILLMODE
 70
     1
  9
$QTEXTMODE
 70
     0
  9
$MIRRTEXT
 70
     1
  9
$LTSCALE
 40
1.0
  9
$ATTMODE
 70
     1
  9
$TEXTSIZE
 40
0.2
  9
$TRACEWID
 40
0.05
  9
$TEXTSTYLE
  7
Standard
  9
$CLAYER
  8
0
  9
$CELTYPE
  6
ByLayer
  9
$CECOLOR
 62
   256
  9
$CELTSCALE
 40
1.0
  9
$DISPSILH
 70
     0
  9
$DIMSCALE
 40
1.0
  9
$DIMASZ
 40
0.18
  9
$DIMEXO
 40
0.0625
  9
$DIMDLI
 40
0.38
  9
$DIMRND
 40
0.0
  9
$DIMDLE
 40
0.0
  9
$DIMEXE
 40
0.18
  9
$DIMTP
 40
0.0
  9
$DIMTM
 40
0.0
  9
$DIMTXT
 40
0.18
  9
$DIMCEN
 40
0.09
  9
$DIMTSZ
 40
0.0
  9
$DIMTOL
 70
     0
  9
$DIMLIM
 70
     0
  9
$DIMTIH
 70
     1
  9
$DIMTOH
 70
     1
  9
$DIMSE1
 70
     0
  9
$DIMSE2
 70
     0
  9
$DIMTAD
 70
     0
  9
$DIMZIN
 70
     0
  9
$DIMBLK
  1

  9
$DIMASO
 70
     1
  9
$DIMSHO
 70
     1
  9
$DIMPOST
  1

  9
$DIMAPOST
  1

  9
$DIMALT
 70
     0
  9
$DIMALTD
 70
     2
  9
$DIMALTF
 40
25.4
  9
$DIMLFAC
 40
1.0
  9
$DIMTOFL
 70
     0
  9
$DIMTVP
 40
0.0
  9
$DIMTIX
 70
     0
  9
$DIMSOXD
 70
     0
  9
$DIMSAH
 70
     0
  9
$DIMBLK1
  1

  9
$DIMBLK2
  1

  9
$DIMSTYLE
  2
Standard
  9
$DIMCLRD
 70
     0
  9
$DIMCLRE
 70
     0
  9
$DIMCLRT
 70
     0
  9
$DIMTFAC
 40
1.0
  9
$DIMGAP
 40
0.09
  9
$DIMJUST
 70
     0
  9
$DIMSD1
 70
     0
  9
$DIMSD2
 70
     0
  9
$DIMTOLJ
 70
     1
  9
$DIMTZIN
 70
     0
  9
$DIMALTZ
 70
     0
  9
$DIMALTTZ
 70
     0
  9
$DIMUPT
 70
     0
  9
$DIMDEC
 70
     4
  9
$DIMTDEC
 70
     4
  9
$DIMALTU
 70
     2
  9
$DIMALTTD
 70
     2
  9
$DIMTXSTY
  7
Standard
  9
$DIMAUNIT
 70
     0
  9
$DIMADEC
 70
     0
  9
$DIMALTRND
 40
0.0
  9
$DIMAZIN
 70
     0
  9
$DIMDSEP
 70
    46
  9
$DIMATFIT
 70
     3
  9
$DIMFRAC
 70
     0
  9
$DIMLDRBLK
  1

  9
$DIMLUNIT
 70
     2
  9
$DIMLWD
 70
    -2
  9
$DIMLWE
 70
    -2
  9
$DIMTMOVE
 70
     0
  9
$DIMFXL
 40
1.0
  9
$DIMFXLON
 70
     0
  9
$DIMJOGANG
 40
0.7853981633974483
  9
$DIMTFILL
 70
     0
  9
$DIMTFILLCLR
 70
     0
  9
$DIMARCSYM
 70
     0
  9
$DIMLTYPE
  6

  9
$DIMLTEX1
  6

  9
$DIMLTEX2
  6

  9
$DIMTXTDIRECTION
 70
     0
  9
$LUNITS
 70
     2
  9
$LUPREC
 70
     4
  9
$SKETCHINC
 40
0.1
  9
$FILLETRAD
 40
0.5
  9
$AUNITS
 70
     0
  9
$AUPREC
 70
     0
  9
$MENU
  1
.
  9
$ELEVATION
 40
0.0
  9
$PELEVATION
 40
0.0
  9
$THICKNESS
 40
0.0
  9
$LIMCHECK
 70
     0
  9
$CHAMFERA
 40
0.5
  9
$CHAMFERB
 40
0.5
  9
$CHAMFERC
 40
1.0
  9
$CHAMFERD
 40
0.0
  9
$SKPOLY
 70
     0
  9
$TDCREATE
 40
2458263.58398147
  9
$TDUCREATE
 40
2458263.208981481
  9
$TDUPDATE
 40
2458263.58398147
  9
$TDUUPDATE
 40
2458263.208981481
  9
$TDINDWG
 40
0.0000000116
  9
$TDUSRTIMER
 40
0.0000000116
  9
$USRTIMER
 70
     1
  9
$ANGBASE
 50
0.0
  9
$ANGDIR
 70
     0
  9
$PDMODE
 70
     0
  9
$PDSIZE
 40
0.0
  9
$PLINEWID
 40
0.0
  9
$SPLFRAME
 70
     0
  9
$SPLINETYPE
 70
     6
  9
$SPLINESEGS
 70
     8
  9
$HANDSEED
  5
173
  9
$SURFTAB1
 70
     6
  9
$SURFTAB2
 70
     6
  9
$SURFTYPE
 70
     6
  9
$SURFU
 70
     6
  9
$SURFV
 70
     6
  9
$UCSBASE
  2

  9
$UCSNAME
  2

  9
$UCSORG
 10
0.0
 20
0.0
 30
0.0
  9
$UCSXDIR
 10
1.0
 20
0.0
 30
0.0
  9
$UCSYDIR
 10
0.0
 20
1.0
 30
0.0
  9
$UCSORTHOREF
  2

  9
$UCSORTHOVIEW
 70
     0
  9
$UCSORGTOP
 10
0.0
 20
0.0
 30
0.0
  9
$UCSORGBOTTOM
 10
0.0
 20
0.0
 30
0.0
  9
$UCSORGLEFT
 10
0.0
 20
0.0
 30
0.0
  9
$UCSORGRIGHT
 10
0.0
 20
0.0
 30
0.0
  9
$UCSORGFRONT
 10
0.0
 20
0.0
 30
0.0
  9
$UCSORGBACK
 10
0.0
 20
0.0
 30
0.0
  9
$PUCSBASE
  2

  9
$PUCSNAME
  2

  9
$PUCSORG
 10
0.0
 20
0.0
 30
0.0
  9
$PUCSXDIR
 10
1.0
 20
0.0
 30
0.0
  9
$PUCSYDIR
 10
0.0
 20
1.0
 30
0.0
  9
$PUCSORTHOREF
  2

  9
$PUCSORTHOVIEW
 70
     0
  9
$PUCSORGTOP
 10
0.0
 20
0.0
 30
0.0
  9
$PUCSORGBOTTOM
 10
0.0
 20
0.0
 30
0.0
  9
$PUCSORGLEFT
 10
0.0
 20
0.0
 30
0.0
  9
$PUCSORGRIGHT
 10
0.0
 20
0.0
 30
0.0
  9
$PUCSORGFRONT
 10
0.0
 20
0.0
 30
0.0
  9
$PUCSORGBACK
 10
0.0
 20
0.0
 30
0.0
  9
$USERI1
 70
     0
  9
$USERI2
 70
     0
  9
$USERI3
 70
     0
  9
$USERI4
 70
     0
  9
$USERI5
 70
     0
  9
$USERR1
 40
0.0
  9
$USERR2
 40
0.0
  9
$USERR3
 40
0.0
  9
$USERR4
 40
0.0
  9
$USERR5
 40
0.0
  9
$WORLDVIEW
 70
     1
  9
$SHADEDGE
 70
     3
  9
$SHADEDIF
 70
    70
  9
$TILEMODE
 70
     1
  9
$MAXACTVP
 70
    64
  9
$PINSBASE
 10
0.0
 20
0.0
 30
0.0
  9
$PLIMCHECK
 70
     0
  9
$PEXTMIN
 10
1.000000000000000E+20
 20
1.000000000000000E+20
 30
1.000000000000000E+20
  9
$PEXTMAX
 10
-1.000000000000000E+20
 20
-1.000000000000000E+20
 30
-1.000000000000000E+20
  9
$PLIMMIN
 10
0.0
 20
0.0
  9
$PLIMMAX
 10
12.0
 20
9.0
  9
$UNITMODE
 70
     0
  9
$VISRETAIN
 70
     1
  9
$PLINEGEN
 70
     0
  9
$PSLTSCALE
 70
     1
  9
$TREEDEPTH
 70
  3020
  9
$CMLSTYLE
  2
Standard
  9
$CMLJUST
 70
     0
  9
$CMLSCALE
 40
1.0
  9
$PROXYGRAPHICS
 70
     1
  9
$MEASUREMENT
 70
     0
  9
$CELWEIGHT
370
    -1
  9
$ENDCAPS
280
     0
  9
$JOINSTYLE
280
     0
  9
$LWDISPLAY
290
     1
  9
$INSUNITS
 70
     1
  9
$HYPERLINKBASE
  1

  9
$STYLESHEET
  1

  9
$XEDIT
290
     1
  9
$CEPSNTYPE
380
     0
  9
$PSTYLEMODE
290
     1
  9
$FINGERPRINTGUID
  2
{E169810E-3A7F-AA85-6F46-824FD2CF6C2B}
  9
$VERSIONGUID
  2
{FAEB1C32-E019-11D5-929B-00C0DF256EC4}
  9
$EXTNAMES
290
     1
  9
$PSVPSCALE
 40
0.0
  9
$OLESTARTUP
290
     0
  9
$SORTENTS
280
   127
  9
$INDEXCTL
280
     0
  9
$HIDETEXT
280
     1
  9
$XCLIPFRAME
280
     2
  9
$HALOGAP
280
     0
  9
$OBSCOLOR
 70
   257
  9
$OBSLTYPE
280
     0
  9
$INTERSECTIONDISPLAY
280
     0
  9
$INTERSECTIONCOLOR
 70
   257
  9
$DIMASSOC
280
     2
  9
$PROJECTNAME
  1

  9
$CAMERADISPLAY
290
     0
  9
$LENSLENGTH
 40
50.0
  9
$CAMERAHEIGHT
 40
0.0
  9
$STEPSPERSEC
 40
2.0
  9
$STEPSIZE
 40
6.0
  9
$3DDWFPREC
 40
2.0
  9
$PSOLWIDTH
 40
0.25
  9
$PSOLHEIGHT
 40
4.0
  9
$LOFTANG1
 40
1.570796326794897
  9
$LOFTANG2
 40
1.570796326794897
  9
$LOFTMAG1
 40
0.0
  9
$LOFTMAG2
 40
0.0
  9
$LOFTPARAM
 70
     7
  9
$LOFTNORMALS
280
     1
  9
$LATITUDE
 40
37.795
  9
$LONGITUDE
 40
-122.394
  9
$NORTHDIRECTION
 40
0.0
  9
$TIMEZONE
 70
 -8000
  9
$LIGHTGLYPHDISPLAY
280
     1
  9
$TILEMODELIGHTSYNCH
280
     1
  9
$CMATERIAL
347
3C
  9
$SOLIDHIST
280
     1
  9
$SHOWHIST
280
     1
  9
$DWFFRAME
280
     2
  9
$DGNFRAME
280
     2
  9
$REALWORLDSCALE
290
     1
  9
$INTERFERECOLOR
 62
   256
  9
$CSHADOW
280
     0
  9
$SHADOWPLANELOCATION
 40
0.0
  0
ENDSEC
  0
SECTION
  2
CLASSES
  0
CLASS
  1
ACDBDICTIONARYWDFLT
  2
AcDbDictionaryWithDefault
  3
ObjectDBX Classes
 90
        0
 91
        4
280
     0
281
     0
  0
CLASS
  1
VISUALSTYLE
  2
AcDbVisualStyle
  3
ObjectDBX Classes
 90
     4095
 91
        4
280
     0
281
     0
  0
CLASS
  1
MATERIAL
  2
AcDbMaterial
  3
ObjectDBX Classes
 90
     1153
 91
        4
280
     0
281
     0
  0
CLASS
  1
SUN
  2
AcDbSun
  3
SCENEOE
 90
     1024
 91
        4
280
     0
281
     0
  0
ENDSEC
  0
SECTION
  2
TABLES
  0
TABLE
  2
VPORT
  5
8
330
0
100
AcDbSymbolTable
 70
     1
  0
VPORT
  5
29
330
8
100
AcDbSymbolTableRecord
100
AcDbViewportTableRecord
  2
*Active
 70
     0
 10
0.0
 20
0.0
 11
1.0
 21
1.0
 12
0.0
 22
0.0
 13
0.0
 23
0.0
 14
0.5
 24
0.5
 15
0.5
 25
0.5
 16
0.0
 26
0.0
 36
1.0
 17
105.0007777515277
 27
-148.5000416295416
 37
0.0
 40
297.0000832590831
 41
0.7070757462376333
 42
50.0
 43
0.0
 44
0.0
 50
0.0
 51
0.0
 71
     0
 72
   100
 73
     1
 74
     3
 75
     0
 76
     0
 77
     0
 78
     0
281
     0
 65
     1
110
0.0
120
0.0
130
0.0
111
1.0
121
0.0
131
0.0
112
0.0
122
1.0
132
0.0
 79
     0
146
0.0
 60
     3
 61
     5
292
     1
282
     1
141
0.0
142
0.0
 63
   250
361
3F
  0
ENDTAB
  0
TABLE
  2
LTYPE
  5
5
330
0
100
AcDbSymbolTable
 70
     1
  0
LTYPE
  5
14
330
5
100
AcDbSymbolTableRecord
100
AcDbLinetypeTableRecord
  2
ByBlock
 70
     0
  3

 72
    65
 73
     0
 40
0.0
  0
LTYPE
  5
15
330
5
100
AcDbSymbolTableRecord
100
AcDbLinetypeTableRecord
  2
ByLayer
 70
     0
  3

 72
    65
 73
     0
 40
0.0
  0
LTYPE
  5
16
330
5
100
AcDbSymbolTableRecord
100
AcDbLinetypeTableRecord
  2
Continuous
 70
     0
  3
Solid line
 72
    65
 73
     0
 40
0.0
  0
ENDTAB
  0
TABLE
  2
LAYER
  5
2
330
0
100
AcDbSymbolTable
 70
     2
  0
LAYER
  5
10
330
2
100
AcDbSymbolTableRecord
100
AcDbLayerTableRecord
  2
0
 70
     0
 62
     7
  6
Continuous
370
    -3
390
F
347
3E
  0
LAYER
  5
40
330
2
100
AcDbSymbolTableRecord
100
AcDbLayerTableRecord
  2
_U+30EC_U+30A4_U+30E4_U+30FC 1
 70
     0
 62
     7
  6
Continuous
370
    -3
390
F
347
3E
  0
ENDTAB
  0
TABLE
  2
STYLE
  5
3
330
0
100
AcDbSymbolTable
 70
     1
  0
STYLE
  5
11
330
3
100
AcDbSymbolTableRecord
100
AcDbTextStyleTableRecord
  2
Standard
 70
     0
 40
0.0
 41
1.0
 50
0.0
 71
     0
 42
0.2
  3
txt
  4

  0
ENDTAB
  0
TABLE
  2
VIEW
  5
6
330
0
100
AcDbSymbolTable
 70
     0
  0
ENDTAB
  0
TABLE
  2
UCS
  5
7
330
0
100
AcDbSymbolTable
 70
     0
  0
ENDTAB
  0
TABLE
  2
APPID
  5
9
330
0
100
AcDbSymbolTable
 70
     1
  0
APPID
  5
12
330
9
100
AcDbSymbolTableRecord
100
AcDbRegAppTableRecord
  2
ACAD
 70
     0
  0
ENDTAB
  0
TABLE
  2
DIMSTYLE
  5
A
330
0
100
AcDbSymbolTable
 70
     1
100
AcDbDimStyleTable
  0
DIMSTYLE
105
27
330
A
100
AcDbSymbolTableRecord
100
AcDbDimStyleTableRecord
  2
Standard
 70
     0
178
     0
340
11
  0
ENDTAB
  0
TABLE
  2
BLOCK_RECORD
  5
1
330
0
100
AcDbSymbolTable
 70
    10
  0
BLOCK_RECORD
  5
1F
330
1
100
AcDbSymbolTableRecord
100
AcDbBlockTableRecord
  2
*Model_Space
340
22
 70
     0
280
     1
281
     0
  0
BLOCK_RECORD
  5
1B
330
1
100
AcDbSymbolTableRecord
100
AcDbBlockTableRecord
  2
*Paper_Space
340
1E
 70
     0
280
     1
281
     0
  0
BLOCK_RECORD
  5
23
330
1
100
AcDbSymbolTableRecord
100
AcDbBlockTableRecord
  2
*Paper_Space0
340
26
 70
     0
280
     1
281
     0
  0
BLOCK_RECORD
  5
41
330
1
100
AcDbSymbolTableRecord
100
AcDbBlockTableRecord
  2
block 2
340
0
102
{BLKREFS
331
42
102
}
 70
     0
280
     1
281
     0
  0
BLOCK_RECORD
  5
49
330
1
100
AcDbSymbolTableRecord
100
AcDbBlockTableRecord
  2
block 3
340
0
102
{BLKREFS
331
4A
102
}
 70
     0
280
     1
281
     0
  0
BLOCK_RECORD
  5
85
330
1
100
AcDbSymbolTableRecord
100
AcDbBlockTableRecord
  2
block 4
340
0
102
{BLKREFS
331
86
102
}
 70
     0
280
     1
281
     0
  0
BLOCK_RECORD
  5
95
330
1
100
AcDbSymbolTableRecord
100
AcDbBlockTableRecord
  2
block 5
340
0
102
{BLKREFS
331
96
102
}
 70
     0
280
     1
281
     0
  0
BLOCK_RECORD
  5
A7
330
1
100
AcDbSymbolTableRecord
100
AcDbBlockTableRecord
  2
block 6
340
0
102
{BLKREFS
331
A8
102
}
 70
     0
280
     1
281
     0
  0
BLOCK_RECORD
  5
B0
330
1
100
AcDbSymbolTableRecord
100
AcDbBlockTableRecord
  2
block 7
340
0
102
{BLKREFS
331
B1
102
}
 70
     0
280
     1
281
     0
  0
BLOCK_RECORD
  5
B8
330
1
100
AcDbSymbolTableRecord
100
AcDbBlockTableRecord
  2
block 8
340
0
102
{BLKREFS
331
B9
102
}
 70
     0
280
     1
281
     0
  0
BLOCK_RECORD
  5
C0
330
1
100
AcDbSymbolTableRecord
100
AcDbBlockTableRecord
  2
block 9
340
0
102
{BLKREFS
331
C1
102
}
 70
     0
280
     1
281
     0
  0
BLOCK_RECORD
  5
D2
330
1
100
AcDbSymbolTableRecord
100
AcDbBlockTableRecord
  2
block 10
340
0
102
{BLKREFS
331
D3
102
}
 70
     0
280
     1
281
     0
  0
ENDTAB
  0
ENDSEC
  0
SECTION
  2
BLOCKS
  0
BLOCK
  5
20
330
1F
100
AcDbEntity
  8
0
100
AcDbBlockBegin
  2
*Model_Space
 70
     0
 10
0.0
 20
0.0
 30
0.0
  3
*Model_Space
  1

  0
ENDBLK
  5
21
330
1F
100
AcDbEntity
  8
0
100
AcDbBlockEnd
  0
BLOCK
  5
1C
330
1B
100
AcDbEntity
 67
     1
  8
0
100
AcDbBlockBegin
  2
*Paper_Space
 70
     0
 10
0.0
 20
0.0
 30
0.0
  3
*Paper_Space
  1

  0
ENDBLK
  5
1D
330
1B
100
AcDbEntity
 67
     1
  8
0
100
AcDbBlockEnd
  0
BLOCK
  5
24
330
23
100
AcDbEntity
  8
0
100
AcDbBlockBegin
  2
*Paper_Space0
 70
     0
 10
0.0
 20
0.0
 30
0.0
  3
*Paper_Space0
  1

  0
ENDBLK
  5
25
330
23
100
AcDbEntity
  8
0
100
AcDbBlockEnd
  0
BLOCK
  5
43
330
41
100
AcDbEntity
  8
0
100
AcDbBlockBegin
  2
block 2
 70
     0
 10
0.0
 20
0.0
 30
0.0
  3
block 2
  1

  0
SPLINE
  5
45
330
41
100
AcDbEntity
  8
_U+30EC_U+30A4_U+30E4_U+30FC 1
370
     0
100
AcDbSpline
210
0.0
220
0.0
230
1.0
 70
    11
 71
     3
 72
    62
 73
    58
 74
     0
 42
0.0000000001
 43
0.0000000001
 12
1.0
 22
0.0
 32
0.0
 13
1.0
 23
0.0
 33
0.0
 40
0.0
 40
0.0
 40
0.0
 40
0.0
 40
1.0
 40
1.0
 40
1.0
 40
2.0
 40
2.0
 40
2.0
 40
3.0
 40
3.0
 40
3.0
 40
4.0
 40
4.0
 40
4.0
 40
5.0
 40
5.0
 40
5.0
 40
6.0
 40
6.0
 40
6.0
 40
7.0
 40
7.0
 40
7.0
 40
8.0
 40
8.0
 40
8.0
 40
9.0
 40
9.0
 40
9.0
 40
10.0
 40
10.0
 40
10.0
 40
11.0
 40
11.0
 40
11.0
 40
12.0
 40
12.0
 40
12.0
 40
13.0
 40
13.0
 40
13.0
 40
14.0
 40
14.0
 40
14.0
 40
15.0
 40
15.0
 40
15.0
 40
16.0
 40
16.0
 40
16.0
 40
17.0
 40
17.0
 40
17.0
 40
18.0
 40
18.0
 40
18.0
 40
19.0
 40
19.0
 40
19.0
 40
19.0
 10
98.65272078696877
 20
-132.9996337558126
 30
0.0
 10
98.56934947622572
 20
-132.9996337558126
 30
0.0
 10
98.37849118634288
 20
-132.9784464185783
 30
0.0
 10
98.26928165946046
 20
-132.7922390076006
 30
0.0
 10
98.20451386433777
 20
-132.6801011495557
 30
0.0
 10
98.200724259304
 20
-132.5807101448062
 30
0.0
 10
98.19693465427021
 20
-132.4961330506433
 30
0.0
 10
98.19693465427021
 20
-132.4961330506433
 30
0.0
 10
98.3898600014442
 20
-132.4961330506433
 30
0.0
 10
98.3898600014442
 20
-132.4961330506433
 30
0.0
 10
98.39158254918684
 20
-132.5702026035762
 30
0.0
 10
98.400884306997
 20
-132.804985860896
 30
0.0
 10
98.648931181935
 20
-132.804985860896
 30
0.0
 10
98.76916501437022
 20
-132.804985860896
 30
0.0
 10
98.90249020964939
 20
-132.7352226773197
 30
0.0
 10
98.90249020964939
 20
-132.5066405918733
 30
0.0
 10
98.90249020964939
 20
-132.3903686192462
 30
0.0
 10
98.86941729299099
 20
-132.3416205181299
 30
0.0
 10
98.84151201956045
 20
-132.3099256396656
 30
0.0
 10
98.77674422443776
 20
-132.2358560867327
 30
0.0
 10
98.67476939807437
 20
-132.2232814882115
 30
0.0
 10
98.6268825708294
 20
-132.2232814882115
 30
0.0
 10
98.61000160295167
 20
-132.2232814882115
 30
0.0
 10
98.5786512340359
 20
-132.2253485455027
 30
0.0
 10
98.55453556563914
 20
-132.229482660085
 30
0.0
 10
98.55453556563914
 20
-132.229482660085
 30
0.0
 10
98.55453556563914
 20
-132.0348347651684
 30
0.0
 10
98.55453556563914
 20
-132.0348347651684
 30
0.0
 10
98.58795299184607
 20
-132.0412081918161
 30
0.0
 10
98.62481551353825
 20
-132.0434475038815
 30
0.0
 10
98.63032766631464
 20
-132.0434475038815
 30
0.0
 10
98.68786076091831
 20
-132.0434475038815
 30
0.0
 10
98.86183808292343
 20
-132.0222601666472
 30
0.0
 10
98.86183808292343
 20
-131.785237597262
 30
0.0
 10
98.86183808292343
 20
-131.6076429249974
 30
0.0
 10
98.74711640326461
 20
-131.5525213972334
 30
0.0
 10
98.65065372967761
 20
-131.5525213972334
 30
0.0
 10
98.41948782261736
 20
-131.5525213972334
 30
0.0
 10
98.41190861254981
 20
-131.785237597262
 30
0.0
 10
98.40811900751604
 20
-131.8572400929038
 30
0.0
 10
98.40811900751604
 20
-131.8572400929038
 30
0.0
 10
98.23035208047713
 20
-131.8572400929038
 30
0.0
 10
98.23035208047713
 20
-131.8572400929038
 30
0.0
 10
98.2379312905447
 20
-131.7323553815635
 30
0.0
 10
98.26204695894144
 20
-131.3558064450256
 30
0.0
 10
98.66202254477895
 20
-131.3558064450256
 30
0.0
 10
98.85804847788965
 20
-131.3558064450256
 30
0.0
 10
99.06923283113548
 20
-131.4827582136571
 30
0.0
 10
99.06923283113548
 20
-131.7788641706143
 30
0.0
 10
99.06923283113548
 20
-131.9650715815921
 30
0.0
 10
98.98586152039243
 20
-132.0475816184638
 30
0.0
 10
98.89904511416414
 20
-132.1089043181013
 30
0.0
 10
98.95278860373404
 20
-132.1364650819833
 30
0.0
 10
99.11195201515257
 20
-132.2169080615638
 30
0.0
 10
99.11195201515257
 20
-132.4940659933522
 30
0.0
 10
99.11195201515257
 20
-132.832546624778
 30
0.0
 10
98.89525550913035
 20
-132.9996337558126
 30
0.0
 10
98.65272078696877
 20
-132.9996337558126
 30
0.0
  0
HATCH
  5
46
330
41
100
AcDbEntity
  8
_U+30EC_U+30A4_U+30E4_U+30FC 1
 62
   179
420
  2234388
100
AcDbHatch
 10
0.0
 20
0.0
 30
0.0
210
0.0
220
0.0
230
1.0
  2
SOLID
 70
     1
 71
     0
 91
        1
 92
        1
 93
        1
 72
     4
 94
        3
 73
     0
 74
     1
 95
       62
 96
       58
 40
0.0
 40
0.0
 40
0.0
 40
0.0
 40
1.0
 40
1.0
 40
1.0
 40
2.0
 40
2.0
 40
2.0
 40
3.0
 40
3.0
 40
3.0
 40
4.0
 40
4.0
 40
4.0
 40
5.0
 40
5.0
 40
5.0
 40
6.0
 40
6.0
 40
6.0
 40
7.0
 40
7.0
 40
7.0
 40
8.0
 40
8.0
 40
8.0
 40
9.0
 40
9.0
 40
9.0
 40
10.0
 40
10.0
 40
10.0
 40
11.0
 40
11.0
 40
11.0
 40
12.0
 40
12.0
 40
12.0
 40
13.0
 40
13.0
 40
13.0
 40
14.0
 40
14.0
 40
14.0
 40
15.0
 40
15.0
 40
15.0
 40
16.0
 40
16.0
 40
16.0
 40
17.0
 40
17.0
 40
17.0
 40
18.0
 40
18.0
 40
18.0
 40
19.0
 40
19.0
 40
19.0
 40
19.0
 10
98.65272078696877
 20
-132.9996337558126
 10
98.56934947622572
 20
-132.9996337558126
 10
98.37849118634288
 20
-132.9784464185783
 10
98.26928165946046
 20
-132.7922390076006
 10
98.20451386433777
 20
-132.6801011495557
 10
98.200724259304
 20
-132.5807101448062
 10
98.19693465427021
 20
-132.4961330506433
 10
98.19693465427021
 20
-132.4961330506433
 10
98.3898600014442
 20
-132.4961330506433
 10
98.3898600014442
 20
-132.4961330506433
 10
98.39158254918684
 20
-132.5702026035762
 10
98.400884306997
 20
-132.804985860896
 10
98.648931181935
 20
-132.804985860896
 10
98.76916501437022
 20
-132.804985860896
 10
98.90249020964939
 20
-132.7352226773197
 10
98.90249020964939
 20
-132.5066405918733
 10
98.90249020964939
 20
-132.3903686192462
 10
98.86941729299099
 20
-132.3416205181299
 10
98.84151201956045
 20
-132.3099256396656
 10
98.77674422443776
 20
-132.2358560867327
 10
98.67476939807437
 20
-132.2232814882115
 10
98.6268825708294
 20
-132.2232814882115
 10
98.61000160295167
 20
-132.2232814882115
 10
98.5786512340359
 20
-132.2253485455027
 10
98.55453556563914
 20
-132.229482660085
 10
98.55453556563914
 20
-132.229482660085
 10
98.55453556563914
 20
-132.0348347651684
 10
98.55453556563914
 20
-132.0348347651684
 10
98.58795299184607
 20
-132.0412081918161
 10
98.62481551353825
 20
-132.0434475038815
 10
98.63032766631464
 20
-132.0434475038815
 10
98.68786076091831
 20
-132.0434475038815
 10
98.86183808292343
 20
-132.0222601666472
 10
98.86183808292343
 20
-131.785237597262
 10
98.86183808292343
 20
-131.6076429249974
 10
98.74711640326461
 20
-131.5525213972334
 10
98.65065372967761
 20
-131.5525213972334
 10
98.41948782261736
 20
-131.5525213972334
 10
98.41190861254981
 20
-131.785237597262
 10
98.40811900751604
 20
-131.8572400929038
 10
98.40811900751604
 20
-131.8572400929038
 10
98.23035208047713
 20
-131.8572400929038
 10
98.23035208047713
 20
-131.8572400929038
 10
98.2379312905447
 20
-131.7323553815635
 10
98.26204695894144
 20
-131.3558064450256
 10
98.66202254477895
 20
-131.3558064450256
 10
98.85804847788965
 20
-131.3558064450256
 10
99.06923283113548
 20
-131.4827582136571
 10
99.06923283113548
 20
-131.7788641706143
 10
99.06923283113548
 20
-131.9650715815921
 10
98.98586152039243
 20
-132.0475816184638
 10
98.89904511416414
 20
-132.1089043181013
 10
98.95278860373404
 20
-132.1364650819833
 10
99.11195201515257
 20
-132.2169080615638
 10
99.11195201515257
 20
-132.4940659933522
 10
99.11195201515257
 20
-132.832546624778
 10
98.89525550913035
 20
-132.9996337558126
 10
98.65272078696877
 20
-132.9996337558126
 97
        0
 97
        0
 75
     2
 76
     1
 98
        0
  0
SPLINE
  5
47
330
41
100
AcDbEntity
  8
_U+30EC_U+30A4_U+30E4_U+30FC 1
370
     0
100
AcDbSpline
210
0.0
220
0.0
230
1.0
 70
    11
 71
     3
 72
    44
 73
    40
 74
     0
 42
0.0000000001
 43
0.0000000001
 12
1.0
 22
0.0
 32
0.0
 13
1.0
 23
0.0
 33
0.0
 40
0.0
 40
0.0
 40
0.0
 40
0.0
 40
1.0
 40
1.0
 40
1.0
 40
2.0
 40
2.0
 40
2.0
 40
3.0
 40
3.0
 40
3.0
 40
4.0
 40
4.0
 40
4.0
 40
5.0
 40
5.0
 40
5.0
 40
6.0
 40
6.0
 40
6.0
 40
7.0
 40
7.0
 40
7.0
 40
8.0
 40
8.0
 40
8.0
 40
9.0
 40
9.0
 40
9.0
 40
10.0
 40
10.0
 40
10.0
 40
11.0
 40
11.0
 40
11.0
 40
12.0
 40
12.0
 40
12.0
 40
13.0
 40
13.0
 40
13.0
 40
13.0
 10
99.77237681967496
 20
-132.3671142247207
 30
0.0
 10
99.58151852979212
 20
-132.5257608718165
 30
0.0
 10
99.50021427634023
 20
-132.5998304247493
 30
0.0
 10
99.45749509232313
 20
-132.7436631612585
 30
0.0
 10
99.45749509232313
 20
-132.7436631612585
 30
0.0
 10
100.1389349793055
 20
-132.7436631612585
 30
0.0
 10
100.1389349793055
 20
-132.7436631612585
 30
0.0
 10
100.1389349793055
 20
-132.7436631612585
 30
0.0
 10
100.1389349793055
 20
-132.9488185974052
 30
0.0
 10
100.1389349793055
 20
-132.9488185974052
 30
0.0
 10
100.1389349793055
 20
-132.9488185974052
 30
0.0
 10
99.2390760385583
 20
-132.9488185974052
 30
0.0
 10
99.2390760385583
 20
-132.9488185974052
 30
0.0
 10
99.26663680244029
 20
-132.5912176860362
 30
0.0
 10
99.32416989704396
 20
-132.5130140185211
 30
0.0
 10
99.6611002355014
 20
-132.2146687494984
 30
0.0
 10
99.88537595159116
 20
-132.0158867399995
 30
0.0
 10
99.9425645366463
 20
-131.9481906137144
 30
0.0
 10
99.9425645366463
 20
-131.8107313038529
 30
0.0
 10
99.9425645366463
 20
-131.6922200191603
 30
0.0
 10
99.87951928926624
 20
-131.5611341359465
 30
0.0
 10
99.70760902455227
 20
-131.5611341359465
 30
0.0
 10
99.47988821297726
 20
-131.5611341359465
 30
0.0
 10
99.47230900290971
 20
-131.7916110239098
 30
0.0
 10
99.46851939787594
 20
-131.9080552513112
 30
0.0
 10
99.46851939787594
 20
-131.9080552513112
 30
0.0
 10
99.27249346476522
 20
-131.9080552513112
 30
0.0
 10
99.27249346476522
 20
-131.9080552513112
 30
0.0
 10
99.27972816528424
 20
-131.7811034826797
 30
0.0
 10
99.28902992309442
 20
-131.6689656246348
 30
0.0
 10
99.35930987099351
 20
-131.5504543399423
 30
0.0
 10
99.45577254458051
 20
-131.3897406355553
 30
0.0
 10
99.61872556103282
 20
-131.3558064450256
 30
0.0
 10
99.7203558778477
 20
-131.3558064450256
 30
0.0
 10
99.96289060000929
 20
-131.3558064450256
 30
0.0
 10
100.144447132082
 20
-131.5399467987122
 30
0.0
 10
100.144447132082
 20
-131.812798361144
 30
0.0
 10
100.144447132082
 20
-132.0412081918161
 30
0.0
 10
100.0428168152671
 20
-132.1407714513398
 30
0.0
 10
99.77237681967496
 20
-132.3671142247207
 30
0.0
  0
HATCH
  5
48
330
41
100
AcDbEntity
  8
_U+30EC_U+30A4_U+30E4_U+30FC 1
 62
   179
420
  2234388
100
AcDbHatch
 10
0.0
 20
0.0
 30
0.0
210
0.0
220
0.0
230
1.0
  2
SOLID
 70
     1
 71
     0
 91
        1
 92
        1
 93
        1
 72
     4
 94
        3
 73
     0
 74
     1
 95
       44
 96
       40
 40
0.0
 40
0.0
 40
0.0
 40
0.0
 40
1.0
 40
1.0
 40
1.0
 40
2.0
 40
2.0
 40
2.0
 40
3.0
 40
3.0
 40
3.0
 40
4.0
 40
4.0
 40
4.0
 40
5.0
 40
5.0
 40
5.0
 40
6.0
 40
6.0
 40
6.0
 40
7.0
 40
7.0
 40
7.0
 40
8.0
 40
8.0
 40
8.0
 40
9.0
 40
9.0
 40
9.0
 40
10.0
 40
10.0
 40
10.0
 40
11.0
 40
11.0
 40
11.0
 40
12.0
 40
12.0
 40
12.0
 40
13.0
 40
13.0
 40
13.0
 40
13.0
 10
99.77237681967496
 20
-132.3671142247207
 10
99.58151852979212
 20
-132.5257608718165
 10
99.50021427634023
 20
-132.5998304247493
 10
99.45749509232313
 20
-132.7436631612585
 10
99.45749509232313
 20
-132.7436631612585
 10
100.1389349793055
 20
-132.7436631612585
 10
100.1389349793055
 20
-132.7436631612585
 10
100.1389349793055
 20
-132.7436631612585
 10
100.1389349793055
 20
-132.9488185974052
 10
100.1389349793055
 20
-132.9488185974052
 10
100.1389349793055
 20
-132.9488185974052
 10
99.2390760385583
 20
-132.9488185974052
 10
99.2390760385583
 20
-132.9488185974052
 10
99.26663680244029
 20
-132.5912176860362
 10
99.32416989704396
 20
-132.5130140185211
 10
99.6611002355014
 20
-132.2146687494984
 10
99.88537595159116
 20
-132.0158867399995
 10
99.9425645366463
 20
-131.9481906137144
 10
99.9425645366463
 20
-131.8107313038529
 10
99.9425645366463
 20
-131.6922200191603
 10
99.87951928926624
 20
-131.5611341359465
 10
99.70760902455227
 20
-131.5611341359465
 10
99.47988821297726
 20
-131.5611341359465
 10
99.47230900290971
 20
-131.7916110239098
 10
99.46851939787594
 20
-131.9080552513112
 10
99.46851939787594
 20
-131.9080552513112
 10
99.27249346476522
 20
-131.9080552513112
 10
99.27249346476522
 20
-131.9080552513112
 10
99.27972816528424
 20
-131.7811034826797
 10
99.28902992309442
 20
-131.6689656246348
 10
99.35930987099351
 20
-131.5504543399423
 10
99.45577254458051
 20
-131.3897406355553
 10
99.61872556103282
 20
-131.3558064450256
 10
99.7203558778477
 20
-131.3558064450256
 10
99.96289060000929
 20
-131.3558064450256
 10
100.144447132082
 20
-131.5399467987122
 10
100.144447132082
 20
-131.812798361144
 10
100.144447132082
 20
-132.0412081918161
 10
100.0428168152671
 20
-132.1407714513398
 10
99.77237681967496
 20
-132.3671142247207
 97
        0
 97
        0
 75
     2
 76
     1
 98
        0
  0
ENDBLK
  5
44
330
41
100
AcDbEntity
  8
0
100
AcDbBlockEnd
  0
BLOCK
  5
4B
330
49
100
AcDbEntity
  8
0
100
AcDbBlockBegin
  2
block 3
 70
     0
 10
0.0
 20
0.0
 30
0.0
  3
block 3
  1

  0
SPLINE
  5
4D
330
49
100
AcDbEntity
  8
_U+30EC_U+30A4_U+30E4_U+30FC 1
370
     0
100
AcDbSpline
210
0.0
220
0.0
230
1.0
 70
    11
 71
     3
 72
   197
 73
   193
 74
     0
 42
0.0000000001
 43
0.0000000001
 12
1.0
 22
0.0
 32
0.0
 13
1.0
 23
0.0
 33
0.0
 40
0.0
 40
0.0
 40
0.0
 40
0.0
 40
1.0
 40
1.0
 40
1.0
 40
2.0
 40
2.0
 40
2.0
 40
3.0
 40
3.0
 40
3.0
 40
4.0
 40
4.0
 40
4.0
 40
5.0
 40
5.0
 40
5.0
 40
6.0
 40
6.0
 40
6.0
 40
7.0
 40
7.0
 40
7.0
 40
8.0
 40
8.0
 40
8.0
 40
9.0
 40
9.0
 40
9.0
 40
10.0
 40
10.0
 40
10.0
 40
11.0
 40
11.0
 40
11.0
 40
12.0
 40
12.0
 40
12.0
 40
13.0
 40
13.0
 40
13.0
 40
14.0
 40
14.0
 40
14.0
 40
15.0
 40
15.0
 40
15.0
 40
16.0
 40
16.0
 40
16.0
 40
17.0
 40
17.0
 40
17.0
 40
18.0
 40
18.0
 40
18.0
 40
19.0
 40
19.0
 40
19.0
 40
20.0
 40
20.0
 40
20.0
 40
21.0
 40
21.0
 40
21.0
 40
22.0
 40
22.0
 40
22.0
 40
23.0
 40
23.0
 40
23.0
 40
24.0
 40
24.0
 40
24.0
 40
25.0
 40
25.0
 40
25.0
 40
26.0
 40
26.0
 40
26.0
 40
27.0
 40
27.0
 40
27.0
 40
28.0
 40
28.0
 40
28.0
 40
29.0
 40
29.0
 40
29.0
 40
30.0
 40
30.0
 40
30.0
 40
31.0
 40
31.0
 40
31.0
 40
32.0
 40
32.0
 40
32.0
 40
33.0
 40
33.0
 40
33.0
 40
34.0
 40
34.0
 40
34.0
 40
35.0
 40
35.0
 40
35.0
 40
36.0
 40
36.0
 40
36.0
 40
37.0
 40
37.0
 40
37.0
 40
38.0
 40
38.0
 40
38.0
 40
39.0
 40
39.0
 40
39.0
 40
40.0
 40
40.0
 40
40.0
 40
41.0
 40
41.0
 40
41.0
 40
42.0
 40
42.0
 40
42.0
 40
43.0
 40
43.0
 40
43.0
 40
44.0
 40
44.0
 40
44.0
 40
45.0
 40
45.0
 40
45.0
 40
46.0
 40
46.0
 40
46.0
 40
47.0
 40
47.0
 40
47.0
 40
48.0
 40
48.0
 40
48.0
 40
49.0
 40
49.0
 40
49.0
 40
50.0
 40
50.0
 40
50.0
 40
51.0
 40
51.0
 40
51.0
 40
52.0
 40
52.0
 40
52.0
 40
53.0
 40
53.0
 40
53.0
 40
54.0
 40
54.0
 40
54.0
 40
55.0
 40
55.0
 40
55.0
 40
56.0
 40
56.0
 40
56.0
 40
57.0
 40
57.0
 40
57.0
 40
58.0
 40
58.0
 40
58.0
 40
59.0
 40
59.0
 40
59.0
 40
60.0
 40
60.0
 40
60.0
 40
61.0
 40
61.0
 40
61.0
 40
62.0
 40
62.0
 40
62.0
 40
63.0
 40
63.0
 40
63.0
 40
64.0
 40
64.0
 40
64.0
 40
64.0
 10
122.3618679164582
 20
-134.9688503351814
 30
0.0
 10
122.352566158648
 20
-134.9983059015803
 30
0.0
 10
122.332240095285
 20
-135.0449869454054
 30
0.0
 10
122.3229383374748
 20
-135.0723754545131
 30
0.0
 10
122.3229383374748
 20
-135.0723754545131
 30
0.0
 10
122.2691948479049
 20
-135.2248209297355
 30
0.0
 10
122.2691948479049
 20
-135.2248209297355
 30
0.0
 10
122.2598930900947
 20
-135.2501423815521
 30
0.0
 10
122.2171739060777
 20
-135.3622802395969
 30
0.0
 10
122.2061496005249
 20
-135.3855346341224
 30
0.0
 10
122.2044270527822
 20
-135.3919080607701
 30
0.0
 10
122.2006374477485
 20
-135.4003485447089
 30
0.0
 10
122.1989149000058
 20
-135.4067219713567
 30
0.0
 10
122.1989149000058
 20
-135.4067219713567
 30
0.0
 10
122.0156358201905
 20
-135.3538397556581
 30
0.0
 10
122.0156358201905
 20
-135.3538397556581
 30
0.0
 10
122.0838487107985
 20
-135.2437689549043
 30
0.0
 10
122.1375922003684
 20
-135.108376702334
 30
0.0
 10
122.1654974737989
 20
-134.9983059015803
 30
0.0
 10
122.1654974737989
 20
-134.9983059015803
 30
0.0
 10
121.7579426778939
 20
-134.9983059015803
 30
0.0
 10
121.7579426778939
 20
-134.9983059015803
 30
0.0
 10
121.6876627299948
 20
-135.1633259753237
 30
0.0
 10
121.6284070876485
 20
-135.2417018976132
 30
0.0
 10
121.5987792664753
 20
-135.2818372600163
 30
0.0
 10
121.5987792664753
 20
-135.2818372600163
 30
0.0
 10
121.4912922873355
 20
-135.2162081910223
 30
0.0
 10
121.4912922873355
 20
-135.2162081910223
 30
0.0
 10
121.4912922873355
 20
-135.2162081910223
 30
0.0
 10
121.4912922873355
 20
-135.3876016914135
 30
0.0
 10
121.4912922873355
 20
-135.3876016914135
 30
0.0
 10
121.4912922873355
 20
-135.4956054348761
 30
0.0
 10
121.4933593446267
 20
-135.5441812812181
 30
0.0
 10
121.5026611024368
 20
-135.6499457126153
 30
0.0
 10
121.4396158550568
 20
-135.6478786553241
 30
0.0
 10
121.4210123394364
 20
-135.6478786553241
 30
0.0
 10
121.2415228646549
 20
-135.6478786553241
 30
0.0
 10
121.2415228646549
 20
-135.6478786553241
 30
0.0
 10
121.1932915278614
 20
-135.6478786553241
 30
0.0
 10
121.1932915278614
 20
-135.6478786553241
 30
0.0
 10
121.1932915278614
 20
-135.6478786553241
 30
0.0
 10
121.1932915278614
 20
-135.7832709078945
 30
0.0
 10
121.1932915278614
 20
-135.7832709078945
 30
0.0
 10
121.1932915278614
 20
-135.7832709078945
 30
0.0
 10
121.2563367752415
 20
-135.7832709078945
 30
0.0
 10
121.2563367752415
 20
-135.7832709078945
 30
0.0
 10
121.3135253602966
 20
-135.7832709078945
 30
0.0
 10
121.4413384027994
 20
-135.7789645385379
 30
0.0
 10
121.5340114713526
 20
-135.770524054599
 30
0.0
 10
121.5340114713526
 20
-135.770524054599
 30
0.0
 10
121.5340114713526
 20
-135.9482909816379
 30
0.0
 10
121.5340114713526
 20
-135.9482909816379
 30
0.0
 10
121.4489176128669
 20
-135.9419175549902
 30
0.0
 10
121.3100802648114
 20
-135.9376111856337
 30
0.0
 10
121.2563367752415
 20
-135.9376111856337
 30
0.0
 10
121.2563367752415
 20
-135.9376111856337
 30
0.0
 10
121.1932915278614
 20
-135.9376111856337
 30
0.0
 10
121.1932915278614
 20
-135.9376111856337
 30
0.0
 10
121.195014075604
 20
-136.0264946491531
 30
0.0
 10
121.1988036806378
 20
-136.2655842758294
 30
0.0
 10
121.2005262283804
 20
-136.3396538287623
 30
0.0
 10
121.2005262283804
 20
-136.3396538287623
 30
0.0
 10
121.0248263586327
 20
-136.3396538287623
 30
0.0
 10
121.0248263586327
 20
-136.3396538287623
 30
0.0
 10
121.0358506641855
 20
-136.1258856539026
 30
0.0
 10
121.0358506641855
 20
-136.0962578327294
 30
0.0
 10
121.0396402692193
 20
-135.9376111856337
 30
0.0
 10
121.0396402692193
 20
-135.9376111856337
 30
0.0
 10
120.9786620791303
 20
-135.9376111856337
 30
0.0
 10
120.9786620791303
 20
-135.9376111856337
 30
0.0
 10
120.9283636850457
 20
-135.9376111856337
 30
0.0
 10
120.7950384897665
 20
-135.9419175549902
 30
0.0
 10
120.6989203257281
 20
-135.9482909816379
 30
0.0
 10
120.6989203257281
 20
-135.9482909816379
 30
0.0
 10
120.6989203257281
 20
-135.770524054599
 30
0.0
 10
120.6989203257281
 20
-135.770524054599
 30
0.0
 10
120.7915933942813
 20
-135.7789645385379
 30
0.0
 10
120.9173393794929
 20
-135.7832709078945
 30
0.0
 10
120.9786620791303
 20
-135.7832709078945
 30
0.0
 10
120.9786620791303
 20
-135.7832709078945
 30
0.0
 10
121.043429874253
 20
-135.7832709078945
 30
0.0
 10
121.043429874253
 20
-135.7832709078945
 30
0.0
 10
121.043429874253
 20
-135.7832709078945
 30
0.0
 10
121.043429874253
 20
-135.6478786553241
 30
0.0
 10
121.043429874253
 20
-135.6478786553241
 30
0.0
 10
121.043429874253
 20
-135.6478786553241
 30
0.0
 10
121.0045002952697
 20
-135.6478786553241
 30
0.0
 10
121.0045002952697
 20
-135.6478786553241
 30
0.0
 10
120.9376654428559
 20
-135.6478786553241
 30
0.0
 10
120.7692002736271
 20
-135.6499457126153
 30
0.0
 10
120.739572452454
 20
-135.6499457126153
 30
0.0
 10
120.7450846052304
 20
-135.5781154717479
 30
0.0
 10
120.752663815298
 20
-135.4976724921673
 30
0.0
 10
120.752663815298
 20
-135.3770941501835
 30
0.0
 10
120.752663815298
 20
-135.3770941501835
 30
0.0
 10
120.752663815298
 20
-135.2036335925012
 30
0.0
 10
120.752663815298
 20
-135.2036335925012
 30
0.0
 10
120.752663815298
 20
-135.1316310968595
 30
0.0
 10
120.7450846052304
 20
-135.0110527548757
 30
0.0
 10
120.739572452454
 20
-134.9307820300694
 30
0.0
 10
120.8081298526105
 20
-134.9349161446517
 30
0.0
 10
120.8415472788174
 20
-134.9369832019428
 30
0.0
 10
120.9524793534424
 20
-134.9369832019428
 30
0.0
 10
120.9524793534424
 20
-134.9369832019428
 30
0.0
 10
121.043429874253
 20
-134.9369832019428
 30
0.0
 10
121.043429874253
 20
-134.9369832019428
 30
0.0
 10
121.043429874253
 20
-134.9369832019428
 30
0.0
 10
121.043429874253
 20
-134.7910834081425
 30
0.0
 10
121.043429874253
 20
-134.7910834081425
 30
0.0
 10
121.043429874253
 20
-134.7910834081425
 30
0.0
 10
120.9748724740966
 20
-134.7910834081425
 30
0.0
 10
120.9748724740966
 20
-134.7910834081425
 30
0.0
 10
120.9266411373031
 20
-134.7910834081425
 30
0.0
 10
120.7767794836947
 20
-134.7953897774991
 30
0.0
 10
120.7027099307618
 20
-134.8015909493725
 30
0.0
 10
120.7027099307618
 20
-134.8015909493725
 30
0.0
 10
120.7027099307618
 20
-134.6239962771079
 30
0.0
 10
120.7027099307618
 20
-134.6239962771079
 30
0.0
 10
120.7747124264036
 20
-134.6303697037556
 30
0.0
 10
120.9173393794929
 20
-134.6345038183379
 30
0.0
 10
120.9748724740966
 20
-134.6345038183379
 30
0.0
 10
120.9748724740966
 20
-134.6345038183379
 30
0.0
 10
121.043429874253
 20
-134.6345038183379
 30
0.0
 10
121.043429874253
 20
-134.6345038183379
 30
0.0
 10
121.043429874253
 20
-134.6007418825825
 30
0.0
 10
121.0396402692193
 20
-134.446229350069
 30
0.0
 10
121.0396402692193
 20
-134.4145344716047
 30
0.0
 10
121.0396402692193
 20
-134.4145344716047
 30
0.0
 10
121.2118950434818
 20
-134.4314154394824
 30
0.0
 10
121.2118950434818
 20
-134.4314154394824
 30
0.0
 10
121.2267089540683
 20
-134.4334824967736
 30
0.0
 10
121.2453124696887
 20
-134.435721808839
 30
0.0
 10
121.2453124696887
 20
-134.456736891299
 30
0.0
 10
121.2453124696887
 20
-134.4801635405987
 30
0.0
 10
121.2267089540683
 20
-134.4886040245376
 30
0.0
 10
121.2025932856716
 20
-134.5011786230587
 30
0.0
 10
121.2025932856716
 20
-134.522365960293
 30
0.0
 10
121.2005262283804
 20
-134.6176228504602
 30
0.0
 10
121.2005262283804
 20
-134.6345038183379
 30
0.0
 10
121.2005262283804
 20
-134.6345038183379
 30
0.0
 10
121.2525471702077
 20
-134.6345038183379
 30
0.0
 10
121.2525471702077
 20
-134.6345038183379
 30
0.0
 10
121.311802812554
 20
-134.6345038183379
 30
0.0
 10
121.4375487977656
 20
-134.6303697037556
 30
0.0
 10
121.5302218663188
 20
-134.6239962771079
 30
0.0
 10
121.5302218663188
 20
-134.6239962771079
 30
0.0
 10
121.5302218663188
 20
-134.8015909493725
 30
0.0
 10
121.5302218663188
 20
-134.8015909493725
 30
0.0
 10
121.4451280078332
 20
-134.7953897774991
 30
0.0
 10
121.3080132075202
 20
-134.7910834081425
 30
0.0
 10
121.2525471702077
 20
-134.7910834081425
 30
0.0
 10
121.2525471702077
 20
-134.7910834081425
 30
0.0
 10
121.1932915278614
 20
-134.7910834081425
 30
0.0
 10
121.1932915278614
 20
-134.7910834081425
 30
0.0
 10
121.1932915278614
 20
-134.7910834081425
 30
0.0
 10
121.1932915278614
 20
-134.9369832019428
 30
0.0
 10
121.1932915278614
 20
-134.9369832019428
 30
0.0
 10
121.1932915278614
 20
-134.9369832019428
 30
0.0
 10
121.2542697179503
 20
-134.9369832019428
 30
0.0
 10
121.2542697179503
 20
-134.9369832019428
 30
0.0
 10
121.3858723654869
 20
-134.9369832019428
 30
0.0
 10
121.4489176128669
 20
-134.9328490873606
 30
0.0
 10
121.5026611024368
 20
-134.9307820300694
 30
0.0
 10
121.4950818923693
 20
-135.0258666654623
 30
0.0
 10
121.4933593446267
 20
-135.1042425877517
 30
0.0
 10
121.4912922873355
 20
-135.1423108928637
 30
0.0
 10
121.6266845399058
 20
-134.9307820300694
 30
0.0
 10
121.719357608459
 20
-134.6832519194542
 30
0.0
 10
121.7338270094971
 20
-134.4209078982524
 30
0.0
 10
121.7338270094971
 20
-134.4209078982524
 30
0.0
 10
121.9229627516373
 20
-134.4715508018856
 30
0.0
 10
121.9229627516373
 20
-134.4715508018856
 30
0.0
 10
121.9357096049327
 20
-134.4758571712422
 30
0.0
 10
121.9488009677767
 20
-134.4822305978899
 30
0.0
 10
121.9488009677767
 20
-134.4991115657676
 30
0.0
 10
121.9488009677767
 20
-134.5159925336453
 30
0.0
 10
121.9450113627429
 20
-134.5182318457107
 30
0.0
 10
121.9005696309832
 20
-134.5392469281707
 30
0.0
 10
121.8857557203966
 20
-134.615555793169
 30
0.0
 10
121.863707109291
 20
-134.7065063139796
 30
0.0
 10
121.8209879252739
 20
-134.8334580826111
 30
0.0
 10
121.8209879252739
 20
-134.8334580826111
 30
0.0
 10
122.1172661370054
 20
-134.8334580826111
 30
0.0
 10
122.1172661370054
 20
-134.8334580826111
 30
0.0
 10
122.1506835632123
 20
-134.8334580826111
 30
0.0
 10
122.2636826951285
 20
-134.8291517132545
 30
0.0
 10
122.3060573695971
 20
-134.8227782866068
 30
0.0
 10
122.3060573695971
 20
-134.8227782866068
 30
0.0
 10
122.3877061325975
 20
-134.8925414701831
 30
0.0
 10
122.3877061325975
 20
-134.8925414701831
 30
0.0
 10
122.38012692253
 20
-134.9137288074174
 30
0.0
 10
122.3746147697536
 20
-134.9328490873606
 30
0.0
 10
122.3618679164582
 20
-134.9688503351814
 30
0.0
  0
POLYLINE
  5
4E
330
49
100
AcDbEntity
  8
_U+30EC_U+30A4_U+30E4_U+30FC 1
370
     0
100
AcDb2dPolyline
 66
     1
 10
0.0
 20
0.0
 30
0.0
  0
VERTEX
  5
4F
330
4E
100
AcDbEntity
  8
_U+30EC_U+30A4_U+30E4_U+30FC 1
370
     0
100
AcDbVertex
100
AcDb2dVertex
 10
121.043429874253
 20
-135.0935627917474
 30
0.0
  0
VERTEX
  5
50
330
4E
100
AcDbEntity
  8
_U+30EC_U+30A4_U+30E4_U+30FC 1
370
     0
100
AcDbVertex
100
AcDb2dVertex
 10
120.9042480166489
 20
-135.0935627917474
 30
0.0
  0
VERTEX
  5
51
330
4E
100
AcDbEntity
  8
_U+30EC_U+30A4_U+30E4_U+30FC 1
370
     0
100
AcDbVertex
100
AcDb2dVertex
 10
120.9042480166489
 20
-135.22258161767
 30
0.0
  0
VERTEX
  5
52
330
4E
100
AcDbEntity
  8
_U+30EC_U+30A4_U+30E4_U+30FC 1
370
     0
100
AcDbVertex
100
AcDb2dVertex
 10
121.043429874253
 20
-135.22258161767
 30
0.0
  0
VERTEX
  5
53
330
4E
100
AcDbEntity
  8
_U+30EC_U+30A4_U+30E4_U+30FC 1
370
     0
100
AcDbVertex
100
AcDb2dVertex
 10
121.043429874253
 20
-135.0935627917474
 30
0.0
  0
SEQEND
  5
54
330
4E
100
AcDbEntity
  8
_U+30EC_U+30A4_U+30E4_U+30FC 1
370
     0
  0
POLYLINE
  5
55
330
49
100
AcDbEntity
  8
_U+30EC_U+30A4_U+30E4_U+30FC 1
370
     0
100
AcDb2dPolyline
 66
     1
 10
0.0
 20
0.0
 30
0.0
  0
VERTEX
  5
56
330
55
100
AcDbEntity
  8
_U+30EC_U+30A4_U+30E4_U+30FC 1
370
     0
100
AcDbVertex
100
AcDb2dVertex
 10
121.043429874253
 20
-135.3664143541792
 30
0.0
  0
VERTEX
  5
57
330
55
100
AcDbEntity
  8
_U+30EC_U+30A4_U+30E4_U+30FC 1
370
     0
100
AcDbVertex
100
AcDb2dVertex
 10
120.9042480166489
 20
-135.3664143541792
 30
0.0
  0
VERTEX
  5
58
330
55
100
AcDbEntity
  8
_U+30EC_U+30A4_U+30E4_U+30FC 1
370
     0
100
AcDbVertex
100
AcDb2dVertex
 10
120.9042480166489
 20
-135.4956054348761
 30
0.0
  0
VERTEX
  5
59
330
55
100
AcDbEntity
  8
_U+30EC_U+30A4_U+30E4_U+30FC 1
370
     0
100
AcDbVertex
100
AcDb2dVertex
 10
121.043429874253
 20
-135.4956054348761
 30
0.0
  0
VERTEX
  5
5A
330
55
100
AcDbEntity
  8
_U+30EC_U+30A4_U+30E4_U+30FC 1
370
     0
100
AcDbVertex
100
AcDb2dVertex
 10
121.043429874253
 20
-135.3664143541792
 30
0.0
  0
SEQEND
  5
5B
330
55
100
AcDbEntity
  8
_U+30EC_U+30A4_U+30E4_U+30FC 1
370
     0
  0
POLYLINE
  5
5C
330
49
100
AcDbEntity
  8
_U+30EC_U+30A4_U+30E4_U+30FC 1
370
     0
100
AcDb2dPolyline
 66
     1
 10
0.0
 20
0.0
 30
0.0
  0
VERTEX
  5
5D
330
5C
100
AcDbEntity
  8
_U+30EC_U+30A4_U+30E4_U+30FC 1
370
     0
100
AcDbVertex
100
AcDb2dVertex
 10
121.3341959332081
 20
-135.0935627917474
 30
0.0
  0
VERTEX
  5
5E
330
5C
100
AcDbEntity
  8
_U+30EC_U+30A4_U+30E4_U+30FC 1
370
     0
100
AcDbVertex
100
AcDb2dVertex
 10
121.1932915278614
 20
-135.0935627917474
 30
0.0
  0
VERTEX
  5
5F
330
5C
100
AcDbEntity
  8
_U+30EC_U+30A4_U+30E4_U+30FC 1
370
     0
100
AcDbVertex
100
AcDb2dVertex
 10
121.1932915278614
 20
-135.22258161767
 30
0.0
  0
VERTEX
  5
60
330
5C
100
AcDbEntity
  8
_U+30EC_U+30A4_U+30E4_U+30FC 1
370
     0
100
AcDbVertex
100
AcDb2dVertex
 10
121.3341959332081
 20
-135.22258161767
 30
0.0
  0
VERTEX
  5
61
330
5C
100
AcDbEntity
  8
_U+30EC_U+30A4_U+30E4_U+30FC 1
370
     0
100
AcDbVertex
100
AcDb2dVertex
 10
121.3341959332081
 20
-135.0935627917474
 30
0.0
  0
SEQEND
  5
62
330
5C
100
AcDbEntity
  8
_U+30EC_U+30A4_U+30E4_U+30FC 1
370
     0
  0
POLYLINE
  5
63
330
49
100
AcDbEntity
  8
_U+30EC_U+30A4_U+30E4_U+30FC 1
370
     0
100
AcDb2dPolyline
 66
     1
 10
0.0
 20
0.0
 30
0.0
  0
VERTEX
  5
64
330
63
100
AcDbEntity
  8
_U+30EC_U+30A4_U+30E4_U+30FC 1
370
     0
100
AcDbVertex
100
AcDb2dVertex
 10
121.3341959332081
 20
-135.3664143541792
 30
0.0
  0
VERTEX
  5
65
330
63
100
AcDbEntity
  8
_U+30EC_U+30A4_U+30E4_U+30FC 1
370
     0
100
AcDbVertex
100
AcDb2dVertex
 10
121.1932915278614
 20
-135.3664143541792
 30
0.0
  0
VERTEX
  5
66
330
63
100
AcDbEntity
  8
_U+30EC_U+30A4_U+30E4_U+30FC 1
370
     0
100
AcDbVertex
100
AcDb2dVertex
 10
121.1932915278614
 20
-135.4956054348761
 30
0.0
  0
VERTEX
  5
67
330
63
100
AcDbEntity
  8
_U+30EC_U+30A4_U+30E4_U+30FC 1
370
     0
100
AcDbVertex
100
AcDb2dVertex
 10
121.3341959332081
 20
-135.4956054348761
 30
0.0
  0
VERTEX
  5
68
330
63
100
AcDbEntity
  8
_U+30EC_U+30A4_U+30E4_U+30FC 1
370
     0
100
AcDbVertex
100
AcDb2dVertex
 10
121.3341959332081
 20
-135.3664143541792
 30
0.0
  0
SEQEND
  5
69
330
63
100
AcDbEntity
  8
_U+30EC_U+30A4_U+30E4_U+30FC 1
370
     0
  0
SPLINE
  5
6A
330
49
100
AcDbEntity
  8
_U+30EC_U+30A4_U+30E4_U+30FC 1
370
     0
100
AcDbSpline
210
0.0
220
0.0
230
1.0
 70
    11
 71
     3
 72
    41
 73
    37
 74
     0
 42
0.0000000001
 43
0.0000000001
 12
1.0
 22
0.0
 32
0.0
 13
1.0
 23
0.0
 33
0.0
 40
0.0
 40
0.0
 40
0.0
 40
0.0
 40
1.0
 40
1.0
 40
1.0
 40
2.0
 40
2.0
 40
2.0
 40
3.0
 40
3.0
 40
3.0
 40
4.0
 40
4.0
 40
4.0
 40
5.0
 40
5.0
 40
5.0
 40
6.0
 40
6.0
 40
6.0
 40
7.0
 40
7.0
 40
7.0
 40
8.0
 40
8.0
 40
8.0
 40
9.0
 40
9.0
 40
9.0
 40
10.0
 40
10.0
 40
10.0
 40
11.0
 40
11.0
 40
11.0
 40
12.0
 40
12.0
 40
12.0
 40
12.0
 10
122.2877983635253
 20
-136.3248399181757
 30
0.0
 10
122.0766140102795
 20
-136.1894476656054
 30
0.0
 10
121.9208956943462
 20
-135.8931694538739
 30
0.0
 10
121.8857557203966
 20
-135.7641506279513
 30
0.0
 10
121.780335798548
 20
-136.0285617064443
 30
0.0
 10
121.6377088454586
 20
-136.2063286334831
 30
0.0
 10
121.4785454340401
 20
-136.3205335488192
 30
0.0
 10
121.4785454340401
 20
-136.3205335488192
 30
0.0
 10
121.3062906597776
 20
-136.1830742389577
 30
0.0
 10
121.3062906597776
 20
-136.1830742389577
 30
0.0
 10
121.3672688498665
 20
-136.1577527871411
 30
0.0
 10
121.4950818923693
 20
-136.0962578327294
 30
0.0
 10
121.6025688715091
 20
-135.9419175549902
 30
0.0
 10
121.7117783983915
 20
-135.7853379651856
 30
0.0
 10
121.7896375563582
 20
-135.552621765157
 30
0.0
 10
121.7896375563582
 20
-135.2925170560206
 30
0.0
 10
121.7896375563582
 20
-135.1908867392058
 30
0.0
 10
121.7786132508053
 20
-135.1190564983383
 30
0.0
 10
121.7693114929952
 20
-135.0723754545131
 30
0.0
 10
121.7693114929952
 20
-135.0723754545131
 30
0.0
 10
121.9488009677767
 20
-135.0935627917474
 30
0.0
 10
121.9488009677767
 20
-135.0935627917474
 30
0.0
 10
121.967404483397
 20
-135.0956298490386
 30
0.0
 10
121.9860079990174
 20
-135.097869161104
 30
0.0
 10
121.9860079990174
 20
-135.1190564983383
 30
0.0
 10
121.9860079990174
 20
-135.1380045235072
 30
0.0
 10
121.9767062412072
 20
-135.146445007446
 30
0.0
 10
121.9470784200341
 20
-135.1676323446803
 30
0.0
 10
121.9394992099665
 20
-135.3686536662447
 30
0.0
 10
121.9894530945026
 20
-135.6118774075033
 30
0.0
 10
122.0431965840725
 20
-135.732455749487
 30
0.0
 10
122.1227782897818
 20
-135.9079833644605
 30
0.0
 10
122.2933105163017
 20
-136.0878173487906
 30
0.0
 10
122.4118218009943
 20
-136.1450059338457
 30
0.0
 10
122.4118218009943
 20
-136.1450059338457
 30
0.0
 10
122.2877983635253
 20
-136.3248399181757
 30
0.0
 10
122.2877983635253
 20
-136.3248399181757
 30
0.0
  0
HATCH
  5
6B
330
49
100
AcDbEntity
  8
_U+30EC_U+30A4_U+30E4_U+30FC 1
 62
   179
420
  2234388
100
AcDbHatch
 10
0.0
 20
0.0
 30
0.0
210
0.0
220
0.0
230
1.0
  2
SOLID
 70
     1
 71
     0
 91
        6
 92
        1
 93
        1
 72
     4
 94
        3
 73
     0
 74
     1
 95
      197
 96
      193
 40
0.0
 40
0.0
 40
0.0
 40
0.0
 40
1.0
 40
1.0
 40
1.0
 40
2.0
 40
2.0
 40
2.0
 40
3.0
 40
3.0
 40
3.0
 40
4.0
 40
4.0
 40
4.0
 40
5.0
 40
5.0
 40
5.0
 40
6.0
 40
6.0
 40
6.0
 40
7.0
 40
7.0
 40
7.0
 40
8.0
 40
8.0
 40
8.0
 40
9.0
 40
9.0
 40
9.0
 40
10.0
 40
10.0
 40
10.0
 40
11.0
 40
11.0
 40
11.0
 40
12.0
 40
12.0
 40
12.0
 40
13.0
 40
13.0
 40
13.0
 40
14.0
 40
14.0
 40
14.0
 40
15.0
 40
15.0
 40
15.0
 40
16.0
 40
16.0
 40
16.0
 40
17.0
 40
17.0
 40
17.0
 40
18.0
 40
18.0
 40
18.0
 40
19.0
 40
19.0
 40
19.0
 40
20.0
 40
20.0
 40
20.0
 40
21.0
 40
21.0
 40
21.0
 40
22.0
 40
22.0
 40
22.0
 40
23.0
 40
23.0
 40
23.0
 40
24.0
 40
24.0
 40
24.0
 40
25.0
 40
25.0
 40
25.0
 40
26.0
 40
26.0
 40
26.0
 40
27.0
 40
27.0
 40
27.0
 40
28.0
 40
28.0
 40
28.0
 40
29.0
 40
29.0
 40
29.0
 40
30.0
 40
30.0
 40
30.0
 40
31.0
 40
31.0
 40
31.0
 40
32.0
 40
32.0
 40
32.0
 40
33.0
 40
33.0
 40
33.0
 40
34.0
 40
34.0
 40
34.0
 40
35.0
 40
35.0
 40
35.0
 40
36.0
 40
36.0
 40
36.0
 40
37.0
 40
37.0
 40
37.0
 40
38.0
 40
38.0
 40
38.0
 40
39.0
 40
39.0
 40
39.0
 40
40.0
 40
40.0
 40
40.0
 40
41.0
 40
41.0
 40
41.0
 40
42.0
 40
42.0
 40
42.0
 40
43.0
 40
43.0
 40
43.0
 40
44.0
 40
44.0
 40
44.0
 40
45.0
 40
45.0
 40
45.0
 40
46.0
 40
46.0
 40
46.0
 40
47.0
 40
47.0
 40
47.0
 40
48.0
 40
48.0
 40
48.0
 40
49.0
 40
49.0
 40
49.0
 40
50.0
 40
50.0
 40
50.0
 40
51.0
 40
51.0
 40
51.0
 40
52.0
 40
52.0
 40
52.0
 40
53.0
 40
53.0
 40
53.0
 40
54.0
 40
54.0
 40
54.0
 40
55.0
 40
55.0
 40
55.0
 40
56.0
 40
56.0
 40
56.0
 40
57.0
 40
57.0
 40
57.0
 40
58.0
 40
58.0
 40
58.0
 40
59.0
 40
59.0
 40
59.0
 40
60.0
 40
60.0
 40
60.0
 40
61.0
 40
61.0
 40
61.0
 40
62.0
 40
62.0
 40
62.0
 40
63.0
 40
63.0
 40
63.0
 40
64.0
 40
64.0
 40
64.0
 40
64.0
 10
122.3618679164582
 20
-134.9688503351814
 10
122.352566158648
 20
-134.9983059015803
 10
122.332240095285
 20
-135.0449869454054
 10
122.3229383374748
 20
-135.0723754545131
 10
122.3229383374748
 20
-135.0723754545131
 10
122.2691948479049
 20
-135.2248209297355
 10
122.2691948479049
 20
-135.2248209297355
 10
122.2598930900947
 20
-135.2501423815521
 10
122.2171739060777
 20
-135.3622802395969
 10
122.2061496005249
 20
-135.3855346341224
 10
122.2044270527822
 20
-135.3919080607701
 10
122.2006374477485
 20
-135.4003485447089
 10
122.1989149000058
 20
-135.4067219713567
 10
122.1989149000058
 20
-135.4067219713567
 10
122.0156358201905
 20
-135.3538397556581
 10
122.0156358201905
 20
-135.3538397556581
 10
122.0838487107985
 20
-135.2437689549043
 10
122.1375922003684
 20
-135.108376702334
 10
122.1654974737989
 20
-134.9983059015803
 10
122.1654974737989
 20
-134.9983059015803
 10
121.7579426778939
 20
-134.9983059015803
 10
121.7579426778939
 20
-134.9983059015803
 10
121.6876627299948
 20
-135.1633259753237
 10
121.6284070876485
 20
-135.2417018976132
 10
121.5987792664753
 20
-135.2818372600163
 10
121.5987792664753
 20
-135.2818372600163
 10
121.4912922873355
 20
-135.2162081910223
 10
121.4912922873355
 20
-135.2162081910223
 10
121.4912922873355
 20
-135.2162081910223
 10
121.4912922873355
 20
-135.3876016914135
 10
121.4912922873355
 20
-135.3876016914135
 10
121.4912922873355
 20
-135.4956054348761
 10
121.4933593446267
 20
-135.5441812812181
 10
121.5026611024368
 20
-135.6499457126153
 10
121.4396158550568
 20
-135.6478786553241
 10
121.4210123394364
 20
-135.6478786553241
 10
121.2415228646549
 20
-135.6478786553241
 10
121.2415228646549
 20
-135.6478786553241
 10
121.1932915278614
 20
-135.6478786553241
 10
121.1932915278614
 20
-135.6478786553241
 10
121.1932915278614
 20
-135.6478786553241
 10
121.1932915278614
 20
-135.7832709078945
 10
121.1932915278614
 20
-135.7832709078945
 10
121.1932915278614
 20
-135.7832709078945
 10
121.2563367752415
 20
-135.7832709078945
 10
121.2563367752415
 20
-135.7832709078945
 10
121.3135253602966
 20
-135.7832709078945
 10
121.4413384027994
 20
-135.7789645385379
 10
121.5340114713526
 20
-135.770524054599
 10
121.5340114713526
 20
-135.770524054599
 10
121.5340114713526
 20
-135.9482909816379
 10
121.5340114713526
 20
-135.9482909816379
 10
121.4489176128669
 20
-135.9419175549902
 10
121.3100802648114
 20
-135.9376111856337
 10
121.2563367752415
 20
-135.9376111856337
 10
121.2563367752415
 20
-135.9376111856337
 10
121.1932915278614
 20
-135.9376111856337
 10
121.1932915278614
 20
-135.9376111856337
 10
121.195014075604
 20
-136.0264946491531
 10
121.1988036806378
 20
-136.2655842758294
 10
121.2005262283804
 20
-136.3396538287623
 10
121.2005262283804
 20
-136.3396538287623
 10
121.0248263586327
 20
-136.3396538287623
 10
121.0248263586327
 20
-136.3396538287623
 10
121.0358506641855
 20
-136.1258856539026
 10
121.0358506641855
 20
-136.0962578327294
 10
121.0396402692193
 20
-135.9376111856337
 10
121.0396402692193
 20
-135.9376111856337
 10
120.9786620791303
 20
-135.9376111856337
 10
120.9786620791303
 20
-135.9376111856337
 10
120.9283636850457
 20
-135.9376111856337
 10
120.7950384897665
 20
-135.9419175549902
 10
120.6989203257281
 20
-135.9482909816379
 10
120.6989203257281
 20
-135.9482909816379
 10
120.6989203257281
 20
-135.770524054599
 10
120.6989203257281
 20
-135.770524054599
 10
120.7915933942813
 20
-135.7789645385379
 10
120.9173393794929
 20
-135.7832709078945
 10
120.9786620791303
 20
-135.7832709078945
 10
120.9786620791303
 20
-135.7832709078945
 10
121.043429874253
 20
-135.7832709078945
 10
121.043429874253
 20
-135.7832709078945
 10
121.043429874253
 20
-135.7832709078945
 10
121.043429874253
 20
-135.6478786553241
 10
121.043429874253
 20
-135.6478786553241
 10
121.043429874253
 20
-135.6478786553241
 10
121.0045002952697
 20
-135.6478786553241
 10
121.0045002952697
 20
-135.6478786553241
 10
120.9376654428559
 20
-135.6478786553241
 10
120.7692002736271
 20
-135.6499457126153
 10
120.739572452454
 20
-135.6499457126153
 10
120.7450846052304
 20
-135.5781154717479
 10
120.752663815298
 20
-135.4976724921673
 10
120.752663815298
 20
-135.3770941501835
 10
120.752663815298
 20
-135.3770941501835
 10
120.752663815298
 20
-135.2036335925012
 10
120.752663815298
 20
-135.2036335925012
 10
120.752663815298
 20
-135.1316310968595
 10
120.7450846052304
 20
-135.0110527548757
 10
120.739572452454
 20
-134.9307820300694
 10
120.8081298526105
 20
-134.9349161446517
 10
120.8415472788174
 20
-134.9369832019428
 10
120.9524793534424
 20
-134.9369832019428
 10
120.9524793534424
 20
-134.9369832019428
 10
121.043429874253
 20
-134.9369832019428
 10
121.043429874253
 20
-134.9369832019428
 10
121.043429874253
 20
-134.9369832019428
 10
121.043429874253
 20
-134.7910834081425
 10
121.043429874253
 20
-134.7910834081425
 10
121.043429874253
 20
-134.7910834081425
 10
120.9748724740966
 20
-134.7910834081425
 10
120.9748724740966
 20
-134.7910834081425
 10
120.9266411373031
 20
-134.7910834081425
 10
120.7767794836947
 20
-134.7953897774991
 10
120.7027099307618
 20
-134.8015909493725
 10
120.7027099307618
 20
-134.8015909493725
 10
120.7027099307618
 20
-134.6239962771079
 10
120.7027099307618
 20
-134.6239962771079
 10
120.7747124264036
 20
-134.6303697037556
 10
120.9173393794929
 20
-134.6345038183379
 10
120.9748724740966
 20
-134.6345038183379
 10
120.9748724740966
 20
-134.6345038183379
 10
121.043429874253
 20
-134.6345038183379
 10
121.043429874253
 20
-134.6345038183379
 10
121.043429874253
 20
-134.6007418825825
 10
121.0396402692193
 20
-134.446229350069
 10
121.0396402692193
 20
-134.4145344716047
 10
121.0396402692193
 20
-134.4145344716047
 10
121.2118950434818
 20
-134.4314154394824
 10
121.2118950434818
 20
-134.4314154394824
 10
121.2267089540683
 20
-134.4334824967736
 10
121.2453124696887
 20
-134.435721808839
 10
121.2453124696887
 20
-134.456736891299
 10
121.2453124696887
 20
-134.4801635405987
 10
121.2267089540683
 20
-134.4886040245376
 10
121.2025932856716
 20
-134.5011786230587
 10
121.2025932856716
 20
-134.522365960293
 10
121.2005262283804
 20
-134.6176228504602
 10
121.2005262283804
 20
-134.6345038183379
 10
121.2005262283804
 20
-134.6345038183379
 10
121.2525471702077
 20
-134.6345038183379
 10
121.2525471702077
 20
-134.6345038183379
 10
121.311802812554
 20
-134.6345038183379
 10
121.4375487977656
 20
-134.6303697037556
 10
121.5302218663188
 20
-134.6239962771079
 10
121.5302218663188
 20
-134.6239962771079
 10
121.5302218663188
 20
-134.8015909493725
 10
121.5302218663188
 20
-134.8015909493725
 10
121.4451280078332
 20
-134.7953897774991
 10
121.3080132075202
 20
-134.7910834081425
 10
121.2525471702077
 20
-134.7910834081425
 10
121.2525471702077
 20
-134.7910834081425
 10
121.1932915278614
 20
-134.7910834081425
 10
121.1932915278614
 20
-134.7910834081425
 10
121.1932915278614
 20
-134.7910834081425
 10
121.1932915278614
 20
-134.9369832019428
 10
121.1932915278614
 20
-134.9369832019428
 10
121.1932915278614
 20
-134.9369832019428
 10
121.2542697179503
 20
-134.9369832019428
 10
121.2542697179503
 20
-134.9369832019428
 10
121.3858723654869
 20
-134.9369832019428
 10
121.4489176128669
 20
-134.9328490873606
 10
121.5026611024368
 20
-134.9307820300694
 10
121.4950818923693
 20
-135.0258666654623
 10
121.4933593446267
 20
-135.1042425877517
 10
121.4912922873355
 20
-135.1423108928637
 10
121.6266845399058
 20
-134.9307820300694
 10
121.719357608459
 20
-134.6832519194542
 10
121.7338270094971
 20
-134.4209078982524
 10
121.7338270094971
 20
-134.4209078982524
 10
121.9229627516373
 20
-134.4715508018856
 10
121.9229627516373
 20
-134.4715508018856
 10
121.9357096049327
 20
-134.4758571712422
 10
121.9488009677767
 20
-134.4822305978899
 10
121.9488009677767
 20
-134.4991115657676
 10
121.9488009677767
 20
-134.5159925336453
 10
121.9450113627429
 20
-134.5182318457107
 10
121.9005696309832
 20
-134.5392469281707
 10
121.8857557203966
 20
-134.615555793169
 10
121.863707109291
 20
-134.7065063139796
 10
121.8209879252739
 20
-134.8334580826111
 10
121.8209879252739
 20
-134.8334580826111
 10
122.1172661370054
 20
-134.8334580826111
 10
122.1172661370054
 20
-134.8334580826111
 10
122.1506835632123
 20
-134.8334580826111
 10
122.2636826951285
 20
-134.8291517132545
 10
122.3060573695971
 20
-134.8227782866068
 10
122.3060573695971
 20
-134.8227782866068
 10
122.3877061325975
 20
-134.8925414701831
 10
122.3877061325975
 20
-134.8925414701831
 10
122.38012692253
 20
-134.9137288074174
 10
122.3746147697536
 20
-134.9328490873606
 10
122.3618679164582
 20
-134.9688503351814
 97
        0
 97
        0
 92
        1
 93
        4
 72
     1
 10
121.043429874253
 20
-135.0935627917474
 11
120.9042480166489
 21
-135.0935627917474
 72
     1
 10
120.9042480166489
 20
-135.0935627917474
 11
120.9042480166489
 21
-135.22258161767
 72
     1
 10
120.9042480166489
 20
-135.22258161767
 11
121.043429874253
 21
-135.22258161767
 72
     1
 10
121.043429874253
 20
-135.22258161767
 11
121.043429874253
 21
-135.0935627917474
 97
        0
 92
        1
 93
        4
 72
     1
 10
121.043429874253
 20
-135.3664143541792
 11
120.9042480166489
 21
-135.3664143541792
 72
     1
 10
120.9042480166489
 20
-135.3664143541792
 11
120.9042480166489
 21
-135.4956054348761
 72
     1
 10
120.9042480166489
 20
-135.4956054348761
 11
121.043429874253
 21
-135.4956054348761
 72
     1
 10
121.043429874253
 20
-135.4956054348761
 11
121.043429874253
 21
-135.3664143541792
 97
        0
 92
        1
 93
        4
 72
     1
 10
121.3341959332081
 20
-135.0935627917474
 11
121.1932915278614
 21
-135.0935627917474
 72
     1
 10
121.1932915278614
 20
-135.0935627917474
 11
121.1932915278614
 21
-135.22258161767
 72
     1
 10
121.1932915278614
 20
-135.22258161767
 11
121.3341959332081
 21
-135.22258161767
 72
     1
 10
121.3341959332081
 20
-135.22258161767
 11
121.3341959332081
 21
-135.0935627917474
 97
        0
 92
        1
 93
        4
 72
     1
 10
121.3341959332081
 20
-135.3664143541792
 11
121.1932915278614
 21
-135.3664143541792
 72
     1
 10
121.1932915278614
 20
-135.3664143541792
 11
121.1932915278614
 21
-135.4956054348761
 72
     1
 10
121.1932915278614
 20
-135.4956054348761
 11
121.3341959332081
 21
-135.4956054348761
 72
     1
 10
121.3341959332081
 20
-135.4956054348761
 11
121.3341959332081
 21
-135.3664143541792
 97
        0
 92
        1
 93
        1
 72
     4
 94
        3
 73
     0
 74
     1
 95
       41
 96
       37
 40
0.0
 40
0.0
 40
0.0
 40
0.0
 40
1.0
 40
1.0
 40
1.0
 40
2.0
 40
2.0
 40
2.0
 40
3.0
 40
3.0
 40
3.0
 40
4.0
 40
4.0
 40
4.0
 40
5.0
 40
5.0
 40
5.0
 40
6.0
 40
6.0
 40
6.0
 40
7.0
 40
7.0
 40
7.0
 40
8.0
 40
8.0
 40
8.0
 40
9.0
 40
9.0
 40
9.0
 40
10.0
 40
10.0
 40
10.0
 40
11.0
 40
11.0
 40
11.0
 40
12.0
 40
12.0
 40
12.0
 40
12.0
 10
122.2877983635253
 20
-136.3248399181757
 10
122.0766140102795
 20
-136.1894476656054
 10
121.9208956943462
 20
-135.8931694538739
 10
121.8857557203966
 20
-135.7641506279513
 10
121.780335798548
 20
-136.0285617064443
 10
121.6377088454586
 20
-136.2063286334831
 10
121.4785454340401
 20
-136.3205335488192
 10
121.4785454340401
 20
-136.3205335488192
 10
121.3062906597776
 20
-136.1830742389577
 10
121.3062906597776
 20
-136.1830742389577
 10
121.3672688498665
 20
-136.1577527871411
 10
121.4950818923693
 20
-136.0962578327294
 10
121.6025688715091
 20
-135.9419175549902
 10
121.7117783983915
 20
-135.7853379651856
 10
121.7896375563582
 20
-135.552621765157
 10
121.7896375563582
 20
-135.2925170560206
 10
121.7896375563582
 20
-135.1908867392058
 10
121.7786132508053
 20
-135.1190564983383
 10
121.7693114929952
 20
-135.0723754545131
 10
121.7693114929952
 20
-135.0723754545131
 10
121.9488009677767
 20
-135.0935627917474
 10
121.9488009677767
 20
-135.0935627917474
 10
121.967404483397
 20
-135.0956298490386
 10
121.9860079990174
 20
-135.097869161104
 10
121.9860079990174
 20
-135.1190564983383
 10
121.9860079990174
 20
-135.1380045235072
 10
121.9767062412072
 20
-135.146445007446
 10
121.9470784200341
 20
-135.1676323446803
 10
121.9394992099665
 20
-135.3686536662447
 10
121.9894530945026
 20
-135.6118774075033
 10
122.0431965840725
 20
-135.732455749487
 10
122.1227782897818
 20
-135.9079833644605
 10
122.2933105163017
 20
-136.0878173487906
 10
122.4118218009943
 20
-136.1450059338457
 10
122.4118218009943
 20
-136.1450059338457
 10
122.2877983635253
 20
-136.3248399181757
 10
122.2877983635253
 20
-136.3248399181757
 97
        0
 97
        0
 75
     2
 76
     1
 98
        0
  0
SPLINE
  5
6C
330
49
100
AcDbEntity
  8
_U+30EC_U+30A4_U+30E4_U+30FC 1
370
     0
100
AcDbSpline
210
0.0
220
0.0
230
1.0
 70
    11
 71
     3
 72
    71
 73
    67
 74
     0
 42
0.0000000001
 43
0.0000000001
 12
1.0
 22
0.0
 32
0.0
 13
1.0
 23
0.0
 33
0.0
 40
0.0
 40
0.0
 40
0.0
 40
0.0
 40
1.0
 40
1.0
 40
1.0
 40
2.0
 40
2.0
 40
2.0
 40
3.0
 40
3.0
 40
3.0
 40
4.0
 40
4.0
 40
4.0
 40
5.0
 40
5.0
 40
5.0
 40
6.0
 40
6.0
 40
6.0
 40
7.0
 40
7.0
 40
7.0
 40
8.0
 40
8.0
 40
8.0
 40
9.0
 40
9.0
 40
9.0
 40
10.0
 40
10.0
 40
10.0
 40
11.0
 40
11.0
 40
11.0
 40
12.0
 40
12.0
 40
12.0
 40
13.0
 40
13.0
 40
13.0
 40
14.0
 40
14.0
 40
14.0
 40
15.0
 40
15.0
 40
15.0
 40
16.0
 40
16.0
 40
16.0
 40
17.0
 40
17.0
 40
17.0
 40
18.0
 40
18.0
 40
18.0
 40
19.0
 40
19.0
 40
19.0
 40
20.0
 40
20.0
 40
20.0
 40
21.0
 40
21.0
 40
21.0
 40
22.0
 40
22.0
 40
22.0
 40
22.0
 10
123.3344183719442
 20
-134.5921291438693
 30
0.0
 10
123.3213270091002
 20
-134.5921291438693
 30
0.0
 10
123.3103027035474
 20
-134.587995029287
 30
0.0
 10
123.2882540924418
 20
-134.5795545453482
 30
0.0
 10
123.1642306549728
 20
-134.626063334399
 30
0.0
 10
123.0123019440733
 20
-134.6429443022768
 30
0.0
 10
122.890001054347
 20
-134.6472506716333
 30
0.0
 10
122.890001054347
 20
-134.6472506716333
 30
0.0
 10
122.8882785066043
 20
-134.7361341351528
 30
0.0
 10
122.8882785066043
 20
-134.7361341351528
 30
0.0
 10
122.8882785066043
 20
-134.7361341351528
 30
0.0
 10
123.1159993181793
 20
-134.7361341351528
 30
0.0
 10
123.1159993181793
 20
-134.7361341351528
 30
0.0
 10
123.1621635976817
 20
-134.7361341351528
 30
0.0
 10
123.3213270091002
 20
-134.7275213964396
 30
0.0
 10
123.3602565880836
 20
-134.7213202245662
 30
0.0
 10
123.3602565880836
 20
-134.7213202245662
 30
0.0
 10
123.3602565880836
 20
-134.8820339289531
 30
0.0
 10
123.3602565880836
 20
-134.8820339289531
 30
0.0
 10
123.3123697608386
 20
-134.8756605023054
 30
0.0
 10
123.2028157244076
 20
-134.8735934450143
 30
0.0
 10
123.1697428077492
 20
-134.8756605023054
 30
0.0
 10
123.1697428077492
 20
-134.8756605023054
 30
0.0
 10
123.1697428077492
 20
-134.9857313030591
 30
0.0
 10
123.1697428077492
 20
-134.9857313030591
 30
0.0
 10
123.1697428077492
 20
-135.03224009211
 30
0.0
 10
123.1714653554919
 20
-135.0956298490386
 30
0.0
 10
123.1769775082683
 20
-135.1336981541506
 30
0.0
 10
123.1769775082683
 20
-135.1336981541506
 30
0.0
 10
123.0085123390395
 20
-135.1336981541506
 30
0.0
 10
123.0085123390395
 20
-135.1336981541506
 30
0.0
 10
123.0140244918159
 20
-135.0935627917474
 30
0.0
 10
123.0195366445923
 20
-135.0110527548757
 30
0.0
 10
123.0195366445923
 20
-134.9962388442891
 30
0.0
 10
123.0195366445923
 20
-134.9962388442891
 30
0.0
 10
123.0195366445923
 20
-134.8756605023054
 30
0.0
 10
123.0195366445923
 20
-134.8756605023054
 30
0.0
 10
123.0195366445923
 20
-134.8756605023054
 30
0.0
 10
122.8751871437604
 20
-134.8756605023054
 30
0.0
 10
122.8751871437604
 20
-134.8756605023054
 30
0.0
 10
122.8383246220682
 20
-135.0956298490386
 30
0.0
 10
122.7900932852747
 20
-135.1760728286192
 30
0.0
 10
122.6974202167215
 20
-135.2754638333686
 30
0.0
 10
122.6974202167215
 20
-135.2754638333686
 30
0.0
 10
122.5510036585984
 20
-135.1612589180326
 30
0.0
 10
122.5510036585984
 20
-135.1612589180326
 30
0.0
 10
122.6068142054594
 20
-135.1126830716906
 30
0.0
 10
122.7380723434474
 20
-135.0005452136457
 30
0.0
 10
122.7380723434474
 20
-134.6513847862156
 30
0.0
 10
122.7380723434474
 20
-134.5688747493439
 30
0.0
 10
122.7308376429284
 20
-134.522365960293
 30
0.0
 10
122.7232584328609
 20
-134.473790113951
 30
0.0
 10
122.8510714753636
 20
-134.4886040245376
 30
0.0
 10
122.8641628382076
 20
-134.4886040245376
 30
0.0
 10
122.8955132071233
 20
-134.4886040245376
 30
0.0
 10
122.9899088234192
 20
-134.4886040245376
 30
0.0
 10
123.1139322608882
 20
-134.4715508018856
 30
0.0
 10
123.2548366662349
 20
-134.4102281022481
 30
0.0
 10
123.2548366662349
 20
-134.4102281022481
 30
0.0
 10
123.3547444353072
 20
-134.5414862402362
 30
0.0
 10
123.3547444353072
 20
-134.5414862402362
 30
0.0
 10
123.3602565880836
 20
-134.5478596668839
 30
0.0
 10
123.3640461931173
 20
-134.5563001508228
 30
0.0
 10
123.3640461931173
 20
-134.5647406347616
 30
0.0
 10
123.3640461931173
 20
-134.587995029287
 30
0.0
 10
123.3475097347881
 20
-134.5921291438693
 30
0.0
 10
123.3344183719442
 20
-134.5921291438693
 30
0.0
  0
SPLINE
  5
6D
330
49
100
AcDbEntity
  8
_U+30EC_U+30A4_U+30E4_U+30FC 1
370
     0
100
AcDbSpline
210
0.0
220
0.0
230
1.0
 70
    11
 71
     3
 72
    74
 73
    70
 74
     0
 42
0.0000000001
 43
0.0000000001
 12
1.0
 22
0.0
 32
0.0
 13
1.0
 23
0.0
 33
0.0
 40
0.0
 40
0.0
 40
0.0
 40
0.0
 40
1.0
 40
1.0
 40
1.0
 40
2.0
 40
2.0
 40
2.0
 40
3.0
 40
3.0
 40
3.0
 40
4.0
 40
4.0
 40
4.0
 40
5.0
 40
5.0
 40
5.0
 40
6.0
 40
6.0
 40
6.0
 40
7.0
 40
7.0
 40
7.0
 40
8.0
 40
8.0
 40
8.0
 40
9.0
 40
9.0
 40
9.0
 40
10.0
 40
10.0
 40
10.0
 40
11.0
 40
11.0
 40
11.0
 40
12.0
 40
12.0
 40
12.0
 40
13.0
 40
13.0
 40
13.0
 40
14.0
 40
14.0
 40
14.0
 40
15.0
 40
15.0
 40
15.0
 40
16.0
 40
16.0
 40
16.0
 40
17.0
 40
17.0
 40
17.0
 40
18.0
 40
18.0
 40
18.0
 40
19.0
 40
19.0
 40
19.0
 40
20.0
 40
20.0
 40
20.0
 40
21.0
 40
21.0
 40
21.0
 40
22.0
 40
22.0
 40
22.0
 40
23.0
 40
23.0
 40
23.0
 40
23.0
 10
124.0678792007539
 20
-136.3586018539312
 30
0.0
 10
123.8808105159048
 20
-136.3480943127012
 30
0.0
 10
123.7047661366085
 20
-136.2612779064729
 30
0.0
 10
123.5511148779664
 20
-136.1406995644891
 30
0.0
 10
123.5511148779664
 20
-136.1406995644891
 30
0.0
 10
123.6362087364521
 20
-136.0540554130351
 30
0.0
 10
123.6362087364521
 20
-136.0540554130351
 30
0.0
 10
123.6362087364521
 20
-136.0540554130351
 30
0.0
 10
123.1528618398715
 20
-136.0540554130351
 30
0.0
 10
123.1528618398715
 20
-136.0540554130351
 30
0.0
 10
123.1528618398715
 20
-136.0540554130351
 30
0.0
 10
123.2234862973191
 20
-136.1174451699637
 30
0.0
 10
123.2234862973191
 20
-136.1174451699637
 30
0.0
 10
123.2289984500955
 20
-136.1217515393203
 30
0.0
 10
123.2383002079057
 20
-136.1322590805503
 30
0.0
 10
123.2383002079057
 20
-136.1470729911368
 30
0.0
 10
123.2383002079057
 20
-136.1873806083143
 30
0.0
 10
123.1731879032345
 20
-136.1810071816666
 30
0.0
 10
123.1604410499391
 20
-136.1787678696012
 30
0.0
 10
122.9585584545034
 20
-136.318466491528
 30
0.0
 10
122.8328124692918
 20
-136.3501613699923
 30
0.0
 10
122.7418619484812
 20
-136.3670423378701
 30
0.0
 10
122.7418619484812
 20
-136.3670423378701
 30
0.0
 10
122.628862816565
 20
-136.1894476656054
 30
0.0
 10
122.628862816565
 20
-136.1894476656054
 30
0.0
 10
122.8455593225872
 20
-136.1577527871411
 30
0.0
 10
122.9344427861067
 20
-136.111071743316
 30
0.0
 10
123.0123019440733
 20
-136.0581895276174
 30
0.0
 10
122.9475341489506
 20
-136.0604288396828
 30
0.0
 10
122.8472818703299
 20
-136.062495896974
 30
0.0
 10
122.8197211064479
 20
-136.0645629542651
 30
0.0
 10
122.8328124692918
 20
-135.9756794907457
 30
0.0
 10
122.8345350170344
 20
-135.8466606648231
 30
0.0
 10
122.8345350170344
 20
-135.7725911118902
 30
0.0
 10
122.8345350170344
 20
-135.7725911118902
 30
0.0
 10
122.8345350170344
 20
-135.4723510403507
 30
0.0
 10
122.8345350170344
 20
-135.4723510403507
 30
0.0
 10
122.8345350170344
 20
-135.3727877808269
 30
0.0
 10
122.829022864258
 20
-135.2733967760775
 30
0.0
 10
122.8197211064479
 20
-135.1760728286192
 30
0.0
 10
122.9086045699673
 20
-135.1824462552669
 30
0.0
 10
123.1104871654029
 20
-135.1888196819146
 30
0.0
 10
123.2048827816988
 20
-135.1888196819146
 30
0.0
 10
123.2048827816988
 20
-135.1888196819146
 30
0.0
 10
123.5752305463631
 20
-135.1888196819146
 30
0.0
 10
123.5752305463631
 20
-135.1888196819146
 30
0.0
 10
123.6789279204692
 20
-135.1888196819146
 30
0.0
 10
123.7157904421613
 20
-135.1888196819146
 30
0.0
 10
123.7881374473516
 20
-135.184513312558
 30
0.0
 10
123.917673037597
 20
-135.1781398859103
 30
0.0
 10
123.9324869481836
 20
-135.1781398859103
 30
0.0
 10
123.9731390749095
 20
-135.1760728286192
 30
0.0
 10
123.9659043743905
 20
-135.2565158081998
 30
0.0
 10
123.9621147693567
 20
-135.4151624552955
 30
0.0
 10
123.9621147693567
 20
-135.4976724921673
 30
0.0
 10
123.9621147693567
 20
-135.4976724921673
 30
0.0
 10
123.9621147693567
 20
-135.7832709078945
 30
0.0
 10
123.9621147693567
 20
-135.7832709078945
 30
0.0
 10
123.9621147693567
 20
-135.8551011487619
 30
0.0
 10
123.9641818266478
 20
-135.9863592867499
 30
0.0
 10
123.9731390749095
 20
-136.0645629542651
 30
0.0
 10
123.9104383370779
 20
-136.0604288396828
 30
0.0
 10
123.8029513579382
 20
-136.0581895276174
 30
0.0
 10
123.7343939577817
 20
-136.0561224703262
 30
0.0
 10
123.8308566313687
 20
-136.1238185966114
 30
0.0
 10
123.9641818266478
 20
-136.1746337550188
 30
0.0
 10
124.1491834542058
 20
-136.1787678696012
 30
0.0
 10
124.1491834542058
 20
-136.1787678696012
 30
0.0
 10
124.0678792007539
 20
-136.3586018539312
 30
0.0
 10
124.0678792007539
 20
-136.3586018539312
 30
0.0
  0
POLYLINE
  5
6E
330
49
100
AcDbEntity
  8
_U+30EC_U+30A4_U+30E4_U+30FC 1
370
     0
100
AcDb2dPolyline
 66
     1
 10
0.0
 20
0.0
 30
0.0
  0
VERTEX
  5
6F
330
6E
100
AcDbEntity
  8
_U+30EC_U+30A4_U+30E4_U+30FC 1
370
     0
100
AcDbVertex
100
AcDb2dVertex
 10
123.8012288101955
 20
-135.3242119344849
 30
0.0
  0
VERTEX
  5
70
330
6E
100
AcDbEntity
  8
_U+30EC_U+30A4_U+30E4_U+30FC 1
370
     0
100
AcDbVertex
100
AcDb2dVertex
 10
123.0030001862632
 20
-135.3242119344849
 30
0.0
  0
VERTEX
  5
71
330
6E
100
AcDbEntity
  8
_U+30EC_U+30A4_U+30E4_U+30FC 1
370
     0
100
AcDbVertex
100
AcDb2dVertex
 10
123.0030001862632
 20
-135.4363497925298
 30
0.0
  0
VERTEX
  5
72
330
6E
100
AcDbEntity
  8
_U+30EC_U+30A4_U+30E4_U+30FC 1
370
     0
100
AcDbVertex
100
AcDb2dVertex
 10
123.8012288101955
 20
-135.4363497925298
 30
0.0
  0
VERTEX
  5
73
330
6E
100
AcDbEntity
  8
_U+30EC_U+30A4_U+30E4_U+30FC 1
370
     0
100
AcDbVertex
100
AcDb2dVertex
 10
123.8012288101955
 20
-135.3242119344849
 30
0.0
  0
SEQEND
  5
74
330
6E
100
AcDbEntity
  8
_U+30EC_U+30A4_U+30E4_U+30FC 1
370
     0
  0
POLYLINE
  5
75
330
49
100
AcDbEntity
  8
_U+30EC_U+30A4_U+30E4_U+30FC 1
370
     0
100
AcDb2dPolyline
 66
     1
 10
0.0
 20
0.0
 30
0.0
  0
VERTEX
  5
76
330
75
100
AcDbEntity
  8
_U+30EC_U+30A4_U+30E4_U+30FC 1
370
     0
100
AcDbVertex
100
AcDb2dVertex
 10
123.8012288101955
 20
-135.5695027330347
 30
0.0
  0
VERTEX
  5
77
330
75
100
AcDbEntity
  8
_U+30EC_U+30A4_U+30E4_U+30FC 1
370
     0
100
AcDbVertex
100
AcDb2dVertex
 10
123.0030001862632
 20
-135.5695027330347
 30
0.0
  0
VERTEX
  5
78
330
75
100
AcDbEntity
  8
_U+30EC_U+30A4_U+30E4_U+30FC 1
370
     0
100
AcDbVertex
100
AcDb2dVertex
 10
123.0030001862632
 20
-135.6795735337884
 30
0.0
  0
VERTEX
  5
79
330
75
100
AcDbEntity
  8
_U+30EC_U+30A4_U+30E4_U+30FC 1
370
     0
100
AcDbVertex
100
AcDb2dVertex
 10
123.8012288101955
 20
-135.6795735337884
 30
0.0
  0
VERTEX
  5
7A
330
75
100
AcDbEntity
  8
_U+30EC_U+30A4_U+30E4_U+30FC 1
370
     0
100
AcDbVertex
100
AcDb2dVertex
 10
123.8012288101955
 20
-135.5695027330347
 30
0.0
  0
SEQEND
  5
7B
330
75
100
AcDbEntity
  8
_U+30EC_U+30A4_U+30E4_U+30FC 1
370
     0
  0
POLYLINE
  5
7C
330
49
100
AcDbEntity
  8
_U+30EC_U+30A4_U+30E4_U+30FC 1
370
     0
100
AcDb2dPolyline
 66
     1
 10
0.0
 20
0.0
 30
0.0
  0
VERTEX
  5
7D
330
7C
100
AcDbEntity
  8
_U+30EC_U+30A4_U+30E4_U+30FC 1
370
     0
100
AcDbVertex
100
AcDb2dVertex
 10
123.8012288101955
 20
-135.8149657863588
 30
0.0
  0
VERTEX
  5
7E
330
7C
100
AcDbEntity
  8
_U+30EC_U+30A4_U+30E4_U+30FC 1
370
     0
100
AcDbVertex
100
AcDb2dVertex
 10
123.0030001862632
 20
-135.8149657863588
 30
0.0
  0
VERTEX
  5
7F
330
7C
100
AcDbEntity
  8
_U+30EC_U+30A4_U+30E4_U+30FC 1
370
     0
100
AcDbVertex
100
AcDb2dVertex
 10
123.0030001862632
 20
-135.9227972750471
 30
0.0
  0
VERTEX
  5
80
330
7C
100
AcDbEntity
  8
_U+30EC_U+30A4_U+30E4_U+30FC 1
370
     0
100
AcDbVertex
100
AcDb2dVertex
 10
123.8012288101955
 20
-135.9227972750471
 30
0.0
  0
VERTEX
  5
81
330
7C
100
AcDbEntity
  8
_U+30EC_U+30A4_U+30E4_U+30FC 1
370
     0
100
AcDbVertex
100
AcDb2dVertex
 10
123.8012288101955
 20
-135.8149657863588
 30
0.0
  0
SEQEND
  5
82
330
7C
100
AcDbEntity
  8
_U+30EC_U+30A4_U+30E4_U+30FC 1
370
     0
  0
SPLINE
  5
83
330
49
100
AcDbEntity
  8
_U+30EC_U+30A4_U+30E4_U+30FC 1
370
     0
100
AcDbSpline
210
0.0
220
0.0
230
1.0
 70
    11
 71
     3
 72
    74
 73
    70
 74
     0
 42
0.0000000001
 43
0.0000000001
 12
1.0
 22
0.0
 32
0.0
 13
1.0
 23
0.0
 33
0.0
 40
0.0
 40
0.0
 40
0.0
 40
0.0
 40
1.0
 40
1.0
 40
1.0
 40
2.0
 40
2.0
 40
2.0
 40
3.0
 40
3.0
 40
3.0
 40
4.0
 40
4.0
 40
4.0
 40
5.0
 40
5.0
 40
5.0
 40
6.0
 40
6.0
 40
6.0
 40
7.0
 40
7.0
 40
7.0
 40
8.0
 40
8.0
 40
8.0
 40
9.0
 40
9.0
 40
9.0
 40
10.0
 40
10.0
 40
10.0
 40
11.0
 40
11.0
 40
11.0
 40
12.0
 40
12.0
 40
12.0
 40
13.0
 40
13.0
 40
13.0
 40
14.0
 40
14.0
 40
14.0
 40
15.0
 40
15.0
 40
15.0
 40
16.0
 40
16.0
 40
16.0
 40
17.0
 40
17.0
 40
17.0
 40
18.0
 40
18.0
 40
18.0
 40
19.0
 40
19.0
 40
19.0
 40
20.0
 40
20.0
 40
20.0
 40
21.0
 40
21.0
 40
21.0
 40
22.0
 40
22.0
 40
22.0
 40
23.0
 40
23.0
 40
23.0
 40
23.0
 10
124.0789035063067
 20
-134.8715263877231
 30
0.0
 10
124.0789035063067
 20
-134.8715263877231
 30
0.0
 10
123.93799910096
 20
-134.8715263877231
 30
0.0
 10
123.93799910096
 20
-134.8715263877231
 30
0.0
 10
123.93799910096
 20
-134.8715263877231
 30
0.0
 10
123.93799910096
 20
-134.9857313030591
 30
0.0
 10
123.93799910096
 20
-134.9857313030591
 30
0.0
 10
123.93799910096
 20
-135.0258666654623
 30
0.0
 10
123.9435112537363
 20
-135.0999362183952
 30
0.0
 10
123.9473008587701
 20
-135.1252576702117
 30
0.0
 10
123.9473008587701
 20
-135.1252576702117
 30
0.0
 10
123.7622992312122
 20
-135.1252576702117
 30
0.0
 10
123.7622992312122
 20
-135.1252576702117
 30
0.0
 10
123.7716009890224
 20
-135.059800855992
 30
0.0
 10
123.773323536765
 20
-135.0005452136457
 30
0.0
 10
123.773323536765
 20
-134.9983059015803
 30
0.0
 10
123.773323536765
 20
-134.9983059015803
 30
0.0
 10
123.773323536765
 20
-134.8756605023054
 30
0.0
 10
123.773323536765
 20
-134.8756605023054
 30
0.0
 10
123.773323536765
 20
-134.8756605023054
 30
0.0
 10
123.6158826730891
 20
-134.8756605023054
 30
0.0
 10
123.6158826730891
 20
-134.8756605023054
 30
0.0
 10
123.5993462147599
 20
-134.9349161446517
 30
0.0
 10
123.5583495784854
 20
-135.080815938452
 30
0.0
 10
123.4584418094132
 20
-135.1633259753237
 30
0.0
 10
123.4584418094132
 20
-135.1633259753237
 30
0.0
 10
123.3213270091002
 20
-135.0575615439266
 30
0.0
 10
123.3213270091002
 20
-135.0575615439266
 30
0.0
 10
123.3864393137714
 20
-135.0110527548757
 30
0.0
 10
123.4880696305863
 20
-134.9369832019428
 30
0.0
 10
123.4880696305863
 20
-134.615555793169
 30
0.0
 10
123.4880696305863
 20
-134.560434265405
 30
0.0
 10
123.4846245351011
 20
-134.5159925336453
 30
0.0
 10
123.4825574778099
 20
-134.4779242285333
 30
0.0
 10
123.5493923302238
 20
-134.4863647124722
 30
0.0
 10
123.6141601253465
 20
-134.4927381391199
 30
0.0
 10
123.669626162659
 20
-134.4927381391199
 30
0.0
 10
123.8249999690438
 20
-134.4927381391199
 30
0.0
 10
123.9993218005974
 20
-134.4334824967736
 30
0.0
 10
124.0530652901673
 20
-134.4038546756004
 30
0.0
 10
124.0530652901673
 20
-134.4038546756004
 30
0.0
 10
124.1639973647923
 20
-134.5392469281707
 30
0.0
 10
124.1639973647923
 20
-134.5392469281707
 30
0.0
 10
124.1677869698261
 20
-134.5435532975273
 30
0.0
 10
124.1695095175687
 20
-134.5519937814662
 30
0.0
 10
124.1695095175687
 20
-134.5583672081139
 30
0.0
 10
124.1695095175687
 20
-134.5795545453482
 30
0.0
 10
124.1567626642733
 20
-134.5859279719959
 30
0.0
 10
124.1419487536867
 20
-134.5859279719959
 30
0.0
 10
124.1233452380664
 20
-134.5859279719959
 30
0.0
 10
124.1102538752224
 20
-134.577487488057
 30
0.0
 10
124.0937174168932
 20
-134.5668076920527
 30
0.0
 10
123.9417887059937
 20
-134.6239962771079
 30
0.0
 10
123.7512749256594
 20
-134.6493177289245
 30
0.0
 10
123.6344861887094
 20
-134.6513847862156
 30
0.0
 10
123.6344861887094
 20
-134.6513847862156
 30
0.0
 10
123.6306965836757
 20
-134.7338948230874
 30
0.0
 10
123.6306965836757
 20
-134.7338948230874
 30
0.0
 10
123.6306965836757
 20
-134.7338948230874
 30
0.0
 10
123.869786210352
 20
-134.7338948230874
 30
0.0
 10
123.869786210352
 20
-134.7338948230874
 30
0.0
 10
123.9197400948881
 20
-134.7338948230874
 30
0.0
 10
124.1491834542058
 20
-134.7149467979185
 30
0.0
 10
124.1881130331891
 20
-134.7085733712708
 30
0.0
 10
124.1881130331891
 20
-134.7085733712708
 30
0.0
 10
124.1881130331891
 20
-134.8777275595965
 30
0.0
 10
124.1881130331891
 20
-134.8777275595965
 30
0.0
 10
124.1584852120159
 20
-134.8735934450143
 30
0.0
 10
124.1474609064631
 20
-134.8715263877231
 30
0.0
 10
124.0789035063067
 20
-134.8715263877231
 30
0.0
  0
HATCH
  5
84
330
49
100
AcDbEntity
  8
_U+30EC_U+30A4_U+30E4_U+30FC 1
 62
   179
420
  2234388
100
AcDbHatch
 10
0.0
 20
0.0
 30
0.0
210
0.0
220
0.0
230
1.0
  2
SOLID
 70
     1
 71
     0
 91
        6
 92
        1
 93
        1
 72
     4
 94
        3
 73
     0
 74
     1
 95
       71
 96
       67
 40
0.0
 40
0.0
 40
0.0
 40
0.0
 40
1.0
 40
1.0
 40
1.0
 40
2.0
 40
2.0
 40
2.0
 40
3.0
 40
3.0
 40
3.0
 40
4.0
 40
4.0
 40
4.0
 40
5.0
 40
5.0
 40
5.0
 40
6.0
 40
6.0
 40
6.0
 40
7.0
 40
7.0
 40
7.0
 40
8.0
 40
8.0
 40
8.0
 40
9.0
 40
9.0
 40
9.0
 40
10.0
 40
10.0
 40
10.0
 40
11.0
 40
11.0
 40
11.0
 40
12.0
 40
12.0
 40
12.0
 40
13.0
 40
13.0
 40
13.0
 40
14.0
 40
14.0
 40
14.0
 40
15.0
 40
15.0
 40
15.0
 40
16.0
 40
16.0
 40
16.0
 40
17.0
 40
17.0
 40
17.0
 40
18.0
 40
18.0
 40
18.0
 40
19.0
 40
19.0
 40
19.0
 40
20.0
 40
20.0
 40
20.0
 40
21.0
 40
21.0
 40
21.0
 40
22.0
 40
22.0
 40
22.0
 40
22.0
 10
123.3344183719442
 20
-134.5921291438693
 10
123.3213270091002
 20
-134.5921291438693
 10
123.3103027035474
 20
-134.587995029287
 10
123.2882540924418
 20
-134.5795545453482
 10
123.1642306549728
 20
-134.626063334399
 10
123.0123019440733
 20
-134.6429443022768
 10
122.890001054347
 20
-134.6472506716333
 10
122.890001054347
 20
-134.6472506716333
 10
122.8882785066043
 20
-134.7361341351528
 10
122.8882785066043
 20
-134.7361341351528
 10
122.8882785066043
 20
-134.7361341351528
 10
123.1159993181793
 20
-134.7361341351528
 10
123.1159993181793
 20
-134.7361341351528
 10
123.1621635976817
 20
-134.7361341351528
 10
123.3213270091002
 20
-134.7275213964396
 10
123.3602565880836
 20
-134.7213202245662
 10
123.3602565880836
 20
-134.7213202245662
 10
123.3602565880836
 20
-134.8820339289531
 10
123.3602565880836
 20
-134.8820339289531
 10
123.3123697608386
 20
-134.8756605023054
 10
123.2028157244076
 20
-134.8735934450143
 10
123.1697428077492
 20
-134.8756605023054
 10
123.1697428077492
 20
-134.8756605023054
 10
123.1697428077492
 20
-134.9857313030591
 10
123.1697428077492
 20
-134.9857313030591
 10
123.1697428077492
 20
-135.03224009211
 10
123.1714653554919
 20
-135.0956298490386
 10
123.1769775082683
 20
-135.1336981541506
 10
123.1769775082683
 20
-135.1336981541506
 10
123.0085123390395
 20
-135.1336981541506
 10
123.0085123390395
 20
-135.1336981541506
 10
123.0140244918159
 20
-135.0935627917474
 10
123.0195366445923
 20
-135.0110527548757
 10
123.0195366445923
 20
-134.9962388442891
 10
123.0195366445923
 20
-134.9962388442891
 10
123.0195366445923
 20
-134.8756605023054
 10
123.0195366445923
 20
-134.8756605023054
 10
123.0195366445923
 20
-134.8756605023054
 10
122.8751871437604
 20
-134.8756605023054
 10
122.8751871437604
 20
-134.8756605023054
 10
122.8383246220682
 20
-135.0956298490386
 10
122.7900932852747
 20
-135.1760728286192
 10
122.6974202167215
 20
-135.2754638333686
 10
122.6974202167215
 20
-135.2754638333686
 10
122.5510036585984
 20
-135.1612589180326
 10
122.5510036585984
 20
-135.1612589180326
 10
122.6068142054594
 20
-135.1126830716906
 10
122.7380723434474
 20
-135.0005452136457
 10
122.7380723434474
 20
-134.6513847862156
 10
122.7380723434474
 20
-134.5688747493439
 10
122.7308376429284
 20
-134.522365960293
 10
122.7232584328609
 20
-134.473790113951
 10
122.8510714753636
 20
-134.4886040245376
 10
122.8641628382076
 20
-134.4886040245376
 10
122.8955132071233
 20
-134.4886040245376
 10
122.9899088234192
 20
-134.4886040245376
 10
123.1139322608882
 20
-134.4715508018856
 10
123.2548366662349
 20
-134.4102281022481
 10
123.2548366662349
 20
-134.4102281022481
 10
123.3547444353072
 20
-134.5414862402362
 10
123.3547444353072
 20
-134.5414862402362
 10
123.3602565880836
 20
-134.5478596668839
 10
123.3640461931173
 20
-134.5563001508228
 10
123.3640461931173
 20
-134.5647406347616
 10
123.3640461931173
 20
-134.587995029287
 10
123.3475097347881
 20
-134.5921291438693
 10
123.3344183719442
 20
-134.5921291438693
 97
        0
 97
        0
 92
        1
 93
        1
 72
     4
 94
        3
 73
     0
 74
     1
 95
       74
 96
       70
 40
0.0
 40
0.0
 40
0.0
 40
0.0
 40
1.0
 40
1.0
 40
1.0
 40
2.0
 40
2.0
 40
2.0
 40
3.0
 40
3.0
 40
3.0
 40
4.0
 40
4.0
 40
4.0
 40
5.0
 40
5.0
 40
5.0
 40
6.0
 40
6.0
 40
6.0
 40
7.0
 40
7.0
 40
7.0
 40
8.0
 40
8.0
 40
8.0
 40
9.0
 40
9.0
 40
9.0
 40
10.0
 40
10.0
 40
10.0
 40
11.0
 40
11.0
 40
11.0
 40
12.0
 40
12.0
 40
12.0
 40
13.0
 40
13.0
 40
13.0
 40
14.0
 40
14.0
 40
14.0
 40
15.0
 40
15.0
 40
15.0
 40
16.0
 40
16.0
 40
16.0
 40
17.0
 40
17.0
 40
17.0
 40
18.0
 40
18.0
 40
18.0
 40
19.0
 40
19.0
 40
19.0
 40
20.0
 40
20.0
 40
20.0
 40
21.0
 40
21.0
 40
21.0
 40
22.0
 40
22.0
 40
22.0
 40
23.0
 40
23.0
 40
23.0
 40
23.0
 10
124.0678792007539
 20
-136.3586018539312
 10
123.8808105159048
 20
-136.3480943127012
 10
123.7047661366085
 20
-136.2612779064729
 10
123.5511148779664
 20
-136.1406995644891
 10
123.5511148779664
 20
-136.1406995644891
 10
123.6362087364521
 20
-136.0540554130351
 10
123.6362087364521
 20
-136.0540554130351
 10
123.6362087364521
 20
-136.0540554130351
 10
123.1528618398715
 20
-136.0540554130351
 10
123.1528618398715
 20
-136.0540554130351
 10
123.1528618398715
 20
-136.0540554130351
 10
123.2234862973191
 20
-136.1174451699637
 10
123.2234862973191
 20
-136.1174451699637
 10
123.2289984500955
 20
-136.1217515393203
 10
123.2383002079057
 20
-136.1322590805503
 10
123.2383002079057
 20
-136.1470729911368
 10
123.2383002079057
 20
-136.1873806083143
 10
123.1731879032345
 20
-136.1810071816666
 10
123.1604410499391
 20
-136.1787678696012
 10
122.9585584545034
 20
-136.318466491528
 10
122.8328124692918
 20
-136.3501613699923
 10
122.7418619484812
 20
-136.3670423378701
 10
122.7418619484812
 20
-136.3670423378701
 10
122.628862816565
 20
-136.1894476656054
 10
122.628862816565
 20
-136.1894476656054
 10
122.8455593225872
 20
-136.1577527871411
 10
122.9344427861067
 20
-136.111071743316
 10
123.0123019440733
 20
-136.0581895276174
 10
122.9475341489506
 20
-136.0604288396828
 10
122.8472818703299
 20
-136.062495896974
 10
122.8197211064479
 20
-136.0645629542651
 10
122.8328124692918
 20
-135.9756794907457
 10
122.8345350170344
 20
-135.8466606648231
 10
122.8345350170344
 20
-135.7725911118902
 10
122.8345350170344
 20
-135.7725911118902
 10
122.8345350170344
 20
-135.4723510403507
 10
122.8345350170344
 20
-135.4723510403507
 10
122.8345350170344
 20
-135.3727877808269
 10
122.829022864258
 20
-135.2733967760775
 10
122.8197211064479
 20
-135.1760728286192
 10
122.9086045699673
 20
-135.1824462552669
 10
123.1104871654029
 20
-135.1888196819146
 10
123.2048827816988
 20
-135.1888196819146
 10
123.2048827816988
 20
-135.1888196819146
 10
123.5752305463631
 20
-135.1888196819146
 10
123.5752305463631
 20
-135.1888196819146
 10
123.6789279204692
 20
-135.1888196819146
 10
123.7157904421613
 20
-135.1888196819146
 10
123.7881374473516
 20
-135.184513312558
 10
123.917673037597
 20
-135.1781398859103
 10
123.9324869481836
 20
-135.1781398859103
 10
123.9731390749095
 20
-135.1760728286192
 10
123.9659043743905
 20
-135.2565158081998
 10
123.9621147693567
 20
-135.4151624552955
 10
123.9621147693567
 20
-135.4976724921673
 10
123.9621147693567
 20
-135.4976724921673
 10
123.9621147693567
 20
-135.7832709078945
 10
123.9621147693567
 20
-135.7832709078945
 10
123.9621147693567
 20
-135.8551011487619
 10
123.9641818266478
 20
-135.9863592867499
 10
123.9731390749095
 20
-136.0645629542651
 10
123.9104383370779
 20
-136.0604288396828
 10
123.8029513579382
 20
-136.0581895276174
 10
123.7343939577817
 20
-136.0561224703262
 10
123.8308566313687
 20
-136.1238185966114
 10
123.9641818266478
 20
-136.1746337550188
 10
124.1491834542058
 20
-136.1787678696012
 10
124.1491834542058
 20
-136.1787678696012
 10
124.0678792007539
 20
-136.3586018539312
 10
124.0678792007539
 20
-136.3586018539312
 97
        0
 97
        0
 92
        1
 93
        4
 72
     1
 10
123.8012288101955
 20
-135.3242119344849
 11
123.0030001862632
 21
-135.3242119344849
 72
     1
 10
123.0030001862632
 20
-135.3242119344849
 11
123.0030001862632
 21
-135.4363497925298
 72
     1
 10
123.0030001862632
 20
-135.4363497925298
 11
123.8012288101955
 21
-135.4363497925298
 72
     1
 10
123.8012288101955
 20
-135.4363497925298
 11
123.8012288101955
 21
-135.3242119344849
 97
        0
 92
        1
 93
        4
 72
     1
 10
123.8012288101955
 20
-135.5695027330347
 11
123.0030001862632
 21
-135.5695027330347
 72
     1
 10
123.0030001862632
 20
-135.5695027330347
 11
123.0030001862632
 21
-135.6795735337884
 72
     1
 10
123.0030001862632
 20
-135.6795735337884
 11
123.8012288101955
 21
-135.6795735337884
 72
     1
 10
123.8012288101955
 20
-135.6795735337884
 11
123.8012288101955
 21
-135.5695027330347
 97
        0
 92
        1
 93
        4
 72
     1
 10
123.8012288101955
 20
-135.8149657863588
 11
123.0030001862632
 21
-135.8149657863588
 72
     1
 10
123.0030001862632
 20
-135.8149657863588
 11
123.0030001862632
 21
-135.9227972750471
 72
     1
 10
123.0030001862632
 20
-135.9227972750471
 11
123.8012288101955
 21
-135.9227972750471
 72
     1
 10
123.8012288101955
 20
-135.9227972750471
 11
123.8012288101955
 21
-135.8149657863588
 97
        0
 92
        1
 93
        1
 72
     4
 94
        3
 73
     0
 74
     1
 95
       74
 96
       70
 40
0.0
 40
0.0
 40
0.0
 40
0.0
 40
1.0
 40
1.0
 40
1.0
 40
2.0
 40
2.0
 40
2.0
 40
3.0
 40
3.0
 40
3.0
 40
4.0
 40
4.0
 40
4.0
 40
5.0
 40
5.0
 40
5.0
 40
6.0
 40
6.0
 40
6.0
 40
7.0
 40
7.0
 40
7.0
 40
8.0
 40
8.0
 40
8.0
 40
9.0
 40
9.0
 40
9.0
 40
10.0
 40
10.0
 40
10.0
 40
11.0
 40
11.0
 40
11.0
 40
12.0
 40
12.0
 40
12.0
 40
13.0
 40
13.0
 40
13.0
 40
14.0
 40
14.0
 40
14.0
 40
15.0
 40
15.0
 40
15.0
 40
16.0
 40
16.0
 40
16.0
 40
17.0
 40
17.0
 40
17.0
 40
18.0
 40
18.0
 40
18.0
 40
19.0
 40
19.0
 40
19.0
 40
20.0
 40
20.0
 40
20.0
 40
21.0
 40
21.0
 40
21.0
 40
22.0
 40
22.0
 40
22.0
 40
23.0
 40
23.0
 40
23.0
 40
23.0
 10
124.0789035063067
 20
-134.8715263877231
 10
124.0789035063067
 20
-134.8715263877231
 10
123.93799910096
 20
-134.8715263877231
 10
123.93799910096
 20
-134.8715263877231
 10
123.93799910096
 20
-134.8715263877231
 10
123.93799910096
 20
-134.9857313030591
 10
123.93799910096
 20
-134.9857313030591
 10
123.93799910096
 20
-135.0258666654623
 10
123.9435112537363
 20
-135.0999362183952
 10
123.9473008587701
 20
-135.1252576702117
 10
123.9473008587701
 20
-135.1252576702117
 10
123.7622992312122
 20
-135.1252576702117
 10
123.7622992312122
 20
-135.1252576702117
 10
123.7716009890224
 20
-135.059800855992
 10
123.773323536765
 20
-135.0005452136457
 10
123.773323536765
 20
-134.9983059015803
 10
123.773323536765
 20
-134.9983059015803
 10
123.773323536765
 20
-134.8756605023054
 10
123.773323536765
 20
-134.8756605023054
 10
123.773323536765
 20
-134.8756605023054
 10
123.6158826730891
 20
-134.8756605023054
 10
123.6158826730891
 20
-134.8756605023054
 10
123.5993462147599
 20
-134.9349161446517
 10
123.5583495784854
 20
-135.080815938452
 10
123.4584418094132
 20
-135.1633259753237
 10
123.4584418094132
 20
-135.1633259753237
 10
123.3213270091002
 20
-135.0575615439266
 10
123.3213270091002
 20
-135.0575615439266
 10
123.3864393137714
 20
-135.0110527548757
 10
123.4880696305863
 20
-134.9369832019428
 10
123.4880696305863
 20
-134.615555793169
 10
123.4880696305863
 20
-134.560434265405
 10
123.4846245351011
 20
-134.5159925336453
 10
123.4825574778099
 20
-134.4779242285333
 10
123.5493923302238
 20
-134.4863647124722
 10
123.6141601253465
 20
-134.4927381391199
 10
123.669626162659
 20
-134.4927381391199
 10
123.8249999690438
 20
-134.4927381391199
 10
123.9993218005974
 20
-134.4334824967736
 10
124.0530652901673
 20
-134.4038546756004
 10
124.0530652901673
 20
-134.4038546756004
 10
124.1639973647923
 20
-134.5392469281707
 10
124.1639973647923
 20
-134.5392469281707
 10
124.1677869698261
 20
-134.5435532975273
 10
124.1695095175687
 20
-134.5519937814662
 10
124.1695095175687
 20
-134.5583672081139
 10
124.1695095175687
 20
-134.5795545453482
 10
124.1567626642733
 20
-134.5859279719959
 10
124.1419487536867
 20
-134.5859279719959
 10
124.1233452380664
 20
-134.5859279719959
 10
124.1102538752224
 20
-134.577487488057
 10
124.0937174168932
 20
-134.5668076920527
 10
123.9417887059937
 20
-134.6239962771079
 10
123.7512749256594
 20
-134.6493177289245
 10
123.6344861887094
 20
-134.6513847862156
 10
123.6344861887094
 20
-134.6513847862156
 10
123.6306965836757
 20
-134.7338948230874
 10
123.6306965836757
 20
-134.7338948230874
 10
123.6306965836757
 20
-134.7338948230874
 10
123.869786210352
 20
-134.7338948230874
 10
123.869786210352
 20
-134.7338948230874
 10
123.9197400948881
 20
-134.7338948230874
 10
124.1491834542058
 20
-134.7149467979185
 10
124.1881130331891
 20
-134.7085733712708
 10
124.1881130331891
 20
-134.7085733712708
 10
124.1881130331891
 20
-134.8777275595965
 10
124.1881130331891
 20
-134.8777275595965
 10
124.1584852120159
 20
-134.8735934450143
 10
124.1474609064631
 20
-134.8715263877231
 10
124.0789035063067
 20
-134.8715263877231
 97
        0
 97
        0
 75
     2
 76
     1
 98
        0
  0
ENDBLK
  5
4C
330
49
100
AcDbEntity
  8
0
100
AcDbBlockEnd
  0
BLOCK
  5
87
330
85
100
AcDbEntity
  8
0
100
AcDbBlockBegin
  2
block 4
 70
     0
 10
0.0
 20
0.0
 30
0.0
  3
block 4
  1

  0
SPLINE
  5
89
330
85
100
AcDbEntity
  8
_U+30EC_U+30A4_U+30E4_U+30FC 1
370
     0
100
AcDbSpline
210
0.0
220
0.0
230
1.0
 70
    11
 71
     3
 72
    62
 73
    58
 74
     0
 42
0.0000000001
 43
0.0000000001
 12
1.0
 22
0.0
 32
0.0
 13
1.0
 23
0.0
 33
0.0
 40
0.0
 40
0.0
 40
0.0
 40
0.0
 40
1.0
 40
1.0
 40
1.0
 40
2.0
 40
2.0
 40
2.0
 40
3.0
 40
3.0
 40
3.0
 40
4.0
 40
4.0
 40
4.0
 40
5.0
 40
5.0
 40
5.0
 40
6.0
 40
6.0
 40
6.0
 40
7.0
 40
7.0
 40
7.0
 40
8.0
 40
8.0
 40
8.0
 40
9.0
 40
9.0
 40
9.0
 40
10.0
 40
10.0
 40
10.0
 40
11.0
 40
11.0
 40
11.0
 40
12.0
 40
12.0
 40
12.0
 40
13.0
 40
13.0
 40
13.0
 40
14.0
 40
14.0
 40
14.0
 40
15.0
 40
15.0
 40
15.0
 40
16.0
 40
16.0
 40
16.0
 40
17.0
 40
17.0
 40
17.0
 40
18.0
 40
18.0
 40
18.0
 40
19.0
 40
19.0
 40
19.0
 40
19.0
 10
121.2263644445198
 20
-147.4414740299799
 30
0.0
 10
121.2263644445198
 20
-147.524845340723
 30
0.0
 10
121.2053493620598
 20
-147.7157036306058
 30
0.0
 10
121.0193142058563
 20
-147.8249131574882
 30
0.0
 10
120.9070040930371
 20
-147.8896809526109
 30
0.0
 10
120.807785343062
 20
-147.8934705576447
 30
0.0
 10
120.7230359941248
 20
-147.8972601626785
 30
0.0
 10
120.7230359941248
 20
-147.8972601626785
 30
0.0
 10
120.7230359941248
 20
-147.7043348155045
 30
0.0
 10
120.7230359941248
 20
-147.7043348155045
 30
0.0
 10
120.7971055470577
 20
-147.7026122677619
 30
0.0
 10
121.0317165496032
 20
-147.6933105099517
 30
0.0
 10
121.0317165496032
 20
-147.4452636350137
 30
0.0
 10
121.0317165496032
 20
-147.3250298025785
 30
0.0
 10
120.9621256208011
 20
-147.1917046072993
 30
0.0
 10
120.7337157901291
 20
-147.1917046072993
 30
0.0
 10
120.6172715627276
 20
-147.1917046072993
 30
0.0
 10
120.5686957163856
 20
-147.2247775239577
 30
0.0
 10
120.5370008379213
 20
-147.2526827973882
 30
0.0
 10
120.4629312849884
 20
-147.3174505925109
 30
0.0
 10
120.450184431693
 20
-147.4194254188743
 30
0.0
 10
120.450184431693
 20
-147.4673122461193
 30
0.0
 10
120.450184431693
 20
-147.484193213997
 30
0.0
 10
120.4522514889842
 20
-147.5155435829128
 30
0.0
 10
120.4563856035665
 20
-147.5396592513095
 30
0.0
 10
120.4563856035665
 20
-147.5396592513095
 30
0.0
 10
120.2617377086498
 20
-147.5396592513095
 30
0.0
 10
120.2617377086498
 20
-147.5396592513095
 30
0.0
 10
120.2682833900718
 20
-147.5062418251026
 30
0.0
 10
120.270350447363
 20
-147.4693793034104
 30
0.0
 10
120.270350447363
 20
-147.463867150634
 30
0.0
 10
120.270350447363
 20
-147.4063340560304
 30
0.0
 10
120.2489908553544
 20
-147.2323567340252
 30
0.0
 10
120.0123127955178
 20
-147.2323567340252
 30
0.0
 10
119.8345458684789
 20
-147.2323567340252
 30
0.0
 10
119.7794243407149
 20
-147.3470784136841
 30
0.0
 10
119.7794243407149
 20
-147.4435410872711
 30
0.0
 10
119.7794243407149
 20
-147.6747069943313
 30
0.0
 10
120.0123127955178
 20
-147.6822862043989
 30
0.0
 10
120.083970781611
 20
-147.6860758094327
 30
0.0
 10
120.083970781611
 20
-147.6860758094327
 30
0.0
 10
120.083970781611
 20
-147.8638427364716
 30
0.0
 10
120.083970781611
 20
-147.8638427364716
 30
0.0
 10
119.9592583250449
 20
-147.856263526404
 30
0.0
 10
119.5827093885071
 20
-147.8321478580073
 30
0.0
 10
119.5827093885071
 20
-147.4321722721697
 30
0.0
 10
119.5827093885071
 20
-147.236146339059
 30
0.0
 10
119.7098334119128
 20
-147.0249619858132
 30
0.0
 10
120.0057671140958
 20
-147.0249619858132
 30
0.0
 10
120.1921467798478
 20
-147.0249619858132
 30
0.0
 10
120.2744845619453
 20
-147.1083332965563
 30
0.0
 10
120.3358072615827
 20
-147.1951497027846
 30
0.0
 10
120.3633680254647
 20
-147.1414062132147
 30
0.0
 10
120.443638750271
 20
-146.9822428017961
 30
0.0
 10
120.7209689368337
 20
-146.9822428017961
 30
0.0
 10
121.0592773134852
 20
-146.9822428017961
 30
0.0
 10
121.2263644445198
 20
-147.1989393078183
 30
0.0
 10
121.2263644445198
 20
-147.4414740299799
 30
0.0
  0
HATCH
  5
8A
330
85
100
AcDbEntity
  8
_U+30EC_U+30A4_U+30E4_U+30FC 1
 62
   179
420
  2234388
100
AcDbHatch
 10
0.0
 20
0.0
 30
0.0
210
0.0
220
0.0
230
1.0
  2
SOLID
 70
     1
 71
     0
 91
        1
 92
        1
 93
        1
 72
     4
 94
        3
 73
     0
 74
     1
 95
       62
 96
       58
 40
0.0
 40
0.0
 40
0.0
 40
0.0
 40
1.0
 40
1.0
 40
1.0
 40
2.0
 40
2.0
 40
2.0
 40
3.0
 40
3.0
 40
3.0
 40
4.0
 40
4.0
 40
4.0
 40
5.0
 40
5.0
 40
5.0
 40
6.0
 40
6.0
 40
6.0
 40
7.0
 40
7.0
 40
7.0
 40
8.0
 40
8.0
 40
8.0
 40
9.0
 40
9.0
 40
9.0
 40
10.0
 40
10.0
 40
10.0
 40
11.0
 40
11.0
 40
11.0
 40
12.0
 40
12.0
 40
12.0
 40
13.0
 40
13.0
 40
13.0
 40
14.0
 40
14.0
 40
14.0
 40
15.0
 40
15.0
 40
15.0
 40
16.0
 40
16.0
 40
16.0
 40
17.0
 40
17.0
 40
17.0
 40
18.0
 40
18.0
 40
18.0
 40
19.0
 40
19.0
 40
19.0
 40
19.0
 10
121.2263644445198
 20
-147.4414740299799
 10
121.2263644445198
 20
-147.524845340723
 10
121.2053493620598
 20
-147.7157036306058
 10
121.0193142058563
 20
-147.8249131574882
 10
120.9070040930371
 20
-147.8896809526109
 10
120.807785343062
 20
-147.8934705576447
 10
120.7230359941248
 20
-147.8972601626785
 10
120.7230359941248
 20
-147.8972601626785
 10
120.7230359941248
 20
-147.7043348155045
 10
120.7230359941248
 20
-147.7043348155045
 10
120.7971055470577
 20
-147.7026122677619
 10
121.0317165496032
 20
-147.6933105099517
 10
121.0317165496032
 20
-147.4452636350137
 10
121.0317165496032
 20
-147.3250298025785
 10
120.9621256208011
 20
-147.1917046072993
 10
120.7337157901291
 20
-147.1917046072993
 10
120.6172715627276
 20
-147.1917046072993
 10
120.5686957163856
 20
-147.2247775239577
 10
120.5370008379213
 20
-147.2526827973882
 10
120.4629312849884
 20
-147.3174505925109
 10
120.450184431693
 20
-147.4194254188743
 10
120.450184431693
 20
-147.4673122461193
 10
120.450184431693
 20
-147.484193213997
 10
120.4522514889842
 20
-147.5155435829128
 10
120.4563856035665
 20
-147.5396592513095
 10
120.4563856035665
 20
-147.5396592513095
 10
120.2617377086498
 20
-147.5396592513095
 10
120.2617377086498
 20
-147.5396592513095
 10
120.2682833900718
 20
-147.5062418251026
 10
120.270350447363
 20
-147.4693793034104
 10
120.270350447363
 20
-147.463867150634
 10
120.270350447363
 20
-147.4063340560304
 10
120.2489908553544
 20
-147.2323567340252
 10
120.0123127955178
 20
-147.2323567340252
 10
119.8345458684789
 20
-147.2323567340252
 10
119.7794243407149
 20
-147.3470784136841
 10
119.7794243407149
 20
-147.4435410872711
 10
119.7794243407149
 20
-147.6747069943313
 10
120.0123127955178
 20
-147.6822862043989
 10
120.083970781611
 20
-147.6860758094327
 10
120.083970781611
 20
-147.6860758094327
 10
120.083970781611
 20
-147.8638427364716
 10
120.083970781611
 20
-147.8638427364716
 10
119.9592583250449
 20
-147.856263526404
 10
119.5827093885071
 20
-147.8321478580073
 10
119.5827093885071
 20
-147.4321722721697
 10
119.5827093885071
 20
-147.236146339059
 10
119.7098334119128
 20
-147.0249619858132
 10
120.0057671140958
 20
-147.0249619858132
 10
120.1921467798478
 20
-147.0249619858132
 10
120.2744845619453
 20
-147.1083332965563
 10
120.3358072615827
 20
-147.1951497027846
 10
120.3633680254647
 20
-147.1414062132147
 10
120.443638750271
 20
-146.9822428017961
 10
120.7209689368337
 20
-146.9822428017961
 10
121.0592773134852
 20
-146.9822428017961
 10
121.2263644445198
 20
-147.1989393078183
 10
121.2263644445198
 20
-147.4414740299799
 97
        0
 97
        0
 75
     2
 76
     1
 98
        0
  0
POLYLINE
  5
8B
330
85
100
AcDbEntity
  8
_U+30EC_U+30A4_U+30E4_U+30FC 1
370
     0
100
AcDb2dPolyline
 66
     1
 10
0.0
 20
0.0
 30
0.0
  0
VERTEX
  5
8C
330
8B
100
AcDbEntity
  8
_U+30EC_U+30A4_U+30E4_U+30FC 1
370
     0
100
AcDbVertex
100
AcDb2dVertex
 10
121.1757215408866
 20
-146.7886284355251
 30
0.0
  0
VERTEX
  5
8D
330
8B
100
AcDbEntity
  8
_U+30EC_U+30A4_U+30E4_U+30FC 1
370
     0
100
AcDbVertex
100
AcDb2dVertex
 10
120.9238850609149
 20
-146.7886284355251
 30
0.0
  0
VERTEX
  5
8E
330
8B
100
AcDbEntity
  8
_U+30EC_U+30A4_U+30E4_U+30FC 1
370
     0
100
AcDbVertex
100
AcDb2dVertex
 10
120.9238850609149
 20
-146.5681423244691
 30
0.0
  0
VERTEX
  5
8F
330
8B
100
AcDbEntity
  8
_U+30EC_U+30A4_U+30E4_U+30FC 1
370
     0
100
AcDbVertex
100
AcDb2dVertex
 10
121.1757215408866
 20
-146.5681423244691
 30
0.0
  0
VERTEX
  5
90
330
8B
100
AcDbEntity
  8
_U+30EC_U+30A4_U+30E4_U+30FC 1
370
     0
100
AcDbVertex
100
AcDb2dVertex
 10
121.1757215408866
 20
-146.7886284355251
 30
0.0
  0
SEQEND
  5
91
330
8B
100
AcDbEntity
  8
_U+30EC_U+30A4_U+30E4_U+30FC 1
370
     0
  0
HATCH
  5
92
330
85
100
AcDbEntity
  8
_U+30EC_U+30A4_U+30E4_U+30FC 1
 62
   179
420
  2234388
100
AcDbHatch
 10
0.0
 20
0.0
 30
0.0
210
0.0
220
0.0
230
1.0
  2
SOLID
 70
     1
 71
     0
 91
        1
 92
        1
 93
        4
 72
     1
 10
121.1757215408866
 20
-146.7886284355251
 11
120.9238850609149
 21
-146.7886284355251
 72
     1
 10
120.9238850609149
 20
-146.7886284355251
 11
120.9238850609149
 21
-146.5681423244691
 72
     1
 10
120.9238850609149
 20
-146.5681423244691
 11
121.1757215408866
 21
-146.5681423244691
 72
     1
 10
121.1757215408866
 20
-146.5681423244691
 11
121.1757215408866
 21
-146.7886284355251
 97
        0
 75
     2
 76
     1
 98
        0
  0
SPLINE
  5
93
330
85
100
AcDbEntity
  8
_U+30EC_U+30A4_U+30E4_U+30FC 1
370
     0
100
AcDbSpline
210
0.0
220
0.0
230
1.0
 70
    11
 71
     3
 72
    44
 73
    40
 74
     0
 42
0.0000000001
 43
0.0000000001
 12
1.0
 22
0.0
 32
0.0
 13
1.0
 23
0.0
 33
0.0
 40
0.0
 40
0.0
 40
0.0
 40
0.0
 40
1.0
 40
1.0
 40
1.0
 40
2.0
 40
2.0
 40
2.0
 40
3.0
 40
3.0
 40
3.0
 40
4.0
 40
4.0
 40
4.0
 40
5.0
 40
5.0
 40
5.0
 40
6.0
 40
6.0
 40
6.0
 40
7.0
 40
7.0
 40
7.0
 40
8.0
 40
8.0
 40
8.0
 40
9.0
 40
9.0
 40
9.0
 40
10.0
 40
10.0
 40
10.0
 40
11.0
 40
11.0
 40
11.0
 40
12.0
 40
12.0
 40
12.0
 40
13.0
 40
13.0
 40
13.0
 40
13.0
 10
120.5938449134279
 20
-145.8415716866299
 30
0.0
 10
120.752663815298
 20
-146.0324299765127
 30
0.0
 10
120.8267333682308
 20
-146.1137342299646
 30
0.0
 10
120.9703938499657
 20
-146.1564534139817
 30
0.0
 10
120.9703938499657
 20
-146.1564534139817
 30
0.0
 10
120.9703938499657
 20
-145.4750135269993
 30
0.0
 10
120.9703938499657
 20
-145.4750135269993
 30
0.0
 10
120.9703938499657
 20
-145.4750135269993
 30
0.0
 10
121.1757215408866
 20
-145.4750135269993
 30
0.0
 10
121.1757215408866
 20
-145.4750135269993
 30
0.0
 10
121.1757215408866
 20
-145.4750135269993
 30
0.0
 10
121.1757215408866
 20
-146.3748724677466
 30
0.0
 10
121.1757215408866
 20
-146.3748724677466
 30
0.0
 10
120.8181206295177
 20
-146.3473117038646
 30
0.0
 10
120.7399169620025
 20
-146.2897786092609
 30
0.0
 10
120.4415716929799
 20
-145.9528482708035
 30
0.0
 10
120.242789683481
 20
-145.7285725547137
 30
0.0
 10
120.1749213024216
 20
-145.6713839696586
 30
0.0
 10
120.0374619925601
 20
-145.6713839696586
 30
0.0
 10
119.9189507078675
 20
-145.6713839696586
 30
0.0
 10
119.788037079428
 20
-145.7344292170386
 30
0.0
 10
119.788037079428
 20
-145.9063394817526
 30
0.0
 10
119.788037079428
 20
-146.1340602933276
 30
0.0
 10
120.0185139673912
 20
-146.1416395033951
 30
0.0
 10
120.1349581947927
 20
-146.1454291084289
 30
0.0
 10
120.1349581947927
 20
-146.1454291084289
 30
0.0
 10
120.1349581947927
 20
-146.3414550415396
 30
0.0
 10
120.1349581947927
 20
-146.3414550415396
 30
0.0
 10
120.0078341713869
 20
-146.3342203410206
 30
0.0
 10
119.8958685681163
 20
-146.3249185832104
 30
0.0
 10
119.7773572834237
 20
-146.2546386353114
 30
0.0
 10
119.6164713242625
 20
-146.1581759617243
 30
0.0
 10
119.5827093885071
 20
-145.995222945272
 30
0.0
 10
119.5827093885071
 20
-145.8935926284572
 30
0.0
 10
119.5827093885071
 20
-145.6510579062956
 30
0.0
 10
119.7666774874194
 20
-145.4695013742229
 30
0.0
 10
120.0395290498512
 20
-145.4695013742229
 30
0.0
 10
120.2682833900718
 20
-145.4695013742229
 30
0.0
 10
120.367502140047
 20
-145.5711316910378
 30
0.0
 10
120.5938449134279
 20
-145.8415716866299
 30
0.0
  0
HATCH
  5
94
330
85
100
AcDbEntity
  8
_U+30EC_U+30A4_U+30E4_U+30FC 1
 62
   179
420
  2234388
100
AcDbHatch
 10
0.0
 20
0.0
 30
0.0
210
0.0
220
0.0
230
1.0
  2
SOLID
 70
     1
 71
     0
 91
        1
 92
        1
 93
        1
 72
     4
 94
        3
 73
     0
 74
     1
 95
       44
 96
       40
 40
0.0
 40
0.0
 40
0.0
 40
0.0
 40
1.0
 40
1.0
 40
1.0
 40
2.0
 40
2.0
 40
2.0
 40
3.0
 40
3.0
 40
3.0
 40
4.0
 40
4.0
 40
4.0
 40
5.0
 40
5.0
 40
5.0
 40
6.0
 40
6.0
 40
6.0
 40
7.0
 40
7.0
 40
7.0
 40
8.0
 40
8.0
 40
8.0
 40
9.0
 40
9.0
 40
9.0
 40
10.0
 40
10.0
 40
10.0
 40
11.0
 40
11.0
 40
11.0
 40
12.0
 40
12.0
 40
12.0
 40
13.0
 40
13.0
 40
13.0
 40
13.0
 10
120.5938449134279
 20
-145.8415716866299
 10
120.752663815298
 20
-146.0324299765127
 10
120.8267333682308
 20
-146.1137342299646
 10
120.9703938499657
 20
-146.1564534139817
 10
120.9703938499657
 20
-146.1564534139817
 10
120.9703938499657
 20
-145.4750135269993
 10
120.9703938499657
 20
-145.4750135269993
 10
120.9703938499657
 20
-145.4750135269993
 10
121.1757215408866
 20
-145.4750135269993
 10
121.1757215408866
 20
-145.4750135269993
 10
121.1757215408866
 20
-145.4750135269993
 10
121.1757215408866
 20
-146.3748724677466
 10
121.1757215408866
 20
-146.3748724677466
 10
120.8181206295177
 20
-146.3473117038646
 10
120.7399169620025
 20
-146.2897786092609
 10
120.4415716929799
 20
-145.9528482708035
 10
120.242789683481
 20
-145.7285725547137
 10
120.1749213024216
 20
-145.6713839696586
 10
120.0374619925601
 20
-145.6713839696586
 10
119.9189507078675
 20
-145.6713839696586
 10
119.788037079428
 20
-145.7344292170386
 10
119.788037079428
 20
-145.9063394817526
 10
119.788037079428
 20
-146.1340602933276
 10
120.0185139673912
 20
-146.1416395033951
 10
120.1349581947927
 20
-146.1454291084289
 10
120.1349581947927
 20
-146.1454291084289
 10
120.1349581947927
 20
-146.3414550415396
 10
120.1349581947927
 20
-146.3414550415396
 10
120.0078341713869
 20
-146.3342203410206
 10
119.8958685681163
 20
-146.3249185832104
 10
119.7773572834237
 20
-146.2546386353114
 10
119.6164713242625
 20
-146.1581759617243
 10
119.5827093885071
 20
-145.995222945272
 10
119.5827093885071
 20
-145.8935926284572
 10
119.5827093885071
 20
-145.6510579062956
 10
119.7666774874194
 20
-145.4695013742229
 10
120.0395290498512
 20
-145.4695013742229
 10
120.2682833900718
 20
-145.4695013742229
 10
120.367502140047
 20
-145.5711316910378
 10
120.5938449134279
 20
-145.8415716866299
 97
        0
 97
        0
 75
     2
 76
     1
 98
        0
  0
ENDBLK
  5
88
330
85
100
AcDbEntity
  8
0
100
AcDbBlockEnd
  0
BLOCK
  5
97
330
95
100
AcDbEntity
  8
0
100
AcDbBlockBegin
  2
block 5
 70
     0
 10
0.0
 20
0.0
 30
0.0
  3
block 5
  1

  0
SPLINE
  5
99
330
95
100
AcDbEntity
  8
_U+30EC_U+30A4_U+30E4_U+30FC 1
370
     0
100
AcDbSpline
210
0.0
220
0.0
230
1.0
 70
    11
 71
     3
 72
    26
 73
    22
 74
     0
 42
0.0000000001
 43
0.0000000001
 12
1.0
 22
0.0
 32
0.0
 13
1.0
 23
0.0
 33
0.0
 40
0.0
 40
0.0
 40
0.0
 40
0.0
 40
1.0
 40
1.0
 40
1.0
 40
2.0
 40
2.0
 40
2.0
 40
3.0
 40
3.0
 40
3.0
 40
4.0
 40
4.0
 40
4.0
 40
5.0
 40
5.0
 40
5.0
 40
6.0
 40
6.0
 40
6.0
 40
7.0
 40
7.0
 40
7.0
 40
7.0
 10
126.1900580196678
 20
-153.3666937550611
 30
0.0
 10
126.1900580196678
 20
-153.3666937550611
 30
0.0
 10
125.0859049166452
 20
-153.3666937550611
 30
0.0
 10
125.0859049166452
 20
-153.3666937550611
 30
0.0
 10
125.0859049166452
 20
-153.3666937550611
 30
0.0
 10
125.0859049166452
 20
-153.6557372662736
 30
0.0
 10
125.0859049166452
 20
-153.6557372662736
 30
0.0
 10
125.0859049166452
 20
-153.6557372662736
 30
0.0
 10
124.9377658107795
 20
-153.6557372662736
 30
0.0
 10
124.9377658107795
 20
-153.6557372662736
 30
0.0
 10
124.9229519001929
 20
-153.3649712073185
 30
0.0
 10
124.7599988837406
 20
-153.3243190805925
 30
0.0
 10
124.6456217136303
 20
-153.2984808644532
 30
0.0
 10
124.6456217136303
 20
-153.2984808644532
 30
0.0
 10
124.6456217136303
 20
-153.1706678219504
 30
0.0
 10
124.6456217136303
 20
-153.1706678219504
 30
0.0
 10
124.6456217136303
 20
-153.1706678219504
 30
0.0
 10
126.1900580196678
 20
-153.1706678219504
 30
0.0
 10
126.1900580196678
 20
-153.1706678219504
 30
0.0
 10
126.1900580196678
 20
-153.1706678219504
 30
0.0
 10
126.1900580196678
 20
-153.3666937550611
 30
0.0
 10
126.1900580196678
 20
-153.3666937550611
 30
0.0
  0
HATCH
  5
9A
330
95
100
AcDbEntity
  8
_U+30EC_U+30A4_U+30E4_U+30FC 1
 62
   179
420
  2234388
100
AcDbHatch
 10
0.0
 20
0.0
 30
0.0
210
0.0
220
0.0
230
1.0
  2
SOLID
 70
     1
 71
     0
 91
        1
 92
        1
 93
        1
 72
     4
 94
        3
 73
     0
 74
     1
 95
       26
 96
       22
 40
0.0
 40
0.0
 40
0.0
 40
0.0
 40
1.0
 40
1.0
 40
1.0
 40
2.0
 40
2.0
 40
2.0
 40
3.0
 40
3.0
 40
3.0
 40
4.0
 40
4.0
 40
4.0
 40
5.0
 40
5.0
 40
5.0
 40
6.0
 40
6.0
 40
6.0
 40
7.0
 40
7.0
 40
7.0
 40
7.0
 10
126.1900580196678
 20
-153.3666937550611
 10
126.1900580196678
 20
-153.3666937550611
 10
125.0859049166452
 20
-153.3666937550611
 10
125.0859049166452
 20
-153.3666937550611
 10
125.0859049166452
 20
-153.3666937550611
 10
125.0859049166452
 20
-153.6557372662736
 10
125.0859049166452
 20
-153.6557372662736
 10
125.0859049166452
 20
-153.6557372662736
 10
124.9377658107795
 20
-153.6557372662736
 10
124.9377658107795
 20
-153.6557372662736
 10
124.9229519001929
 20
-153.3649712073185
 10
124.7599988837406
 20
-153.3243190805925
 10
124.6456217136303
 20
-153.2984808644532
 10
124.6456217136303
 20
-153.2984808644532
 10
124.6456217136303
 20
-153.1706678219504
 10
124.6456217136303
 20
-153.1706678219504
 10
124.6456217136303
 20
-153.1706678219504
 10
126.1900580196678
 20
-153.1706678219504
 10
126.1900580196678
 20
-153.1706678219504
 10
126.1900580196678
 20
-153.1706678219504
 10
126.1900580196678
 20
-153.3666937550611
 10
126.1900580196678
 20
-153.3666937550611
 97
        0
 97
        0
 75
     2
 76
     1
 98
        0
  0
SPLINE
  5
9B
330
95
100
AcDbEntity
  8
_U+30EC_U+30A4_U+30E4_U+30FC 1
370
     0
100
AcDbSpline
210
0.0
220
0.0
230
1.0
 70
    11
 71
     3
 72
    62
 73
    58
 74
     0
 42
0.0000000001
 43
0.0000000001
 12
1.0
 22
0.0
 32
0.0
 13
1.0
 23
0.0
 33
0.0
 40
0.0
 40
0.0
 40
0.0
 40
0.0
 40
1.0
 40
1.0
 40
1.0
 40
2.0
 40
2.0
 40
2.0
 40
3.0
 40
3.0
 40
3.0
 40
4.0
 40
4.0
 40
4.0
 40
5.0
 40
5.0
 40
5.0
 40
6.0
 40
6.0
 40
6.0
 40
7.0
 40
7.0
 40
7.0
 40
8.0
 40
8.0
 40
8.0
 40
9.0
 40
9.0
 40
9.0
 40
10.0
 40
10.0
 40
10.0
 40
11.0
 40
11.0
 40
11.0
 40
12.0
 40
12.0
 40
12.0
 40
13.0
 40
13.0
 40
13.0
 40
14.0
 40
14.0
 40
14.0
 40
15.0
 40
15.0
 40
15.0
 40
16.0
 40
16.0
 40
16.0
 40
17.0
 40
17.0
 40
17.0
 40
18.0
 40
18.0
 40
18.0
 40
19.0
 40
19.0
 40
19.0
 40
19.0
 10
126.2407009233009
 20
-152.3007812119248
 30
0.0
 10
126.2407009233009
 20
-152.3841525226678
 30
0.0
 10
126.2196858408409
 20
-152.5750108125507
 30
0.0
 10
126.0336506846374
 20
-152.6842203394331
 30
0.0
 10
125.9213405718183
 20
-152.7489881345558
 30
0.0
 10
125.8221218218431
 20
-152.7527777395896
 30
0.0
 10
125.7373724729059
 20
-152.7562228350749
 30
0.0
 10
125.7373724729059
 20
-152.7562228350749
 30
0.0
 10
125.7373724729059
 20
-152.5639865069979
 30
0.0
 10
125.7373724729059
 20
-152.5639865069979
 30
0.0
 10
125.8114420258388
 20
-152.5619194497067
 30
0.0
 10
126.0460530283843
 20
-152.5526176918966
 30
0.0
 10
126.0460530283843
 20
-152.3045708169586
 30
0.0
 10
126.0460530283843
 20
-152.1843369845234
 30
0.0
 10
125.9764620995823
 20
-152.0510117892442
 30
0.0
 10
125.7480522689102
 20
-152.0510117892442
 30
0.0
 10
125.6316080415088
 20
-152.0510117892442
 30
0.0
 10
125.5830321951668
 20
-152.0840847059026
 30
0.0
 10
125.5513373167024
 20
-152.1119899793331
 30
0.0
 10
125.4772677637696
 20
-152.1767577744558
 30
0.0
 10
125.4645209104741
 20
-152.2787326008192
 30
0.0
 10
125.4645209104741
 20
-152.3269639376127
 30
0.0
 10
125.4645209104741
 20
-152.3435003959419
 30
0.0
 10
125.4665879677653
 20
-152.3748507648577
 30
0.0
 10
125.4707220823476
 20
-152.3989664332544
 30
0.0
 10
125.4707220823476
 20
-152.3989664332544
 30
0.0
 10
125.276074187431
 20
-152.3989664332544
 30
0.0
 10
125.276074187431
 20
-152.3989664332544
 30
0.0
 10
125.282619868853
 20
-152.3655490070475
 30
0.0
 10
125.2846869261441
 20
-152.3286864853553
 30
0.0
 10
125.2846869261441
 20
-152.3231743325789
 30
0.0
 10
125.2846869261441
 20
-152.2656412379753
 30
0.0
 10
125.2633273341356
 20
-152.0916639159701
 30
0.0
 10
125.0266492742989
 20
-152.0916639159701
 30
0.0
 10
124.84888234726
 20
-152.0916639159701
 30
0.0
 10
124.793760819496
 20
-152.206385595629
 30
0.0
 10
124.793760819496
 20
-152.302848269216
 30
0.0
 10
124.793760819496
 20
-152.5343586858247
 30
0.0
 10
125.0266492742989
 20
-152.5415933863438
 30
0.0
 10
125.0983072603921
 20
-152.5453829913776
 30
0.0
 10
125.0983072603921
 20
-152.5453829913776
 30
0.0
 10
125.0983072603921
 20
-152.7231499184165
 30
0.0
 10
125.0983072603921
 20
-152.7231499184165
 30
0.0
 10
124.973594803826
 20
-152.7155707083489
 30
0.0
 10
124.5970458672882
 20
-152.6914550399521
 30
0.0
 10
124.5970458672882
 20
-152.2914794541146
 30
0.0
 10
124.5970458672882
 20
-152.0954535210039
 30
0.0
 10
124.724169890694
 20
-151.8842691677581
 30
0.0
 10
125.0201035928769
 20
-151.8842691677581
 30
0.0
 10
125.2064832586289
 20
-151.8842691677581
 30
0.0
 10
125.2888210407264
 20
-151.9676404785012
 30
0.0
 10
125.3501437403639
 20
-152.0544568847295
 30
0.0
 10
125.3777045042459
 20
-152.0010579047081
 30
0.0
 10
125.4579752290522
 20
-151.841549983741
 30
0.0
 10
125.7353054156148
 20
-151.841549983741
 30
0.0
 10
126.0736137922663
 20
-151.841549983741
 30
0.0
 10
126.2407009233009
 20
-152.0582464897632
 30
0.0
 10
126.2407009233009
 20
-152.3007812119248
 30
0.0
  0
HATCH
  5
9C
330
95
100
AcDbEntity
  8
_U+30EC_U+30A4_U+30E4_U+30FC 1
 62
   179
420
  2234388
100
AcDbHatch
 10
0.0
 20
0.0
 30
0.0
210
0.0
220
0.0
230
1.0
  2
SOLID
 70
     1
 71
     0
 91
        1
 92
        1
 93
        1
 72
     4
 94
        3
 73
     0
 74
     1
 95
       62
 96
       58
 40
0.0
 40
0.0
 40
0.0
 40
0.0
 40
1.0
 40
1.0
 40
1.0
 40
2.0
 40
2.0
 40
2.0
 40
3.0
 40
3.0
 40
3.0
 40
4.0
 40
4.0
 40
4.0
 40
5.0
 40
5.0
 40
5.0
 40
6.0
 40
6.0
 40
6.0
 40
7.0
 40
7.0
 40
7.0
 40
8.0
 40
8.0
 40
8.0
 40
9.0
 40
9.0
 40
9.0
 40
10.0
 40
10.0
 40
10.0
 40
11.0
 40
11.0
 40
11.0
 40
12.0
 40
12.0
 40
12.0
 40
13.0
 40
13.0
 40
13.0
 40
14.0
 40
14.0
 40
14.0
 40
15.0
 40
15.0
 40
15.0
 40
16.0
 40
16.0
 40
16.0
 40
17.0
 40
17.0
 40
17.0
 40
18.0
 40
18.0
 40
18.0
 40
19.0
 40
19.0
 40
19.0
 40
19.0
 10
126.2407009233009
 20
-152.3007812119248
 10
126.2407009233009
 20
-152.3841525226678
 10
126.2196858408409
 20
-152.5750108125507
 10
126.0336506846374
 20
-152.6842203394331
 10
125.9213405718183
 20
-152.7489881345558
 10
125.8221218218431
 20
-152.7527777395896
 10
125.7373724729059
 20
-152.7562228350749
 10
125.7373724729059
 20
-152.7562228350749
 10
125.7373724729059
 20
-152.5639865069979
 10
125.7373724729059
 20
-152.5639865069979
 10
125.8114420258388
 20
-152.5619194497067
 10
126.0460530283843
 20
-152.5526176918966
 10
126.0460530283843
 20
-152.3045708169586
 10
126.0460530283843
 20
-152.1843369845234
 10
125.9764620995823
 20
-152.0510117892442
 10
125.7480522689102
 20
-152.0510117892442
 10
125.6316080415088
 20
-152.0510117892442
 10
125.5830321951668
 20
-152.0840847059026
 10
125.5513373167024
 20
-152.1119899793331
 10
125.4772677637696
 20
-152.1767577744558
 10
125.4645209104741
 20
-152.2787326008192
 10
125.4645209104741
 20
-152.3269639376127
 10
125.4645209104741
 20
-152.3435003959419
 10
125.4665879677653
 20
-152.3748507648577
 10
125.4707220823476
 20
-152.3989664332544
 10
125.4707220823476
 20
-152.3989664332544
 10
125.276074187431
 20
-152.3989664332544
 10
125.276074187431
 20
-152.3989664332544
 10
125.282619868853
 20
-152.3655490070475
 10
125.2846869261441
 20
-152.3286864853553
 10
125.2846869261441
 20
-152.3231743325789
 10
125.2846869261441
 20
-152.2656412379753
 10
125.2633273341356
 20
-152.0916639159701
 10
125.0266492742989
 20
-152.0916639159701
 10
124.84888234726
 20
-152.0916639159701
 10
124.793760819496
 20
-152.206385595629
 10
124.793760819496
 20
-152.302848269216
 10
124.793760819496
 20
-152.5343586858247
 10
125.0266492742989
 20
-152.5415933863438
 10
125.0983072603921
 20
-152.5453829913776
 10
125.0983072603921
 20
-152.5453829913776
 10
125.0983072603921
 20
-152.7231499184165
 10
125.0983072603921
 20
-152.7231499184165
 10
124.973594803826
 20
-152.7155707083489
 10
124.5970458672882
 20
-152.6914550399521
 10
124.5970458672882
 20
-152.2914794541146
 10
124.5970458672882
 20
-152.0954535210039
 10
124.724169890694
 20
-151.8842691677581
 10
125.0201035928769
 20
-151.8842691677581
 10
125.2064832586289
 20
-151.8842691677581
 10
125.2888210407264
 20
-151.9676404785012
 10
125.3501437403639
 20
-152.0544568847295
 10
125.3777045042459
 20
-152.0010579047081
 10
125.4579752290522
 20
-151.841549983741
 10
125.7353054156148
 20
-151.841549983741
 10
126.0736137922663
 20
-151.841549983741
 10
126.2407009233009
 20
-152.0582464897632
 10
126.2407009233009
 20
-152.3007812119248
 97
        0
 97
        0
 75
     2
 76
     1
 98
        0
  0
POLYLINE
  5
9D
330
95
100
AcDbEntity
  8
_U+30EC_U+30A4_U+30E4_U+30FC 1
370
     0
100
AcDb2dPolyline
 66
     1
 10
0.0
 20
0.0
 30
0.0
  0
VERTEX
  5
9E
330
9D
100
AcDbEntity
  8
_U+30EC_U+30A4_U+30E4_U+30FC 1
370
     0
100
AcDbVertex
100
AcDb2dVertex
 10
126.1900580196678
 20
-151.64793561747
 30
0.0
  0
VERTEX
  5
9F
330
9D
100
AcDbEntity
  8
_U+30EC_U+30A4_U+30E4_U+30FC 1
370
     0
100
AcDbVertex
100
AcDb2dVertex
 10
125.938221539696
 20
-151.64793561747
 30
0.0
  0
VERTEX
  5
A0
330
9D
100
AcDbEntity
  8
_U+30EC_U+30A4_U+30E4_U+30FC 1
370
     0
100
AcDbVertex
100
AcDb2dVertex
 10
125.938221539696
 20
-151.427449506414
 30
0.0
  0
VERTEX
  5
A1
330
9D
100
AcDbEntity
  8
_U+30EC_U+30A4_U+30E4_U+30FC 1
370
     0
100
AcDbVertex
100
AcDb2dVertex
 10
126.1900580196678
 20
-151.427449506414
 30
0.0
  0
VERTEX
  5
A2
330
9D
100
AcDbEntity
  8
_U+30EC_U+30A4_U+30E4_U+30FC 1
370
     0
100
AcDbVertex
100
AcDb2dVertex
 10
126.1900580196678
 20
-151.64793561747
 30
0.0
  0
SEQEND
  5
A3
330
9D
100
AcDbEntity
  8
_U+30EC_U+30A4_U+30E4_U+30FC 1
370
     0
  0
HATCH
  5
A4
330
95
100
AcDbEntity
  8
_U+30EC_U+30A4_U+30E4_U+30FC 1
 62
   179
420
  2234388
100
AcDbHatch
 10
0.0
 20
0.0
 30
0.0
210
0.0
220
0.0
230
1.0
  2
SOLID
 70
     1
 71
     0
 91
        1
 92
        1
 93
        4
 72
     1
 10
126.1900580196678
 20
-151.64793561747
 11
125.938221539696
 21
-151.64793561747
 72
     1
 10
125.938221539696
 20
-151.64793561747
 11
125.938221539696
 21
-151.427449506414
 72
     1
 10
125.938221539696
 20
-151.427449506414
 11
126.1900580196678
 21
-151.427449506414
 72
     1
 10
126.1900580196678
 20
-151.427449506414
 11
126.1900580196678
 21
-151.64793561747
 97
        0
 75
     2
 76
     1
 98
        0
  0
SPLINE
  5
A5
330
95
100
AcDbEntity
  8
_U+30EC_U+30A4_U+30E4_U+30FC 1
370
     0
100
AcDbSpline
210
0.0
220
0.0
230
1.0
 70
    11
 71
     3
 72
    44
 73
    40
 74
     0
 42
0.0000000001
 43
0.0000000001
 12
1.0
 22
0.0
 32
0.0
 13
1.0
 23
0.0
 33
0.0
 40
0.0
 40
0.0
 40
0.0
 40
0.0
 40
1.0
 40
1.0
 40
1.0
 40
2.0
 40
2.0
 40
2.0
 40
3.0
 40
3.0
 40
3.0
 40
4.0
 40
4.0
 40
4.0
 40
5.0
 40
5.0
 40
5.0
 40
6.0
 40
6.0
 40
6.0
 40
7.0
 40
7.0
 40
7.0
 40
8.0
 40
8.0
 40
8.0
 40
9.0
 40
9.0
 40
9.0
 40
10.0
 40
10.0
 40
10.0
 40
11.0
 40
11.0
 40
11.0
 40
12.0
 40
12.0
 40
12.0
 40
13.0
 40
13.0
 40
13.0
 40
13.0
 10
125.6081813922091
 20
-150.7008788685748
 30
0.0
 10
125.7670002940791
 20
-150.8917371584576
 30
0.0
 10
125.841069847012
 20
-150.9730414119095
 30
0.0
 10
125.9847303287469
 20
-151.0157605959266
 30
0.0
 10
125.9847303287469
 20
-151.0157605959266
 30
0.0
 10
125.9847303287469
 20
-150.3343207089442
 30
0.0
 10
125.9847303287469
 20
-150.3343207089442
 30
0.0
 10
125.9847303287469
 20
-150.3343207089442
 30
0.0
 10
126.1900580196678
 20
-150.3343207089442
 30
0.0
 10
126.1900580196678
 20
-150.3343207089442
 30
0.0
 10
126.1900580196678
 20
-150.3343207089442
 30
0.0
 10
126.1900580196678
 20
-151.2341796496915
 30
0.0
 10
126.1900580196678
 20
-151.2341796496915
 30
0.0
 10
125.8324571082988
 20
-151.2066188858095
 30
0.0
 10
125.7542534407837
 20
-151.1490857912058
 30
0.0
 10
125.455908171761
 20
-150.8121554527484
 30
0.0
 10
125.2571261622621
 20
-150.5878797366586
 30
0.0
 10
125.1892577812027
 20
-150.5306911516034
 30
0.0
 10
125.0517984713412
 20
-150.5306911516034
 30
0.0
 10
124.9332871866486
 20
-150.5306911516034
 30
0.0
 10
124.8023735582091
 20
-150.593391889435
 30
0.0
 10
124.8023735582091
 20
-150.7656466636975
 30
0.0
 10
124.8023735582091
 20
-150.993711984821
 30
0.0
 10
125.0328504461723
 20
-151.00094668534
 30
0.0
 10
125.1492946735738
 20
-151.0047362903738
 30
0.0
 10
125.1492946735738
 20
-151.0047362903738
 30
0.0
 10
125.1492946735738
 20
-151.2011067330331
 30
0.0
 10
125.1492946735738
 20
-151.2011067330331
 30
0.0
 10
125.0221706501681
 20
-151.1935275229655
 30
0.0
 10
124.9102050468975
 20
-151.1842257651553
 30
0.0
 10
124.7916937622049
 20
-151.1139458172563
 30
0.0
 10
124.6308078030437
 20
-151.0174831436692
 30
0.0
 10
124.5970458672882
 20
-150.8545301272169
 30
0.0
 10
124.5970458672882
 20
-150.7528998104021
 30
0.0
 10
124.5970458672882
 20
-150.5103650882405
 30
0.0
 10
124.7810139662006
 20
-150.3288085561678
 30
0.0
 10
125.0538655286324
 20
-150.3288085561678
 30
0.0
 10
125.282619868853
 20
-150.3288085561678
 30
0.0
 10
125.3818386188282
 20
-150.4307833825312
 30
0.0
 10
125.6081813922091
 20
-150.7008788685748
 30
0.0
  0
HATCH
  5
A6
330
95
100
AcDbEntity
  8
_U+30EC_U+30A4_U+30E4_U+30FC 1
 62
   179
420
  2234388
100
AcDbHatch
 10
0.0
 20
0.0
 30
0.0
210
0.0
220
0.0
230
1.0
  2
SOLID
 70
     1
 71
     0
 91
        1
 92
        1
 93
        1
 72
     4
 94
        3
 73
     0
 74
     1
 95
       44
 96
       40
 40
0.0
 40
0.0
 40
0.0
 40
0.0
 40
1.0
 40
1.0
 40
1.0
 40
2.0
 40
2.0
 40
2.0
 40
3.0
 40
3.0
 40
3.0
 40
4.0
 40
4.0
 40
4.0
 40
5.0
 40
5.0
 40
5.0
 40
6.0
 40
6.0
 40
6.0
 40
7.0
 40
7.0
 40
7.0
 40
8.0
 40
8.0
 40
8.0
 40
9.0
 40
9.0
 40
9.0
 40
10.0
 40
10.0
 40
10.0
 40
11.0
 40
11.0
 40
11.0
 40
12.0
 40
12.0
 40
12.0
 40
13.0
 40
13.0
 40
13.0
 40
13.0
 10
125.6081813922091
 20
-150.7008788685748
 10
125.7670002940791
 20
-150.8917371584576
 10
125.841069847012
 20
-150.9730414119095
 10
125.9847303287469
 20
-151.0157605959266
 10
125.9847303287469
 20
-151.0157605959266
 10
125.9847303287469
 20
-150.3343207089442
 10
125.9847303287469
 20
-150.3343207089442
 10
125.9847303287469
 20
-150.3343207089442
 10
126.1900580196678
 20
-150.3343207089442
 10
126.1900580196678
 20
-150.3343207089442
 10
126.1900580196678
 20
-150.3343207089442
 10
126.1900580196678
 20
-151.2341796496915
 10
126.1900580196678
 20
-151.2341796496915
 10
125.8324571082988
 20
-151.2066188858095
 10
125.7542534407837
 20
-151.1490857912058
 10
125.455908171761
 20
-150.8121554527484
 10
125.2571261622621
 20
-150.5878797366586
 10
125.1892577812027
 20
-150.5306911516034
 10
125.0517984713412
 20
-150.5306911516034
 10
124.9332871866486
 20
-150.5306911516034
 10
124.8023735582091
 20
-150.593391889435
 10
124.8023735582091
 20
-150.7656466636975
 10
124.8023735582091
 20
-150.993711984821
 10
125.0328504461723
 20
-151.00094668534
 10
125.1492946735738
 20
-151.0047362903738
 10
125.1492946735738
 20
-151.0047362903738
 10
125.1492946735738
 20
-151.2011067330331
 10
125.1492946735738
 20
-151.2011067330331
 10
125.0221706501681
 20
-151.1935275229655
 10
124.9102050468975
 20
-151.1842257651553
 10
124.7916937622049
 20
-151.1139458172563
 10
124.6308078030437
 20
-151.0174831436692
 10
124.5970458672882
 20
-150.8545301272169
 10
124.5970458672882
 20
-150.7528998104021
 10
124.5970458672882
 20
-150.5103650882405
 10
124.7810139662006
 20
-150.3288085561678
 10
125.0538655286324
 20
-150.3288085561678
 10
125.282619868853
 20
-150.3288085561678
 10
125.3818386188282
 20
-150.4307833825312
 10
125.6081813922091
 20
-150.7008788685748
 97
        0
 97
        0
 75
     2
 76
     1
 98
        0
  0
ENDBLK
  5
98
330
95
100
AcDbEntity
  8
0
100
AcDbBlockEnd
  0
BLOCK
  5
A9
330
A7
100
AcDbEntity
  8
0
100
AcDbBlockBegin
  2
block 6
 70
     0
 10
0.0
 20
0.0
 30
0.0
  3
block 6
  1

  0
SPLINE
  5
AB
330
A7
100
AcDbEntity
  8
_U+30EC_U+30A4_U+30E4_U+30FC 1
370
     0
100
AcDbSpline
210
0.0
220
0.0
230
1.0
 70
    11
 71
     3
 72
    26
 73
    22
 74
     0
 42
0.0000000001
 43
0.0000000001
 12
1.0
 22
0.0
 32
0.0
 13
1.0
 23
0.0
 33
0.0
 40
0.0
 40
0.0
 40
0.0
 40
0.0
 40
1.0
 40
1.0
 40
1.0
 40
2.0
 40
2.0
 40
2.0
 40
3.0
 40
3.0
 40
3.0
 40
4.0
 40
4.0
 40
4.0
 40
5.0
 40
5.0
 40
5.0
 40
6.0
 40
6.0
 40
6.0
 40
7.0
 40
7.0
 40
7.0
 40
7.0
 10
121.4744113194578
 20
-153.9964572097648
 30
0.0
 10
121.4744113194578
 20
-153.9964572097648
 30
0.0
 10
120.3702582164352
 20
-153.9964572097648
 30
0.0
 10
120.3702582164352
 20
-153.9964572097648
 30
0.0
 10
120.3702582164352
 20
-153.9964572097648
 30
0.0
 10
120.3702582164352
 20
-154.2855007209772
 30
0.0
 10
120.3702582164352
 20
-154.2855007209772
 30
0.0
 10
120.3702582164352
 20
-154.2855007209772
 30
0.0
 10
120.2221191105695
 20
-154.2855007209772
 30
0.0
 10
120.2221191105695
 20
-154.2855007209772
 30
0.0
 10
120.2073051999829
 20
-153.9947346620222
 30
0.0
 10
120.0443521835306
 20
-153.9540825352962
 30
0.0
 10
119.9299750134203
 20
-153.9282443191568
 30
0.0
 10
119.9299750134203
 20
-153.9282443191568
 30
0.0
 10
119.9299750134203
 20
-153.8004312766541
 30
0.0
 10
119.9299750134203
 20
-153.8004312766541
 30
0.0
 10
119.9299750134203
 20
-153.8004312766541
 30
0.0
 10
121.4744113194578
 20
-153.8004312766541
 30
0.0
 10
121.4744113194578
 20
-153.8004312766541
 30
0.0
 10
121.4744113194578
 20
-153.8004312766541
 30
0.0
 10
121.4744113194578
 20
-153.9964572097648
 30
0.0
 10
121.4744113194578
 20
-153.9964572097648
 30
0.0
  0
HATCH
  5
AC
330
A7
100
AcDbEntity
  8
_U+30EC_U+30A4_U+30E4_U+30FC 1
 62
   179
420
  2234388
100
AcDbHatch
 10
0.0
 20
0.0
 30
0.0
210
0.0
220
0.0
230
1.0
  2
SOLID
 70
     1
 71
     0
 91
        1
 92
        1
 93
        1
 72
     4
 94
        3
 73
     0
 74
     1
 95
       26
 96
       22
 40
0.0
 40
0.0
 40
0.0
 40
0.0
 40
1.0
 40
1.0
 40
1.0
 40
2.0
 40
2.0
 40
2.0
 40
3.0
 40
3.0
 40
3.0
 40
4.0
 40
4.0
 40
4.0
 40
5.0
 40
5.0
 40
5.0
 40
6.0
 40
6.0
 40
6.0
 40
7.0
 40
7.0
 40
7.0
 40
7.0
 10
121.4744113194578
 20
-153.9964572097648
 10
121.4744113194578
 20
-153.9964572097648
 10
120.3702582164352
 20
-153.9964572097648
 10
120.3702582164352
 20
-153.9964572097648
 10
120.3702582164352
 20
-153.9964572097648
 10
120.3702582164352
 20
-154.2855007209772
 10
120.3702582164352
 20
-154.2855007209772
 10
120.3702582164352
 20
-154.2855007209772
 10
120.2221191105695
 20
-154.2855007209772
 10
120.2221191105695
 20
-154.2855007209772
 10
120.2073051999829
 20
-153.9947346620222
 10
120.0443521835306
 20
-153.9540825352962
 10
119.9299750134203
 20
-153.9282443191568
 10
119.9299750134203
 20
-153.9282443191568
 10
119.9299750134203
 20
-153.8004312766541
 10
119.9299750134203
 20
-153.8004312766541
 10
119.9299750134203
 20
-153.8004312766541
 10
121.4744113194578
 20
-153.8004312766541
 10
121.4744113194578
 20
-153.8004312766541
 10
121.4744113194578
 20
-153.8004312766541
 10
121.4744113194578
 20
-153.9964572097648
 10
121.4744113194578
 20
-153.9964572097648
 97
        0
 97
        0
 75
     2
 76
     1
 98
        0
  0
SPLINE
  5
AD
330
A7
100
AcDbEntity
  8
_U+30EC_U+30A4_U+30E4_U+30FC 1
370
     0
100
AcDbSpline
210
0.0
220
0.0
230
1.0
 70
    11
 71
     3
 72
    29
 73
    25
 74
     0
 42
0.0000000001
 43
0.0000000001
 12
1.0
 22
0.0
 32
0.0
 13
1.0
 23
0.0
 33
0.0
 40
0.0
 40
0.0
 40
0.0
 40
0.0
 40
1.0
 40
1.0
 40
1.0
 40
2.0
 40
2.0
 40
2.0
 40
3.0
 40
3.0
 40
3.0
 40
4.0
 40
4.0
 40
4.0
 40
5.0
 40
5.0
 40
5.0
 40
6.0
 40
6.0
 40
6.0
 40
7.0
 40
7.0
 40
7.0
 40
8.0
 40
8.0
 40
8.0
 40
8.0
 10
121.2966443924189
 20
-152.5750108125507
 30
0.0
 10
121.5061061979221
 20
-152.6694064288465
 30
0.0
 10
121.525054223091
 20
-152.8213351397461
 30
0.0
 10
121.525054223091
 20
-152.9233099661095
 30
0.0
 10
121.525054223091
 20
-153.0638698619076
 30
0.0
 10
121.4785454340401
 20
-153.1878932993766
 30
0.0
 10
121.2966443924189
 20
-153.2712646101197
 30
0.0
 10
121.1019964975023
 20
-153.3622151309303
 30
0.0
 10
120.8653184376656
 20
-153.3787515892595
 30
0.0
 10
120.7023654212133
 20
-153.3787515892595
 30
0.0
 10
120.5583604299299
 20
-153.3787515892595
 30
0.0
 10
120.3065239499581
 20
-153.3639376786729
 30
0.0
 10
120.1077419404592
 20
-153.2712646101197
 30
0.0
 10
119.904825816378
 20
-153.1768689938239
 30
0.0
 10
119.8813991670783
 20
-153.0363090980256
 30
0.0
 10
119.8813991670783
 20
-152.9233099661095
 30
0.0
 10
119.8813991670783
 20
-152.7844726180539
 30
0.0
 10
119.925840898838
 20
-152.6583821232937
 30
0.0
 10
120.1077419404592
 20
-152.5750108125507
 30
0.0
 10
120.3003227780846
 20
-152.4881944063224
 30
0.0
 10
120.5287326087567
 20
-152.4675238334109
 30
0.0
 10
120.7023654212133
 20
-152.4675238334109
 30
0.0
 10
120.8735866668302
 20
-152.4675238334109
 30
0.0
 10
121.1040635547934
 20
-152.4861273490312
 30
0.0
 10
121.2966443924189
 20
-152.5750108125507
 30
0.0
  0
SPLINE
  5
AE
330
A7
100
AcDbEntity
  8
_U+30EC_U+30A4_U+30E4_U+30FC 1
370
     0
100
AcDbSpline
210
0.0
220
0.0
230
1.0
 70
    11
 71
     3
 72
    17
 73
    13
 74
     0
 42
0.0000000001
 43
0.0000000001
 12
1.0
 22
0.0
 32
0.0
 13
1.0
 23
0.0
 33
0.0
 40
0.0
 40
0.0
 40
0.0
 40
0.0
 40
1.0
 40
1.0
 40
1.0
 40
2.0
 40
2.0
 40
2.0
 40
3.0
 40
3.0
 40
3.0
 40
4.0
 40
4.0
 40
4.0
 40
4.0
 10
120.0739800047037
 20
-152.9233099661095
 30
0.0
 10
120.0739800047037
 20
-153.1417290198743
 30
0.0
 10
120.3575113631398
 20
-153.1823811466002
 30
0.0
 10
120.7023654212133
 20
-153.1823811466002
 30
0.0
 10
121.021725772696
 20
-153.1823811466002
 30
0.0
 10
121.3304063281743
 20
-153.1510307776845
 30
0.0
 10
121.3304063281743
 20
-152.9233099661095
 30
0.0
 10
121.3304063281743
 20
-152.7066134600873
 30
0.0
 10
121.049286536578
 20
-152.6638942760702
 30
0.0
 10
120.7023654212133
 20
-152.6638942760702
 30
0.0
 10
120.3826605601821
 20
-152.6638942760702
 30
0.0
 10
120.0739800047037
 20
-152.6973117022771
 30
0.0
 10
120.0739800047037
 20
-152.9233099661095
 30
0.0
  0
HATCH
  5
AF
330
A7
100
AcDbEntity
  8
_U+30EC_U+30A4_U+30E4_U+30FC 1
 62
   179
420
  2234388
100
AcDbHatch
 10
0.0
 20
0.0
 30
0.0
210
0.0
220
0.0
230
1.0
  2
SOLID
 70
     1
 71
     0
 91
        2
 92
        1
 93
        1
 72
     4
 94
        3
 73
     0
 74
     1
 95
       29
 96
       25
 40
0.0
 40
0.0
 40
0.0
 40
0.0
 40
1.0
 40
1.0
 40
1.0
 40
2.0
 40
2.0
 40
2.0
 40
3.0
 40
3.0
 40
3.0
 40
4.0
 40
4.0
 40
4.0
 40
5.0
 40
5.0
 40
5.0
 40
6.0
 40
6.0
 40
6.0
 40
7.0
 40
7.0
 40
7.0
 40
8.0
 40
8.0
 40
8.0
 40
8.0
 10
121.2966443924189
 20
-152.5750108125507
 10
121.5061061979221
 20
-152.6694064288465
 10
121.525054223091
 20
-152.8213351397461
 10
121.525054223091
 20
-152.9233099661095
 10
121.525054223091
 20
-153.0638698619076
 10
121.4785454340401
 20
-153.1878932993766
 10
121.2966443924189
 20
-153.2712646101197
 10
121.1019964975023
 20
-153.3622151309303
 10
120.8653184376656
 20
-153.3787515892595
 10
120.7023654212133
 20
-153.3787515892595
 10
120.5583604299299
 20
-153.3787515892595
 10
120.3065239499581
 20
-153.3639376786729
 10
120.1077419404592
 20
-153.2712646101197
 10
119.904825816378
 20
-153.1768689938239
 10
119.8813991670783
 20
-153.0363090980256
 10
119.8813991670783
 20
-152.9233099661095
 10
119.8813991670783
 20
-152.7844726180539
 10
119.925840898838
 20
-152.6583821232937
 10
120.1077419404592
 20
-152.5750108125507
 10
120.3003227780846
 20
-152.4881944063224
 10
120.5287326087567
 20
-152.4675238334109
 10
120.7023654212133
 20
-152.4675238334109
 10
120.8735866668302
 20
-152.4675238334109
 10
121.1040635547934
 20
-152.4861273490312
 10
121.2966443924189
 20
-152.5750108125507
 97
        0
 97
        0
 92
        1
 93
        1
 72
     4
 94
        3
 73
     0
 74
     1
 95
       17
 96
       13
 40
0.0
 40
0.0
 40
0.0
 40
0.0
 40
1.0
 40
1.0
 40
1.0
 40
2.0
 40
2.0
 40
2.0
 40
3.0
 40
3.0
 40
3.0
 40
4.0
 40
4.0
 40
4.0
 40
4.0
 10
120.0739800047037
 20
-152.9233099661095
 10
120.0739800047037
 20
-153.1417290198743
 10
120.3575113631398
 20
-153.1823811466002
 10
120.7023654212133
 20
-153.1823811466002
 10
121.021725772696
 20
-153.1823811466002
 10
121.3304063281743
 20
-153.1510307776845
 10
121.3304063281743
 20
-152.9233099661095
 10
121.3304063281743
 20
-152.7066134600873
 10
121.049286536578
 20
-152.6638942760702
 10
120.7023654212133
 20
-152.6638942760702
 10
120.3826605601821
 20
-152.6638942760702
 10
120.0739800047037
 20
-152.6973117022771
 10
120.0739800047037
 20
-152.9233099661095
 97
        0
 97
        0
 75
     2
 76
     1
 98
        0
  0
ENDBLK
  5
AA
330
A7
100
AcDbEntity
  8
0
100
AcDbBlockEnd
  0
BLOCK
  5
B2
330
B0
100
AcDbEntity
  8
0
100
AcDbBlockBegin
  2
block 7
 70
     0
 10
0.0
 20
0.0
 30
0.0
  3
block 7
  1

  0
SPLINE
  5
B4
330
B0
100
AcDbEntity
  8
_U+30EC_U+30A4_U+30E4_U+30FC 1
370
     0
100
AcDbSpline
210
0.0
220
0.0
230
1.0
 70
    11
 71
     3
 72
    26
 73
    22
 74
     0
 42
0.0000000001
 43
0.0000000001
 12
1.0
 22
0.0
 32
0.0
 13
1.0
 23
0.0
 33
0.0
 40
0.0
 40
0.0
 40
0.0
 40
0.0
 40
1.0
 40
1.0
 40
1.0
 40
2.0
 40
2.0
 40
2.0
 40
3.0
 40
3.0
 40
3.0
 40
4.0
 40
4.0
 40
4.0
 40
5.0
 40
5.0
 40
5.0
 40
6.0
 40
6.0
 40
6.0
 40
7.0
 40
7.0
 40
7.0
 40
7.0
 10
98.61758081301922
 20
-138.3583075283445
 30
0.0
 10
98.61758081301922
 20
-138.3583075283445
 30
0.0
 10
98.61758081301922
 20
-137.2539821705476
 30
0.0
 10
98.61758081301922
 20
-137.2539821705476
 30
0.0
 10
98.61758081301922
 20
-137.2539821705476
 30
0.0
 10
98.32853730180676
 20
-137.2539821705476
 30
0.0
 10
98.32853730180676
 20
-137.2539821705476
 30
0.0
 10
98.32853730180676
 20
-137.2539821705476
 30
0.0
 10
98.32853730180676
 20
-137.1060153194561
 30
0.0
 10
98.32853730180676
 20
-137.1060153194561
 30
0.0
 10
98.61930336076185
 20
-137.0912014088696
 30
0.0
 10
98.65995548748779
 20
-136.9282483924173
 30
0.0
 10
98.6861382131757
 20
-136.8140434770812
 30
0.0
 10
98.6861382131757
 20
-136.8140434770812
 30
0.0
 10
98.81360674612993
 20
-136.8140434770812
 30
0.0
 10
98.81360674612993
 20
-136.8140434770812
 30
0.0
 10
98.81360674612993
 20
-136.8140434770812
 30
0.0
 10
98.81360674612993
 20
-138.3583075283445
 30
0.0
 10
98.81360674612993
 20
-138.3583075283445
 30
0.0
 10
98.81360674612993
 20
-138.3583075283445
 30
0.0
 10
98.61758081301922
 20
-138.3583075283445
 30
0.0
 10
98.61758081301922
 20
-138.3583075283445
 30
0.0
  0
HATCH
  5
B5
330
B0
100
AcDbEntity
  8
_U+30EC_U+30A4_U+30E4_U+30FC 1
 62
   179
420
  2234388
100
AcDbHatch
 10
0.0
 20
0.0
 30
0.0
210
0.0
220
0.0
230
1.0
  2
SOLID
 70
     1
 71
     0
 91
        1
 92
        1
 93
        1
 72
     4
 94
        3
 73
     0
 74
     1
 95
       26
 96
       22
 40
0.0
 40
0.0
 40
0.0
 40
0.0
 40
1.0
 40
1.0
 40
1.0
 40
2.0
 40
2.0
 40
2.0
 40
3.0
 40
3.0
 40
3.0
 40
4.0
 40
4.0
 40
4.0
 40
5.0
 40
5.0
 40
5.0
 40
6.0
 40
6.0
 40
6.0
 40
7.0
 40
7.0
 40
7.0
 40
7.0
 10
98.61758081301922
 20
-138.3583075283445
 10
98.61758081301922
 20
-138.3583075283445
 10
98.61758081301922
 20
-137.2539821705476
 10
98.61758081301922
 20
-137.2539821705476
 10
98.61758081301922
 20
-137.2539821705476
 10
98.32853730180676
 20
-137.2539821705476
 10
98.32853730180676
 20
-137.2539821705476
 10
98.32853730180676
 20
-137.2539821705476
 10
98.32853730180676
 20
-137.1060153194561
 10
98.32853730180676
 20
-137.1060153194561
 10
98.61930336076185
 20
-137.0912014088696
 10
98.65995548748779
 20
-136.9282483924173
 10
98.6861382131757
 20
-136.8140434770812
 10
98.6861382131757
 20
-136.8140434770812
 10
98.81360674612993
 20
-136.8140434770812
 10
98.81360674612993
 20
-136.8140434770812
 10
98.81360674612993
 20
-136.8140434770812
 10
98.81360674612993
 20
-138.3583075283445
 10
98.81360674612993
 20
-138.3583075283445
 10
98.81360674612993
 20
-138.3583075283445
 10
98.61758081301922
 20
-138.3583075283445
 10
98.61758081301922
 20
-138.3583075283445
 97
        0
 97
        0
 75
     2
 76
     1
 98
        0
  0
SPLINE
  5
B6
330
B0
100
AcDbEntity
  8
_U+30EC_U+30A4_U+30E4_U+30FC 1
370
     0
100
AcDbSpline
210
0.0
220
0.0
230
1.0
 70
    11
 71
     3
 72
    44
 73
    40
 74
     0
 42
0.0000000001
 43
0.0000000001
 12
1.0
 22
0.0
 32
0.0
 13
1.0
 23
0.0
 33
0.0
 40
0.0
 40
0.0
 40
0.0
 40
0.0
 40
1.0
 40
1.0
 40
1.0
 40
2.0
 40
2.0
 40
2.0
 40
3.0
 40
3.0
 40
3.0
 40
4.0
 40
4.0
 40
4.0
 40
5.0
 40
5.0
 40
5.0
 40
6.0
 40
6.0
 40
6.0
 40
7.0
 40
7.0
 40
7.0
 40
8.0
 40
8.0
 40
8.0
 40
9.0
 40
9.0
 40
9.0
 40
10.0
 40
10.0
 40
10.0
 40
11.0
 40
11.0
 40
11.0
 40
12.0
 40
12.0
 40
12.0
 40
13.0
 40
13.0
 40
13.0
 40
13.0
 10
99.77237681967496
 20
-137.77660315566
 30
0.0
 10
99.58151852979212
 20
-137.9352498027558
 30
0.0
 10
99.50021427634023
 20
-138.0093193556887
 30
0.0
 10
99.45749509232313
 20
-138.1531520921978
 30
0.0
 10
99.45749509232313
 20
-138.1531520921978
 30
0.0
 10
100.1389349793055
 20
-138.1531520921978
 30
0.0
 10
100.1389349793055
 20
-138.1531520921978
 30
0.0
 10
100.1389349793055
 20
-138.1531520921978
 30
0.0
 10
100.1389349793055
 20
-138.3583075283445
 30
0.0
 10
100.1389349793055
 20
-138.3583075283445
 30
0.0
 10
100.1389349793055
 20
-138.3583075283445
 30
0.0
 10
99.2390760385583
 20
-138.3583075283445
 30
0.0
 10
99.2390760385583
 20
-138.3583075283445
 30
0.0
 10
99.26663680244029
 20
-138.0007066169755
 30
0.0
 10
99.32416989704396
 20
-137.9225029494604
 30
0.0
 10
99.6611002355014
 20
-137.6241576804377
 30
0.0
 10
99.88537595159116
 20
-137.4253756709388
 30
0.0
 10
99.9425645366463
 20
-137.3576795446536
 30
0.0
 10
99.9425645366463
 20
-137.2202202347922
 30
0.0
 10
99.9425645366463
 20
-137.1017089500996
 30
0.0
 10
99.87951928926624
 20
-136.9706230668858
 30
0.0
 10
99.70760902455227
 20
-136.9706230668858
 30
0.0
 10
99.47988821297726
 20
-136.9706230668858
 30
0.0
 10
99.47230900290971
 20
-137.201099954849
 30
0.0
 10
99.46851939787594
 20
-137.3175441822505
 30
0.0
 10
99.46851939787594
 20
-137.3175441822505
 30
0.0
 10
99.27249346476522
 20
-137.3175441822505
 30
0.0
 10
99.27249346476522
 20
-137.3175441822505
 30
0.0
 10
99.27972816528424
 20
-137.190592413619
 30
0.0
 10
99.28902992309442
 20
-137.0784545555742
 30
0.0
 10
99.35930987099351
 20
-136.9599432708816
 30
0.0
 10
99.45577254458051
 20
-136.7992295664946
 30
0.0
 10
99.61872556103282
 20
-136.7652953759649
 30
0.0
 10
99.7203558778477
 20
-136.7652953759649
 30
0.0
 10
99.96289060000929
 20
-136.7652953759649
 30
0.0
 10
100.144447132082
 20
-136.9494357296515
 30
0.0
 10
100.144447132082
 20
-137.2222872920833
 30
0.0
 10
100.144447132082
 20
-137.4506971227554
 30
0.0
 10
100.0428168152671
 20
-137.5502603822791
 30
0.0
 10
99.77237681967496
 20
-137.77660315566
 30
0.0
  0
HATCH
  5
B7
330
B0
100
AcDbEntity
  8
_U+30EC_U+30A4_U+30E4_U+30FC 1
 62
   179
420
  2234388
100
AcDbHatch
 10
0.0
 20
0.0
 30
0.0
210
0.0
220
0.0
230
1.0
  2
SOLID
 70
     1
 71
     0
 91
        1
 92
        1
 93
        1
 72
     4
 94
        3
 73
     0
 74
     1
 95
       44
 96
       40
 40
0.0
 40
0.0
 40
0.0
 40
0.0
 40
1.0
 40
1.0
 40
1.0
 40
2.0
 40
2.0
 40
2.0
 40
3.0
 40
3.0
 40
3.0
 40
4.0
 40
4.0
 40
4.0
 40
5.0
 40
5.0
 40
5.0
 40
6.0
 40
6.0
 40
6.0
 40
7.0
 40
7.0
 40
7.0
 40
8.0
 40
8.0
 40
8.0
 40
9.0
 40
9.0
 40
9.0
 40
10.0
 40
10.0
 40
10.0
 40
11.0
 40
11.0
 40
11.0
 40
12.0
 40
12.0
 40
12.0
 40
13.0
 40
13.0
 40
13.0
 40
13.0
 10
99.77237681967496
 20
-137.77660315566
 10
99.58151852979212
 20
-137.9352498027558
 10
99.50021427634023
 20
-138.0093193556887
 10
99.45749509232313
 20
-138.1531520921978
 10
99.45749509232313
 20
-138.1531520921978
 10
100.1389349793055
 20
-138.1531520921978
 10
100.1389349793055
 20
-138.1531520921978
 10
100.1389349793055
 20
-138.1531520921978
 10
100.1389349793055
 20
-138.3583075283445
 10
100.1389349793055
 20
-138.3583075283445
 10
100.1389349793055
 20
-138.3583075283445
 10
99.2390760385583
 20
-138.3583075283445
 10
99.2390760385583
 20
-138.3583075283445
 10
99.26663680244029
 20
-138.0007066169755
 10
99.32416989704396
 20
-137.9225029494604
 10
99.6611002355014
 20
-137.6241576804377
 10
99.88537595159116
 20
-137.4253756709388
 10
99.9425645366463
 20
-137.3576795446536
 10
99.9425645366463
 20
-137.2202202347922
 10
99.9425645366463
 20
-137.1017089500996
 10
99.87951928926624
 20
-136.9706230668858
 10
99.70760902455227
 20
-136.9706230668858
 10
99.47988821297726
 20
-136.9706230668858
 10
99.47230900290971
 20
-137.201099954849
 10
99.46851939787594
 20
-137.3175441822505
 10
99.46851939787594
 20
-137.3175441822505
 10
99.27249346476522
 20
-137.3175441822505
 10
99.27249346476522
 20
-137.3175441822505
 10
99.27972816528424
 20
-137.190592413619
 10
99.28902992309442
 20
-137.0784545555742
 10
99.35930987099351
 20
-136.9599432708816
 10
99.45577254458051
 20
-136.7992295664946
 10
99.61872556103282
 20
-136.7652953759649
 10
99.7203558778477
 20
-136.7652953759649
 10
99.96289060000929
 20
-136.7652953759649
 10
100.144447132082
 20
-136.9494357296515
 10
100.144447132082
 20
-137.2222872920833
 10
100.144447132082
 20
-137.4506971227554
 10
100.0428168152671
 20
-137.5502603822791
 10
99.77237681967496
 20
-137.77660315566
 97
        0
 97
        0
 75
     2
 76
     1
 98
        0
  0
ENDBLK
  5
B3
330
B0
100
AcDbEntity
  8
0
100
AcDbBlockEnd
  0
BLOCK
  5
BA
330
B8
100
AcDbEntity
  8
0
100
AcDbBlockBegin
  2
block 8
 70
     0
 10
0.0
 20
0.0
 30
0.0
  3
block 8
  1

  0
SPLINE
  5
BC
330
B8
100
AcDbEntity
  8
_U+30EC_U+30A4_U+30E4_U+30FC 1
370
     0
100
AcDbSpline
210
0.0
220
0.0
230
1.0
 70
    11
 71
     3
 72
    26
 73
    22
 74
     0
 42
0.0000000001
 43
0.0000000001
 12
1.0
 22
0.0
 32
0.0
 13
1.0
 23
0.0
 33
0.0
 40
0.0
 40
0.0
 40
0.0
 40
0.0
 40
1.0
 40
1.0
 40
1.0
 40
2.0
 40
2.0
 40
2.0
 40
3.0
 40
3.0
 40
3.0
 40
4.0
 40
4.0
 40
4.0
 40
5.0
 40
5.0
 40
5.0
 40
6.0
 40
6.0
 40
6.0
 40
7.0
 40
7.0
 40
7.0
 40
7.0
 10
99.31280108194264
 20
-166.0970105921563
 30
0.0
 10
99.31280108194264
 20
-166.0970105921563
 30
0.0
 10
99.31280108194264
 20
-164.9928574891337
 30
0.0
 10
99.31280108194264
 20
-164.9928574891337
 30
0.0
 10
99.31280108194264
 20
-164.9928574891337
 30
0.0
 10
99.02375757073018
 20
-164.9928574891337
 30
0.0
 10
99.02375757073018
 20
-164.9928574891337
 30
0.0
 10
99.02375757073018
 20
-164.9928574891337
 30
0.0
 10
99.02375757073018
 20
-164.844718383268
 30
0.0
 10
99.02375757073018
 20
-164.844718383268
 30
0.0
 10
99.31452362968527
 20
-164.8299044726814
 30
0.0
 10
99.35517575641121
 20
-164.6669514562291
 30
0.0
 10
99.3813584820991
 20
-164.5525742861188
 30
0.0
 10
99.3813584820991
 20
-164.5525742861188
 30
0.0
 10
99.50882701505336
 20
-164.5525742861188
 30
0.0
 10
99.50882701505336
 20
-164.5525742861188
 30
0.0
 10
99.50882701505336
 20
-164.5525742861188
 30
0.0
 10
99.50882701505336
 20
-166.0970105921563
 30
0.0
 10
99.50882701505336
 20
-166.0970105921563
 30
0.0
 10
99.50882701505336
 20
-166.0970105921563
 30
0.0
 10
99.31280108194264
 20
-166.0970105921563
 30
0.0
 10
99.31280108194264
 20
-166.0970105921563
 30
0.0
  0
HATCH
  5
BD
330
B8
100
AcDbEntity
  8
_U+30EC_U+30A4_U+30E4_U+30FC 1
 62
   179
420
  2234388
100
AcDbHatch
 10
0.0
 20
0.0
 30
0.0
210
0.0
220
0.0
230
1.0
  2
SOLID
 70
     1
 71
     0
 91
        1
 92
        1
 93
        1
 72
     4
 94
        3
 73
     0
 74
     1
 95
       26
 96
       22
 40
0.0
 40
0.0
 40
0.0
 40
0.0
 40
1.0
 40
1.0
 40
1.0
 40
2.0
 40
2.0
 40
2.0
 40
3.0
 40
3.0
 40
3.0
 40
4.0
 40
4.0
 40
4.0
 40
5.0
 40
5.0
 40
5.0
 40
6.0
 40
6.0
 40
6.0
 40
7.0
 40
7.0
 40
7.0
 40
7.0
 10
99.31280108194264
 20
-166.0970105921563
 10
99.31280108194264
 20
-166.0970105921563
 10
99.31280108194264
 20
-164.9928574891337
 10
99.31280108194264
 20
-164.9928574891337
 10
99.31280108194264
 20
-164.9928574891337
 10
99.02375757073018
 20
-164.9928574891337
 10
99.02375757073018
 20
-164.9928574891337
 10
99.02375757073018
 20
-164.9928574891337
 10
99.02375757073018
 20
-164.844718383268
 10
99.02375757073018
 20
-164.844718383268
 10
99.31452362968527
 20
-164.8299044726814
 10
99.35517575641121
 20
-164.6669514562291
 10
99.3813584820991
 20
-164.5525742861188
 10
99.3813584820991
 20
-164.5525742861188
 10
99.50882701505336
 20
-164.5525742861188
 10
99.50882701505336
 20
-164.5525742861188
 10
99.50882701505336
 20
-164.5525742861188
 10
99.50882701505336
 20
-166.0970105921563
 10
99.50882701505336
 20
-166.0970105921563
 10
99.50882701505336
 20
-166.0970105921563
 10
99.31280108194264
 20
-166.0970105921563
 10
99.31280108194264
 20
-166.0970105921563
 97
        0
 97
        0
 75
     2
 76
     1
 98
        0
  0
SPLINE
  5
BE
330
B8
100
AcDbEntity
  8
_U+30EC_U+30A4_U+30E4_U+30FC 1
370
     0
100
AcDbSpline
210
0.0
220
0.0
230
1.0
 70
    11
 71
     3
 72
    53
 73
    49
 74
     0
 42
0.0000000001
 43
0.0000000001
 12
1.0
 22
0.0
 32
0.0
 13
1.0
 23
0.0
 33
0.0
 40
0.0
 40
0.0
 40
0.0
 40
0.0
 40
1.0
 40
1.0
 40
1.0
 40
2.0
 40
2.0
 40
2.0
 40
3.0
 40
3.0
 40
3.0
 40
4.0
 40
4.0
 40
4.0
 40
5.0
 40
5.0
 40
5.0
 40
6.0
 40
6.0
 40
6.0
 40
7.0
 40
7.0
 40
7.0
 40
8.0
 40
8.0
 40
8.0
 40
9.0
 40
9.0
 40
9.0
 40
10.0
 40
10.0
 40
10.0
 40
11.0
 40
11.0
 40
11.0
 40
12.0
 40
12.0
 40
12.0
 40
13.0
 40
13.0
 40
13.0
 40
14.0
 40
14.0
 40
14.0
 40
15.0
 40
15.0
 40
15.0
 40
16.0
 40
16.0
 40
16.0
 40
16.0
 10
100.3694118672688
 20
-166.1476534957895
 30
0.0
 10
100.3008544671123
 20
-166.1476534957895
 30
0.0
 10
100.2119710035929
 20
-166.1307725279117
 30
0.0
 10
100.1230875400734
 20
-166.0673827709832
 30
0.0
 10
99.97115882917389
 20
-165.9574842250037
 30
0.0
 10
99.95255531355353
 20
-165.8262260870157
 30
0.0
 10
99.93601885522433
 20
-165.7183945983274
 30
0.0
 10
99.93601885522433
 20
-165.7183945983274
 30
0.0
 10
100.1303222405924
 20
-165.7183945983274
 30
0.0
 10
100.1303222405924
 20
-165.7183945983274
 30
0.0
 10
100.1785535773859
 20
-165.9171766078263
 30
0.0
 10
100.2898301615595
 20
-165.9468044289994
 30
0.0
 10
100.3711344150114
 20
-165.9468044289994
 30
0.0
 10
100.4934353047378
 20
-165.9468044289994
 30
0.0
 10
100.6267605000169
 20
-165.8472411694757
 30
0.0
 10
100.6267605000169
 20
-165.6146972242213
 30
0.0
 10
100.6267605000169
 20
-165.3587266296673
 30
0.0
 10
100.469319636341
 20
-165.2887911913167
 30
0.0
 10
100.3638997144924
 20
-165.2887911913167
 30
0.0
 10
100.3359944410618
 20
-165.2887911913167
 30
0.0
 10
100.2119710035929
 20
-165.2887911913167
 30
0.0
 10
100.1341118456262
 20
-165.4179822720136
 30
0.0
 10
100.1341118456262
 20
-165.4179822720136
 30
0.0
 10
99.98046058698405
 20
-165.3990342468447
 30
0.0
 10
99.98046058698405
 20
-165.3990342468447
 30
0.0
 10
99.98046058698405
 20
-165.3990342468447
 30
0.0
 10
100.0862250183812
 20
-164.5525742861188
 30
0.0
 10
100.0862250183812
 20
-164.5525742861188
 30
0.0
 10
100.0862250183812
 20
-164.5525742861188
 30
0.0
 10
100.7676649053636
 20
-164.5525742861188
 30
0.0
 10
100.7676649053636
 20
-164.5525742861188
 30
0.0
 10
100.7676649053636
 20
-164.5525742861188
 30
0.0
 10
100.7676649053636
 20
-164.7472221810354
 30
0.0
 10
100.7676649053636
 20
-164.7472221810354
 30
0.0
 10
100.7676649053636
 20
-164.7472221810354
 30
0.0
 10
100.228507461922
 20
-164.7472221810354
 30
0.0
 10
100.228507461922
 20
-164.7472221810354
 30
0.0
 10
100.228507461922
 20
-164.7472221810354
 30
0.0
 10
100.1713188768669
 20
-165.1702799066241
 30
0.0
 10
100.1713188768669
 20
-165.1702799066241
 30
0.0
 10
100.2250623664368
 20
-165.1365179708687
 30
0.0
 10
100.2970648620785
 20
-165.0962103536912
 30
0.0
 10
100.4007622361845
 20
-165.0962103536912
 30
0.0
 10
100.6229708949832
 20
-165.0962103536912
 30
0.0
 10
100.8303656431952
 20
-165.2825900194433
 30
0.0
 10
100.8303656431952
 20
-165.5957491990524
 30
0.0
 10
100.8303656431952
 20
-165.913042493244
 30
0.0
 10
100.6339952005359
 20
-166.1476534957895
 30
0.0
 10
100.3694118672688
 20
-166.1476534957895
 30
0.0
  0
HATCH
  5
BF
330
B8
100
AcDbEntity
  8
_U+30EC_U+30A4_U+30E4_U+30FC 1
 62
   179
420
  2234388
100
AcDbHatch
 10
0.0
 20
0.0
 30
0.0
210
0.0
220
0.0
230
1.0
  2
SOLID
 70
     1
 71
     0
 91
        1
 92
        1
 93
        1
 72
     4
 94
        3
 73
     0
 74
     1
 95
       53
 96
       49
 40
0.0
 40
0.0
 40
0.0
 40
0.0
 40
1.0
 40
1.0
 40
1.0
 40
2.0
 40
2.0
 40
2.0
 40
3.0
 40
3.0
 40
3.0
 40
4.0
 40
4.0
 40
4.0
 40
5.0
 40
5.0
 40
5.0
 40
6.0
 40
6.0
 40
6.0
 40
7.0
 40
7.0
 40
7.0
 40
8.0
 40
8.0
 40
8.0
 40
9.0
 40
9.0
 40
9.0
 40
10.0
 40
10.0
 40
10.0
 40
11.0
 40
11.0
 40
11.0
 40
12.0
 40
12.0
 40
12.0
 40
13.0
 40
13.0
 40
13.0
 40
14.0
 40
14.0
 40
14.0
 40
15.0
 40
15.0
 40
15.0
 40
16.0
 40
16.0
 40
16.0
 40
16.0
 10
100.3694118672688
 20
-166.1476534957895
 10
100.3008544671123
 20
-166.1476534957895
 10
100.2119710035929
 20
-166.1307725279117
 10
100.1230875400734
 20
-166.0673827709832
 10
99.97115882917389
 20
-165.9574842250037
 10
99.95255531355353
 20
-165.8262260870157
 10
99.93601885522433
 20
-165.7183945983274
 10
99.93601885522433
 20
-165.7183945983274
 10
100.1303222405924
 20
-165.7183945983274
 10
100.1303222405924
 20
-165.7183945983274
 10
100.1785535773859
 20
-165.9171766078263
 10
100.2898301615595
 20
-165.9468044289994
 10
100.3711344150114
 20
-165.9468044289994
 10
100.4934353047378
 20
-165.9468044289994
 10
100.6267605000169
 20
-165.8472411694757
 10
100.6267605000169
 20
-165.6146972242213
 10
100.6267605000169
 20
-165.3587266296673
 10
100.469319636341
 20
-165.2887911913167
 10
100.3638997144924
 20
-165.2887911913167
 10
100.3359944410618
 20
-165.2887911913167
 10
100.2119710035929
 20
-165.2887911913167
 10
100.1341118456262
 20
-165.4179822720136
 10
100.1341118456262
 20
-165.4179822720136
 10
99.98046058698405
 20
-165.3990342468447
 10
99.98046058698405
 20
-165.3990342468447
 10
99.98046058698405
 20
-165.3990342468447
 10
100.0862250183812
 20
-164.5525742861188
 10
100.0862250183812
 20
-164.5525742861188
 10
100.0862250183812
 20
-164.5525742861188
 10
100.7676649053636
 20
-164.5525742861188
 10
100.7676649053636
 20
-164.5525742861188
 10
100.7676649053636
 20
-164.5525742861188
 10
100.7676649053636
 20
-164.7472221810354
 10
100.7676649053636
 20
-164.7472221810354
 10
100.7676649053636
 20
-164.7472221810354
 10
100.228507461922
 20
-164.7472221810354
 10
100.228507461922
 20
-164.7472221810354
 10
100.228507461922
 20
-164.7472221810354
 10
100.1713188768669
 20
-165.1702799066241
 10
100.1713188768669
 20
-165.1702799066241
 10
100.2250623664368
 20
-165.1365179708687
 10
100.2970648620785
 20
-165.0962103536912
 10
100.4007622361845
 20
-165.0962103536912
 10
100.6229708949832
 20
-165.0962103536912
 10
100.8303656431952
 20
-165.2825900194433
 10
100.8303656431952
 20
-165.5957491990524
 10
100.8303656431952
 20
-165.913042493244
 10
100.6339952005359
 20
-166.1476534957895
 10
100.3694118672688
 20
-166.1476534957895
 97
        0
 97
        0
 75
     2
 76
     1
 98
        0
  0
ENDBLK
  5
BB
330
B8
100
AcDbEntity
  8
0
100
AcDbBlockEnd
  0
BLOCK
  5
C2
330
C0
100
AcDbEntity
  8
0
100
AcDbBlockBegin
  2
block 9
 70
     0
 10
0.0
 20
0.0
 30
0.0
  3
block 9
  1

  0
SPLINE
  5
C4
330
C0
100
AcDbEntity
  8
_U+30EC_U+30A4_U+30E4_U+30FC 1
370
     0
100
AcDbSpline
210
0.0
220
0.0
230
1.0
 70
    11
 71
     3
 72
    29
 73
    25
 74
     0
 42
0.0000000001
 43
0.0000000001
 12
1.0
 22
0.0
 32
0.0
 13
1.0
 23
0.0
 33
0.0
 40
0.0
 40
0.0
 40
0.0
 40
0.0
 40
1.0
 40
1.0
 40
1.0
 40
2.0
 40
2.0
 40
2.0
 40
3.0
 40
3.0
 40
3.0
 40
4.0
 40
4.0
 40
4.0
 40
5.0
 40
5.0
 40
5.0
 40
6.0
 40
6.0
 40
6.0
 40
7.0
 40
7.0
 40
7.0
 40
8.0
 40
8.0
 40
8.0
 40
8.0
 10
86.9445637803472
 20
-166.1476534957895
 30
0.0
 10
86.71133081599578
 20
-166.1476534957895
 30
0.0
 10
86.48912215719717
 20
-166.010194185928
 30
0.0
 10
86.48912215719717
 20
-165.6612060132722
 30
0.0
 10
86.48912215719717
 20
-165.4052354187181
 30
0.0
 10
86.61314559466616
 20
-165.3101507833252
 30
0.0
 10
86.70581866321939
 20
-165.2488280836878
 30
0.0
 10
86.59660913633697
 20
-165.1895724413415
 30
0.0
 10
86.52977428392312
 20
-165.0751952712312
 30
0.0
 10
86.52977428392312
 20
-164.91430931207
 30
0.0
 10
86.52977428392312
 20
-164.6393906923471
 30
0.0
 10
86.70409611547676
 20
-164.5039984397768
 30
0.0
 10
86.9445637803472
 20
-164.5039984397768
 30
0.0
 10
87.19261065528518
 20
-164.5039984397768
 30
0.0
 10
87.35935327677127
 20
-164.6480034310602
 30
0.0
 10
87.35935327677127
 20
-164.91430931207
 30
0.0
 10
87.35935327677127
 20
-165.0751952712312
 30
0.0
 10
87.29079587661481
 20
-165.1895724413415
 30
0.0
 10
87.18158634973238
 20
-165.2488280836878
 30
0.0
 10
87.25944550769903
 20
-165.299470987321
 30
0.0
 10
87.3982828557546
 20
-165.3945556227139
 30
0.0
 10
87.3982828557546
 20
-165.6570718986899
 30
0.0
 10
87.3982828557546
 20
-166.0315537779366
 30
0.0
 10
87.15402558585039
 20
-166.1476534957895
 30
0.0
 10
86.9445637803472
 20
-166.1476534957895
 30
0.0
  0
SPLINE
  5
C5
330
C0
100
AcDbEntity
  8
_U+30EC_U+30A4_U+30E4_U+30FC 1
370
     0
100
AcDbSpline
210
0.0
220
0.0
230
1.0
 70
    11
 71
     3
 72
    17
 73
    13
 74
     0
 42
0.0000000001
 43
0.0000000001
 12
1.0
 22
0.0
 32
0.0
 13
1.0
 23
0.0
 33
0.0
 40
0.0
 40
0.0
 40
0.0
 40
0.0
 40
1.0
 40
1.0
 40
1.0
 40
2.0
 40
2.0
 40
2.0
 40
3.0
 40
3.0
 40
3.0
 40
4.0
 40
4.0
 40
4.0
 40
4.0
 10
86.9445637803472
 20
-165.3566595723761
 30
0.0
 10
86.81881779513557
 20
-165.3566595723761
 30
0.0
 10
86.6854925998564
 20
-165.4434759786044
 30
0.0
 10
86.6854925998564
 20
-165.6463921026856
 30
0.0
 10
86.6854925998564
 20
-165.8517197936065
 30
0.0
 10
86.79642467448146
 20
-165.9530056008729
 30
0.0
 10
86.9445637803472
 20
-165.9530056008729
 30
0.0
 10
87.10751679679952
 20
-165.9530056008729
 30
0.0
 10
87.20397947038651
 20
-165.830360201598
 30
0.0
 10
87.20397947038651
 20
-165.6525932745591
 30
0.0
 10
87.20397947038651
 20
-165.430729125309
 30
0.0
 10
87.06135251729717
 20
-165.3566595723761
 30
0.0
 10
86.9445637803472
 20
-165.3566595723761
 30
0.0
  0
SPLINE
  5
C6
330
C0
100
AcDbEntity
  8
_U+30EC_U+30A4_U+30E4_U+30FC 1
370
     0
100
AcDbSpline
210
0.0
220
0.0
230
1.0
 70
    11
 71
     3
 72
    17
 73
    13
 74
     0
 42
0.0000000001
 43
0.0000000001
 12
1.0
 22
0.0
 32
0.0
 13
1.0
 23
0.0
 33
0.0
 40
0.0
 40
0.0
 40
0.0
 40
0.0
 40
1.0
 40
1.0
 40
1.0
 40
2.0
 40
2.0
 40
2.0
 40
3.0
 40
3.0
 40
3.0
 40
4.0
 40
4.0
 40
4.0
 40
4.0
 10
86.9445637803472
 20
-164.6965792774023
 30
0.0
 10
86.80021427951523
 20
-164.6965792774023
 30
0.0
 10
86.72614472658236
 20
-164.7916639127951
 30
0.0
 10
86.72614472658236
 20
-164.9270561653655
 30
0.0
 10
86.72614472658236
 20
-165.0497015646404
 30
0.0
 10
86.78918997396242
 20
-165.1682128493329
 30
0.0
 10
86.9445637803472
 20
-165.1682128493329
 30
0.0
 10
87.1002820962805
 20
-165.1682128493329
 30
0.0
 10
87.16298283411204
 20
-165.0497015646404
 30
0.0
 10
87.16298283411204
 20
-164.9270561653655
 30
0.0
 10
87.16298283411204
 20
-164.7916639127951
 30
0.0
 10
87.08719073343654
 20
-164.6965792774023
 30
0.0
 10
86.9445637803472
 20
-164.6965792774023
 30
0.0
  0
HATCH
  5
C7
330
C0
100
AcDbEntity
  8
_U+30EC_U+30A4_U+30E4_U+30FC 1
 62
   179
420
  2234388
100
AcDbHatch
 10
0.0
 20
0.0
 30
0.0
210
0.0
220
0.0
230
1.0
  2
SOLID
 70
     1
 71
     0
 91
        3
 92
        1
 93
        1
 72
     4
 94
        3
 73
     0
 74
     1
 95
       29
 96
       25
 40
0.0
 40
0.0
 40
0.0
 40
0.0
 40
1.0
 40
1.0
 40
1.0
 40
2.0
 40
2.0
 40
2.0
 40
3.0
 40
3.0
 40
3.0
 40
4.0
 40
4.0
 40
4.0
 40
5.0
 40
5.0
 40
5.0
 40
6.0
 40
6.0
 40
6.0
 40
7.0
 40
7.0
 40
7.0
 40
8.0
 40
8.0
 40
8.0
 40
8.0
 10
86.9445637803472
 20
-166.1476534957895
 10
86.71133081599578
 20
-166.1476534957895
 10
86.48912215719717
 20
-166.010194185928
 10
86.48912215719717
 20
-165.6612060132722
 10
86.48912215719717
 20
-165.4052354187181
 10
86.61314559466616
 20
-165.3101507833252
 10
86.70581866321939
 20
-165.2488280836878
 10
86.59660913633697
 20
-165.1895724413415
 10
86.52977428392312
 20
-165.0751952712312
 10
86.52977428392312
 20
-164.91430931207
 10
86.52977428392312
 20
-164.6393906923471
 10
86.70409611547676
 20
-164.5039984397768
 10
86.9445637803472
 20
-164.5039984397768
 10
87.19261065528518
 20
-164.5039984397768
 10
87.35935327677127
 20
-164.6480034310602
 10
87.35935327677127
 20
-164.91430931207
 10
87.35935327677127
 20
-165.0751952712312
 10
87.29079587661481
 20
-165.1895724413415
 10
87.18158634973238
 20
-165.2488280836878
 10
87.25944550769903
 20
-165.299470987321
 10
87.3982828557546
 20
-165.3945556227139
 10
87.3982828557546
 20
-165.6570718986899
 10
87.3982828557546
 20
-166.0315537779366
 10
87.15402558585039
 20
-166.1476534957895
 10
86.9445637803472
 20
-166.1476534957895
 97
        0
 97
        0
 92
        1
 93
        1
 72
     4
 94
        3
 73
     0
 74
     1
 95
       17
 96
       13
 40
0.0
 40
0.0
 40
0.0
 40
0.0
 40
1.0
 40
1.0
 40
1.0
 40
2.0
 40
2.0
 40
2.0
 40
3.0
 40
3.0
 40
3.0
 40
4.0
 40
4.0
 40
4.0
 40
4.0
 10
86.9445637803472
 20
-165.3566595723761
 10
86.81881779513557
 20
-165.3566595723761
 10
86.6854925998564
 20
-165.4434759786044
 10
86.6854925998564
 20
-165.6463921026856
 10
86.6854925998564
 20
-165.8517197936065
 10
86.79642467448146
 20
-165.9530056008729
 10
86.9445637803472
 20
-165.9530056008729
 10
87.10751679679952
 20
-165.9530056008729
 10
87.20397947038651
 20
-165.830360201598
 10
87.20397947038651
 20
-165.6525932745591
 10
87.20397947038651
 20
-165.430729125309
 10
87.06135251729717
 20
-165.3566595723761
 10
86.9445637803472
 20
-165.3566595723761
 97
        0
 97
        0
 92
        1
 93
        1
 72
     4
 94
        3
 73
     0
 74
     1
 95
       17
 96
       13
 40
0.0
 40
0.0
 40
0.0
 40
0.0
 40
1.0
 40
1.0
 40
1.0
 40
2.0
 40
2.0
 40
2.0
 40
3.0
 40
3.0
 40
3.0
 40
4.0
 40
4.0
 40
4.0
 40
4.0
 10
86.9445637803472
 20
-164.6965792774023
 10
86.80021427951523
 20
-164.6965792774023
 10
86.72614472658236
 20
-164.7916639127951
 10
86.72614472658236
 20
-164.9270561653655
 10
86.72614472658236
 20
-165.0497015646404
 10
86.78918997396242
 20
-165.1682128493329
 10
86.9445637803472
 20
-165.1682128493329
 10
87.1002820962805
 20
-165.1682128493329
 10
87.16298283411204
 20
-165.0497015646404
 10
87.16298283411204
 20
-164.9270561653655
 10
87.16298283411204
 20
-164.7916639127951
 10
87.08719073343654
 20
-164.6965792774023
 10
86.9445637803472
 20
-164.6965792774023
 97
        0
 97
        0
 75
     2
 76
     1
 98
        0
  0
POLYLINE
  5
C8
330
C0
100
AcDbEntity
  8
_U+30EC_U+30A4_U+30E4_U+30FC 1
370
     0
100
AcDb2dPolyline
 66
     1
 10
0.0
 20
0.0
 30
0.0
  0
VERTEX
  5
C9
330
C8
100
AcDbEntity
  8
_U+30EC_U+30A4_U+30E4_U+30FC 1
370
     0
100
AcDbVertex
100
AcDb2dVertex
 10
87.59017467428302
 20
-166.0970105921563
 30
0.0
  0
VERTEX
  5
CA
330
C8
100
AcDbEntity
  8
_U+30EC_U+30A4_U+30E4_U+30FC 1
370
     0
100
AcDbVertex
100
AcDb2dVertex
 10
87.59017467428302
 20
-165.8451741121845
 30
0.0
  0
VERTEX
  5
CB
330
C8
100
AcDbEntity
  8
_U+30EC_U+30A4_U+30E4_U+30FC 1
370
     0
100
AcDbVertex
100
AcDb2dVertex
 10
87.81066078533901
 20
-165.8451741121845
 30
0.0
  0
VERTEX
  5
CC
330
C8
100
AcDbEntity
  8
_U+30EC_U+30A4_U+30E4_U+30FC 1
370
     0
100
AcDbVertex
100
AcDb2dVertex
 10
87.81066078533901
 20
-166.0970105921563
 30
0.0
  0
VERTEX
  5
CD
330
C8
100
AcDbEntity
  8
_U+30EC_U+30A4_U+30E4_U+30FC 1
370
     0
100
AcDbVertex
100
AcDb2dVertex
 10
87.59017467428302
 20
-166.0970105921563
 30
0.0
  0
SEQEND
  5
CE
330
C8
100
AcDbEntity
  8
_U+30EC_U+30A4_U+30E4_U+30FC 1
370
     0
  0
HATCH
  5
CF
330
C0
100
AcDbEntity
  8
_U+30EC_U+30A4_U+30E4_U+30FC 1
 62
   179
420
  2234388
100
AcDbHatch
 10
0.0
 20
0.0
 30
0.0
210
0.0
220
0.0
230
1.0
  2
SOLID
 70
     1
 71
     0
 91
        1
 92
        1
 93
        4
 72
     1
 10
87.59017467428302
 20
-166.0970105921563
 11
87.59017467428302
 21
-165.8451741121845
 72
     1
 10
87.59017467428302
 20
-165.8451741121845
 11
87.81066078533901
 21
-165.8451741121845
 72
     1
 10
87.81066078533901
 20
-165.8451741121845
 11
87.81066078533901
 21
-166.0970105921563
 72
     1
 10
87.81066078533901
 20
-166.0970105921563
 11
87.59017467428302
 21
-166.0970105921563
 97
        0
 75
     2
 76
     1
 98
        0
  0
SPLINE
  5
D0
330
C0
100
AcDbEntity
  8
_U+30EC_U+30A4_U+30E4_U+30FC 1
370
     0
100
AcDbSpline
210
0.0
220
0.0
230
1.0
 70
    11
 71
     3
 72
    53
 73
    49
 74
     0
 42
0.0000000001
 43
0.0000000001
 12
1.0
 22
0.0
 32
0.0
 13
1.0
 23
0.0
 33
0.0
 40
0.0
 40
0.0
 40
0.0
 40
0.0
 40
1.0
 40
1.0
 40
1.0
 40
2.0
 40
2.0
 40
2.0
 40
3.0
 40
3.0
 40
3.0
 40
4.0
 40
4.0
 40
4.0
 40
5.0
 40
5.0
 40
5.0
 40
6.0
 40
6.0
 40
6.0
 40
7.0
 40
7.0
 40
7.0
 40
8.0
 40
8.0
 40
8.0
 40
9.0
 40
9.0
 40
9.0
 40
10.0
 40
10.0
 40
10.0
 40
11.0
 40
11.0
 40
11.0
 40
12.0
 40
12.0
 40
12.0
 40
13.0
 40
13.0
 40
13.0
 40
14.0
 40
14.0
 40
14.0
 40
15.0
 40
15.0
 40
15.0
 40
16.0
 40
16.0
 40
16.0
 40
16.0
 10
88.43904620184857
 20
-166.1476534957895
 30
0.0
 10
88.3704888016921
 20
-166.1476534957895
 30
0.0
 10
88.28160533817265
 20
-166.1307725279117
 30
0.0
 10
88.19272187465322
 20
-166.0673827709832
 30
0.0
 10
88.04079316375369
 20
-165.9574842250037
 30
0.0
 10
88.02218964813335
 20
-165.8262260870157
 30
0.0
 10
88.00565318980415
 20
-165.7183945983274
 30
0.0
 10
88.00565318980415
 20
-165.7183945983274
 30
0.0
 10
88.19995657517224
 20
-165.7183945983274
 30
0.0
 10
88.19995657517224
 20
-165.7183945983274
 30
0.0
 10
88.24818791196573
 20
-165.9171766078263
 30
0.0
 10
88.35946449613931
 20
-165.9468044289994
 30
0.0
 10
88.4407687495912
 20
-165.9468044289994
 30
0.0
 10
88.56306963931758
 20
-165.9468044289994
 30
0.0
 10
88.69639483459675
 20
-165.8472411694757
 30
0.0
 10
88.69639483459675
 20
-165.6146972242213
 30
0.0
 10
88.69639483459675
 20
-165.3587266296673
 30
0.0
 10
88.53895397092082
 20
-165.2887911913167
 30
0.0
 10
88.43353404907218
 20
-165.2887911913167
 30
0.0
 10
88.40562877564166
 20
-165.2887911913167
 30
0.0
 10
88.28160533817265
 20
-165.2887911913167
 30
0.0
 10
88.20374618020601
 20
-165.4179822720136
 30
0.0
 10
88.20374618020601
 20
-165.4179822720136
 30
0.0
 10
88.05009492156387
 20
-165.3990342468447
 30
0.0
 10
88.05009492156387
 20
-165.3990342468447
 30
0.0
 10
88.05009492156387
 20
-165.3990342468447
 30
0.0
 10
88.15585935296104
 20
-164.5525742861188
 30
0.0
 10
88.15585935296104
 20
-164.5525742861188
 30
0.0
 10
88.15585935296104
 20
-164.5525742861188
 30
0.0
 10
88.83729923994346
 20
-164.5525742861188
 30
0.0
 10
88.83729923994346
 20
-164.5525742861188
 30
0.0
 10
88.83729923994346
 20
-164.5525742861188
 30
0.0
 10
88.83729923994346
 20
-164.7472221810354
 30
0.0
 10
88.83729923994346
 20
-164.7472221810354
 30
0.0
 10
88.83729923994346
 20
-164.7472221810354
 30
0.0
 10
88.29814179650185
 20
-164.7472221810354
 30
0.0
 10
88.29814179650185
 20
-164.7472221810354
 30
0.0
 10
88.29814179650185
 20
-164.7472221810354
 30
0.0
 10
88.24095321144671
 20
-165.1702799066241
 30
0.0
 10
88.24095321144671
 20
-165.1702799066241
 30
0.0
 10
88.2946967010166
 20
-165.1365179708687
 30
0.0
 10
88.36669919665833
 20
-165.0962103536912
 30
0.0
 10
88.47039657076435
 20
-165.0962103536912
 30
0.0
 10
88.69260522956296
 20
-165.0962103536912
 30
0.0
 10
88.89999997777501
 20
-165.2825900194433
 30
0.0
 10
88.89999997777501
 20
-165.5957491990524
 30
0.0
 10
88.89999997777501
 20
-165.913042493244
 30
0.0
 10
88.70362953511577
 20
-166.1476534957895
 30
0.0
 10
88.43904620184857
 20
-166.1476534957895
 30
0.0
  0
HATCH
  5
D1
330
C0
100
AcDbEntity
  8
_U+30EC_U+30A4_U+30E4_U+30FC 1
 62
   179
420
  2234388
100
AcDbHatch
 10
0.0
 20
0.0
 30
0.0
210
0.0
220
0.0
230
1.0
  2
SOLID
 70
     1
 71
     0
 91
        1
 92
        1
 93
        1
 72
     4
 94
        3
 73
     0
 74
     1
 95
       53
 96
       49
 40
0.0
 40
0.0
 40
0.0
 40
0.0
 40
1.0
 40
1.0
 40
1.0
 40
2.0
 40
2.0
 40
2.0
 40
3.0
 40
3.0
 40
3.0
 40
4.0
 40
4.0
 40
4.0
 40
5.0
 40
5.0
 40
5.0
 40
6.0
 40
6.0
 40
6.0
 40
7.0
 40
7.0
 40
7.0
 40
8.0
 40
8.0
 40
8.0
 40
9.0
 40
9.0
 40
9.0
 40
10.0
 40
10.0
 40
10.0
 40
11.0
 40
11.0
 40
11.0
 40
12.0
 40
12.0
 40
12.0
 40
13.0
 40
13.0
 40
13.0
 40
14.0
 40
14.0
 40
14.0
 40
15.0
 40
15.0
 40
15.0
 40
16.0
 40
16.0
 40
16.0
 40
16.0
 10
88.43904620184857
 20
-166.1476534957895
 10
88.3704888016921
 20
-166.1476534957895
 10
88.28160533817265
 20
-166.1307725279117
 10
88.19272187465322
 20
-166.0673827709832
 10
88.04079316375369
 20
-165.9574842250037
 10
88.02218964813335
 20
-165.8262260870157
 10
88.00565318980415
 20
-165.7183945983274
 10
88.00565318980415
 20
-165.7183945983274
 10
88.19995657517224
 20
-165.7183945983274
 10
88.19995657517224
 20
-165.7183945983274
 10
88.24818791196573
 20
-165.9171766078263
 10
88.35946449613931
 20
-165.9468044289994
 10
88.4407687495912
 20
-165.9468044289994
 10
88.56306963931758
 20
-165.9468044289994
 10
88.69639483459675
 20
-165.8472411694757
 10
88.69639483459675
 20
-165.6146972242213
 10
88.69639483459675
 20
-165.3587266296673
 10
88.53895397092082
 20
-165.2887911913167
 10
88.43353404907218
 20
-165.2887911913167
 10
88.40562877564166
 20
-165.2887911913167
 10
88.28160533817265
 20
-165.2887911913167
 10
88.20374618020601
 20
-165.4179822720136
 10
88.20374618020601
 20
-165.4179822720136
 10
88.05009492156387
 20
-165.3990342468447
 10
88.05009492156387
 20
-165.3990342468447
 10
88.05009492156387
 20
-165.3990342468447
 10
88.15585935296104
 20
-164.5525742861188
 10
88.15585935296104
 20
-164.5525742861188
 10
88.15585935296104
 20
-164.5525742861188
 10
88.83729923994346
 20
-164.5525742861188
 10
88.83729923994346
 20
-164.5525742861188
 10
88.83729923994346
 20
-164.5525742861188
 10
88.83729923994346
 20
-164.7472221810354
 10
88.83729923994346
 20
-164.7472221810354
 10
88.83729923994346
 20
-164.7472221810354
 10
88.29814179650185
 20
-164.7472221810354
 10
88.29814179650185
 20
-164.7472221810354
 10
88.29814179650185
 20
-164.7472221810354
 10
88.24095321144671
 20
-165.1702799066241
 10
88.24095321144671
 20
-165.1702799066241
 10
88.2946967010166
 20
-165.1365179708687
 10
88.36669919665833
 20
-165.0962103536912
 10
88.47039657076435
 20
-165.0962103536912
 10
88.69260522956296
 20
-165.0962103536912
 10
88.89999997777501
 20
-165.2825900194433
 10
88.89999997777501
 20
-165.5957491990524
 10
88.89999997777501
 20
-165.913042493244
 10
88.70362953511577
 20
-166.1476534957895
 10
88.43904620184857
 20
-166.1476534957895
 97
        0
 97
        0
 75
     2
 76
     1
 98
        0
  0
ENDBLK
  5
C3
330
C0
100
AcDbEntity
  8
0
100
AcDbBlockEnd
  0
BLOCK
  5
D4
330
D2
100
AcDbEntity
  8
0
100
AcDbBlockBegin
  2
block 10
 70
     0
 10
0.0
 20
0.0
 30
0.0
  3
block 10
  1

  0
SPLINE
  5
D6
330
D2
100
AcDbEntity
  8
_U+30EC_U+30A4_U+30E4_U+30FC 1
370
     0
100
AcDbSpline
210
0.0
220
0.0
230
1.0
 70
    11
 71
     3
 72
    29
 73
    25
 74
     0
 42
0.0000000001
 43
0.0000000001
 12
1.0
 22
0.0
 32
0.0
 13
1.0
 23
0.0
 33
0.0
 40
0.0
 40
0.0
 40
0.0
 40
0.0
 40
1.0
 40
1.0
 40
1.0
 40
2.0
 40
2.0
 40
2.0
 40
3.0
 40
3.0
 40
3.0
 40
4.0
 40
4.0
 40
4.0
 40
5.0
 40
5.0
 40
5.0
 40
6.0
 40
6.0
 40
6.0
 40
7.0
 40
7.0
 40
7.0
 40
8.0
 40
8.0
 40
8.0
 40
8.0
 10
110.5238308100427
 20
-166.1476534957895
 30
0.0
 10
110.2905978456912
 20
-166.1476534957895
 30
0.0
 10
110.0683891868926
 20
-166.010194185928
 30
0.0
 10
110.0683891868926
 20
-165.6612060132722
 30
0.0
 10
110.0683891868926
 20
-165.4052354187181
 30
0.0
 10
110.1924126243616
 20
-165.3101507833252
 30
0.0
 10
110.2850856929148
 20
-165.2488280836878
 30
0.0
 10
110.1758761660324
 20
-165.1895724413415
 30
0.0
 10
110.1090413136186
 20
-165.0751952712312
 30
0.0
 10
110.1090413136186
 20
-164.91430931207
 30
0.0
 10
110.1090413136186
 20
-164.6393906923471
 30
0.0
 10
110.2830186356237
 20
-164.5039984397768
 30
0.0
 10
110.5238308100427
 20
-164.5039984397768
 30
0.0
 10
110.7722221945292
 20
-164.5039984397768
 30
0.0
 10
110.9386203064667
 20
-164.6480034310602
 30
0.0
 10
110.9386203064667
 20
-164.91430931207
 30
0.0
 10
110.9386203064667
 20
-165.0751952712312
 30
0.0
 10
110.8700629063103
 20
-165.1895724413415
 30
0.0
 10
110.7608533794278
 20
-165.2488280836878
 30
0.0
 10
110.8387125373945
 20
-165.299470987321
 30
0.0
 10
110.9775498854501
 20
-165.3945556227139
 30
0.0
 10
110.9775498854501
 20
-165.6570718986899
 30
0.0
 10
110.9775498854501
 20
-166.0315537779366
 30
0.0
 10
110.7332926155458
 20
-166.1476534957895
 30
0.0
 10
110.5238308100427
 20
-166.1476534957895
 30
0.0
  0
SPLINE
  5
D7
330
D2
100
AcDbEntity
  8
_U+30EC_U+30A4_U+30E4_U+30FC 1
370
     0
100
AcDbSpline
210
0.0
220
0.0
230
1.0
 70
    11
 71
     3
 72
    17
 73
    13
 74
     0
 42
0.0000000001
 43
0.0000000001
 12
1.0
 22
0.0
 32
0.0
 13
1.0
 23
0.0
 33
0.0
 40
0.0
 40
0.0
 40
0.0
 40
0.0
 40
1.0
 40
1.0
 40
1.0
 40
2.0
 40
2.0
 40
2.0
 40
3.0
 40
3.0
 40
3.0
 40
4.0
 40
4.0
 40
4.0
 40
4.0
 10
110.5238308100427
 20
-165.3566595723761
 30
0.0
 10
110.398084824831
 20
-165.3566595723761
 30
0.0
 10
110.2647596295519
 20
-165.4434759786044
 30
0.0
 10
110.2647596295519
 20
-165.6463921026856
 30
0.0
 10
110.2647596295519
 20
-165.8517197936065
 30
0.0
 10
110.3756917041769
 20
-165.9530056008729
 30
0.0
 10
110.5238308100427
 20
-165.9530056008729
 30
0.0
 10
110.686783826495
 20
-165.9530056008729
 30
0.0
 10
110.783246500082
 20
-165.830360201598
 30
0.0
 10
110.783246500082
 20
-165.6525932745591
 30
0.0
 10
110.783246500082
 20
-165.430729125309
 30
0.0
 10
110.6406195469926
 20
-165.3566595723761
 30
0.0
 10
110.5238308100427
 20
-165.3566595723761
 30
0.0
  0
SPLINE
  5
D8
330
D2
100
AcDbEntity
  8
_U+30EC_U+30A4_U+30E4_U+30FC 1
370
     0
100
AcDbSpline
210
0.0
220
0.0
230
1.0
 70
    11
 71
     3
 72
    17
 73
    13
 74
     0
 42
0.0000000001
 43
0.0000000001
 12
1.0
 22
0.0
 32
0.0
 13
1.0
 23
0.0
 33
0.0
 40
0.0
 40
0.0
 40
0.0
 40
0.0
 40
1.0
 40
1.0
 40
1.0
 40
2.0
 40
2.0
 40
2.0
 40
3.0
 40
3.0
 40
3.0
 40
4.0
 40
4.0
 40
4.0
 40
4.0
 10
110.5238308100427
 20
-164.6965792774023
 30
0.0
 10
110.3794813092107
 20
-164.6965792774023
 30
0.0
 10
110.3054117562778
 20
-164.7916639127951
 30
0.0
 10
110.3054117562778
 20
-164.9270561653655
 30
0.0
 10
110.3054117562778
 20
-165.0497015646404
 30
0.0
 10
110.3684570036579
 20
-165.1682128493329
 30
0.0
 10
110.5238308100427
 20
-165.1682128493329
 30
0.0
 10
110.679549125976
 20
-165.1682128493329
 30
0.0
 10
110.742594373356
 20
-165.0497015646404
 30
0.0
 10
110.742594373356
 20
-164.9270561653655
 30
0.0
 10
110.742594373356
 20
-164.7916639127951
 30
0.0
 10
110.666457763132
 20
-164.6965792774023
 30
0.0
 10
110.5238308100427
 20
-164.6965792774023
 30
0.0
  0
HATCH
  5
D9
330
D2
100
AcDbEntity
  8
_U+30EC_U+30A4_U+30E4_U+30FC 1
 62
   179
420
  2234388
100
AcDbHatch
 10
0.0
 20
0.0
 30
0.0
210
0.0
220
0.0
230
1.0
  2
SOLID
 70
     1
 71
     0
 91
        3
 92
        1
 93
        1
 72
     4
 94
        3
 73
     0
 74
     1
 95
       29
 96
       25
 40
0.0
 40
0.0
 40
0.0
 40
0.0
 40
1.0
 40
1.0
 40
1.0
 40
2.0
 40
2.0
 40
2.0
 40
3.0
 40
3.0
 40
3.0
 40
4.0
 40
4.0
 40
4.0
 40
5.0
 40
5.0
 40
5.0
 40
6.0
 40
6.0
 40
6.0
 40
7.0
 40
7.0
 40
7.0
 40
8.0
 40
8.0
 40
8.0
 40
8.0
 10
110.5238308100427
 20
-166.1476534957895
 10
110.2905978456912
 20
-166.1476534957895
 10
110.0683891868926
 20
-166.010194185928
 10
110.0683891868926
 20
-165.6612060132722
 10
110.0683891868926
 20
-165.4052354187181
 10
110.1924126243616
 20
-165.3101507833252
 10
110.2850856929148
 20
-165.2488280836878
 10
110.1758761660324
 20
-165.1895724413415
 10
110.1090413136186
 20
-165.0751952712312
 10
110.1090413136186
 20
-164.91430931207
 10
110.1090413136186
 20
-164.6393906923471
 10
110.2830186356237
 20
-164.5039984397768
 10
110.5238308100427
 20
-164.5039984397768
 10
110.7722221945292
 20
-164.5039984397768
 10
110.9386203064667
 20
-164.6480034310602
 10
110.9386203064667
 20
-164.91430931207
 10
110.9386203064667
 20
-165.0751952712312
 10
110.8700629063103
 20
-165.1895724413415
 10
110.7608533794278
 20
-165.2488280836878
 10
110.8387125373945
 20
-165.299470987321
 10
110.9775498854501
 20
-165.3945556227139
 10
110.9775498854501
 20
-165.6570718986899
 10
110.9775498854501
 20
-166.0315537779366
 10
110.7332926155458
 20
-166.1476534957895
 10
110.5238308100427
 20
-166.1476534957895
 97
        0
 97
        0
 92
        1
 93
        1
 72
     4
 94
        3
 73
     0
 74
     1
 95
       17
 96
       13
 40
0.0
 40
0.0
 40
0.0
 40
0.0
 40
1.0
 40
1.0
 40
1.0
 40
2.0
 40
2.0
 40
2.0
 40
3.0
 40
3.0
 40
3.0
 40
4.0
 40
4.0
 40
4.0
 40
4.0
 10
110.5238308100427
 20
-165.3566595723761
 10
110.398084824831
 20
-165.3566595723761
 10
110.2647596295519
 20
-165.4434759786044
 10
110.2647596295519
 20
-165.6463921026856
 10
110.2647596295519
 20
-165.8517197936065
 10
110.3756917041769
 20
-165.9530056008729
 10
110.5238308100427
 20
-165.9530056008729
 10
110.686783826495
 20
-165.9530056008729
 10
110.783246500082
 20
-165.830360201598
 10
110.783246500082
 20
-165.6525932745591
 10
110.783246500082
 20
-165.430729125309
 10
110.6406195469926
 20
-165.3566595723761
 10
110.5238308100427
 20
-165.3566595723761
 97
        0
 97
        0
 92
        1
 93
        1
 72
     4
 94
        3
 73
     0
 74
     1
 95
       17
 96
       13
 40
0.0
 40
0.0
 40
0.0
 40
0.0
 40
1.0
 40
1.0
 40
1.0
 40
2.0
 40
2.0
 40
2.0
 40
3.0
 40
3.0
 40
3.0
 40
4.0
 40
4.0
 40
4.0
 40
4.0
 10
110.5238308100427
 20
-164.6965792774023
 10
110.3794813092107
 20
-164.6965792774023
 10
110.3054117562778
 20
-164.7916639127951
 10
110.3054117562778
 20
-164.9270561653655
 10
110.3054117562778
 20
-165.0497015646404
 10
110.3684570036579
 20
-165.1682128493329
 10
110.5238308100427
 20
-165.1682128493329
 10
110.679549125976
 20
-165.1682128493329
 10
110.742594373356
 20
-165.0497015646404
 10
110.742594373356
 20
-164.9270561653655
 10
110.742594373356
 20
-164.7916639127951
 10
110.666457763132
 20
-164.6965792774023
 10
110.5238308100427
 20
-164.6965792774023
 97
        0
 97
        0
 75
     2
 76
     1
 98
        0
  0
POLYLINE
  5
DA
330
D2
100
AcDbEntity
  8
_U+30EC_U+30A4_U+30E4_U+30FC 1
370
     0
100
AcDb2dPolyline
 66
     1
 10
0.0
 20
0.0
 30
0.0
  0
VERTEX
  5
DB
330
DA
100
AcDbEntity
  8
_U+30EC_U+30A4_U+30E4_U+30FC 1
370
     0
100
AcDbVertex
100
AcDb2dVertex
 10
111.1694417039785
 20
-166.0970105921563
 30
0.0
  0
VERTEX
  5
DC
330
DA
100
AcDbEntity
  8
_U+30EC_U+30A4_U+30E4_U+30FC 1
370
     0
100
AcDbVertex
100
AcDb2dVertex
 10
111.1694417039785
 20
-165.8451741121845
 30
0.0
  0
VERTEX
  5
DD
330
DA
100
AcDbEntity
  8
_U+30EC_U+30A4_U+30E4_U+30FC 1
370
     0
100
AcDbVertex
100
AcDb2dVertex
 10
111.3899278150345
 20
-165.8451741121845
 30
0.0
  0
VERTEX
  5
DE
330
DA
100
AcDbEntity
  8
_U+30EC_U+30A4_U+30E4_U+30FC 1
370
     0
100
AcDbVertex
100
AcDb2dVertex
 10
111.3899278150345
 20
-166.0970105921563
 30
0.0
  0
VERTEX
  5
DF
330
DA
100
AcDbEntity
  8
_U+30EC_U+30A4_U+30E4_U+30FC 1
370
     0
100
AcDbVertex
100
AcDb2dVertex
 10
111.1694417039785
 20
-166.0970105921563
 30
0.0
  0
SEQEND
  5
E0
330
DA
100
AcDbEntity
  8
_U+30EC_U+30A4_U+30E4_U+30FC 1
370
     0
  0
HATCH
  5
E1
330
D2
100
AcDbEntity
  8
_U+30EC_U+30A4_U+30E4_U+30FC 1
 62
   179
420
  2234388
100
AcDbHatch
 10
0.0
 20
0.0
 30
0.0
210
0.0
220
0.0
230
1.0
  2
SOLID
 70
     1
 71
     0
 91
        1
 92
        1
 93
        4
 72
     1
 10
111.1694417039785
 20
-166.0970105921563
 11
111.1694417039785
 21
-165.8451741121845
 72
     1
 10
111.1694417039785
 20
-165.8451741121845
 11
111.3899278150345
 21
-165.8451741121845
 72
     1
 10
111.3899278150345
 20
-165.8451741121845
 11
111.3899278150345
 21
-166.0970105921563
 72
     1
 10
111.3899278150345
 20
-166.0970105921563
 11
111.1694417039785
 21
-166.0970105921563
 97
        0
 75
     2
 76
     1
 98
        0
  0
SPLINE
  5
E2
330
D2
100
AcDbEntity
  8
_U+30EC_U+30A4_U+30E4_U+30FC 1
370
     0
100
AcDbSpline
210
0.0
220
0.0
230
1.0
 70
    11
 71
     3
 72
    53
 73
    49
 74
     0
 42
0.0000000001
 43
0.0000000001
 12
1.0
 22
0.0
 32
0.0
 13
1.0
 23
0.0
 33
0.0
 40
0.0
 40
0.0
 40
0.0
 40
0.0
 40
1.0
 40
1.0
 40
1.0
 40
2.0
 40
2.0
 40
2.0
 40
3.0
 40
3.0
 40
3.0
 40
4.0
 40
4.0
 40
4.0
 40
5.0
 40
5.0
 40
5.0
 40
6.0
 40
6.0
 40
6.0
 40
7.0
 40
7.0
 40
7.0
 40
8.0
 40
8.0
 40
8.0
 40
9.0
 40
9.0
 40
9.0
 40
10.0
 40
10.0
 40
10.0
 40
11.0
 40
11.0
 40
11.0
 40
12.0
 40
12.0
 40
12.0
 40
13.0
 40
13.0
 40
13.0
 40
14.0
 40
14.0
 40
14.0
 40
15.0
 40
15.0
 40
15.0
 40
16.0
 40
16.0
 40
16.0
 40
16.0
 10
112.018313231544
 20
-166.1476534957895
 30
0.0
 10
111.9497558313876
 20
-166.1476534957895
 30
0.0
 10
111.8608723678681
 20
-166.1307725279117
 30
0.0
 10
111.7719889043487
 20
-166.0673827709832
 30
0.0
 10
111.6200601934492
 20
-165.9574842250037
 30
0.0
 10
111.6018011873773
 20
-165.8262260870157
 30
0.0
 10
111.5849202194996
 20
-165.7183945983274
 30
0.0
 10
111.5849202194996
 20
-165.7183945983274
 30
0.0
 10
111.7795681144162
 20
-165.7183945983274
 30
0.0
 10
111.7795681144162
 20
-165.7183945983274
 30
0.0
 10
111.8274549416612
 20
-165.9171766078263
 30
0.0
 10
111.9387315258348
 20
-165.9468044289994
 30
0.0
 10
112.0200357792867
 20
-165.9468044289994
 30
0.0
 10
112.142336669013
 20
-165.9468044289994
 30
0.0
 10
112.2756618642922
 20
-165.8472411694757
 30
0.0
 10
112.2756618642922
 20
-165.6146972242213
 30
0.0
 10
112.2756618642922
 20
-165.3587266296673
 30
0.0
 10
112.1182210006163
 20
-165.2887911913167
 30
0.0
 10
112.0128010787676
 20
-165.2887911913167
 30
0.0
 10
111.9848958053371
 20
-165.2887911913167
 30
0.0
 10
111.8608723678681
 20
-165.2887911913167
 30
0.0
 10
111.7830132099015
 20
-165.4179822720136
 30
0.0
 10
111.7830132099015
 20
-165.4179822720136
 30
0.0
 10
111.6293619512593
 20
-165.3990342468447
 30
0.0
 10
111.6293619512593
 20
-165.3990342468447
 30
0.0
 10
111.6293619512593
 20
-165.3990342468447
 30
0.0
 10
111.734781873108
 20
-164.5525742861188
 30
0.0
 10
111.734781873108
 20
-164.5525742861188
 30
0.0
 10
111.734781873108
 20
-164.5525742861188
 30
0.0
 10
112.4162217600904
 20
-164.5525742861188
 30
0.0
 10
112.4162217600904
 20
-164.5525742861188
 30
0.0
 10
112.4162217600904
 20
-164.5525742861188
 30
0.0
 10
112.4162217600904
 20
-164.7472221810354
 30
0.0
 10
112.4162217600904
 20
-164.7472221810354
 30
0.0
 10
112.4162217600904
 20
-164.7472221810354
 30
0.0
 10
111.8774088261973
 20
-164.7472221810354
 30
0.0
 10
111.8774088261973
 20
-164.7472221810354
 30
0.0
 10
111.8774088261973
 20
-164.7472221810354
 30
0.0
 10
111.8202202411422
 20
-165.1702799066241
 30
0.0
 10
111.8202202411422
 20
-165.1702799066241
 30
0.0
 10
111.8739637307121
 20
-165.1365179708687
 30
0.0
 10
111.9459662263538
 20
-165.0962103536912
 30
0.0
 10
112.0496636004598
 20
-165.0962103536912
 30
0.0
 10
112.2718722592584
 20
-165.0962103536912
 30
0.0
 10
112.4792670074705
 20
-165.2825900194433
 30
0.0
 10
112.4792670074705
 20
-165.5957491990524
 30
0.0
 10
112.4792670074705
 20
-165.913042493244
 30
0.0
 10
112.2832410743598
 20
-166.1476534957895
 30
0.0
 10
112.018313231544
 20
-166.1476534957895
 30
0.0
  0
HATCH
  5
E3
330
D2
100
AcDbEntity
  8
_U+30EC_U+30A4_U+30E4_U+30FC 1
 62
   179
420
  2234388
100
AcDbHatch
 10
0.0
 20
0.0
 30
0.0
210
0.0
220
0.0
230
1.0
  2
SOLID
 70
     1
 71
     0
 91
        1
 92
        1
 93
        1
 72
     4
 94
        3
 73
     0
 74
     1
 95
       53
 96
       49
 40
0.0
 40
0.0
 40
0.0
 40
0.0
 40
1.0
 40
1.0
 40
1.0
 40
2.0
 40
2.0
 40
2.0
 40
3.0
 40
3.0
 40
3.0
 40
4.0
 40
4.0
 40
4.0
 40
5.0
 40
5.0
 40
5.0
 40
6.0
 40
6.0
 40
6.0
 40
7.0
 40
7.0
 40
7.0
 40
8.0
 40
8.0
 40
8.0
 40
9.0
 40
9.0
 40
9.0
 40
10.0
 40
10.0
 40
10.0
 40
11.0
 40
11.0
 40
11.0
 40
12.0
 40
12.0
 40
12.0
 40
13.0
 40
13.0
 40
13.0
 40
14.0
 40
14.0
 40
14.0
 40
15.0
 40
15.0
 40
15.0
 40
16.0
 40
16.0
 40
16.0
 40
16.0
 10
112.018313231544
 20
-166.1476534957895
 10
111.9497558313876
 20
-166.1476534957895
 10
111.8608723678681
 20
-166.1307725279117
 10
111.7719889043487
 20
-166.0673827709832
 10
111.6200601934492
 20
-165.9574842250037
 10
111.6018011873773
 20
-165.8262260870157
 10
111.5849202194996
 20
-165.7183945983274
 10
111.5849202194996
 20
-165.7183945983274
 10
111.7795681144162
 20
-165.7183945983274
 10
111.7795681144162
 20
-165.7183945983274
 10
111.8274549416612
 20
-165.9171766078263
 10
111.9387315258348
 20
-165.9468044289994
 10
112.0200357792867
 20
-165.9468044289994
 10
112.142336669013
 20
-165.9468044289994
 10
112.2756618642922
 20
-165.8472411694757
 10
112.2756618642922
 20
-165.6146972242213
 10
112.2756618642922
 20
-165.3587266296673
 10
112.1182210006163
 20
-165.2887911913167
 10
112.0128010787676
 20
-165.2887911913167
 10
111.9848958053371
 20
-165.2887911913167
 10
111.8608723678681
 20
-165.2887911913167
 10
111.7830132099015
 20
-165.4179822720136
 10
111.7830132099015
 20
-165.4179822720136
 10
111.6293619512593
 20
-165.3990342468447
 10
111.6293619512593
 20
-165.3990342468447
 10
111.6293619512593
 20
-165.3990342468447
 10
111.734781873108
 20
-164.5525742861188
 10
111.734781873108
 20
-164.5525742861188
 10
111.734781873108
 20
-164.5525742861188
 10
112.4162217600904
 20
-164.5525742861188
 10
112.4162217600904
 20
-164.5525742861188
 10
112.4162217600904
 20
-164.5525742861188
 10
112.4162217600904
 20
-164.7472221810354
 10
112.4162217600904
 20
-164.7472221810354
 10
112.4162217600904
 20
-164.7472221810354
 10
111.8774088261973
 20
-164.7472221810354
 10
111.8774088261973
 20
-164.7472221810354
 10
111.8774088261973
 20
-164.7472221810354
 10
111.8202202411422
 20
-165.1702799066241
 10
111.8202202411422
 20
-165.1702799066241
 10
111.8739637307121
 20
-165.1365179708687
 10
111.9459662263538
 20
-165.0962103536912
 10
112.0496636004598
 20
-165.0962103536912
 10
112.2718722592584
 20
-165.0962103536912
 10
112.4792670074705
 20
-165.2825900194433
 10
112.4792670074705
 20
-165.5957491990524
 10
112.4792670074705
 20
-165.913042493244
 10
112.2832410743598
 20
-166.1476534957895
 10
112.018313231544
 20
-166.1476534957895
 97
        0
 97
        0
 75
     2
 76
     1
 98
        0
  0
ENDBLK
  5
D5
330
D2
100
AcDbEntity
  8
0
100
AcDbBlockEnd
  0
ENDSEC
  0
SECTION
  2
ENTITIES
  0
INSERT
  5
42
330
1F
100
AcDbEntity
  8
_U+30EC_U+30A4_U+30E4_U+30FC 1
100
AcDbBlockReference
  2
block 2
 10
0.0
 20
0.0
 30
0.0
  0
INSERT
  5
4A
330
1F
100
AcDbEntity
  8
_U+30EC_U+30A4_U+30E4_U+30FC 1
100
AcDbBlockReference
  2
block 3
 10
0.0
 20
0.0
 30
0.0
  0
INSERT
  5
86
330
1F
100
AcDbEntity
  8
_U+30EC_U+30A4_U+30E4_U+30FC 1
100
AcDbBlockReference
  2
block 4
 10
0.0
 20
0.0
 30
0.0
  0
INSERT
  5
96
330
1F
100
AcDbEntity
  8
_U+30EC_U+30A4_U+30E4_U+30FC 1
100
AcDbBlockReference
  2
block 5
 10
0.0
 20
0.0
 30
0.0
  0
INSERT
  5
A8
330
1F
100
AcDbEntity
  8
_U+30EC_U+30A4_U+30E4_U+30FC 1
100
AcDbBlockReference
  2
block 6
 10
0.0
 20
0.0
 30
0.0
  0
INSERT
  5
B1
330
1F
100
AcDbEntity
  8
_U+30EC_U+30A4_U+30E4_U+30FC 1
100
AcDbBlockReference
  2
block 7
 10
0.0
 20
0.0
 30
0.0
  0
INSERT
  5
B9
330
1F
100
AcDbEntity
  8
_U+30EC_U+30A4_U+30E4_U+30FC 1
100
AcDbBlockReference
  2
block 8
 10
0.0
 20
0.0
 30
0.0
  0
INSERT
  5
C1
330
1F
100
AcDbEntity
  8
_U+30EC_U+30A4_U+30E4_U+30FC 1
100
AcDbBlockReference
  2
block 9
 10
0.0
 20
0.0
 30
0.0
  0
INSERT
  5
D3
330
1F
100
AcDbEntity
  8
_U+30EC_U+30A4_U+30E4_U+30FC 1
100
AcDbBlockReference
  2
block 10
 10
0.0
 20
0.0
 30
0.0
  0
POLYLINE
  5
E4
330
1F
100
AcDbEntity
  8
_U+30EC_U+30A4_U+30E4_U+30FC 1
 62
   179
420
  2234388
370
    18
100
AcDb2dPolyline
 66
     1
 10
0.0
 20
0.0
 30
0.0
  0
VERTEX
  5
E5
330
E4
100
AcDbEntity
  8
_U+30EC_U+30A4_U+30E4_U+30FC 1
 62
   179
420
  2234388
370
    18
100
AcDbVertex
100
AcDb2dVertex
 10
85.01683906972886
 20
-148.2332430998775
 30
0.0
  0
VERTEX
  5
E6
330
E4
100
AcDbEntity
  8
_U+30EC_U+30A4_U+30E4_U+30FC 1
 62
   179
420
  2234388
370
    18
100
AcDbVertex
100
AcDb2dVertex
 10
83.68157388926299
 20
-148.2332430998775
 30
0.0
  0
VERTEX
  5
E7
330
E4
100
AcDbEntity
  8
_U+30EC_U+30A4_U+30E4_U+30FC 1
 62
   179
420
  2234388
370
    18
100
AcDbVertex
100
AcDb2dVertex
 10
83.68157388926299
 20
-145.0212083242048
 30
0.0
  0
VERTEX
  5
E8
330
E4
100
AcDbEntity
  8
_U+30EC_U+30A4_U+30E4_U+30FC 1
 62
   179
420
  2234388
370
    18
100
AcDbVertex
100
AcDb2dVertex
 10
93.68423637591162
 20
-145.0212083242048
 30
0.0
  0
VERTEX
  5
E9
330
E4
100
AcDbEntity
  8
_U+30EC_U+30A4_U+30E4_U+30FC 1
 62
   179
420
  2234388
370
    18
100
AcDbVertex
100
AcDb2dVertex
 10
93.68423637591162
 20
-146.3920979451728
 30
0.0
  0
VERTEX
  5
EA
330
E4
100
AcDbEntity
  8
_U+30EC_U+30A4_U+30E4_U+30FC 1
 62
   179
420
  2234388
370
    18
100
AcDbVertex
100
AcDb2dVertex
 10
95.15072739659536
 20
-146.3920979451728
 30
0.0
  0
VERTEX
  5
EB
330
E4
100
AcDbEntity
  8
_U+30EC_U+30A4_U+30E4_U+30FC 1
 62
   179
420
  2234388
370
    18
100
AcDbVertex
100
AcDb2dVertex
 10
95.15072739659536
 20
-147.2066692408134
 30
0.0
  0
VERTEX
  5
EC
330
E4
100
AcDbEntity
  8
_U+30EC_U+30A4_U+30E4_U+30FC 1
 62
   179
420
  2234388
370
    18
100
AcDbVertex
100
AcDb2dVertex
 10
93.68423637591162
 20
-147.2066692408134
 30
0.0
  0
VERTEX
  5
ED
330
E4
100
AcDbEntity
  8
_U+30EC_U+30A4_U+30E4_U+30FC 1
 62
   179
420
  2234388
370
    18
100
AcDbVertex
100
AcDb2dVertex
 10
93.68423637591162
 20
-156.8484364435353
 30
0.0
  0
VERTEX
  5
EE
330
E4
100
AcDbEntity
  8
_U+30EC_U+30A4_U+30E4_U+30FC 1
 62
   179
420
  2234388
370
    18
100
AcDbVertex
100
AcDb2dVertex
 10
99.14735037126351
 20
-156.8484364435353
 30
0.0
  0
VERTEX
  5
EF
330
E4
100
AcDbEntity
  8
_U+30EC_U+30A4_U+30E4_U+30FC 1
 62
   179
420
  2234388
370
    18
100
AcDbVertex
100
AcDb2dVertex
 10
99.73719378203218
 20
-157.2961050699967
 30
0.0
  0
VERTEX
  5
F0
330
E4
100
AcDbEntity
  8
_U+30EC_U+30A4_U+30E4_U+30FC 1
 62
   179
420
  2234388
370
    18
100
AcDbVertex
100
AcDb2dVertex
 10
100.1919248542381
 20
-156.8484364435353
 30
0.0
  0
VERTEX
  5
F1
330
E4
100
AcDbEntity
  8
_U+30EC_U+30A4_U+30E4_U+30FC 1
 62
   179
420
  2234388
370
    18
100
AcDbVertex
100
AcDb2dVertex
 10
105.6843221612146
 20
-156.8484364435353
 30
0.0
  0
VERTEX
  5
F2
330
E4
100
AcDbEntity
  8
_U+30EC_U+30A4_U+30E4_U+30FC 1
 62
   179
420
  2234388
370
    18
100
AcDbVertex
100
AcDb2dVertex
 10
105.6843221612146
 20
-145.0212083242048
 30
0.0
  0
VERTEX
  5
F3
330
E4
100
AcDbEntity
  8
_U+30EC_U+30A4_U+30E4_U+30FC 1
 62
   179
420
  2234388
370
    18
100
AcDbVertex
100
AcDb2dVertex
 10
115.6823983644985
 20
-145.0212083242048
 30
0.0
  0
VERTEX
  5
F4
330
E4
100
AcDbEntity
  8
_U+30EC_U+30A4_U+30E4_U+30FC 1
 62
   179
420
  2234388
370
    18
100
AcDbVertex
100
AcDb2dVertex
 10
115.6823983644985
 20
-148.2332430998775
 30
0.0
  0
VERTEX
  5
F5
330
E4
100
AcDbEntity
  8
_U+30EC_U+30A4_U+30E4_U+30FC 1
 62
   179
420
  2234388
370
    18
100
AcDbVertex
100
AcDb2dVertex
 10
114.4078099282665
 20
-148.2332430998775
 30
0.0
  0
VERTEX
  5
F6
330
E4
100
AcDbEntity
  8
_U+30EC_U+30A4_U+30E4_U+30FC 1
 62
   179
420
  2234388
370
    18
100
AcDbVertex
100
AcDb2dVertex
 10
114.4078099282665
 20
-146.3920979451728
 30
0.0
  0
VERTEX
  5
F7
330
E4
100
AcDbEntity
  8
_U+30EC_U+30A4_U+30E4_U+30FC 1
 62
   179
420
  2234388
370
    18
100
AcDbVertex
100
AcDb2dVertex
 10
107.1014298913019
 20
-146.3920979451728
 30
0.0
  0
VERTEX
  5
F8
330
E4
100
AcDbEntity
  8
_U+30EC_U+30A4_U+30E4_U+30FC 1
 62
   179
420
  2234388
370
    18
100
AcDbVertex
100
AcDb2dVertex
 10
107.1014298913019
 20
-158.2210916759395
 30
0.0
  0
VERTEX
  5
F9
330
E4
100
AcDbEntity
  8
_U+30EC_U+30A4_U+30E4_U+30FC 1
 62
   179
420
  2234388
370
    18
100
AcDbVertex
100
AcDb2dVertex
 10
92.0946154894004
 20
-158.2210916759395
 30
0.0
  0
VERTEX
  5
FA
330
E4
100
AcDbEntity
  8
_U+30EC_U+30A4_U+30E4_U+30FC 1
 62
   179
420
  2234388
370
    18
100
AcDbVertex
100
AcDb2dVertex
 10
92.0946154894004
 20
-146.3920979451728
 30
0.0
  0
VERTEX
  5
FB
330
E4
100
AcDbEntity
  8
_U+30EC_U+30A4_U+30E4_U+30FC 1
 62
   179
420
  2234388
370
    18
100
AcDbVertex
100
AcDb2dVertex
 10
85.01683906972886
 20
-146.3920979451728
 30
0.0
  0
VERTEX
  5
FC
330
E4
100
AcDbEntity
  8
_U+30EC_U+30A4_U+30E4_U+30FC 1
 62
   179
420
  2234388
370
    18
100
AcDbVertex
100
AcDb2dVertex
 10
85.01683906972886
 20
-148.2332430998775
 30
0.0
  0
SEQEND
  5
FD
330
E4
100
AcDbEntity
  8
_U+30EC_U+30A4_U+30E4_U+30FC 1
 62
   179
420
  2234388
370
    18
  0
SPLINE
  5
FE
330
1F
100
AcDbEntity
  8
_U+30EC_U+30A4_U+30E4_U+30FC 1
 62
   179
420
  2234388
370
    18
100
AcDbSpline
210
0.0
220
0.0
230
1.0
 70
    11
 71
     3
 72
    38
 73
    34
 74
     0
 42
0.0000000001
 43
0.0000000001
 12
1.0
 22
0.0
 32
0.0
 13
1.0
 23
0.0
 33
0.0
 40
0.0
 40
0.0
 40
0.0
 40
0.0
 40
1.0
 40
1.0
 40
1.0
 40
2.0
 40
2.0
 40
2.0
 40
3.0
 40
3.0
 40
3.0
 40
4.0
 40
4.0
 40
4.0
 40
5.0
 40
5.0
 40
5.0
 40
6.0
 40
6.0
 40
6.0
 40
7.0
 40
7.0
 40
7.0
 40
8.0
 40
8.0
 40
8.0
 40
9.0
 40
9.0
 40
9.0
 40
10.0
 40
10.0
 40
10.0
 40
11.0
 40
11.0
 40
11.0
 40
11.0
 10
95.16022294102657
 20
-146.1455367676628
 30
0.0
 10
95.16022294102657
 20
-146.1455367676628
 30
0.0
 10
94.3816421272835
 20
-146.1455367676628
 30
0.0
 10
94.3816421272835
 20
-146.1455367676628
 30
0.0
 10
94.3816421272835
 20
-146.1455367676628
 30
0.0
 10
94.3816421272835
 20
-145.020885346503
 30
0.0
 10
94.3816421272835
 20
-145.020885346503
 30
0.0
 10
94.3816421272835
 20
-145.020885346503
 30
0.0
 10
104.8862980898266
 20
-145.020885346503
 30
0.0
 10
104.8862980898266
 20
-145.020885346503
 30
0.0
 10
104.8862980898266
 20
-145.020885346503
 30
0.0
 10
104.8862980898266
 20
-146.392130242943
 30
0.0
 10
104.8862980898266
 20
-146.392130242943
 30
0.0
 10
104.8862980898266
 20
-146.392130242943
 30
0.0
 10
96.42951454294992
 20
-146.392130242943
 30
0.0
 10
96.42951454294992
 20
-146.392130242943
 30
0.0
 10
96.42951454294992
 20
-146.392130242943
 30
0.0
 10
96.42951454294992
 20
-148.7155241700423
 30
0.0
 10
96.42951454294992
 20
-148.7155241700423
 30
0.0
 10
96.42951454294992
 20
-148.7155241700423
 30
0.0
 10
95.83542935836536
 20
-148.8217192383751
 30
0.0
 10
95.44702714017362
 20
-148.5211454232104
 30
0.0
 10
95.05826964650996
 20
-148.2223479854057
 30
0.0
 10
94.96442309230707
 20
-147.8032413537013
 30
0.0
 10
94.96442309230707
 20
-147.8032413537013
 30
0.0
 10
94.96442309230707
 20
-147.8032413537013
 30
0.0
 10
94.90269128758108
 20
-147.2052912026193
 30
0.0
 10
94.90269128758108
 20
-147.2052912026193
 30
0.0
 10
94.90269128758108
 20
-147.2052912026193
 30
0.0
 10
95.16022294102657
 20
-147.2052912026193
 30
0.0
 10
95.16022294102657
 20
-147.2052912026193
 30
0.0
 10
95.16022294102657
 20
-147.2052912026193
 30
0.0
 10
95.16022294102657
 20
-146.1455367676628
 30
0.0
 10
95.16022294102657
 20
-146.1455367676628
 30
0.0
  0
POLYLINE
  5
FF
330
1F
100
AcDbEntity
  8
_U+30EC_U+30A4_U+30E4_U+30FC 1
370
     0
100
AcDb2dPolyline
 66
     1
 10
0.0
 20
0.0
 30
0.0
  0
VERTEX
  5
100
330
FF
100
AcDbEntity
  8
_U+30EC_U+30A4_U+30E4_U+30FC 1
370
     0
100
AcDbVertex
100
AcDb2dVertex
 10
107.2335062394677
 20
-145.5102611601828
 30
0.0
  0
VERTEX
  5
101
330
FF
100
AcDbEntity
  8
_U+30EC_U+30A4_U+30E4_U+30FC 1
370
     0
100
AcDbVertex
100
AcDb2dVertex
 10
103.9216282902631
 20
-145.5102611601828
 30
0.0
  0
VERTEX
  5
102
330
FF
100
AcDbEntity
  8
_U+30EC_U+30A4_U+30E4_U+30FC 1
370
     0
100
AcDbVertex
100
AcDb2dVertex
 10
103.9216282902631
 20
-145.0209607079668
 30
0.0
  0
VERTEX
  5
103
330
FF
100
AcDbEntity
  8
_U+30EC_U+30A4_U+30E4_U+30FC 1
370
     0
100
AcDbVertex
100
AcDb2dVertex
 10
107.2335062394677
 20
-145.0209607079668
 30
0.0
  0
VERTEX
  5
104
330
FF
100
AcDbEntity
  8
_U+30EC_U+30A4_U+30E4_U+30FC 1
370
     0
100
AcDbVertex
100
AcDb2dVertex
 10
107.2335062394677
 20
-145.5102611601828
 30
0.0
  0
SEQEND
  5
106
330
FF
100
AcDbEntity
  8
_U+30EC_U+30A4_U+30E4_U+30FC 1
370
     0
  0
HATCH
  5
105
330
1F
100
AcDbEntity
  8
_U+30EC_U+30A4_U+30E4_U+30FC 1
 62
     7
420
 16711422
100
AcDbHatch
 10
0.0
 20
0.0
 30
0.0
210
0.0
220
0.0
230
1.0
  2
SOLID
 70
     1
 71
     0
 91
        1
 92
        1
 93
        4
 72
     1
 10
107.2335062394677
 20
-145.5102611601828
 11
103.9216282902631
 21
-145.5102611601828
 72
     1
 10
103.9216282902631
 20
-145.5102611601828
 11
103.9216282902631
 21
-145.0209607079668
 72
     1
 10
103.9216282902631
 20
-145.0209607079668
 11
107.2335062394677
 21
-145.0209607079668
 72
     1
 10
107.2335062394677
 20
-145.0209607079668
 11
107.2335062394677
 21
-145.5102611601828
 97
        0
 75
     2
 76
     1
 98
        0
  0
POLYLINE
  5
107
330
1F
100
AcDbEntity
  8
_U+30EC_U+30A4_U+30E4_U+30FC 1
 62
   179
420
  2234388
370
    18
100
AcDb2dPolyline
 66
     1
 10
0.0
 20
0.0
 30
0.0
  0
VERTEX
  5
108
330
107
100
AcDbEntity
  8
_U+30EC_U+30A4_U+30E4_U+30FC 1
 62
   179
420
  2234388
370
    18
100
AcDbVertex
100
AcDb2dVertex
 10
107.2334416439273
 20
-145.5104011171869
 30
0.0
  0
VERTEX
  5
109
330
107
100
AcDbEntity
  8
_U+30EC_U+30A4_U+30E4_U+30FC 1
 62
   179
420
  2234388
370
    18
100
AcDbVertex
100
AcDb2dVertex
 10
103.9215636947227
 20
-145.5104011171869
 30
0.0
  0
VERTEX
  5
10A
330
107
100
AcDbEntity
  8
_U+30EC_U+30A4_U+30E4_U+30FC 1
 62
   179
420
  2234388
370
    18
100
AcDbVertex
100
AcDb2dVertex
 10
103.9215636947227
 20
-145.0211006649709
 30
0.0
  0
VERTEX
  5
10B
330
107
100
AcDbEntity
  8
_U+30EC_U+30A4_U+30E4_U+30FC 1
 62
   179
420
  2234388
370
    18
100
AcDbVertex
100
AcDb2dVertex
 10
107.2334416439273
 20
-145.0211006649709
 30
0.0
  0
VERTEX
  5
10C
330
107
100
AcDbEntity
  8
_U+30EC_U+30A4_U+30E4_U+30FC 1
 62
   179
420
  2234388
370
    18
100
AcDbVertex
100
AcDb2dVertex
 10
107.2334416439273
 20
-145.5104011171869
 30
0.0
  0
SEQEND
  5
10D
330
107
100
AcDbEntity
  8
_U+30EC_U+30A4_U+30E4_U+30FC 1
 62
   179
420
  2234388
370
    18
  0
SPLINE
  5
10E
330
1F
100
AcDbEntity
  8
_U+30EC_U+30A4_U+30E4_U+30FC 1
370
     0
100
AcDbSpline
210
0.0
220
0.0
230
1.0
 70
    11
 71
     3
 72
    17
 73
    13
 74
     0
 42
0.0000000001
 43
0.0000000001
 12
1.0
 22
0.0
 32
0.0
 13
1.0
 23
0.0
 33
0.0
 40
0.0
 40
0.0
 40
0.0
 40
0.0
 40
1.0
 40
1.0
 40
1.0
 40
2.0
 40
2.0
 40
2.0
 40
3.0
 40
3.0
 40
3.0
 40
4.0
 40
4.0
 40
4.0
 40
4.0
 10
83.68421154049388
 20
-134.2873350867353
 30
0.0
 10
83.79462685079613
 20
-134.2873350867353
 30
0.0
 10
83.8838763557109
 20
-134.1977303063486
 30
0.0
 10
83.8838763557109
 20
-134.0876702715182
 30
0.0
 10
83.8838763557109
 20
-133.9772441952926
 30
0.0
 10
83.79462685079613
 20
-133.8869396298855
 30
0.0
 10
83.68421154049388
 20
-133.8869396298855
 30
0.0
 10
83.57378546426823
 20
-133.8869396298855
 30
0.0
 10
83.48453595935348
 20
-133.9772441952926
 30
0.0
 10
83.48453595935348
 20
-134.0876702715182
 30
0.0
 10
83.48453595935348
 20
-134.1977303063486
 30
0.0
 10
83.57378546426823
 20
-134.2873350867353
 30
0.0
 10
83.68421154049388
 20
-134.2873350867353
 30
0.0
  0
HATCH
  5
10F
330
1F
100
AcDbEntity
  8
_U+30EC_U+30A4_U+30E4_U+30FC 1
 62
   179
420
  2234388
100
AcDbHatch
 10
0.0
 20
0.0
 30
0.0
210
0.0
220
0.0
230
1.0
  2
SOLID
 70
     1
 71
     0
 91
        1
 92
        1
 93
        2
 72
     4
 94
        3
 73
     0
 74
     0
 95
       17
 96
       13
 40
0.0
 40
0.0
 40
0.0
 40
0.0
 40
0.3527777776895833
 40
0.3527777776895833
 40
0.3527777776895833
 40
0.7055555553791667
 40
0.7055555553791667
 40
0.7055555553791667
 40
1.05833333306875
 40
1.05833333306875
 40
1.05833333306875
 40
1.411111110758333
 40
1.411111110758333
 40
1.411111110758333
 40
1.411111110758333
 10
83.68421154049388
 20
-134.2873350867353
 10
83.79462685079613
 20
-134.2873350867353
 10
83.8838763557109
 20
-134.1977303063486
 10
83.8838763557109
 20
-134.0876702715182
 10
83.8838763557109
 20
-133.9772441952926
 10
83.79462685079613
 20
-133.8869396298855
 10
83.68421154049388
 20
-133.8869396298855
 10
83.57378546426823
 20
-133.8869396298855
 10
83.48453595935348
 20
-133.9772441952926
 10
83.48453595935348
 20
-134.0876702715182
 10
83.48453595935348
 20
-134.1977303063486
 10
83.57378546426823
 20
-134.2873350867353
 10
83.68421154049388
 20
-134.2873350867353
 97
        0
 72
     1
 10
83.68421154049388
 20
-134.2873350867353
 11
83.68421154049388
 21
-134.2873350867353
 97
        0
 75
     2
 76
     1
 98
        0
  0
SPLINE
  5
110
330
1F
100
AcDbEntity
  8
_U+30EC_U+30A4_U+30E4_U+30FC 1
370
     0
100
AcDbSpline
210
0.0
220
0.0
230
1.0
 70
    11
 71
     3
 72
    17
 73
    13
 74
     0
 42
0.0000000001
 43
0.0000000001
 12
1.0
 22
0.0
 32
0.0
 13
1.0
 23
0.0
 33
0.0
 40
0.0
 40
0.0
 40
0.0
 40
0.0
 40
1.0
 40
1.0
 40
1.0
 40
2.0
 40
2.0
 40
2.0
 40
3.0
 40
3.0
 40
3.0
 40
4.0
 40
4.0
 40
4.0
 40
4.0
 10
115.6850360157294
 20
-134.2873350867353
 30
0.0
 10
115.7954513260316
 20
-134.2873350867353
 30
0.0
 10
115.8847008309464
 20
-134.1977303063486
 30
0.0
 10
115.8847008309464
 20
-134.0876702715182
 30
0.0
 10
115.8847008309464
 20
-133.9772441952926
 30
0.0
 10
115.7954513260316
 20
-133.8869396298855
 30
0.0
 10
115.6850360157294
 20
-133.8869396298855
 30
0.0
 10
115.5746099395037
 20
-133.8869396298855
 30
0.0
 10
115.485360434589
 20
-133.9772441952926
 30
0.0
 10
115.485360434589
 20
-134.0876702715182
 30
0.0
 10
115.485360434589
 20
-134.1977303063486
 30
0.0
 10
115.5746099395037
 20
-134.2873350867353
 30
0.0
 10
115.6850360157294
 20
-134.2873350867353
 30
0.0
  0
HATCH
  5
111
330
1F
100
AcDbEntity
  8
_U+30EC_U+30A4_U+30E4_U+30FC 1
 62
   179
420
  2234388
100
AcDbHatch
 10
0.0
 20
0.0
 30
0.0
210
0.0
220
0.0
230
1.0
  2
SOLID
 70
     1
 71
     0
 91
        1
 92
        1
 93
        2
 72
     4
 94
        3
 73
     0
 74
     0
 95
       17
 96
       13
 40
0.0
 40
0.0
 40
0.0
 40
0.0
 40
0.3527777776895833
 40
0.3527777776895833
 40
0.3527777776895833
 40
0.7055555553791667
 40
0.7055555553791667
 40
0.7055555553791667
 40
1.05833333306875
 40
1.05833333306875
 40
1.05833333306875
 40
1.411111110758333
 40
1.411111110758333
 40
1.411111110758333
 40
1.411111110758333
 10
115.6850360157294
 20
-134.2873350867353
 10
115.7954513260316
 20
-134.2873350867353
 10
115.8847008309464
 20
-134.1977303063486
 10
115.8847008309464
 20
-134.0876702715182
 10
115.8847008309464
 20
-133.9772441952926
 10
115.7954513260316
 20
-133.8869396298855
 10
115.6850360157294
 20
-133.8869396298855
 10
115.5746099395037
 20
-133.8869396298855
 10
115.485360434589
 20
-133.9772441952926
 10
115.485360434589
 20
-134.0876702715182
 10
115.485360434589
 20
-134.1977303063486
 10
115.5746099395037
 20
-134.2873350867353
 10
115.6850360157294
 20
-134.2873350867353
 97
        0
 72
     1
 10
115.6850360157294
 20
-134.2873350867353
 11
115.6850360157294
 21
-134.2873350867353
 97
        0
 75
     2
 76
     1
 98
        0
  0
SPLINE
  5
112
330
1F
100
AcDbEntity
  8
_U+30EC_U+30A4_U+30E4_U+30FC 1
370
     0
100
AcDbSpline
210
0.0
220
0.0
230
1.0
 70
    11
 71
     3
 72
    17
 73
    13
 74
     0
 42
0.0000000001
 43
0.0000000001
 12
1.0
 22
0.0
 32
0.0
 13
1.0
 23
0.0
 33
0.0
 40
0.0
 40
0.0
 40
0.0
 40
0.0
 40
1.0
 40
1.0
 40
1.0
 40
2.0
 40
2.0
 40
2.0
 40
3.0
 40
3.0
 40
3.0
 40
4.0
 40
4.0
 40
4.0
 40
4.0
 10
105.7025273376694
 20
-139.2213900747867
 30
0.0
 10
105.8129426479717
 20
-139.2213900747867
 30
0.0
 10
105.9021921528864
 20
-139.1317852944
 30
0.0
 10
105.9021921528864
 20
-139.0217252595696
 30
0.0
 10
105.9021921528864
 20
-138.911299183344
 30
0.0
 10
105.8129426479717
 20
-138.8209946179369
 30
0.0
 10
105.7025273376694
 20
-138.8209946179369
 30
0.0
 10
105.5921012614438
 20
-138.8209946179369
 30
0.0
 10
105.502851756529
 20
-138.911299183344
 30
0.0
 10
105.502851756529
 20
-139.0217252595696
 30
0.0
 10
105.502851756529
 20
-139.1317852944
 30
0.0
 10
105.5921012614438
 20
-139.2213900747867
 30
0.0
 10
105.7025273376694
 20
-139.2213900747867
 30
0.0
  0
HATCH
  5
113
330
1F
100
AcDbEntity
  8
_U+30EC_U+30A4_U+30E4_U+30FC 1
 62
   179
420
  2234388
100
AcDbHatch
 10
0.0
 20
0.0
 30
0.0
210
0.0
220
0.0
230
1.0
  2
SOLID
 70
     1
 71
     0
 91
        1
 92
        1
 93
        2
 72
     4
 94
        3
 73
     0
 74
     0
 95
       17
 96
       13
 40
0.0
 40
0.0
 40
0.0
 40
0.0
 40
0.3527777776895833
 40
0.3527777776895833
 40
0.3527777776895833
 40
0.7055555553791667
 40
0.7055555553791667
 40
0.7055555553791667
 40
1.05833333306875
 40
1.05833333306875
 40
1.05833333306875
 40
1.411111110758333
 40
1.411111110758333
 40
1.411111110758333
 40
1.411111110758333
 10
105.7025273376694
 20
-139.2213900747867
 10
105.8129426479717
 20
-139.2213900747867
 10
105.9021921528864
 20
-139.1317852944
 10
105.9021921528864
 20
-139.0217252595696
 10
105.9021921528864
 20
-138.911299183344
 10
105.8129426479717
 20
-138.8209946179369
 10
105.7025273376694
 20
-138.8209946179369
 10
105.5921012614438
 20
-138.8209946179369
 10
105.502851756529
 20
-138.911299183344
 10
105.502851756529
 20
-139.0217252595696
 10
105.502851756529
 20
-139.1317852944
 10
105.5921012614438
 20
-139.2213900747867
 10
105.7025273376694
 20
-139.2213900747867
 97
        0
 72
     1
 10
105.7025273376694
 20
-139.2213900747867
 11
105.7025273376694
 21
-139.2213900747867
 97
        0
 75
     2
 76
     1
 98
        0
  0
SPLINE
  5
114
330
1F
100
AcDbEntity
  8
_U+30EC_U+30A4_U+30E4_U+30FC 1
370
     0
100
AcDbSpline
210
0.0
220
0.0
230
1.0
 70
    11
 71
     3
 72
    17
 73
    13
 74
     0
 42
0.0000000001
 43
0.0000000001
 12
1.0
 22
0.0
 32
0.0
 13
1.0
 23
0.0
 33
0.0
 40
0.0
 40
0.0
 40
0.0
 40
0.0
 40
1.0
 40
1.0
 40
1.0
 40
2.0
 40
2.0
 40
2.0
 40
3.0
 40
3.0
 40
3.0
 40
4.0
 40
4.0
 40
4.0
 40
4.0
 10
121.6850466106106
 20
-145.2208731394218
 30
0.0
 10
121.7954619209129
 20
-145.2208731394218
 30
0.0
 10
121.8847114258277
 20
-145.1312683590351
 30
0.0
 10
121.8847114258277
 20
-145.0212083242048
 30
0.0
 10
121.8847114258277
 20
-144.9107822479791
 30
0.0
 10
121.7954619209129
 20
-144.8211774675928
 30
0.0
 10
121.6850466106106
 20
-144.8211774675928
 30
0.0
 10
121.574620534385
 20
-144.8211774675928
 30
0.0
 10
121.4853710294702
 20
-144.9107822479791
 30
0.0
 10
121.4853710294702
 20
-145.0212083242048
 30
0.0
 10
121.4853710294702
 20
-145.1312683590351
 30
0.0
 10
121.574620534385
 20
-145.2208731394218
 30
0.0
 10
121.6850466106106
 20
-145.2208731394218
 30
0.0
  0
HATCH
  5
115
330
1F
100
AcDbEntity
  8
_U+30EC_U+30A4_U+30E4_U+30FC 1
 62
   179
420
  2234388
100
AcDbHatch
 10
0.0
 20
0.0
 30
0.0
210
0.0
220
0.0
230
1.0
  2
SOLID
 70
     1
 71
     0
 91
        1
 92
        1
 93
        2
 72
     4
 94
        3
 73
     0
 74
     0
 95
       17
 96
       13
 40
0.0
 40
0.0
 40
0.0
 40
0.0
 40
0.3527777776895833
 40
0.3527777776895833
 40
0.3527777776895833
 40
0.7055555553791667
 40
0.7055555553791667
 40
0.7055555553791667
 40
1.05833333306875
 40
1.05833333306875
 40
1.05833333306875
 40
1.411111110758333
 40
1.411111110758333
 40
1.411111110758333
 40
1.411111110758333
 10
121.6850466106106
 20
-145.2208731394218
 10
121.7954619209129
 20
-145.2208731394218
 10
121.8847114258277
 20
-145.1312683590351
 10
121.8847114258277
 20
-145.0212083242048
 10
121.8847114258277
 20
-144.9107822479791
 10
121.7954619209129
 20
-144.8211774675928
 10
121.6850466106106
 20
-144.8211774675928
 10
121.574620534385
 20
-144.8211774675928
 10
121.4853710294702
 20
-144.9107822479791
 10
121.4853710294702
 20
-145.0212083242048
 10
121.4853710294702
 20
-145.1312683590351
 10
121.574620534385
 20
-145.2208731394218
 10
121.6850466106106
 20
-145.2208731394218
 97
        0
 72
     1
 10
121.6850466106106
 20
-145.2208731394218
 11
121.6850466106106
 21
-145.2208731394218
 97
        0
 75
     2
 76
     1
 98
        0
  0
SPLINE
  5
116
330
1F
100
AcDbEntity
  8
_U+30EC_U+30A4_U+30E4_U+30FC 1
370
     0
100
AcDbSpline
210
0.0
220
0.0
230
1.0
 70
    11
 71
     3
 72
    17
 73
    13
 74
     0
 42
0.0000000001
 43
0.0000000001
 12
1.0
 22
0.0
 32
0.0
 13
1.0
 23
0.0
 33
0.0
 40
0.0
 40
0.0
 40
0.0
 40
0.0
 40
1.0
 40
1.0
 40
1.0
 40
2.0
 40
2.0
 40
2.0
 40
3.0
 40
3.0
 40
3.0
 40
4.0
 40
4.0
 40
4.0
 40
4.0
 10
121.6850466106106
 20
-148.4054655763698
 30
0.0
 10
121.7954619209129
 20
-148.4054655763698
 30
0.0
 10
121.8847114258277
 20
-148.3158607959831
 30
0.0
 10
121.8847114258277
 20
-148.2043904251885
 30
0.0
 10
121.8847114258277
 20
-148.0939643489629
 30
0.0
 10
121.7954619209129
 20
-148.0043595685765
 30
0.0
 10
121.6850466106106
 20
-148.0043595685765
 30
0.0
 10
121.574620534385
 20
-148.0043595685765
 30
0.0
 10
121.4853710294702
 20
-148.0939643489629
 30
0.0
 10
121.4853710294702
 20
-148.2043904251885
 30
0.0
 10
121.4853710294702
 20
-148.3158607959831
 30
0.0
 10
121.574620534385
 20
-148.4054655763698
 30
0.0
 10
121.6850466106106
 20
-148.4054655763698
 30
0.0
  0
HATCH
  5
117
330
1F
100
AcDbEntity
  8
_U+30EC_U+30A4_U+30E4_U+30FC 1
 62
   179
420
  2234388
100
AcDbHatch
 10
0.0
 20
0.0
 30
0.0
210
0.0
220
0.0
230
1.0
  2
SOLID
 70
     1
 71
     0
 91
        1
 92
        1
 93
        2
 72
     4
 94
        3
 73
     0
 74
     0
 95
       17
 96
       13
 40
0.0
 40
0.0
 40
0.0
 40
0.0
 40
0.3527777776895833
 40
0.3527777776895833
 40
0.3527777776895833
 40
0.7055555553791667
 40
0.7055555553791667
 40
0.7055555553791667
 40
1.05833333306875
 40
1.05833333306875
 40
1.05833333306875
 40
1.411111110758333
 40
1.411111110758333
 40
1.411111110758333
 40
1.411111110758333
 10
121.6850466106106
 20
-148.4054655763698
 10
121.7954619209129
 20
-148.4054655763698
 10
121.8847114258277
 20
-148.3158607959831
 10
121.8847114258277
 20
-148.2043904251885
 10
121.8847114258277
 20
-148.0939643489629
 10
121.7954619209129
 20
-148.0043595685765
 10
121.6850466106106
 20
-148.0043595685765
 10
121.574620534385
 20
-148.0043595685765
 10
121.4853710294702
 20
-148.0939643489629
 10
121.4853710294702
 20
-148.2043904251885
 10
121.4853710294702
 20
-148.3158607959831
 10
121.574620534385
 20
-148.4054655763698
 10
121.6850466106106
 20
-148.4054655763698
 97
        0
 72
     1
 10
121.6850466106106
 20
-148.4054655763698
 11
121.6850466106106
 21
-148.4054655763698
 97
        0
 75
     2
 76
     1
 98
        0
  0
SPLINE
  5
118
330
1F
100
AcDbEntity
  8
_U+30EC_U+30A4_U+30E4_U+30FC 1
370
     0
100
AcDbSpline
210
0.0
220
0.0
230
1.0
 70
    11
 71
     3
 72
    17
 73
    13
 74
     0
 42
0.0000000001
 43
0.0000000001
 12
1.0
 22
0.0
 32
0.0
 13
1.0
 23
0.0
 33
0.0
 40
0.0
 40
0.0
 40
0.0
 40
0.0
 40
1.0
 40
1.0
 40
1.0
 40
2.0
 40
2.0
 40
2.0
 40
3.0
 40
3.0
 40
3.0
 40
4.0
 40
4.0
 40
4.0
 40
4.0
 10
121.6850466106106
 20
-158.4207564911565
 30
0.0
 10
121.7954619209129
 20
-158.4207564911565
 30
0.0
 10
121.8847114258277
 20
-158.3311517107699
 30
0.0
 10
121.8847114258277
 20
-158.2210916759395
 30
0.0
 10
121.8847114258277
 20
-158.1106655997139
 30
0.0
 10
121.7954619209129
 20
-158.0210608193272
 30
0.0
 10
121.6850466106106
 20
-158.0210608193272
 30
0.0
 10
121.574620534385
 20
-158.0210608193272
 30
0.0
 10
121.4853710294702
 20
-158.1106655997139
 30
0.0
 10
121.4853710294702
 20
-158.2210916759395
 30
0.0
 10
121.4853710294702
 20
-158.3311517107699
 30
0.0
 10
121.574620534385
 20
-158.4207564911565
 30
0.0
 10
121.6850466106106
 20
-158.4207564911565
 30
0.0
  0
HATCH
  5
119
330
1F
100
AcDbEntity
  8
_U+30EC_U+30A4_U+30E4_U+30FC 1
 62
   179
420
  2234388
100
AcDbHatch
 10
0.0
 20
0.0
 30
0.0
210
0.0
220
0.0
230
1.0
  2
SOLID
 70
     1
 71
     0
 91
        1
 92
        1
 93
        2
 72
     4
 94
        3
 73
     0
 74
     0
 95
       17
 96
       13
 40
0.0
 40
0.0
 40
0.0
 40
0.0
 40
0.3527777776895833
 40
0.3527777776895833
 40
0.3527777776895833
 40
0.7055555553791667
 40
0.7055555553791667
 40
0.7055555553791667
 40
1.05833333306875
 40
1.05833333306875
 40
1.05833333306875
 40
1.411111110758333
 40
1.411111110758333
 40
1.411111110758333
 40
1.411111110758333
 10
121.6850466106106
 20
-158.4207564911565
 10
121.7954619209129
 20
-158.4207564911565
 10
121.8847114258277
 20
-158.3311517107699
 10
121.8847114258277
 20
-158.2210916759395
 10
121.8847114258277
 20
-158.1106655997139
 10
121.7954619209129
 20
-158.0210608193272
 10
121.6850466106106
 20
-158.0210608193272
 10
121.574620534385
 20
-158.0210608193272
 10
121.4853710294702
 20
-158.1106655997139
 10
121.4853710294702
 20
-158.2210916759395
 10
121.4853710294702
 20
-158.3311517107699
 10
121.574620534385
 20
-158.4207564911565
 10
121.6850466106106
 20
-158.4207564911565
 97
        0
 72
     1
 10
121.6850466106106
 20
-158.4207564911565
 11
121.6850466106106
 21
-158.4207564911565
 97
        0
 75
     2
 76
     1
 98
        0
  0
SPLINE
  5
11A
330
1F
100
AcDbEntity
  8
_U+30EC_U+30A4_U+30E4_U+30FC 1
370
     0
100
AcDbSpline
210
0.0
220
0.0
230
1.0
 70
    11
 71
     3
 72
    17
 73
    13
 74
     0
 42
0.0000000001
 43
0.0000000001
 12
1.0
 22
0.0
 32
0.0
 13
1.0
 23
0.0
 33
0.0
 40
0.0
 40
0.0
 40
0.0
 40
0.0
 40
1.0
 40
1.0
 40
1.0
 40
2.0
 40
2.0
 40
2.0
 40
3.0
 40
3.0
 40
3.0
 40
4.0
 40
4.0
 40
4.0
 40
4.0
 10
126.6859149192291
 20
-158.4207564911565
 30
0.0
 10
126.7963302295314
 20
-158.4207564911565
 30
0.0
 10
126.8855797344461
 20
-158.3311517107699
 30
0.0
 10
126.8855797344461
 20
-158.2210916759395
 30
0.0
 10
126.8855797344461
 20
-158.1106655997139
 30
0.0
 10
126.7963302295314
 20
-158.0210608193272
 30
0.0
 10
126.6859149192291
 20
-158.0210608193272
 30
0.0
 10
126.5754780770801
 20
-158.0210608193272
 30
0.0
 10
126.4862285721653
 20
-158.1106655997139
 30
0.0
 10
126.4862285721653
 20
-158.2210916759395
 30
0.0
 10
126.4862285721653
 20
-158.3311517107699
 30
0.0
 10
126.5754780770801
 20
-158.4207564911565
 30
0.0
 10
126.6859149192291
 20
-158.4207564911565
 30
0.0
  0
HATCH
  5
11B
330
1F
100
AcDbEntity
  8
_U+30EC_U+30A4_U+30E4_U+30FC 1
 62
   179
420
  2234388
100
AcDbHatch
 10
0.0
 20
0.0
 30
0.0
210
0.0
220
0.0
230
1.0
  2
SOLID
 70
     1
 71
     0
 91
        1
 92
        1
 93
        2
 72
     4
 94
        3
 73
     0
 74
     0
 95
       17
 96
       13
 40
0.0
 40
0.0
 40
0.0
 40
0.0
 40
0.3527777776895833
 40
0.3527777776895833
 40
0.3527777776895833
 40
0.7055555553791667
 40
0.7055555553791667
 40
0.7055555553791667
 40
1.05833333306875
 40
1.05833333306875
 40
1.05833333306875
 40
1.411111110758333
 40
1.411111110758333
 40
1.411111110758333
 40
1.411111110758333
 10
126.6859149192291
 20
-158.4207564911565
 10
126.7963302295314
 20
-158.4207564911565
 10
126.8855797344461
 20
-158.3311517107699
 10
126.8855797344461
 20
-158.2210916759395
 10
126.8855797344461
 20
-158.1106655997139
 10
126.7963302295314
 20
-158.0210608193272
 10
126.6859149192291
 20
-158.0210608193272
 10
126.5754780770801
 20
-158.0210608193272
 10
126.4862285721653
 20
-158.1106655997139
 10
126.4862285721653
 20
-158.2210916759395
 10
126.4862285721653
 20
-158.3311517107699
 10
126.5754780770801
 20
-158.4207564911565
 10
126.6859149192291
 20
-158.4207564911565
 97
        0
 72
     1
 10
126.6859149192291
 20
-158.4207564911565
 11
126.6859149192291
 21
-158.4207564911565
 97
        0
 75
     2
 76
     1
 98
        0
  0
SPLINE
  5
11C
330
1F
100
AcDbEntity
  8
_U+30EC_U+30A4_U+30E4_U+30FC 1
370
     0
100
AcDbSpline
210
0.0
220
0.0
230
1.0
 70
    11
 71
     3
 72
    17
 73
    13
 74
     0
 42
0.0000000001
 43
0.0000000001
 12
1.0
 22
0.0
 32
0.0
 13
1.0
 23
0.0
 33
0.0
 40
0.0
 40
0.0
 40
0.0
 40
0.0
 40
1.0
 40
1.0
 40
1.0
 40
2.0
 40
2.0
 40
2.0
 40
3.0
 40
3.0
 40
3.0
 40
4.0
 40
4.0
 40
4.0
 40
4.0
 10
115.6823230030347
 20
-163.9208083696643
 30
0.0
 10
115.792738313337
 20
-163.9208083696643
 30
0.0
 10
115.8819878182517
 20
-163.8312035892777
 30
0.0
 10
115.8819878182517
 20
-163.7211435544473
 30
0.0
 10
115.8819878182517
 20
-163.6107174782217
 30
0.0
 10
115.792738313337
 20
-163.521112697835
 30
0.0
 10
115.6823230030347
 20
-163.521112697835
 30
0.0
 10
115.5718969268091
 20
-163.521112697835
 30
0.0
 10
115.4826474218943
 20
-163.6107174782217
 30
0.0
 10
115.4826474218943
 20
-163.7211435544473
 30
0.0
 10
115.4826474218943
 20
-163.8312035892777
 30
0.0
 10
115.5718969268091
 20
-163.9208083696643
 30
0.0
 10
115.6823230030347
 20
-163.9208083696643
 30
0.0
  0
HATCH
  5
11D
330
1F
100
AcDbEntity
  8
_U+30EC_U+30A4_U+30E4_U+30FC 1
 62
   179
420
  2234388
100
AcDbHatch
 10
0.0
 20
0.0
 30
0.0
210
0.0
220
0.0
230
1.0
  2
SOLID
 70
     1
 71
     0
 91
        1
 92
        1
 93
        2
 72
     4
 94
        3
 73
     0
 74
     0
 95
       17
 96
       13
 40
0.0
 40
0.0
 40
0.0
 40
0.0
 40
0.3527777776895833
 40
0.3527777776895833
 40
0.3527777776895833
 40
0.7055555553791667
 40
0.7055555553791667
 40
0.7055555553791667
 40
1.05833333306875
 40
1.05833333306875
 40
1.05833333306875
 40
1.411111110758333
 40
1.411111110758333
 40
1.411111110758333
 40
1.411111110758333
 10
115.6823230030347
 20
-163.9208083696643
 10
115.792738313337
 20
-163.9208083696643
 10
115.8819878182517
 20
-163.8312035892777
 10
115.8819878182517
 20
-163.7211435544473
 10
115.8819878182517
 20
-163.6107174782217
 10
115.792738313337
 20
-163.521112697835
 10
115.6823230030347
 20
-163.521112697835
 10
115.5718969268091
 20
-163.521112697835
 10
115.4826474218943
 20
-163.6107174782217
 10
115.4826474218943
 20
-163.7211435544473
 10
115.4826474218943
 20
-163.8312035892777
 10
115.5718969268091
 20
-163.9208083696643
 10
115.6823230030347
 20
-163.9208083696643
 97
        0
 72
     1
 10
115.6823230030347
 20
-163.9208083696643
 11
115.6823230030347
 21
-163.9208083696643
 97
        0
 75
     2
 76
     1
 98
        0
  0
SPLINE
  5
11E
330
1F
100
AcDbEntity
  8
_U+30EC_U+30A4_U+30E4_U+30FC 1
370
     0
100
AcDbSpline
210
0.0
220
0.0
230
1.0
 70
    11
 71
     3
 72
    17
 73
    13
 74
     0
 42
0.0000000001
 43
0.0000000001
 12
1.0
 22
0.0
 32
0.0
 13
1.0
 23
0.0
 33
0.0
 40
0.0
 40
0.0
 40
0.0
 40
0.0
 40
1.0
 40
1.0
 40
1.0
 40
2.0
 40
2.0
 40
2.0
 40
3.0
 40
3.0
 40
3.0
 40
4.0
 40
4.0
 40
4.0
 40
4.0
 10
107.1039706492223
 20
-163.9208083696643
 30
0.0
 10
107.2143859595245
 20
-163.9208083696643
 30
0.0
 10
107.3036354644393
 20
-163.8312035892777
 30
0.0
 10
107.3036354644393
 20
-163.7211435544473
 30
0.0
 10
107.3036354644393
 20
-163.6107174782217
 30
0.0
 10
107.2143859595245
 20
-163.521112697835
 30
0.0
 10
107.1039706492223
 20
-163.521112697835
 30
0.0
 10
106.9935445729966
 20
-163.521112697835
 30
0.0
 10
106.9042950680819
 20
-163.6107174782217
 30
0.0
 10
106.9042950680819
 20
-163.7211435544473
 30
0.0
 10
106.9042950680819
 20
-163.8312035892777
 30
0.0
 10
106.9935445729966
 20
-163.9208083696643
 30
0.0
 10
107.1039706492223
 20
-163.9208083696643
 30
0.0
  0
HATCH
  5
11F
330
1F
100
AcDbEntity
  8
_U+30EC_U+30A4_U+30E4_U+30FC 1
 62
   179
420
  2234388
100
AcDbHatch
 10
0.0
 20
0.0
 30
0.0
210
0.0
220
0.0
230
1.0
  2
SOLID
 70
     1
 71
     0
 91
        1
 92
        1
 93
        2
 72
     4
 94
        3
 73
     0
 74
     0
 95
       17
 96
       13
 40
0.0
 40
0.0
 40
0.0
 40
0.0
 40
0.3527777776895833
 40
0.3527777776895833
 40
0.3527777776895833
 40
0.7055555553791667
 40
0.7055555553791667
 40
0.7055555553791667
 40
1.05833333306875
 40
1.05833333306875
 40
1.05833333306875
 40
1.411111110758333
 40
1.411111110758333
 40
1.411111110758333
 40
1.411111110758333
 10
107.1039706492223
 20
-163.9208083696643
 10
107.2143859595245
 20
-163.9208083696643
 10
107.3036354644393
 20
-163.8312035892777
 10
107.3036354644393
 20
-163.7211435544473
 10
107.3036354644393
 20
-163.6107174782217
 10
107.2143859595245
 20
-163.521112697835
 10
107.1039706492223
 20
-163.521112697835
 10
106.9935445729966
 20
-163.521112697835
 10
106.9042950680819
 20
-163.6107174782217
 10
106.9042950680819
 20
-163.7211435544473
 10
106.9042950680819
 20
-163.8312035892777
 10
106.9935445729966
 20
-163.9208083696643
 10
107.1039706492223
 20
-163.9208083696643
 97
        0
 72
     1
 10
107.1039706492223
 20
-163.9208083696643
 11
107.1039706492223
 21
-163.9208083696643
 97
        0
 75
     2
 76
     1
 98
        0
  0
SPLINE
  5
120
330
1F
100
AcDbEntity
  8
_U+30EC_U+30A4_U+30E4_U+30FC 1
370
     0
100
AcDbSpline
210
0.0
220
0.0
230
1.0
 70
    11
 71
     3
 72
    17
 73
    13
 74
     0
 42
0.0000000001
 43
0.0000000001
 12
1.0
 22
0.0
 32
0.0
 13
1.0
 23
0.0
 33
0.0
 40
0.0
 40
0.0
 40
0.0
 40
0.0
 40
1.0
 40
1.0
 40
1.0
 40
2.0
 40
2.0
 40
2.0
 40
3.0
 40
3.0
 40
3.0
 40
4.0
 40
4.0
 40
4.0
 40
4.0
 10
92.02137491256866
 20
-163.9208083696643
 30
0.0
 10
92.13179022287092
 20
-163.9208083696643
 30
0.0
 10
92.22103972778568
 20
-163.8312035892777
 30
0.0
 10
92.22103972778568
 20
-163.7211435544473
 30
0.0
 10
92.22103972778568
 20
-163.6107174782217
 30
0.0
 10
92.13179022287092
 20
-163.521112697835
 30
0.0
 10
92.02137491256866
 20
-163.521112697835
 30
0.0
 10
91.91094883634301
 20
-163.521112697835
 30
0.0
 10
91.82169933142826
 20
-163.6107174782217
 30
0.0
 10
91.82169933142826
 20
-163.7211435544473
 30
0.0
 10
91.82169933142826
 20
-163.8312035892777
 30
0.0
 10
91.91094883634301
 20
-163.9208083696643
 30
0.0
 10
92.02137491256866
 20
-163.9208083696643
 30
0.0
  0
HATCH
  5
121
330
1F
100
AcDbEntity
  8
_U+30EC_U+30A4_U+30E4_U+30FC 1
 62
   179
420
  2234388
100
AcDbHatch
 10
0.0
 20
0.0
 30
0.0
210
0.0
220
0.0
230
1.0
  2
SOLID
 70
     1
 71
     0
 91
        1
 92
        1
 93
        2
 72
     4
 94
        3
 73
     0
 74
     0
 95
       17
 96
       13
 40
0.0
 40
0.0
 40
0.0
 40
0.0
 40
0.3527777776895833
 40
0.3527777776895833
 40
0.3527777776895833
 40
0.7055555553791667
 40
0.7055555553791667
 40
0.7055555553791667
 40
1.05833333306875
 40
1.05833333306875
 40
1.05833333306875
 40
1.411111110758333
 40
1.411111110758333
 40
1.411111110758333
 40
1.411111110758333
 10
92.02137491256866
 20
-163.9208083696643
 10
92.13179022287092
 20
-163.9208083696643
 10
92.22103972778568
 20
-163.8312035892777
 10
92.22103972778568
 20
-163.7211435544473
 10
92.22103972778568
 20
-163.6107174782217
 10
92.13179022287092
 20
-163.521112697835
 10
92.02137491256866
 20
-163.521112697835
 10
91.91094883634301
 20
-163.521112697835
 10
91.82169933142826
 20
-163.6107174782217
 10
91.82169933142826
 20
-163.7211435544473
 10
91.82169933142826
 20
-163.8312035892777
 10
91.91094883634301
 20
-163.9208083696643
 10
92.02137491256866
 20
-163.9208083696643
 97
        0
 72
     1
 10
92.02137491256866
 20
-163.9208083696643
 11
92.02137491256866
 21
-163.9208083696643
 97
        0
 75
     2
 76
     1
 98
        0
  0
SPLINE
  5
122
330
1F
100
AcDbEntity
  8
_U+30EC_U+30A4_U+30E4_U+30FC 1
370
     0
100
AcDbSpline
210
0.0
220
0.0
230
1.0
 70
    11
 71
     3
 72
    17
 73
    13
 74
     0
 42
0.0000000001
 43
0.0000000001
 12
1.0
 22
0.0
 32
0.0
 13
1.0
 23
0.0
 33
0.0
 40
0.0
 40
0.0
 40
0.0
 40
0.0
 40
1.0
 40
1.0
 40
1.0
 40
2.0
 40
2.0
 40
2.0
 40
3.0
 40
3.0
 40
3.0
 40
4.0
 40
4.0
 40
4.0
 40
4.0
 10
83.68421154049388
 20
-163.9208083696643
 30
0.0
 10
83.79462685079613
 20
-163.9208083696643
 30
0.0
 10
83.8838763557109
 20
-163.8312035892777
 30
0.0
 10
83.8838763557109
 20
-163.7211435544473
 30
0.0
 10
83.8838763557109
 20
-163.6107174782217
 30
0.0
 10
83.79462685079613
 20
-163.521112697835
 30
0.0
 10
83.68421154049388
 20
-163.521112697835
 30
0.0
 10
83.57378546426823
 20
-163.521112697835
 30
0.0
 10
83.48453595935348
 20
-163.6107174782217
 30
0.0
 10
83.48453595935348
 20
-163.7211435544473
 30
0.0
 10
83.48453595935348
 20
-163.8312035892777
 30
0.0
 10
83.57378546426823
 20
-163.9208083696643
 30
0.0
 10
83.68421154049388
 20
-163.9208083696643
 30
0.0
  0
HATCH
  5
123
330
1F
100
AcDbEntity
  8
_U+30EC_U+30A4_U+30E4_U+30FC 1
 62
   179
420
  2234388
100
AcDbHatch
 10
0.0
 20
0.0
 30
0.0
210
0.0
220
0.0
230
1.0
  2
SOLID
 70
     1
 71
     0
 91
        1
 92
        1
 93
        2
 72
     4
 94
        3
 73
     0
 74
     0
 95
       17
 96
       13
 40
0.0
 40
0.0
 40
0.0
 40
0.0
 40
0.3527777776895833
 40
0.3527777776895833
 40
0.3527777776895833
 40
0.7055555553791667
 40
0.7055555553791667
 40
0.7055555553791667
 40
1.05833333306875
 40
1.05833333306875
 40
1.05833333306875
 40
1.411111110758333
 40
1.411111110758333
 40
1.411111110758333
 40
1.411111110758333
 10
83.68421154049388
 20
-163.9208083696643
 10
83.79462685079613
 20
-163.9208083696643
 10
83.8838763557109
 20
-163.8312035892777
 10
83.8838763557109
 20
-163.7211435544473
 10
83.8838763557109
 20
-163.6107174782217
 10
83.79462685079613
 20
-163.521112697835
 10
83.68421154049388
 20
-163.521112697835
 10
83.57378546426823
 20
-163.521112697835
 10
83.48453595935348
 20
-163.6107174782217
 10
83.48453595935348
 20
-163.7211435544473
 10
83.48453595935348
 20
-163.8312035892777
 10
83.57378546426823
 20
-163.9208083696643
 10
83.68421154049388
 20
-163.9208083696643
 97
        0
 72
     1
 10
83.68421154049388
 20
-163.9208083696643
 11
83.68421154049388
 21
-163.9208083696643
 97
        0
 75
     2
 76
     1
 98
        0
  0
SPLINE
  5
124
330
1F
100
AcDbEntity
  8
_U+30EC_U+30A4_U+30E4_U+30FC 1
370
     0
100
AcDbSpline
210
0.0
220
0.0
230
1.0
 70
    11
 71
     3
 72
    17
 73
    13
 74
     0
 42
0.0000000001
 43
0.0000000001
 12
1.0
 22
0.0
 32
0.0
 13
1.0
 23
0.0
 33
0.0
 40
0.0
 40
0.0
 40
0.0
 40
0.0
 40
1.0
 40
1.0
 40
1.0
 40
2.0
 40
2.0
 40
2.0
 40
3.0
 40
3.0
 40
3.0
 40
4.0
 40
4.0
 40
4.0
 40
4.0
 10
126.6859149192291
 20
-145.2208731394218
 30
0.0
 10
126.7963302295314
 20
-145.2208731394218
 30
0.0
 10
126.8855797344461
 20
-145.1312683590351
 30
0.0
 10
126.8855797344461
 20
-145.0212083242048
 30
0.0
 10
126.8855797344461
 20
-144.9107822479791
 30
0.0
 10
126.7963302295314
 20
-144.8211774675928
 30
0.0
 10
126.6859149192291
 20
-144.8211774675928
 30
0.0
 10
126.5754780770801
 20
-144.8211774675928
 30
0.0
 10
126.4862285721653
 20
-144.9107822479791
 30
0.0
 10
126.4862285721653
 20
-145.0212083242048
 30
0.0
 10
126.4862285721653
 20
-145.1312683590351
 30
0.0
 10
126.5754780770801
 20
-145.2208731394218
 30
0.0
 10
126.6859149192291
 20
-145.2208731394218
 30
0.0
  0
HATCH
  5
125
330
1F
100
AcDbEntity
  8
_U+30EC_U+30A4_U+30E4_U+30FC 1
 62
   179
420
  2234388
100
AcDbHatch
 10
0.0
 20
0.0
 30
0.0
210
0.0
220
0.0
230
1.0
  2
SOLID
 70
     1
 71
     0
 91
        1
 92
        1
 93
        2
 72
     4
 94
        3
 73
     0
 74
     0
 95
       17
 96
       13
 40
0.0
 40
0.0
 40
0.0
 40
0.0
 40
0.3527777776895833
 40
0.3527777776895833
 40
0.3527777776895833
 40
0.7055555553791667
 40
0.7055555553791667
 40
0.7055555553791667
 40
1.05833333306875
 40
1.05833333306875
 40
1.05833333306875
 40
1.411111110758333
 40
1.411111110758333
 40
1.411111110758333
 40
1.411111110758333
 10
126.6859149192291
 20
-145.2208731394218
 10
126.7963302295314
 20
-145.2208731394218
 10
126.8855797344461
 20
-145.1312683590351
 10
126.8855797344461
 20
-145.0212083242048
 10
126.8855797344461
 20
-144.9107822479791
 10
126.7963302295314
 20
-144.8211774675928
 10
126.6859149192291
 20
-144.8211774675928
 10
126.5754780770801
 20
-144.8211774675928
 10
126.4862285721653
 20
-144.9107822479791
 10
126.4862285721653
 20
-145.0212083242048
 10
126.4862285721653
 20
-145.1312683590351
 10
126.5754780770801
 20
-145.2208731394218
 10
126.6859149192291
 20
-145.2208731394218
 97
        0
 72
     1
 10
126.6859149192291
 20
-145.2208731394218
 11
126.6859149192291
 21
-145.2208731394218
 97
        0
 75
     2
 76
     1
 98
        0
  0
SPLINE
  5
126
330
1F
100
AcDbEntity
  8
_U+30EC_U+30A4_U+30E4_U+30FC 1
370
     0
100
AcDbSpline
210
0.0
220
0.0
230
1.0
 70
    11
 71
     3
 72
    17
 73
    13
 74
     0
 42
0.0000000001
 43
0.0000000001
 12
1.0
 22
0.0
 32
0.0
 13
1.0
 23
0.0
 33
0.0
 40
0.0
 40
0.0
 40
0.0
 40
0.0
 40
1.0
 40
1.0
 40
1.0
 40
2.0
 40
2.0
 40
2.0
 40
3.0
 40
3.0
 40
3.0
 40
4.0
 40
4.0
 40
4.0
 40
4.0
 10
93.68433326922248
 20
-139.2213900747867
 30
0.0
 10
93.79474857952472
 20
-139.2213900747867
 30
0.0
 10
93.88399808443916
 20
-139.1317852944
 30
0.0
 10
93.88399808443916
 20
-139.0217252595696
 30
0.0
 10
93.88399808443916
 20
-138.911299183344
 30
0.0
 10
93.79474857952472
 20
-138.8209946179369
 30
0.0
 10
93.68433326922248
 20
-138.8209946179369
 30
0.0
 10
93.5739071929965
 20
-138.8209946179369
 30
0.0
 10
93.48465768808175
 20
-138.911299183344
 30
0.0
 10
93.48465768808175
 20
-139.0217252595696
 30
0.0
 10
93.48465768808175
 20
-139.1317852944
 30
0.0
 10
93.5739071929965
 20
-139.2213900747867
 30
0.0
 10
93.68433326922248
 20
-139.2213900747867
 30
0.0
  0
HATCH
  5
127
330
1F
100
AcDbEntity
  8
_U+30EC_U+30A4_U+30E4_U+30FC 1
 62
   179
420
  2234388
100
AcDbHatch
 10
0.0
 20
0.0
 30
0.0
210
0.0
220
0.0
230
1.0
  2
SOLID
 70
     1
 71
     0
 91
        1
 92
        1
 93
        2
 72
     4
 94
        3
 73
     0
 74
     0
 95
       17
 96
       13
 40
0.0
 40
0.0
 40
0.0
 40
0.0
 40
0.3527777776895833
 40
0.3527777776895833
 40
0.3527777776895833
 40
0.7055555553791667
 40
0.7055555553791667
 40
0.7055555553791667
 40
1.05833333306875
 40
1.05833333306875
 40
1.05833333306875
 40
1.411111110758333
 40
1.411111110758333
 40
1.411111110758333
 40
1.411111110758333
 10
93.68433326922248
 20
-139.2213900747867
 10
93.79474857952472
 20
-139.2213900747867
 10
93.88399808443916
 20
-139.1317852944
 10
93.88399808443916
 20
-139.0217252595696
 10
93.88399808443916
 20
-138.911299183344
 10
93.79474857952472
 20
-138.8209946179369
 10
93.68433326922248
 20
-138.8209946179369
 10
93.5739071929965
 20
-138.8209946179369
 10
93.48465768808175
 20
-138.911299183344
 10
93.48465768808175
 20
-139.0217252595696
 10
93.48465768808175
 20
-139.1317852944
 10
93.5739071929965
 20
-139.2213900747867
 10
93.68433326922248
 20
-139.2213900747867
 97
        0
 72
     1
 10
93.68433326922248
 20
-139.2213900747867
 11
93.68433326922248
 21
-139.2213900747867
 97
        0
 75
     2
 76
     1
 98
        0
  0
POLYLINE
  5
128
330
1F
100
AcDbEntity
  8
_U+30EC_U+30A4_U+30E4_U+30FC 1
 62
   179
420
  2234388
370
     9
100
AcDb2dPolyline
 66
     1
 10
0.0
 20
0.0
 30
0.0
  0
VERTEX
  5
129
330
128
100
AcDbEntity
  8
_U+30EC_U+30A4_U+30E4_U+30FC 1
 62
   179
420
  2234388
370
     9
100
AcDbVertex
100
AcDb2dVertex
 10
101.6400707414628
 20
-139.0215853025656
 30
0.0
  0
VERTEX
  5
12A
330
128
100
AcDbEntity
  8
_U+30EC_U+30A4_U+30E4_U+30FC 1
 62
   179
420
  2234388
370
     9
100
AcDbVertex
100
AcDb2dVertex
 10
105.7026565287501
 20
-139.0215853025656
 30
0.0
  0
VERTEX
  5
12B
330
128
100
AcDbEntity
  8
_U+30EC_U+30A4_U+30E4_U+30FC 1
 62
   179
420
  2234388
370
     9
100
AcDbVertex
100
AcDb2dVertex
 10
105.7026565287501
 20
-143.2199939793589
 30
0.0
  0
SEQEND
  5
12C
330
128
100
AcDbEntity
  8
_U+30EC_U+30A4_U+30E4_U+30FC 1
 62
   179
420
  2234388
370
     9
  0
POLYLINE
  5
12D
330
1F
100
AcDbEntity
  8
_U+30EC_U+30A4_U+30E4_U+30FC 1
 62
   179
420
  2234388
370
     9
100
AcDb2dPolyline
 66
     1
 10
0.0
 20
0.0
 30
0.0
  0
VERTEX
  5
12E
330
12D
100
AcDbEntity
  8
_U+30EC_U+30A4_U+30E4_U+30FC 1
 62
   179
420
  2234388
370
     9
100
AcDbVertex
100
AcDb2dVertex
 10
93.68433326922248
 20
-142.9663380583343
 30
0.0
  0
VERTEX
  5
12F
330
12D
100
AcDbEntity
  8
_U+30EC_U+30A4_U+30E4_U+30FC 1
 62
   179
420
  2234388
370
     9
100
AcDbVertex
100
AcDb2dVertex
 10
93.68433326922248
 20
-139.0215853025656
 30
0.0
  0
VERTEX
  5
130
330
12D
100
AcDbEntity
  8
_U+30EC_U+30A4_U+30E4_U+30FC 1
 62
   179
420
  2234388
370
     9
100
AcDbVertex
100
AcDb2dVertex
 10
101.6401676347733
 20
-139.0215853025656
 30
0.0
  0
SEQEND
  5
131
330
12D
100
AcDbEntity
  8
_U+30EC_U+30A4_U+30E4_U+30FC 1
 62
   179
420
  2234388
370
     9
  0
POLYLINE
  5
132
330
1F
100
AcDbEntity
  8
_U+30EC_U+30A4_U+30E4_U+30FC 1
 62
   179
420
  2234388
370
     9
100
AcDb2dPolyline
 66
     1
 10
0.0
 20
0.0
 30
0.0
  0
VERTEX
  5
133
330
132
100
AcDbEntity
  8
_U+30EC_U+30A4_U+30E4_U+30FC 1
 62
   179
420
  2234388
370
     9
100
AcDbVertex
100
AcDb2dVertex
 10
102.0383668432513
 20
-134.0875303145141
 30
0.0
  0
VERTEX
  5
134
330
132
100
AcDbEntity
  8
_U+30EC_U+30A4_U+30E4_U+30FC 1
 62
   179
420
  2234388
370
     9
100
AcDbVertex
100
AcDb2dVertex
 10
115.685219036427
 20
-134.0875303145141
 30
0.0
  0
VERTEX
  5
135
330
132
100
AcDbEntity
  8
_U+30EC_U+30A4_U+30E4_U+30FC 1
 62
   179
420
  2234388
370
     9
100
AcDbVertex
100
AcDb2dVertex
 10
115.685219036427
 20
-143.1249954713531
 30
0.0
  0
SEQEND
  5
136
330
132
100
AcDbEntity
  8
_U+30EC_U+30A4_U+30E4_U+30FC 1
 62
   179
420
  2234388
370
     9
  0
POLYLINE
  5
137
330
1F
100
AcDbEntity
  8
_U+30EC_U+30A4_U+30E4_U+30FC 1
 62
   179
420
  2234388
370
     9
100
AcDb2dPolyline
 66
     1
 10
0.0
 20
0.0
 30
0.0
  0
VERTEX
  5
138
330
137
100
AcDbEntity
  8
_U+30EC_U+30A4_U+30E4_U+30FC 1
 62
   179
420
  2234388
370
     9
100
AcDbVertex
100
AcDb2dVertex
 10
83.68421154049388
 20
-143.1248770461958
 30
0.0
  0
VERTEX
  5
139
330
137
100
AcDbEntity
  8
_U+30EC_U+30A4_U+30E4_U+30FC 1
 62
   179
420
  2234388
370
     9
100
AcDbVertex
100
AcDb2dVertex
 10
83.68421154049388
 20
-134.0874226552802
 30
0.0
  0
VERTEX
  5
13A
330
137
100
AcDbEntity
  8
_U+30EC_U+30A4_U+30E4_U+30FC 1
 62
   179
420
  2234388
370
     9
100
AcDbVertex
100
AcDb2dVertex
 10
102.2794804635252
 20
-134.0874226552802
 30
0.0
  0
SEQEND
  5
13B
330
137
100
AcDbEntity
  8
_U+30EC_U+30A4_U+30E4_U+30FC 1
 62
   179
420
  2234388
370
     9
  0
POLYLINE
  5
13C
330
1F
100
AcDbEntity
  8
_U+30EC_U+30A4_U+30E4_U+30FC 1
 62
   179
420
  2234388
370
     9
100
AcDb2dPolyline
 66
     1
 10
0.0
 20
0.0
 30
0.0
  0
VERTEX
  5
13D
330
13C
100
AcDbEntity
  8
_U+30EC_U+30A4_U+30E4_U+30FC 1
 62
   179
420
  2234388
370
     9
100
AcDbVertex
100
AcDb2dVertex
 10
126.6859149192291
 20
-155.7804353112611
 30
0.0
  0
VERTEX
  5
13E
330
13C
100
AcDbEntity
  8
_U+30EC_U+30A4_U+30E4_U+30FC 1
 62
   179
420
  2234388
370
     9
100
AcDbVertex
100
AcDb2dVertex
 10
126.6859149192291
 20
-158.2209624848588
 30
0.0
  0
VERTEX
  5
13F
330
13C
100
AcDbEntity
  8
_U+30EC_U+30A4_U+30E4_U+30FC 1
 62
   179
420
  2234388
370
     9
100
AcDbVertex
100
AcDb2dVertex
 10
108.6254540065893
 20
-158.2209624848588
 30
0.0
  0
SEQEND
  5
140
330
13C
100
AcDbEntity
  8
_U+30EC_U+30A4_U+30E4_U+30FC 1
 62
   179
420
  2234388
370
     9
  0
POLYLINE
  5
141
330
1F
100
AcDbEntity
  8
_U+30EC_U+30A4_U+30E4_U+30FC 1
 62
   179
420
  2234388
370
     9
100
AcDb2dPolyline
 66
     1
 10
0.0
 20
0.0
 30
0.0
  0
VERTEX
  5
142
330
141
100
AcDbEntity
  8
_U+30EC_U+30A4_U+30E4_U+30FC 1
 62
   179
420
  2234388
370
     9
100
AcDbVertex
100
AcDb2dVertex
 10
117.2683803689034
 20
-145.0210576012773
 30
0.0
  0
VERTEX
  5
143
330
141
100
AcDbEntity
  8
_U+30EC_U+30A4_U+30E4_U+30FC 1
 62
   179
420
  2234388
370
     9
100
AcDbVertex
100
AcDb2dVertex
 10
126.6857641963017
 20
-145.0210576012773
 30
0.0
  0
VERTEX
  5
144
330
141
100
AcDbEntity
  8
_U+30EC_U+30A4_U+30E4_U+30FC 1
 62
   179
420
  2234388
370
     9
100
AcDbVertex
100
AcDb2dVertex
 10
126.6857641963017
 20
-155.7804353112611
 30
0.0
  0
SEQEND
  5
145
330
141
100
AcDbEntity
  8
_U+30EC_U+30A4_U+30E4_U+30FC 1
 62
   179
420
  2234388
370
     9
  0
POLYLINE
  5
146
330
1F
100
AcDbEntity
  8
_U+30EC_U+30A4_U+30E4_U+30FC 1
 62
   179
420
  2234388
370
     9
100
AcDb2dPolyline
 66
     1
 10
0.0
 20
0.0
 30
0.0
  0
VERTEX
  5
147
330
146
100
AcDbEntity
  8
_U+30EC_U+30A4_U+30E4_U+30FC 1
 62
   179
420
  2234388
370
     9
100
AcDbVertex
100
AcDb2dVertex
 10
121.6850466106106
 20
-156.5149189027929
 30
0.0
  0
VERTEX
  5
148
330
146
100
AcDbEntity
  8
_U+30EC_U+30A4_U+30E4_U+30FC 1
 62
   179
420
  2234388
370
     9
100
AcDbVertex
100
AcDb2dVertex
 10
121.6850466106106
 20
-158.2209624848588
 30
0.0
  0
SEQEND
  5
149
330
146
100
AcDbEntity
  8
_U+30EC_U+30A4_U+30E4_U+30FC 1
 62
   179
420
  2234388
370
     9
  0
POLYLINE
  5
14A
330
1F
100
AcDbEntity
  8
_U+30EC_U+30A4_U+30E4_U+30FC 1
 62
   179
420
  2234388
370
     9
100
AcDb2dPolyline
 66
     1
 10
0.0
 20
0.0
 30
0.0
  0
VERTEX
  5
14B
330
14A
100
AcDbEntity
  8
_U+30EC_U+30A4_U+30E4_U+30FC 1
 62
   179
420
  2234388
370
     9
100
AcDbVertex
100
AcDb2dVertex
 10
121.6850466106106
 20
-145.0210576012773
 30
0.0
  0
VERTEX
  5
14C
330
14A
100
AcDbEntity
  8
_U+30EC_U+30A4_U+30E4_U+30FC 1
 62
   179
420
  2234388
370
     9
100
AcDbVertex
100
AcDb2dVertex
 10
121.6850466106106
 20
-156.5893544971211
 30
0.0
  0
SEQEND
  5
14D
330
14A
100
AcDbEntity
  8
_U+30EC_U+30A4_U+30E4_U+30FC 1
 62
   179
420
  2234388
370
     9
  0
POLYLINE
  5
14E
330
1F
100
AcDbEntity
  8
_U+30EC_U+30A4_U+30E4_U+30FC 1
 62
   179
420
  2234388
370
     9
100
AcDb2dPolyline
 66
     1
 10
0.0
 20
0.0
 30
0.0
  0
VERTEX
  5
14F
330
14E
100
AcDbEntity
  8
_U+30EC_U+30A4_U+30E4_U+30FC 1
 62
   179
420
  2234388
370
     9
100
AcDbVertex
100
AcDb2dVertex
 10
117.3055981660675
 20
-148.2043150637247
 30
0.0
  0
VERTEX
  5
150
330
14E
100
AcDbEntity
  8
_U+30EC_U+30A4_U+30E4_U+30FC 1
 62
   179
420
  2234388
370
     9
100
AcDbVertex
100
AcDb2dVertex
 10
121.6849712491469
 20
-148.2043150637247
 30
0.0
  0
SEQEND
  5
151
330
14E
100
AcDbEntity
  8
_U+30EC_U+30A4_U+30E4_U+30FC 1
 62
   179
420
  2234388
370
     9
  0
POLYLINE
  5
152
330
1F
100
AcDbEntity
  8
_U+30EC_U+30A4_U+30E4_U+30FC 1
 62
   179
420
  2234388
370
     9
100
AcDb2dPolyline
 66
     1
 10
0.0
 20
0.0
 30
0.0
  0
VERTEX
  5
153
330
152
100
AcDbEntity
  8
_U+30EC_U+30A4_U+30E4_U+30FC 1
 62
   179
420
  2234388
370
     9
100
AcDbVertex
100
AcDb2dVertex
 10
114.378666573646
 20
-163.7210358952134
 30
0.0
  0
VERTEX
  5
154
330
152
100
AcDbEntity
  8
_U+30EC_U+30A4_U+30E4_U+30FC 1
 62
   179
420
  2234388
370
     9
100
AcDbVertex
100
AcDb2dVertex
 10
115.6821722801072
 20
-163.7213911706853
 30
0.0
  0
VERTEX
  5
155
330
152
100
AcDbEntity
  8
_U+30EC_U+30A4_U+30E4_U+30FC 1
 62
   179
420
  2234388
370
     9
100
AcDbVertex
100
AcDb2dVertex
 10
115.6821722801072
 20
-150.7328213632771
 30
0.0
  0
SEQEND
  5
156
330
152
100
AcDbEntity
  8
_U+30EC_U+30A4_U+30E4_U+30FC 1
 62
   179
420
  2234388
370
     9
  0
POLYLINE
  5
157
330
1F
100
AcDbEntity
  8
_U+30EC_U+30A4_U+30E4_U+30FC 1
 62
   179
420
  2234388
370
     9
100
AcDb2dPolyline
 66
     1
 10
0.0
 20
0.0
 30
0.0
  0
VERTEX
  5
158
330
157
100
AcDbEntity
  8
_U+30EC_U+30A4_U+30E4_U+30FC 1
 62
   179
420
  2234388
370
     9
100
AcDbVertex
100
AcDb2dVertex
 10
101.5064118025585
 20
-163.7210358952134
 30
0.0
  0
VERTEX
  5
159
330
157
100
AcDbEntity
  8
_U+30EC_U+30A4_U+30E4_U+30FC 1
 62
   179
420
  2234388
370
     9
100
AcDbVertex
100
AcDb2dVertex
 10
114.4501738368117
 20
-163.7210358952134
 30
0.0
  0
SEQEND
  5
15A
330
157
100
AcDbEntity
  8
_U+30EC_U+30A4_U+30E4_U+30FC 1
 62
   179
420
  2234388
370
     9
  0
POLYLINE
  5
15B
330
1F
100
AcDbEntity
  8
_U+30EC_U+30A4_U+30E4_U+30FC 1
 62
   179
420
  2234388
370
     9
100
AcDb2dPolyline
 66
     1
 10
0.0
 20
0.0
 30
0.0
  0
VERTEX
  5
15C
330
15B
100
AcDbEntity
  8
_U+30EC_U+30A4_U+30E4_U+30FC 1
 62
   179
420
  2234388
370
     9
100
AcDbVertex
100
AcDb2dVertex
 10
90.82521622824314
 20
-163.7210358952134
 30
0.0
  0
VERTEX
  5
15D
330
15B
100
AcDbEntity
  8
_U+30EC_U+30A4_U+30E4_U+30FC 1
 62
   179
420
  2234388
370
     9
100
AcDbVertex
100
AcDb2dVertex
 10
101.5147338613401
 20
-163.7210358952134
 30
0.0
  0
SEQEND
  5
15E
330
15B
100
AcDbEntity
  8
_U+30EC_U+30A4_U+30E4_U+30FC 1
 62
   179
420
  2234388
370
     9
  0
POLYLINE
  5
15F
330
1F
100
AcDbEntity
  8
_U+30EC_U+30A4_U+30E4_U+30FC 1
 62
   179
420
  2234388
370
     9
100
AcDb2dPolyline
 66
     1
 10
0.0
 20
0.0
 30
0.0
  0
VERTEX
  5
160
330
15F
100
AcDbEntity
  8
_U+30EC_U+30A4_U+30E4_U+30FC 1
 62
   179
420
  2234388
370
     9
100
AcDbVertex
100
AcDb2dVertex
 10
83.68421154049388
 20
-150.7326706403496
 30
0.0
  0
VERTEX
  5
161
330
15F
100
AcDbEntity
  8
_U+30EC_U+30A4_U+30E4_U+30FC 1
 62
   179
420
  2234388
370
     9
100
AcDbVertex
100
AcDb2dVertex
 10
83.68421154049388
 20
-163.7212512136812
 30
0.0
  0
VERTEX
  5
162
330
15F
100
AcDbEntity
  8
_U+30EC_U+30A4_U+30E4_U+30FC 1
 62
   179
420
  2234388
370
     9
100
AcDbVertex
100
AcDb2dVertex
 10
90.825130100856
 20
-163.7208959382093
 30
0.0
  0
SEQEND
  5
163
330
15F
100
AcDbEntity
  8
_U+30EC_U+30A4_U+30E4_U+30FC 1
 62
   179
420
  2234388
370
     9
  0
POLYLINE
  5
164
330
1F
100
AcDbEntity
  8
_U+30EC_U+30A4_U+30E4_U+30FC 1
 62
   179
420
  2234388
370
     9
100
AcDb2dPolyline
 66
     1
 10
0.0
 20
0.0
 30
0.0
  0
VERTEX
  5
165
330
164
100
AcDbEntity
  8
_U+30EC_U+30A4_U+30E4_U+30FC 1
 62
   179
420
  2234388
370
     9
100
AcDbVertex
100
AcDb2dVertex
 10
92.02137491256866
 20
-159.5245650846306
 30
0.0
  0
VERTEX
  5
166
330
164
100
AcDbEntity
  8
_U+30EC_U+30A4_U+30E4_U+30FC 1
 62
   179
420
  2234388
370
     9
100
AcDbVertex
100
AcDb2dVertex
 10
92.02137491256866
 20
-163.7212189159111
 30
0.0
  0
SEQEND
  5
167
330
164
100
AcDbEntity
  8
_U+30EC_U+30A4_U+30E4_U+30FC 1
 62
   179
420
  2234388
370
     9
  0
POLYLINE
  5
168
330
1F
100
AcDbEntity
  8
_U+30EC_U+30A4_U+30E4_U+30FC 1
 62
   179
420
  2234388
370
     9
100
AcDb2dPolyline
 66
     1
 10
0.0
 20
0.0
 30
0.0
  0
VERTEX
  5
169
330
168
100
AcDbEntity
  8
_U+30EC_U+30A4_U+30E4_U+30FC 1
 62
   179
420
  2234388
370
     9
100
AcDbVertex
100
AcDb2dVertex
 10
107.1039706492223
 20
-159.5245650846306
 30
0.0
  0
VERTEX
  5
16A
330
168
100
AcDbEntity
  8
_U+30EC_U+30A4_U+30E4_U+30FC 1
 62
   179
420
  2234388
370
     9
100
AcDbVertex
100
AcDb2dVertex
 10
107.1039706492223
 20
-163.7212189159111
 30
0.0
  0
SEQEND
  5
16B
330
168
100
AcDbEntity
  8
_U+30EC_U+30A4_U+30E4_U+30FC 1
 62
   179
420
  2234388
370
     9
  0
POLYLINE
  5
16C
330
1F
100
AcDbEntity
  8
_U+30EC_U+30A4_U+30E4_U+30FC 1
 62
   179
420
  2234388
370
     9
100
AcDb2dPolyline
 66
     1
 10
0.0
 20
0.0
 30
0.0
  0
VERTEX
  5
16D
330
16C
100
AcDbEntity
  8
_U+30EC_U+30A4_U+30E4_U+30FC 1
 62
   179
420
  2234388
370
     9
100
AcDbVertex
100
AcDb2dVertex
 10
105.6443482876623
 20
-145.0210576012773
 30
0.0
  0
VERTEX
  5
16E
330
16C
100
AcDbEntity
  8
_U+30EC_U+30A4_U+30E4_U+30FC 1
 62
   179
420
  2234388
370
     9
100
AcDbVertex
100
AcDb2dVertex
 10
110.0999225765061
 20
-137.2666536623793
 30
0.0
  0
VERTEX
  5
16F
330
16C
100
AcDbEntity
  8
_U+30EC_U+30A4_U+30E4_U+30FC 1
 62
   179
420
  2234388
370
     9
100
AcDbVertex
100
AcDb2dVertex
 10
124.3235698812998
 20
-137.2666536623793
 30
0.0
  0
SEQEND
  5
170
330
16C
100
AcDbEntity
  8
_U+30EC_U+30A4_U+30E4_U+30FC 1
 62
   179
420
  2234388
370
     9
  0
ENDSEC
  0
SECTION
  2
OBJECTS
  0
DICTIONARY
  5
C
330
0
100
AcDbDictionary
281
     1
  3
ACAD_GROUP
350
D
  3
ACAD_LAYOUT
350
1A
  3
ACAD_MATERIAL
350
3B
  3
ACAD_MLEADERSTYLE
350
172
  3
ACAD_MLINESTYLE
350
17
  3
ACAD_PLOTSETTINGS
350
19
  3
ACAD_PLOTSTYLENAME
350
E
  3
ACAD_TABLESTYLE
350
171
  3
ACAD_VISUALSTYLE
350
2A
  0
SUN
  5
3F
330
29
100
AcDbSun
 90
        1
290
     0
 63
     7
421
 16777215
 40
1.0
291
     1
 91
  2455826
 92
 54000000
292
     0
 70
     2
 71
   256
280
     1
  0
DICTIONARY
  5
D
102
{ACAD_REACTORS
330
C
102
}
330
C
100
AcDbDictionary
281
     1
  0
DICTIONARY
  5
1A
102
{ACAD_REACTORS
330
C
102
}
330
C
100
AcDbDictionary
281
     1
  3
Layout1
350
1E
  3
Layout2
350
26
  3
Model
350
22
  0
DICTIONARY
  5
3B
102
{ACAD_REACTORS
330
C
102
}
330
C
100
AcDbDictionary
281
     1
  3
ByBlock
350
3D
  3
ByLayer
350
3C
  3
Global
350
3E
  0
DICTIONARY
  5
172
102
{ACAD_REACTORS
330
C
102
}
330
C
100
AcDbDictionary
281
     1
  0
DICTIONARY
  5
17
102
{ACAD_REACTORS
330
C
102
}
330
C
100
AcDbDictionary
281
     1
  3
Standard
350
18
  0
DICTIONARY
  5
19
102
{ACAD_REACTORS
330
C
102
}
330
C
100
AcDbDictionary
281
     1
  0
ACDBDICTIONARYWDFLT
  5
E
102
{ACAD_REACTORS
330
C
102
}
330
C
100
AcDbDictionary
281
     1
  3
Normal
350
F
100
AcDbDictionaryWithDefault
340
F
  0
DICTIONARY
  5
171
102
{ACAD_REACTORS
330
C
102
}
330
C
100
AcDbDictionary
281
     1
  0
DICTIONARY
  5
2A
102
{ACAD_REACTORS
330
C
102
}
330
C
100
AcDbDictionary
281
     1
  3
2dWireframe
350
2F
  3
3D Hidden
350
31
  3
3dWireframe
350
30
  3
Basic
350
32
  3
Brighten
350
36
  3
ColorChange
350
3A
  3
Conceptual
350
34
  3
Dim
350
35
  3
Facepattern
350
39
  3
Flat
350
2B
  3
FlatWithEdges
350
2C
  3
Gouraud
350
2D
  3
GouraudWithEdges
350
2E
  3
Linepattern
350
38
  3
Realistic
350
33
  3
Thicken
350
37
  0
LAYOUT
  5
1E
102
{ACAD_REACTORS
330
1A
102
}
330
1A
100
AcDbPlotSettings
  1

  2
none_device
  4

  6

 40
0.0
 41
0.0
 42
0.0
 43
0.0
 44
0.0
 45
0.0
 46
0.0
 47
0.0
 48
0.0
 49
0.0
140
0.0
141
0.0
142
1.0
143
1.0
 70
   688
 72
     0
 73
     0
 74
     5
  7

 75
    16
 76
     0
 77
     2
 78
   300
147
1.0
148
0.0
149
0.0
100
AcDbLayout
  1
Layout1
 70
     1
 71
     1
 10
0.0
 20
0.0
 11
12.0
 21
9.0
 12
0.0
 22
0.0
 32
0.0
 14
1.000000000000000E+20
 24
1.000000000000000E+20
 34
1.000000000000000E+20
 15
-1.000000000000000E+20
 25
-1.000000000000000E+20
 35
-1.000000000000000E+20
146
0.0
 13
0.0
 23
0.0
 33
0.0
 16
1.0
 26
0.0
 36
0.0
 17
0.0
 27
1.0
 37
0.0
 76
     0
330
1B
  0
LAYOUT
  5
26
102
{ACAD_REACTORS
330
1A
102
}
330
1A
100
AcDbPlotSettings
  1

  2
none_device
  4

  6

 40
0.0
 41
0.0
 42
0.0
 43
0.0
 44
0.0
 45
0.0
 46
0.0
 47
0.0
 48
0.0
 49
0.0
140
0.0
141
0.0
142
1.0
143
1.0
 70
   688
 72
     0
 73
     0
 74
     5
  7

 75
    16
 76
     0
 77
     2
 78
   300
147
1.0
148
0.0
149
0.0
100
AcDbLayout
  1
Layout2
 70
     1
 71
     2
 10
0.0
 20
0.0
 11
0.0
 21
0.0
 12
0.0
 22
0.0
 32
0.0
 14
0.0
 24
0.0
 34
0.0
 15
0.0
 25
0.0
 35
0.0
146
0.0
 13
0.0
 23
0.0
 33
0.0
 16
1.0
 26
0.0
 36
0.0
 17
0.0
 27
1.0
 37
0.0
 76
     0
330
23
  0
LAYOUT
  5
22
102
{ACAD_REACTORS
330
1A
102
}
330
1A
100
AcDbPlotSettings
  1

  2
none_device
  4

  6

 40
0.0
 41
0.0
 42
0.0
 43
0.0
 44
0.0
 45
0.0
 46
0.0
 47
0.0
 48
0.0
 49
0.0
140
0.0
141
0.0
142
1.0
143
1.0
 70
  1712
 72
     0
 73
     0
 74
     0
  7

 75
     0
 76
     0
 77
     2
 78
   300
147
1.0
148
0.0
149
0.0
100
AcDbLayout
  1
Model
 70
     1
 71
     0
 10
0.0
 20
0.0
 11
12.0
 21
9.0
 12
0.0
 22
0.0
 32
0.0
 14
1.000000000000000E+20
 24
1.000000000000000E+20
 34
1.000000000000000E+20
 15
-1.000000000000000E+20
 25
-1.000000000000000E+20
 35
-1.000000000000000E+20
146
0.0
 13
0.0
 23
0.0
 33
0.0
 16
1.0
 26
0.0
 36
0.0
 17
0.0
 27
1.0
 37
0.0
 76
     0
330
1F
331
29
  0
MATERIAL
  5
3D
102
{ACAD_REACTORS
330
3B
102
}
330
3B
100
AcDbMaterial
  1
ByBlock
 72
     1
 94
      127
  0
MATERIAL
  5
3C
102
{ACAD_REACTORS
330
3B
102
}
330
3B
100
AcDbMaterial
  1
ByLayer
 72
     1
 94
      127
  0
MATERIAL
  5
3E
102
{ACAD_REACTORS
330
3B
102
}
330
3B
100
AcDbMaterial
  1
Global
 72
     1
 94
      127
  0
MLINESTYLE
  5
18
102
{ACAD_REACTORS
330
17
102
}
330
17
100
AcDbMlineStyle
  2
Standard
 70
     0
  3

 62
   256
 51
90.0
 52
90.0
 71
     2
 49
0.5
 62
   256
  6
BYLAYER
 49
-0.5
 62
   256
  6
BYLAYER
  0
ACDBPLACEHOLDER
  5
F
102
{ACAD_REACTORS
330
E
102
}
330
E
  0
VISUALSTYLE
  5
2F
102
{ACAD_REACTORS
330
2A
102
}
330
2A
100
AcDbVisualStyle
  2
2dWireframe
 70
     4
177
     2
291
     0
 71
     0
176
     1
 72
     2
176
     1
 73
     0
176
     1
 90
        0
176
     1
 40
-0.6
176
     1
 41
-30.0
176
     1
 62
     5
 63
     7
421
 16777215
176
     1
 74
     1
176
     1
 91
        4
176
     1
 64
     7
176
     1
 65
   257
176
     1
 75
     1
176
     1
175
     1
176
     1
 42
1.0
176
     1
 92
        0
176
     1
 66
   257
176
     1
 43
1.0
176
     1
 76
     1
176
     1
 77
     6
176
     1
 78
     2
176
     1
 67
     7
176
     1
 79
     5
176
     1
170
     0
176
     1
171
     0
176
     1
290
     0
176
     1
 93
        1
176
     1
 44
0.0
176
     1
173
     0
176
     1
  0
VISUALSTYLE
  5
31
102
{ACAD_REACTORS
330
2A
102
}
330
2A
100
AcDbVisualStyle
  2
3D Hidden
 70
     6
177
     2
291
     0
 71
     1
176
     1
 72
     2
176
     1
 73
     2
176
     1
 90
        0
176
     1
 40
-0.6
176
     1
 41
-30.0
176
     1
 62
     5
 63
     7
421
 16777215
176
     1
 74
     2
176
     1
 91
        2
176
     1
 64
     7
176
     1
 65
   257
176
     1
 75
     2
176
     1
175
     1
176
     1
 42
40.0
176
     1
 92
        0
176
     1
 66
   257
176
     1
 43
1.0
176
     1
 76
     1
176
     1
 77
     6
176
     1
 78
     2
176
     1
 67
     7
176
     1
 79
     3
176
     1
170
     0
176
     1
171
     0
176
     1
290
     0
176
     1
 93
        1
176
     1
 44
0.0
176
     1
173
     0
176
     1
  0
VISUALSTYLE
  5
30
102
{ACAD_REACTORS
330
2A
102
}
330
2A
100
AcDbVisualStyle
  2
3dWireframe
 70
     5
177
     2
291
     0
 71
     0
176
     1
 72
     2
176
     1
 73
     0
176
     1
 90
        0
176
     1
 40
-0.6
176
     1
 41
-30.0
176
     1
 62
     5
 63
     7
421
 16777215
176
     1
 74
     1
176
     1
 91
        4
176
     1
 64
     7
176
     1
 65
   257
176
     1
 75
     1
176
     1
175
     1
176
     1
 42
1.0
176
     1
 92
        0
176
     1
 66
   257
176
     1
 43
1.0
176
     1
 76
     1
176
     1
 77
     6
176
     1
 78
     2
176
     1
 67
     7
176
     1
 79
     5
176
     1
170
     0
176
     1
171
     0
176
     1
290
     0
176
     1
 93
        1
176
     1
 44
0.0
176
     1
173
     0
176
     1
  0
VISUALSTYLE
  5
32
102
{ACAD_REACTORS
330
2A
102
}
330
2A
100
AcDbVisualStyle
  2
Basic
 70
     7
177
     2
291
     1
 71
     1
176
     1
 72
     0
176
     1
 73
     1
176
     1
 90
        0
176
     1
 40
-0.6
176
     1
 41
-30.0
176
     1
 62
     5
 63
     7
421
 16777215
176
     1
 74
     0
176
     1
 91
        4
176
     1
 64
     7
176
     1
 65
   257
176
     1
 75
     1
176
     1
175
     1
176
     1
 42
1.0
176
     1
 92
        8
176
     1
 66
     7
176
     1
 43
1.0
176
     1
 76
     1
176
     1
 77
     6
176
     1
 78
     2
176
     1
 67
     7
176
     1
 79
     5
176
     1
170
     0
176
     1
171
     0
176
     1
290
     0
176
     1
 93
        1
176
     1
 44
0.0
176
     1
173
     0
176
     1
  0
VISUALSTYLE
  5
36
102
{ACAD_REACTORS
330
2A
102
}
330
2A
100
AcDbVisualStyle
  2
Brighten
 70
    12
177
     2
291
     1
 71
     2
176
     1
 72
     2
176
     1
 73
     0
176
     1
 90
        0
176
     1
 40
-0.6
176
     1
 41
-30.0
176
     1
 62
     5
 63
     7
421
 16777215
176
     1
 74
     1
176
     1
 91
        4
176
     1
 64
     7
176
     1
 65
   257
176
     1
 75
     1
176
     1
175
     1
176
     1
 42
1.0
176
     1
 92
        8
176
     1
 66
     7
176
     1
 43
1.0
176
     1
 76
     1
176
     1
 77
     6
176
     1
 78
     2
176
     1
 67
     7
176
     1
 79
     5
176
     1
170
     0
176
     1
171
     0
176
     1
290
     0
176
     1
 93
        1
176
     1
 44
50.0
176
     1
173
     0
176
     1
  0
VISUALSTYLE
  5
3A
102
{ACAD_REACTORS
330
2A
102
}
330
2A
100
AcDbVisualStyle
  2
ColorChange
 70
    16
177
     2
291
     1
 71
     2
176
     1
 72
     2
176
     1
 73
     3
176
     1
 90
        0
176
     1
 40
-0.6
176
     1
 41
-30.0
176
     1
 62
     5
 63
     8
421
  8421504
176
     1
 74
     1
176
     1
 91
        4
176
     1
 64
     7
176
     1
 65
   257
176
     1
 75
     1
176
     1
175
     1
176
     1
 42
1.0
176
     1
 92
        8
176
     1
 66
     8
424
  8421504
176
     1
 43
1.0
176
     1
 76
     1
176
     1
 77
     6
176
     1
 78
     2
176
     1
 67
     7
176
     1
 79
     5
176
     1
170
     0
176
     1
171
     0
176
     1
290
     0
176
     1
 93
        1
176
     1
 44
0.0
176
     1
173
     0
176
     1
  0
VISUALSTYLE
  5
34
102
{ACAD_REACTORS
330
2A
102
}
330
2A
100
AcDbVisualStyle
  2
Conceptual
 70
     9
177
     2
291
     0
 71
     3
176
     1
 72
     2
176
     1
 73
     0
176
     1
 90
        0
176
     1
 40
-0.6
176
     1
 41
-30.0
176
     1
 62
     5
 63
     7
421
 16777215
176
     1
 74
     2
176
     1
 91
        2
176
     1
 64
     7
176
     1
 65
   257
176
     1
 75
     1
176
     1
175
     1
176
     1
 42
40.0
176
     1
 92
        8
176
     1
 66
     7
176
     1
 43
1.0
176
     1
 76
     1
176
     1
 77
     6
176
     1
 78
     2
176
     1
 67
     7
176
     1
 79
     3
176
     1
170
     0
176
     1
171
     0
176
     1
290
     0
176
     1
 93
        1
176
     1
 44
0.0
176
     1
173
     0
176
     1
  0
VISUALSTYLE
  5
35
102
{ACAD_REACTORS
330
2A
102
}
330
2A
100
AcDbVisualStyle
  2
Dim
 70
    11
177
     2
291
     1
 71
     2
176
     1
 72
     2
176
     1
 73
     0
176
     1
 90
        0
176
     1
 40
-0.6
176
     1
 41
-30.0
176
     1
 62
     5
 63
     7
421
 16777215
176
     1
 74
     1
176
     1
 91
        4
176
     1
 64
     7
176
     1
 65
   257
176
     1
 75
     1
176
     1
175
     1
176
     1
 42
1.0
176
     1
 92
        8
176
     1
 66
     7
176
     1
 43
1.0
176
     1
 76
     1
176
     1
 77
     6
176
     1
 78
     2
176
     1
 67
     7
176
     1
 79
     5
176
     1
170
     0
176
     1
171
     0
176
     1
290
     0
176
     1
 93
        1
176
     1
 44
-50.0
176
     1
173
     0
176
     1
  0
VISUALSTYLE
  5
39
102
{ACAD_REACTORS
330
2A
102
}
330
2A
100
AcDbVisualStyle
  2
Facepattern
 70
    15
177
     2
291
     1
 71
     2
176
     1
 72
     2
176
     1
 73
     0
176
     1
 90
        0
176
     1
 40
-0.6
176
     1
 41
-30.0
176
     1
 62
     5
 63
     7
421
 16777215
176
     1
 74
     1
176
     1
 91
        4
176
     1
 64
     7
176
     1
 65
   257
176
     1
 75
     1
176
     1
175
     1
176
     1
 42
1.0
176
     1
 92
        8
176
     1
 66
     7
176
     1
 43
1.0
176
     1
 76
     1
176
     1
 77
     6
176
     1
 78
     2
176
     1
 67
     7
176
     1
 79
     5
176
     1
170
     0
176
     1
171
     0
176
     1
290
     0
176
     1
 93
        1
176
     1
 44
0.0
176
     1
173
     0
176
     1
  0
VISUALSTYLE
  5
2B
102
{ACAD_REACTORS
330
2A
102
}
330
2A
100
AcDbVisualStyle
  2
Flat
 70
     0
177
     2
291
     1
 71
     2
176
     1
 72
     1
176
     1
 73
     1
176
     1
 90
        2
176
     1
 40
-0.6
176
     1
 41
30.0
176
     1
 62
     5
 63
     7
421
 16777215
176
     1
 74
     0
176
     1
 91
        4
176
     1
 64
     7
176
     1
 65
   257
176
     1
 75
     1
176
     1
175
     1
176
     1
 42
1.0
176
     1
 92
        8
176
     1
 66
     7
176
     1
 43
1.0
176
     1
 76
     1
176
     1
 77
     6
176
     1
 78
     2
176
     1
 67
     7
176
     1
 79
     5
176
     1
170
     0
176
     1
171
     0
176
     1
290
     0
176
     1
 93
       13
176
     1
 44
0.0
176
     1
173
     0
176
     1
  0
VISUALSTYLE
  5
2C
102
{ACAD_REACTORS
330
2A
102
}
330
2A
100
AcDbVisualStyle
  2
FlatWithEdges
 70
     1
177
     2
291
     1
 71
     2
176
     1
 72
     1
176
     1
 73
     1
176
     1
 90
        2
176
     1
 40
-0.6
176
     1
 41
30.0
176
     1
 62
     5
 63
     7
421
 16777215
176
     1
 74
     1
176
     1
 91
        4
176
     1
 64
     7
176
     1
 65
   257
176
     1
 75
     1
176
     1
175
     1
176
     1
 42
1.0
176
     1
 92
        0
176
     1
 66
   257
176
     1
 43
1.0
176
     1
 76
     1
176
     1
 77
     6
176
     1
 78
     2
176
     1
 67
     7
176
     1
 79
     5
176
     1
170
     0
176
     1
171
     0
176
     1
290
     0
176
     1
 93
       13
176
     1
 44
0.0
176
     1
173
     0
176
     1
  0
VISUALSTYLE
  5
2D
102
{ACAD_REACTORS
330
2A
102
}
330
2A
100
AcDbVisualStyle
  2
Gouraud
 70
     2
177
     2
291
     1
 71
     2
176
     1
 72
     2
176
     1
 73
     1
176
     1
 90
        2
176
     1
 40
-0.6
176
     1
 41
30.0
176
     1
 62
     5
 63
     7
421
 16777215
176
     1
 74
     0
176
     1
 91
        4
176
     1
 64
     7
176
     1
 65
   257
176
     1
 75
     1
176
     1
175
     1
176
     1
 42
1.0
176
     1
 92
        0
176
     1
 66
     7
176
     1
 43
1.0
176
     1
 76
     1
176
     1
 77
     6
176
     1
 78
     2
176
     1
 67
     7
176
     1
 79
     5
176
     1
170
     0
176
     1
171
     0
176
     1
290
     0
176
     1
 93
       13
176
     1
 44
0.0
176
     1
173
     0
176
     1
  0
VISUALSTYLE
  5
2E
102
{ACAD_REACTORS
330
2A
102
}
330
2A
100
AcDbVisualStyle
  2
GouraudWithEdges
 70
     3
177
     2
291
     1
 71
     2
176
     1
 72
     2
176
     1
 73
     1
176
     1
 90
        2
176
     1
 40
-0.6
176
     1
 41
30.0
176
     1
 62
     5
 63
     7
421
 16777215
176
     1
 74
     1
176
     1
 91
        4
176
     1
 64
     7
176
     1
 65
   257
176
     1
 75
     1
176
     1
175
     1
176
     1
 42
1.0
176
     1
 92
        0
176
     1
 66
   257
176
     1
 43
1.0
176
     1
 76
     1
176
     1
 77
     6
176
     1
 78
     2
176
     1
 67
     7
176
     1
 79
     5
176
     1
170
     0
176
     1
171
     0
176
     1
290
     0
176
     1
 93
       13
176
     1
 44
0.0
176
     1
173
     0
176
     1
  0
VISUALSTYLE
  5
38
102
{ACAD_REACTORS
330
2A
102
}
330
2A
100
AcDbVisualStyle
  2
Linepattern
 70
    14
177
     2
291
     1
 71
     2
176
     1
 72
     2
176
     1
 73
     0
176
     1
 90
        0
176
     1
 40
-0.6
176
     1
 41
-30.0
176
     1
 62
     5
 63
     7
421
 16777215
176
     1
 74
     1
176
     1
 91
        4
176
     1
 64
     7
176
     1
 65
   257
176
     1
 75
     7
176
     1
175
     7
176
     1
 42
1.0
176
     1
 92
        8
176
     1
 66
     7
176
     1
 43
1.0
176
     1
 76
     1
176
     1
 77
     6
176
     1
 78
     2
176
     1
 67
     7
176
     1
 79
     5
176
     1
170
     0
176
     1
171
     0
176
     1
290
     0
176
     1
 93
        1
176
     1
 44
0.0
176
     1
173
     0
176
     1
  0
VISUALSTYLE
  5
33
102
{ACAD_REACTORS
330
2A
102
}
330
2A
100
AcDbVisualStyle
  2
Realistic
 70
     8
177
     2
291
     0
 71
     2
176
     1
 72
     2
176
     1
 73
     0
176
     1
 90
        0
176
     1
 40
-0.6
176
     1
 41
-30.0
176
     1
 62
     5
 63
     7
421
 16777215
176
     1
 74
     1
176
     1
 91
        0
176
     1
 64
     7
176
     1
 65
   257
176
     1
 75
     1
176
     1
175
     1
176
     1
 42
1.0
176
     1
 92
        8
176
     1
 66
     8
424
  7895160
176
     1
 43
1.0
176
     1
 76
     1
176
     1
 77
     6
176
     1
 78
     2
176
     1
 67
     7
176
     1
 79
     5
176
     1
170
     0
176
     1
171
     0
176
     1
290
     0
176
     1
 93
       13
176
     1
 44
0.0
176
     1
173
     0
176
     1
  0
VISUALSTYLE
  5
37
102
{ACAD_REACTORS
330
2A
102
}
330
2A
100
AcDbVisualStyle
  2
Thicken
 70
    13
177
     2
291
     1
 71
     2
176
     1
 72
     2
176
     1
 73
     0
176
     1
 90
        0
176
     1
 40
-0.6
176
     1
 41
-30.0
176
     1
 62
     5
 63
     7
421
 16777215
176
     1
 74
     1
176
     1
 91
        4
176
     1
 64
     7
176
     1
 65
   257
176
     1
 75
     1
176
     1
175
     1
176
     1
 42
1.0
176
     1
 92
       12
176
     1
 66
     7
176
     1
 43
1.0
176
     1
 76
     1
176
     1
 77
     6
176
     1
 78
     2
176
     1
 67
     7
176
     1
 79
     5
176
     1
170
     0
176
     1
171
     0
176
     1
290
     0
176
     1
 93
        1
176
     1
 44
0.0
176
     1
173
     0
176
     1
  0
ENDSEC
  0
EOF
