  0
SECTION
  2
HEADER
  9
$ACADVER
  1
AC1024
  9
$ACADMAINTVER
 70
     6
  9
$DWGCODEPAGE
  3
UNDEFINED
  9
$INSBASE
 10
0.0
 20
0.0
 30
0.0
  9
$EXTMIN
 10
1.000000000000000E+20
 20
1.000000000000000E+20
 30
1.000000000000000E+20
  9
$EXTMAX
 10
-1.000000000000000E+20
 20
-1.000000000000000E+20
 30
-1.000000000000000E+20
  9
$LIMMIN
 10
0.0
 20
0.0
  9
$LIMMAX
 10
12.0
 20
9.0
  9
$ORTHOMODE
 70
     0
  9
$REGENMODE
 70
     1
  9
$FILLMODE
 70
     1
  9
$QTEXTMODE
 70
     0
  9
$MIRRTEXT
 70
     1
  9
$LTSCALE
 40
1.0
  9
$ATTMODE
 70
     1
  9
$TEXTSIZE
 40
0.2
  9
$TRACEWID
 40
0.05
  9
$TEXTSTYLE
  7
Standard
  9
$CLAYER
  8
0
  9
$CELTYPE
  6
ByLayer
  9
$CECOLOR
 62
   256
  9
$CELTSCALE
 40
1.0
  9
$DISPSILH
 70
     0
  9
$DIMSCALE
 40
1.0
  9
$DIMASZ
 40
0.18
  9
$DIMEXO
 40
0.0625
  9
$DIMDLI
 40
0.38
  9
$DIMRND
 40
0.0
  9
$DIMDLE
 40
0.0
  9
$DIMEXE
 40
0.18
  9
$DIMTP
 40
0.0
  9
$DIMTM
 40
0.0
  9
$DIMTXT
 40
0.18
  9
$DIMCEN
 40
0.09
  9
$DIMTSZ
 40
0.0
  9
$DIMTOL
 70
     0
  9
$DIMLIM
 70
     0
  9
$DIMTIH
 70
     1
  9
$DIMTOH
 70
     1
  9
$DIMSE1
 70
     0
  9
$DIMSE2
 70
     0
  9
$DIMTAD
 70
     0
  9
$DIMZIN
 70
     0
  9
$DIMBLK
  1

  9
$DIMASO
 70
     1
  9
$DIMSHO
 70
     1
  9
$DIMPOST
  1

  9
$DIMAPOST
  1

  9
$DIMALT
 70
     0
  9
$DIMALTD
 70
     2
  9
$DIMALTF
 40
25.4
  9
$DIMLFAC
 40
1.0
  9
$DIMTOFL
 70
     0
  9
$DIMTVP
 40
0.0
  9
$DIMTIX
 70
     0
  9
$DIMSOXD
 70
     0
  9
$DIMSAH
 70
     0
  9
$DIMBLK1
  1

  9
$DIMBLK2
  1

  9
$DIMSTYLE
  2
Standard
  9
$DIMCLRD
 70
     0
  9
$DIMCLRE
 70
     0
  9
$DIMCLRT
 70
     0
  9
$DIMTFAC
 40
1.0
  9
$DIMGAP
 40
0.09
  9
$DIMJUST
 70
     0
  9
$DIMSD1
 70
     0
  9
$DIMSD2
 70
     0
  9
$DIMTOLJ
 70
     1
  9
$DIMTZIN
 70
     0
  9
$DIMALTZ
 70
     0
  9
$DIMALTTZ
 70
     0
  9
$DIMUPT
 70
     0
  9
$DIMDEC
 70
     4
  9
$DIMTDEC
 70
     4
  9
$DIMALTU
 70
     2
  9
$DIMALTTD
 70
     2
  9
$DIMTXSTY
  7
Standard
  9
$DIMAUNIT
 70
     0
  9
$DIMADEC
 70
     0
  9
$DIMALTRND
 40
0.0
  9
$DIMAZIN
 70
     0
  9
$DIMDSEP
 70
    46
  9
$DIMATFIT
 70
     3
  9
$DIMFRAC
 70
     0
  9
$DIMLDRBLK
  1

  9
$DIMLUNIT
 70
     2
  9
$DIMLWD
 70
    -2
  9
$DIMLWE
 70
    -2
  9
$DIMTMOVE
 70
     0
  9
$DIMFXL
 40
1.0
  9
$DIMFXLON
 70
     0
  9
$DIMJOGANG
 40
0.7853981633974483
  9
$DIMTFILL
 70
     0
  9
$DIMTFILLCLR
 70
     0
  9
$DIMARCSYM
 70
     0
  9
$DIMLTYPE
  6

  9
$DIMLTEX1
  6

  9
$DIMLTEX2
  6

  9
$DIMTXTDIRECTION
 70
     0
  9
$LUNITS
 70
     2
  9
$LUPREC
 70
     4
  9
$SKETCHINC
 40
0.1
  9
$FILLETRAD
 40
0.5
  9
$AUNITS
 70
     0
  9
$AUPREC
 70
     0
  9
$MENU
  1
.
  9
$ELEVATION
 40
0.0
  9
$PELEVATION
 40
0.0
  9
$THICKNESS
 40
0.0
  9
$LIMCHECK
 70
     0
  9
$CHAMFERA
 40
0.5
  9
$CHAMFERB
 40
0.5
  9
$CHAMFERC
 40
1.0
  9
$CHAMFERD
 40
0.0
  9
$SKPOLY
 70
     0
  9
$TDCREATE
 40
2458263.583738415
  9
$TDUCREATE
 40
2458263.208738426
  9
$TDUPDATE
 40
2458263.583738415
  9
$TDUUPDATE
 40
2458263.208738426
  9
$TDINDWG
 40
0.0000000116
  9
$TDUSRTIMER
 40
0.0000000116
  9
$USRTIMER
 70
     1
  9
$ANGBASE
 50
0.0
  9
$ANGDIR
 70
     0
  9
$PDMODE
 70
     0
  9
$PDSIZE
 40
0.0
  9
$PLINEWID
 40
0.0
  9
$SPLFRAME
 70
     0
  9
$SPLINETYPE
 70
     6
  9
$SPLINESEGS
 70
     8
  9
$HANDSEED
  5
176
  9
$SURFTAB1
 70
     6
  9
$SURFTAB2
 70
     6
  9
$SURFTYPE
 70
     6
  9
$SURFU
 70
     6
  9
$SURFV
 70
     6
  9
$UCSBASE
  2

  9
$UCSNAME
  2

  9
$UCSORG
 10
0.0
 20
0.0
 30
0.0
  9
$UCSXDIR
 10
1.0
 20
0.0
 30
0.0
  9
$UCSYDIR
 10
0.0
 20
1.0
 30
0.0
  9
$UCSORTHOREF
  2

  9
$UCSORTHOVIEW
 70
     0
  9
$UCSORGTOP
 10
0.0
 20
0.0
 30
0.0
  9
$UCSORGBOTTOM
 10
0.0
 20
0.0
 30
0.0
  9
$UCSORGLEFT
 10
0.0
 20
0.0
 30
0.0
  9
$UCSORGRIGHT
 10
0.0
 20
0.0
 30
0.0
  9
$UCSORGFRONT
 10
0.0
 20
0.0
 30
0.0
  9
$UCSORGBACK
 10
0.0
 20
0.0
 30
0.0
  9
$PUCSBASE
  2

  9
$PUCSNAME
  2

  9
$PUCSORG
 10
0.0
 20
0.0
 30
0.0
  9
$PUCSXDIR
 10
1.0
 20
0.0
 30
0.0
  9
$PUCSYDIR
 10
0.0
 20
1.0
 30
0.0
  9
$PUCSORTHOREF
  2

  9
$PUCSORTHOVIEW
 70
     0
  9
$PUCSORGTOP
 10
0.0
 20
0.0
 30
0.0
  9
$PUCSORGBOTTOM
 10
0.0
 20
0.0
 30
0.0
  9
$PUCSORGLEFT
 10
0.0
 20
0.0
 30
0.0
  9
$PUCSORGRIGHT
 10
0.0
 20
0.0
 30
0.0
  9
$PUCSORGFRONT
 10
0.0
 20
0.0
 30
0.0
  9
$PUCSORGBACK
 10
0.0
 20
0.0
 30
0.0
  9
$USERI1
 70
     0
  9
$USERI2
 70
     0
  9
$USERI3
 70
     0
  9
$USERI4
 70
     0
  9
$USERI5
 70
     0
  9
$USERR1
 40
0.0
  9
$USERR2
 40
0.0
  9
$USERR3
 40
0.0
  9
$USERR4
 40
0.0
  9
$USERR5
 40
0.0
  9
$WORLDVIEW
 70
     1
  9
$SHADEDGE
 70
     3
  9
$SHADEDIF
 70
    70
  9
$TILEMODE
 70
     1
  9
$MAXACTVP
 70
    64
  9
$PINSBASE
 10
0.0
 20
0.0
 30
0.0
  9
$PLIMCHECK
 70
     0
  9
$PEXTMIN
 10
1.000000000000000E+20
 20
1.000000000000000E+20
 30
1.000000000000000E+20
  9
$PEXTMAX
 10
-1.000000000000000E+20
 20
-1.000000000000000E+20
 30
-1.000000000000000E+20
  9
$PLIMMIN
 10
0.0
 20
0.0
  9
$PLIMMAX
 10
12.0
 20
9.0
  9
$UNITMODE
 70
     0
  9
$VISRETAIN
 70
     1
  9
$PLINEGEN
 70
     0
  9
$PSLTSCALE
 70
     1
  9
$TREEDEPTH
 70
  3020
  9
$CMLSTYLE
  2
Standard
  9
$CMLJUST
 70
     0
  9
$CMLSCALE
 40
1.0
  9
$PROXYGRAPHICS
 70
     1
  9
$MEASUREMENT
 70
     0
  9
$CELWEIGHT
370
    -1
  9
$ENDCAPS
280
     0
  9
$JOINSTYLE
280
     0
  9
$LWDISPLAY
290
     1
  9
$INSUNITS
 70
     1
  9
$HYPERLINKBASE
  1

  9
$STYLESHEET
  1

  9
$XEDIT
290
     1
  9
$CEPSNTYPE
380
     0
  9
$PSTYLEMODE
290
     1
  9
$FINGERPRINTGUID
  2
{99BA3934-C404-26F1-3D3F-D40201566565}
  9
$VERSIONGUID
  2
{FAEB1C32-E019-11D5-929B-00C0DF256EC4}
  9
$EXTNAMES
290
     1
  9
$PSVPSCALE
 40
0.0
  9
$OLESTARTUP
290
     0
  9
$SORTENTS
280
   127
  9
$INDEXCTL
280
     0
  9
$HIDETEXT
280
     1
  9
$XCLIPFRAME
280
     2
  9
$HALOGAP
280
     0
  9
$OBSCOLOR
 70
   257
  9
$OBSLTYPE
280
     0
  9
$INTERSECTIONDISPLAY
280
     0
  9
$INTERSECTIONCOLOR
 70
   257
  9
$DIMASSOC
280
     2
  9
$PROJECTNAME
  1

  9
$CAMERADISPLAY
290
     0
  9
$LENSLENGTH
 40
50.0
  9
$CAMERAHEIGHT
 40
0.0
  9
$STEPSPERSEC
 40
2.0
  9
$STEPSIZE
 40
6.0
  9
$3DDWFPREC
 40
2.0
  9
$PSOLWIDTH
 40
0.25
  9
$PSOLHEIGHT
 40
4.0
  9
$LOFTANG1
 40
1.570796326794897
  9
$LOFTANG2
 40
1.570796326794897
  9
$LOFTMAG1
 40
0.0
  9
$LOFTMAG2
 40
0.0
  9
$LOFTPARAM
 70
     7
  9
$LOFTNORMALS
280
     1
  9
$LATITUDE
 40
37.795
  9
$LONGITUDE
 40
-122.394
  9
$NORTHDIRECTION
 40
0.0
  9
$TIMEZONE
 70
 -8000
  9
$LIGHTGLYPHDISPLAY
280
     1
  9
$TILEMODELIGHTSYNCH
280
     1
  9
$CMATERIAL
347
3C
  9
$SOLIDHIST
280
     1
  9
$SHOWHIST
280
     1
  9
$DWFFRAME
280
     2
  9
$DGNFRAME
280
     2
  9
$REALWORLDSCALE
290
     1
  9
$INTERFERECOLOR
 62
   256
  9
$CSHADOW
280
     0
  9
$SHADOWPLANELOCATION
 40
0.0
  0
ENDSEC
  0
SECTION
  2
CLASSES
  0
CLASS
  1
ACDBDICTIONARYWDFLT
  2
AcDbDictionaryWithDefault
  3
ObjectDBX Classes
 90
        0
 91
        4
280
     0
281
     0
  0
CLASS
  1
VISUALSTYLE
  2
AcDbVisualStyle
  3
ObjectDBX Classes
 90
     4095
 91
        4
280
     0
281
     0
  0
CLASS
  1
MATERIAL
  2
AcDbMaterial
  3
ObjectDBX Classes
 90
     1153
 91
        4
280
     0
281
     0
  0
CLASS
  1
SUN
  2
AcDbSun
  3
SCENEOE
 90
     1024
 91
        4
280
     0
281
     0
  0
ENDSEC
  0
SECTION
  2
TABLES
  0
TABLE
  2
VPORT
  5
8
330
0
100
AcDbSymbolTable
 70
     1
  0
VPORT
  5
29
330
8
100
AcDbSymbolTableRecord
100
AcDbViewportTableRecord
  2
*Active
 70
     0
 10
0.0
 20
0.0
 11
1.0
 21
1.0
 12
0.0
 22
0.0
 13
0.0
 23
0.0
 14
0.5
 24
0.5
 15
0.5
 25
0.5
 16
0.0
 26
0.0
 36
1.0
 17
105.0007777515277
 27
-148.5000416295416
 37
0.0
 40
297.0000832590831
 41
0.7070757462376333
 42
50.0
 43
0.0
 44
0.0
 50
0.0
 51
0.0
 71
     0
 72
   100
 73
     1
 74
     3
 75
     0
 76
     0
 77
     0
 78
     0
281
     0
 65
     1
110
0.0
120
0.0
130
0.0
111
1.0
121
0.0
131
0.0
112
0.0
122
1.0
132
0.0
 79
     0
146
0.0
 60
     3
 61
     5
292
     1
282
     1
141
0.0
142
0.0
 63
   250
361
3F
  0
ENDTAB
  0
TABLE
  2
LTYPE
  5
5
330
0
100
AcDbSymbolTable
 70
     1
  0
LTYPE
  5
14
330
5
100
AcDbSymbolTableRecord
100
AcDbLinetypeTableRecord
  2
ByBlock
 70
     0
  3

 72
    65
 73
     0
 40
0.0
  0
LTYPE
  5
15
330
5
100
AcDbSymbolTableRecord
100
AcDbLinetypeTableRecord
  2
ByLayer
 70
     0
  3

 72
    65
 73
     0
 40
0.0
  0
LTYPE
  5
16
330
5
100
AcDbSymbolTableRecord
100
AcDbLinetypeTableRecord
  2
Continuous
 70
     0
  3
Solid line
 72
    65
 73
     0
 40
0.0
  0
ENDTAB
  0
TABLE
  2
LAYER
  5
2
330
0
100
AcDbSymbolTable
 70
     2
  0
LAYER
  5
10
330
2
100
AcDbSymbolTableRecord
100
AcDbLayerTableRecord
  2
0
 70
     0
 62
     7
  6
Continuous
370
    -3
390
F
347
3E
  0
LAYER
  5
40
330
2
100
AcDbSymbolTableRecord
100
AcDbLayerTableRecord
  2
_U+30EC_U+30A4_U+30E4_U+30FC 1
 70
     0
 62
     7
  6
Continuous
370
    -3
390
F
347
3E
  0
ENDTAB
  0
TABLE
  2
STYLE
  5
3
330
0
100
AcDbSymbolTable
 70
     1
  0
STYLE
  5
11
330
3
100
AcDbSymbolTableRecord
100
AcDbTextStyleTableRecord
  2
Standard
 70
     0
 40
0.0
 41
1.0
 50
0.0
 71
     0
 42
0.2
  3
txt
  4

  0
ENDTAB
  0
TABLE
  2
VIEW
  5
6
330
0
100
AcDbSymbolTable
 70
     0
  0
ENDTAB
  0
TABLE
  2
UCS
  5
7
330
0
100
AcDbSymbolTable
 70
     0
  0
ENDTAB
  0
TABLE
  2
APPID
  5
9
330
0
100
AcDbSymbolTable
 70
     1
  0
APPID
  5
12
330
9
100
AcDbSymbolTableRecord
100
AcDbRegAppTableRecord
  2
ACAD
 70
     0
  0
ENDTAB
  0
TABLE
  2
DIMSTYLE
  5
A
330
0
100
AcDbSymbolTable
 70
     1
100
AcDbDimStyleTable
  0
DIMSTYLE
105
27
330
A
100
AcDbSymbolTableRecord
100
AcDbDimStyleTableRecord
  2
Standard
 70
     0
178
     0
340
11
  0
ENDTAB
  0
TABLE
  2
BLOCK_RECORD
  5
1
330
0
100
AcDbSymbolTable
 70
    10
  0
BLOCK_RECORD
  5
1F
330
1
100
AcDbSymbolTableRecord
100
AcDbBlockTableRecord
  2
*Model_Space
340
22
 70
     0
280
     1
281
     0
  0
BLOCK_RECORD
  5
1B
330
1
100
AcDbSymbolTableRecord
100
AcDbBlockTableRecord
  2
*Paper_Space
340
1E
 70
     0
280
     1
281
     0
  0
BLOCK_RECORD
  5
23
330
1
100
AcDbSymbolTableRecord
100
AcDbBlockTableRecord
  2
*Paper_Space0
340
26
 70
     0
280
     1
281
     0
  0
BLOCK_RECORD
  5
41
330
1
100
AcDbSymbolTableRecord
100
AcDbBlockTableRecord
  2
block 2
340
0
102
{BLKREFS
331
42
102
}
 70
     0
280
     1
281
     0
  0
BLOCK_RECORD
  5
51
330
1
100
AcDbSymbolTableRecord
100
AcDbBlockTableRecord
  2
block 3
340
0
102
{BLKREFS
331
52
102
}
 70
     0
280
     1
281
     0
  0
BLOCK_RECORD
  5
61
330
1
100
AcDbSymbolTableRecord
100
AcDbBlockTableRecord
  2
block 4
340
0
102
{BLKREFS
331
62
102
}
 70
     0
280
     1
281
     0
  0
BLOCK_RECORD
  5
73
330
1
100
AcDbSymbolTableRecord
100
AcDbBlockTableRecord
  2
block 5
340
0
102
{BLKREFS
331
74
102
}
 70
     0
280
     1
281
     0
  0
BLOCK_RECORD
  5
7B
330
1
100
AcDbSymbolTableRecord
100
AcDbBlockTableRecord
  2
block 6
340
0
102
{BLKREFS
331
7C
102
}
 70
     0
280
     1
281
     0
  0
BLOCK_RECORD
  5
B7
330
1
100
AcDbSymbolTableRecord
100
AcDbBlockTableRecord
  2
block 7
340
0
102
{BLKREFS
331
B8
102
}
 70
     0
280
     1
281
     0
  0
BLOCK_RECORD
  5
BF
330
1
100
AcDbSymbolTableRecord
100
AcDbBlockTableRecord
  2
block 8
340
0
102
{BLKREFS
331
C0
102
}
 70
     0
280
     1
281
     0
  0
BLOCK_RECORD
  5
C7
330
1
100
AcDbSymbolTableRecord
100
AcDbBlockTableRecord
  2
block 9
340
0
102
{BLKREFS
331
C8
102
}
 70
     0
280
     1
281
     0
  0
BLOCK_RECORD
  5
D9
330
1
100
AcDbSymbolTableRecord
100
AcDbBlockTableRecord
  2
block 10
340
0
102
{BLKREFS
331
DA
102
}
 70
     0
280
     1
281
     0
  0
ENDTAB
  0
ENDSEC
  0
SECTION
  2
BLOCKS
  0
BLOCK
  5
20
330
1F
100
AcDbEntity
  8
0
100
AcDbBlockBegin
  2
*Model_Space
 70
     0
 10
0.0
 20
0.0
 30
0.0
  3
*Model_Space
  1

  0
ENDBLK
  5
21
330
1F
100
AcDbEntity
  8
0
100
AcDbBlockEnd
  0
BLOCK
  5
1C
330
1B
100
AcDbEntity
 67
     1
  8
0
100
AcDbBlockBegin
  2
*Paper_Space
 70
     0
 10
0.0
 20
0.0
 30
0.0
  3
*Paper_Space
  1

  0
ENDBLK
  5
1D
330
1B
100
AcDbEntity
 67
     1
  8
0
100
AcDbBlockEnd
  0
BLOCK
  5
24
330
23
100
AcDbEntity
  8
0
100
AcDbBlockBegin
  2
*Paper_Space0
 70
     0
 10
0.0
 20
0.0
 30
0.0
  3
*Paper_Space0
  1

  0
ENDBLK
  5
25
330
23
100
AcDbEntity
  8
0
100
AcDbBlockEnd
  0
BLOCK
  5
43
330
41
100
AcDbEntity
  8
0
100
AcDbBlockBegin
  2
block 2
 70
     0
 10
0.0
 20
0.0
 30
0.0
  3
block 2
  1

  0
SPLINE
  5
45
330
41
100
AcDbEntity
  8
_U+30EC_U+30A4_U+30E4_U+30FC 1
370
     0
100
AcDbSpline
210
0.0
220
0.0
230
1.0
 70
    11
 71
     3
 72
    62
 73
    58
 74
     0
 42
0.0000000001
 43
0.0000000001
 12
1.0
 22
0.0
 32
0.0
 13
1.0
 23
0.0
 33
0.0
 40
0.0
 40
0.0
 40
0.0
 40
0.0
 40
1.0
 40
1.0
 40
1.0
 40
2.0
 40
2.0
 40
2.0
 40
3.0
 40
3.0
 40
3.0
 40
4.0
 40
4.0
 40
4.0
 40
5.0
 40
5.0
 40
5.0
 40
6.0
 40
6.0
 40
6.0
 40
7.0
 40
7.0
 40
7.0
 40
8.0
 40
8.0
 40
8.0
 40
9.0
 40
9.0
 40
9.0
 40
10.0
 40
10.0
 40
10.0
 40
11.0
 40
11.0
 40
11.0
 40
12.0
 40
12.0
 40
12.0
 40
13.0
 40
13.0
 40
13.0
 40
14.0
 40
14.0
 40
14.0
 40
15.0
 40
15.0
 40
15.0
 40
16.0
 40
16.0
 40
16.0
 40
17.0
 40
17.0
 40
17.0
 40
18.0
 40
18.0
 40
18.0
 40
19.0
 40
19.0
 40
19.0
 40
19.0
 10
121.090627682401
 20
-148.6579372458216
 30
0.0
 10
121.090627682401
 20
-148.7413085565647
 30
0.0
 10
121.0696125999409
 20
-148.9321668464475
 30
0.0
 10
120.8832329341889
 20
-149.0413763733299
 30
0.0
 10
120.7712673309183
 20
-149.1061441684526
 30
0.0
 10
120.6717040713946
 20
-149.1099337734864
 30
0.0
 10
120.587299232006
 20
-149.1133788689717
 30
0.0
 10
120.587299232006
 20
-149.1133788689717
 30
0.0
 10
120.587299232006
 20
-148.9211425408947
 30
0.0
 10
120.587299232006
 20
-148.9211425408947
 30
0.0
 10
120.6613687849388
 20
-148.9190754836036
 30
0.0
 10
120.8959797874844
 20
-148.9097737257934
 30
0.0
 10
120.8959797874844
 20
-148.6617268508554
 30
0.0
 10
120.8959797874844
 20
-148.5414930184202
 30
0.0
 10
120.8263888586823
 20
-148.408167823141
 30
0.0
 10
120.5976345184617
 20
-148.408167823141
 30
0.0
 10
120.4815348006088
 20
-148.408167823141
 30
0.0
 10
120.4326144447182
 20
-148.4412407397994
 30
0.0
 10
120.4009195662539
 20
-148.4691460132299
 30
0.0
 10
120.3268500133211
 20
-148.5339138083527
 30
0.0
 10
120.3144476695742
 20
-148.635888634716
 30
0.0
 10
120.3144476695742
 20
-148.6841199715095
 30
0.0
 10
120.3144476695742
 20
-148.7006564298387
 30
0.0
 10
120.3165147268653
 20
-148.7320067987545
 30
0.0
 10
120.3206488414476
 20
-148.7561224671512
 30
0.0
 10
120.3206488414476
 20
-148.7561224671512
 30
0.0
 10
120.126000946531
 20
-148.7561224671512
 30
0.0
 10
120.126000946531
 20
-148.7561224671512
 30
0.0
 10
120.1322021184045
 20
-148.7227050409443
 30
0.0
 10
120.1346136852441
 20
-148.6858425192522
 30
0.0
 10
120.1346136852441
 20
-148.6803303664757
 30
0.0
 10
120.1346136852441
 20
-148.6227972718721
 30
0.0
 10
120.1132540932356
 20
-148.448819949867
 30
0.0
 10
119.8762315238504
 20
-148.448819949867
 30
0.0
 10
119.69880910636
 20
-148.448819949867
 30
0.0
 10
119.643687578596
 20
-148.5635416295258
 30
0.0
 10
119.643687578596
 20
-148.6600043031128
 30
0.0
 10
119.643687578596
 20
-148.8915147197216
 30
0.0
 10
119.8762315238504
 20
-148.8987494202406
 30
0.0
 10
119.9482340194921
 20
-148.9025390252744
 30
0.0
 10
119.9482340194921
 20
-148.9025390252744
 30
0.0
 10
119.9482340194921
 20
-149.0803059523133
 30
0.0
 10
119.9482340194921
 20
-149.0803059523133
 30
0.0
 10
119.8235215629261
 20
-149.0727267422457
 30
0.0
 10
119.4469726263883
 20
-149.048611073849
 30
0.0
 10
119.4469726263883
 20
-148.6486354880115
 30
0.0
 10
119.4469726263883
 20
-148.4526095549007
 30
0.0
 10
119.5737521402455
 20
-148.2414252016549
 30
0.0
 10
119.8700303519769
 20
-148.2414252016549
 30
0.0
 10
120.0560655081804
 20
-148.2414252016549
 30
0.0
 10
120.1387477998264
 20
-148.324796512398
 30
0.0
 10
120.2000704994639
 20
-148.4116129186263
 30
0.0
 10
120.2276312633459
 20
-148.3582139386049
 30
0.0
 10
120.3079019881522
 20
-148.1987060176378
 30
0.0
 10
120.5852321747148
 20
-148.1987060176378
 30
0.0
 10
120.9235405513663
 20
-148.1987060176378
 30
0.0
 10
121.090627682401
 20
-148.41540252366
 30
0.0
 10
121.090627682401
 20
-148.6579372458216
 30
0.0
  0
HATCH
  5
46
330
41
100
AcDbEntity
  8
_U+30EC_U+30A4_U+30E4_U+30FC 1
 62
   179
420
  2234388
100
AcDbHatch
 10
0.0
 20
0.0
 30
0.0
210
0.0
220
0.0
230
1.0
  2
SOLID
 70
     1
 71
     0
 91
        1
 92
        1
 93
        1
 72
     4
 94
        3
 73
     0
 74
     1
 95
       62
 96
       58
 40
0.0
 40
0.0
 40
0.0
 40
0.0
 40
1.0
 40
1.0
 40
1.0
 40
2.0
 40
2.0
 40
2.0
 40
3.0
 40
3.0
 40
3.0
 40
4.0
 40
4.0
 40
4.0
 40
5.0
 40
5.0
 40
5.0
 40
6.0
 40
6.0
 40
6.0
 40
7.0
 40
7.0
 40
7.0
 40
8.0
 40
8.0
 40
8.0
 40
9.0
 40
9.0
 40
9.0
 40
10.0
 40
10.0
 40
10.0
 40
11.0
 40
11.0
 40
11.0
 40
12.0
 40
12.0
 40
12.0
 40
13.0
 40
13.0
 40
13.0
 40
14.0
 40
14.0
 40
14.0
 40
15.0
 40
15.0
 40
15.0
 40
16.0
 40
16.0
 40
16.0
 40
17.0
 40
17.0
 40
17.0
 40
18.0
 40
18.0
 40
18.0
 40
19.0
 40
19.0
 40
19.0
 40
19.0
 10
121.090627682401
 20
-148.6579372458216
 10
121.090627682401
 20
-148.7413085565647
 10
121.0696125999409
 20
-148.9321668464475
 10
120.8832329341889
 20
-149.0413763733299
 10
120.7712673309183
 20
-149.1061441684526
 10
120.6717040713946
 20
-149.1099337734864
 10
120.587299232006
 20
-149.1133788689717
 10
120.587299232006
 20
-149.1133788689717
 10
120.587299232006
 20
-148.9211425408947
 10
120.587299232006
 20
-148.9211425408947
 10
120.6613687849388
 20
-148.9190754836036
 10
120.8959797874844
 20
-148.9097737257934
 10
120.8959797874844
 20
-148.6617268508554
 10
120.8959797874844
 20
-148.5414930184202
 10
120.8263888586823
 20
-148.408167823141
 10
120.5976345184617
 20
-148.408167823141
 10
120.4815348006088
 20
-148.408167823141
 10
120.4326144447182
 20
-148.4412407397994
 10
120.4009195662539
 20
-148.4691460132299
 10
120.3268500133211
 20
-148.5339138083527
 10
120.3144476695742
 20
-148.635888634716
 10
120.3144476695742
 20
-148.6841199715095
 10
120.3144476695742
 20
-148.7006564298387
 10
120.3165147268653
 20
-148.7320067987545
 10
120.3206488414476
 20
-148.7561224671512
 10
120.3206488414476
 20
-148.7561224671512
 10
120.126000946531
 20
-148.7561224671512
 10
120.126000946531
 20
-148.7561224671512
 10
120.1322021184045
 20
-148.7227050409443
 10
120.1346136852441
 20
-148.6858425192522
 10
120.1346136852441
 20
-148.6803303664757
 10
120.1346136852441
 20
-148.6227972718721
 10
120.1132540932356
 20
-148.448819949867
 10
119.8762315238504
 20
-148.448819949867
 10
119.69880910636
 20
-148.448819949867
 10
119.643687578596
 20
-148.5635416295258
 10
119.643687578596
 20
-148.6600043031128
 10
119.643687578596
 20
-148.8915147197216
 10
119.8762315238504
 20
-148.8987494202406
 10
119.9482340194921
 20
-148.9025390252744
 10
119.9482340194921
 20
-148.9025390252744
 10
119.9482340194921
 20
-149.0803059523133
 10
119.9482340194921
 20
-149.0803059523133
 10
119.8235215629261
 20
-149.0727267422457
 10
119.4469726263883
 20
-149.048611073849
 10
119.4469726263883
 20
-148.6486354880115
 10
119.4469726263883
 20
-148.4526095549007
 10
119.5737521402455
 20
-148.2414252016549
 10
119.8700303519769
 20
-148.2414252016549
 10
120.0560655081804
 20
-148.2414252016549
 10
120.1387477998264
 20
-148.324796512398
 10
120.2000704994639
 20
-148.4116129186263
 10
120.2276312633459
 20
-148.3582139386049
 10
120.3079019881522
 20
-148.1987060176378
 10
120.5852321747148
 20
-148.1987060176378
 10
120.9235405513663
 20
-148.1987060176378
 10
121.090627682401
 20
-148.41540252366
 10
121.090627682401
 20
-148.6579372458216
 97
        0
 97
        0
 75
     2
 76
     1
 98
        0
  0
POLYLINE
  5
47
330
41
100
AcDbEntity
  8
_U+30EC_U+30A4_U+30E4_U+30FC 1
370
     0
100
AcDb2dPolyline
 66
     1
 10
0.0
 20
0.0
 30
0.0
  0
VERTEX
  5
48
330
47
100
AcDbEntity
  8
_U+30EC_U+30A4_U+30E4_U+30FC 1
370
     0
100
AcDbVertex
100
AcDb2dVertex
 10
121.0399847787678
 20
-148.0050916513668
 30
0.0
  0
VERTEX
  5
49
330
47
100
AcDbEntity
  8
_U+30EC_U+30A4_U+30E4_U+30FC 1
370
     0
100
AcDbVertex
100
AcDb2dVertex
 10
120.788148298796
 20
-148.0050916513668
 30
0.0
  0
VERTEX
  5
4A
330
47
100
AcDbEntity
  8
_U+30EC_U+30A4_U+30E4_U+30FC 1
370
     0
100
AcDbVertex
100
AcDb2dVertex
 10
120.788148298796
 20
-147.7846055403108
 30
0.0
  0
VERTEX
  5
4B
330
47
100
AcDbEntity
  8
_U+30EC_U+30A4_U+30E4_U+30FC 1
370
     0
100
AcDbVertex
100
AcDb2dVertex
 10
121.0399847787678
 20
-147.7846055403108
 30
0.0
  0
VERTEX
  5
4C
330
47
100
AcDbEntity
  8
_U+30EC_U+30A4_U+30E4_U+30FC 1
370
     0
100
AcDbVertex
100
AcDb2dVertex
 10
121.0399847787678
 20
-148.0050916513668
 30
0.0
  0
SEQEND
  5
4D
330
47
100
AcDbEntity
  8
_U+30EC_U+30A4_U+30E4_U+30FC 1
370
     0
  0
HATCH
  5
4E
330
41
100
AcDbEntity
  8
_U+30EC_U+30A4_U+30E4_U+30FC 1
 62
   179
420
  2234388
100
AcDbHatch
 10
0.0
 20
0.0
 30
0.0
210
0.0
220
0.0
230
1.0
  2
SOLID
 70
     1
 71
     0
 91
        1
 92
        1
 93
        4
 72
     1
 10
121.0399847787678
 20
-148.0050916513668
 11
120.788148298796
 21
-148.0050916513668
 72
     1
 10
120.788148298796
 20
-148.0050916513668
 11
120.788148298796
 21
-147.7846055403108
 72
     1
 10
120.788148298796
 20
-147.7846055403108
 11
121.0399847787678
 21
-147.7846055403108
 72
     1
 10
121.0399847787678
 20
-147.7846055403108
 11
121.0399847787678
 21
-148.0050916513668
 97
        0
 75
     2
 76
     1
 98
        0
  0
SPLINE
  5
4F
330
41
100
AcDbEntity
  8
_U+30EC_U+30A4_U+30E4_U+30FC 1
370
     0
100
AcDbSpline
210
0.0
220
0.0
230
1.0
 70
    11
 71
     3
 72
    44
 73
    40
 74
     0
 42
0.0000000001
 43
0.0000000001
 12
1.0
 22
0.0
 32
0.0
 13
1.0
 23
0.0
 33
0.0
 40
0.0
 40
0.0
 40
0.0
 40
0.0
 40
1.0
 40
1.0
 40
1.0
 40
2.0
 40
2.0
 40
2.0
 40
3.0
 40
3.0
 40
3.0
 40
4.0
 40
4.0
 40
4.0
 40
5.0
 40
5.0
 40
5.0
 40
6.0
 40
6.0
 40
6.0
 40
7.0
 40
7.0
 40
7.0
 40
8.0
 40
8.0
 40
8.0
 40
9.0
 40
9.0
 40
9.0
 40
10.0
 40
10.0
 40
10.0
 40
11.0
 40
11.0
 40
11.0
 40
12.0
 40
12.0
 40
12.0
 40
13.0
 40
13.0
 40
13.0
 40
13.0
 10
120.4581081513091
 20
-147.0580349024716
 30
0.0
 10
120.6169270531791
 20
-147.2488931923544
 30
0.0
 10
120.690996606112
 20
-147.3301974458063
 30
0.0
 10
120.8346570878469
 20
-147.3729166298234
 30
0.0
 10
120.8346570878469
 20
-147.3729166298234
 30
0.0
 10
120.8346570878469
 20
-146.691476742841
 30
0.0
 10
120.8346570878469
 20
-146.691476742841
 30
0.0
 10
120.8346570878469
 20
-146.691476742841
 30
0.0
 10
121.0399847787678
 20
-146.691476742841
 30
0.0
 10
121.0399847787678
 20
-146.691476742841
 30
0.0
 10
121.0399847787678
 20
-146.691476742841
 30
0.0
 10
121.0399847787678
 20
-147.5913356835883
 30
0.0
 10
121.0399847787678
 20
-147.5913356835883
 30
0.0
 10
120.6823838673989
 20
-147.5637749197063
 30
0.0
 10
120.6041801998837
 20
-147.5062418251026
 30
0.0
 10
120.3058349308611
 20
-147.1693114866452
 30
0.0
 10
120.1070529213621
 20
-146.9450357705554
 30
0.0
 10
120.0391845403027
 20
-146.8878471855003
 30
0.0
 10
119.9017252304412
 20
-146.8878471855003
 30
0.0
 10
119.7832139457486
 20
-146.8878471855003
 30
0.0
 10
119.6523003173092
 20
-146.9505479233318
 30
0.0
 10
119.6523003173092
 20
-147.1228026975943
 30
0.0
 10
119.6523003173092
 20
-147.3508680187178
 30
0.0
 10
119.8827772052724
 20
-147.3581027192369
 30
0.0
 10
119.9992214326738
 20
-147.3618923242707
 30
0.0
 10
119.9992214326738
 20
-147.3618923242707
 30
0.0
 10
119.9992214326738
 20
-147.5582627669299
 30
0.0
 10
119.9992214326738
 20
-147.5582627669299
 30
0.0
 10
119.8720974092681
 20
-147.5506835568623
 30
0.0
 10
119.7601318059975
 20
-147.5413817990522
 30
0.0
 10
119.6416205213049
 20
-147.4711018511531
 30
0.0
 10
119.4807345621437
 20
-147.3746391775661
 30
0.0
 10
119.4469726263883
 20
-147.2116861611138
 30
0.0
 10
119.4469726263883
 20
-147.1100558442989
 30
0.0
 10
119.4469726263883
 20
-146.8675211221373
 30
0.0
 10
119.6309407253006
 20
-146.6859645900646
 30
0.0
 10
119.9037922877324
 20
-146.6859645900646
 30
0.0
 10
120.1322021184045
 20
-146.6859645900646
 30
0.0
 10
120.2317653779282
 20
-146.787939416428
 30
0.0
 10
120.4581081513091
 20
-147.0580349024716
 30
0.0
  0
HATCH
  5
50
330
41
100
AcDbEntity
  8
_U+30EC_U+30A4_U+30E4_U+30FC 1
 62
   179
420
  2234388
100
AcDbHatch
 10
0.0
 20
0.0
 30
0.0
210
0.0
220
0.0
230
1.0
  2
SOLID
 70
     1
 71
     0
 91
        1
 92
        1
 93
        1
 72
     4
 94
        3
 73
     0
 74
     1
 95
       44
 96
       40
 40
0.0
 40
0.0
 40
0.0
 40
0.0
 40
1.0
 40
1.0
 40
1.0
 40
2.0
 40
2.0
 40
2.0
 40
3.0
 40
3.0
 40
3.0
 40
4.0
 40
4.0
 40
4.0
 40
5.0
 40
5.0
 40
5.0
 40
6.0
 40
6.0
 40
6.0
 40
7.0
 40
7.0
 40
7.0
 40
8.0
 40
8.0
 40
8.0
 40
9.0
 40
9.0
 40
9.0
 40
10.0
 40
10.0
 40
10.0
 40
11.0
 40
11.0
 40
11.0
 40
12.0
 40
12.0
 40
12.0
 40
13.0
 40
13.0
 40
13.0
 40
13.0
 10
120.4581081513091
 20
-147.0580349024716
 10
120.6169270531791
 20
-147.2488931923544
 10
120.690996606112
 20
-147.3301974458063
 10
120.8346570878469
 20
-147.3729166298234
 10
120.8346570878469
 20
-147.3729166298234
 10
120.8346570878469
 20
-146.691476742841
 10
120.8346570878469
 20
-146.691476742841
 10
120.8346570878469
 20
-146.691476742841
 10
121.0399847787678
 20
-146.691476742841
 10
121.0399847787678
 20
-146.691476742841
 10
121.0399847787678
 20
-146.691476742841
 10
121.0399847787678
 20
-147.5913356835883
 10
121.0399847787678
 20
-147.5913356835883
 10
120.6823838673989
 20
-147.5637749197063
 10
120.6041801998837
 20
-147.5062418251026
 10
120.3058349308611
 20
-147.1693114866452
 10
120.1070529213621
 20
-146.9450357705554
 10
120.0391845403027
 20
-146.8878471855003
 10
119.9017252304412
 20
-146.8878471855003
 10
119.7832139457486
 20
-146.8878471855003
 10
119.6523003173092
 20
-146.9505479233318
 10
119.6523003173092
 20
-147.1228026975943
 10
119.6523003173092
 20
-147.3508680187178
 10
119.8827772052724
 20
-147.3581027192369
 10
119.9992214326738
 20
-147.3618923242707
 10
119.9992214326738
 20
-147.3618923242707
 10
119.9992214326738
 20
-147.5582627669299
 10
119.9992214326738
 20
-147.5582627669299
 10
119.8720974092681
 20
-147.5506835568623
 10
119.7601318059975
 20
-147.5413817990522
 10
119.6416205213049
 20
-147.4711018511531
 10
119.4807345621437
 20
-147.3746391775661
 10
119.4469726263883
 20
-147.2116861611138
 10
119.4469726263883
 20
-147.1100558442989
 10
119.4469726263883
 20
-146.8675211221373
 10
119.6309407253006
 20
-146.6859645900646
 10
119.9037922877324
 20
-146.6859645900646
 10
120.1322021184045
 20
-146.6859645900646
 10
120.2317653779282
 20
-146.787939416428
 10
120.4581081513091
 20
-147.0580349024716
 97
        0
 97
        0
 75
     2
 76
     1
 98
        0
  0
ENDBLK
  5
44
330
41
100
AcDbEntity
  8
0
100
AcDbBlockEnd
  0
BLOCK
  5
53
330
51
100
AcDbEntity
  8
0
100
AcDbBlockBegin
  2
block 3
 70
     0
 10
0.0
 20
0.0
 30
0.0
  3
block 3
  1

  0
SPLINE
  5
55
330
51
100
AcDbEntity
  8
_U+30EC_U+30A4_U+30E4_U+30FC 1
370
     0
100
AcDbSpline
210
0.0
220
0.0
230
1.0
 70
    11
 71
     3
 72
    53
 73
    49
 74
     0
 42
0.0000000001
 43
0.0000000001
 12
1.0
 22
0.0
 32
0.0
 13
1.0
 23
0.0
 33
0.0
 40
0.0
 40
0.0
 40
0.0
 40
0.0
 40
1.0
 40
1.0
 40
1.0
 40
2.0
 40
2.0
 40
2.0
 40
3.0
 40
3.0
 40
3.0
 40
4.0
 40
4.0
 40
4.0
 40
5.0
 40
5.0
 40
5.0
 40
6.0
 40
6.0
 40
6.0
 40
7.0
 40
7.0
 40
7.0
 40
8.0
 40
8.0
 40
8.0
 40
9.0
 40
9.0
 40
9.0
 40
10.0
 40
10.0
 40
10.0
 40
11.0
 40
11.0
 40
11.0
 40
12.0
 40
12.0
 40
12.0
 40
13.0
 40
13.0
 40
13.0
 40
14.0
 40
14.0
 40
14.0
 40
15.0
 40
15.0
 40
15.0
 40
16.0
 40
16.0
 40
16.0
 40
16.0
 10
121.0968288542744
 20
-153.1048664981821
 30
0.0
 10
121.0968288542744
 20
-153.1734238983386
 30
0.0
 10
121.0799478863967
 20
-153.262307361858
 30
0.0
 10
121.0165581294681
 20
-153.3511908253775
 30
0.0
 10
120.9063150739401
 20
-153.503119536277
 30
0.0
 10
120.7754014455006
 20
-153.5217230518974
 30
0.0
 10
120.6675699568123
 20
-153.5382595102266
 30
0.0
 10
120.6675699568123
 20
-153.5382595102266
 30
0.0
 10
120.6675699568123
 20
-153.3439561248585
 30
0.0
 10
120.6675699568123
 20
-153.3439561248585
 30
0.0
 10
120.8663519663112
 20
-153.295724788065
 30
0.0
 10
120.8959797874844
 20
-153.1844482038914
 30
0.0
 10
120.8959797874844
 20
-153.1031439504395
 30
0.0
 10
120.8959797874844
 20
-152.9808430607131
 30
0.0
 10
120.7964165279606
 20
-152.847517865434
 30
0.0
 10
120.5638725827063
 20
-152.847517865434
 30
0.0
 10
120.3079019881522
 20
-152.847517865434
 30
0.0
 10
120.2379665498016
 20
-153.0049587291099
 30
0.0
 10
120.2379665498016
 20
-153.1103786509585
 30
0.0
 10
120.2379665498016
 20
-153.138283924389
 30
0.0
 10
120.2379665498016
 20
-153.262307361858
 30
0.0
 10
120.3671576304985
 20
-153.3401665198247
 30
0.0
 10
120.3671576304985
 20
-153.3401665198247
 30
0.0
 10
120.3478650957811
 20
-153.4938177784668
 30
0.0
 10
120.3478650957811
 20
-153.4938177784668
 30
0.0
 10
120.3478650957811
 20
-153.4938177784668
 30
0.0
 10
119.5017496446037
 20
-153.3880533470697
 30
0.0
 10
119.5017496446037
 20
-153.3880533470697
 30
0.0
 10
119.5017496446037
 20
-153.3880533470697
 30
0.0
 10
119.5017496446037
 20
-152.7066134600873
 30
0.0
 10
119.5017496446037
 20
-152.7066134600873
 30
0.0
 10
119.5017496446037
 20
-152.7066134600873
 30
0.0
 10
119.6963975395203
 20
-152.7066134600873
 30
0.0
 10
119.6963975395203
 20
-152.7066134600873
 30
0.0
 10
119.6963975395203
 20
-152.7066134600873
 30
0.0
 10
119.6963975395203
 20
-153.2457709035288
 30
0.0
 10
119.6963975395203
 20
-153.2457709035288
 30
0.0
 10
119.6963975395203
 20
-153.2457709035288
 30
0.0
 10
120.119455265109
 20
-153.302959488584
 30
0.0
 10
120.119455265109
 20
-153.302959488584
 30
0.0
 10
120.0856933293536
 20
-153.2492159990141
 30
0.0
 10
120.0453857121762
 20
-153.1772135033724
 30
0.0
 10
120.0453857121762
 20
-153.0735161292664
 30
0.0
 10
120.0453857121762
 20
-152.8513074704677
 30
0.0
 10
120.2317653779282
 20
-152.6439127222557
 30
0.0
 10
120.5445800479889
 20
-152.6439127222557
 30
0.0
 10
120.8622178517289
 20
-152.6439127222557
 30
0.0
 10
121.0968288542744
 20
-152.8402831649149
 30
0.0
 10
121.0968288542744
 20
-153.1048664981821
 30
0.0
  0
HATCH
  5
56
330
51
100
AcDbEntity
  8
_U+30EC_U+30A4_U+30E4_U+30FC 1
 62
   179
420
  2234388
100
AcDbHatch
 10
0.0
 20
0.0
 30
0.0
210
0.0
220
0.0
230
1.0
  2
SOLID
 70
     1
 71
     0
 91
        1
 92
        1
 93
        1
 72
     4
 94
        3
 73
     0
 74
     1
 95
       53
 96
       49
 40
0.0
 40
0.0
 40
0.0
 40
0.0
 40
1.0
 40
1.0
 40
1.0
 40
2.0
 40
2.0
 40
2.0
 40
3.0
 40
3.0
 40
3.0
 40
4.0
 40
4.0
 40
4.0
 40
5.0
 40
5.0
 40
5.0
 40
6.0
 40
6.0
 40
6.0
 40
7.0
 40
7.0
 40
7.0
 40
8.0
 40
8.0
 40
8.0
 40
9.0
 40
9.0
 40
9.0
 40
10.0
 40
10.0
 40
10.0
 40
11.0
 40
11.0
 40
11.0
 40
12.0
 40
12.0
 40
12.0
 40
13.0
 40
13.0
 40
13.0
 40
14.0
 40
14.0
 40
14.0
 40
15.0
 40
15.0
 40
15.0
 40
16.0
 40
16.0
 40
16.0
 40
16.0
 10
121.0968288542744
 20
-153.1048664981821
 10
121.0968288542744
 20
-153.1734238983386
 10
121.0799478863967
 20
-153.262307361858
 10
121.0165581294681
 20
-153.3511908253775
 10
120.9063150739401
 20
-153.503119536277
 10
120.7754014455006
 20
-153.5217230518974
 10
120.6675699568123
 20
-153.5382595102266
 10
120.6675699568123
 20
-153.5382595102266
 10
120.6675699568123
 20
-153.3439561248585
 10
120.6675699568123
 20
-153.3439561248585
 10
120.8663519663112
 20
-153.295724788065
 10
120.8959797874844
 20
-153.1844482038914
 10
120.8959797874844
 20
-153.1031439504395
 10
120.8959797874844
 20
-152.9808430607131
 10
120.7964165279606
 20
-152.847517865434
 10
120.5638725827063
 20
-152.847517865434
 10
120.3079019881522
 20
-152.847517865434
 10
120.2379665498016
 20
-153.0049587291099
 10
120.2379665498016
 20
-153.1103786509585
 10
120.2379665498016
 20
-153.138283924389
 10
120.2379665498016
 20
-153.262307361858
 10
120.3671576304985
 20
-153.3401665198247
 10
120.3671576304985
 20
-153.3401665198247
 10
120.3478650957811
 20
-153.4938177784668
 10
120.3478650957811
 20
-153.4938177784668
 10
120.3478650957811
 20
-153.4938177784668
 10
119.5017496446037
 20
-153.3880533470697
 10
119.5017496446037
 20
-153.3880533470697
 10
119.5017496446037
 20
-153.3880533470697
 10
119.5017496446037
 20
-152.7066134600873
 10
119.5017496446037
 20
-152.7066134600873
 10
119.5017496446037
 20
-152.7066134600873
 10
119.6963975395203
 20
-152.7066134600873
 10
119.6963975395203
 20
-152.7066134600873
 10
119.6963975395203
 20
-152.7066134600873
 10
119.6963975395203
 20
-153.2457709035288
 10
119.6963975395203
 20
-153.2457709035288
 10
119.6963975395203
 20
-153.2457709035288
 10
120.119455265109
 20
-153.302959488584
 10
120.119455265109
 20
-153.302959488584
 10
120.0856933293536
 20
-153.2492159990141
 10
120.0453857121762
 20
-153.1772135033724
 10
120.0453857121762
 20
-153.0735161292664
 10
120.0453857121762
 20
-152.8513074704677
 10
120.2317653779282
 20
-152.6439127222557
 10
120.5445800479889
 20
-152.6439127222557
 10
120.8622178517289
 20
-152.6439127222557
 10
121.0968288542744
 20
-152.8402831649149
 10
121.0968288542744
 20
-153.1048664981821
 97
        0
 97
        0
 75
     2
 76
     1
 98
        0
  0
POLYLINE
  5
57
330
51
100
AcDbEntity
  8
_U+30EC_U+30A4_U+30E4_U+30FC 1
370
     0
100
AcDb2dPolyline
 66
     1
 10
0.0
 20
0.0
 30
0.0
  0
VERTEX
  5
58
330
57
100
AcDbEntity
  8
_U+30EC_U+30A4_U+30E4_U+30FC 1
370
     0
100
AcDbVertex
100
AcDb2dVertex
 10
121.0461859506412
 20
-152.4427191459171
 30
0.0
  0
VERTEX
  5
59
330
57
100
AcDbEntity
  8
_U+30EC_U+30A4_U+30E4_U+30FC 1
370
     0
100
AcDbVertex
100
AcDb2dVertex
 10
120.7943494706695
 20
-152.4427191459171
 30
0.0
  0
VERTEX
  5
5A
330
57
100
AcDbEntity
  8
_U+30EC_U+30A4_U+30E4_U+30FC 1
370
     0
100
AcDbVertex
100
AcDb2dVertex
 10
120.7943494706695
 20
-152.2222330348611
 30
0.0
  0
VERTEX
  5
5B
330
57
100
AcDbEntity
  8
_U+30EC_U+30A4_U+30E4_U+30FC 1
370
     0
100
AcDbVertex
100
AcDb2dVertex
 10
121.0461859506412
 20
-152.2222330348611
 30
0.0
  0
VERTEX
  5
5C
330
57
100
AcDbEntity
  8
_U+30EC_U+30A4_U+30E4_U+30FC 1
370
     0
100
AcDbVertex
100
AcDb2dVertex
 10
121.0461859506412
 20
-152.4427191459171
 30
0.0
  0
SEQEND
  5
5D
330
57
100
AcDbEntity
  8
_U+30EC_U+30A4_U+30E4_U+30FC 1
370
     0
  0
HATCH
  5
5E
330
51
100
AcDbEntity
  8
_U+30EC_U+30A4_U+30E4_U+30FC 1
 62
   179
420
  2234388
100
AcDbHatch
 10
0.0
 20
0.0
 30
0.0
210
0.0
220
0.0
230
1.0
  2
SOLID
 70
     1
 71
     0
 91
        1
 92
        1
 93
        4
 72
     1
 10
121.0461859506412
 20
-152.4427191459171
 11
120.7943494706695
 21
-152.4427191459171
 72
     1
 10
120.7943494706695
 20
-152.4427191459171
 11
120.7943494706695
 21
-152.2222330348611
 72
     1
 10
120.7943494706695
 20
-152.2222330348611
 11
121.0461859506412
 21
-152.2222330348611
 72
     1
 10
121.0461859506412
 20
-152.2222330348611
 11
121.0461859506412
 21
-152.4427191459171
 97
        0
 75
     2
 76
     1
 98
        0
  0
SPLINE
  5
5F
330
51
100
AcDbEntity
  8
_U+30EC_U+30A4_U+30E4_U+30FC 1
370
     0
100
AcDbSpline
210
0.0
220
0.0
230
1.0
 70
    11
 71
     3
 72
    53
 73
    49
 74
     0
 42
0.0000000001
 43
0.0000000001
 12
1.0
 22
0.0
 32
0.0
 13
1.0
 23
0.0
 33
0.0
 40
0.0
 40
0.0
 40
0.0
 40
0.0
 40
1.0
 40
1.0
 40
1.0
 40
2.0
 40
2.0
 40
2.0
 40
3.0
 40
3.0
 40
3.0
 40
4.0
 40
4.0
 40
4.0
 40
5.0
 40
5.0
 40
5.0
 40
6.0
 40
6.0
 40
6.0
 40
7.0
 40
7.0
 40
7.0
 40
8.0
 40
8.0
 40
8.0
 40
9.0
 40
9.0
 40
9.0
 40
10.0
 40
10.0
 40
10.0
 40
11.0
 40
11.0
 40
11.0
 40
12.0
 40
12.0
 40
12.0
 40
13.0
 40
13.0
 40
13.0
 40
14.0
 40
14.0
 40
14.0
 40
15.0
 40
15.0
 40
15.0
 40
16.0
 40
16.0
 40
16.0
 40
16.0
 10
121.0968288542744
 20
-151.5938476183515
 30
0.0
 10
121.0968288542744
 20
-151.662405018508
 30
0.0
 10
121.0799478863967
 20
-151.7512884820275
 30
0.0
 10
121.0165581294681
 20
-151.8401719455469
 30
0.0
 10
120.9063150739401
 20
-151.9921006564464
 30
0.0
 10
120.7754014455006
 20
-152.0107041720668
 30
0.0
 10
120.6675699568123
 20
-152.027240630396
 30
0.0
 10
120.6675699568123
 20
-152.027240630396
 30
0.0
 10
120.6675699568123
 20
-151.8329372450279
 30
0.0
 10
120.6675699568123
 20
-151.8329372450279
 30
0.0
 10
120.8663519663112
 20
-151.7847059082344
 30
0.0
 10
120.8959797874844
 20
-151.6734293240608
 30
0.0
 10
120.8959797874844
 20
-151.5921250706089
 30
0.0
 10
120.8959797874844
 20
-151.4698241808825
 30
0.0
 10
120.7964165279606
 20
-151.3364989856034
 30
0.0
 10
120.5638725827063
 20
-151.3364989856034
 30
0.0
 10
120.3079019881522
 20
-151.3364989856034
 30
0.0
 10
120.2379665498016
 20
-151.4939398492793
 30
0.0
 10
120.2379665498016
 20
-151.599359771128
 30
0.0
 10
120.2379665498016
 20
-151.6272650445585
 30
0.0
 10
120.2379665498016
 20
-151.7512884820275
 30
0.0
 10
120.3671576304985
 20
-151.8291476399941
 30
0.0
 10
120.3671576304985
 20
-151.8291476399941
 30
0.0
 10
120.3478650957811
 20
-151.9827988986362
 30
0.0
 10
120.3478650957811
 20
-151.9827988986362
 30
0.0
 10
120.3478650957811
 20
-151.9827988986362
 30
0.0
 10
119.5017496446037
 20
-151.8770344672391
 30
0.0
 10
119.5017496446037
 20
-151.8770344672391
 30
0.0
 10
119.5017496446037
 20
-151.8770344672391
 30
0.0
 10
119.5017496446037
 20
-151.1955945802567
 30
0.0
 10
119.5017496446037
 20
-151.1955945802567
 30
0.0
 10
119.5017496446037
 20
-151.1955945802567
 30
0.0
 10
119.6963975395203
 20
-151.1955945802567
 30
0.0
 10
119.6963975395203
 20
-151.1955945802567
 30
0.0
 10
119.6963975395203
 20
-151.1955945802567
 30
0.0
 10
119.6963975395203
 20
-151.7347520236983
 30
0.0
 10
119.6963975395203
 20
-151.7347520236983
 30
0.0
 10
119.6963975395203
 20
-151.7347520236983
 30
0.0
 10
120.119455265109
 20
-151.7919406087534
 30
0.0
 10
120.119455265109
 20
-151.7919406087534
 30
0.0
 10
120.0856933293536
 20
-151.7381971191835
 30
0.0
 10
120.0453857121762
 20
-151.6661946235418
 30
0.0
 10
120.0453857121762
 20
-151.5624972494358
 30
0.0
 10
120.0453857121762
 20
-151.3402885906372
 30
0.0
 10
120.2317653779282
 20
-151.1328938424251
 30
0.0
 10
120.5445800479889
 20
-151.1328938424251
 30
0.0
 10
120.8622178517289
 20
-151.1328938424251
 30
0.0
 10
121.0968288542744
 20
-151.3292642850843
 30
0.0
 10
121.0968288542744
 20
-151.5938476183515
 30
0.0
  0
HATCH
  5
60
330
51
100
AcDbEntity
  8
_U+30EC_U+30A4_U+30E4_U+30FC 1
 62
   179
420
  2234388
100
AcDbHatch
 10
0.0
 20
0.0
 30
0.0
210
0.0
220
0.0
230
1.0
  2
SOLID
 70
     1
 71
     0
 91
        1
 92
        1
 93
        1
 72
     4
 94
        3
 73
     0
 74
     1
 95
       53
 96
       49
 40
0.0
 40
0.0
 40
0.0
 40
0.0
 40
1.0
 40
1.0
 40
1.0
 40
2.0
 40
2.0
 40
2.0
 40
3.0
 40
3.0
 40
3.0
 40
4.0
 40
4.0
 40
4.0
 40
5.0
 40
5.0
 40
5.0
 40
6.0
 40
6.0
 40
6.0
 40
7.0
 40
7.0
 40
7.0
 40
8.0
 40
8.0
 40
8.0
 40
9.0
 40
9.0
 40
9.0
 40
10.0
 40
10.0
 40
10.0
 40
11.0
 40
11.0
 40
11.0
 40
12.0
 40
12.0
 40
12.0
 40
13.0
 40
13.0
 40
13.0
 40
14.0
 40
14.0
 40
14.0
 40
15.0
 40
15.0
 40
15.0
 40
16.0
 40
16.0
 40
16.0
 40
16.0
 10
121.0968288542744
 20
-151.5938476183515
 10
121.0968288542744
 20
-151.662405018508
 10
121.0799478863967
 20
-151.7512884820275
 10
121.0165581294681
 20
-151.8401719455469
 10
120.9063150739401
 20
-151.9921006564464
 10
120.7754014455006
 20
-152.0107041720668
 10
120.6675699568123
 20
-152.027240630396
 10
120.6675699568123
 20
-152.027240630396
 10
120.6675699568123
 20
-151.8329372450279
 10
120.6675699568123
 20
-151.8329372450279
 10
120.8663519663112
 20
-151.7847059082344
 10
120.8959797874844
 20
-151.6734293240608
 10
120.8959797874844
 20
-151.5921250706089
 10
120.8959797874844
 20
-151.4698241808825
 10
120.7964165279606
 20
-151.3364989856034
 10
120.5638725827063
 20
-151.3364989856034
 10
120.3079019881522
 20
-151.3364989856034
 10
120.2379665498016
 20
-151.4939398492793
 10
120.2379665498016
 20
-151.599359771128
 10
120.2379665498016
 20
-151.6272650445585
 10
120.2379665498016
 20
-151.7512884820275
 10
120.3671576304985
 20
-151.8291476399941
 10
120.3671576304985
 20
-151.8291476399941
 10
120.3478650957811
 20
-151.9827988986362
 10
120.3478650957811
 20
-151.9827988986362
 10
120.3478650957811
 20
-151.9827988986362
 10
119.5017496446037
 20
-151.8770344672391
 10
119.5017496446037
 20
-151.8770344672391
 10
119.5017496446037
 20
-151.8770344672391
 10
119.5017496446037
 20
-151.1955945802567
 10
119.5017496446037
 20
-151.1955945802567
 10
119.5017496446037
 20
-151.1955945802567
 10
119.6963975395203
 20
-151.1955945802567
 10
119.6963975395203
 20
-151.1955945802567
 10
119.6963975395203
 20
-151.1955945802567
 10
119.6963975395203
 20
-151.7347520236983
 10
119.6963975395203
 20
-151.7347520236983
 10
119.6963975395203
 20
-151.7347520236983
 10
120.119455265109
 20
-151.7919406087534
 10
120.119455265109
 20
-151.7919406087534
 10
120.0856933293536
 20
-151.7381971191835
 10
120.0453857121762
 20
-151.6661946235418
 10
120.0453857121762
 20
-151.5624972494358
 10
120.0453857121762
 20
-151.3402885906372
 10
120.2317653779282
 20
-151.1328938424251
 10
120.5445800479889
 20
-151.1328938424251
 10
120.8622178517289
 20
-151.1328938424251
 10
121.0968288542744
 20
-151.3292642850843
 10
121.0968288542744
 20
-151.5938476183515
 97
        0
 97
        0
 75
     2
 76
     1
 98
        0
  0
ENDBLK
  5
54
330
51
100
AcDbEntity
  8
0
100
AcDbBlockEnd
  0
BLOCK
  5
63
330
61
100
AcDbEntity
  8
0
100
AcDbBlockBegin
  2
block 4
 70
     0
 10
0.0
 20
0.0
 30
0.0
  3
block 4
  1

  0
SPLINE
  5
65
330
61
100
AcDbEntity
  8
_U+30EC_U+30A4_U+30E4_U+30FC 1
370
     0
100
AcDbSpline
210
0.0
220
0.0
230
1.0
 70
    11
 71
     3
 72
    29
 73
    25
 74
     0
 42
0.0000000001
 43
0.0000000001
 12
1.0
 22
0.0
 32
0.0
 13
1.0
 23
0.0
 33
0.0
 40
0.0
 40
0.0
 40
0.0
 40
0.0
 40
1.0
 40
1.0
 40
1.0
 40
2.0
 40
2.0
 40
2.0
 40
3.0
 40
3.0
 40
3.0
 40
4.0
 40
4.0
 40
4.0
 40
5.0
 40
5.0
 40
5.0
 40
6.0
 40
6.0
 40
6.0
 40
7.0
 40
7.0
 40
7.0
 40
8.0
 40
8.0
 40
8.0
 40
8.0
 10
126.1707654849504
 20
-151.4667235949458
 30
0.0
 10
126.1707654849504
 20
-151.6999565592972
 30
0.0
 10
126.0329616655404
 20
-151.9221652180958
 30
0.0
 10
125.6839734928846
 20
-151.9221652180958
 30
0.0
 10
125.4280028983305
 20
-151.9221652180958
 30
0.0
 10
125.3329182629376
 20
-151.7981417806268
 30
0.0
 10
125.2715955633002
 20
-151.7054687120736
 30
0.0
 10
125.2123399209539
 20
-151.814678238956
 30
0.0
 10
125.0979627508436
 20
-151.8815130913699
 30
0.0
 10
124.9374213012309
 20
-151.8815130913699
 30
0.0
 10
124.6621581719595
 20
-151.8815130913699
 30
0.0
 10
124.5267659193891
 20
-151.7075357693648
 30
0.0
 10
124.5267659193891
 20
-151.4667235949458
 30
0.0
 10
124.5267659193891
 20
-151.2183322104593
 30
0.0
 10
124.6707709106726
 20
-151.0519340985217
 30
0.0
 10
124.9374213012309
 20
-151.0519340985217
 30
0.0
 10
125.0979627508436
 20
-151.0519340985217
 30
0.0
 10
125.2123399209539
 20
-151.1204914986782
 30
0.0
 10
125.2715955633002
 20
-151.2297010255606
 30
0.0
 10
125.3222384669333
 20
-151.151841867594
 30
0.0
 10
125.4176676118748
 20
-151.0130045195384
 30
0.0
 10
125.6798393783023
 20
-151.0130045195384
 30
0.0
 10
126.0543212575489
 20
-151.0130045195384
 30
0.0
 10
126.1707654849504
 20
-151.2572617894426
 30
0.0
 10
126.1707654849504
 20
-151.4667235949458
 30
0.0
  0
SPLINE
  5
66
330
61
100
AcDbEntity
  8
_U+30EC_U+30A4_U+30E4_U+30FC 1
370
     0
100
AcDbSpline
210
0.0
220
0.0
230
1.0
 70
    11
 71
     3
 72
    17
 73
    13
 74
     0
 42
0.0000000001
 43
0.0000000001
 12
1.0
 22
0.0
 32
0.0
 13
1.0
 23
0.0
 33
0.0
 40
0.0
 40
0.0
 40
0.0
 40
0.0
 40
1.0
 40
1.0
 40
1.0
 40
2.0
 40
2.0
 40
2.0
 40
3.0
 40
3.0
 40
3.0
 40
4.0
 40
4.0
 40
4.0
 40
4.0
 10
124.7193467570146
 20
-151.4667235949458
 30
0.0
 10
124.7193467570146
 20
-151.6110730957778
 30
0.0
 10
124.8144313924075
 20
-151.6851426487107
 30
0.0
 10
124.9498236449778
 20
-151.6851426487107
 30
0.0
 10
125.0728135538013
 20
-151.6851426487107
 30
0.0
 10
125.1913248384938
 20
-151.6220974013306
 30
0.0
 10
125.1913248384938
 20
-151.4667235949458
 30
0.0
 10
125.1913248384938
 20
-151.3110052790125
 30
0.0
 10
125.0728135538013
 20
-151.2479600316325
 30
0.0
 10
124.9498236449778
 20
-151.2479600316325
 30
0.0
 10
124.8144313924075
 20
-151.2479600316325
 30
0.0
 10
124.7193467570146
 20
-151.3240966418565
 30
0.0
 10
124.7193467570146
 20
-151.4667235949458
 30
0.0
  0
SPLINE
  5
67
330
61
100
AcDbEntity
  8
_U+30EC_U+30A4_U+30E4_U+30FC 1
370
     0
100
AcDbSpline
210
0.0
220
0.0
230
1.0
 70
    11
 71
     3
 72
    17
 73
    13
 74
     0
 42
0.0000000001
 43
0.0000000001
 12
1.0
 22
0.0
 32
0.0
 13
1.0
 23
0.0
 33
0.0
 40
0.0
 40
0.0
 40
0.0
 40
0.0
 40
1.0
 40
1.0
 40
1.0
 40
2.0
 40
2.0
 40
2.0
 40
3.0
 40
3.0
 40
3.0
 40
4.0
 40
4.0
 40
4.0
 40
4.0
 10
125.3794270519885
 20
-151.4667235949458
 30
0.0
 10
125.3794270519885
 20
-151.5924695801575
 30
0.0
 10
125.4662434582168
 20
-151.7257947754366
 30
0.0
 10
125.669159582298
 20
-151.7257947754366
 30
0.0
 10
125.8744872732189
 20
-151.7257947754366
 30
0.0
 10
125.9761175900338
 20
-151.6148627008116
 30
0.0
 10
125.9761175900338
 20
-151.4667235949458
 30
0.0
 10
125.9761175900338
 20
-151.3037705784935
 30
0.0
 10
125.8534721907589
 20
-151.2073079049065
 30
0.0
 10
125.67570526372
 20
-151.2073079049065
 30
0.0
 10
125.4534966049214
 20
-151.2073079049065
 30
0.0
 10
125.3794270519885
 20
-151.3499348579959
 30
0.0
 10
125.3794270519885
 20
-151.4667235949458
 30
0.0
  0
HATCH
  5
68
330
61
100
AcDbEntity
  8
_U+30EC_U+30A4_U+30E4_U+30FC 1
 62
   179
420
  2234388
100
AcDbHatch
 10
0.0
 20
0.0
 30
0.0
210
0.0
220
0.0
230
1.0
  2
SOLID
 70
     1
 71
     0
 91
        3
 92
        1
 93
        1
 72
     4
 94
        3
 73
     0
 74
     1
 95
       29
 96
       25
 40
0.0
 40
0.0
 40
0.0
 40
0.0
 40
1.0
 40
1.0
 40
1.0
 40
2.0
 40
2.0
 40
2.0
 40
3.0
 40
3.0
 40
3.0
 40
4.0
 40
4.0
 40
4.0
 40
5.0
 40
5.0
 40
5.0
 40
6.0
 40
6.0
 40
6.0
 40
7.0
 40
7.0
 40
7.0
 40
8.0
 40
8.0
 40
8.0
 40
8.0
 10
126.1707654849504
 20
-151.4667235949458
 10
126.1707654849504
 20
-151.6999565592972
 10
126.0329616655404
 20
-151.9221652180958
 10
125.6839734928846
 20
-151.9221652180958
 10
125.4280028983305
 20
-151.9221652180958
 10
125.3329182629376
 20
-151.7981417806268
 10
125.2715955633002
 20
-151.7054687120736
 10
125.2123399209539
 20
-151.814678238956
 10
125.0979627508436
 20
-151.8815130913699
 10
124.9374213012309
 20
-151.8815130913699
 10
124.6621581719595
 20
-151.8815130913699
 10
124.5267659193891
 20
-151.7075357693648
 10
124.5267659193891
 20
-151.4667235949458
 10
124.5267659193891
 20
-151.2183322104593
 10
124.6707709106726
 20
-151.0519340985217
 10
124.9374213012309
 20
-151.0519340985217
 10
125.0979627508436
 20
-151.0519340985217
 10
125.2123399209539
 20
-151.1204914986782
 10
125.2715955633002
 20
-151.2297010255606
 10
125.3222384669333
 20
-151.151841867594
 10
125.4176676118748
 20
-151.0130045195384
 10
125.6798393783023
 20
-151.0130045195384
 10
126.0543212575489
 20
-151.0130045195384
 10
126.1707654849504
 20
-151.2572617894426
 10
126.1707654849504
 20
-151.4667235949458
 97
        0
 97
        0
 92
        1
 93
        1
 72
     4
 94
        3
 73
     0
 74
     1
 95
       17
 96
       13
 40
0.0
 40
0.0
 40
0.0
 40
0.0
 40
1.0
 40
1.0
 40
1.0
 40
2.0
 40
2.0
 40
2.0
 40
3.0
 40
3.0
 40
3.0
 40
4.0
 40
4.0
 40
4.0
 40
4.0
 10
124.7193467570146
 20
-151.4667235949458
 10
124.7193467570146
 20
-151.6110730957778
 10
124.8144313924075
 20
-151.6851426487107
 10
124.9498236449778
 20
-151.6851426487107
 10
125.0728135538013
 20
-151.6851426487107
 10
125.1913248384938
 20
-151.6220974013306
 10
125.1913248384938
 20
-151.4667235949458
 10
125.1913248384938
 20
-151.3110052790125
 10
125.0728135538013
 20
-151.2479600316325
 10
124.9498236449778
 20
-151.2479600316325
 10
124.8144313924075
 20
-151.2479600316325
 10
124.7193467570146
 20
-151.3240966418565
 10
124.7193467570146
 20
-151.4667235949458
 97
        0
 97
        0
 92
        1
 93
        1
 72
     4
 94
        3
 73
     0
 74
     1
 95
       17
 96
       13
 40
0.0
 40
0.0
 40
0.0
 40
0.0
 40
1.0
 40
1.0
 40
1.0
 40
2.0
 40
2.0
 40
2.0
 40
3.0
 40
3.0
 40
3.0
 40
4.0
 40
4.0
 40
4.0
 40
4.0
 10
125.3794270519885
 20
-151.4667235949458
 10
125.3794270519885
 20
-151.5924695801575
 10
125.4662434582168
 20
-151.7257947754366
 10
125.669159582298
 20
-151.7257947754366
 10
125.8744872732189
 20
-151.7257947754366
 10
125.9761175900338
 20
-151.6148627008116
 10
125.9761175900338
 20
-151.4667235949458
 10
125.9761175900338
 20
-151.3037705784935
 10
125.8534721907589
 20
-151.2073079049065
 10
125.67570526372
 20
-151.2073079049065
 10
125.4534966049214
 20
-151.2073079049065
 10
125.3794270519885
 20
-151.3499348579959
 10
125.3794270519885
 20
-151.4667235949458
 97
        0
 97
        0
 75
     2
 76
     1
 98
        0
  0
POLYLINE
  5
69
330
61
100
AcDbEntity
  8
_U+30EC_U+30A4_U+30E4_U+30FC 1
370
     0
100
AcDb2dPolyline
 66
     1
 10
0.0
 20
0.0
 30
0.0
  0
VERTEX
  5
6A
330
69
100
AcDbEntity
  8
_U+30EC_U+30A4_U+30E4_U+30FC 1
370
     0
100
AcDbVertex
100
AcDb2dVertex
 10
126.1197780717687
 20
-150.82111270101
 30
0.0
  0
VERTEX
  5
6B
330
69
100
AcDbEntity
  8
_U+30EC_U+30A4_U+30E4_U+30FC 1
370
     0
100
AcDbVertex
100
AcDb2dVertex
 10
125.8682861013454
 20
-150.82111270101
 30
0.0
  0
VERTEX
  5
6C
330
69
100
AcDbEntity
  8
_U+30EC_U+30A4_U+30E4_U+30FC 1
370
     0
100
AcDbVertex
100
AcDb2dVertex
 10
125.8682861013454
 20
-150.600626589954
 30
0.0
  0
VERTEX
  5
6D
330
69
100
AcDbEntity
  8
_U+30EC_U+30A4_U+30E4_U+30FC 1
370
     0
100
AcDbVertex
100
AcDb2dVertex
 10
126.1197780717687
 20
-150.600626589954
 30
0.0
  0
VERTEX
  5
6E
330
69
100
AcDbEntity
  8
_U+30EC_U+30A4_U+30E4_U+30FC 1
370
     0
100
AcDbVertex
100
AcDb2dVertex
 10
126.1197780717687
 20
-150.82111270101
 30
0.0
  0
SEQEND
  5
6F
330
69
100
AcDbEntity
  8
_U+30EC_U+30A4_U+30E4_U+30FC 1
370
     0
  0
HATCH
  5
70
330
61
100
AcDbEntity
  8
_U+30EC_U+30A4_U+30E4_U+30FC 1
 62
   179
420
  2234388
100
AcDbHatch
 10
0.0
 20
0.0
 30
0.0
210
0.0
220
0.0
230
1.0
  2
SOLID
 70
     1
 71
     0
 91
        1
 92
        1
 93
        4
 72
     1
 10
126.1197780717687
 20
-150.82111270101
 11
125.8682861013454
 21
-150.82111270101
 72
     1
 10
125.8682861013454
 20
-150.82111270101
 11
125.8682861013454
 21
-150.600626589954
 72
     1
 10
125.8682861013454
 20
-150.600626589954
 11
126.1197780717687
 21
-150.600626589954
 72
     1
 10
126.1197780717687
 20
-150.600626589954
 11
126.1197780717687
 21
-150.82111270101
 97
        0
 75
     2
 76
     1
 98
        0
  0
SPLINE
  5
71
330
61
100
AcDbEntity
  8
_U+30EC_U+30A4_U+30E4_U+30FC 1
370
     0
100
AcDbSpline
210
0.0
220
0.0
230
1.0
 70
    11
 71
     3
 72
    26
 73
    22
 74
     0
 42
0.0000000001
 43
0.0000000001
 12
1.0
 22
0.0
 32
0.0
 13
1.0
 23
0.0
 33
0.0
 40
0.0
 40
0.0
 40
0.0
 40
0.0
 40
1.0
 40
1.0
 40
1.0
 40
2.0
 40
2.0
 40
2.0
 40
3.0
 40
3.0
 40
3.0
 40
4.0
 40
4.0
 40
4.0
 40
5.0
 40
5.0
 40
5.0
 40
6.0
 40
6.0
 40
6.0
 40
7.0
 40
7.0
 40
7.0
 40
7.0
 10
126.1197780717687
 20
-150.0332193635334
 30
0.0
 10
126.1197780717687
 20
-150.0332193635334
 30
0.0
 10
126.1197780717687
 20
-150.2406141117454
 30
0.0
 10
126.1197780717687
 20
-150.2406141117454
 30
0.0
 10
125.8110975162903
 20
-150.2185655006398
 30
0.0
 10
125.2926106457602
 20
-150.0501003314111
 30
0.0
 10
124.787215138074
 20
-149.6945664773333
 30
0.0
 10
124.787215138074
 20
-149.6945664773333
 30
0.0
 10
124.787215138074
 20
-150.4276827965945
 30
0.0
 10
124.787215138074
 20
-150.4276827965945
 30
0.0
 10
124.787215138074
 20
-150.4276827965945
 30
0.0
 10
124.5756862752797
 20
-150.4276827965945
 30
0.0
 10
124.5756862752797
 20
-150.4276827965945
 30
0.0
 10
124.5756862752797
 20
-150.4276827965945
 30
0.0
 10
124.5756862752797
 20
-149.4871717291213
 30
0.0
 10
124.5756862752797
 20
-149.4871717291213
 30
0.0
 10
124.5756862752797
 20
-149.4871717291213
 30
0.0
 10
124.787215138074
 20
-149.4871717291213
 30
0.0
 10
124.787215138074
 20
-149.4871717291213
 30
0.0
 10
125.0769476683836
 20
-149.7703585780088
 30
0.0
 10
125.669159582298
 20
-150.0035915423602
 30
0.0
 10
126.1197780717687
 20
-150.0332193635334
 30
0.0
  0
HATCH
  5
72
330
61
100
AcDbEntity
  8
_U+30EC_U+30A4_U+30E4_U+30FC 1
 62
   179
420
  2234388
100
AcDbHatch
 10
0.0
 20
0.0
 30
0.0
210
0.0
220
0.0
230
1.0
  2
SOLID
 70
     1
 71
     0
 91
        1
 92
        1
 93
        1
 72
     4
 94
        3
 73
     0
 74
     1
 95
       26
 96
       22
 40
0.0
 40
0.0
 40
0.0
 40
0.0
 40
1.0
 40
1.0
 40
1.0
 40
2.0
 40
2.0
 40
2.0
 40
3.0
 40
3.0
 40
3.0
 40
4.0
 40
4.0
 40
4.0
 40
5.0
 40
5.0
 40
5.0
 40
6.0
 40
6.0
 40
6.0
 40
7.0
 40
7.0
 40
7.0
 40
7.0
 10
126.1197780717687
 20
-150.0332193635334
 10
126.1197780717687
 20
-150.0332193635334
 10
126.1197780717687
 20
-150.2406141117454
 10
126.1197780717687
 20
-150.2406141117454
 10
125.8110975162903
 20
-150.2185655006398
 10
125.2926106457602
 20
-150.0501003314111
 10
124.787215138074
 20
-149.6945664773333
 10
124.787215138074
 20
-149.6945664773333
 10
124.787215138074
 20
-150.4276827965945
 10
124.787215138074
 20
-150.4276827965945
 10
124.787215138074
 20
-150.4276827965945
 10
124.5756862752797
 20
-150.4276827965945
 10
124.5756862752797
 20
-150.4276827965945
 10
124.5756862752797
 20
-150.4276827965945
 10
124.5756862752797
 20
-149.4871717291213
 10
124.5756862752797
 20
-149.4871717291213
 10
124.5756862752797
 20
-149.4871717291213
 10
124.787215138074
 20
-149.4871717291213
 10
124.787215138074
 20
-149.4871717291213
 10
125.0769476683836
 20
-149.7703585780088
 10
125.669159582298
 20
-150.0035915423602
 10
126.1197780717687
 20
-150.0332193635334
 97
        0
 97
        0
 75
     2
 76
     1
 98
        0
  0
ENDBLK
  5
64
330
61
100
AcDbEntity
  8
0
100
AcDbBlockEnd
  0
BLOCK
  5
75
330
73
100
AcDbEntity
  8
0
100
AcDbBlockBegin
  2
block 5
 70
     0
 10
0.0
 20
0.0
 30
0.0
  3
block 5
  1

  0
SPLINE
  5
77
330
73
100
AcDbEntity
  8
_U+30EC_U+30A4_U+30E4_U+30FC 1
370
     0
100
AcDbSpline
210
0.0
220
0.0
230
1.0
 70
    11
 71
     3
 72
    62
 73
    58
 74
     0
 42
0.0000000001
 43
0.0000000001
 12
1.0
 22
0.0
 32
0.0
 13
1.0
 23
0.0
 33
0.0
 40
0.0
 40
0.0
 40
0.0
 40
0.0
 40
1.0
 40
1.0
 40
1.0
 40
2.0
 40
2.0
 40
2.0
 40
3.0
 40
3.0
 40
3.0
 40
4.0
 40
4.0
 40
4.0
 40
5.0
 40
5.0
 40
5.0
 40
6.0
 40
6.0
 40
6.0
 40
7.0
 40
7.0
 40
7.0
 40
8.0
 40
8.0
 40
8.0
 40
9.0
 40
9.0
 40
9.0
 40
10.0
 40
10.0
 40
10.0
 40
11.0
 40
11.0
 40
11.0
 40
12.0
 40
12.0
 40
12.0
 40
13.0
 40
13.0
 40
13.0
 40
14.0
 40
14.0
 40
14.0
 40
15.0
 40
15.0
 40
15.0
 40
16.0
 40
16.0
 40
16.0
 40
17.0
 40
17.0
 40
17.0
 40
18.0
 40
18.0
 40
18.0
 40
19.0
 40
19.0
 40
19.0
 40
19.0
 10
98.65272078696877
 20
-138.3281629428485
 30
0.0
 10
98.56934947622572
 20
-138.3281629428485
 30
0.0
 10
98.37849118634288
 20
-138.3069756056142
 30
0.0
 10
98.26928165946046
 20
-138.1207681946365
 30
0.0
 10
98.20451386433777
 20
-138.0086303365916
 30
0.0
 10
98.200724259304
 20
-137.9092393318421
 30
0.0
 10
98.19693465427021
 20
-137.8246622376793
 30
0.0
 10
98.19693465427021
 20
-137.8246622376793
 30
0.0
 10
98.3898600014442
 20
-137.8246622376793
 30
0.0
 10
98.3898600014442
 20
-137.8246622376793
 30
0.0
 10
98.39158254918684
 20
-137.8987317906121
 30
0.0
 10
98.400884306997
 20
-138.1335150479319
 30
0.0
 10
98.648931181935
 20
-138.1335150479319
 30
0.0
 10
98.76916501437022
 20
-138.1335150479319
 30
0.0
 10
98.90249020964939
 20
-138.0637518643556
 30
0.0
 10
98.90249020964939
 20
-137.8351697789093
 30
0.0
 10
98.90249020964939
 20
-137.7188978062821
 30
0.0
 10
98.86941729299099
 20
-137.6701497051658
 30
0.0
 10
98.84151201956045
 20
-137.6384548267015
 30
0.0
 10
98.77674422443776
 20
-137.5643852737686
 30
0.0
 10
98.67476939807437
 20
-137.5518106752475
 30
0.0
 10
98.6268825708294
 20
-137.5518106752475
 30
0.0
 10
98.61000160295167
 20
-137.5518106752475
 30
0.0
 10
98.5786512340359
 20
-137.5538777325386
 30
0.0
 10
98.55453556563914
 20
-137.5580118471209
 30
0.0
 10
98.55453556563914
 20
-137.5580118471209
 30
0.0
 10
98.55453556563914
 20
-137.3633639522043
 30
0.0
 10
98.55453556563914
 20
-137.3633639522043
 30
0.0
 10
98.58795299184607
 20
-137.369737378852
 30
0.0
 10
98.62481551353825
 20
-137.3719766909174
 30
0.0
 10
98.63032766631464
 20
-137.3719766909174
 30
0.0
 10
98.68786076091831
 20
-137.3719766909174
 30
0.0
 10
98.86183808292343
 20
-137.3507893536832
 30
0.0
 10
98.86183808292343
 20
-137.113766784298
 30
0.0
 10
98.86183808292343
 20
-136.9361721120333
 30
0.0
 10
98.74711640326461
 20
-136.8810505842693
 30
0.0
 10
98.65065372967761
 20
-136.8810505842693
 30
0.0
 10
98.41948782261736
 20
-136.8810505842693
 30
0.0
 10
98.41190861254981
 20
-137.113766784298
 30
0.0
 10
98.40811900751604
 20
-137.1857692799397
 30
0.0
 10
98.40811900751604
 20
-137.1857692799397
 30
0.0
 10
98.23035208047713
 20
-137.1857692799397
 30
0.0
 10
98.23035208047713
 20
-137.1857692799397
 30
0.0
 10
98.2379312905447
 20
-137.0608845685994
 30
0.0
 10
98.26204695894144
 20
-136.6843356320616
 30
0.0
 10
98.66202254477895
 20
-136.6843356320616
 30
0.0
 10
98.85804847788965
 20
-136.6843356320616
 30
0.0
 10
99.06923283113548
 20
-136.811287400693
 30
0.0
 10
99.06923283113548
 20
-137.1073933576502
 30
0.0
 10
99.06923283113548
 20
-137.293600768628
 30
0.0
 10
98.98586152039243
 20
-137.3761108054997
 30
0.0
 10
98.89904511416414
 20
-137.4374335051372
 30
0.0
 10
98.95278860373404
 20
-137.4649942690192
 30
0.0
 10
99.11195201515257
 20
-137.5454372485998
 30
0.0
 10
99.11195201515257
 20
-137.8225951803881
 30
0.0
 10
99.11195201515257
 20
-138.1610758118139
 30
0.0
 10
98.89525550913035
 20
-138.3281629428485
 30
0.0
 10
98.65272078696877
 20
-138.3281629428485
 30
0.0
  0
HATCH
  5
78
330
73
100
AcDbEntity
  8
_U+30EC_U+30A4_U+30E4_U+30FC 1
 62
   179
420
  2234388
100
AcDbHatch
 10
0.0
 20
0.0
 30
0.0
210
0.0
220
0.0
230
1.0
  2
SOLID
 70
     1
 71
     0
 91
        1
 92
        1
 93
        1
 72
     4
 94
        3
 73
     0
 74
     1
 95
       62
 96
       58
 40
0.0
 40
0.0
 40
0.0
 40
0.0
 40
1.0
 40
1.0
 40
1.0
 40
2.0
 40
2.0
 40
2.0
 40
3.0
 40
3.0
 40
3.0
 40
4.0
 40
4.0
 40
4.0
 40
5.0
 40
5.0
 40
5.0
 40
6.0
 40
6.0
 40
6.0
 40
7.0
 40
7.0
 40
7.0
 40
8.0
 40
8.0
 40
8.0
 40
9.0
 40
9.0
 40
9.0
 40
10.0
 40
10.0
 40
10.0
 40
11.0
 40
11.0
 40
11.0
 40
12.0
 40
12.0
 40
12.0
 40
13.0
 40
13.0
 40
13.0
 40
14.0
 40
14.0
 40
14.0
 40
15.0
 40
15.0
 40
15.0
 40
16.0
 40
16.0
 40
16.0
 40
17.0
 40
17.0
 40
17.0
 40
18.0
 40
18.0
 40
18.0
 40
19.0
 40
19.0
 40
19.0
 40
19.0
 10
98.65272078696877
 20
-138.3281629428485
 10
98.56934947622572
 20
-138.3281629428485
 10
98.37849118634288
 20
-138.3069756056142
 10
98.26928165946046
 20
-138.1207681946365
 10
98.20451386433777
 20
-138.0086303365916
 10
98.200724259304
 20
-137.9092393318421
 10
98.19693465427021
 20
-137.8246622376793
 10
98.19693465427021
 20
-137.8246622376793
 10
98.3898600014442
 20
-137.8246622376793
 10
98.3898600014442
 20
-137.8246622376793
 10
98.39158254918684
 20
-137.8987317906121
 10
98.400884306997
 20
-138.1335150479319
 10
98.648931181935
 20
-138.1335150479319
 10
98.76916501437022
 20
-138.1335150479319
 10
98.90249020964939
 20
-138.0637518643556
 10
98.90249020964939
 20
-137.8351697789093
 10
98.90249020964939
 20
-137.7188978062821
 10
98.86941729299099
 20
-137.6701497051658
 10
98.84151201956045
 20
-137.6384548267015
 10
98.77674422443776
 20
-137.5643852737686
 10
98.67476939807437
 20
-137.5518106752475
 10
98.6268825708294
 20
-137.5518106752475
 10
98.61000160295167
 20
-137.5518106752475
 10
98.5786512340359
 20
-137.5538777325386
 10
98.55453556563914
 20
-137.5580118471209
 10
98.55453556563914
 20
-137.5580118471209
 10
98.55453556563914
 20
-137.3633639522043
 10
98.55453556563914
 20
-137.3633639522043
 10
98.58795299184607
 20
-137.369737378852
 10
98.62481551353825
 20
-137.3719766909174
 10
98.63032766631464
 20
-137.3719766909174
 10
98.68786076091831
 20
-137.3719766909174
 10
98.86183808292343
 20
-137.3507893536832
 10
98.86183808292343
 20
-137.113766784298
 10
98.86183808292343
 20
-136.9361721120333
 10
98.74711640326461
 20
-136.8810505842693
 10
98.65065372967761
 20
-136.8810505842693
 10
98.41948782261736
 20
-136.8810505842693
 10
98.41190861254981
 20
-137.113766784298
 10
98.40811900751604
 20
-137.1857692799397
 10
98.40811900751604
 20
-137.1857692799397
 10
98.23035208047713
 20
-137.1857692799397
 10
98.23035208047713
 20
-137.1857692799397
 10
98.2379312905447
 20
-137.0608845685994
 10
98.26204695894144
 20
-136.6843356320616
 10
98.66202254477895
 20
-136.6843356320616
 10
98.85804847788965
 20
-136.6843356320616
 10
99.06923283113548
 20
-136.811287400693
 10
99.06923283113548
 20
-137.1073933576502
 10
99.06923283113548
 20
-137.293600768628
 10
98.98586152039243
 20
-137.3761108054997
 10
98.89904511416414
 20
-137.4374335051372
 10
98.95278860373404
 20
-137.4649942690192
 10
99.11195201515257
 20
-137.5454372485998
 10
99.11195201515257
 20
-137.8225951803881
 10
99.11195201515257
 20
-138.1610758118139
 10
98.89525550913035
 20
-138.3281629428485
 10
98.65272078696877
 20
-138.3281629428485
 97
        0
 97
        0
 75
     2
 76
     1
 98
        0
  0
SPLINE
  5
79
330
73
100
AcDbEntity
  8
_U+30EC_U+30A4_U+30E4_U+30FC 1
370
     0
100
AcDbSpline
210
0.0
220
0.0
230
1.0
 70
    11
 71
     3
 72
    44
 73
    40
 74
     0
 42
0.0000000001
 43
0.0000000001
 12
1.0
 22
0.0
 32
0.0
 13
1.0
 23
0.0
 33
0.0
 40
0.0
 40
0.0
 40
0.0
 40
0.0
 40
1.0
 40
1.0
 40
1.0
 40
2.0
 40
2.0
 40
2.0
 40
3.0
 40
3.0
 40
3.0
 40
4.0
 40
4.0
 40
4.0
 40
5.0
 40
5.0
 40
5.0
 40
6.0
 40
6.0
 40
6.0
 40
7.0
 40
7.0
 40
7.0
 40
8.0
 40
8.0
 40
8.0
 40
9.0
 40
9.0
 40
9.0
 40
10.0
 40
10.0
 40
10.0
 40
11.0
 40
11.0
 40
11.0
 40
12.0
 40
12.0
 40
12.0
 40
13.0
 40
13.0
 40
13.0
 40
13.0
 10
99.77237681967496
 20
-137.6956434117567
 30
0.0
 10
99.58151852979212
 20
-137.8542900588524
 30
0.0
 10
99.50021427634023
 20
-137.9283596117853
 30
0.0
 10
99.45749509232313
 20
-138.0721923482945
 30
0.0
 10
99.45749509232313
 20
-138.0721923482945
 30
0.0
 10
100.1389349793055
 20
-138.0721923482945
 30
0.0
 10
100.1389349793055
 20
-138.0721923482945
 30
0.0
 10
100.1389349793055
 20
-138.0721923482945
 30
0.0
 10
100.1389349793055
 20
-138.2773477844411
 30
0.0
 10
100.1389349793055
 20
-138.2773477844411
 30
0.0
 10
100.1389349793055
 20
-138.2773477844411
 30
0.0
 10
99.2390760385583
 20
-138.2773477844411
 30
0.0
 10
99.2390760385583
 20
-138.2773477844411
 30
0.0
 10
99.26663680244029
 20
-137.9197468730721
 30
0.0
 10
99.32416989704396
 20
-137.841543205557
 30
0.0
 10
99.6611002355014
 20
-137.5431979365343
 30
0.0
 10
99.88537595159116
 20
-137.3444159270354
 30
0.0
 10
99.9425645366463
 20
-137.2767198007503
 30
0.0
 10
99.9425645366463
 20
-137.1392604908888
 30
0.0
 10
99.9425645366463
 20
-137.0207492061962
 30
0.0
 10
99.87951928926624
 20
-136.8896633229824
 30
0.0
 10
99.70760902455227
 20
-136.8896633229824
 30
0.0
 10
99.47988821297726
 20
-136.8896633229824
 30
0.0
 10
99.47230900290971
 20
-137.1201402109457
 30
0.0
 10
99.46851939787594
 20
-137.2365844383471
 30
0.0
 10
99.46851939787594
 20
-137.2365844383471
 30
0.0
 10
99.27249346476522
 20
-137.2365844383471
 30
0.0
 10
99.27249346476522
 20
-137.2365844383471
 30
0.0
 10
99.27972816528424
 20
-137.1096326697157
 30
0.0
 10
99.28902992309442
 20
-136.9974948116708
 30
0.0
 10
99.35930987099351
 20
-136.8789835269782
 30
0.0
 10
99.45577254458051
 20
-136.7182698225913
 30
0.0
 10
99.61872556103282
 20
-136.6843356320616
 30
0.0
 10
99.7203558778477
 20
-136.6843356320616
 30
0.0
 10
99.96289060000929
 20
-136.6843356320616
 30
0.0
 10
100.144447132082
 20
-136.8684759857482
 30
0.0
 10
100.144447132082
 20
-137.14132754818
 30
0.0
 10
100.144447132082
 20
-137.369737378852
 30
0.0
 10
100.0428168152671
 20
-137.4693006383757
 30
0.0
 10
99.77237681967496
 20
-137.6956434117567
 30
0.0
  0
HATCH
  5
7A
330
73
100
AcDbEntity
  8
_U+30EC_U+30A4_U+30E4_U+30FC 1
 62
   179
420
  2234388
100
AcDbHatch
 10
0.0
 20
0.0
 30
0.0
210
0.0
220
0.0
230
1.0
  2
SOLID
 70
     1
 71
     0
 91
        1
 92
        1
 93
        1
 72
     4
 94
        3
 73
     0
 74
     1
 95
       44
 96
       40
 40
0.0
 40
0.0
 40
0.0
 40
0.0
 40
1.0
 40
1.0
 40
1.0
 40
2.0
 40
2.0
 40
2.0
 40
3.0
 40
3.0
 40
3.0
 40
4.0
 40
4.0
 40
4.0
 40
5.0
 40
5.0
 40
5.0
 40
6.0
 40
6.0
 40
6.0
 40
7.0
 40
7.0
 40
7.0
 40
8.0
 40
8.0
 40
8.0
 40
9.0
 40
9.0
 40
9.0
 40
10.0
 40
10.0
 40
10.0
 40
11.0
 40
11.0
 40
11.0
 40
12.0
 40
12.0
 40
12.0
 40
13.0
 40
13.0
 40
13.0
 40
13.0
 10
99.77237681967496
 20
-137.6956434117567
 10
99.58151852979212
 20
-137.8542900588524
 10
99.50021427634023
 20
-137.9283596117853
 10
99.45749509232313
 20
-138.0721923482945
 10
99.45749509232313
 20
-138.0721923482945
 10
100.1389349793055
 20
-138.0721923482945
 10
100.1389349793055
 20
-138.0721923482945
 10
100.1389349793055
 20
-138.0721923482945
 10
100.1389349793055
 20
-138.2773477844411
 10
100.1389349793055
 20
-138.2773477844411
 10
100.1389349793055
 20
-138.2773477844411
 10
99.2390760385583
 20
-138.2773477844411
 10
99.2390760385583
 20
-138.2773477844411
 10
99.26663680244029
 20
-137.9197468730721
 10
99.32416989704396
 20
-137.841543205557
 10
99.6611002355014
 20
-137.5431979365343
 10
99.88537595159116
 20
-137.3444159270354
 10
99.9425645366463
 20
-137.2767198007503
 10
99.9425645366463
 20
-137.1392604908888
 10
99.9425645366463
 20
-137.0207492061962
 10
99.87951928926624
 20
-136.8896633229824
 10
99.70760902455227
 20
-136.8896633229824
 10
99.47988821297726
 20
-136.8896633229824
 10
99.47230900290971
 20
-137.1201402109457
 10
99.46851939787594
 20
-137.2365844383471
 10
99.46851939787594
 20
-137.2365844383471
 10
99.27249346476522
 20
-137.2365844383471
 10
99.27249346476522
 20
-137.2365844383471
 10
99.27972816528424
 20
-137.1096326697157
 10
99.28902992309442
 20
-136.9974948116708
 10
99.35930987099351
 20
-136.8789835269782
 10
99.45577254458051
 20
-136.7182698225913
 10
99.61872556103282
 20
-136.6843356320616
 10
99.7203558778477
 20
-136.6843356320616
 10
99.96289060000929
 20
-136.6843356320616
 10
100.144447132082
 20
-136.8684759857482
 10
100.144447132082
 20
-137.14132754818
 10
100.144447132082
 20
-137.369737378852
 10
100.0428168152671
 20
-137.4693006383757
 10
99.77237681967496
 20
-137.6956434117567
 97
        0
 97
        0
 75
     2
 76
     1
 98
        0
  0
ENDBLK
  5
76
330
73
100
AcDbEntity
  8
0
100
AcDbBlockEnd
  0
BLOCK
  5
7D
330
7B
100
AcDbEntity
  8
0
100
AcDbBlockBegin
  2
block 6
 70
     0
 10
0.0
 20
0.0
 30
0.0
  3
block 6
  1

  0
SPLINE
  5
7F
330
7B
100
AcDbEntity
  8
_U+30EC_U+30A4_U+30E4_U+30FC 1
370
     0
100
AcDbSpline
210
0.0
220
0.0
230
1.0
 70
    11
 71
     3
 72
   197
 73
   193
 74
     0
 42
0.0000000001
 43
0.0000000001
 12
1.0
 22
0.0
 32
0.0
 13
1.0
 23
0.0
 33
0.0
 40
0.0
 40
0.0
 40
0.0
 40
0.0
 40
1.0
 40
1.0
 40
1.0
 40
2.0
 40
2.0
 40
2.0
 40
3.0
 40
3.0
 40
3.0
 40
4.0
 40
4.0
 40
4.0
 40
5.0
 40
5.0
 40
5.0
 40
6.0
 40
6.0
 40
6.0
 40
7.0
 40
7.0
 40
7.0
 40
8.0
 40
8.0
 40
8.0
 40
9.0
 40
9.0
 40
9.0
 40
10.0
 40
10.0
 40
10.0
 40
11.0
 40
11.0
 40
11.0
 40
12.0
 40
12.0
 40
12.0
 40
13.0
 40
13.0
 40
13.0
 40
14.0
 40
14.0
 40
14.0
 40
15.0
 40
15.0
 40
15.0
 40
16.0
 40
16.0
 40
16.0
 40
17.0
 40
17.0
 40
17.0
 40
18.0
 40
18.0
 40
18.0
 40
19.0
 40
19.0
 40
19.0
 40
20.0
 40
20.0
 40
20.0
 40
21.0
 40
21.0
 40
21.0
 40
22.0
 40
22.0
 40
22.0
 40
23.0
 40
23.0
 40
23.0
 40
24.0
 40
24.0
 40
24.0
 40
25.0
 40
25.0
 40
25.0
 40
26.0
 40
26.0
 40
26.0
 40
27.0
 40
27.0
 40
27.0
 40
28.0
 40
28.0
 40
28.0
 40
29.0
 40
29.0
 40
29.0
 40
30.0
 40
30.0
 40
30.0
 40
31.0
 40
31.0
 40
31.0
 40
32.0
 40
32.0
 40
32.0
 40
33.0
 40
33.0
 40
33.0
 40
34.0
 40
34.0
 40
34.0
 40
35.0
 40
35.0
 40
35.0
 40
36.0
 40
36.0
 40
36.0
 40
37.0
 40
37.0
 40
37.0
 40
38.0
 40
38.0
 40
38.0
 40
39.0
 40
39.0
 40
39.0
 40
40.0
 40
40.0
 40
40.0
 40
41.0
 40
41.0
 40
41.0
 40
42.0
 40
42.0
 40
42.0
 40
43.0
 40
43.0
 40
43.0
 40
44.0
 40
44.0
 40
44.0
 40
45.0
 40
45.0
 40
45.0
 40
46.0
 40
46.0
 40
46.0
 40
47.0
 40
47.0
 40
47.0
 40
48.0
 40
48.0
 40
48.0
 40
49.0
 40
49.0
 40
49.0
 40
50.0
 40
50.0
 40
50.0
 40
51.0
 40
51.0
 40
51.0
 40
52.0
 40
52.0
 40
52.0
 40
53.0
 40
53.0
 40
53.0
 40
54.0
 40
54.0
 40
54.0
 40
55.0
 40
55.0
 40
55.0
 40
56.0
 40
56.0
 40
56.0
 40
57.0
 40
57.0
 40
57.0
 40
58.0
 40
58.0
 40
58.0
 40
59.0
 40
59.0
 40
59.0
 40
60.0
 40
60.0
 40
60.0
 40
61.0
 40
61.0
 40
61.0
 40
62.0
 40
62.0
 40
62.0
 40
63.0
 40
63.0
 40
63.0
 40
64.0
 40
64.0
 40
64.0
 40
64.0
 10
122.3618679164582
 20
-139.1797905468023
 30
0.0
 10
122.352566158648
 20
-139.2092461132012
 30
0.0
 10
122.332240095285
 20
-139.2559271570263
 30
0.0
 10
122.3229383374748
 20
-139.283315666134
 30
0.0
 10
122.3229383374748
 20
-139.283315666134
 30
0.0
 10
122.2691948479049
 20
-139.4357611413564
 30
0.0
 10
122.2691948479049
 20
-139.4357611413564
 30
0.0
 10
122.2598930900947
 20
-139.4610825931729
 30
0.0
 10
122.2171739060777
 20
-139.5732204512178
 30
0.0
 10
122.2061496005249
 20
-139.5964748457432
 30
0.0
 10
122.2044270527822
 20
-139.602848272391
 30
0.0
 10
122.2006374477485
 20
-139.6112887563298
 30
0.0
 10
122.1989149000058
 20
-139.6176621829775
 30
0.0
 10
122.1989149000058
 20
-139.6176621829775
 30
0.0
 10
122.0156358201905
 20
-139.564779967279
 30
0.0
 10
122.0156358201905
 20
-139.564779967279
 30
0.0
 10
122.0838487107985
 20
-139.4547091665252
 30
0.0
 10
122.1375922003684
 20
-139.3193169139549
 30
0.0
 10
122.1654974737989
 20
-139.2092461132012
 30
0.0
 10
122.1654974737989
 20
-139.2092461132012
 30
0.0
 10
121.7579426778939
 20
-139.2092461132012
 30
0.0
 10
121.7579426778939
 20
-139.2092461132012
 30
0.0
 10
121.6876627299948
 20
-139.3742661869446
 30
0.0
 10
121.6284070876485
 20
-139.4526421092341
 30
0.0
 10
121.5987792664753
 20
-139.4927774716372
 30
0.0
 10
121.5987792664753
 20
-139.4927774716372
 30
0.0
 10
121.4912922873355
 20
-139.4271484026432
 30
0.0
 10
121.4912922873355
 20
-139.4271484026432
 30
0.0
 10
121.4912922873355
 20
-139.4271484026432
 30
0.0
 10
121.4912922873355
 20
-139.5985419030344
 30
0.0
 10
121.4912922873355
 20
-139.5985419030344
 30
0.0
 10
121.4912922873355
 20
-139.706545646497
 30
0.0
 10
121.4933593446267
 20
-139.755121492839
 30
0.0
 10
121.5026611024368
 20
-139.8608859242362
 30
0.0
 10
121.4396158550568
 20
-139.858818866945
 30
0.0
 10
121.4210123394364
 20
-139.858818866945
 30
0.0
 10
121.2415228646549
 20
-139.858818866945
 30
0.0
 10
121.2415228646549
 20
-139.858818866945
 30
0.0
 10
121.1932915278614
 20
-139.858818866945
 30
0.0
 10
121.1932915278614
 20
-139.858818866945
 30
0.0
 10
121.1932915278614
 20
-139.858818866945
 30
0.0
 10
121.1932915278614
 20
-139.9942111195153
 30
0.0
 10
121.1932915278614
 20
-139.9942111195153
 30
0.0
 10
121.1932915278614
 20
-139.9942111195153
 30
0.0
 10
121.2563367752415
 20
-139.9942111195153
 30
0.0
 10
121.2563367752415
 20
-139.9942111195153
 30
0.0
 10
121.3135253602966
 20
-139.9942111195153
 30
0.0
 10
121.4413384027994
 20
-139.9899047501588
 30
0.0
 10
121.5340114713526
 20
-139.9814642662199
 30
0.0
 10
121.5340114713526
 20
-139.9814642662199
 30
0.0
 10
121.5340114713526
 20
-140.1592311932588
 30
0.0
 10
121.5340114713526
 20
-140.1592311932588
 30
0.0
 10
121.4489176128669
 20
-140.1528577666111
 30
0.0
 10
121.3100802648114
 20
-140.1485513972545
 30
0.0
 10
121.2563367752415
 20
-140.1485513972545
 30
0.0
 10
121.2563367752415
 20
-140.1485513972545
 30
0.0
 10
121.1932915278614
 20
-140.1485513972545
 30
0.0
 10
121.1932915278614
 20
-140.1485513972545
 30
0.0
 10
121.195014075604
 20
-140.237434860774
 30
0.0
 10
121.1988036806378
 20
-140.4765244874503
 30
0.0
 10
121.2005262283804
 20
-140.5505940403832
 30
0.0
 10
121.2005262283804
 20
-140.5505940403832
 30
0.0
 10
121.0248263586327
 20
-140.5505940403832
 30
0.0
 10
121.0248263586327
 20
-140.5505940403832
 30
0.0
 10
121.0358506641855
 20
-140.3368258655235
 30
0.0
 10
121.0358506641855
 20
-140.3071980443503
 30
0.0
 10
121.0396402692193
 20
-140.1485513972545
 30
0.0
 10
121.0396402692193
 20
-140.1485513972545
 30
0.0
 10
120.9786620791303
 20
-140.1485513972545
 30
0.0
 10
120.9786620791303
 20
-140.1485513972545
 30
0.0
 10
120.9283636850457
 20
-140.1485513972545
 30
0.0
 10
120.7950384897665
 20
-140.1528577666111
 30
0.0
 10
120.6989203257281
 20
-140.1592311932588
 30
0.0
 10
120.6989203257281
 20
-140.1592311932588
 30
0.0
 10
120.6989203257281
 20
-139.9814642662199
 30
0.0
 10
120.6989203257281
 20
-139.9814642662199
 30
0.0
 10
120.7915933942813
 20
-139.9899047501588
 30
0.0
 10
120.9173393794929
 20
-139.9942111195153
 30
0.0
 10
120.9786620791303
 20
-139.9942111195153
 30
0.0
 10
120.9786620791303
 20
-139.9942111195153
 30
0.0
 10
121.043429874253
 20
-139.9942111195153
 30
0.0
 10
121.043429874253
 20
-139.9942111195153
 30
0.0
 10
121.043429874253
 20
-139.9942111195153
 30
0.0
 10
121.043429874253
 20
-139.858818866945
 30
0.0
 10
121.043429874253
 20
-139.858818866945
 30
0.0
 10
121.043429874253
 20
-139.858818866945
 30
0.0
 10
121.0045002952697
 20
-139.858818866945
 30
0.0
 10
121.0045002952697
 20
-139.858818866945
 30
0.0
 10
120.9376654428559
 20
-139.858818866945
 30
0.0
 10
120.7692002736271
 20
-139.8608859242362
 30
0.0
 10
120.739572452454
 20
-139.8608859242362
 30
0.0
 10
120.7450846052304
 20
-139.7890556833687
 30
0.0
 10
120.752663815298
 20
-139.7086127037881
 30
0.0
 10
120.752663815298
 20
-139.5880343618044
 30
0.0
 10
120.752663815298
 20
-139.5880343618044
 30
0.0
 10
120.752663815298
 20
-139.4145738041221
 30
0.0
 10
120.752663815298
 20
-139.4145738041221
 30
0.0
 10
120.752663815298
 20
-139.3425713084803
 30
0.0
 10
120.7450846052304
 20
-139.2219929664966
 30
0.0
 10
120.739572452454
 20
-139.1417222416903
 30
0.0
 10
120.8081298526105
 20
-139.1458563562726
 30
0.0
 10
120.8415472788174
 20
-139.1479234135637
 30
0.0
 10
120.9524793534424
 20
-139.1479234135637
 30
0.0
 10
120.9524793534424
 20
-139.1479234135637
 30
0.0
 10
121.043429874253
 20
-139.1479234135637
 30
0.0
 10
121.043429874253
 20
-139.1479234135637
 30
0.0
 10
121.043429874253
 20
-139.1479234135637
 30
0.0
 10
121.043429874253
 20
-139.0020236197634
 30
0.0
 10
121.043429874253
 20
-139.0020236197634
 30
0.0
 10
121.043429874253
 20
-139.0020236197634
 30
0.0
 10
120.9748724740966
 20
-139.0020236197634
 30
0.0
 10
120.9748724740966
 20
-139.0020236197634
 30
0.0
 10
120.9266411373031
 20
-139.0020236197634
 30
0.0
 10
120.7767794836947
 20
-139.00632998912
 30
0.0
 10
120.7027099307618
 20
-139.0125311609934
 30
0.0
 10
120.7027099307618
 20
-139.0125311609934
 30
0.0
 10
120.7027099307618
 20
-138.8349364887288
 30
0.0
 10
120.7027099307618
 20
-138.8349364887288
 30
0.0
 10
120.7747124264036
 20
-138.8413099153765
 30
0.0
 10
120.9173393794929
 20
-138.8454440299588
 30
0.0
 10
120.9748724740966
 20
-138.8454440299588
 30
0.0
 10
120.9748724740966
 20
-138.8454440299588
 30
0.0
 10
121.043429874253
 20
-138.8454440299588
 30
0.0
 10
121.043429874253
 20
-138.8454440299588
 30
0.0
 10
121.043429874253
 20
-138.8116820942033
 30
0.0
 10
121.0396402692193
 20
-138.6571695616899
 30
0.0
 10
121.0396402692193
 20
-138.6254746832256
 30
0.0
 10
121.0396402692193
 20
-138.6254746832256
 30
0.0
 10
121.2118950434818
 20
-138.6423556511033
 30
0.0
 10
121.2118950434818
 20
-138.6423556511033
 30
0.0
 10
121.2267089540683
 20
-138.6444227083944
 30
0.0
 10
121.2453124696887
 20
-138.6466620204599
 30
0.0
 10
121.2453124696887
 20
-138.6676771029199
 30
0.0
 10
121.2453124696887
 20
-138.6911037522196
 30
0.0
 10
121.2267089540683
 20
-138.6995442361585
 30
0.0
 10
121.2025932856716
 20
-138.7121188346796
 30
0.0
 10
121.2025932856716
 20
-138.7333061719139
 30
0.0
 10
121.2005262283804
 20
-138.8285630620811
 30
0.0
 10
121.2005262283804
 20
-138.8454440299588
 30
0.0
 10
121.2005262283804
 20
-138.8454440299588
 30
0.0
 10
121.2525471702077
 20
-138.8454440299588
 30
0.0
 10
121.2525471702077
 20
-138.8454440299588
 30
0.0
 10
121.311802812554
 20
-138.8454440299588
 30
0.0
 10
121.4375487977656
 20
-138.8413099153765
 30
0.0
 10
121.5302218663188
 20
-138.8349364887288
 30
0.0
 10
121.5302218663188
 20
-138.8349364887288
 30
0.0
 10
121.5302218663188
 20
-139.0125311609934
 30
0.0
 10
121.5302218663188
 20
-139.0125311609934
 30
0.0
 10
121.4451280078332
 20
-139.00632998912
 30
0.0
 10
121.3080132075202
 20
-139.0020236197634
 30
0.0
 10
121.2525471702077
 20
-139.0020236197634
 30
0.0
 10
121.2525471702077
 20
-139.0020236197634
 30
0.0
 10
121.1932915278614
 20
-139.0020236197634
 30
0.0
 10
121.1932915278614
 20
-139.0020236197634
 30
0.0
 10
121.1932915278614
 20
-139.0020236197634
 30
0.0
 10
121.1932915278614
 20
-139.1479234135637
 30
0.0
 10
121.1932915278614
 20
-139.1479234135637
 30
0.0
 10
121.1932915278614
 20
-139.1479234135637
 30
0.0
 10
121.2542697179503
 20
-139.1479234135637
 30
0.0
 10
121.2542697179503
 20
-139.1479234135637
 30
0.0
 10
121.3858723654869
 20
-139.1479234135637
 30
0.0
 10
121.4489176128669
 20
-139.1437892989814
 30
0.0
 10
121.5026611024368
 20
-139.1417222416903
 30
0.0
 10
121.4950818923693
 20
-139.2368068770832
 30
0.0
 10
121.4933593446267
 20
-139.3151827993726
 30
0.0
 10
121.4912922873355
 20
-139.3532511044846
 30
0.0
 10
121.6266845399058
 20
-139.1417222416903
 30
0.0
 10
121.719357608459
 20
-138.8941921310751
 30
0.0
 10
121.7338270094971
 20
-138.6318481098733
 30
0.0
 10
121.7338270094971
 20
-138.6318481098733
 30
0.0
 10
121.9229627516373
 20
-138.6824910135065
 30
0.0
 10
121.9229627516373
 20
-138.6824910135065
 30
0.0
 10
121.9357096049327
 20
-138.686797382863
 30
0.0
 10
121.9488009677767
 20
-138.6931708095107
 30
0.0
 10
121.9488009677767
 20
-138.7100517773885
 30
0.0
 10
121.9488009677767
 20
-138.7269327452662
 30
0.0
 10
121.9450113627429
 20
-138.7291720573316
 30
0.0
 10
121.9005696309832
 20
-138.7501871397916
 30
0.0
 10
121.8857557203966
 20
-138.8264960047899
 30
0.0
 10
121.863707109291
 20
-138.9174465256005
 30
0.0
 10
121.8209879252739
 20
-139.044398294232
 30
0.0
 10
121.8209879252739
 20
-139.044398294232
 30
0.0
 10
122.1172661370054
 20
-139.044398294232
 30
0.0
 10
122.1172661370054
 20
-139.044398294232
 30
0.0
 10
122.1506835632123
 20
-139.044398294232
 30
0.0
 10
122.2636826951285
 20
-139.0400919248754
 30
0.0
 10
122.3060573695971
 20
-139.0337184982277
 30
0.0
 10
122.3060573695971
 20
-139.0337184982277
 30
0.0
 10
122.3877061325975
 20
-139.103481681804
 30
0.0
 10
122.3877061325975
 20
-139.103481681804
 30
0.0
 10
122.38012692253
 20
-139.1246690190383
 30
0.0
 10
122.3746147697536
 20
-139.1437892989814
 30
0.0
 10
122.3618679164582
 20
-139.1797905468023
 30
0.0
  0
POLYLINE
  5
80
330
7B
100
AcDbEntity
  8
_U+30EC_U+30A4_U+30E4_U+30FC 1
370
     0
100
AcDb2dPolyline
 66
     1
 10
0.0
 20
0.0
 30
0.0
  0
VERTEX
  5
81
330
80
100
AcDbEntity
  8
_U+30EC_U+30A4_U+30E4_U+30FC 1
370
     0
100
AcDbVertex
100
AcDb2dVertex
 10
121.043429874253
 20
-139.3045030033683
 30
0.0
  0
VERTEX
  5
82
330
80
100
AcDbEntity
  8
_U+30EC_U+30A4_U+30E4_U+30FC 1
370
     0
100
AcDbVertex
100
AcDb2dVertex
 10
120.9042480166489
 20
-139.3045030033683
 30
0.0
  0
VERTEX
  5
83
330
80
100
AcDbEntity
  8
_U+30EC_U+30A4_U+30E4_U+30FC 1
370
     0
100
AcDbVertex
100
AcDb2dVertex
 10
120.9042480166489
 20
-139.4335218292909
 30
0.0
  0
VERTEX
  5
84
330
80
100
AcDbEntity
  8
_U+30EC_U+30A4_U+30E4_U+30FC 1
370
     0
100
AcDbVertex
100
AcDb2dVertex
 10
121.043429874253
 20
-139.4335218292909
 30
0.0
  0
VERTEX
  5
85
330
80
100
AcDbEntity
  8
_U+30EC_U+30A4_U+30E4_U+30FC 1
370
     0
100
AcDbVertex
100
AcDb2dVertex
 10
121.043429874253
 20
-139.3045030033683
 30
0.0
  0
SEQEND
  5
86
330
80
100
AcDbEntity
  8
_U+30EC_U+30A4_U+30E4_U+30FC 1
370
     0
  0
POLYLINE
  5
87
330
7B
100
AcDbEntity
  8
_U+30EC_U+30A4_U+30E4_U+30FC 1
370
     0
100
AcDb2dPolyline
 66
     1
 10
0.0
 20
0.0
 30
0.0
  0
VERTEX
  5
88
330
87
100
AcDbEntity
  8
_U+30EC_U+30A4_U+30E4_U+30FC 1
370
     0
100
AcDbVertex
100
AcDb2dVertex
 10
121.043429874253
 20
-139.5773545658001
 30
0.0
  0
VERTEX
  5
89
330
87
100
AcDbEntity
  8
_U+30EC_U+30A4_U+30E4_U+30FC 1
370
     0
100
AcDbVertex
100
AcDb2dVertex
 10
120.9042480166489
 20
-139.5773545658001
 30
0.0
  0
VERTEX
  5
8A
330
87
100
AcDbEntity
  8
_U+30EC_U+30A4_U+30E4_U+30FC 1
370
     0
100
AcDbVertex
100
AcDb2dVertex
 10
120.9042480166489
 20
-139.706545646497
 30
0.0
  0
VERTEX
  5
8B
330
87
100
AcDbEntity
  8
_U+30EC_U+30A4_U+30E4_U+30FC 1
370
     0
100
AcDbVertex
100
AcDb2dVertex
 10
121.043429874253
 20
-139.706545646497
 30
0.0
  0
VERTEX
  5
8C
330
87
100
AcDbEntity
  8
_U+30EC_U+30A4_U+30E4_U+30FC 1
370
     0
100
AcDbVertex
100
AcDb2dVertex
 10
121.043429874253
 20
-139.5773545658001
 30
0.0
  0
SEQEND
  5
8D
330
87
100
AcDbEntity
  8
_U+30EC_U+30A4_U+30E4_U+30FC 1
370
     0
  0
POLYLINE
  5
8E
330
7B
100
AcDbEntity
  8
_U+30EC_U+30A4_U+30E4_U+30FC 1
370
     0
100
AcDb2dPolyline
 66
     1
 10
0.0
 20
0.0
 30
0.0
  0
VERTEX
  5
8F
330
8E
100
AcDbEntity
  8
_U+30EC_U+30A4_U+30E4_U+30FC 1
370
     0
100
AcDbVertex
100
AcDb2dVertex
 10
121.3341959332081
 20
-139.3045030033683
 30
0.0
  0
VERTEX
  5
90
330
8E
100
AcDbEntity
  8
_U+30EC_U+30A4_U+30E4_U+30FC 1
370
     0
100
AcDbVertex
100
AcDb2dVertex
 10
121.1932915278614
 20
-139.3045030033683
 30
0.0
  0
VERTEX
  5
91
330
8E
100
AcDbEntity
  8
_U+30EC_U+30A4_U+30E4_U+30FC 1
370
     0
100
AcDbVertex
100
AcDb2dVertex
 10
121.1932915278614
 20
-139.4335218292909
 30
0.0
  0
VERTEX
  5
92
330
8E
100
AcDbEntity
  8
_U+30EC_U+30A4_U+30E4_U+30FC 1
370
     0
100
AcDbVertex
100
AcDb2dVertex
 10
121.3341959332081
 20
-139.4335218292909
 30
0.0
  0
VERTEX
  5
93
330
8E
100
AcDbEntity
  8
_U+30EC_U+30A4_U+30E4_U+30FC 1
370
     0
100
AcDbVertex
100
AcDb2dVertex
 10
121.3341959332081
 20
-139.3045030033683
 30
0.0
  0
SEQEND
  5
94
330
8E
100
AcDbEntity
  8
_U+30EC_U+30A4_U+30E4_U+30FC 1
370
     0
  0
POLYLINE
  5
95
330
7B
100
AcDbEntity
  8
_U+30EC_U+30A4_U+30E4_U+30FC 1
370
     0
100
AcDb2dPolyline
 66
     1
 10
0.0
 20
0.0
 30
0.0
  0
VERTEX
  5
96
330
95
100
AcDbEntity
  8
_U+30EC_U+30A4_U+30E4_U+30FC 1
370
     0
100
AcDbVertex
100
AcDb2dVertex
 10
121.3341959332081
 20
-139.5773545658001
 30
0.0
  0
VERTEX
  5
97
330
95
100
AcDbEntity
  8
_U+30EC_U+30A4_U+30E4_U+30FC 1
370
     0
100
AcDbVertex
100
AcDb2dVertex
 10
121.1932915278614
 20
-139.5773545658001
 30
0.0
  0
VERTEX
  5
98
330
95
100
AcDbEntity
  8
_U+30EC_U+30A4_U+30E4_U+30FC 1
370
     0
100
AcDbVertex
100
AcDb2dVertex
 10
121.1932915278614
 20
-139.706545646497
 30
0.0
  0
VERTEX
  5
99
330
95
100
AcDbEntity
  8
_U+30EC_U+30A4_U+30E4_U+30FC 1
370
     0
100
AcDbVertex
100
AcDb2dVertex
 10
121.3341959332081
 20
-139.706545646497
 30
0.0
  0
VERTEX
  5
9A
330
95
100
AcDbEntity
  8
_U+30EC_U+30A4_U+30E4_U+30FC 1
370
     0
100
AcDbVertex
100
AcDb2dVertex
 10
121.3341959332081
 20
-139.5773545658001
 30
0.0
  0
SEQEND
  5
9B
330
95
100
AcDbEntity
  8
_U+30EC_U+30A4_U+30E4_U+30FC 1
370
     0
  0
SPLINE
  5
9C
330
7B
100
AcDbEntity
  8
_U+30EC_U+30A4_U+30E4_U+30FC 1
370
     0
100
AcDbSpline
210
0.0
220
0.0
230
1.0
 70
    11
 71
     3
 72
    41
 73
    37
 74
     0
 42
0.0000000001
 43
0.0000000001
 12
1.0
 22
0.0
 32
0.0
 13
1.0
 23
0.0
 33
0.0
 40
0.0
 40
0.0
 40
0.0
 40
0.0
 40
1.0
 40
1.0
 40
1.0
 40
2.0
 40
2.0
 40
2.0
 40
3.0
 40
3.0
 40
3.0
 40
4.0
 40
4.0
 40
4.0
 40
5.0
 40
5.0
 40
5.0
 40
6.0
 40
6.0
 40
6.0
 40
7.0
 40
7.0
 40
7.0
 40
8.0
 40
8.0
 40
8.0
 40
9.0
 40
9.0
 40
9.0
 40
10.0
 40
10.0
 40
10.0
 40
11.0
 40
11.0
 40
11.0
 40
12.0
 40
12.0
 40
12.0
 40
12.0
 10
122.2877983635253
 20
-140.5357801297966
 30
0.0
 10
122.0766140102795
 20
-140.4003878772263
 30
0.0
 10
121.9208956943462
 20
-140.1041096654948
 30
0.0
 10
121.8857557203966
 20
-139.9750908395722
 30
0.0
 10
121.780335798548
 20
-140.2395019180651
 30
0.0
 10
121.6377088454586
 20
-140.417268845104
 30
0.0
 10
121.4785454340401
 20
-140.5314737604401
 30
0.0
 10
121.4785454340401
 20
-140.5314737604401
 30
0.0
 10
121.3062906597776
 20
-140.3940144505786
 30
0.0
 10
121.3062906597776
 20
-140.3940144505786
 30
0.0
 10
121.3672688498665
 20
-140.368692998762
 30
0.0
 10
121.4950818923693
 20
-140.3071980443503
 30
0.0
 10
121.6025688715091
 20
-140.1528577666111
 30
0.0
 10
121.7117783983915
 20
-139.9962781768065
 30
0.0
 10
121.7896375563582
 20
-139.7635619767779
 30
0.0
 10
121.7896375563582
 20
-139.5034572676415
 30
0.0
 10
121.7896375563582
 20
-139.4018269508266
 30
0.0
 10
121.7786132508053
 20
-139.3299967099592
 30
0.0
 10
121.7693114929952
 20
-139.283315666134
 30
0.0
 10
121.7693114929952
 20
-139.283315666134
 30
0.0
 10
121.9488009677767
 20
-139.3045030033683
 30
0.0
 10
121.9488009677767
 20
-139.3045030033683
 30
0.0
 10
121.967404483397
 20
-139.3065700606595
 30
0.0
 10
121.9860079990174
 20
-139.3088093727249
 30
0.0
 10
121.9860079990174
 20
-139.3299967099592
 30
0.0
 10
121.9860079990174
 20
-139.348944735128
 30
0.0
 10
121.9767062412072
 20
-139.3573852190669
 30
0.0
 10
121.9470784200341
 20
-139.3785725563012
 30
0.0
 10
121.9394992099665
 20
-139.5795938778655
 30
0.0
 10
121.9894530945026
 20
-139.8228176191242
 30
0.0
 10
122.0431965840725
 20
-139.9433959611079
 30
0.0
 10
122.1227782897818
 20
-140.1189235760814
 30
0.0
 10
122.2933105163017
 20
-140.2987575604114
 30
0.0
 10
122.4118218009943
 20
-140.3559461454666
 30
0.0
 10
122.4118218009943
 20
-140.3559461454666
 30
0.0
 10
122.2877983635253
 20
-140.5357801297966
 30
0.0
 10
122.2877983635253
 20
-140.5357801297966
 30
0.0
  0
HATCH
  5
9D
330
7B
100
AcDbEntity
  8
_U+30EC_U+30A4_U+30E4_U+30FC 1
 62
   179
420
  2234388
100
AcDbHatch
 10
0.0
 20
0.0
 30
0.0
210
0.0
220
0.0
230
1.0
  2
SOLID
 70
     1
 71
     0
 91
        6
 92
        1
 93
        1
 72
     4
 94
        3
 73
     0
 74
     1
 95
      197
 96
      193
 40
0.0
 40
0.0
 40
0.0
 40
0.0
 40
1.0
 40
1.0
 40
1.0
 40
2.0
 40
2.0
 40
2.0
 40
3.0
 40
3.0
 40
3.0
 40
4.0
 40
4.0
 40
4.0
 40
5.0
 40
5.0
 40
5.0
 40
6.0
 40
6.0
 40
6.0
 40
7.0
 40
7.0
 40
7.0
 40
8.0
 40
8.0
 40
8.0
 40
9.0
 40
9.0
 40
9.0
 40
10.0
 40
10.0
 40
10.0
 40
11.0
 40
11.0
 40
11.0
 40
12.0
 40
12.0
 40
12.0
 40
13.0
 40
13.0
 40
13.0
 40
14.0
 40
14.0
 40
14.0
 40
15.0
 40
15.0
 40
15.0
 40
16.0
 40
16.0
 40
16.0
 40
17.0
 40
17.0
 40
17.0
 40
18.0
 40
18.0
 40
18.0
 40
19.0
 40
19.0
 40
19.0
 40
20.0
 40
20.0
 40
20.0
 40
21.0
 40
21.0
 40
21.0
 40
22.0
 40
22.0
 40
22.0
 40
23.0
 40
23.0
 40
23.0
 40
24.0
 40
24.0
 40
24.0
 40
25.0
 40
25.0
 40
25.0
 40
26.0
 40
26.0
 40
26.0
 40
27.0
 40
27.0
 40
27.0
 40
28.0
 40
28.0
 40
28.0
 40
29.0
 40
29.0
 40
29.0
 40
30.0
 40
30.0
 40
30.0
 40
31.0
 40
31.0
 40
31.0
 40
32.0
 40
32.0
 40
32.0
 40
33.0
 40
33.0
 40
33.0
 40
34.0
 40
34.0
 40
34.0
 40
35.0
 40
35.0
 40
35.0
 40
36.0
 40
36.0
 40
36.0
 40
37.0
 40
37.0
 40
37.0
 40
38.0
 40
38.0
 40
38.0
 40
39.0
 40
39.0
 40
39.0
 40
40.0
 40
40.0
 40
40.0
 40
41.0
 40
41.0
 40
41.0
 40
42.0
 40
42.0
 40
42.0
 40
43.0
 40
43.0
 40
43.0
 40
44.0
 40
44.0
 40
44.0
 40
45.0
 40
45.0
 40
45.0
 40
46.0
 40
46.0
 40
46.0
 40
47.0
 40
47.0
 40
47.0
 40
48.0
 40
48.0
 40
48.0
 40
49.0
 40
49.0
 40
49.0
 40
50.0
 40
50.0
 40
50.0
 40
51.0
 40
51.0
 40
51.0
 40
52.0
 40
52.0
 40
52.0
 40
53.0
 40
53.0
 40
53.0
 40
54.0
 40
54.0
 40
54.0
 40
55.0
 40
55.0
 40
55.0
 40
56.0
 40
56.0
 40
56.0
 40
57.0
 40
57.0
 40
57.0
 40
58.0
 40
58.0
 40
58.0
 40
59.0
 40
59.0
 40
59.0
 40
60.0
 40
60.0
 40
60.0
 40
61.0
 40
61.0
 40
61.0
 40
62.0
 40
62.0
 40
62.0
 40
63.0
 40
63.0
 40
63.0
 40
64.0
 40
64.0
 40
64.0
 40
64.0
 10
122.3618679164582
 20
-139.1797905468023
 10
122.352566158648
 20
-139.2092461132012
 10
122.332240095285
 20
-139.2559271570263
 10
122.3229383374748
 20
-139.283315666134
 10
122.3229383374748
 20
-139.283315666134
 10
122.2691948479049
 20
-139.4357611413564
 10
122.2691948479049
 20
-139.4357611413564
 10
122.2598930900947
 20
-139.4610825931729
 10
122.2171739060777
 20
-139.5732204512178
 10
122.2061496005249
 20
-139.5964748457432
 10
122.2044270527822
 20
-139.602848272391
 10
122.2006374477485
 20
-139.6112887563298
 10
122.1989149000058
 20
-139.6176621829775
 10
122.1989149000058
 20
-139.6176621829775
 10
122.0156358201905
 20
-139.564779967279
 10
122.0156358201905
 20
-139.564779967279
 10
122.0838487107985
 20
-139.4547091665252
 10
122.1375922003684
 20
-139.3193169139549
 10
122.1654974737989
 20
-139.2092461132012
 10
122.1654974737989
 20
-139.2092461132012
 10
121.7579426778939
 20
-139.2092461132012
 10
121.7579426778939
 20
-139.2092461132012
 10
121.6876627299948
 20
-139.3742661869446
 10
121.6284070876485
 20
-139.4526421092341
 10
121.5987792664753
 20
-139.4927774716372
 10
121.5987792664753
 20
-139.4927774716372
 10
121.4912922873355
 20
-139.4271484026432
 10
121.4912922873355
 20
-139.4271484026432
 10
121.4912922873355
 20
-139.4271484026432
 10
121.4912922873355
 20
-139.5985419030344
 10
121.4912922873355
 20
-139.5985419030344
 10
121.4912922873355
 20
-139.706545646497
 10
121.4933593446267
 20
-139.755121492839
 10
121.5026611024368
 20
-139.8608859242362
 10
121.4396158550568
 20
-139.858818866945
 10
121.4210123394364
 20
-139.858818866945
 10
121.2415228646549
 20
-139.858818866945
 10
121.2415228646549
 20
-139.858818866945
 10
121.1932915278614
 20
-139.858818866945
 10
121.1932915278614
 20
-139.858818866945
 10
121.1932915278614
 20
-139.858818866945
 10
121.1932915278614
 20
-139.9942111195153
 10
121.1932915278614
 20
-139.9942111195153
 10
121.1932915278614
 20
-139.9942111195153
 10
121.2563367752415
 20
-139.9942111195153
 10
121.2563367752415
 20
-139.9942111195153
 10
121.3135253602966
 20
-139.9942111195153
 10
121.4413384027994
 20
-139.9899047501588
 10
121.5340114713526
 20
-139.9814642662199
 10
121.5340114713526
 20
-139.9814642662199
 10
121.5340114713526
 20
-140.1592311932588
 10
121.5340114713526
 20
-140.1592311932588
 10
121.4489176128669
 20
-140.1528577666111
 10
121.3100802648114
 20
-140.1485513972545
 10
121.2563367752415
 20
-140.1485513972545
 10
121.2563367752415
 20
-140.1485513972545
 10
121.1932915278614
 20
-140.1485513972545
 10
121.1932915278614
 20
-140.1485513972545
 10
121.195014075604
 20
-140.237434860774
 10
121.1988036806378
 20
-140.4765244874503
 10
121.2005262283804
 20
-140.5505940403832
 10
121.2005262283804
 20
-140.5505940403832
 10
121.0248263586327
 20
-140.5505940403832
 10
121.0248263586327
 20
-140.5505940403832
 10
121.0358506641855
 20
-140.3368258655235
 10
121.0358506641855
 20
-140.3071980443503
 10
121.0396402692193
 20
-140.1485513972545
 10
121.0396402692193
 20
-140.1485513972545
 10
120.9786620791303
 20
-140.1485513972545
 10
120.9786620791303
 20
-140.1485513972545
 10
120.9283636850457
 20
-140.1485513972545
 10
120.7950384897665
 20
-140.1528577666111
 10
120.6989203257281
 20
-140.1592311932588
 10
120.6989203257281
 20
-140.1592311932588
 10
120.6989203257281
 20
-139.9814642662199
 10
120.6989203257281
 20
-139.9814642662199
 10
120.7915933942813
 20
-139.9899047501588
 10
120.9173393794929
 20
-139.9942111195153
 10
120.9786620791303
 20
-139.9942111195153
 10
120.9786620791303
 20
-139.9942111195153
 10
121.043429874253
 20
-139.9942111195153
 10
121.043429874253
 20
-139.9942111195153
 10
121.043429874253
 20
-139.9942111195153
 10
121.043429874253
 20
-139.858818866945
 10
121.043429874253
 20
-139.858818866945
 10
121.043429874253
 20
-139.858818866945
 10
121.0045002952697
 20
-139.858818866945
 10
121.0045002952697
 20
-139.858818866945
 10
120.9376654428559
 20
-139.858818866945
 10
120.7692002736271
 20
-139.8608859242362
 10
120.739572452454
 20
-139.8608859242362
 10
120.7450846052304
 20
-139.7890556833687
 10
120.752663815298
 20
-139.7086127037881
 10
120.752663815298
 20
-139.5880343618044
 10
120.752663815298
 20
-139.5880343618044
 10
120.752663815298
 20
-139.4145738041221
 10
120.752663815298
 20
-139.4145738041221
 10
120.752663815298
 20
-139.3425713084803
 10
120.7450846052304
 20
-139.2219929664966
 10
120.739572452454
 20
-139.1417222416903
 10
120.8081298526105
 20
-139.1458563562726
 10
120.8415472788174
 20
-139.1479234135637
 10
120.9524793534424
 20
-139.1479234135637
 10
120.9524793534424
 20
-139.1479234135637
 10
121.043429874253
 20
-139.1479234135637
 10
121.043429874253
 20
-139.1479234135637
 10
121.043429874253
 20
-139.1479234135637
 10
121.043429874253
 20
-139.0020236197634
 10
121.043429874253
 20
-139.0020236197634
 10
121.043429874253
 20
-139.0020236197634
 10
120.9748724740966
 20
-139.0020236197634
 10
120.9748724740966
 20
-139.0020236197634
 10
120.9266411373031
 20
-139.0020236197634
 10
120.7767794836947
 20
-139.00632998912
 10
120.7027099307618
 20
-139.0125311609934
 10
120.7027099307618
 20
-139.0125311609934
 10
120.7027099307618
 20
-138.8349364887288
 10
120.7027099307618
 20
-138.8349364887288
 10
120.7747124264036
 20
-138.8413099153765
 10
120.9173393794929
 20
-138.8454440299588
 10
120.9748724740966
 20
-138.8454440299588
 10
120.9748724740966
 20
-138.8454440299588
 10
121.043429874253
 20
-138.8454440299588
 10
121.043429874253
 20
-138.8454440299588
 10
121.043429874253
 20
-138.8116820942033
 10
121.0396402692193
 20
-138.6571695616899
 10
121.0396402692193
 20
-138.6254746832256
 10
121.0396402692193
 20
-138.6254746832256
 10
121.2118950434818
 20
-138.6423556511033
 10
121.2118950434818
 20
-138.6423556511033
 10
121.2267089540683
 20
-138.6444227083944
 10
121.2453124696887
 20
-138.6466620204599
 10
121.2453124696887
 20
-138.6676771029199
 10
121.2453124696887
 20
-138.6911037522196
 10
121.2267089540683
 20
-138.6995442361585
 10
121.2025932856716
 20
-138.7121188346796
 10
121.2025932856716
 20
-138.7333061719139
 10
121.2005262283804
 20
-138.8285630620811
 10
121.2005262283804
 20
-138.8454440299588
 10
121.2005262283804
 20
-138.8454440299588
 10
121.2525471702077
 20
-138.8454440299588
 10
121.2525471702077
 20
-138.8454440299588
 10
121.311802812554
 20
-138.8454440299588
 10
121.4375487977656
 20
-138.8413099153765
 10
121.5302218663188
 20
-138.8349364887288
 10
121.5302218663188
 20
-138.8349364887288
 10
121.5302218663188
 20
-139.0125311609934
 10
121.5302218663188
 20
-139.0125311609934
 10
121.4451280078332
 20
-139.00632998912
 10
121.3080132075202
 20
-139.0020236197634
 10
121.2525471702077
 20
-139.0020236197634
 10
121.2525471702077
 20
-139.0020236197634
 10
121.1932915278614
 20
-139.0020236197634
 10
121.1932915278614
 20
-139.0020236197634
 10
121.1932915278614
 20
-139.0020236197634
 10
121.1932915278614
 20
-139.1479234135637
 10
121.1932915278614
 20
-139.1479234135637
 10
121.1932915278614
 20
-139.1479234135637
 10
121.2542697179503
 20
-139.1479234135637
 10
121.2542697179503
 20
-139.1479234135637
 10
121.3858723654869
 20
-139.1479234135637
 10
121.4489176128669
 20
-139.1437892989814
 10
121.5026611024368
 20
-139.1417222416903
 10
121.4950818923693
 20
-139.2368068770832
 10
121.4933593446267
 20
-139.3151827993726
 10
121.4912922873355
 20
-139.3532511044846
 10
121.6266845399058
 20
-139.1417222416903
 10
121.719357608459
 20
-138.8941921310751
 10
121.7338270094971
 20
-138.6318481098733
 10
121.7338270094971
 20
-138.6318481098733
 10
121.9229627516373
 20
-138.6824910135065
 10
121.9229627516373
 20
-138.6824910135065
 10
121.9357096049327
 20
-138.686797382863
 10
121.9488009677767
 20
-138.6931708095107
 10
121.9488009677767
 20
-138.7100517773885
 10
121.9488009677767
 20
-138.7269327452662
 10
121.9450113627429
 20
-138.7291720573316
 10
121.9005696309832
 20
-138.7501871397916
 10
121.8857557203966
 20
-138.8264960047899
 10
121.863707109291
 20
-138.9174465256005
 10
121.8209879252739
 20
-139.044398294232
 10
121.8209879252739
 20
-139.044398294232
 10
122.1172661370054
 20
-139.044398294232
 10
122.1172661370054
 20
-139.044398294232
 10
122.1506835632123
 20
-139.044398294232
 10
122.2636826951285
 20
-139.0400919248754
 10
122.3060573695971
 20
-139.0337184982277
 10
122.3060573695971
 20
-139.0337184982277
 10
122.3877061325975
 20
-139.103481681804
 10
122.3877061325975
 20
-139.103481681804
 10
122.38012692253
 20
-139.1246690190383
 10
122.3746147697536
 20
-139.1437892989814
 10
122.3618679164582
 20
-139.1797905468023
 97
        0
 97
        0
 92
        1
 93
        4
 72
     1
 10
121.043429874253
 20
-139.3045030033683
 11
120.9042480166489
 21
-139.3045030033683
 72
     1
 10
120.9042480166489
 20
-139.3045030033683
 11
120.9042480166489
 21
-139.4335218292909
 72
     1
 10
120.9042480166489
 20
-139.4335218292909
 11
121.043429874253
 21
-139.4335218292909
 72
     1
 10
121.043429874253
 20
-139.4335218292909
 11
121.043429874253
 21
-139.3045030033683
 97
        0
 92
        1
 93
        4
 72
     1
 10
121.043429874253
 20
-139.5773545658001
 11
120.9042480166489
 21
-139.5773545658001
 72
     1
 10
120.9042480166489
 20
-139.5773545658001
 11
120.9042480166489
 21
-139.706545646497
 72
     1
 10
120.9042480166489
 20
-139.706545646497
 11
121.043429874253
 21
-139.706545646497
 72
     1
 10
121.043429874253
 20
-139.706545646497
 11
121.043429874253
 21
-139.5773545658001
 97
        0
 92
        1
 93
        4
 72
     1
 10
121.3341959332081
 20
-139.3045030033683
 11
121.1932915278614
 21
-139.3045030033683
 72
     1
 10
121.1932915278614
 20
-139.3045030033683
 11
121.1932915278614
 21
-139.4335218292909
 72
     1
 10
121.1932915278614
 20
-139.4335218292909
 11
121.3341959332081
 21
-139.4335218292909
 72
     1
 10
121.3341959332081
 20
-139.4335218292909
 11
121.3341959332081
 21
-139.3045030033683
 97
        0
 92
        1
 93
        4
 72
     1
 10
121.3341959332081
 20
-139.5773545658001
 11
121.1932915278614
 21
-139.5773545658001
 72
     1
 10
121.1932915278614
 20
-139.5773545658001
 11
121.1932915278614
 21
-139.706545646497
 72
     1
 10
121.1932915278614
 20
-139.706545646497
 11
121.3341959332081
 21
-139.706545646497
 72
     1
 10
121.3341959332081
 20
-139.706545646497
 11
121.3341959332081
 21
-139.5773545658001
 97
        0
 92
        1
 93
        1
 72
     4
 94
        3
 73
     0
 74
     1
 95
       41
 96
       37
 40
0.0
 40
0.0
 40
0.0
 40
0.0
 40
1.0
 40
1.0
 40
1.0
 40
2.0
 40
2.0
 40
2.0
 40
3.0
 40
3.0
 40
3.0
 40
4.0
 40
4.0
 40
4.0
 40
5.0
 40
5.0
 40
5.0
 40
6.0
 40
6.0
 40
6.0
 40
7.0
 40
7.0
 40
7.0
 40
8.0
 40
8.0
 40
8.0
 40
9.0
 40
9.0
 40
9.0
 40
10.0
 40
10.0
 40
10.0
 40
11.0
 40
11.0
 40
11.0
 40
12.0
 40
12.0
 40
12.0
 40
12.0
 10
122.2877983635253
 20
-140.5357801297966
 10
122.0766140102795
 20
-140.4003878772263
 10
121.9208956943462
 20
-140.1041096654948
 10
121.8857557203966
 20
-139.9750908395722
 10
121.780335798548
 20
-140.2395019180651
 10
121.6377088454586
 20
-140.417268845104
 10
121.4785454340401
 20
-140.5314737604401
 10
121.4785454340401
 20
-140.5314737604401
 10
121.3062906597776
 20
-140.3940144505786
 10
121.3062906597776
 20
-140.3940144505786
 10
121.3672688498665
 20
-140.368692998762
 10
121.4950818923693
 20
-140.3071980443503
 10
121.6025688715091
 20
-140.1528577666111
 10
121.7117783983915
 20
-139.9962781768065
 10
121.7896375563582
 20
-139.7635619767779
 10
121.7896375563582
 20
-139.5034572676415
 10
121.7896375563582
 20
-139.4018269508266
 10
121.7786132508053
 20
-139.3299967099592
 10
121.7693114929952
 20
-139.283315666134
 10
121.7693114929952
 20
-139.283315666134
 10
121.9488009677767
 20
-139.3045030033683
 10
121.9488009677767
 20
-139.3045030033683
 10
121.967404483397
 20
-139.3065700606595
 10
121.9860079990174
 20
-139.3088093727249
 10
121.9860079990174
 20
-139.3299967099592
 10
121.9860079990174
 20
-139.348944735128
 10
121.9767062412072
 20
-139.3573852190669
 10
121.9470784200341
 20
-139.3785725563012
 10
121.9394992099665
 20
-139.5795938778655
 10
121.9894530945026
 20
-139.8228176191242
 10
122.0431965840725
 20
-139.9433959611079
 10
122.1227782897818
 20
-140.1189235760814
 10
122.2933105163017
 20
-140.2987575604114
 10
122.4118218009943
 20
-140.3559461454666
 10
122.4118218009943
 20
-140.3559461454666
 10
122.2877983635253
 20
-140.5357801297966
 10
122.2877983635253
 20
-140.5357801297966
 97
        0
 97
        0
 75
     2
 76
     1
 98
        0
  0
SPLINE
  5
9E
330
7B
100
AcDbEntity
  8
_U+30EC_U+30A4_U+30E4_U+30FC 1
370
     0
100
AcDbSpline
210
0.0
220
0.0
230
1.0
 70
    11
 71
     3
 72
    71
 73
    67
 74
     0
 42
0.0000000001
 43
0.0000000001
 12
1.0
 22
0.0
 32
0.0
 13
1.0
 23
0.0
 33
0.0
 40
0.0
 40
0.0
 40
0.0
 40
0.0
 40
1.0
 40
1.0
 40
1.0
 40
2.0
 40
2.0
 40
2.0
 40
3.0
 40
3.0
 40
3.0
 40
4.0
 40
4.0
 40
4.0
 40
5.0
 40
5.0
 40
5.0
 40
6.0
 40
6.0
 40
6.0
 40
7.0
 40
7.0
 40
7.0
 40
8.0
 40
8.0
 40
8.0
 40
9.0
 40
9.0
 40
9.0
 40
10.0
 40
10.0
 40
10.0
 40
11.0
 40
11.0
 40
11.0
 40
12.0
 40
12.0
 40
12.0
 40
13.0
 40
13.0
 40
13.0
 40
14.0
 40
14.0
 40
14.0
 40
15.0
 40
15.0
 40
15.0
 40
16.0
 40
16.0
 40
16.0
 40
17.0
 40
17.0
 40
17.0
 40
18.0
 40
18.0
 40
18.0
 40
19.0
 40
19.0
 40
19.0
 40
20.0
 40
20.0
 40
20.0
 40
21.0
 40
21.0
 40
21.0
 40
22.0
 40
22.0
 40
22.0
 40
22.0
 10
123.3344183719442
 20
-138.8030693554902
 30
0.0
 10
123.3213270091002
 20
-138.8030693554902
 30
0.0
 10
123.3103027035474
 20
-138.7989352409079
 30
0.0
 10
123.2882540924418
 20
-138.7904947569691
 30
0.0
 10
123.1642306549728
 20
-138.8370035460199
 30
0.0
 10
123.0123019440733
 20
-138.8538845138976
 30
0.0
 10
122.890001054347
 20
-138.8581908832542
 30
0.0
 10
122.890001054347
 20
-138.8581908832542
 30
0.0
 10
122.8882785066043
 20
-138.9470743467737
 30
0.0
 10
122.8882785066043
 20
-138.9470743467737
 30
0.0
 10
122.8882785066043
 20
-138.9470743467737
 30
0.0
 10
123.1159993181793
 20
-138.9470743467737
 30
0.0
 10
123.1159993181793
 20
-138.9470743467737
 30
0.0
 10
123.1621635976817
 20
-138.9470743467737
 30
0.0
 10
123.3213270091002
 20
-138.9384616080605
 30
0.0
 10
123.3602565880836
 20
-138.9322604361871
 30
0.0
 10
123.3602565880836
 20
-138.9322604361871
 30
0.0
 10
123.3602565880836
 20
-139.092974140574
 30
0.0
 10
123.3602565880836
 20
-139.092974140574
 30
0.0
 10
123.3123697608386
 20
-139.0866007139263
 30
0.0
 10
123.2028157244076
 20
-139.0845336566351
 30
0.0
 10
123.1697428077492
 20
-139.0866007139263
 30
0.0
 10
123.1697428077492
 20
-139.0866007139263
 30
0.0
 10
123.1697428077492
 20
-139.19667151468
 30
0.0
 10
123.1697428077492
 20
-139.19667151468
 30
0.0
 10
123.1697428077492
 20
-139.2431803037309
 30
0.0
 10
123.1714653554919
 20
-139.3065700606595
 30
0.0
 10
123.1769775082683
 20
-139.3446383657715
 30
0.0
 10
123.1769775082683
 20
-139.3446383657715
 30
0.0
 10
123.0085123390395
 20
-139.3446383657715
 30
0.0
 10
123.0085123390395
 20
-139.3446383657715
 30
0.0
 10
123.0140244918159
 20
-139.3045030033683
 30
0.0
 10
123.0195366445923
 20
-139.2219929664966
 30
0.0
 10
123.0195366445923
 20
-139.20717905591
 30
0.0
 10
123.0195366445923
 20
-139.20717905591
 30
0.0
 10
123.0195366445923
 20
-139.0866007139263
 30
0.0
 10
123.0195366445923
 20
-139.0866007139263
 30
0.0
 10
123.0195366445923
 20
-139.0866007139263
 30
0.0
 10
122.8751871437604
 20
-139.0866007139263
 30
0.0
 10
122.8751871437604
 20
-139.0866007139263
 30
0.0
 10
122.8383246220682
 20
-139.3065700606595
 30
0.0
 10
122.7900932852747
 20
-139.38701304024
 30
0.0
 10
122.6974202167215
 20
-139.4864040449895
 30
0.0
 10
122.6974202167215
 20
-139.4864040449895
 30
0.0
 10
122.5510036585984
 20
-139.3721991296535
 30
0.0
 10
122.5510036585984
 20
-139.3721991296535
 30
0.0
 10
122.6068142054594
 20
-139.3236232833115
 30
0.0
 10
122.7380723434474
 20
-139.2114854252666
 30
0.0
 10
122.7380723434474
 20
-138.8623249978365
 30
0.0
 10
122.7380723434474
 20
-138.7798149609648
 30
0.0
 10
122.7308376429284
 20
-138.7333061719139
 30
0.0
 10
122.7232584328609
 20
-138.6847303255719
 30
0.0
 10
122.8510714753636
 20
-138.6995442361585
 30
0.0
 10
122.8641628382076
 20
-138.6995442361585
 30
0.0
 10
122.8955132071233
 20
-138.6995442361585
 30
0.0
 10
122.9899088234192
 20
-138.6995442361585
 30
0.0
 10
123.1139322608882
 20
-138.6824910135065
 30
0.0
 10
123.2548366662349
 20
-138.621168313869
 30
0.0
 10
123.2548366662349
 20
-138.621168313869
 30
0.0
 10
123.3547444353072
 20
-138.752426451857
 30
0.0
 10
123.3547444353072
 20
-138.752426451857
 30
0.0
 10
123.3602565880836
 20
-138.7587998785048
 30
0.0
 10
123.3640461931173
 20
-138.7672403624436
 30
0.0
 10
123.3640461931173
 20
-138.7756808463825
 30
0.0
 10
123.3640461931173
 20
-138.7989352409079
 30
0.0
 10
123.3475097347881
 20
-138.8030693554902
 30
0.0
 10
123.3344183719442
 20
-138.8030693554902
 30
0.0
  0
SPLINE
  5
9F
330
7B
100
AcDbEntity
  8
_U+30EC_U+30A4_U+30E4_U+30FC 1
370
     0
100
AcDbSpline
210
0.0
220
0.0
230
1.0
 70
    11
 71
     3
 72
    74
 73
    70
 74
     0
 42
0.0000000001
 43
0.0000000001
 12
1.0
 22
0.0
 32
0.0
 13
1.0
 23
0.0
 33
0.0
 40
0.0
 40
0.0
 40
0.0
 40
0.0
 40
1.0
 40
1.0
 40
1.0
 40
2.0
 40
2.0
 40
2.0
 40
3.0
 40
3.0
 40
3.0
 40
4.0
 40
4.0
 40
4.0
 40
5.0
 40
5.0
 40
5.0
 40
6.0
 40
6.0
 40
6.0
 40
7.0
 40
7.0
 40
7.0
 40
8.0
 40
8.0
 40
8.0
 40
9.0
 40
9.0
 40
9.0
 40
10.0
 40
10.0
 40
10.0
 40
11.0
 40
11.0
 40
11.0
 40
12.0
 40
12.0
 40
12.0
 40
13.0
 40
13.0
 40
13.0
 40
14.0
 40
14.0
 40
14.0
 40
15.0
 40
15.0
 40
15.0
 40
16.0
 40
16.0
 40
16.0
 40
17.0
 40
17.0
 40
17.0
 40
18.0
 40
18.0
 40
18.0
 40
19.0
 40
19.0
 40
19.0
 40
20.0
 40
20.0
 40
20.0
 40
21.0
 40
21.0
 40
21.0
 40
22.0
 40
22.0
 40
22.0
 40
23.0
 40
23.0
 40
23.0
 40
23.0
 10
124.0678792007539
 20
-140.5695420655521
 30
0.0
 10
123.8808105159048
 20
-140.559034524322
 30
0.0
 10
123.7047661366085
 20
-140.4722181180938
 30
0.0
 10
123.5511148779664
 20
-140.35163977611
 30
0.0
 10
123.5511148779664
 20
-140.35163977611
 30
0.0
 10
123.6362087364521
 20
-140.264995624656
 30
0.0
 10
123.6362087364521
 20
-140.264995624656
 30
0.0
 10
123.6362087364521
 20
-140.264995624656
 30
0.0
 10
123.1528618398715
 20
-140.264995624656
 30
0.0
 10
123.1528618398715
 20
-140.264995624656
 30
0.0
 10
123.1528618398715
 20
-140.264995624656
 30
0.0
 10
123.2234862973191
 20
-140.3283853815846
 30
0.0
 10
123.2234862973191
 20
-140.3283853815846
 30
0.0
 10
123.2289984500955
 20
-140.3326917509411
 30
0.0
 10
123.2383002079057
 20
-140.3431992921712
 30
0.0
 10
123.2383002079057
 20
-140.3580132027577
 30
0.0
 10
123.2383002079057
 20
-140.3983208199352
 30
0.0
 10
123.1731879032345
 20
-140.3919473932874
 30
0.0
 10
123.1604410499391
 20
-140.389708081222
 30
0.0
 10
122.9585584545034
 20
-140.5294067031489
 30
0.0
 10
122.8328124692918
 20
-140.5611015816132
 30
0.0
 10
122.7418619484812
 20
-140.5779825494909
 30
0.0
 10
122.7418619484812
 20
-140.5779825494909
 30
0.0
 10
122.628862816565
 20
-140.4003878772263
 30
0.0
 10
122.628862816565
 20
-140.4003878772263
 30
0.0
 10
122.8455593225872
 20
-140.368692998762
 30
0.0
 10
122.9344427861067
 20
-140.3220119549369
 30
0.0
 10
123.0123019440733
 20
-140.2691297392383
 30
0.0
 10
122.9475341489506
 20
-140.2713690513037
 30
0.0
 10
122.8472818703299
 20
-140.2734361085948
 30
0.0
 10
122.8197211064479
 20
-140.275503165886
 30
0.0
 10
122.8328124692918
 20
-140.1866197023666
 30
0.0
 10
122.8345350170344
 20
-140.0576008764439
 30
0.0
 10
122.8345350170344
 20
-139.9835313235111
 30
0.0
 10
122.8345350170344
 20
-139.9835313235111
 30
0.0
 10
122.8345350170344
 20
-139.6832912519716
 30
0.0
 10
122.8345350170344
 20
-139.6832912519716
 30
0.0
 10
122.8345350170344
 20
-139.5837279924478
 30
0.0
 10
122.829022864258
 20
-139.4843369876984
 30
0.0
 10
122.8197211064479
 20
-139.38701304024
 30
0.0
 10
122.9086045699673
 20
-139.3933864668878
 30
0.0
 10
123.1104871654029
 20
-139.3997598935355
 30
0.0
 10
123.2048827816988
 20
-139.3997598935355
 30
0.0
 10
123.2048827816988
 20
-139.3997598935355
 30
0.0
 10
123.5752305463631
 20
-139.3997598935355
 30
0.0
 10
123.5752305463631
 20
-139.3997598935355
 30
0.0
 10
123.6789279204692
 20
-139.3997598935355
 30
0.0
 10
123.7157904421613
 20
-139.3997598935355
 30
0.0
 10
123.7881374473516
 20
-139.3954535241789
 30
0.0
 10
123.917673037597
 20
-139.3890800975312
 30
0.0
 10
123.9324869481836
 20
-139.3890800975312
 30
0.0
 10
123.9731390749095
 20
-139.38701304024
 30
0.0
 10
123.9659043743905
 20
-139.4674560198206
 30
0.0
 10
123.9621147693567
 20
-139.6261026669164
 30
0.0
 10
123.9621147693567
 20
-139.7086127037881
 30
0.0
 10
123.9621147693567
 20
-139.7086127037881
 30
0.0
 10
123.9621147693567
 20
-139.9942111195153
 30
0.0
 10
123.9621147693567
 20
-139.9942111195153
 30
0.0
 10
123.9621147693567
 20
-140.0660413603828
 30
0.0
 10
123.9641818266478
 20
-140.1972994983708
 30
0.0
 10
123.9731390749095
 20
-140.275503165886
 30
0.0
 10
123.9104383370779
 20
-140.2713690513037
 30
0.0
 10
123.8029513579382
 20
-140.2691297392383
 30
0.0
 10
123.7343939577817
 20
-140.2670626819471
 30
0.0
 10
123.8308566313687
 20
-140.3347588082323
 30
0.0
 10
123.9641818266478
 20
-140.3855739666397
 30
0.0
 10
124.1491834542058
 20
-140.389708081222
 30
0.0
 10
124.1491834542058
 20
-140.389708081222
 30
0.0
 10
124.0678792007539
 20
-140.5695420655521
 30
0.0
 10
124.0678792007539
 20
-140.5695420655521
 30
0.0
  0
POLYLINE
  5
A0
330
7B
100
AcDbEntity
  8
_U+30EC_U+30A4_U+30E4_U+30FC 1
370
     0
100
AcDb2dPolyline
 66
     1
 10
0.0
 20
0.0
 30
0.0
  0
VERTEX
  5
A1
330
A0
100
AcDbEntity
  8
_U+30EC_U+30A4_U+30E4_U+30FC 1
370
     0
100
AcDbVertex
100
AcDb2dVertex
 10
123.8012288101955
 20
-139.5351521461058
 30
0.0
  0
VERTEX
  5
A2
330
A0
100
AcDbEntity
  8
_U+30EC_U+30A4_U+30E4_U+30FC 1
370
     0
100
AcDbVertex
100
AcDb2dVertex
 10
123.0030001862632
 20
-139.5351521461058
 30
0.0
  0
VERTEX
  5
A3
330
A0
100
AcDbEntity
  8
_U+30EC_U+30A4_U+30E4_U+30FC 1
370
     0
100
AcDbVertex
100
AcDb2dVertex
 10
123.0030001862632
 20
-139.6472900041507
 30
0.0
  0
VERTEX
  5
A4
330
A0
100
AcDbEntity
  8
_U+30EC_U+30A4_U+30E4_U+30FC 1
370
     0
100
AcDbVertex
100
AcDb2dVertex
 10
123.8012288101955
 20
-139.6472900041507
 30
0.0
  0
VERTEX
  5
A5
330
A0
100
AcDbEntity
  8
_U+30EC_U+30A4_U+30E4_U+30FC 1
370
     0
100
AcDbVertex
100
AcDb2dVertex
 10
123.8012288101955
 20
-139.5351521461058
 30
0.0
  0
SEQEND
  5
A6
330
A0
100
AcDbEntity
  8
_U+30EC_U+30A4_U+30E4_U+30FC 1
370
     0
  0
POLYLINE
  5
A7
330
7B
100
AcDbEntity
  8
_U+30EC_U+30A4_U+30E4_U+30FC 1
370
     0
100
AcDb2dPolyline
 66
     1
 10
0.0
 20
0.0
 30
0.0
  0
VERTEX
  5
A8
330
A7
100
AcDbEntity
  8
_U+30EC_U+30A4_U+30E4_U+30FC 1
370
     0
100
AcDbVertex
100
AcDb2dVertex
 10
123.8012288101955
 20
-139.7804429446556
 30
0.0
  0
VERTEX
  5
A9
330
A7
100
AcDbEntity
  8
_U+30EC_U+30A4_U+30E4_U+30FC 1
370
     0
100
AcDbVertex
100
AcDb2dVertex
 10
123.0030001862632
 20
-139.7804429446556
 30
0.0
  0
VERTEX
  5
AA
330
A7
100
AcDbEntity
  8
_U+30EC_U+30A4_U+30E4_U+30FC 1
370
     0
100
AcDbVertex
100
AcDb2dVertex
 10
123.0030001862632
 20
-139.8905137454093
 30
0.0
  0
VERTEX
  5
AB
330
A7
100
AcDbEntity
  8
_U+30EC_U+30A4_U+30E4_U+30FC 1
370
     0
100
AcDbVertex
100
AcDb2dVertex
 10
123.8012288101955
 20
-139.8905137454093
 30
0.0
  0
VERTEX
  5
AC
330
A7
100
AcDbEntity
  8
_U+30EC_U+30A4_U+30E4_U+30FC 1
370
     0
100
AcDbVertex
100
AcDb2dVertex
 10
123.8012288101955
 20
-139.7804429446556
 30
0.0
  0
SEQEND
  5
AD
330
A7
100
AcDbEntity
  8
_U+30EC_U+30A4_U+30E4_U+30FC 1
370
     0
  0
POLYLINE
  5
AE
330
7B
100
AcDbEntity
  8
_U+30EC_U+30A4_U+30E4_U+30FC 1
370
     0
100
AcDb2dPolyline
 66
     1
 10
0.0
 20
0.0
 30
0.0
  0
VERTEX
  5
AF
330
AE
100
AcDbEntity
  8
_U+30EC_U+30A4_U+30E4_U+30FC 1
370
     0
100
AcDbVertex
100
AcDb2dVertex
 10
123.8012288101955
 20
-140.0259059979796
 30
0.0
  0
VERTEX
  5
B0
330
AE
100
AcDbEntity
  8
_U+30EC_U+30A4_U+30E4_U+30FC 1
370
     0
100
AcDbVertex
100
AcDb2dVertex
 10
123.0030001862632
 20
-140.0259059979796
 30
0.0
  0
VERTEX
  5
B1
330
AE
100
AcDbEntity
  8
_U+30EC_U+30A4_U+30E4_U+30FC 1
370
     0
100
AcDbVertex
100
AcDb2dVertex
 10
123.0030001862632
 20
-140.133737486668
 30
0.0
  0
VERTEX
  5
B2
330
AE
100
AcDbEntity
  8
_U+30EC_U+30A4_U+30E4_U+30FC 1
370
     0
100
AcDbVertex
100
AcDb2dVertex
 10
123.8012288101955
 20
-140.133737486668
 30
0.0
  0
VERTEX
  5
B3
330
AE
100
AcDbEntity
  8
_U+30EC_U+30A4_U+30E4_U+30FC 1
370
     0
100
AcDbVertex
100
AcDb2dVertex
 10
123.8012288101955
 20
-140.0259059979796
 30
0.0
  0
SEQEND
  5
B4
330
AE
100
AcDbEntity
  8
_U+30EC_U+30A4_U+30E4_U+30FC 1
370
     0
  0
SPLINE
  5
B5
330
7B
100
AcDbEntity
  8
_U+30EC_U+30A4_U+30E4_U+30FC 1
370
     0
100
AcDbSpline
210
0.0
220
0.0
230
1.0
 70
    11
 71
     3
 72
    74
 73
    70
 74
     0
 42
0.0000000001
 43
0.0000000001
 12
1.0
 22
0.0
 32
0.0
 13
1.0
 23
0.0
 33
0.0
 40
0.0
 40
0.0
 40
0.0
 40
0.0
 40
1.0
 40
1.0
 40
1.0
 40
2.0
 40
2.0
 40
2.0
 40
3.0
 40
3.0
 40
3.0
 40
4.0
 40
4.0
 40
4.0
 40
5.0
 40
5.0
 40
5.0
 40
6.0
 40
6.0
 40
6.0
 40
7.0
 40
7.0
 40
7.0
 40
8.0
 40
8.0
 40
8.0
 40
9.0
 40
9.0
 40
9.0
 40
10.0
 40
10.0
 40
10.0
 40
11.0
 40
11.0
 40
11.0
 40
12.0
 40
12.0
 40
12.0
 40
13.0
 40
13.0
 40
13.0
 40
14.0
 40
14.0
 40
14.0
 40
15.0
 40
15.0
 40
15.0
 40
16.0
 40
16.0
 40
16.0
 40
17.0
 40
17.0
 40
17.0
 40
18.0
 40
18.0
 40
18.0
 40
19.0
 40
19.0
 40
19.0
 40
20.0
 40
20.0
 40
20.0
 40
21.0
 40
21.0
 40
21.0
 40
22.0
 40
22.0
 40
22.0
 40
23.0
 40
23.0
 40
23.0
 40
23.0
 10
124.0789035063067
 20
-139.082466599344
 30
0.0
 10
124.0789035063067
 20
-139.082466599344
 30
0.0
 10
123.93799910096
 20
-139.082466599344
 30
0.0
 10
123.93799910096
 20
-139.082466599344
 30
0.0
 10
123.93799910096
 20
-139.082466599344
 30
0.0
 10
123.93799910096
 20
-139.19667151468
 30
0.0
 10
123.93799910096
 20
-139.19667151468
 30
0.0
 10
123.93799910096
 20
-139.2368068770832
 30
0.0
 10
123.9435112537363
 20
-139.310876430016
 30
0.0
 10
123.9473008587701
 20
-139.3361978818326
 30
0.0
 10
123.9473008587701
 20
-139.3361978818326
 30
0.0
 10
123.7622992312122
 20
-139.3361978818326
 30
0.0
 10
123.7622992312122
 20
-139.3361978818326
 30
0.0
 10
123.7716009890224
 20
-139.2707410676129
 30
0.0
 10
123.773323536765
 20
-139.2114854252666
 30
0.0
 10
123.773323536765
 20
-139.2092461132012
 30
0.0
 10
123.773323536765
 20
-139.2092461132012
 30
0.0
 10
123.773323536765
 20
-139.0866007139263
 30
0.0
 10
123.773323536765
 20
-139.0866007139263
 30
0.0
 10
123.773323536765
 20
-139.0866007139263
 30
0.0
 10
123.6158826730891
 20
-139.0866007139263
 30
0.0
 10
123.6158826730891
 20
-139.0866007139263
 30
0.0
 10
123.5993462147599
 20
-139.1458563562726
 30
0.0
 10
123.5583495784854
 20
-139.2917561500729
 30
0.0
 10
123.4584418094132
 20
-139.3742661869446
 30
0.0
 10
123.4584418094132
 20
-139.3742661869446
 30
0.0
 10
123.3213270091002
 20
-139.2685017555475
 30
0.0
 10
123.3213270091002
 20
-139.2685017555475
 30
0.0
 10
123.3864393137714
 20
-139.2219929664966
 30
0.0
 10
123.4880696305863
 20
-139.1479234135637
 30
0.0
 10
123.4880696305863
 20
-138.8264960047899
 30
0.0
 10
123.4880696305863
 20
-138.7713744770259
 30
0.0
 10
123.4846245351011
 20
-138.7269327452662
 30
0.0
 10
123.4825574778099
 20
-138.6888644401542
 30
0.0
 10
123.5493923302238
 20
-138.697304924093
 30
0.0
 10
123.6141601253465
 20
-138.7036783507407
 30
0.0
 10
123.669626162659
 20
-138.7036783507407
 30
0.0
 10
123.8249999690438
 20
-138.7036783507407
 30
0.0
 10
123.9993218005974
 20
-138.6444227083944
 30
0.0
 10
124.0530652901673
 20
-138.6147948872213
 30
0.0
 10
124.0530652901673
 20
-138.6147948872213
 30
0.0
 10
124.1639973647923
 20
-138.7501871397916
 30
0.0
 10
124.1639973647923
 20
-138.7501871397916
 30
0.0
 10
124.1677869698261
 20
-138.7544935091482
 30
0.0
 10
124.1695095175687
 20
-138.762933993087
 30
0.0
 10
124.1695095175687
 20
-138.7693074197348
 30
0.0
 10
124.1695095175687
 20
-138.7904947569691
 30
0.0
 10
124.1567626642733
 20
-138.7968681836168
 30
0.0
 10
124.1419487536867
 20
-138.7968681836168
 30
0.0
 10
124.1233452380664
 20
-138.7968681836168
 30
0.0
 10
124.1102538752224
 20
-138.7884276996779
 30
0.0
 10
124.0937174168932
 20
-138.7777479036736
 30
0.0
 10
123.9417887059937
 20
-138.8349364887288
 30
0.0
 10
123.7512749256594
 20
-138.8602579405454
 30
0.0
 10
123.6344861887094
 20
-138.8623249978365
 30
0.0
 10
123.6344861887094
 20
-138.8623249978365
 30
0.0
 10
123.6306965836757
 20
-138.9448350347082
 30
0.0
 10
123.6306965836757
 20
-138.9448350347082
 30
0.0
 10
123.6306965836757
 20
-138.9448350347082
 30
0.0
 10
123.869786210352
 20
-138.9448350347082
 30
0.0
 10
123.869786210352
 20
-138.9448350347082
 30
0.0
 10
123.9197400948881
 20
-138.9448350347082
 30
0.0
 10
124.1491834542058
 20
-138.9258870095394
 30
0.0
 10
124.1881130331891
 20
-138.9195135828917
 30
0.0
 10
124.1881130331891
 20
-138.9195135828917
 30
0.0
 10
124.1881130331891
 20
-139.0886677712174
 30
0.0
 10
124.1881130331891
 20
-139.0886677712174
 30
0.0
 10
124.1584852120159
 20
-139.0845336566351
 30
0.0
 10
124.1474609064631
 20
-139.082466599344
 30
0.0
 10
124.0789035063067
 20
-139.082466599344
 30
0.0
  0
HATCH
  5
B6
330
7B
100
AcDbEntity
  8
_U+30EC_U+30A4_U+30E4_U+30FC 1
 62
   179
420
  2234388
100
AcDbHatch
 10
0.0
 20
0.0
 30
0.0
210
0.0
220
0.0
230
1.0
  2
SOLID
 70
     1
 71
     0
 91
        6
 92
        1
 93
        1
 72
     4
 94
        3
 73
     0
 74
     1
 95
       71
 96
       67
 40
0.0
 40
0.0
 40
0.0
 40
0.0
 40
1.0
 40
1.0
 40
1.0
 40
2.0
 40
2.0
 40
2.0
 40
3.0
 40
3.0
 40
3.0
 40
4.0
 40
4.0
 40
4.0
 40
5.0
 40
5.0
 40
5.0
 40
6.0
 40
6.0
 40
6.0
 40
7.0
 40
7.0
 40
7.0
 40
8.0
 40
8.0
 40
8.0
 40
9.0
 40
9.0
 40
9.0
 40
10.0
 40
10.0
 40
10.0
 40
11.0
 40
11.0
 40
11.0
 40
12.0
 40
12.0
 40
12.0
 40
13.0
 40
13.0
 40
13.0
 40
14.0
 40
14.0
 40
14.0
 40
15.0
 40
15.0
 40
15.0
 40
16.0
 40
16.0
 40
16.0
 40
17.0
 40
17.0
 40
17.0
 40
18.0
 40
18.0
 40
18.0
 40
19.0
 40
19.0
 40
19.0
 40
20.0
 40
20.0
 40
20.0
 40
21.0
 40
21.0
 40
21.0
 40
22.0
 40
22.0
 40
22.0
 40
22.0
 10
123.3344183719442
 20
-138.8030693554902
 10
123.3213270091002
 20
-138.8030693554902
 10
123.3103027035474
 20
-138.7989352409079
 10
123.2882540924418
 20
-138.7904947569691
 10
123.1642306549728
 20
-138.8370035460199
 10
123.0123019440733
 20
-138.8538845138976
 10
122.890001054347
 20
-138.8581908832542
 10
122.890001054347
 20
-138.8581908832542
 10
122.8882785066043
 20
-138.9470743467737
 10
122.8882785066043
 20
-138.9470743467737
 10
122.8882785066043
 20
-138.9470743467737
 10
123.1159993181793
 20
-138.9470743467737
 10
123.1159993181793
 20
-138.9470743467737
 10
123.1621635976817
 20
-138.9470743467737
 10
123.3213270091002
 20
-138.9384616080605
 10
123.3602565880836
 20
-138.9322604361871
 10
123.3602565880836
 20
-138.9322604361871
 10
123.3602565880836
 20
-139.092974140574
 10
123.3602565880836
 20
-139.092974140574
 10
123.3123697608386
 20
-139.0866007139263
 10
123.2028157244076
 20
-139.0845336566351
 10
123.1697428077492
 20
-139.0866007139263
 10
123.1697428077492
 20
-139.0866007139263
 10
123.1697428077492
 20
-139.19667151468
 10
123.1697428077492
 20
-139.19667151468
 10
123.1697428077492
 20
-139.2431803037309
 10
123.1714653554919
 20
-139.3065700606595
 10
123.1769775082683
 20
-139.3446383657715
 10
123.1769775082683
 20
-139.3446383657715
 10
123.0085123390395
 20
-139.3446383657715
 10
123.0085123390395
 20
-139.3446383657715
 10
123.0140244918159
 20
-139.3045030033683
 10
123.0195366445923
 20
-139.2219929664966
 10
123.0195366445923
 20
-139.20717905591
 10
123.0195366445923
 20
-139.20717905591
 10
123.0195366445923
 20
-139.0866007139263
 10
123.0195366445923
 20
-139.0866007139263
 10
123.0195366445923
 20
-139.0866007139263
 10
122.8751871437604
 20
-139.0866007139263
 10
122.8751871437604
 20
-139.0866007139263
 10
122.8383246220682
 20
-139.3065700606595
 10
122.7900932852747
 20
-139.38701304024
 10
122.6974202167215
 20
-139.4864040449895
 10
122.6974202167215
 20
-139.4864040449895
 10
122.5510036585984
 20
-139.3721991296535
 10
122.5510036585984
 20
-139.3721991296535
 10
122.6068142054594
 20
-139.3236232833115
 10
122.7380723434474
 20
-139.2114854252666
 10
122.7380723434474
 20
-138.8623249978365
 10
122.7380723434474
 20
-138.7798149609648
 10
122.7308376429284
 20
-138.7333061719139
 10
122.7232584328609
 20
-138.6847303255719
 10
122.8510714753636
 20
-138.6995442361585
 10
122.8641628382076
 20
-138.6995442361585
 10
122.8955132071233
 20
-138.6995442361585
 10
122.9899088234192
 20
-138.6995442361585
 10
123.1139322608882
 20
-138.6824910135065
 10
123.2548366662349
 20
-138.621168313869
 10
123.2548366662349
 20
-138.621168313869
 10
123.3547444353072
 20
-138.752426451857
 10
123.3547444353072
 20
-138.752426451857
 10
123.3602565880836
 20
-138.7587998785048
 10
123.3640461931173
 20
-138.7672403624436
 10
123.3640461931173
 20
-138.7756808463825
 10
123.3640461931173
 20
-138.7989352409079
 10
123.3475097347881
 20
-138.8030693554902
 10
123.3344183719442
 20
-138.8030693554902
 97
        0
 97
        0
 92
        1
 93
        1
 72
     4
 94
        3
 73
     0
 74
     1
 95
       74
 96
       70
 40
0.0
 40
0.0
 40
0.0
 40
0.0
 40
1.0
 40
1.0
 40
1.0
 40
2.0
 40
2.0
 40
2.0
 40
3.0
 40
3.0
 40
3.0
 40
4.0
 40
4.0
 40
4.0
 40
5.0
 40
5.0
 40
5.0
 40
6.0
 40
6.0
 40
6.0
 40
7.0
 40
7.0
 40
7.0
 40
8.0
 40
8.0
 40
8.0
 40
9.0
 40
9.0
 40
9.0
 40
10.0
 40
10.0
 40
10.0
 40
11.0
 40
11.0
 40
11.0
 40
12.0
 40
12.0
 40
12.0
 40
13.0
 40
13.0
 40
13.0
 40
14.0
 40
14.0
 40
14.0
 40
15.0
 40
15.0
 40
15.0
 40
16.0
 40
16.0
 40
16.0
 40
17.0
 40
17.0
 40
17.0
 40
18.0
 40
18.0
 40
18.0
 40
19.0
 40
19.0
 40
19.0
 40
20.0
 40
20.0
 40
20.0
 40
21.0
 40
21.0
 40
21.0
 40
22.0
 40
22.0
 40
22.0
 40
23.0
 40
23.0
 40
23.0
 40
23.0
 10
124.0678792007539
 20
-140.5695420655521
 10
123.8808105159048
 20
-140.559034524322
 10
123.7047661366085
 20
-140.4722181180938
 10
123.5511148779664
 20
-140.35163977611
 10
123.5511148779664
 20
-140.35163977611
 10
123.6362087364521
 20
-140.264995624656
 10
123.6362087364521
 20
-140.264995624656
 10
123.6362087364521
 20
-140.264995624656
 10
123.1528618398715
 20
-140.264995624656
 10
123.1528618398715
 20
-140.264995624656
 10
123.1528618398715
 20
-140.264995624656
 10
123.2234862973191
 20
-140.3283853815846
 10
123.2234862973191
 20
-140.3283853815846
 10
123.2289984500955
 20
-140.3326917509411
 10
123.2383002079057
 20
-140.3431992921712
 10
123.2383002079057
 20
-140.3580132027577
 10
123.2383002079057
 20
-140.3983208199352
 10
123.1731879032345
 20
-140.3919473932874
 10
123.1604410499391
 20
-140.389708081222
 10
122.9585584545034
 20
-140.5294067031489
 10
122.8328124692918
 20
-140.5611015816132
 10
122.7418619484812
 20
-140.5779825494909
 10
122.7418619484812
 20
-140.5779825494909
 10
122.628862816565
 20
-140.4003878772263
 10
122.628862816565
 20
-140.4003878772263
 10
122.8455593225872
 20
-140.368692998762
 10
122.9344427861067
 20
-140.3220119549369
 10
123.0123019440733
 20
-140.2691297392383
 10
122.9475341489506
 20
-140.2713690513037
 10
122.8472818703299
 20
-140.2734361085948
 10
122.8197211064479
 20
-140.275503165886
 10
122.8328124692918
 20
-140.1866197023666
 10
122.8345350170344
 20
-140.0576008764439
 10
122.8345350170344
 20
-139.9835313235111
 10
122.8345350170344
 20
-139.9835313235111
 10
122.8345350170344
 20
-139.6832912519716
 10
122.8345350170344
 20
-139.6832912519716
 10
122.8345350170344
 20
-139.5837279924478
 10
122.829022864258
 20
-139.4843369876984
 10
122.8197211064479
 20
-139.38701304024
 10
122.9086045699673
 20
-139.3933864668878
 10
123.1104871654029
 20
-139.3997598935355
 10
123.2048827816988
 20
-139.3997598935355
 10
123.2048827816988
 20
-139.3997598935355
 10
123.5752305463631
 20
-139.3997598935355
 10
123.5752305463631
 20
-139.3997598935355
 10
123.6789279204692
 20
-139.3997598935355
 10
123.7157904421613
 20
-139.3997598935355
 10
123.7881374473516
 20
-139.3954535241789
 10
123.917673037597
 20
-139.3890800975312
 10
123.9324869481836
 20
-139.3890800975312
 10
123.9731390749095
 20
-139.38701304024
 10
123.9659043743905
 20
-139.4674560198206
 10
123.9621147693567
 20
-139.6261026669164
 10
123.9621147693567
 20
-139.7086127037881
 10
123.9621147693567
 20
-139.7086127037881
 10
123.9621147693567
 20
-139.9942111195153
 10
123.9621147693567
 20
-139.9942111195153
 10
123.9621147693567
 20
-140.0660413603828
 10
123.9641818266478
 20
-140.1972994983708
 10
123.9731390749095
 20
-140.275503165886
 10
123.9104383370779
 20
-140.2713690513037
 10
123.8029513579382
 20
-140.2691297392383
 10
123.7343939577817
 20
-140.2670626819471
 10
123.8308566313687
 20
-140.3347588082323
 10
123.9641818266478
 20
-140.3855739666397
 10
124.1491834542058
 20
-140.389708081222
 10
124.1491834542058
 20
-140.389708081222
 10
124.0678792007539
 20
-140.5695420655521
 10
124.0678792007539
 20
-140.5695420655521
 97
        0
 97
        0
 92
        1
 93
        4
 72
     1
 10
123.8012288101955
 20
-139.5351521461058
 11
123.0030001862632
 21
-139.5351521461058
 72
     1
 10
123.0030001862632
 20
-139.5351521461058
 11
123.0030001862632
 21
-139.6472900041507
 72
     1
 10
123.0030001862632
 20
-139.6472900041507
 11
123.8012288101955
 21
-139.6472900041507
 72
     1
 10
123.8012288101955
 20
-139.6472900041507
 11
123.8012288101955
 21
-139.5351521461058
 97
        0
 92
        1
 93
        4
 72
     1
 10
123.8012288101955
 20
-139.7804429446556
 11
123.0030001862632
 21
-139.7804429446556
 72
     1
 10
123.0030001862632
 20
-139.7804429446556
 11
123.0030001862632
 21
-139.8905137454093
 72
     1
 10
123.0030001862632
 20
-139.8905137454093
 11
123.8012288101955
 21
-139.8905137454093
 72
     1
 10
123.8012288101955
 20
-139.8905137454093
 11
123.8012288101955
 21
-139.7804429446556
 97
        0
 92
        1
 93
        4
 72
     1
 10
123.8012288101955
 20
-140.0259059979796
 11
123.0030001862632
 21
-140.0259059979796
 72
     1
 10
123.0030001862632
 20
-140.0259059979796
 11
123.0030001862632
 21
-140.133737486668
 72
     1
 10
123.0030001862632
 20
-140.133737486668
 11
123.8012288101955
 21
-140.133737486668
 72
     1
 10
123.8012288101955
 20
-140.133737486668
 11
123.8012288101955
 21
-140.0259059979796
 97
        0
 92
        1
 93
        1
 72
     4
 94
        3
 73
     0
 74
     1
 95
       74
 96
       70
 40
0.0
 40
0.0
 40
0.0
 40
0.0
 40
1.0
 40
1.0
 40
1.0
 40
2.0
 40
2.0
 40
2.0
 40
3.0
 40
3.0
 40
3.0
 40
4.0
 40
4.0
 40
4.0
 40
5.0
 40
5.0
 40
5.0
 40
6.0
 40
6.0
 40
6.0
 40
7.0
 40
7.0
 40
7.0
 40
8.0
 40
8.0
 40
8.0
 40
9.0
 40
9.0
 40
9.0
 40
10.0
 40
10.0
 40
10.0
 40
11.0
 40
11.0
 40
11.0
 40
12.0
 40
12.0
 40
12.0
 40
13.0
 40
13.0
 40
13.0
 40
14.0
 40
14.0
 40
14.0
 40
15.0
 40
15.0
 40
15.0
 40
16.0
 40
16.0
 40
16.0
 40
17.0
 40
17.0
 40
17.0
 40
18.0
 40
18.0
 40
18.0
 40
19.0
 40
19.0
 40
19.0
 40
20.0
 40
20.0
 40
20.0
 40
21.0
 40
21.0
 40
21.0
 40
22.0
 40
22.0
 40
22.0
 40
23.0
 40
23.0
 40
23.0
 40
23.0
 10
124.0789035063067
 20
-139.082466599344
 10
124.0789035063067
 20
-139.082466599344
 10
123.93799910096
 20
-139.082466599344
 10
123.93799910096
 20
-139.082466599344
 10
123.93799910096
 20
-139.082466599344
 10
123.93799910096
 20
-139.19667151468
 10
123.93799910096
 20
-139.19667151468
 10
123.93799910096
 20
-139.2368068770832
 10
123.9435112537363
 20
-139.310876430016
 10
123.9473008587701
 20
-139.3361978818326
 10
123.9473008587701
 20
-139.3361978818326
 10
123.7622992312122
 20
-139.3361978818326
 10
123.7622992312122
 20
-139.3361978818326
 10
123.7716009890224
 20
-139.2707410676129
 10
123.773323536765
 20
-139.2114854252666
 10
123.773323536765
 20
-139.2092461132012
 10
123.773323536765
 20
-139.2092461132012
 10
123.773323536765
 20
-139.0866007139263
 10
123.773323536765
 20
-139.0866007139263
 10
123.773323536765
 20
-139.0866007139263
 10
123.6158826730891
 20
-139.0866007139263
 10
123.6158826730891
 20
-139.0866007139263
 10
123.5993462147599
 20
-139.1458563562726
 10
123.5583495784854
 20
-139.2917561500729
 10
123.4584418094132
 20
-139.3742661869446
 10
123.4584418094132
 20
-139.3742661869446
 10
123.3213270091002
 20
-139.2685017555475
 10
123.3213270091002
 20
-139.2685017555475
 10
123.3864393137714
 20
-139.2219929664966
 10
123.4880696305863
 20
-139.1479234135637
 10
123.4880696305863
 20
-138.8264960047899
 10
123.4880696305863
 20
-138.7713744770259
 10
123.4846245351011
 20
-138.7269327452662
 10
123.4825574778099
 20
-138.6888644401542
 10
123.5493923302238
 20
-138.697304924093
 10
123.6141601253465
 20
-138.7036783507407
 10
123.669626162659
 20
-138.7036783507407
 10
123.8249999690438
 20
-138.7036783507407
 10
123.9993218005974
 20
-138.6444227083944
 10
124.0530652901673
 20
-138.6147948872213
 10
124.0530652901673
 20
-138.6147948872213
 10
124.1639973647923
 20
-138.7501871397916
 10
124.1639973647923
 20
-138.7501871397916
 10
124.1677869698261
 20
-138.7544935091482
 10
124.1695095175687
 20
-138.762933993087
 10
124.1695095175687
 20
-138.7693074197348
 10
124.1695095175687
 20
-138.7904947569691
 10
124.1567626642733
 20
-138.7968681836168
 10
124.1419487536867
 20
-138.7968681836168
 10
124.1233452380664
 20
-138.7968681836168
 10
124.1102538752224
 20
-138.7884276996779
 10
124.0937174168932
 20
-138.7777479036736
 10
123.9417887059937
 20
-138.8349364887288
 10
123.7512749256594
 20
-138.8602579405454
 10
123.6344861887094
 20
-138.8623249978365
 10
123.6344861887094
 20
-138.8623249978365
 10
123.6306965836757
 20
-138.9448350347082
 10
123.6306965836757
 20
-138.9448350347082
 10
123.6306965836757
 20
-138.9448350347082
 10
123.869786210352
 20
-138.9448350347082
 10
123.869786210352
 20
-138.9448350347082
 10
123.9197400948881
 20
-138.9448350347082
 10
124.1491834542058
 20
-138.9258870095394
 10
124.1881130331891
 20
-138.9195135828917
 10
124.1881130331891
 20
-138.9195135828917
 10
124.1881130331891
 20
-139.0886677712174
 10
124.1881130331891
 20
-139.0886677712174
 10
124.1584852120159
 20
-139.0845336566351
 10
124.1474609064631
 20
-139.082466599344
 10
124.0789035063067
 20
-139.082466599344
 97
        0
 97
        0
 75
     2
 76
     1
 98
        0
  0
ENDBLK
  5
7E
330
7B
100
AcDbEntity
  8
0
100
AcDbBlockEnd
  0
BLOCK
  5
B9
330
B7
100
AcDbEntity
  8
0
100
AcDbBlockBegin
  2
block 7
 70
     0
 10
0.0
 20
0.0
 30
0.0
  3
block 7
  1

  0
SPLINE
  5
BB
330
B7
100
AcDbEntity
  8
_U+30EC_U+30A4_U+30E4_U+30FC 1
370
     0
100
AcDbSpline
210
0.0
220
0.0
230
1.0
 70
    11
 71
     3
 72
    26
 73
    22
 74
     0
 42
0.0000000001
 43
0.0000000001
 12
1.0
 22
0.0
 32
0.0
 13
1.0
 23
0.0
 33
0.0
 40
0.0
 40
0.0
 40
0.0
 40
0.0
 40
1.0
 40
1.0
 40
1.0
 40
2.0
 40
2.0
 40
2.0
 40
3.0
 40
3.0
 40
3.0
 40
4.0
 40
4.0
 40
4.0
 40
5.0
 40
5.0
 40
5.0
 40
6.0
 40
6.0
 40
6.0
 40
7.0
 40
7.0
 40
7.0
 40
7.0
 10
98.61758081301922
 20
-141.3762111734233
 30
0.0
 10
98.61758081301922
 20
-141.3762111734233
 30
0.0
 10
98.61758081301922
 20
-140.2718858156265
 30
0.0
 10
98.61758081301922
 20
-140.2718858156265
 30
0.0
 10
98.61758081301922
 20
-140.2718858156265
 30
0.0
 10
98.32853730180676
 20
-140.2718858156265
 30
0.0
 10
98.32853730180676
 20
-140.2718858156265
 30
0.0
 10
98.32853730180676
 20
-140.2718858156265
 30
0.0
 10
98.32853730180676
 20
-140.123918964535
 30
0.0
 10
98.32853730180676
 20
-140.123918964535
 30
0.0
 10
98.61930336076185
 20
-140.1091050539484
 30
0.0
 10
98.65995548748779
 20
-139.9461520374961
 30
0.0
 10
98.6861382131757
 20
-139.8319471221601
 30
0.0
 10
98.6861382131757
 20
-139.8319471221601
 30
0.0
 10
98.81360674612993
 20
-139.8319471221601
 30
0.0
 10
98.81360674612993
 20
-139.8319471221601
 30
0.0
 10
98.81360674612993
 20
-139.8319471221601
 30
0.0
 10
98.81360674612993
 20
-141.3762111734233
 30
0.0
 10
98.81360674612993
 20
-141.3762111734233
 30
0.0
 10
98.81360674612993
 20
-141.3762111734233
 30
0.0
 10
98.61758081301922
 20
-141.3762111734233
 30
0.0
 10
98.61758081301922
 20
-141.3762111734233
 30
0.0
  0
HATCH
  5
BC
330
B7
100
AcDbEntity
  8
_U+30EC_U+30A4_U+30E4_U+30FC 1
 62
   179
420
  2234388
100
AcDbHatch
 10
0.0
 20
0.0
 30
0.0
210
0.0
220
0.0
230
1.0
  2
SOLID
 70
     1
 71
     0
 91
        1
 92
        1
 93
        1
 72
     4
 94
        3
 73
     0
 74
     1
 95
       26
 96
       22
 40
0.0
 40
0.0
 40
0.0
 40
0.0
 40
1.0
 40
1.0
 40
1.0
 40
2.0
 40
2.0
 40
2.0
 40
3.0
 40
3.0
 40
3.0
 40
4.0
 40
4.0
 40
4.0
 40
5.0
 40
5.0
 40
5.0
 40
6.0
 40
6.0
 40
6.0
 40
7.0
 40
7.0
 40
7.0
 40
7.0
 10
98.61758081301922
 20
-141.3762111734233
 10
98.61758081301922
 20
-141.3762111734233
 10
98.61758081301922
 20
-140.2718858156265
 10
98.61758081301922
 20
-140.2718858156265
 10
98.61758081301922
 20
-140.2718858156265
 10
98.32853730180676
 20
-140.2718858156265
 10
98.32853730180676
 20
-140.2718858156265
 10
98.32853730180676
 20
-140.2718858156265
 10
98.32853730180676
 20
-140.123918964535
 10
98.32853730180676
 20
-140.123918964535
 10
98.61930336076185
 20
-140.1091050539484
 10
98.65995548748779
 20
-139.9461520374961
 10
98.6861382131757
 20
-139.8319471221601
 10
98.6861382131757
 20
-139.8319471221601
 10
98.81360674612993
 20
-139.8319471221601
 10
98.81360674612993
 20
-139.8319471221601
 10
98.81360674612993
 20
-139.8319471221601
 10
98.81360674612993
 20
-141.3762111734233
 10
98.81360674612993
 20
-141.3762111734233
 10
98.81360674612993
 20
-141.3762111734233
 10
98.61758081301922
 20
-141.3762111734233
 10
98.61758081301922
 20
-141.3762111734233
 97
        0
 97
        0
 75
     2
 76
     1
 98
        0
  0
SPLINE
  5
BD
330
B7
100
AcDbEntity
  8
_U+30EC_U+30A4_U+30E4_U+30FC 1
370
     0
100
AcDbSpline
210
0.0
220
0.0
230
1.0
 70
    11
 71
     3
 72
    44
 73
    40
 74
     0
 42
0.0000000001
 43
0.0000000001
 12
1.0
 22
0.0
 32
0.0
 13
1.0
 23
0.0
 33
0.0
 40
0.0
 40
0.0
 40
0.0
 40
0.0
 40
1.0
 40
1.0
 40
1.0
 40
2.0
 40
2.0
 40
2.0
 40
3.0
 40
3.0
 40
3.0
 40
4.0
 40
4.0
 40
4.0
 40
5.0
 40
5.0
 40
5.0
 40
6.0
 40
6.0
 40
6.0
 40
7.0
 40
7.0
 40
7.0
 40
8.0
 40
8.0
 40
8.0
 40
9.0
 40
9.0
 40
9.0
 40
10.0
 40
10.0
 40
10.0
 40
11.0
 40
11.0
 40
11.0
 40
12.0
 40
12.0
 40
12.0
 40
13.0
 40
13.0
 40
13.0
 40
13.0
 10
99.77237681967496
 20
-140.7945068007389
 30
0.0
 10
99.58151852979212
 20
-140.9531534478346
 30
0.0
 10
99.50021427634023
 20
-141.0272230007675
 30
0.0
 10
99.45749509232313
 20
-141.1710557372767
 30
0.0
 10
99.45749509232313
 20
-141.1710557372767
 30
0.0
 10
100.1389349793055
 20
-141.1710557372767
 30
0.0
 10
100.1389349793055
 20
-141.1710557372767
 30
0.0
 10
100.1389349793055
 20
-141.1710557372767
 30
0.0
 10
100.1389349793055
 20
-141.3762111734233
 30
0.0
 10
100.1389349793055
 20
-141.3762111734233
 30
0.0
 10
100.1389349793055
 20
-141.3762111734233
 30
0.0
 10
99.2390760385583
 20
-141.3762111734233
 30
0.0
 10
99.2390760385583
 20
-141.3762111734233
 30
0.0
 10
99.26663680244029
 20
-141.0186102620544
 30
0.0
 10
99.32416989704396
 20
-140.9404065945392
 30
0.0
 10
99.6611002355014
 20
-140.6420613255166
 30
0.0
 10
99.88537595159116
 20
-140.4432793160177
 30
0.0
 10
99.9425645366463
 20
-140.3755831897325
 30
0.0
 10
99.9425645366463
 20
-140.238123879871
 30
0.0
 10
99.9425645366463
 20
-140.1196125951784
 30
0.0
 10
99.87951928926624
 20
-139.9885267119647
 30
0.0
 10
99.70760902455227
 20
-139.9885267119647
 30
0.0
 10
99.47988821297726
 20
-139.9885267119647
 30
0.0
 10
99.47230900290971
 20
-140.2190035999279
 30
0.0
 10
99.46851939787594
 20
-140.3354478273293
 30
0.0
 10
99.46851939787594
 20
-140.3354478273293
 30
0.0
 10
99.27249346476522
 20
-140.3354478273293
 30
0.0
 10
99.27249346476522
 20
-140.3354478273293
 30
0.0
 10
99.27972816528424
 20
-140.2084960586979
 30
0.0
 10
99.28902992309442
 20
-140.096358200653
 30
0.0
 10
99.35930987099351
 20
-139.9778469159604
 30
0.0
 10
99.45577254458051
 20
-139.8171332115735
 30
0.0
 10
99.61872556103282
 20
-139.7831990210438
 30
0.0
 10
99.7203558778477
 20
-139.7831990210438
 30
0.0
 10
99.96289060000929
 20
-139.7831990210438
 30
0.0
 10
100.144447132082
 20
-139.9673393747304
 30
0.0
 10
100.144447132082
 20
-140.2401909371622
 30
0.0
 10
100.144447132082
 20
-140.4686007678342
 30
0.0
 10
100.0428168152671
 20
-140.568164027358
 30
0.0
 10
99.77237681967496
 20
-140.7945068007389
 30
0.0
  0
HATCH
  5
BE
330
B7
100
AcDbEntity
  8
_U+30EC_U+30A4_U+30E4_U+30FC 1
 62
   179
420
  2234388
100
AcDbHatch
 10
0.0
 20
0.0
 30
0.0
210
0.0
220
0.0
230
1.0
  2
SOLID
 70
     1
 71
     0
 91
        1
 92
        1
 93
        1
 72
     4
 94
        3
 73
     0
 74
     1
 95
       44
 96
       40
 40
0.0
 40
0.0
 40
0.0
 40
0.0
 40
1.0
 40
1.0
 40
1.0
 40
2.0
 40
2.0
 40
2.0
 40
3.0
 40
3.0
 40
3.0
 40
4.0
 40
4.0
 40
4.0
 40
5.0
 40
5.0
 40
5.0
 40
6.0
 40
6.0
 40
6.0
 40
7.0
 40
7.0
 40
7.0
 40
8.0
 40
8.0
 40
8.0
 40
9.0
 40
9.0
 40
9.0
 40
10.0
 40
10.0
 40
10.0
 40
11.0
 40
11.0
 40
11.0
 40
12.0
 40
12.0
 40
12.0
 40
13.0
 40
13.0
 40
13.0
 40
13.0
 10
99.77237681967496
 20
-140.7945068007389
 10
99.58151852979212
 20
-140.9531534478346
 10
99.50021427634023
 20
-141.0272230007675
 10
99.45749509232313
 20
-141.1710557372767
 10
99.45749509232313
 20
-141.1710557372767
 10
100.1389349793055
 20
-141.1710557372767
 10
100.1389349793055
 20
-141.1710557372767
 10
100.1389349793055
 20
-141.1710557372767
 10
100.1389349793055
 20
-141.3762111734233
 10
100.1389349793055
 20
-141.3762111734233
 10
100.1389349793055
 20
-141.3762111734233
 10
99.2390760385583
 20
-141.3762111734233
 10
99.2390760385583
 20
-141.3762111734233
 10
99.26663680244029
 20
-141.0186102620544
 10
99.32416989704396
 20
-140.9404065945392
 10
99.6611002355014
 20
-140.6420613255166
 10
99.88537595159116
 20
-140.4432793160177
 10
99.9425645366463
 20
-140.3755831897325
 10
99.9425645366463
 20
-140.238123879871
 10
99.9425645366463
 20
-140.1196125951784
 10
99.87951928926624
 20
-139.9885267119647
 10
99.70760902455227
 20
-139.9885267119647
 10
99.47988821297726
 20
-139.9885267119647
 10
99.47230900290971
 20
-140.2190035999279
 10
99.46851939787594
 20
-140.3354478273293
 10
99.46851939787594
 20
-140.3354478273293
 10
99.27249346476522
 20
-140.3354478273293
 10
99.27249346476522
 20
-140.3354478273293
 10
99.27972816528424
 20
-140.2084960586979
 10
99.28902992309442
 20
-140.096358200653
 10
99.35930987099351
 20
-139.9778469159604
 10
99.45577254458051
 20
-139.8171332115735
 10
99.61872556103282
 20
-139.7831990210438
 10
99.7203558778477
 20
-139.7831990210438
 10
99.96289060000929
 20
-139.7831990210438
 10
100.144447132082
 20
-139.9673393747304
 10
100.144447132082
 20
-140.2401909371622
 10
100.144447132082
 20
-140.4686007678342
 10
100.0428168152671
 20
-140.568164027358
 10
99.77237681967496
 20
-140.7945068007389
 97
        0
 97
        0
 75
     2
 76
     1
 98
        0
  0
ENDBLK
  5
BA
330
B7
100
AcDbEntity
  8
0
100
AcDbBlockEnd
  0
BLOCK
  5
C1
330
BF
100
AcDbEntity
  8
0
100
AcDbBlockBegin
  2
block 8
 70
     0
 10
0.0
 20
0.0
 30
0.0
  3
block 8
  1

  0
SPLINE
  5
C3
330
BF
100
AcDbEntity
  8
_U+30EC_U+30A4_U+30E4_U+30FC 1
370
     0
100
AcDbSpline
210
0.0
220
0.0
230
1.0
 70
    11
 71
     3
 72
    26
 73
    22
 74
     0
 42
0.0000000001
 43
0.0000000001
 12
1.0
 22
0.0
 32
0.0
 13
1.0
 23
0.0
 33
0.0
 40
0.0
 40
0.0
 40
0.0
 40
0.0
 40
1.0
 40
1.0
 40
1.0
 40
2.0
 40
2.0
 40
2.0
 40
3.0
 40
3.0
 40
3.0
 40
4.0
 40
4.0
 40
4.0
 40
5.0
 40
5.0
 40
5.0
 40
6.0
 40
6.0
 40
6.0
 40
7.0
 40
7.0
 40
7.0
 40
7.0
 10
99.31280108194264
 20
-160.3605820996668
 30
0.0
 10
99.31280108194264
 20
-160.3605820996668
 30
0.0
 10
99.31280108194264
 20
-159.2560844870957
 30
0.0
 10
99.31280108194264
 20
-159.2560844870957
 30
0.0
 10
99.31280108194264
 20
-159.2560844870957
 30
0.0
 10
99.02375757073018
 20
-159.2560844870957
 30
0.0
 10
99.02375757073018
 20
-159.2560844870957
 30
0.0
 10
99.02375757073018
 20
-159.2560844870957
 30
0.0
 10
99.02375757073018
 20
-159.10794538123
 30
0.0
 10
99.02375757073018
 20
-159.10794538123
 30
0.0
 10
99.31452362968527
 20
-159.0934759801919
 30
0.0
 10
99.35517575641121
 20
-158.9305229637396
 30
0.0
 10
99.3813584820991
 20
-158.8161457936293
 30
0.0
 10
99.3813584820991
 20
-158.8161457936293
 30
0.0
 10
99.50882701505336
 20
-158.8161457936293
 30
0.0
 10
99.50882701505336
 20
-158.8161457936293
 30
0.0
 10
99.50882701505336
 20
-158.8161457936293
 30
0.0
 10
99.50882701505336
 20
-160.3605820996668
 30
0.0
 10
99.50882701505336
 20
-160.3605820996668
 30
0.0
 10
99.50882701505336
 20
-160.3605820996668
 30
0.0
 10
99.31280108194264
 20
-160.3605820996668
 30
0.0
 10
99.31280108194264
 20
-160.3605820996668
 30
0.0
  0
HATCH
  5
C4
330
BF
100
AcDbEntity
  8
_U+30EC_U+30A4_U+30E4_U+30FC 1
 62
   179
420
  2234388
100
AcDbHatch
 10
0.0
 20
0.0
 30
0.0
210
0.0
220
0.0
230
1.0
  2
SOLID
 70
     1
 71
     0
 91
        1
 92
        1
 93
        1
 72
     4
 94
        3
 73
     0
 74
     1
 95
       26
 96
       22
 40
0.0
 40
0.0
 40
0.0
 40
0.0
 40
1.0
 40
1.0
 40
1.0
 40
2.0
 40
2.0
 40
2.0
 40
3.0
 40
3.0
 40
3.0
 40
4.0
 40
4.0
 40
4.0
 40
5.0
 40
5.0
 40
5.0
 40
6.0
 40
6.0
 40
6.0
 40
7.0
 40
7.0
 40
7.0
 40
7.0
 10
99.31280108194264
 20
-160.3605820996668
 10
99.31280108194264
 20
-160.3605820996668
 10
99.31280108194264
 20
-159.2560844870957
 10
99.31280108194264
 20
-159.2560844870957
 10
99.31280108194264
 20
-159.2560844870957
 10
99.02375757073018
 20
-159.2560844870957
 10
99.02375757073018
 20
-159.2560844870957
 10
99.02375757073018
 20
-159.2560844870957
 10
99.02375757073018
 20
-159.10794538123
 10
99.02375757073018
 20
-159.10794538123
 10
99.31452362968527
 20
-159.0934759801919
 10
99.35517575641121
 20
-158.9305229637396
 10
99.3813584820991
 20
-158.8161457936293
 10
99.3813584820991
 20
-158.8161457936293
 10
99.50882701505336
 20
-158.8161457936293
 10
99.50882701505336
 20
-158.8161457936293
 10
99.50882701505336
 20
-158.8161457936293
 10
99.50882701505336
 20
-160.3605820996668
 10
99.50882701505336
 20
-160.3605820996668
 10
99.50882701505336
 20
-160.3605820996668
 10
99.31280108194264
 20
-160.3605820996668
 10
99.31280108194264
 20
-160.3605820996668
 97
        0
 97
        0
 75
     2
 76
     1
 98
        0
  0
SPLINE
  5
C5
330
BF
100
AcDbEntity
  8
_U+30EC_U+30A4_U+30E4_U+30FC 1
370
     0
100
AcDbSpline
210
0.0
220
0.0
230
1.0
 70
    11
 71
     3
 72
    53
 73
    49
 74
     0
 42
0.0000000001
 43
0.0000000001
 12
1.0
 22
0.0
 32
0.0
 13
1.0
 23
0.0
 33
0.0
 40
0.0
 40
0.0
 40
0.0
 40
0.0
 40
1.0
 40
1.0
 40
1.0
 40
2.0
 40
2.0
 40
2.0
 40
3.0
 40
3.0
 40
3.0
 40
4.0
 40
4.0
 40
4.0
 40
5.0
 40
5.0
 40
5.0
 40
6.0
 40
6.0
 40
6.0
 40
7.0
 40
7.0
 40
7.0
 40
8.0
 40
8.0
 40
8.0
 40
9.0
 40
9.0
 40
9.0
 40
10.0
 40
10.0
 40
10.0
 40
11.0
 40
11.0
 40
11.0
 40
12.0
 40
12.0
 40
12.0
 40
13.0
 40
13.0
 40
13.0
 40
14.0
 40
14.0
 40
14.0
 40
15.0
 40
15.0
 40
15.0
 40
16.0
 40
16.0
 40
16.0
 40
16.0
 10
100.3694118672688
 20
-160.4112250033
 30
0.0
 10
100.3008544671123
 20
-160.4112250033
 30
0.0
 10
100.2119710035929
 20
-160.3943440354223
 30
0.0
 10
100.1230875400734
 20
-160.3309542784937
 30
0.0
 10
99.97115882917389
 20
-160.2207112229657
 30
0.0
 10
99.95255531355353
 20
-160.0897975945262
 30
0.0
 10
99.93601885522433
 20
-159.9819661058378
 30
0.0
 10
99.93601885522433
 20
-159.9819661058378
 30
0.0
 10
100.1303222405924
 20
-159.9819661058378
 30
0.0
 10
100.1303222405924
 20
-159.9819661058378
 30
0.0
 10
100.1785535773859
 20
-160.1807481153368
 30
0.0
 10
100.2898301615595
 20
-160.2103759365099
 30
0.0
 10
100.3711344150114
 20
-160.2103759365099
 30
0.0
 10
100.4934353047378
 20
-160.2103759365099
 30
0.0
 10
100.6267605000169
 20
-160.1108126769862
 30
0.0
 10
100.6267605000169
 20
-159.8782687317318
 30
0.0
 10
100.6267605000169
 20
-159.6222981371778
 30
0.0
 10
100.469319636341
 20
-159.5523626988272
 30
0.0
 10
100.3638997144924
 20
-159.5523626988272
 30
0.0
 10
100.3359944410618
 20
-159.5523626988272
 30
0.0
 10
100.2119710035929
 20
-159.5523626988272
 30
0.0
 10
100.1341118456262
 20
-159.6815537795241
 30
0.0
 10
100.1341118456262
 20
-159.6815537795241
 30
0.0
 10
99.98046058698405
 20
-159.6622612448067
 30
0.0
 10
99.98046058698405
 20
-159.6622612448067
 30
0.0
 10
99.98046058698405
 20
-159.6622612448067
 30
0.0
 10
100.0862250183812
 20
-158.8161457936293
 30
0.0
 10
100.0862250183812
 20
-158.8161457936293
 30
0.0
 10
100.0862250183812
 20
-158.8161457936293
 30
0.0
 10
100.7676649053636
 20
-158.8161457936293
 30
0.0
 10
100.7676649053636
 20
-158.8161457936293
 30
0.0
 10
100.7676649053636
 20
-158.8161457936293
 30
0.0
 10
100.7676649053636
 20
-159.0107936885459
 30
0.0
 10
100.7676649053636
 20
-159.0107936885459
 30
0.0
 10
100.7676649053636
 20
-159.0107936885459
 30
0.0
 10
100.228507461922
 20
-159.0107936885459
 30
0.0
 10
100.228507461922
 20
-159.0107936885459
 30
0.0
 10
100.228507461922
 20
-159.0107936885459
 30
0.0
 10
100.1713188768669
 20
-159.4338514141346
 30
0.0
 10
100.1713188768669
 20
-159.4338514141346
 30
0.0
 10
100.2250623664368
 20
-159.4000894783792
 30
0.0
 10
100.2970648620785
 20
-159.3597818612017
 30
0.0
 10
100.4007622361845
 20
-159.3597818612017
 30
0.0
 10
100.6229708949832
 20
-159.3597818612017
 30
0.0
 10
100.8303656431952
 20
-159.5461615269537
 30
0.0
 10
100.8303656431952
 20
-159.8589761970144
 30
0.0
 10
100.8303656431952
 20
-160.1766140007545
 30
0.0
 10
100.6339952005359
 20
-160.4112250033
 30
0.0
 10
100.3694118672688
 20
-160.4112250033
 30
0.0
  0
HATCH
  5
C6
330
BF
100
AcDbEntity
  8
_U+30EC_U+30A4_U+30E4_U+30FC 1
 62
   179
420
  2234388
100
AcDbHatch
 10
0.0
 20
0.0
 30
0.0
210
0.0
220
0.0
230
1.0
  2
SOLID
 70
     1
 71
     0
 91
        1
 92
        1
 93
        1
 72
     4
 94
        3
 73
     0
 74
     1
 95
       53
 96
       49
 40
0.0
 40
0.0
 40
0.0
 40
0.0
 40
1.0
 40
1.0
 40
1.0
 40
2.0
 40
2.0
 40
2.0
 40
3.0
 40
3.0
 40
3.0
 40
4.0
 40
4.0
 40
4.0
 40
5.0
 40
5.0
 40
5.0
 40
6.0
 40
6.0
 40
6.0
 40
7.0
 40
7.0
 40
7.0
 40
8.0
 40
8.0
 40
8.0
 40
9.0
 40
9.0
 40
9.0
 40
10.0
 40
10.0
 40
10.0
 40
11.0
 40
11.0
 40
11.0
 40
12.0
 40
12.0
 40
12.0
 40
13.0
 40
13.0
 40
13.0
 40
14.0
 40
14.0
 40
14.0
 40
15.0
 40
15.0
 40
15.0
 40
16.0
 40
16.0
 40
16.0
 40
16.0
 10
100.3694118672688
 20
-160.4112250033
 10
100.3008544671123
 20
-160.4112250033
 10
100.2119710035929
 20
-160.3943440354223
 10
100.1230875400734
 20
-160.3309542784937
 10
99.97115882917389
 20
-160.2207112229657
 10
99.95255531355353
 20
-160.0897975945262
 10
99.93601885522433
 20
-159.9819661058378
 10
99.93601885522433
 20
-159.9819661058378
 10
100.1303222405924
 20
-159.9819661058378
 10
100.1303222405924
 20
-159.9819661058378
 10
100.1785535773859
 20
-160.1807481153368
 10
100.2898301615595
 20
-160.2103759365099
 10
100.3711344150114
 20
-160.2103759365099
 10
100.4934353047378
 20
-160.2103759365099
 10
100.6267605000169
 20
-160.1108126769862
 10
100.6267605000169
 20
-159.8782687317318
 10
100.6267605000169
 20
-159.6222981371778
 10
100.469319636341
 20
-159.5523626988272
 10
100.3638997144924
 20
-159.5523626988272
 10
100.3359944410618
 20
-159.5523626988272
 10
100.2119710035929
 20
-159.5523626988272
 10
100.1341118456262
 20
-159.6815537795241
 10
100.1341118456262
 20
-159.6815537795241
 10
99.98046058698405
 20
-159.6622612448067
 10
99.98046058698405
 20
-159.6622612448067
 10
99.98046058698405
 20
-159.6622612448067
 10
100.0862250183812
 20
-158.8161457936293
 10
100.0862250183812
 20
-158.8161457936293
 10
100.0862250183812
 20
-158.8161457936293
 10
100.7676649053636
 20
-158.8161457936293
 10
100.7676649053636
 20
-158.8161457936293
 10
100.7676649053636
 20
-158.8161457936293
 10
100.7676649053636
 20
-159.0107936885459
 10
100.7676649053636
 20
-159.0107936885459
 10
100.7676649053636
 20
-159.0107936885459
 10
100.228507461922
 20
-159.0107936885459
 10
100.228507461922
 20
-159.0107936885459
 10
100.228507461922
 20
-159.0107936885459
 10
100.1713188768669
 20
-159.4338514141346
 10
100.1713188768669
 20
-159.4338514141346
 10
100.2250623664368
 20
-159.4000894783792
 10
100.2970648620785
 20
-159.3597818612017
 10
100.4007622361845
 20
-159.3597818612017
 10
100.6229708949832
 20
-159.3597818612017
 10
100.8303656431952
 20
-159.5461615269537
 10
100.8303656431952
 20
-159.8589761970144
 10
100.8303656431952
 20
-160.1766140007545
 10
100.6339952005359
 20
-160.4112250033
 10
100.3694118672688
 20
-160.4112250033
 97
        0
 97
        0
 75
     2
 76
     1
 98
        0
  0
ENDBLK
  5
C2
330
BF
100
AcDbEntity
  8
0
100
AcDbBlockEnd
  0
BLOCK
  5
C9
330
C7
100
AcDbEntity
  8
0
100
AcDbBlockBegin
  2
block 9
 70
     0
 10
0.0
 20
0.0
 30
0.0
  3
block 9
  1

  0
SPLINE
  5
CB
330
C7
100
AcDbEntity
  8
_U+30EC_U+30A4_U+30E4_U+30FC 1
370
     0
100
AcDbSpline
210
0.0
220
0.0
230
1.0
 70
    11
 71
     3
 72
    29
 73
    25
 74
     0
 42
0.0000000001
 43
0.0000000001
 12
1.0
 22
0.0
 32
0.0
 13
1.0
 23
0.0
 33
0.0
 40
0.0
 40
0.0
 40
0.0
 40
0.0
 40
1.0
 40
1.0
 40
1.0
 40
2.0
 40
2.0
 40
2.0
 40
3.0
 40
3.0
 40
3.0
 40
4.0
 40
4.0
 40
4.0
 40
5.0
 40
5.0
 40
5.0
 40
6.0
 40
6.0
 40
6.0
 40
7.0
 40
7.0
 40
7.0
 40
8.0
 40
8.0
 40
8.0
 40
8.0
 10
86.9445637803472
 20
-160.4112250033
 30
0.0
 10
86.71133081599578
 20
-160.4112250033
 30
0.0
 10
86.48912215719717
 20
-160.2737656934385
 30
0.0
 10
86.48912215719717
 20
-159.9247775207827
 30
0.0
 10
86.48912215719717
 20
-159.6688069262286
 30
0.0
 10
86.61314559466616
 20
-159.5733777812872
 30
0.0
 10
86.70581866321939
 20
-159.5120550816498
 30
0.0
 10
86.59660913633697
 20
-159.4527994393035
 30
0.0
 10
86.52977428392312
 20
-159.3387667787417
 30
0.0
 10
86.52977428392312
 20
-159.1778808195805
 30
0.0
 10
86.52977428392312
 20
-158.9029621998576
 30
0.0
 10
86.70409611547676
 20
-158.7675699472873
 30
0.0
 10
86.9445637803472
 20
-158.7675699472873
 30
0.0
 10
87.19261065528518
 20
-158.7675699472873
 30
0.0
 10
87.35935327677127
 20
-158.9112304290222
 30
0.0
 10
87.35935327677127
 20
-159.1778808195805
 30
0.0
 10
87.35935327677127
 20
-159.3387667787417
 30
0.0
 10
87.29079587661481
 20
-159.4527994393035
 30
0.0
 10
87.18158634973238
 20
-159.5120550816498
 30
0.0
 10
87.25944550769903
 20
-159.5630424948315
 30
0.0
 10
87.3982828557546
 20
-159.6581271302244
 30
0.0
 10
87.3982828557546
 20
-159.9202988966519
 30
0.0
 10
87.3982828557546
 20
-160.2947807758985
 30
0.0
 10
87.15402558585039
 20
-160.4112250033
 30
0.0
 10
86.9445637803472
 20
-160.4112250033
 30
0.0
  0
SPLINE
  5
CC
330
C7
100
AcDbEntity
  8
_U+30EC_U+30A4_U+30E4_U+30FC 1
370
     0
100
AcDbSpline
210
0.0
220
0.0
230
1.0
 70
    11
 71
     3
 72
    17
 73
    13
 74
     0
 42
0.0000000001
 43
0.0000000001
 12
1.0
 22
0.0
 32
0.0
 13
1.0
 23
0.0
 33
0.0
 40
0.0
 40
0.0
 40
0.0
 40
0.0
 40
1.0
 40
1.0
 40
1.0
 40
2.0
 40
2.0
 40
2.0
 40
3.0
 40
3.0
 40
3.0
 40
4.0
 40
4.0
 40
4.0
 40
4.0
 10
86.9445637803472
 20
-159.6202310798866
 30
0.0
 10
86.81881779513557
 20
-159.6202310798866
 30
0.0
 10
86.6854925998564
 20
-159.7067029765664
 30
0.0
 10
86.6854925998564
 20
-159.9099636101961
 30
0.0
 10
86.6854925998564
 20
-160.1149467915685
 30
0.0
 10
86.79642467448146
 20
-160.2165771083834
 30
0.0
 10
86.9445637803472
 20
-160.2165771083834
 30
0.0
 10
87.10751679679952
 20
-160.2165771083834
 30
0.0
 10
87.20397947038651
 20
-160.0939317091085
 30
0.0
 10
87.20397947038651
 20
-159.9161647820696
 30
0.0
 10
87.20397947038651
 20
-159.693956123271
 30
0.0
 10
87.06135251729717
 20
-159.6202310798866
 30
0.0
 10
86.9445637803472
 20
-159.6202310798866
 30
0.0
  0
SPLINE
  5
CD
330
C7
100
AcDbEntity
  8
_U+30EC_U+30A4_U+30E4_U+30FC 1
370
     0
100
AcDbSpline
210
0.0
220
0.0
230
1.0
 70
    11
 71
     3
 72
    17
 73
    13
 74
     0
 42
0.0000000001
 43
0.0000000001
 12
1.0
 22
0.0
 32
0.0
 13
1.0
 23
0.0
 33
0.0
 40
0.0
 40
0.0
 40
0.0
 40
0.0
 40
1.0
 40
1.0
 40
1.0
 40
2.0
 40
2.0
 40
2.0
 40
3.0
 40
3.0
 40
3.0
 40
4.0
 40
4.0
 40
4.0
 40
4.0
 10
86.9445637803472
 20
-158.9601507849127
 30
0.0
 10
86.80021427951523
 20
-158.9601507849127
 30
0.0
 10
86.72614472658236
 20
-159.0552354203056
 30
0.0
 10
86.72614472658236
 20
-159.190627672876
 30
0.0
 10
86.72614472658236
 20
-159.3132730721508
 30
0.0
 10
86.78918997396242
 20
-159.4317843568435
 30
0.0
 10
86.9445637803472
 20
-159.4317843568435
 30
0.0
 10
87.1002820962805
 20
-159.4317843568435
 30
0.0
 10
87.16298283411204
 20
-159.3132730721508
 30
0.0
 10
87.16298283411204
 20
-159.190627672876
 30
0.0
 10
87.16298283411204
 20
-159.0552354203056
 30
0.0
 10
87.08719073343654
 20
-158.9601507849127
 30
0.0
 10
86.9445637803472
 20
-158.9601507849127
 30
0.0
  0
HATCH
  5
CE
330
C7
100
AcDbEntity
  8
_U+30EC_U+30A4_U+30E4_U+30FC 1
 62
   179
420
  2234388
100
AcDbHatch
 10
0.0
 20
0.0
 30
0.0
210
0.0
220
0.0
230
1.0
  2
SOLID
 70
     1
 71
     0
 91
        3
 92
        1
 93
        1
 72
     4
 94
        3
 73
     0
 74
     1
 95
       29
 96
       25
 40
0.0
 40
0.0
 40
0.0
 40
0.0
 40
1.0
 40
1.0
 40
1.0
 40
2.0
 40
2.0
 40
2.0
 40
3.0
 40
3.0
 40
3.0
 40
4.0
 40
4.0
 40
4.0
 40
5.0
 40
5.0
 40
5.0
 40
6.0
 40
6.0
 40
6.0
 40
7.0
 40
7.0
 40
7.0
 40
8.0
 40
8.0
 40
8.0
 40
8.0
 10
86.9445637803472
 20
-160.4112250033
 10
86.71133081599578
 20
-160.4112250033
 10
86.48912215719717
 20
-160.2737656934385
 10
86.48912215719717
 20
-159.9247775207827
 10
86.48912215719717
 20
-159.6688069262286
 10
86.61314559466616
 20
-159.5733777812872
 10
86.70581866321939
 20
-159.5120550816498
 10
86.59660913633697
 20
-159.4527994393035
 10
86.52977428392312
 20
-159.3387667787417
 10
86.52977428392312
 20
-159.1778808195805
 10
86.52977428392312
 20
-158.9029621998576
 10
86.70409611547676
 20
-158.7675699472873
 10
86.9445637803472
 20
-158.7675699472873
 10
87.19261065528518
 20
-158.7675699472873
 10
87.35935327677127
 20
-158.9112304290222
 10
87.35935327677127
 20
-159.1778808195805
 10
87.35935327677127
 20
-159.3387667787417
 10
87.29079587661481
 20
-159.4527994393035
 10
87.18158634973238
 20
-159.5120550816498
 10
87.25944550769903
 20
-159.5630424948315
 10
87.3982828557546
 20
-159.6581271302244
 10
87.3982828557546
 20
-159.9202988966519
 10
87.3982828557546
 20
-160.2947807758985
 10
87.15402558585039
 20
-160.4112250033
 10
86.9445637803472
 20
-160.4112250033
 97
        0
 97
        0
 92
        1
 93
        1
 72
     4
 94
        3
 73
     0
 74
     1
 95
       17
 96
       13
 40
0.0
 40
0.0
 40
0.0
 40
0.0
 40
1.0
 40
1.0
 40
1.0
 40
2.0
 40
2.0
 40
2.0
 40
3.0
 40
3.0
 40
3.0
 40
4.0
 40
4.0
 40
4.0
 40
4.0
 10
86.9445637803472
 20
-159.6202310798866
 10
86.81881779513557
 20
-159.6202310798866
 10
86.6854925998564
 20
-159.7067029765664
 10
86.6854925998564
 20
-159.9099636101961
 10
86.6854925998564
 20
-160.1149467915685
 10
86.79642467448146
 20
-160.2165771083834
 10
86.9445637803472
 20
-160.2165771083834
 10
87.10751679679952
 20
-160.2165771083834
 10
87.20397947038651
 20
-160.0939317091085
 10
87.20397947038651
 20
-159.9161647820696
 10
87.20397947038651
 20
-159.693956123271
 10
87.06135251729717
 20
-159.6202310798866
 10
86.9445637803472
 20
-159.6202310798866
 97
        0
 97
        0
 92
        1
 93
        1
 72
     4
 94
        3
 73
     0
 74
     1
 95
       17
 96
       13
 40
0.0
 40
0.0
 40
0.0
 40
0.0
 40
1.0
 40
1.0
 40
1.0
 40
2.0
 40
2.0
 40
2.0
 40
3.0
 40
3.0
 40
3.0
 40
4.0
 40
4.0
 40
4.0
 40
4.0
 10
86.9445637803472
 20
-158.9601507849127
 10
86.80021427951523
 20
-158.9601507849127
 10
86.72614472658236
 20
-159.0552354203056
 10
86.72614472658236
 20
-159.190627672876
 10
86.72614472658236
 20
-159.3132730721508
 10
86.78918997396242
 20
-159.4317843568435
 10
86.9445637803472
 20
-159.4317843568435
 10
87.1002820962805
 20
-159.4317843568435
 10
87.16298283411204
 20
-159.3132730721508
 10
87.16298283411204
 20
-159.190627672876
 10
87.16298283411204
 20
-159.0552354203056
 10
87.08719073343654
 20
-158.9601507849127
 10
86.9445637803472
 20
-158.9601507849127
 97
        0
 97
        0
 75
     2
 76
     1
 98
        0
  0
POLYLINE
  5
CF
330
C7
100
AcDbEntity
  8
_U+30EC_U+30A4_U+30E4_U+30FC 1
370
     0
100
AcDb2dPolyline
 66
     1
 10
0.0
 20
0.0
 30
0.0
  0
VERTEX
  5
D0
330
CF
100
AcDbEntity
  8
_U+30EC_U+30A4_U+30E4_U+30FC 1
370
     0
100
AcDbVertex
100
AcDb2dVertex
 10
87.59017467428302
 20
-160.3605820996668
 30
0.0
  0
VERTEX
  5
D1
330
CF
100
AcDbEntity
  8
_U+30EC_U+30A4_U+30E4_U+30FC 1
370
     0
100
AcDbVertex
100
AcDb2dVertex
 10
87.59017467428302
 20
-160.108745619695
 30
0.0
  0
VERTEX
  5
D2
330
CF
100
AcDbEntity
  8
_U+30EC_U+30A4_U+30E4_U+30FC 1
370
     0
100
AcDbVertex
100
AcDb2dVertex
 10
87.81066078533901
 20
-160.108745619695
 30
0.0
  0
VERTEX
  5
D3
330
CF
100
AcDbEntity
  8
_U+30EC_U+30A4_U+30E4_U+30FC 1
370
     0
100
AcDbVertex
100
AcDb2dVertex
 10
87.81066078533901
 20
-160.3605820996668
 30
0.0
  0
VERTEX
  5
D4
330
CF
100
AcDbEntity
  8
_U+30EC_U+30A4_U+30E4_U+30FC 1
370
     0
100
AcDbVertex
100
AcDb2dVertex
 10
87.59017467428302
 20
-160.3605820996668
 30
0.0
  0
SEQEND
  5
D5
330
CF
100
AcDbEntity
  8
_U+30EC_U+30A4_U+30E4_U+30FC 1
370
     0
  0
HATCH
  5
D6
330
C7
100
AcDbEntity
  8
_U+30EC_U+30A4_U+30E4_U+30FC 1
 62
   179
420
  2234388
100
AcDbHatch
 10
0.0
 20
0.0
 30
0.0
210
0.0
220
0.0
230
1.0
  2
SOLID
 70
     1
 71
     0
 91
        1
 92
        1
 93
        4
 72
     1
 10
87.59017467428302
 20
-160.3605820996668
 11
87.59017467428302
 21
-160.108745619695
 72
     1
 10
87.59017467428302
 20
-160.108745619695
 11
87.81066078533901
 21
-160.108745619695
 72
     1
 10
87.81066078533901
 20
-160.108745619695
 11
87.81066078533901
 21
-160.3605820996668
 72
     1
 10
87.81066078533901
 20
-160.3605820996668
 11
87.59017467428302
 21
-160.3605820996668
 97
        0
 75
     2
 76
     1
 98
        0
  0
SPLINE
  5
D7
330
C7
100
AcDbEntity
  8
_U+30EC_U+30A4_U+30E4_U+30FC 1
370
     0
100
AcDbSpline
210
0.0
220
0.0
230
1.0
 70
    11
 71
     3
 72
    53
 73
    49
 74
     0
 42
0.0000000001
 43
0.0000000001
 12
1.0
 22
0.0
 32
0.0
 13
1.0
 23
0.0
 33
0.0
 40
0.0
 40
0.0
 40
0.0
 40
0.0
 40
1.0
 40
1.0
 40
1.0
 40
2.0
 40
2.0
 40
2.0
 40
3.0
 40
3.0
 40
3.0
 40
4.0
 40
4.0
 40
4.0
 40
5.0
 40
5.0
 40
5.0
 40
6.0
 40
6.0
 40
6.0
 40
7.0
 40
7.0
 40
7.0
 40
8.0
 40
8.0
 40
8.0
 40
9.0
 40
9.0
 40
9.0
 40
10.0
 40
10.0
 40
10.0
 40
11.0
 40
11.0
 40
11.0
 40
12.0
 40
12.0
 40
12.0
 40
13.0
 40
13.0
 40
13.0
 40
14.0
 40
14.0
 40
14.0
 40
15.0
 40
15.0
 40
15.0
 40
16.0
 40
16.0
 40
16.0
 40
16.0
 10
88.43904620184857
 20
-160.4112250033
 30
0.0
 10
88.3704888016921
 20
-160.4112250033
 30
0.0
 10
88.28160533817265
 20
-160.3943440354223
 30
0.0
 10
88.19272187465322
 20
-160.3309542784937
 30
0.0
 10
88.04079316375369
 20
-160.2207112229657
 30
0.0
 10
88.02218964813335
 20
-160.0897975945262
 30
0.0
 10
88.00565318980415
 20
-159.9819661058378
 30
0.0
 10
88.00565318980415
 20
-159.9819661058378
 30
0.0
 10
88.19995657517224
 20
-159.9819661058378
 30
0.0
 10
88.19995657517224
 20
-159.9819661058378
 30
0.0
 10
88.24818791196573
 20
-160.1807481153368
 30
0.0
 10
88.35946449613931
 20
-160.2103759365099
 30
0.0
 10
88.4407687495912
 20
-160.2103759365099
 30
0.0
 10
88.56306963931758
 20
-160.2103759365099
 30
0.0
 10
88.69639483459675
 20
-160.1108126769862
 30
0.0
 10
88.69639483459675
 20
-159.8782687317318
 30
0.0
 10
88.69639483459675
 20
-159.6222981371778
 30
0.0
 10
88.53895397092082
 20
-159.5523626988272
 30
0.0
 10
88.43353404907218
 20
-159.5523626988272
 30
0.0
 10
88.40562877564166
 20
-159.5523626988272
 30
0.0
 10
88.28160533817265
 20
-159.5523626988272
 30
0.0
 10
88.20374618020601
 20
-159.6815537795241
 30
0.0
 10
88.20374618020601
 20
-159.6815537795241
 30
0.0
 10
88.05009492156387
 20
-159.6622612448067
 30
0.0
 10
88.05009492156387
 20
-159.6622612448067
 30
0.0
 10
88.05009492156387
 20
-159.6622612448067
 30
0.0
 10
88.15585935296104
 20
-158.8161457936293
 30
0.0
 10
88.15585935296104
 20
-158.8161457936293
 30
0.0
 10
88.15585935296104
 20
-158.8161457936293
 30
0.0
 10
88.83729923994346
 20
-158.8161457936293
 30
0.0
 10
88.83729923994346
 20
-158.8161457936293
 30
0.0
 10
88.83729923994346
 20
-158.8161457936293
 30
0.0
 10
88.83729923994346
 20
-159.0107936885459
 30
0.0
 10
88.83729923994346
 20
-159.0107936885459
 30
0.0
 10
88.83729923994346
 20
-159.0107936885459
 30
0.0
 10
88.29814179650185
 20
-159.0107936885459
 30
0.0
 10
88.29814179650185
 20
-159.0107936885459
 30
0.0
 10
88.29814179650185
 20
-159.0107936885459
 30
0.0
 10
88.24095321144671
 20
-159.4338514141346
 30
0.0
 10
88.24095321144671
 20
-159.4338514141346
 30
0.0
 10
88.2946967010166
 20
-159.4000894783792
 30
0.0
 10
88.36669919665833
 20
-159.3597818612017
 30
0.0
 10
88.47039657076435
 20
-159.3597818612017
 30
0.0
 10
88.69260522956296
 20
-159.3597818612017
 30
0.0
 10
88.89999997777501
 20
-159.5461615269537
 30
0.0
 10
88.89999997777501
 20
-159.8589761970144
 30
0.0
 10
88.89999997777501
 20
-160.1766140007545
 30
0.0
 10
88.70362953511577
 20
-160.4112250033
 30
0.0
 10
88.43904620184857
 20
-160.4112250033
 30
0.0
  0
HATCH
  5
D8
330
C7
100
AcDbEntity
  8
_U+30EC_U+30A4_U+30E4_U+30FC 1
 62
   179
420
  2234388
100
AcDbHatch
 10
0.0
 20
0.0
 30
0.0
210
0.0
220
0.0
230
1.0
  2
SOLID
 70
     1
 71
     0
 91
        1
 92
        1
 93
        1
 72
     4
 94
        3
 73
     0
 74
     1
 95
       53
 96
       49
 40
0.0
 40
0.0
 40
0.0
 40
0.0
 40
1.0
 40
1.0
 40
1.0
 40
2.0
 40
2.0
 40
2.0
 40
3.0
 40
3.0
 40
3.0
 40
4.0
 40
4.0
 40
4.0
 40
5.0
 40
5.0
 40
5.0
 40
6.0
 40
6.0
 40
6.0
 40
7.0
 40
7.0
 40
7.0
 40
8.0
 40
8.0
 40
8.0
 40
9.0
 40
9.0
 40
9.0
 40
10.0
 40
10.0
 40
10.0
 40
11.0
 40
11.0
 40
11.0
 40
12.0
 40
12.0
 40
12.0
 40
13.0
 40
13.0
 40
13.0
 40
14.0
 40
14.0
 40
14.0
 40
15.0
 40
15.0
 40
15.0
 40
16.0
 40
16.0
 40
16.0
 40
16.0
 10
88.43904620184857
 20
-160.4112250033
 10
88.3704888016921
 20
-160.4112250033
 10
88.28160533817265
 20
-160.3943440354223
 10
88.19272187465322
 20
-160.3309542784937
 10
88.04079316375369
 20
-160.2207112229657
 10
88.02218964813335
 20
-160.0897975945262
 10
88.00565318980415
 20
-159.9819661058378
 10
88.00565318980415
 20
-159.9819661058378
 10
88.19995657517224
 20
-159.9819661058378
 10
88.19995657517224
 20
-159.9819661058378
 10
88.24818791196573
 20
-160.1807481153368
 10
88.35946449613931
 20
-160.2103759365099
 10
88.4407687495912
 20
-160.2103759365099
 10
88.56306963931758
 20
-160.2103759365099
 10
88.69639483459675
 20
-160.1108126769862
 10
88.69639483459675
 20
-159.8782687317318
 10
88.69639483459675
 20
-159.6222981371778
 10
88.53895397092082
 20
-159.5523626988272
 10
88.43353404907218
 20
-159.5523626988272
 10
88.40562877564166
 20
-159.5523626988272
 10
88.28160533817265
 20
-159.5523626988272
 10
88.20374618020601
 20
-159.6815537795241
 10
88.20374618020601
 20
-159.6815537795241
 10
88.05009492156387
 20
-159.6622612448067
 10
88.05009492156387
 20
-159.6622612448067
 10
88.05009492156387
 20
-159.6622612448067
 10
88.15585935296104
 20
-158.8161457936293
 10
88.15585935296104
 20
-158.8161457936293
 10
88.15585935296104
 20
-158.8161457936293
 10
88.83729923994346
 20
-158.8161457936293
 10
88.83729923994346
 20
-158.8161457936293
 10
88.83729923994346
 20
-158.8161457936293
 10
88.83729923994346
 20
-159.0107936885459
 10
88.83729923994346
 20
-159.0107936885459
 10
88.83729923994346
 20
-159.0107936885459
 10
88.29814179650185
 20
-159.0107936885459
 10
88.29814179650185
 20
-159.0107936885459
 10
88.29814179650185
 20
-159.0107936885459
 10
88.24095321144671
 20
-159.4338514141346
 10
88.24095321144671
 20
-159.4338514141346
 10
88.2946967010166
 20
-159.4000894783792
 10
88.36669919665833
 20
-159.3597818612017
 10
88.47039657076435
 20
-159.3597818612017
 10
88.69260522956296
 20
-159.3597818612017
 10
88.89999997777501
 20
-159.5461615269537
 10
88.89999997777501
 20
-159.8589761970144
 10
88.89999997777501
 20
-160.1766140007545
 10
88.70362953511577
 20
-160.4112250033
 10
88.43904620184857
 20
-160.4112250033
 97
        0
 97
        0
 75
     2
 76
     1
 98
        0
  0
ENDBLK
  5
CA
330
C7
100
AcDbEntity
  8
0
100
AcDbBlockEnd
  0
BLOCK
  5
DB
330
D9
100
AcDbEntity
  8
0
100
AcDbBlockBegin
  2
block 10
 70
     0
 10
0.0
 20
0.0
 30
0.0
  3
block 10
  1

  0
SPLINE
  5
DD
330
D9
100
AcDbEntity
  8
_U+30EC_U+30A4_U+30E4_U+30FC 1
370
     0
100
AcDbSpline
210
0.0
220
0.0
230
1.0
 70
    11
 71
     3
 72
    29
 73
    25
 74
     0
 42
0.0000000001
 43
0.0000000001
 12
1.0
 22
0.0
 32
0.0
 13
1.0
 23
0.0
 33
0.0
 40
0.0
 40
0.0
 40
0.0
 40
0.0
 40
1.0
 40
1.0
 40
1.0
 40
2.0
 40
2.0
 40
2.0
 40
3.0
 40
3.0
 40
3.0
 40
4.0
 40
4.0
 40
4.0
 40
5.0
 40
5.0
 40
5.0
 40
6.0
 40
6.0
 40
6.0
 40
7.0
 40
7.0
 40
7.0
 40
8.0
 40
8.0
 40
8.0
 40
8.0
 10
110.5234863004941
 20
-160.4112250033
 30
0.0
 10
110.2902533361427
 20
-160.4112250033
 30
0.0
 10
110.0680446773441
 20
-160.2737656934385
 30
0.0
 10
110.0680446773441
 20
-159.9247775207827
 30
0.0
 10
110.0680446773441
 20
-159.6688069262286
 30
0.0
 10
110.1920681148131
 20
-159.5733777812872
 30
0.0
 10
110.2847411833663
 20
-159.5120550816498
 30
0.0
 10
110.1755316564839
 20
-159.4527994393035
 30
0.0
 10
110.10869680407
 20
-159.3387667787417
 30
0.0
 10
110.10869680407
 20
-159.1778808195805
 30
0.0
 10
110.10869680407
 20
-158.9029621998576
 30
0.0
 10
110.2830186356237
 20
-158.7675699472873
 30
0.0
 10
110.5234863004941
 20
-158.7675699472873
 30
0.0
 10
110.7715331754321
 20
-158.7675699472873
 30
0.0
 10
110.9382757969182
 20
-158.9112304290222
 30
0.0
 10
110.9382757969182
 20
-159.1778808195805
 30
0.0
 10
110.9382757969182
 20
-159.3387667787417
 30
0.0
 10
110.8697183967617
 20
-159.4527994393035
 30
0.0
 10
110.7605088698793
 20
-159.5120550816498
 30
0.0
 10
110.838368027846
 20
-159.5630424948315
 30
0.0
 10
110.9772053759015
 20
-159.6581271302244
 30
0.0
 10
110.9772053759015
 20
-159.9202988966519
 30
0.0
 10
110.9772053759015
 20
-160.2947807758985
 30
0.0
 10
110.7329481059973
 20
-160.4112250033
 30
0.0
 10
110.5234863004941
 20
-160.4112250033
 30
0.0
  0
SPLINE
  5
DE
330
D9
100
AcDbEntity
  8
_U+30EC_U+30A4_U+30E4_U+30FC 1
370
     0
100
AcDbSpline
210
0.0
220
0.0
230
1.0
 70
    11
 71
     3
 72
    17
 73
    13
 74
     0
 42
0.0000000001
 43
0.0000000001
 12
1.0
 22
0.0
 32
0.0
 13
1.0
 23
0.0
 33
0.0
 40
0.0
 40
0.0
 40
0.0
 40
0.0
 40
1.0
 40
1.0
 40
1.0
 40
2.0
 40
2.0
 40
2.0
 40
3.0
 40
3.0
 40
3.0
 40
4.0
 40
4.0
 40
4.0
 40
4.0
 10
110.5234863004941
 20
-159.6202310798866
 30
0.0
 10
110.3977403152825
 20
-159.6202310798866
 30
0.0
 10
110.2644151200033
 20
-159.7067029765664
 30
0.0
 10
110.2644151200033
 20
-159.9099636101961
 30
0.0
 10
110.2644151200033
 20
-160.1149467915685
 30
0.0
 10
110.3753471946284
 20
-160.2165771083834
 30
0.0
 10
110.5234863004941
 20
-160.2165771083834
 30
0.0
 10
110.6864393169464
 20
-160.2165771083834
 30
0.0
 10
110.7829019905334
 20
-160.0939317091085
 30
0.0
 10
110.7829019905334
 20
-159.9161647820696
 30
0.0
 10
110.7829019905334
 20
-159.693956123271
 30
0.0
 10
110.6402750374441
 20
-159.6202310798866
 30
0.0
 10
110.5234863004941
 20
-159.6202310798866
 30
0.0
  0
SPLINE
  5
DF
330
D9
100
AcDbEntity
  8
_U+30EC_U+30A4_U+30E4_U+30FC 1
370
     0
100
AcDbSpline
210
0.0
220
0.0
230
1.0
 70
    11
 71
     3
 72
    17
 73
    13
 74
     0
 42
0.0000000001
 43
0.0000000001
 12
1.0
 22
0.0
 32
0.0
 13
1.0
 23
0.0
 33
0.0
 40
0.0
 40
0.0
 40
0.0
 40
0.0
 40
1.0
 40
1.0
 40
1.0
 40
2.0
 40
2.0
 40
2.0
 40
3.0
 40
3.0
 40
3.0
 40
4.0
 40
4.0
 40
4.0
 40
4.0
 10
110.5234863004941
 20
-158.9601507849127
 30
0.0
 10
110.3791367996622
 20
-158.9601507849127
 30
0.0
 10
110.3050672467293
 20
-159.0552354203056
 30
0.0
 10
110.3050672467293
 20
-159.190627672876
 30
0.0
 10
110.3050672467293
 20
-159.3132730721508
 30
0.0
 10
110.3681124941094
 20
-159.4317843568435
 30
0.0
 10
110.5234863004941
 20
-159.4317843568435
 30
0.0
 10
110.6792046164274
 20
-159.4317843568435
 30
0.0
 10
110.741905354259
 20
-159.3132730721508
 30
0.0
 10
110.741905354259
 20
-159.190627672876
 30
0.0
 10
110.741905354259
 20
-159.0552354203056
 30
0.0
 10
110.6661132535835
 20
-158.9601507849127
 30
0.0
 10
110.5234863004941
 20
-158.9601507849127
 30
0.0
  0
HATCH
  5
E0
330
D9
100
AcDbEntity
  8
_U+30EC_U+30A4_U+30E4_U+30FC 1
 62
   179
420
  2234388
100
AcDbHatch
 10
0.0
 20
0.0
 30
0.0
210
0.0
220
0.0
230
1.0
  2
SOLID
 70
     1
 71
     0
 91
        3
 92
        1
 93
        1
 72
     4
 94
        3
 73
     0
 74
     1
 95
       29
 96
       25
 40
0.0
 40
0.0
 40
0.0
 40
0.0
 40
1.0
 40
1.0
 40
1.0
 40
2.0
 40
2.0
 40
2.0
 40
3.0
 40
3.0
 40
3.0
 40
4.0
 40
4.0
 40
4.0
 40
5.0
 40
5.0
 40
5.0
 40
6.0
 40
6.0
 40
6.0
 40
7.0
 40
7.0
 40
7.0
 40
8.0
 40
8.0
 40
8.0
 40
8.0
 10
110.5234863004941
 20
-160.4112250033
 10
110.2902533361427
 20
-160.4112250033
 10
110.0680446773441
 20
-160.2737656934385
 10
110.0680446773441
 20
-159.9247775207827
 10
110.0680446773441
 20
-159.6688069262286
 10
110.1920681148131
 20
-159.5733777812872
 10
110.2847411833663
 20
-159.5120550816498
 10
110.1755316564839
 20
-159.4527994393035
 10
110.10869680407
 20
-159.3387667787417
 10
110.10869680407
 20
-159.1778808195805
 10
110.10869680407
 20
-158.9029621998576
 10
110.2830186356237
 20
-158.7675699472873
 10
110.5234863004941
 20
-158.7675699472873
 10
110.7715331754321
 20
-158.7675699472873
 10
110.9382757969182
 20
-158.9112304290222
 10
110.9382757969182
 20
-159.1778808195805
 10
110.9382757969182
 20
-159.3387667787417
 10
110.8697183967617
 20
-159.4527994393035
 10
110.7605088698793
 20
-159.5120550816498
 10
110.838368027846
 20
-159.5630424948315
 10
110.9772053759015
 20
-159.6581271302244
 10
110.9772053759015
 20
-159.9202988966519
 10
110.9772053759015
 20
-160.2947807758985
 10
110.7329481059973
 20
-160.4112250033
 10
110.5234863004941
 20
-160.4112250033
 97
        0
 97
        0
 92
        1
 93
        1
 72
     4
 94
        3
 73
     0
 74
     1
 95
       17
 96
       13
 40
0.0
 40
0.0
 40
0.0
 40
0.0
 40
1.0
 40
1.0
 40
1.0
 40
2.0
 40
2.0
 40
2.0
 40
3.0
 40
3.0
 40
3.0
 40
4.0
 40
4.0
 40
4.0
 40
4.0
 10
110.5234863004941
 20
-159.6202310798866
 10
110.3977403152825
 20
-159.6202310798866
 10
110.2644151200033
 20
-159.7067029765664
 10
110.2644151200033
 20
-159.9099636101961
 10
110.2644151200033
 20
-160.1149467915685
 10
110.3753471946284
 20
-160.2165771083834
 10
110.5234863004941
 20
-160.2165771083834
 10
110.6864393169464
 20
-160.2165771083834
 10
110.7829019905334
 20
-160.0939317091085
 10
110.7829019905334
 20
-159.9161647820696
 10
110.7829019905334
 20
-159.693956123271
 10
110.6402750374441
 20
-159.6202310798866
 10
110.5234863004941
 20
-159.6202310798866
 97
        0
 97
        0
 92
        1
 93
        1
 72
     4
 94
        3
 73
     0
 74
     1
 95
       17
 96
       13
 40
0.0
 40
0.0
 40
0.0
 40
0.0
 40
1.0
 40
1.0
 40
1.0
 40
2.0
 40
2.0
 40
2.0
 40
3.0
 40
3.0
 40
3.0
 40
4.0
 40
4.0
 40
4.0
 40
4.0
 10
110.5234863004941
 20
-158.9601507849127
 10
110.3791367996622
 20
-158.9601507849127
 10
110.3050672467293
 20
-159.0552354203056
 10
110.3050672467293
 20
-159.190627672876
 10
110.3050672467293
 20
-159.3132730721508
 10
110.3681124941094
 20
-159.4317843568435
 10
110.5234863004941
 20
-159.4317843568435
 10
110.6792046164274
 20
-159.4317843568435
 10
110.741905354259
 20
-159.3132730721508
 10
110.741905354259
 20
-159.190627672876
 10
110.741905354259
 20
-159.0552354203056
 10
110.6661132535835
 20
-158.9601507849127
 10
110.5234863004941
 20
-158.9601507849127
 97
        0
 97
        0
 75
     2
 76
     1
 98
        0
  0
POLYLINE
  5
E1
330
D9
100
AcDbEntity
  8
_U+30EC_U+30A4_U+30E4_U+30FC 1
370
     0
100
AcDb2dPolyline
 66
     1
 10
0.0
 20
0.0
 30
0.0
  0
VERTEX
  5
E2
330
E1
100
AcDbEntity
  8
_U+30EC_U+30A4_U+30E4_U+30FC 1
370
     0
100
AcDbVertex
100
AcDb2dVertex
 10
111.16909719443
 20
-160.3605820996668
 30
0.0
  0
VERTEX
  5
E3
330
E1
100
AcDbEntity
  8
_U+30EC_U+30A4_U+30E4_U+30FC 1
370
     0
100
AcDbVertex
100
AcDb2dVertex
 10
111.16909719443
 20
-160.108745619695
 30
0.0
  0
VERTEX
  5
E4
330
E1
100
AcDbEntity
  8
_U+30EC_U+30A4_U+30E4_U+30FC 1
370
     0
100
AcDbVertex
100
AcDb2dVertex
 10
111.3895833054859
 20
-160.108745619695
 30
0.0
  0
VERTEX
  5
E5
330
E1
100
AcDbEntity
  8
_U+30EC_U+30A4_U+30E4_U+30FC 1
370
     0
100
AcDbVertex
100
AcDb2dVertex
 10
111.3895833054859
 20
-160.3605820996668
 30
0.0
  0
VERTEX
  5
E6
330
E1
100
AcDbEntity
  8
_U+30EC_U+30A4_U+30E4_U+30FC 1
370
     0
100
AcDbVertex
100
AcDb2dVertex
 10
111.16909719443
 20
-160.3605820996668
 30
0.0
  0
SEQEND
  5
E7
330
E1
100
AcDbEntity
  8
_U+30EC_U+30A4_U+30E4_U+30FC 1
370
     0
  0
HATCH
  5
E8
330
D9
100
AcDbEntity
  8
_U+30EC_U+30A4_U+30E4_U+30FC 1
 62
   179
420
  2234388
100
AcDbHatch
 10
0.0
 20
0.0
 30
0.0
210
0.0
220
0.0
230
1.0
  2
SOLID
 70
     1
 71
     0
 91
        1
 92
        1
 93
        4
 72
     1
 10
111.16909719443
 20
-160.3605820996668
 11
111.16909719443
 21
-160.108745619695
 72
     1
 10
111.16909719443
 20
-160.108745619695
 11
111.3895833054859
 21
-160.108745619695
 72
     1
 10
111.3895833054859
 20
-160.108745619695
 11
111.3895833054859
 21
-160.3605820996668
 72
     1
 10
111.3895833054859
 20
-160.3605820996668
 11
111.16909719443
 21
-160.3605820996668
 97
        0
 75
     2
 76
     1
 98
        0
  0
SPLINE
  5
E9
330
D9
100
AcDbEntity
  8
_U+30EC_U+30A4_U+30E4_U+30FC 1
370
     0
100
AcDbSpline
210
0.0
220
0.0
230
1.0
 70
    11
 71
     3
 72
    53
 73
    49
 74
     0
 42
0.0000000001
 43
0.0000000001
 12
1.0
 22
0.0
 32
0.0
 13
1.0
 23
0.0
 33
0.0
 40
0.0
 40
0.0
 40
0.0
 40
0.0
 40
1.0
 40
1.0
 40
1.0
 40
2.0
 40
2.0
 40
2.0
 40
3.0
 40
3.0
 40
3.0
 40
4.0
 40
4.0
 40
4.0
 40
5.0
 40
5.0
 40
5.0
 40
6.0
 40
6.0
 40
6.0
 40
7.0
 40
7.0
 40
7.0
 40
8.0
 40
8.0
 40
8.0
 40
9.0
 40
9.0
 40
9.0
 40
10.0
 40
10.0
 40
10.0
 40
11.0
 40
11.0
 40
11.0
 40
12.0
 40
12.0
 40
12.0
 40
13.0
 40
13.0
 40
13.0
 40
14.0
 40
14.0
 40
14.0
 40
15.0
 40
15.0
 40
15.0
 40
16.0
 40
16.0
 40
16.0
 40
16.0
 10
112.0179687219955
 20
-160.4112250033
 30
0.0
 10
111.949411321839
 20
-160.4112250033
 30
0.0
 10
111.8605278583196
 20
-160.3943440354223
 30
0.0
 10
111.7716443948001
 20
-160.3309542784937
 30
0.0
 10
111.6197156839006
 20
-160.2207112229657
 30
0.0
 10
111.6011121682803
 20
-160.0897975945262
 30
0.0
 10
111.5845757099511
 20
-159.9819661058378
 30
0.0
 10
111.5845757099511
 20
-159.9819661058378
 30
0.0
 10
111.7788790953192
 20
-159.9819661058378
 30
0.0
 10
111.7788790953192
 20
-159.9819661058378
 30
0.0
 10
111.8271104321127
 20
-160.1807481153368
 30
0.0
 10
111.9383870162862
 20
-160.2103759365099
 30
0.0
 10
112.0196912697381
 20
-160.2103759365099
 30
0.0
 10
112.1419921594645
 20
-160.2103759365099
 30
0.0
 10
112.2753173547437
 20
-160.1108126769862
 30
0.0
 10
112.2753173547437
 20
-159.8782687317318
 30
0.0
 10
112.2753173547437
 20
-159.6222981371778
 30
0.0
 10
112.1178764910678
 20
-159.5523626988272
 30
0.0
 10
112.0124565692191
 20
-159.5523626988272
 30
0.0
 10
111.9845512957886
 20
-159.5523626988272
 30
0.0
 10
111.8605278583196
 20
-159.5523626988272
 30
0.0
 10
111.7826687003529
 20
-159.6815537795241
 30
0.0
 10
111.7826687003529
 20
-159.6815537795241
 30
0.0
 10
111.6290174417108
 20
-159.6622612448067
 30
0.0
 10
111.6290174417108
 20
-159.6622612448067
 30
0.0
 10
111.6290174417108
 20
-159.6622612448067
 30
0.0
 10
111.734781873108
 20
-158.8161457936293
 30
0.0
 10
111.734781873108
 20
-158.8161457936293
 30
0.0
 10
111.734781873108
 20
-158.8161457936293
 30
0.0
 10
112.4162217600904
 20
-158.8161457936293
 30
0.0
 10
112.4162217600904
 20
-158.8161457936293
 30
0.0
 10
112.4162217600904
 20
-158.8161457936293
 30
0.0
 10
112.4162217600904
 20
-159.0107936885459
 30
0.0
 10
112.4162217600904
 20
-159.0107936885459
 30
0.0
 10
112.4162217600904
 20
-159.0107936885459
 30
0.0
 10
111.8770643166488
 20
-159.0107936885459
 30
0.0
 10
111.8770643166488
 20
-159.0107936885459
 30
0.0
 10
111.8770643166488
 20
-159.0107936885459
 30
0.0
 10
111.8198757315936
 20
-159.4338514141346
 30
0.0
 10
111.8198757315936
 20
-159.4338514141346
 30
0.0
 10
111.8736192211636
 20
-159.4000894783792
 30
0.0
 10
111.9456217168053
 20
-159.3597818612017
 30
0.0
 10
112.0493190909113
 20
-159.3597818612017
 30
0.0
 10
112.2715277497099
 20
-159.3597818612017
 30
0.0
 10
112.4789224979219
 20
-159.5461615269537
 30
0.0
 10
112.4789224979219
 20
-159.8589761970144
 30
0.0
 10
112.4789224979219
 20
-160.1766140007545
 30
0.0
 10
112.2825520552627
 20
-160.4112250033
 30
0.0
 10
112.0179687219955
 20
-160.4112250033
 30
0.0
  0
HATCH
  5
EA
330
D9
100
AcDbEntity
  8
_U+30EC_U+30A4_U+30E4_U+30FC 1
 62
   179
420
  2234388
100
AcDbHatch
 10
0.0
 20
0.0
 30
0.0
210
0.0
220
0.0
230
1.0
  2
SOLID
 70
     1
 71
     0
 91
        1
 92
        1
 93
        1
 72
     4
 94
        3
 73
     0
 74
     1
 95
       53
 96
       49
 40
0.0
 40
0.0
 40
0.0
 40
0.0
 40
1.0
 40
1.0
 40
1.0
 40
2.0
 40
2.0
 40
2.0
 40
3.0
 40
3.0
 40
3.0
 40
4.0
 40
4.0
 40
4.0
 40
5.0
 40
5.0
 40
5.0
 40
6.0
 40
6.0
 40
6.0
 40
7.0
 40
7.0
 40
7.0
 40
8.0
 40
8.0
 40
8.0
 40
9.0
 40
9.0
 40
9.0
 40
10.0
 40
10.0
 40
10.0
 40
11.0
 40
11.0
 40
11.0
 40
12.0
 40
12.0
 40
12.0
 40
13.0
 40
13.0
 40
13.0
 40
14.0
 40
14.0
 40
14.0
 40
15.0
 40
15.0
 40
15.0
 40
16.0
 40
16.0
 40
16.0
 40
16.0
 10
112.0179687219955
 20
-160.4112250033
 10
111.949411321839
 20
-160.4112250033
 10
111.8605278583196
 20
-160.3943440354223
 10
111.7716443948001
 20
-160.3309542784937
 10
111.6197156839006
 20
-160.2207112229657
 10
111.6011121682803
 20
-160.0897975945262
 10
111.5845757099511
 20
-159.9819661058378
 10
111.5845757099511
 20
-159.9819661058378
 10
111.7788790953192
 20
-159.9819661058378
 10
111.7788790953192
 20
-159.9819661058378
 10
111.8271104321127
 20
-160.1807481153368
 10
111.9383870162862
 20
-160.2103759365099
 10
112.0196912697381
 20
-160.2103759365099
 10
112.1419921594645
 20
-160.2103759365099
 10
112.2753173547437
 20
-160.1108126769862
 10
112.2753173547437
 20
-159.8782687317318
 10
112.2753173547437
 20
-159.6222981371778
 10
112.1178764910678
 20
-159.5523626988272
 10
112.0124565692191
 20
-159.5523626988272
 10
111.9845512957886
 20
-159.5523626988272
 10
111.8605278583196
 20
-159.5523626988272
 10
111.7826687003529
 20
-159.6815537795241
 10
111.7826687003529
 20
-159.6815537795241
 10
111.6290174417108
 20
-159.6622612448067
 10
111.6290174417108
 20
-159.6622612448067
 10
111.6290174417108
 20
-159.6622612448067
 10
111.734781873108
 20
-158.8161457936293
 10
111.734781873108
 20
-158.8161457936293
 10
111.734781873108
 20
-158.8161457936293
 10
112.4162217600904
 20
-158.8161457936293
 10
112.4162217600904
 20
-158.8161457936293
 10
112.4162217600904
 20
-158.8161457936293
 10
112.4162217600904
 20
-159.0107936885459
 10
112.4162217600904
 20
-159.0107936885459
 10
112.4162217600904
 20
-159.0107936885459
 10
111.8770643166488
 20
-159.0107936885459
 10
111.8770643166488
 20
-159.0107936885459
 10
111.8770643166488
 20
-159.0107936885459
 10
111.8198757315936
 20
-159.4338514141346
 10
111.8198757315936
 20
-159.4338514141346
 10
111.8736192211636
 20
-159.4000894783792
 10
111.9456217168053
 20
-159.3597818612017
 10
112.0493190909113
 20
-159.3597818612017
 10
112.2715277497099
 20
-159.3597818612017
 10
112.4789224979219
 20
-159.5461615269537
 10
112.4789224979219
 20
-159.8589761970144
 10
112.4789224979219
 20
-160.1766140007545
 10
112.2825520552627
 20
-160.4112250033
 10
112.0179687219955
 20
-160.4112250033
 97
        0
 97
        0
 75
     2
 76
     1
 98
        0
  0
ENDBLK
  5
DC
330
D9
100
AcDbEntity
  8
0
100
AcDbBlockEnd
  0
ENDSEC
  0
SECTION
  2
ENTITIES
  0
INSERT
  5
42
330
1F
100
AcDbEntity
  8
_U+30EC_U+30A4_U+30E4_U+30FC 1
100
AcDbBlockReference
  2
block 2
 10
0.0
 20
0.0
 30
0.0
  0
INSERT
  5
52
330
1F
100
AcDbEntity
  8
_U+30EC_U+30A4_U+30E4_U+30FC 1
100
AcDbBlockReference
  2
block 3
 10
0.0
 20
0.0
 30
0.0
  0
INSERT
  5
62
330
1F
100
AcDbEntity
  8
_U+30EC_U+30A4_U+30E4_U+30FC 1
100
AcDbBlockReference
  2
block 4
 10
0.0
 20
0.0
 30
0.0
  0
INSERT
  5
74
330
1F
100
AcDbEntity
  8
_U+30EC_U+30A4_U+30E4_U+30FC 1
100
AcDbBlockReference
  2
block 5
 10
0.0
 20
0.0
 30
0.0
  0
INSERT
  5
7C
330
1F
100
AcDbEntity
  8
_U+30EC_U+30A4_U+30E4_U+30FC 1
100
AcDbBlockReference
  2
block 6
 10
0.0
 20
0.0
 30
0.0
  0
INSERT
  5
B8
330
1F
100
AcDbEntity
  8
_U+30EC_U+30A4_U+30E4_U+30FC 1
100
AcDbBlockReference
  2
block 7
 10
0.0
 20
0.0
 30
0.0
  0
INSERT
  5
C0
330
1F
100
AcDbEntity
  8
_U+30EC_U+30A4_U+30E4_U+30FC 1
100
AcDbBlockReference
  2
block 8
 10
0.0
 20
0.0
 30
0.0
  0
INSERT
  5
C8
330
1F
100
AcDbEntity
  8
_U+30EC_U+30A4_U+30E4_U+30FC 1
100
AcDbBlockReference
  2
block 9
 10
0.0
 20
0.0
 30
0.0
  0
INSERT
  5
DA
330
1F
100
AcDbEntity
  8
_U+30EC_U+30A4_U+30E4_U+30FC 1
100
AcDbBlockReference
  2
block 10
 10
0.0
 20
0.0
 30
0.0
  0
POLYLINE
  5
EB
330
1F
100
AcDbEntity
  8
_U+30EC_U+30A4_U+30E4_U+30FC 1
 62
   179
420
  2234388
370
    18
100
AcDb2dPolyline
 66
     1
 10
0.0
 20
0.0
 30
0.0
  0
VERTEX
  5
EC
330
EB
100
AcDbEntity
  8
_U+30EC_U+30A4_U+30E4_U+30FC 1
 62
   179
420
  2234388
370
    18
100
AcDbVertex
100
AcDb2dVertex
 10
85.01958438019368
 20
-149.5715119729695
 30
0.0
  0
VERTEX
  5
ED
330
EB
100
AcDbEntity
  8
_U+30EC_U+30A4_U+30E4_U+30FC 1
 62
   179
420
  2234388
370
    18
100
AcDbVertex
100
AcDb2dVertex
 10
83.6843191997278
 20
-149.5715119729695
 30
0.0
  0
VERTEX
  5
EE
330
EB
100
AcDbEntity
  8
_U+30EC_U+30A4_U+30E4_U+30FC 1
 62
   179
420
  2234388
370
    18
100
AcDbVertex
100
AcDb2dVertex
 10
83.6843191997278
 20
-146.358766646353
 30
0.0
  0
VERTEX
  5
EF
330
EB
100
AcDbEntity
  8
_U+30EC_U+30A4_U+30E4_U+30FC 1
 62
   179
420
  2234388
370
    18
100
AcDbVertex
100
AcDb2dVertex
 10
93.68450552399673
 20
-146.358766646353
 30
0.0
  0
VERTEX
  5
F0
330
EB
100
AcDbEntity
  8
_U+30EC_U+30A4_U+30E4_U+30FC 1
 62
   179
420
  2234388
370
    18
100
AcDbVertex
100
AcDb2dVertex
 10
93.68450552399673
 20
-147.7303668182649
 30
0.0
  0
VERTEX
  5
F1
330
EB
100
AcDbEntity
  8
_U+30EC_U+30A4_U+30E4_U+30FC 1
 62
   179
420
  2234388
370
    18
100
AcDbVertex
100
AcDb2dVertex
 10
95.15065203513193
 20
-147.7303668182649
 30
0.0
  0
VERTEX
  5
F2
330
EB
100
AcDbEntity
  8
_U+30EC_U+30A4_U+30E4_U+30FC 1
 62
   179
420
  2234388
370
    18
100
AcDbVertex
100
AcDb2dVertex
 10
95.15065203513193
 20
-148.5449381139054
 30
0.0
  0
VERTEX
  5
F3
330
EB
100
AcDbEntity
  8
_U+30EC_U+30A4_U+30E4_U+30FC 1
 62
   179
420
  2234388
370
    18
100
AcDbVertex
100
AcDb2dVertex
 10
93.68450552399673
 20
-148.5449381139054
 30
0.0
  0
VERTEX
  5
F4
330
EB
100
AcDbEntity
  8
_U+30EC_U+30A4_U+30E4_U+30FC 1
 62
   179
420
  2234388
370
    18
100
AcDbVertex
100
AcDb2dVertex
 10
93.68450552399673
 20
-153.7840455412523
 30
0.0
  0
VERTEX
  5
F5
330
EB
100
AcDbEntity
  8
_U+30EC_U+30A4_U+30E4_U+30FC 1
 62
   179
420
  2234388
370
    18
100
AcDbVertex
100
AcDb2dVertex
 10
99.15009568172832
 20
-153.7840455412523
 30
0.0
  0
VERTEX
  5
F6
330
EB
100
AcDbEntity
  8
_U+30EC_U+30A4_U+30E4_U+30FC 1
 62
   179
420
  2234388
370
    18
100
AcDbVertex
100
AcDb2dVertex
 10
99.73993909249666
 20
-154.2317141677138
 30
0.0
  0
VERTEX
  5
F7
330
EB
100
AcDbEntity
  8
_U+30EC_U+30A4_U+30E4_U+30FC 1
 62
   179
420
  2234388
370
    18
100
AcDbVertex
100
AcDb2dVertex
 10
100.1946701647029
 20
-153.7840455412523
 30
0.0
  0
VERTEX
  5
F8
330
EB
100
AcDbEntity
  8
_U+30EC_U+30A4_U+30E4_U+30FC 1
 62
   179
420
  2234388
370
    18
100
AcDbVertex
100
AcDb2dVertex
 10
105.6842467997508
 20
-153.7840455412523
 30
0.0
  0
VERTEX
  5
F9
330
EB
100
AcDbEntity
  8
_U+30EC_U+30A4_U+30E4_U+30FC 1
 62
   179
420
  2234388
370
    18
100
AcDbVertex
100
AcDb2dVertex
 10
105.6842467997508
 20
-146.358766646353
 30
0.0
  0
VERTEX
  5
FA
330
EB
100
AcDbEntity
  8
_U+30EC_U+30A4_U+30E4_U+30FC 1
 62
   179
420
  2234388
370
    18
100
AcDbVertex
100
AcDb2dVertex
 10
115.6851436749633
 20
-146.358766646353
 30
0.0
  0
VERTEX
  5
FB
330
EB
100
AcDbEntity
  8
_U+30EC_U+30A4_U+30E4_U+30FC 1
 62
   179
420
  2234388
370
    18
100
AcDbVertex
100
AcDb2dVertex
 10
115.6851436749633
 20
-149.5715119729695
 30
0.0
  0
VERTEX
  5
FC
330
EB
100
AcDbEntity
  8
_U+30EC_U+30A4_U+30E4_U+30FC 1
 62
   179
420
  2234388
370
    18
100
AcDbVertex
100
AcDb2dVertex
 10
114.4105552387313
 20
-149.5715119729695
 30
0.0
  0
VERTEX
  5
FD
330
EB
100
AcDbEntity
  8
_U+30EC_U+30A4_U+30E4_U+30FC 1
 62
   179
420
  2234388
370
    18
100
AcDbVertex
100
AcDb2dVertex
 10
114.4105552387313
 20
-147.7303668182649
 30
0.0
  0
VERTEX
  5
FE
330
EB
100
AcDbEntity
  8
_U+30EC_U+30A4_U+30E4_U+30FC 1
 62
   179
420
  2234388
370
    18
100
AcDbVertex
100
AcDb2dVertex
 10
107.1041752017667
 20
-147.7303668182649
 30
0.0
  0
VERTEX
  5
FF
330
EB
100
AcDbEntity
  8
_U+30EC_U+30A4_U+30E4_U+30FC 1
 62
   179
420
  2234388
370
    18
100
AcDbVertex
100
AcDb2dVertex
 10
107.1041752017667
 20
-155.1567007736566
 30
0.0
  0
VERTEX
  5
100
330
EB
100
AcDbEntity
  8
_U+30EC_U+30A4_U+30E4_U+30FC 1
 62
   179
420
  2234388
370
    18
100
AcDbVertex
100
AcDb2dVertex
 10
92.0973607998652
 20
-155.1567007736566
 30
0.0
  0
VERTEX
  5
101
330
EB
100
AcDbEntity
  8
_U+30EC_U+30A4_U+30E4_U+30FC 1
 62
   179
420
  2234388
370
    18
100
AcDbVertex
100
AcDb2dVertex
 10
92.0973607998652
 20
-147.7303668182649
 30
0.0
  0
VERTEX
  5
102
330
EB
100
AcDbEntity
  8
_U+30EC_U+30A4_U+30E4_U+30FC 1
 62
   179
420
  2234388
370
    18
100
AcDbVertex
100
AcDb2dVertex
 10
85.01958438019368
 20
-147.7303668182649
 30
0.0
  0
VERTEX
  5
103
330
EB
100
AcDbEntity
  8
_U+30EC_U+30A4_U+30E4_U+30FC 1
 62
   179
420
  2234388
370
    18
100
AcDbVertex
100
AcDb2dVertex
 10
85.01958438019368
 20
-149.5715119729695
 30
0.0
  0
SEQEND
  5
104
330
EB
100
AcDbEntity
  8
_U+30EC_U+30A4_U+30E4_U+30FC 1
 62
   179
420
  2234388
370
    18
  0
SPLINE
  5
105
330
1F
100
AcDbEntity
  8
_U+30EC_U+30A4_U+30E4_U+30FC 1
 62
   179
420
  2234388
370
    18
100
AcDbSpline
210
0.0
220
0.0
230
1.0
 70
    11
 71
     3
 72
    38
 73
    34
 74
     0
 42
0.0000000001
 43
0.0000000001
 12
1.0
 22
0.0
 32
0.0
 13
1.0
 23
0.0
 33
0.0
 40
0.0
 40
0.0
 40
0.0
 40
0.0
 40
1.0
 40
1.0
 40
1.0
 40
2.0
 40
2.0
 40
2.0
 40
3.0
 40
3.0
 40
3.0
 40
4.0
 40
4.0
 40
4.0
 40
5.0
 40
5.0
 40
5.0
 40
6.0
 40
6.0
 40
6.0
 40
7.0
 40
7.0
 40
7.0
 40
8.0
 40
8.0
 40
8.0
 40
9.0
 40
9.0
 40
9.0
 40
10.0
 40
10.0
 40
10.0
 40
11.0
 40
11.0
 40
11.0
 40
11.0
 10
95.16022294102657
 20
-147.4837625770614
 30
0.0
 10
95.16022294102657
 20
-147.4837625770614
 30
0.0
 10
94.3816421272835
 20
-147.4837625770614
 30
0.0
 10
94.3816421272835
 20
-147.4837625770614
 30
0.0
 10
94.3816421272835
 20
-147.4837625770614
 30
0.0
 10
94.3816421272835
 20
-146.358766646353
 30
0.0
 10
94.3816421272835
 20
-146.358766646353
 30
0.0
 10
94.3816421272835
 20
-146.358766646353
 30
0.0
 10
104.8862980898266
 20
-146.358766646353
 30
0.0
 10
104.8862980898266
 20
-146.358766646353
 30
0.0
 10
104.8862980898266
 20
-146.358766646353
 30
0.0
 10
104.8862980898266
 20
-147.7303668182649
 30
0.0
 10
104.8862980898266
 20
-147.7303668182649
 30
0.0
 10
104.8862980898266
 20
-147.7303668182649
 30
0.0
 10
96.42951454294992
 20
-147.7303668182649
 30
0.0
 10
96.42951454294992
 20
-147.7303668182649
 30
0.0
 10
96.42951454294992
 20
-147.7303668182649
 30
0.0
 10
96.42951454294992
 20
-150.0530501944203
 30
0.0
 10
96.42951454294992
 20
-150.0530501944203
 30
0.0
 10
96.42951454294992
 20
-150.0530501944203
 30
0.0
 10
95.83542935836536
 20
-150.1592452627532
 30
0.0
 10
95.44702714017362
 20
-149.8593712326089
 30
0.0
 10
95.05826964650996
 20
-149.5605737948039
 30
0.0
 10
94.96442309230707
 20
-149.1414779290232
 30
0.0
 10
94.96442309230707
 20
-149.1414779290232
 30
0.0
 10
94.96442309230707
 20
-149.1414779290232
 30
0.0
 10
94.90269128758108
 20
-148.5435170120181
 30
0.0
 10
94.90269128758108
 20
-148.5435170120181
 30
0.0
 10
94.90269128758108
 20
-148.5435170120181
 30
0.0
 10
95.16022294102657
 20
-148.5435170120181
 30
0.0
 10
95.16022294102657
 20
-148.5435170120181
 30
0.0
 10
95.16022294102657
 20
-148.5435170120181
 30
0.0
 10
95.16022294102657
 20
-147.4837625770614
 30
0.0
 10
95.16022294102657
 20
-147.4837625770614
 30
0.0
  0
POLYLINE
  5
106
330
1F
100
AcDbEntity
  8
_U+30EC_U+30A4_U+30E4_U+30FC 1
370
     0
100
AcDb2dPolyline
 66
     1
 10
0.0
 20
0.0
 30
0.0
  0
VERTEX
  5
107
330
106
100
AcDbEntity
  8
_U+30EC_U+30A4_U+30E4_U+30FC 1
370
     0
100
AcDbVertex
100
AcDb2dVertex
 10
107.2363269113962
 20
-146.8483362466538
 30
0.0
  0
VERTEX
  5
108
330
106
100
AcDbEntity
  8
_U+30EC_U+30A4_U+30E4_U+30FC 1
370
     0
100
AcDbVertex
100
AcDb2dVertex
 10
103.9216282902631
 20
-146.8483362466538
 30
0.0
  0
VERTEX
  5
109
330
106
100
AcDbEntity
  8
_U+30EC_U+30A4_U+30E4_U+30FC 1
370
     0
100
AcDbVertex
100
AcDb2dVertex
 10
103.9216282902631
 20
-146.3583360094174
 30
0.0
  0
VERTEX
  5
10A
330
106
100
AcDbEntity
  8
_U+30EC_U+30A4_U+30E4_U+30FC 1
370
     0
100
AcDbVertex
100
AcDb2dVertex
 10
107.2363269113962
 20
-146.3583360094174
 30
0.0
  0
VERTEX
  5
10B
330
106
100
AcDbEntity
  8
_U+30EC_U+30A4_U+30E4_U+30FC 1
370
     0
100
AcDbVertex
100
AcDb2dVertex
 10
107.2363269113962
 20
-146.8483362466538
 30
0.0
  0
SEQEND
  5
10D
330
106
100
AcDbEntity
  8
_U+30EC_U+30A4_U+30E4_U+30FC 1
370
     0
  0
HATCH
  5
10C
330
1F
100
AcDbEntity
  8
_U+30EC_U+30A4_U+30E4_U+30FC 1
 62
     7
420
 16711422
100
AcDbHatch
 10
0.0
 20
0.0
 30
0.0
210
0.0
220
0.0
230
1.0
  2
SOLID
 70
     1
 71
     0
 91
        1
 92
        1
 93
        4
 72
     1
 10
107.2363269113962
 20
-146.8483362466538
 11
103.9216282902631
 21
-146.8483362466538
 72
     1
 10
103.9216282902631
 20
-146.8483362466538
 11
103.9216282902631
 21
-146.3583360094174
 72
     1
 10
103.9216282902631
 20
-146.3583360094174
 11
107.2363269113962
 21
-146.3583360094174
 72
     1
 10
107.2363269113962
 20
-146.3583360094174
 11
107.2363269113962
 21
-146.8483362466538
 97
        0
 75
     2
 76
     1
 98
        0
  0
POLYLINE
  5
10E
330
1F
100
AcDbEntity
  8
_U+30EC_U+30A4_U+30E4_U+30FC 1
 62
   179
420
  2234388
370
    18
100
AcDb2dPolyline
 66
     1
 10
0.0
 20
0.0
 30
0.0
  0
VERTEX
  5
10F
330
10E
100
AcDbEntity
  8
_U+30EC_U+30A4_U+30E4_U+30FC 1
 62
   179
420
  2234388
370
    18
100
AcDbVertex
100
AcDb2dVertex
 10
107.2362623158559
 20
-146.848443905888
 30
0.0
  0
VERTEX
  5
110
330
10E
100
AcDbEntity
  8
_U+30EC_U+30A4_U+30E4_U+30FC 1
 62
   179
420
  2234388
370
    18
100
AcDbVertex
100
AcDb2dVertex
 10
103.9215529287993
 20
-146.848443905888
 30
0.0
  0
VERTEX
  5
111
330
10E
100
AcDbEntity
  8
_U+30EC_U+30A4_U+30E4_U+30FC 1
 62
   179
420
  2234388
370
    18
100
AcDbVertex
100
AcDb2dVertex
 10
103.9215529287993
 20
-146.3584436686513
 30
0.0
  0
VERTEX
  5
112
330
10E
100
AcDbEntity
  8
_U+30EC_U+30A4_U+30E4_U+30FC 1
 62
   179
420
  2234388
370
    18
100
AcDbVertex
100
AcDb2dVertex
 10
107.2362623158559
 20
-146.3584436686513
 30
0.0
  0
VERTEX
  5
113
330
10E
100
AcDbEntity
  8
_U+30EC_U+30A4_U+30E4_U+30FC 1
 62
   179
420
  2234388
370
    18
100
AcDbVertex
100
AcDb2dVertex
 10
107.2362623158559
 20
-146.848443905888
 30
0.0
  0
SEQEND
  5
114
330
10E
100
AcDbEntity
  8
_U+30EC_U+30A4_U+30E4_U+30FC 1
 62
   179
420
  2234388
370
    18
  0
SPLINE
  5
115
330
1F
100
AcDbEntity
  8
_U+30EC_U+30A4_U+30E4_U+30FC 1
370
     0
100
AcDbSpline
210
0.0
220
0.0
230
1.0
 70
    11
 71
     3
 72
    17
 73
    13
 74
     0
 42
0.0000000001
 43
0.0000000001
 12
1.0
 22
0.0
 32
0.0
 13
1.0
 23
0.0
 33
0.0
 40
0.0
 40
0.0
 40
0.0
 40
0.0
 40
1.0
 40
1.0
 40
1.0
 40
2.0
 40
2.0
 40
2.0
 40
3.0
 40
3.0
 40
3.0
 40
4.0
 40
4.0
 40
4.0
 40
4.0
 10
115.6850360157294
 20
-139.0255363964502
 30
0.0
 10
115.7954513260316
 20
-139.0255363964502
 30
0.0
 10
115.8847008309464
 20
-138.9359423819869
 30
0.0
 10
115.8847008309464
 20
-138.8255270716847
 30
0.0
 10
115.8847008309464
 20
-138.7151117613824
 30
0.0
 10
115.7954513260316
 20
-138.6251517055238
 30
0.0
 10
115.6850360157294
 20
-138.6251517055238
 30
0.0
 10
115.5746099395037
 20
-138.6251517055238
 30
0.0
 10
115.485360434589
 20
-138.7151117613824
 30
0.0
 10
115.485360434589
 20
-138.8255270716847
 30
0.0
 10
115.485360434589
 20
-138.9359423819869
 30
0.0
 10
115.5746099395037
 20
-139.0255363964502
 30
0.0
 10
115.6850360157294
 20
-139.0255363964502
 30
0.0
  0
HATCH
  5
116
330
1F
100
AcDbEntity
  8
_U+30EC_U+30A4_U+30E4_U+30FC 1
 62
   179
420
  2234388
100
AcDbHatch
 10
0.0
 20
0.0
 30
0.0
210
0.0
220
0.0
230
1.0
  2
SOLID
 70
     1
 71
     0
 91
        1
 92
        1
 93
        2
 72
     4
 94
        3
 73
     0
 74
     0
 95
       17
 96
       13
 40
0.0
 40
0.0
 40
0.0
 40
0.0
 40
0.3527777776895833
 40
0.3527777776895833
 40
0.3527777776895833
 40
0.7055555553791667
 40
0.7055555553791667
 40
0.7055555553791667
 40
1.05833333306875
 40
1.05833333306875
 40
1.05833333306875
 40
1.411111110758333
 40
1.411111110758333
 40
1.411111110758333
 40
1.411111110758333
 10
115.6850360157294
 20
-139.0255363964502
 10
115.7954513260316
 20
-139.0255363964502
 10
115.8847008309464
 20
-138.9359423819869
 10
115.8847008309464
 20
-138.8255270716847
 10
115.8847008309464
 20
-138.7151117613824
 10
115.7954513260316
 20
-138.6251517055238
 10
115.6850360157294
 20
-138.6251517055238
 10
115.5746099395037
 20
-138.6251517055238
 10
115.485360434589
 20
-138.7151117613824
 10
115.485360434589
 20
-138.8255270716847
 10
115.485360434589
 20
-138.9359423819869
 10
115.5746099395037
 20
-139.0255363964502
 10
115.6850360157294
 20
-139.0255363964502
 97
        0
 72
     1
 10
115.6850360157294
 20
-139.0255363964502
 11
115.6850360157294
 21
-139.0255363964502
 97
        0
 75
     2
 76
     1
 98
        0
  0
SPLINE
  5
117
330
1F
100
AcDbEntity
  8
_U+30EC_U+30A4_U+30E4_U+30FC 1
370
     0
100
AcDbSpline
210
0.0
220
0.0
230
1.0
 70
    11
 71
     3
 72
    17
 73
    13
 74
     0
 42
0.0000000001
 43
0.0000000001
 12
1.0
 22
0.0
 32
0.0
 13
1.0
 23
0.0
 33
0.0
 40
0.0
 40
0.0
 40
0.0
 40
0.0
 40
1.0
 40
1.0
 40
1.0
 40
2.0
 40
2.0
 40
2.0
 40
3.0
 40
3.0
 40
3.0
 40
4.0
 40
4.0
 40
4.0
 40
4.0
 10
105.7011815972455
 20
-142.0590936941402
 30
0.0
 10
105.8115969075478
 20
-142.0590936941402
 30
0.0
 10
105.9008464124625
 20
-141.9694996796772
 30
0.0
 10
105.9008464124625
 20
-141.859084369375
 30
0.0
 10
105.9008464124625
 20
-141.7486690590727
 30
0.0
 10
105.8115969075478
 20
-141.6587090032138
 30
0.0
 10
105.7011815972455
 20
-141.6587090032138
 30
0.0
 10
105.5907555210198
 20
-141.6587090032138
 30
0.0
 10
105.5015060161051
 20
-141.7486690590727
 30
0.0
 10
105.5015060161051
 20
-141.859084369375
 30
0.0
 10
105.5015060161051
 20
-141.9694996796772
 30
0.0
 10
105.5907555210198
 20
-142.0590936941402
 30
0.0
 10
105.7011815972455
 20
-142.0590936941402
 30
0.0
  0
HATCH
  5
118
330
1F
100
AcDbEntity
  8
_U+30EC_U+30A4_U+30E4_U+30FC 1
 62
   179
420
  2234388
100
AcDbHatch
 10
0.0
 20
0.0
 30
0.0
210
0.0
220
0.0
230
1.0
  2
SOLID
 70
     1
 71
     0
 91
        1
 92
        1
 93
        2
 72
     4
 94
        3
 73
     0
 74
     0
 95
       17
 96
       13
 40
0.0
 40
0.0
 40
0.0
 40
0.0
 40
0.3527777776895833
 40
0.3527777776895833
 40
0.3527777776895833
 40
0.7055555553791667
 40
0.7055555553791667
 40
0.7055555553791667
 40
1.05833333306875
 40
1.05833333306875
 40
1.05833333306875
 40
1.411111110758333
 40
1.411111110758333
 40
1.411111110758333
 40
1.411111110758333
 10
105.7011815972455
 20
-142.0590936941402
 10
105.8115969075478
 20
-142.0590936941402
 10
105.9008464124625
 20
-141.9694996796772
 10
105.9008464124625
 20
-141.859084369375
 10
105.9008464124625
 20
-141.7486690590727
 10
105.8115969075478
 20
-141.6587090032138
 10
105.7011815972455
 20
-141.6587090032138
 10
105.5907555210198
 20
-141.6587090032138
 10
105.5015060161051
 20
-141.7486690590727
 10
105.5015060161051
 20
-141.859084369375
 10
105.5015060161051
 20
-141.9694996796772
 10
105.5907555210198
 20
-142.0590936941402
 10
105.7011815972455
 20
-142.0590936941402
 97
        0
 72
     1
 10
105.7011815972455
 20
-142.0590936941402
 11
105.7011815972455
 21
-142.0590936941402
 97
        0
 75
     2
 76
     1
 98
        0
  0
SPLINE
  5
119
330
1F
100
AcDbEntity
  8
_U+30EC_U+30A4_U+30E4_U+30FC 1
370
     0
100
AcDbSpline
210
0.0
220
0.0
230
1.0
 70
    11
 71
     3
 72
    17
 73
    13
 74
     0
 42
0.0000000001
 43
0.0000000001
 12
1.0
 22
0.0
 32
0.0
 13
1.0
 23
0.0
 33
0.0
 40
0.0
 40
0.0
 40
0.0
 40
0.0
 40
1.0
 40
1.0
 40
1.0
 40
2.0
 40
2.0
 40
2.0
 40
3.0
 40
3.0
 40
3.0
 40
4.0
 40
4.0
 40
4.0
 40
4.0
 10
121.6850466106106
 20
-146.5587759711186
 30
0.0
 10
121.7954619209129
 20
-146.5587759711186
 30
0.0
 10
121.8847114258277
 20
-146.4691819566553
 30
0.0
 10
121.8847114258277
 20
-146.358766646353
 30
0.0
 10
121.8847114258277
 20
-146.2483513360508
 30
0.0
 10
121.7954619209129
 20
-146.1583912801925
 30
0.0
 10
121.6850466106106
 20
-146.1583912801925
 30
0.0
 10
121.574620534385
 20
-146.1583912801925
 30
0.0
 10
121.4853710294702
 20
-146.2483513360508
 30
0.0
 10
121.4853710294702
 20
-146.358766646353
 30
0.0
 10
121.4853710294702
 20
-146.4691819566553
 30
0.0
 10
121.574620534385
 20
-146.5587759711186
 30
0.0
 10
121.6850466106106
 20
-146.5587759711186
 30
0.0
  0
HATCH
  5
11A
330
1F
100
AcDbEntity
  8
_U+30EC_U+30A4_U+30E4_U+30FC 1
 62
   179
420
  2234388
100
AcDbHatch
 10
0.0
 20
0.0
 30
0.0
210
0.0
220
0.0
230
1.0
  2
SOLID
 70
     1
 71
     0
 91
        1
 92
        1
 93
        2
 72
     4
 94
        3
 73
     0
 74
     0
 95
       17
 96
       13
 40
0.0
 40
0.0
 40
0.0
 40
0.0
 40
0.3527777776895833
 40
0.3527777776895833
 40
0.3527777776895833
 40
0.7055555553791667
 40
0.7055555553791667
 40
0.7055555553791667
 40
1.05833333306875
 40
1.05833333306875
 40
1.05833333306875
 40
1.411111110758333
 40
1.411111110758333
 40
1.411111110758333
 40
1.411111110758333
 10
121.6850466106106
 20
-146.5587759711186
 10
121.7954619209129
 20
-146.5587759711186
 10
121.8847114258277
 20
-146.4691819566553
 10
121.8847114258277
 20
-146.358766646353
 10
121.8847114258277
 20
-146.2483513360508
 10
121.7954619209129
 20
-146.1583912801925
 10
121.6850466106106
 20
-146.1583912801925
 10
121.574620534385
 20
-146.1583912801925
 10
121.4853710294702
 20
-146.2483513360508
 10
121.4853710294702
 20
-146.358766646353
 10
121.4853710294702
 20
-146.4691819566553
 10
121.574620534385
 20
-146.5587759711186
 10
121.6850466106106
 20
-146.5587759711186
 97
        0
 72
     1
 10
121.6850466106106
 20
-146.5587759711186
 11
121.6850466106106
 21
-146.5587759711186
 97
        0
 75
     2
 76
     1
 98
        0
  0
SPLINE
  5
11B
330
1F
100
AcDbEntity
  8
_U+30EC_U+30A4_U+30E4_U+30FC 1
370
     0
100
AcDbSpline
210
0.0
220
0.0
230
1.0
 70
    11
 71
     3
 72
    17
 73
    13
 74
     0
 42
0.0000000001
 43
0.0000000001
 12
1.0
 22
0.0
 32
0.0
 13
1.0
 23
0.0
 33
0.0
 40
0.0
 40
0.0
 40
0.0
 40
0.0
 40
1.0
 40
1.0
 40
1.0
 40
2.0
 40
2.0
 40
2.0
 40
3.0
 40
3.0
 40
3.0
 40
4.0
 40
4.0
 40
4.0
 40
4.0
 10
121.6850466106106
 20
-149.7426686230461
 30
0.0
 10
121.7954619209129
 20
-149.7426686230461
 30
0.0
 10
121.8847114258277
 20
-149.6530746085828
 30
0.0
 10
121.8847114258277
 20
-149.5426592982806
 30
0.0
 10
121.8847114258277
 20
-149.4322439879783
 30
0.0
 10
121.7954619209129
 20
-149.3422839321197
 30
0.0
 10
121.6850466106106
 20
-149.3422839321197
 30
0.0
 10
121.574620534385
 20
-149.3422839321197
 30
0.0
 10
121.4853710294702
 20
-149.4322439879783
 30
0.0
 10
121.4853710294702
 20
-149.5426592982806
 30
0.0
 10
121.4853710294702
 20
-149.6530746085828
 30
0.0
 10
121.574620534385
 20
-149.7426686230461
 30
0.0
 10
121.6850466106106
 20
-149.7426686230461
 30
0.0
  0
HATCH
  5
11C
330
1F
100
AcDbEntity
  8
_U+30EC_U+30A4_U+30E4_U+30FC 1
 62
   179
420
  2234388
100
AcDbHatch
 10
0.0
 20
0.0
 30
0.0
210
0.0
220
0.0
230
1.0
  2
SOLID
 70
     1
 71
     0
 91
        1
 92
        1
 93
        2
 72
     4
 94
        3
 73
     0
 74
     0
 95
       17
 96
       13
 40
0.0
 40
0.0
 40
0.0
 40
0.0
 40
0.3527777776895833
 40
0.3527777776895833
 40
0.3527777776895833
 40
0.7055555553791667
 40
0.7055555553791667
 40
0.7055555553791667
 40
1.05833333306875
 40
1.05833333306875
 40
1.05833333306875
 40
1.411111110758333
 40
1.411111110758333
 40
1.411111110758333
 40
1.411111110758333
 10
121.6850466106106
 20
-149.7426686230461
 10
121.7954619209129
 20
-149.7426686230461
 10
121.8847114258277
 20
-149.6530746085828
 10
121.8847114258277
 20
-149.5426592982806
 10
121.8847114258277
 20
-149.4322439879783
 10
121.7954619209129
 20
-149.3422839321197
 10
121.6850466106106
 20
-149.3422839321197
 10
121.574620534385
 20
-149.3422839321197
 10
121.4853710294702
 20
-149.4322439879783
 10
121.4853710294702
 20
-149.5426592982806
 10
121.4853710294702
 20
-149.6530746085828
 10
121.574620534385
 20
-149.7426686230461
 10
121.6850466106106
 20
-149.7426686230461
 97
        0
 72
     1
 10
121.6850466106106
 20
-149.7426686230461
 11
121.6850466106106
 21
-149.7426686230461
 97
        0
 75
     2
 76
     1
 98
        0
  0
SPLINE
  5
11D
330
1F
100
AcDbEntity
  8
_U+30EC_U+30A4_U+30E4_U+30FC 1
370
     0
100
AcDbSpline
210
0.0
220
0.0
230
1.0
 70
    11
 71
     3
 72
    17
 73
    13
 74
     0
 42
0.0000000001
 43
0.0000000001
 12
1.0
 22
0.0
 32
0.0
 13
1.0
 23
0.0
 33
0.0
 40
0.0
 40
0.0
 40
0.0
 40
0.0
 40
1.0
 40
1.0
 40
1.0
 40
2.0
 40
2.0
 40
2.0
 40
3.0
 40
3.0
 40
3.0
 40
4.0
 40
4.0
 40
4.0
 40
4.0
 10
121.6850466106106
 20
-155.2608933802386
 30
0.0
 10
121.7954619209129
 20
-155.2608933802386
 30
0.0
 10
121.8847114258277
 20
-155.1712993657753
 30
0.0
 10
121.8847114258277
 20
-155.0608840554731
 30
0.0
 10
121.8847114258277
 20
-154.9504687451708
 30
0.0
 10
121.7954619209129
 20
-154.8605086893122
 30
0.0
 10
121.6850466106106
 20
-154.8605086893122
 30
0.0
 10
121.574620534385
 20
-154.8605086893122
 30
0.0
 10
121.4853710294702
 20
-154.9504687451708
 30
0.0
 10
121.4853710294702
 20
-155.0608840554731
 30
0.0
 10
121.4853710294702
 20
-155.1712993657753
 30
0.0
 10
121.574620534385
 20
-155.2608933802386
 30
0.0
 10
121.6850466106106
 20
-155.2608933802386
 30
0.0
  0
HATCH
  5
11E
330
1F
100
AcDbEntity
  8
_U+30EC_U+30A4_U+30E4_U+30FC 1
 62
   179
420
  2234388
100
AcDbHatch
 10
0.0
 20
0.0
 30
0.0
210
0.0
220
0.0
230
1.0
  2
SOLID
 70
     1
 71
     0
 91
        1
 92
        1
 93
        2
 72
     4
 94
        3
 73
     0
 74
     0
 95
       17
 96
       13
 40
0.0
 40
0.0
 40
0.0
 40
0.0
 40
0.3527777776895833
 40
0.3527777776895833
 40
0.3527777776895833
 40
0.7055555553791667
 40
0.7055555553791667
 40
0.7055555553791667
 40
1.05833333306875
 40
1.05833333306875
 40
1.05833333306875
 40
1.411111110758333
 40
1.411111110758333
 40
1.411111110758333
 40
1.411111110758333
 10
121.6850466106106
 20
-155.2608933802386
 10
121.7954619209129
 20
-155.2608933802386
 10
121.8847114258277
 20
-155.1712993657753
 10
121.8847114258277
 20
-155.0608840554731
 10
121.8847114258277
 20
-154.9504687451708
 10
121.7954619209129
 20
-154.8605086893122
 10
121.6850466106106
 20
-154.8605086893122
 10
121.574620534385
 20
-154.8605086893122
 10
121.4853710294702
 20
-154.9504687451708
 10
121.4853710294702
 20
-155.0608840554731
 10
121.4853710294702
 20
-155.1712993657753
 10
121.574620534385
 20
-155.2608933802386
 10
121.6850466106106
 20
-155.2608933802386
 97
        0
 72
     1
 10
121.6850466106106
 20
-155.2608933802386
 11
121.6850466106106
 21
-155.2608933802386
 97
        0
 75
     2
 76
     1
 98
        0
  0
SPLINE
  5
11F
330
1F
100
AcDbEntity
  8
_U+30EC_U+30A4_U+30E4_U+30FC 1
370
     0
100
AcDbSpline
210
0.0
220
0.0
230
1.0
 70
    11
 71
     3
 72
    17
 73
    13
 74
     0
 42
0.0000000001
 43
0.0000000001
 12
1.0
 22
0.0
 32
0.0
 13
1.0
 23
0.0
 33
0.0
 40
0.0
 40
0.0
 40
0.0
 40
0.0
 40
1.0
 40
1.0
 40
1.0
 40
2.0
 40
2.0
 40
2.0
 40
3.0
 40
3.0
 40
3.0
 40
4.0
 40
4.0
 40
4.0
 40
4.0
 10
126.684536881035
 20
-155.2608933802386
 30
0.0
 10
126.7949521913373
 20
-155.2608933802386
 30
0.0
 10
126.884201696252
 20
-155.1712993657753
 30
0.0
 10
126.884201696252
 20
-155.0608840554731
 30
0.0
 10
126.884201696252
 20
-154.9504687451708
 30
0.0
 10
126.7949521913373
 20
-154.8605086893122
 30
0.0
 10
126.684536881035
 20
-154.8605086893122
 30
0.0
 10
126.574100038886
 20
-154.8605086893122
 30
0.0
 10
126.4848505339712
 20
-154.9504687451708
 30
0.0
 10
126.4848505339712
 20
-155.0608840554731
 30
0.0
 10
126.4848505339712
 20
-155.1712993657753
 30
0.0
 10
126.574100038886
 20
-155.2608933802386
 30
0.0
 10
126.684536881035
 20
-155.2608933802386
 30
0.0
  0
HATCH
  5
120
330
1F
100
AcDbEntity
  8
_U+30EC_U+30A4_U+30E4_U+30FC 1
 62
   179
420
  2234388
100
AcDbHatch
 10
0.0
 20
0.0
 30
0.0
210
0.0
220
0.0
230
1.0
  2
SOLID
 70
     1
 71
     0
 91
        1
 92
        1
 93
        2
 72
     4
 94
        3
 73
     0
 74
     0
 95
       17
 96
       13
 40
0.0
 40
0.0
 40
0.0
 40
0.0
 40
0.3527777776895833
 40
0.3527777776895833
 40
0.3527777776895833
 40
0.7055555553791667
 40
0.7055555553791667
 40
0.7055555553791667
 40
1.05833333306875
 40
1.05833333306875
 40
1.05833333306875
 40
1.411111110758333
 40
1.411111110758333
 40
1.411111110758333
 40
1.411111110758333
 10
126.684536881035
 20
-155.2608933802386
 10
126.7949521913373
 20
-155.2608933802386
 10
126.884201696252
 20
-155.1712993657753
 10
126.884201696252
 20
-155.0608840554731
 10
126.884201696252
 20
-154.9504687451708
 10
126.7949521913373
 20
-154.8605086893122
 10
126.684536881035
 20
-154.8605086893122
 10
126.574100038886
 20
-154.8605086893122
 10
126.4848505339712
 20
-154.9504687451708
 10
126.4848505339712
 20
-155.0608840554731
 10
126.4848505339712
 20
-155.1712993657753
 10
126.574100038886
 20
-155.2608933802386
 10
126.684536881035
 20
-155.2608933802386
 97
        0
 72
     1
 10
126.684536881035
 20
-155.2608933802386
 11
126.684536881035
 21
-155.2608933802386
 97
        0
 75
     2
 76
     1
 98
        0
  0
SPLINE
  5
121
330
1F
100
AcDbEntity
  8
_U+30EC_U+30A4_U+30E4_U+30FC 1
370
     0
100
AcDbSpline
210
0.0
220
0.0
230
1.0
 70
    11
 71
     3
 72
    17
 73
    13
 74
     0
 42
0.0000000001
 43
0.0000000001
 12
1.0
 22
0.0
 32
0.0
 13
1.0
 23
0.0
 33
0.0
 40
0.0
 40
0.0
 40
0.0
 40
0.0
 40
1.0
 40
1.0
 40
1.0
 40
2.0
 40
2.0
 40
2.0
 40
3.0
 40
3.0
 40
3.0
 40
4.0
 40
4.0
 40
4.0
 40
4.0
 10
115.6823230030347
 20
-158.3559456323403
 30
0.0
 10
115.792738313337
 20
-158.3559456323403
 30
0.0
 10
115.8819878182517
 20
-158.266351617877
 30
0.0
 10
115.8819878182517
 20
-158.1559363075747
 30
0.0
 10
115.8819878182517
 20
-158.0455209972725
 30
0.0
 10
115.792738313337
 20
-157.9555609414139
 30
0.0
 10
115.6823230030347
 20
-157.9555609414139
 30
0.0
 10
115.5718969268091
 20
-157.9555609414139
 30
0.0
 10
115.4826474218943
 20
-158.0455209972725
 30
0.0
 10
115.4826474218943
 20
-158.1559363075747
 30
0.0
 10
115.4826474218943
 20
-158.266351617877
 30
0.0
 10
115.5718969268091
 20
-158.3559456323403
 30
0.0
 10
115.6823230030347
 20
-158.3559456323403
 30
0.0
  0
HATCH
  5
122
330
1F
100
AcDbEntity
  8
_U+30EC_U+30A4_U+30E4_U+30FC 1
 62
   179
420
  2234388
100
AcDbHatch
 10
0.0
 20
0.0
 30
0.0
210
0.0
220
0.0
230
1.0
  2
SOLID
 70
     1
 71
     0
 91
        1
 92
        1
 93
        2
 72
     4
 94
        3
 73
     0
 74
     0
 95
       17
 96
       13
 40
0.0
 40
0.0
 40
0.0
 40
0.0
 40
0.3527777776895833
 40
0.3527777776895833
 40
0.3527777776895833
 40
0.7055555553791667
 40
0.7055555553791667
 40
0.7055555553791667
 40
1.05833333306875
 40
1.05833333306875
 40
1.05833333306875
 40
1.411111110758333
 40
1.411111110758333
 40
1.411111110758333
 40
1.411111110758333
 10
115.6823230030347
 20
-158.3559456323403
 10
115.792738313337
 20
-158.3559456323403
 10
115.8819878182517
 20
-158.266351617877
 10
115.8819878182517
 20
-158.1559363075747
 10
115.8819878182517
 20
-158.0455209972725
 10
115.792738313337
 20
-157.9555609414139
 10
115.6823230030347
 20
-157.9555609414139
 10
115.5718969268091
 20
-157.9555609414139
 10
115.4826474218943
 20
-158.0455209972725
 10
115.4826474218943
 20
-158.1559363075747
 10
115.4826474218943
 20
-158.266351617877
 10
115.5718969268091
 20
-158.3559456323403
 10
115.6823230030347
 20
-158.3559456323403
 97
        0
 72
     1
 10
115.6823230030347
 20
-158.3559456323403
 11
115.6823230030347
 21
-158.3559456323403
 97
        0
 75
     2
 76
     1
 98
        0
  0
SPLINE
  5
123
330
1F
100
AcDbEntity
  8
_U+30EC_U+30A4_U+30E4_U+30FC 1
370
     0
100
AcDbSpline
210
0.0
220
0.0
230
1.0
 70
    11
 71
     3
 72
    17
 73
    13
 74
     0
 42
0.0000000001
 43
0.0000000001
 12
1.0
 22
0.0
 32
0.0
 13
1.0
 23
0.0
 33
0.0
 40
0.0
 40
0.0
 40
0.0
 40
0.0
 40
1.0
 40
1.0
 40
1.0
 40
2.0
 40
2.0
 40
2.0
 40
3.0
 40
3.0
 40
3.0
 40
4.0
 40
4.0
 40
4.0
 40
4.0
 10
107.1039706492223
 20
-158.3559456323403
 30
0.0
 10
107.2143859595245
 20
-158.3559456323403
 30
0.0
 10
107.3036354644393
 20
-158.266351617877
 30
0.0
 10
107.3036354644393
 20
-158.1559363075747
 30
0.0
 10
107.3036354644393
 20
-158.0455209972725
 30
0.0
 10
107.2143859595245
 20
-157.9555609414139
 30
0.0
 10
107.1039706492223
 20
-157.9555609414139
 30
0.0
 10
106.9935445729966
 20
-157.9555609414139
 30
0.0
 10
106.9042950680819
 20
-158.0455209972725
 30
0.0
 10
106.9042950680819
 20
-158.1559363075747
 30
0.0
 10
106.9042950680819
 20
-158.266351617877
 30
0.0
 10
106.9935445729966
 20
-158.3559456323403
 30
0.0
 10
107.1039706492223
 20
-158.3559456323403
 30
0.0
  0
HATCH
  5
124
330
1F
100
AcDbEntity
  8
_U+30EC_U+30A4_U+30E4_U+30FC 1
 62
   179
420
  2234388
100
AcDbHatch
 10
0.0
 20
0.0
 30
0.0
210
0.0
220
0.0
230
1.0
  2
SOLID
 70
     1
 71
     0
 91
        1
 92
        1
 93
        2
 72
     4
 94
        3
 73
     0
 74
     0
 95
       17
 96
       13
 40
0.0
 40
0.0
 40
0.0
 40
0.0
 40
0.3527777776895833
 40
0.3527777776895833
 40
0.3527777776895833
 40
0.7055555553791667
 40
0.7055555553791667
 40
0.7055555553791667
 40
1.05833333306875
 40
1.05833333306875
 40
1.05833333306875
 40
1.411111110758333
 40
1.411111110758333
 40
1.411111110758333
 40
1.411111110758333
 10
107.1039706492223
 20
-158.3559456323403
 10
107.2143859595245
 20
-158.3559456323403
 10
107.3036354644393
 20
-158.266351617877
 10
107.3036354644393
 20
-158.1559363075747
 10
107.3036354644393
 20
-158.0455209972725
 10
107.2143859595245
 20
-157.9555609414139
 10
107.1039706492223
 20
-157.9555609414139
 10
106.9935445729966
 20
-157.9555609414139
 10
106.9042950680819
 20
-158.0455209972725
 10
106.9042950680819
 20
-158.1559363075747
 10
106.9042950680819
 20
-158.266351617877
 10
106.9935445729966
 20
-158.3559456323403
 10
107.1039706492223
 20
-158.3559456323403
 97
        0
 72
     1
 10
107.1039706492223
 20
-158.3559456323403
 11
107.1039706492223
 21
-158.3559456323403
 97
        0
 75
     2
 76
     1
 98
        0
  0
SPLINE
  5
125
330
1F
100
AcDbEntity
  8
_U+30EC_U+30A4_U+30E4_U+30FC 1
370
     0
100
AcDbSpline
210
0.0
220
0.0
230
1.0
 70
    11
 71
     3
 72
    17
 73
    13
 74
     0
 42
0.0000000001
 43
0.0000000001
 12
1.0
 22
0.0
 32
0.0
 13
1.0
 23
0.0
 33
0.0
 40
0.0
 40
0.0
 40
0.0
 40
0.0
 40
1.0
 40
1.0
 40
1.0
 40
2.0
 40
2.0
 40
2.0
 40
3.0
 40
3.0
 40
3.0
 40
4.0
 40
4.0
 40
4.0
 40
4.0
 10
92.18432792902098
 20
-158.3559456323403
 30
0.0
 10
92.29474323932324
 20
-158.3559456323403
 30
0.0
 10
92.38399274423799
 20
-158.266351617877
 30
0.0
 10
92.38399274423799
 20
-158.1559363075747
 30
0.0
 10
92.38399274423799
 20
-158.0455209972725
 30
0.0
 10
92.29474323932324
 20
-157.9555609414139
 30
0.0
 10
92.18432792902098
 20
-157.9555609414139
 30
0.0
 10
92.07390185279533
 20
-157.9555609414139
 30
0.0
 10
91.98465234788058
 20
-158.0455209972725
 30
0.0
 10
91.98465234788058
 20
-158.1559363075747
 30
0.0
 10
91.98465234788058
 20
-158.266351617877
 30
0.0
 10
92.07390185279533
 20
-158.3559456323403
 30
0.0
 10
92.18432792902098
 20
-158.3559456323403
 30
0.0
  0
HATCH
  5
126
330
1F
100
AcDbEntity
  8
_U+30EC_U+30A4_U+30E4_U+30FC 1
 62
   179
420
  2234388
100
AcDbHatch
 10
0.0
 20
0.0
 30
0.0
210
0.0
220
0.0
230
1.0
  2
SOLID
 70
     1
 71
     0
 91
        1
 92
        1
 93
        2
 72
     4
 94
        3
 73
     0
 74
     0
 95
       17
 96
       13
 40
0.0
 40
0.0
 40
0.0
 40
0.0
 40
0.3527777776895833
 40
0.3527777776895833
 40
0.3527777776895833
 40
0.7055555553791667
 40
0.7055555553791667
 40
0.7055555553791667
 40
1.05833333306875
 40
1.05833333306875
 40
1.05833333306875
 40
1.411111110758333
 40
1.411111110758333
 40
1.411111110758333
 40
1.411111110758333
 10
92.18432792902098
 20
-158.3559456323403
 10
92.29474323932324
 20
-158.3559456323403
 10
92.38399274423799
 20
-158.266351617877
 10
92.38399274423799
 20
-158.1559363075747
 10
92.38399274423799
 20
-158.0455209972725
 10
92.29474323932324
 20
-157.9555609414139
 10
92.18432792902098
 20
-157.9555609414139
 10
92.07390185279533
 20
-157.9555609414139
 10
91.98465234788058
 20
-158.0455209972725
 10
91.98465234788058
 20
-158.1559363075747
 10
91.98465234788058
 20
-158.266351617877
 10
92.07390185279533
 20
-158.3559456323403
 10
92.18432792902098
 20
-158.3559456323403
 97
        0
 72
     1
 10
92.18432792902098
 20
-158.3559456323403
 11
92.18432792902098
 21
-158.3559456323403
 97
        0
 75
     2
 76
     1
 98
        0
  0
SPLINE
  5
127
330
1F
100
AcDbEntity
  8
_U+30EC_U+30A4_U+30E4_U+30FC 1
370
     0
100
AcDbSpline
210
0.0
220
0.0
230
1.0
 70
    11
 71
     3
 72
    17
 73
    13
 74
     0
 42
0.0000000001
 43
0.0000000001
 12
1.0
 22
0.0
 32
0.0
 13
1.0
 23
0.0
 33
0.0
 40
0.0
 40
0.0
 40
0.0
 40
0.0
 40
1.0
 40
1.0
 40
1.0
 40
2.0
 40
2.0
 40
2.0
 40
3.0
 40
3.0
 40
3.0
 40
4.0
 40
4.0
 40
4.0
 40
4.0
 10
83.68421154049388
 20
-158.3559456323403
 30
0.0
 10
83.79462685079613
 20
-158.3559456323403
 30
0.0
 10
83.8838763557109
 20
-158.266351617877
 30
0.0
 10
83.8838763557109
 20
-158.1559363075747
 30
0.0
 10
83.8838763557109
 20
-158.0455209972725
 30
0.0
 10
83.79462685079613
 20
-157.9555609414139
 30
0.0
 10
83.68421154049388
 20
-157.9555609414139
 30
0.0
 10
83.57378546426823
 20
-157.9555609414139
 30
0.0
 10
83.48453595935348
 20
-158.0455209972725
 30
0.0
 10
83.48453595935348
 20
-158.1559363075747
 30
0.0
 10
83.48453595935348
 20
-158.266351617877
 30
0.0
 10
83.57378546426823
 20
-158.3559456323403
 30
0.0
 10
83.68421154049388
 20
-158.3559456323403
 30
0.0
  0
HATCH
  5
128
330
1F
100
AcDbEntity
  8
_U+30EC_U+30A4_U+30E4_U+30FC 1
 62
   179
420
  2234388
100
AcDbHatch
 10
0.0
 20
0.0
 30
0.0
210
0.0
220
0.0
230
1.0
  2
SOLID
 70
     1
 71
     0
 91
        1
 92
        1
 93
        2
 72
     4
 94
        3
 73
     0
 74
     0
 95
       17
 96
       13
 40
0.0
 40
0.0
 40
0.0
 40
0.0
 40
0.3527777776895833
 40
0.3527777776895833
 40
0.3527777776895833
 40
0.7055555553791667
 40
0.7055555553791667
 40
0.7055555553791667
 40
1.05833333306875
 40
1.05833333306875
 40
1.05833333306875
 40
1.411111110758333
 40
1.411111110758333
 40
1.411111110758333
 40
1.411111110758333
 10
83.68421154049388
 20
-158.3559456323403
 10
83.79462685079613
 20
-158.3559456323403
 10
83.8838763557109
 20
-158.266351617877
 10
83.8838763557109
 20
-158.1559363075747
 10
83.8838763557109
 20
-158.0455209972725
 10
83.79462685079613
 20
-157.9555609414139
 10
83.68421154049388
 20
-157.9555609414139
 10
83.57378546426823
 20
-157.9555609414139
 10
83.48453595935348
 20
-158.0455209972725
 10
83.48453595935348
 20
-158.1559363075747
 10
83.48453595935348
 20
-158.266351617877
 10
83.57378546426823
 20
-158.3559456323403
 10
83.68421154049388
 20
-158.3559456323403
 97
        0
 72
     1
 10
83.68421154049388
 20
-158.3559456323403
 11
83.68421154049388
 21
-158.3559456323403
 97
        0
 75
     2
 76
     1
 98
        0
  0
SPLINE
  5
129
330
1F
100
AcDbEntity
  8
_U+30EC_U+30A4_U+30E4_U+30FC 1
370
     0
100
AcDbSpline
210
0.0
220
0.0
230
1.0
 70
    11
 71
     3
 72
    17
 73
    13
 74
     0
 42
0.0000000001
 43
0.0000000001
 12
1.0
 22
0.0
 32
0.0
 13
1.0
 23
0.0
 33
0.0
 40
0.0
 40
0.0
 40
0.0
 40
0.0
 40
1.0
 40
1.0
 40
1.0
 40
2.0
 40
2.0
 40
2.0
 40
3.0
 40
3.0
 40
3.0
 40
4.0
 40
4.0
 40
4.0
 40
4.0
 10
126.684536881035
 20
-146.5587759711186
 30
0.0
 10
126.7949521913373
 20
-146.5587759711186
 30
0.0
 10
126.884201696252
 20
-146.4691819566553
 30
0.0
 10
126.884201696252
 20
-146.358766646353
 30
0.0
 10
126.884201696252
 20
-146.2483513360508
 30
0.0
 10
126.7949521913373
 20
-146.1583912801925
 30
0.0
 10
126.684536881035
 20
-146.1583912801925
 30
0.0
 10
126.574100038886
 20
-146.1583912801925
 30
0.0
 10
126.4848505339712
 20
-146.2483513360508
 30
0.0
 10
126.4848505339712
 20
-146.358766646353
 30
0.0
 10
126.4848505339712
 20
-146.4691819566553
 30
0.0
 10
126.574100038886
 20
-146.5587759711186
 30
0.0
 10
126.684536881035
 20
-146.5587759711186
 30
0.0
  0
HATCH
  5
12A
330
1F
100
AcDbEntity
  8
_U+30EC_U+30A4_U+30E4_U+30FC 1
 62
   179
420
  2234388
100
AcDbHatch
 10
0.0
 20
0.0
 30
0.0
210
0.0
220
0.0
230
1.0
  2
SOLID
 70
     1
 71
     0
 91
        1
 92
        1
 93
        2
 72
     4
 94
        3
 73
     0
 74
     0
 95
       17
 96
       13
 40
0.0
 40
0.0
 40
0.0
 40
0.0
 40
0.3527777776895833
 40
0.3527777776895833
 40
0.3527777776895833
 40
0.7055555553791667
 40
0.7055555553791667
 40
0.7055555553791667
 40
1.05833333306875
 40
1.05833333306875
 40
1.05833333306875
 40
1.411111110758333
 40
1.411111110758333
 40
1.411111110758333
 40
1.411111110758333
 10
126.684536881035
 20
-146.5587759711186
 10
126.7949521913373
 20
-146.5587759711186
 10
126.884201696252
 20
-146.4691819566553
 10
126.884201696252
 20
-146.358766646353
 10
126.884201696252
 20
-146.2483513360508
 10
126.7949521913373
 20
-146.1583912801925
 10
126.684536881035
 20
-146.1583912801925
 10
126.574100038886
 20
-146.1583912801925
 10
126.4848505339712
 20
-146.2483513360508
 10
126.4848505339712
 20
-146.358766646353
 10
126.4848505339712
 20
-146.4691819566553
 10
126.574100038886
 20
-146.5587759711186
 10
126.684536881035
 20
-146.5587759711186
 97
        0
 72
     1
 10
126.684536881035
 20
-146.5587759711186
 11
126.684536881035
 21
-146.5587759711186
 97
        0
 75
     2
 76
     1
 98
        0
  0
SPLINE
  5
12B
330
1F
100
AcDbEntity
  8
_U+30EC_U+30A4_U+30E4_U+30FC 1
370
     0
100
AcDbSpline
210
0.0
220
0.0
230
1.0
 70
    11
 71
     3
 72
    17
 73
    13
 74
     0
 42
0.0000000001
 43
0.0000000001
 12
1.0
 22
0.0
 32
0.0
 13
1.0
 23
0.0
 33
0.0
 40
0.0
 40
0.0
 40
0.0
 40
0.0
 40
1.0
 40
1.0
 40
1.0
 40
2.0
 40
2.0
 40
2.0
 40
3.0
 40
3.0
 40
3.0
 40
4.0
 40
4.0
 40
4.0
 40
4.0
 10
93.68433326922248
 20
-142.0590936941402
 30
0.0
 10
93.79474857952472
 20
-142.0590936941402
 30
0.0
 10
93.88399808443916
 20
-141.9694996796772
 30
0.0
 10
93.88399808443916
 20
-141.859084369375
 30
0.0
 10
93.88399808443916
 20
-141.7486690590727
 30
0.0
 10
93.79474857952472
 20
-141.6587090032138
 30
0.0
 10
93.68433326922248
 20
-141.6587090032138
 30
0.0
 10
93.5739071929965
 20
-141.6587090032138
 30
0.0
 10
93.48465768808175
 20
-141.7486690590727
 30
0.0
 10
93.48465768808175
 20
-141.859084369375
 30
0.0
 10
93.48465768808175
 20
-141.9694996796772
 30
0.0
 10
93.5739071929965
 20
-142.0590936941402
 30
0.0
 10
93.68433326922248
 20
-142.0590936941402
 30
0.0
  0
HATCH
  5
12C
330
1F
100
AcDbEntity
  8
_U+30EC_U+30A4_U+30E4_U+30FC 1
 62
   179
420
  2234388
100
AcDbHatch
 10
0.0
 20
0.0
 30
0.0
210
0.0
220
0.0
230
1.0
  2
SOLID
 70
     1
 71
     0
 91
        1
 92
        1
 93
        2
 72
     4
 94
        3
 73
     0
 74
     0
 95
       17
 96
       13
 40
0.0
 40
0.0
 40
0.0
 40
0.0
 40
0.3527777776895833
 40
0.3527777776895833
 40
0.3527777776895833
 40
0.7055555553791667
 40
0.7055555553791667
 40
0.7055555553791667
 40
1.05833333306875
 40
1.05833333306875
 40
1.05833333306875
 40
1.411111110758333
 40
1.411111110758333
 40
1.411111110758333
 40
1.411111110758333
 10
93.68433326922248
 20
-142.0590936941402
 10
93.79474857952472
 20
-142.0590936941402
 10
93.88399808443916
 20
-141.9694996796772
 10
93.88399808443916
 20
-141.859084369375
 10
93.88399808443916
 20
-141.7486690590727
 10
93.79474857952472
 20
-141.6587090032138
 10
93.68433326922248
 20
-141.6587090032138
 10
93.5739071929965
 20
-141.6587090032138
 10
93.48465768808175
 20
-141.7486690590727
 10
93.48465768808175
 20
-141.859084369375
 10
93.48465768808175
 20
-141.9694996796772
 10
93.5739071929965
 20
-142.0590936941402
 10
93.68433326922248
 20
-142.0590936941402
 97
        0
 72
     1
 10
93.68433326922248
 20
-142.0590936941402
 11
93.68433326922248
 21
-142.0590936941402
 97
        0
 75
     2
 76
     1
 98
        0
  0
SPLINE
  5
12D
330
1F
100
AcDbEntity
  8
_U+30EC_U+30A4_U+30E4_U+30FC 1
370
     0
100
AcDbSpline
210
0.0
220
0.0
230
1.0
 70
    11
 71
     3
 72
    17
 73
    13
 74
     0
 42
0.0000000001
 43
0.0000000001
 12
1.0
 22
0.0
 32
0.0
 13
1.0
 23
0.0
 33
0.0
 40
0.0
 40
0.0
 40
0.0
 40
0.0
 40
1.0
 40
1.0
 40
1.0
 40
2.0
 40
2.0
 40
2.0
 40
3.0
 40
3.0
 40
3.0
 40
4.0
 40
4.0
 40
4.0
 40
4.0
 10
83.68421154049388
 20
-139.0255363964502
 30
0.0
 10
83.79462685079613
 20
-139.0255363964502
 30
0.0
 10
83.8838763557109
 20
-138.9359423819869
 30
0.0
 10
83.8838763557109
 20
-138.8255270716847
 30
0.0
 10
83.8838763557109
 20
-138.7151117613824
 30
0.0
 10
83.79462685079613
 20
-138.6251517055238
 30
0.0
 10
83.68421154049388
 20
-138.6251517055238
 30
0.0
 10
83.57378546426823
 20
-138.6251517055238
 30
0.0
 10
83.48453595935348
 20
-138.7151117613824
 30
0.0
 10
83.48453595935348
 20
-138.8255270716847
 30
0.0
 10
83.48453595935348
 20
-138.9359423819869
 30
0.0
 10
83.57378546426823
 20
-139.0255363964502
 30
0.0
 10
83.68421154049388
 20
-139.0255363964502
 30
0.0
  0
HATCH
  5
12E
330
1F
100
AcDbEntity
  8
_U+30EC_U+30A4_U+30E4_U+30FC 1
 62
   179
420
  2234388
100
AcDbHatch
 10
0.0
 20
0.0
 30
0.0
210
0.0
220
0.0
230
1.0
  2
SOLID
 70
     1
 71
     0
 91
        1
 92
        1
 93
        2
 72
     4
 94
        3
 73
     0
 74
     0
 95
       17
 96
       13
 40
0.0
 40
0.0
 40
0.0
 40
0.0
 40
0.3527777776895833
 40
0.3527777776895833
 40
0.3527777776895833
 40
0.7055555553791667
 40
0.7055555553791667
 40
0.7055555553791667
 40
1.05833333306875
 40
1.05833333306875
 40
1.05833333306875
 40
1.411111110758333
 40
1.411111110758333
 40
1.411111110758333
 40
1.411111110758333
 10
83.68421154049388
 20
-139.0255363964502
 10
83.79462685079613
 20
-139.0255363964502
 10
83.8838763557109
 20
-138.9359423819869
 10
83.8838763557109
 20
-138.8255270716847
 10
83.8838763557109
 20
-138.7151117613824
 10
83.79462685079613
 20
-138.6251517055238
 10
83.68421154049388
 20
-138.6251517055238
 10
83.57378546426823
 20
-138.6251517055238
 10
83.48453595935348
 20
-138.7151117613824
 10
83.48453595935348
 20
-138.8255270716847
 10
83.48453595935348
 20
-138.9359423819869
 10
83.57378546426823
 20
-139.0255363964502
 10
83.68421154049388
 20
-139.0255363964502
 97
        0
 72
     1
 10
83.68421154049388
 20
-139.0255363964502
 11
83.68421154049388
 21
-139.0255363964502
 97
        0
 75
     2
 76
     1
 98
        0
  0
POLYLINE
  5
12F
330
1F
100
AcDbEntity
  8
_U+30EC_U+30A4_U+30E4_U+30FC 1
 62
   179
420
  2234388
370
     9
100
AcDb2dPolyline
 66
     1
 10
0.0
 20
0.0
 30
0.0
  0
VERTEX
  5
130
330
12F
100
AcDbEntity
  8
_U+30EC_U+30A4_U+30E4_U+30FC 1
 62
   179
420
  2234388
370
     9
100
AcDbVertex
100
AcDb2dVertex
 10
101.6387034691921
 20
-141.8589767101407
 30
0.0
  0
VERTEX
  5
131
330
12F
100
AcDbEntity
  8
_U+30EC_U+30A4_U+30E4_U+30FC 1
 62
   179
420
  2234388
370
     9
100
AcDbVertex
100
AcDb2dVertex
 10
105.7012892564794
 20
-141.8589767101407
 30
0.0
  0
VERTEX
  5
132
330
12F
100
AcDbEntity
  8
_U+30EC_U+30A4_U+30E4_U+30FC 1
 62
   179
420
  2234388
370
     9
100
AcDbVertex
100
AcDb2dVertex
 10
105.7012892564794
 20
-144.5573908126562
 30
0.0
  0
SEQEND
  5
133
330
12F
100
AcDbEntity
  8
_U+30EC_U+30A4_U+30E4_U+30FC 1
 62
   179
420
  2234388
370
     9
  0
POLYLINE
  5
134
330
1F
100
AcDbEntity
  8
_U+30EC_U+30A4_U+30E4_U+30FC 1
 62
   179
420
  2234388
370
     9
100
AcDb2dPolyline
 66
     1
 10
0.0
 20
0.0
 30
0.0
  0
VERTEX
  5
135
330
134
100
AcDbEntity
  8
_U+30EC_U+30A4_U+30E4_U+30FC 1
 62
   179
420
  2234388
370
     9
100
AcDbVertex
100
AcDb2dVertex
 10
93.68433326922248
 20
-144.3039609760226
 30
0.0
  0
VERTEX
  5
136
330
134
100
AcDbEntity
  8
_U+30EC_U+30A4_U+30E4_U+30FC 1
 62
   179
420
  2234388
370
     9
100
AcDbVertex
100
AcDb2dVertex
 10
93.68433326922248
 20
-141.8588690509068
 30
0.0
  0
VERTEX
  5
137
330
134
100
AcDbEntity
  8
_U+30EC_U+30A4_U+30E4_U+30FC 1
 62
   179
420
  2234388
370
     9
100
AcDbVertex
100
AcDb2dVertex
 10
101.8303153737124
 20
-141.8588690509068
 30
0.0
  0
SEQEND
  5
138
330
134
100
AcDbEntity
  8
_U+30EC_U+30A4_U+30E4_U+30FC 1
 62
   179
420
  2234388
370
     9
  0
POLYLINE
  5
139
330
1F
100
AcDbEntity
  8
_U+30EC_U+30A4_U+30E4_U+30FC 1
 62
   179
420
  2234388
370
     9
100
AcDb2dPolyline
 66
     1
 10
0.0
 20
0.0
 30
0.0
  0
VERTEX
  5
13A
330
139
100
AcDbEntity
  8
_U+30EC_U+30A4_U+30E4_U+30FC 1
 62
   179
420
  2234388
370
     9
100
AcDbVertex
100
AcDb2dVertex
 10
102.0369457413636
 20
-138.825397880604
 30
0.0
  0
VERTEX
  5
13B
330
139
100
AcDbEntity
  8
_U+30EC_U+30A4_U+30E4_U+30FC 1
 62
   179
420
  2234388
370
     9
100
AcDbVertex
100
AcDb2dVertex
 10
115.6852082705036
 20
-138.825397880604
 30
0.0
  0
VERTEX
  5
13C
330
139
100
AcDbEntity
  8
_U+30EC_U+30A4_U+30E4_U+30FC 1
 62
   179
420
  2234388
370
     9
100
AcDbVertex
100
AcDb2dVertex
 10
115.6852082705036
 20
-144.4631459192882
 30
0.0
  0
SEQEND
  5
13D
330
139
100
AcDbEntity
  8
_U+30EC_U+30A4_U+30E4_U+30FC 1
 62
   179
420
  2234388
370
     9
  0
POLYLINE
  5
13E
330
1F
100
AcDbEntity
  8
_U+30EC_U+30A4_U+30E4_U+30FC 1
 62
   179
420
  2234388
370
     9
100
AcDb2dPolyline
 66
     1
 10
0.0
 20
0.0
 30
0.0
  0
VERTEX
  5
13F
330
13E
100
AcDbEntity
  8
_U+30EC_U+30A4_U+30E4_U+30FC 1
 62
   179
420
  2234388
370
     9
100
AcDbVertex
100
AcDb2dVertex
 10
83.68421154049388
 20
-144.4631028555943
 30
0.0
  0
VERTEX
  5
140
330
13E
100
AcDbEntity
  8
_U+30EC_U+30A4_U+30E4_U+30FC 1
 62
   179
420
  2234388
370
     9
100
AcDbVertex
100
AcDb2dVertex
 10
83.68421154049388
 20
-138.8253763487572
 30
0.0
  0
VERTEX
  5
141
330
13E
100
AcDbEntity
  8
_U+30EC_U+30A4_U+30E4_U+30FC 1
 62
   179
420
  2234388
370
     9
100
AcDbVertex
100
AcDb2dVertex
 10
102.2420796456634
 20
-138.8253763487572
 30
0.0
  0
SEQEND
  5
142
330
13E
100
AcDbEntity
  8
_U+30EC_U+30A4_U+30E4_U+30FC 1
 62
   179
420
  2234388
370
     9
  0
POLYLINE
  5
143
330
1F
100
AcDbEntity
  8
_U+30EC_U+30A4_U+30E4_U+30FC 1
 62
   179
420
  2234388
370
     9
100
AcDb2dPolyline
 66
     1
 10
0.0
 20
0.0
 30
0.0
  0
VERTEX
  5
144
330
143
100
AcDbEntity
  8
_U+30EC_U+30A4_U+30E4_U+30FC 1
 62
   179
420
  2234388
370
     9
100
AcDbVertex
100
AcDb2dVertex
 10
126.684536881035
 20
-153.7756911847006
 30
0.0
  0
VERTEX
  5
145
330
143
100
AcDbEntity
  8
_U+30EC_U+30A4_U+30E4_U+30FC 1
 62
   179
420
  2234388
370
     9
100
AcDbVertex
100
AcDb2dVertex
 10
126.684536881035
 20
-155.0608625236263
 30
0.0
  0
VERTEX
  5
146
330
143
100
AcDbEntity
  8
_U+30EC_U+30A4_U+30E4_U+30FC 1
 62
   179
420
  2234388
370
     9
100
AcDbVertex
100
AcDb2dVertex
 10
108.6240759683952
 20
-155.0608625236263
 30
0.0
  0
SEQEND
  5
147
330
143
100
AcDbEntity
  8
_U+30EC_U+30A4_U+30E4_U+30FC 1
 62
   179
420
  2234388
370
     9
  0
POLYLINE
  5
148
330
1F
100
AcDbEntity
  8
_U+30EC_U+30A4_U+30E4_U+30FC 1
 62
   179
420
  2234388
370
     9
100
AcDb2dPolyline
 66
     1
 10
0.0
 20
0.0
 30
0.0
  0
VERTEX
  5
149
330
148
100
AcDbEntity
  8
_U+30EC_U+30A4_U+30E4_U+30FC 1
 62
   179
420
  2234388
370
     9
100
AcDbVertex
100
AcDb2dVertex
 10
117.2683803689034
 20
-146.358572859732
 30
0.0
  0
VERTEX
  5
14A
330
148
100
AcDbEntity
  8
_U+30EC_U+30A4_U+30E4_U+30FC 1
 62
   179
420
  2234388
370
     9
100
AcDbVertex
100
AcDb2dVertex
 10
126.6843646262608
 20
-146.358572859732
 30
0.0
  0
VERTEX
  5
14B
330
148
100
AcDbEntity
  8
_U+30EC_U+30A4_U+30E4_U+30FC 1
 62
   179
420
  2234388
370
     9
100
AcDbVertex
100
AcDb2dVertex
 10
126.6843646262608
 20
-153.9299022713591
 30
0.0
  0
SEQEND
  5
14C
330
148
100
AcDbEntity
  8
_U+30EC_U+30A4_U+30E4_U+30FC 1
 62
   179
420
  2234388
370
     9
  0
POLYLINE
  5
14D
330
1F
100
AcDbEntity
  8
_U+30EC_U+30A4_U+30E4_U+30FC 1
 62
   179
420
  2234388
370
     9
100
AcDb2dPolyline
 66
     1
 10
0.0
 20
0.0
 30
0.0
  0
VERTEX
  5
14E
330
14D
100
AcDbEntity
  8
_U+30EC_U+30A4_U+30E4_U+30FC 1
 62
   179
420
  2234388
370
     9
100
AcDbVertex
100
AcDb2dVertex
 10
121.6850466106106
 20
-146.358572859732
 30
0.0
  0
VERTEX
  5
14F
330
14D
100
AcDbEntity
  8
_U+30EC_U+30A4_U+30E4_U+30FC 1
 62
   179
420
  2234388
370
     9
100
AcDbVertex
100
AcDb2dVertex
 10
121.6850466106106
 20
-155.0605610777713
 30
0.0
  0
SEQEND
  5
150
330
14D
100
AcDbEntity
  8
_U+30EC_U+30A4_U+30E4_U+30FC 1
 62
   179
420
  2234388
370
     9
  0
POLYLINE
  5
151
330
1F
100
AcDbEntity
  8
_U+30EC_U+30A4_U+30E4_U+30FC 1
 62
   179
420
  2234388
370
     9
100
AcDb2dPolyline
 66
     1
 10
0.0
 20
0.0
 30
0.0
  0
VERTEX
  5
152
330
151
100
AcDbEntity
  8
_U+30EC_U+30A4_U+30E4_U+30FC 1
 62
   179
420
  2234388
370
     9
100
AcDbVertex
100
AcDb2dVertex
 10
117.3055981660675
 20
-149.5425731708934
 30
0.0
  0
VERTEX
  5
153
330
151
100
AcDbEntity
  8
_U+30EC_U+30A4_U+30E4_U+30FC 1
 62
   179
420
  2234388
370
     9
100
AcDbVertex
100
AcDb2dVertex
 10
121.6849712491469
 20
-149.5425731708934
 30
0.0
  0
SEQEND
  5
154
330
151
100
AcDbEntity
  8
_U+30EC_U+30A4_U+30E4_U+30FC 1
 62
   179
420
  2234388
370
     9
  0
POLYLINE
  5
155
330
1F
100
AcDbEntity
  8
_U+30EC_U+30A4_U+30E4_U+30FC 1
 62
   179
420
  2234388
370
     9
100
AcDb2dPolyline
 66
     1
 10
0.0
 20
0.0
 30
0.0
  0
VERTEX
  5
156
330
155
100
AcDbEntity
  8
_U+30EC_U+30A4_U+30E4_U+30FC 1
 62
   179
420
  2234388
370
     9
100
AcDbVertex
100
AcDb2dVertex
 10
114.3772885354519
 20
-158.1558286483408
 30
0.0
  0
VERTEX
  5
157
330
155
100
AcDbEntity
  8
_U+30EC_U+30A4_U+30E4_U+30FC 1
 62
   179
420
  2234388
370
     9
100
AcDbVertex
100
AcDb2dVertex
 10
115.6822045778774
 20
-158.1558286483408
 30
0.0
  0
VERTEX
  5
158
330
155
100
AcDbEntity
  8
_U+30EC_U+30A4_U+30E4_U+30FC 1
 62
   179
420
  2234388
370
     9
100
AcDbVertex
100
AcDb2dVertex
 10
115.6822045778774
 20
-151.5708946696811
 30
0.0
  0
SEQEND
  5
159
330
155
100
AcDbEntity
  8
_U+30EC_U+30A4_U+30E4_U+30FC 1
 62
   179
420
  2234388
370
     9
  0
POLYLINE
  5
15A
330
1F
100
AcDbEntity
  8
_U+30EC_U+30A4_U+30E4_U+30FC 1
 62
   179
420
  2234388
370
     9
100
AcDb2dPolyline
 66
     1
 10
0.0
 20
0.0
 30
0.0
  0
VERTEX
  5
15B
330
15A
100
AcDbEntity
  8
_U+30EC_U+30A4_U+30E4_U+30FC 1
 62
   179
420
  2234388
370
     9
100
AcDbVertex
100
AcDb2dVertex
 10
101.5064118025585
 20
-158.1558286483408
 30
0.0
  0
VERTEX
  5
15C
330
15A
100
AcDbEntity
  8
_U+30EC_U+30A4_U+30E4_U+30FC 1
 62
   179
420
  2234388
370
     9
100
AcDbVertex
100
AcDb2dVertex
 10
114.7659168380349
 20
-158.1558286483408
 30
0.0
  0
SEQEND
  5
15D
330
15A
100
AcDbEntity
  8
_U+30EC_U+30A4_U+30E4_U+30FC 1
 62
   179
420
  2234388
370
     9
  0
POLYLINE
  5
15E
330
1F
100
AcDbEntity
  8
_U+30EC_U+30A4_U+30E4_U+30FC 1
 62
   179
420
  2234388
370
     9
100
AcDb2dPolyline
 66
     1
 10
0.0
 20
0.0
 30
0.0
  0
VERTEX
  5
15F
330
15E
100
AcDbEntity
  8
_U+30EC_U+30A4_U+30E4_U+30FC 1
 62
   179
420
  2234388
370
     9
100
AcDbVertex
100
AcDb2dVertex
 10
90.98820154246594
 20
-158.1558286483408
 30
0.0
  0
VERTEX
  5
160
330
15E
100
AcDbEntity
  8
_U+30EC_U+30A4_U+30E4_U+30FC 1
 62
   179
420
  2234388
370
     9
100
AcDbVertex
100
AcDb2dVertex
 10
101.6692463938535
 20
-158.1558286483408
 30
0.0
  0
SEQEND
  5
161
330
15E
100
AcDbEntity
  8
_U+30EC_U+30A4_U+30E4_U+30FC 1
 62
   179
420
  2234388
370
     9
  0
POLYLINE
  5
162
330
1F
100
AcDbEntity
  8
_U+30EC_U+30A4_U+30E4_U+30FC 1
 62
   179
420
  2234388
370
     9
100
AcDb2dPolyline
 66
     1
 10
0.0
 20
0.0
 30
0.0
  0
VERTEX
  5
163
330
162
100
AcDbEntity
  8
_U+30EC_U+30A4_U+30E4_U+30FC 1
 62
   179
420
  2234388
370
     9
100
AcDbVertex
100
AcDb2dVertex
 10
83.68421154049388
 20
-151.5710453926085
 30
0.0
  0
VERTEX
  5
164
330
162
100
AcDbEntity
  8
_U+30EC_U+30A4_U+30E4_U+30FC 1
 62
   179
420
  2234388
370
     9
100
AcDbVertex
100
AcDb2dVertex
 10
83.68421154049388
 20
-158.1560009031151
 30
0.0
  0
VERTEX
  5
165
330
162
100
AcDbEntity
  8
_U+30EC_U+30A4_U+30E4_U+30FC 1
 62
   179
420
  2234388
370
     9
100
AcDbVertex
100
AcDb2dVertex
 10
90.98811541507882
 20
-158.1560009031151
 30
0.0
  0
SEQEND
  5
166
330
162
100
AcDbEntity
  8
_U+30EC_U+30A4_U+30E4_U+30FC 1
 62
   179
420
  2234388
370
     9
  0
POLYLINE
  5
167
330
1F
100
AcDbEntity
  8
_U+30EC_U+30A4_U+30E4_U+30FC 1
 62
   179
420
  2234388
370
     9
100
AcDb2dPolyline
 66
     1
 10
0.0
 20
0.0
 30
0.0
  0
VERTEX
  5
168
330
167
100
AcDbEntity
  8
_U+30EC_U+30A4_U+30E4_U+30FC 1
 62
   179
420
  2234388
370
     9
100
AcDbVertex
100
AcDb2dVertex
 10
92.18432792902098
 20
-156.4801342043153
 30
0.0
  0
VERTEX
  5
169
330
167
100
AcDbEntity
  8
_U+30EC_U+30A4_U+30E4_U+30FC 1
 62
   179
420
  2234388
370
     9
100
AcDbVertex
100
AcDb2dVertex
 10
92.18432792902098
 20
-158.1558286483408
 30
0.0
  0
SEQEND
  5
16A
330
167
100
AcDbEntity
  8
_U+30EC_U+30A4_U+30E4_U+30FC 1
 62
   179
420
  2234388
370
     9
  0
POLYLINE
  5
16B
330
1F
100
AcDbEntity
  8
_U+30EC_U+30A4_U+30E4_U+30FC 1
 62
   179
420
  2234388
370
     9
100
AcDb2dPolyline
 66
     1
 10
0.0
 20
0.0
 30
0.0
  0
VERTEX
  5
16C
330
16B
100
AcDbEntity
  8
_U+30EC_U+30A4_U+30E4_U+30FC 1
 62
   179
420
  2234388
370
     9
100
AcDbVertex
100
AcDb2dVertex
 10
107.1039706492223
 20
-156.4801342043153
 30
0.0
  0
VERTEX
  5
16D
330
16B
100
AcDbEntity
  8
_U+30EC_U+30A4_U+30E4_U+30FC 1
 62
   179
420
  2234388
370
     9
100
AcDbVertex
100
AcDb2dVertex
 10
107.1039706492223
 20
-158.1558286483408
 30
0.0
  0
SEQEND
  5
16E
330
16B
100
AcDbEntity
  8
_U+30EC_U+30A4_U+30E4_U+30FC 1
 62
   179
420
  2234388
370
     9
  0
POLYLINE
  5
16F
330
1F
100
AcDbEntity
  8
_U+30EC_U+30A4_U+30E4_U+30FC 1
 62
   179
420
  2234388
370
     9
100
AcDb2dPolyline
 66
     1
 10
0.0
 20
0.0
 30
0.0
  0
VERTEX
  5
170
330
16F
100
AcDbEntity
  8
_U+30EC_U+30A4_U+30E4_U+30FC 1
 62
   179
420
  2234388
370
     9
100
AcDbVertex
100
AcDb2dVertex
 10
105.6415599135039
 20
-146.358572859732
 30
0.0
  0
VERTEX
  5
171
330
16F
100
AcDbEntity
  8
_U+30EC_U+30A4_U+30E4_U+30FC 1
 62
   179
420
  2234388
370
     9
100
AcDbVertex
100
AcDb2dVertex
 10
110.0999548742762
 20
-141.0044853705649
 30
0.0
  0
VERTEX
  5
172
330
16F
100
AcDbEntity
  8
_U+30EC_U+30A4_U+30E4_U+30FC 1
 62
   179
420
  2234388
370
     9
100
AcDbVertex
100
AcDb2dVertex
 10
124.3236129449933
 20
-141.0044853705649
 30
0.0
  0
SEQEND
  5
173
330
16F
100
AcDbEntity
  8
_U+30EC_U+30A4_U+30E4_U+30FC 1
 62
   179
420
  2234388
370
     9
  0
ENDSEC
  0
SECTION
  2
OBJECTS
  0
DICTIONARY
  5
C
330
0
100
AcDbDictionary
281
     1
  3
ACAD_GROUP
350
D
  3
ACAD_LAYOUT
350
1A
  3
ACAD_MATERIAL
350
3B
  3
ACAD_MLEADERSTYLE
350
175
  3
ACAD_MLINESTYLE
350
17
  3
ACAD_PLOTSETTINGS
350
19
  3
ACAD_PLOTSTYLENAME
350
E
  3
ACAD_TABLESTYLE
350
174
  3
ACAD_VISUALSTYLE
350
2A
  0
SUN
  5
3F
330
29
100
AcDbSun
 90
        1
290
     0
 63
     7
421
 16777215
 40
1.0
291
     1
 91
  2455826
 92
 54000000
292
     0
 70
     2
 71
   256
280
     1
  0
DICTIONARY
  5
D
102
{ACAD_REACTORS
330
C
102
}
330
C
100
AcDbDictionary
281
     1
  0
DICTIONARY
  5
1A
102
{ACAD_REACTORS
330
C
102
}
330
C
100
AcDbDictionary
281
     1
  3
Layout1
350
1E
  3
Layout2
350
26
  3
Model
350
22
  0
DICTIONARY
  5
3B
102
{ACAD_REACTORS
330
C
102
}
330
C
100
AcDbDictionary
281
     1
  3
ByBlock
350
3D
  3
ByLayer
350
3C
  3
Global
350
3E
  0
DICTIONARY
  5
175
102
{ACAD_REACTORS
330
C
102
}
330
C
100
AcDbDictionary
281
     1
  0
DICTIONARY
  5
17
102
{ACAD_REACTORS
330
C
102
}
330
C
100
AcDbDictionary
281
     1
  3
Standard
350
18
  0
DICTIONARY
  5
19
102
{ACAD_REACTORS
330
C
102
}
330
C
100
AcDbDictionary
281
     1
  0
ACDBDICTIONARYWDFLT
  5
E
102
{ACAD_REACTORS
330
C
102
}
330
C
100
AcDbDictionary
281
     1
  3
Normal
350
F
100
AcDbDictionaryWithDefault
340
F
  0
DICTIONARY
  5
174
102
{ACAD_REACTORS
330
C
102
}
330
C
100
AcDbDictionary
281
     1
  0
DICTIONARY
  5
2A
102
{ACAD_REACTORS
330
C
102
}
330
C
100
AcDbDictionary
281
     1
  3
2dWireframe
350
2F
  3
3D Hidden
350
31
  3
3dWireframe
350
30
  3
Basic
350
32
  3
Brighten
350
36
  3
ColorChange
350
3A
  3
Conceptual
350
34
  3
Dim
350
35
  3
Facepattern
350
39
  3
Flat
350
2B
  3
FlatWithEdges
350
2C
  3
Gouraud
350
2D
  3
GouraudWithEdges
350
2E
  3
Linepattern
350
38
  3
Realistic
350
33
  3
Thicken
350
37
  0
LAYOUT
  5
1E
102
{ACAD_REACTORS
330
1A
102
}
330
1A
100
AcDbPlotSettings
  1

  2
none_device
  4

  6

 40
0.0
 41
0.0
 42
0.0
 43
0.0
 44
0.0
 45
0.0
 46
0.0
 47
0.0
 48
0.0
 49
0.0
140
0.0
141
0.0
142
1.0
143
1.0
 70
   688
 72
     0
 73
     0
 74
     5
  7

 75
    16
 76
     0
 77
     2
 78
   300
147
1.0
148
0.0
149
0.0
100
AcDbLayout
  1
Layout1
 70
     1
 71
     1
 10
0.0
 20
0.0
 11
12.0
 21
9.0
 12
0.0
 22
0.0
 32
0.0
 14
1.000000000000000E+20
 24
1.000000000000000E+20
 34
1.000000000000000E+20
 15
-1.000000000000000E+20
 25
-1.000000000000000E+20
 35
-1.000000000000000E+20
146
0.0
 13
0.0
 23
0.0
 33
0.0
 16
1.0
 26
0.0
 36
0.0
 17
0.0
 27
1.0
 37
0.0
 76
     0
330
1B
  0
LAYOUT
  5
26
102
{ACAD_REACTORS
330
1A
102
}
330
1A
100
AcDbPlotSettings
  1

  2
none_device
  4

  6

 40
0.0
 41
0.0
 42
0.0
 43
0.0
 44
0.0
 45
0.0
 46
0.0
 47
0.0
 48
0.0
 49
0.0
140
0.0
141
0.0
142
1.0
143
1.0
 70
   688
 72
     0
 73
     0
 74
     5
  7

 75
    16
 76
     0
 77
     2
 78
   300
147
1.0
148
0.0
149
0.0
100
AcDbLayout
  1
Layout2
 70
     1
 71
     2
 10
0.0
 20
0.0
 11
0.0
 21
0.0
 12
0.0
 22
0.0
 32
0.0
 14
0.0
 24
0.0
 34
0.0
 15
0.0
 25
0.0
 35
0.0
146
0.0
 13
0.0
 23
0.0
 33
0.0
 16
1.0
 26
0.0
 36
0.0
 17
0.0
 27
1.0
 37
0.0
 76
     0
330
23
  0
LAYOUT
  5
22
102
{ACAD_REACTORS
330
1A
102
}
330
1A
100
AcDbPlotSettings
  1

  2
none_device
  4

  6

 40
0.0
 41
0.0
 42
0.0
 43
0.0
 44
0.0
 45
0.0
 46
0.0
 47
0.0
 48
0.0
 49
0.0
140
0.0
141
0.0
142
1.0
143
1.0
 70
  1712
 72
     0
 73
     0
 74
     0
  7

 75
     0
 76
     0
 77
     2
 78
   300
147
1.0
148
0.0
149
0.0
100
AcDbLayout
  1
Model
 70
     1
 71
     0
 10
0.0
 20
0.0
 11
12.0
 21
9.0
 12
0.0
 22
0.0
 32
0.0
 14
1.000000000000000E+20
 24
1.000000000000000E+20
 34
1.000000000000000E+20
 15
-1.000000000000000E+20
 25
-1.000000000000000E+20
 35
-1.000000000000000E+20
146
0.0
 13
0.0
 23
0.0
 33
0.0
 16
1.0
 26
0.0
 36
0.0
 17
0.0
 27
1.0
 37
0.0
 76
     0
330
1F
331
29
  0
MATERIAL
  5
3D
102
{ACAD_REACTORS
330
3B
102
}
330
3B
100
AcDbMaterial
  1
ByBlock
 72
     1
 94
      127
  0
MATERIAL
  5
3C
102
{ACAD_REACTORS
330
3B
102
}
330
3B
100
AcDbMaterial
  1
ByLayer
 72
     1
 94
      127
  0
MATERIAL
  5
3E
102
{ACAD_REACTORS
330
3B
102
}
330
3B
100
AcDbMaterial
  1
Global
 72
     1
 94
      127
  0
MLINESTYLE
  5
18
102
{ACAD_REACTORS
330
17
102
}
330
17
100
AcDbMlineStyle
  2
Standard
 70
     0
  3

 62
   256
 51
90.0
 52
90.0
 71
     2
 49
0.5
 62
   256
  6
BYLAYER
 49
-0.5
 62
   256
  6
BYLAYER
  0
ACDBPLACEHOLDER
  5
F
102
{ACAD_REACTORS
330
E
102
}
330
E
  0
VISUALSTYLE
  5
2F
102
{ACAD_REACTORS
330
2A
102
}
330
2A
100
AcDbVisualStyle
  2
2dWireframe
 70
     4
177
     2
291
     0
 71
     0
176
     1
 72
     2
176
     1
 73
     0
176
     1
 90
        0
176
     1
 40
-0.6
176
     1
 41
-30.0
176
     1
 62
     5
 63
     7
421
 16777215
176
     1
 74
     1
176
     1
 91
        4
176
     1
 64
     7
176
     1
 65
   257
176
     1
 75
     1
176
     1
175
     1
176
     1
 42
1.0
176
     1
 92
        0
176
     1
 66
   257
176
     1
 43
1.0
176
     1
 76
     1
176
     1
 77
     6
176
     1
 78
     2
176
     1
 67
     7
176
     1
 79
     5
176
     1
170
     0
176
     1
171
     0
176
     1
290
     0
176
     1
 93
        1
176
     1
 44
0.0
176
     1
173
     0
176
     1
  0
VISUALSTYLE
  5
31
102
{ACAD_REACTORS
330
2A
102
}
330
2A
100
AcDbVisualStyle
  2
3D Hidden
 70
     6
177
     2
291
     0
 71
     1
176
     1
 72
     2
176
     1
 73
     2
176
     1
 90
        0
176
     1
 40
-0.6
176
     1
 41
-30.0
176
     1
 62
     5
 63
     7
421
 16777215
176
     1
 74
     2
176
     1
 91
        2
176
     1
 64
     7
176
     1
 65
   257
176
     1
 75
     2
176
     1
175
     1
176
     1
 42
40.0
176
     1
 92
        0
176
     1
 66
   257
176
     1
 43
1.0
176
     1
 76
     1
176
     1
 77
     6
176
     1
 78
     2
176
     1
 67
     7
176
     1
 79
     3
176
     1
170
     0
176
     1
171
     0
176
     1
290
     0
176
     1
 93
        1
176
     1
 44
0.0
176
     1
173
     0
176
     1
  0
VISUALSTYLE
  5
30
102
{ACAD_REACTORS
330
2A
102
}
330
2A
100
AcDbVisualStyle
  2
3dWireframe
 70
     5
177
     2
291
     0
 71
     0
176
     1
 72
     2
176
     1
 73
     0
176
     1
 90
        0
176
     1
 40
-0.6
176
     1
 41
-30.0
176
     1
 62
     5
 63
     7
421
 16777215
176
     1
 74
     1
176
     1
 91
        4
176
     1
 64
     7
176
     1
 65
   257
176
     1
 75
     1
176
     1
175
     1
176
     1
 42
1.0
176
     1
 92
        0
176
     1
 66
   257
176
     1
 43
1.0
176
     1
 76
     1
176
     1
 77
     6
176
     1
 78
     2
176
     1
 67
     7
176
     1
 79
     5
176
     1
170
     0
176
     1
171
     0
176
     1
290
     0
176
     1
 93
        1
176
     1
 44
0.0
176
     1
173
     0
176
     1
  0
VISUALSTYLE
  5
32
102
{ACAD_REACTORS
330
2A
102
}
330
2A
100
AcDbVisualStyle
  2
Basic
 70
     7
177
     2
291
     1
 71
     1
176
     1
 72
     0
176
     1
 73
     1
176
     1
 90
        0
176
     1
 40
-0.6
176
     1
 41
-30.0
176
     1
 62
     5
 63
     7
421
 16777215
176
     1
 74
     0
176
     1
 91
        4
176
     1
 64
     7
176
     1
 65
   257
176
     1
 75
     1
176
     1
175
     1
176
     1
 42
1.0
176
     1
 92
        8
176
     1
 66
     7
176
     1
 43
1.0
176
     1
 76
     1
176
     1
 77
     6
176
     1
 78
     2
176
     1
 67
     7
176
     1
 79
     5
176
     1
170
     0
176
     1
171
     0
176
     1
290
     0
176
     1
 93
        1
176
     1
 44
0.0
176
     1
173
     0
176
     1
  0
VISUALSTYLE
  5
36
102
{ACAD_REACTORS
330
2A
102
}
330
2A
100
AcDbVisualStyle
  2
Brighten
 70
    12
177
     2
291
     1
 71
     2
176
     1
 72
     2
176
     1
 73
     0
176
     1
 90
        0
176
     1
 40
-0.6
176
     1
 41
-30.0
176
     1
 62
     5
 63
     7
421
 16777215
176
     1
 74
     1
176
     1
 91
        4
176
     1
 64
     7
176
     1
 65
   257
176
     1
 75
     1
176
     1
175
     1
176
     1
 42
1.0
176
     1
 92
        8
176
     1
 66
     7
176
     1
 43
1.0
176
     1
 76
     1
176
     1
 77
     6
176
     1
 78
     2
176
     1
 67
     7
176
     1
 79
     5
176
     1
170
     0
176
     1
171
     0
176
     1
290
     0
176
     1
 93
        1
176
     1
 44
50.0
176
     1
173
     0
176
     1
  0
VISUALSTYLE
  5
3A
102
{ACAD_REACTORS
330
2A
102
}
330
2A
100
AcDbVisualStyle
  2
ColorChange
 70
    16
177
     2
291
     1
 71
     2
176
     1
 72
     2
176
     1
 73
     3
176
     1
 90
        0
176
     1
 40
-0.6
176
     1
 41
-30.0
176
     1
 62
     5
 63
     8
421
  8421504
176
     1
 74
     1
176
     1
 91
        4
176
     1
 64
     7
176
     1
 65
   257
176
     1
 75
     1
176
     1
175
     1
176
     1
 42
1.0
176
     1
 92
        8
176
     1
 66
     8
424
  8421504
176
     1
 43
1.0
176
     1
 76
     1
176
     1
 77
     6
176
     1
 78
     2
176
     1
 67
     7
176
     1
 79
     5
176
     1
170
     0
176
     1
171
     0
176
     1
290
     0
176
     1
 93
        1
176
     1
 44
0.0
176
     1
173
     0
176
     1
  0
VISUALSTYLE
  5
34
102
{ACAD_REACTORS
330
2A
102
}
330
2A
100
AcDbVisualStyle
  2
Conceptual
 70
     9
177
     2
291
     0
 71
     3
176
     1
 72
     2
176
     1
 73
     0
176
     1
 90
        0
176
     1
 40
-0.6
176
     1
 41
-30.0
176
     1
 62
     5
 63
     7
421
 16777215
176
     1
 74
     2
176
     1
 91
        2
176
     1
 64
     7
176
     1
 65
   257
176
     1
 75
     1
176
     1
175
     1
176
     1
 42
40.0
176
     1
 92
        8
176
     1
 66
     7
176
     1
 43
1.0
176
     1
 76
     1
176
     1
 77
     6
176
     1
 78
     2
176
     1
 67
     7
176
     1
 79
     3
176
     1
170
     0
176
     1
171
     0
176
     1
290
     0
176
     1
 93
        1
176
     1
 44
0.0
176
     1
173
     0
176
     1
  0
VISUALSTYLE
  5
35
102
{ACAD_REACTORS
330
2A
102
}
330
2A
100
AcDbVisualStyle
  2
Dim
 70
    11
177
     2
291
     1
 71
     2
176
     1
 72
     2
176
     1
 73
     0
176
     1
 90
        0
176
     1
 40
-0.6
176
     1
 41
-30.0
176
     1
 62
     5
 63
     7
421
 16777215
176
     1
 74
     1
176
     1
 91
        4
176
     1
 64
     7
176
     1
 65
   257
176
     1
 75
     1
176
     1
175
     1
176
     1
 42
1.0
176
     1
 92
        8
176
     1
 66
     7
176
     1
 43
1.0
176
     1
 76
     1
176
     1
 77
     6
176
     1
 78
     2
176
     1
 67
     7
176
     1
 79
     5
176
     1
170
     0
176
     1
171
     0
176
     1
290
     0
176
     1
 93
        1
176
     1
 44
-50.0
176
     1
173
     0
176
     1
  0
VISUALSTYLE
  5
39
102
{ACAD_REACTORS
330
2A
102
}
330
2A
100
AcDbVisualStyle
  2
Facepattern
 70
    15
177
     2
291
     1
 71
     2
176
     1
 72
     2
176
     1
 73
     0
176
     1
 90
        0
176
     1
 40
-0.6
176
     1
 41
-30.0
176
     1
 62
     5
 63
     7
421
 16777215
176
     1
 74
     1
176
     1
 91
        4
176
     1
 64
     7
176
     1
 65
   257
176
     1
 75
     1
176
     1
175
     1
176
     1
 42
1.0
176
     1
 92
        8
176
     1
 66
     7
176
     1
 43
1.0
176
     1
 76
     1
176
     1
 77
     6
176
     1
 78
     2
176
     1
 67
     7
176
     1
 79
     5
176
     1
170
     0
176
     1
171
     0
176
     1
290
     0
176
     1
 93
        1
176
     1
 44
0.0
176
     1
173
     0
176
     1
  0
VISUALSTYLE
  5
2B
102
{ACAD_REACTORS
330
2A
102
}
330
2A
100
AcDbVisualStyle
  2
Flat
 70
     0
177
     2
291
     1
 71
     2
176
     1
 72
     1
176
     1
 73
     1
176
     1
 90
        2
176
     1
 40
-0.6
176
     1
 41
30.0
176
     1
 62
     5
 63
     7
421
 16777215
176
     1
 74
     0
176
     1
 91
        4
176
     1
 64
     7
176
     1
 65
   257
176
     1
 75
     1
176
     1
175
     1
176
     1
 42
1.0
176
     1
 92
        8
176
     1
 66
     7
176
     1
 43
1.0
176
     1
 76
     1
176
     1
 77
     6
176
     1
 78
     2
176
     1
 67
     7
176
     1
 79
     5
176
     1
170
     0
176
     1
171
     0
176
     1
290
     0
176
     1
 93
       13
176
     1
 44
0.0
176
     1
173
     0
176
     1
  0
VISUALSTYLE
  5
2C
102
{ACAD_REACTORS
330
2A
102
}
330
2A
100
AcDbVisualStyle
  2
FlatWithEdges
 70
     1
177
     2
291
     1
 71
     2
176
     1
 72
     1
176
     1
 73
     1
176
     1
 90
        2
176
     1
 40
-0.6
176
     1
 41
30.0
176
     1
 62
     5
 63
     7
421
 16777215
176
     1
 74
     1
176
     1
 91
        4
176
     1
 64
     7
176
     1
 65
   257
176
     1
 75
     1
176
     1
175
     1
176
     1
 42
1.0
176
     1
 92
        0
176
     1
 66
   257
176
     1
 43
1.0
176
     1
 76
     1
176
     1
 77
     6
176
     1
 78
     2
176
     1
 67
     7
176
     1
 79
     5
176
     1
170
     0
176
     1
171
     0
176
     1
290
     0
176
     1
 93
       13
176
     1
 44
0.0
176
     1
173
     0
176
     1
  0
VISUALSTYLE
  5
2D
102
{ACAD_REACTORS
330
2A
102
}
330
2A
100
AcDbVisualStyle
  2
Gouraud
 70
     2
177
     2
291
     1
 71
     2
176
     1
 72
     2
176
     1
 73
     1
176
     1
 90
        2
176
     1
 40
-0.6
176
     1
 41
30.0
176
     1
 62
     5
 63
     7
421
 16777215
176
     1
 74
     0
176
     1
 91
        4
176
     1
 64
     7
176
     1
 65
   257
176
     1
 75
     1
176
     1
175
     1
176
     1
 42
1.0
176
     1
 92
        0
176
     1
 66
     7
176
     1
 43
1.0
176
     1
 76
     1
176
     1
 77
     6
176
     1
 78
     2
176
     1
 67
     7
176
     1
 79
     5
176
     1
170
     0
176
     1
171
     0
176
     1
290
     0
176
     1
 93
       13
176
     1
 44
0.0
176
     1
173
     0
176
     1
  0
VISUALSTYLE
  5
2E
102
{ACAD_REACTORS
330
2A
102
}
330
2A
100
AcDbVisualStyle
  2
GouraudWithEdges
 70
     3
177
     2
291
     1
 71
     2
176
     1
 72
     2
176
     1
 73
     1
176
     1
 90
        2
176
     1
 40
-0.6
176
     1
 41
30.0
176
     1
 62
     5
 63
     7
421
 16777215
176
     1
 74
     1
176
     1
 91
        4
176
     1
 64
     7
176
     1
 65
   257
176
     1
 75
     1
176
     1
175
     1
176
     1
 42
1.0
176
     1
 92
        0
176
     1
 66
   257
176
     1
 43
1.0
176
     1
 76
     1
176
     1
 77
     6
176
     1
 78
     2
176
     1
 67
     7
176
     1
 79
     5
176
     1
170
     0
176
     1
171
     0
176
     1
290
     0
176
     1
 93
       13
176
     1
 44
0.0
176
     1
173
     0
176
     1
  0
VISUALSTYLE
  5
38
102
{ACAD_REACTORS
330
2A
102
}
330
2A
100
AcDbVisualStyle
  2
Linepattern
 70
    14
177
     2
291
     1
 71
     2
176
     1
 72
     2
176
     1
 73
     0
176
     1
 90
        0
176
     1
 40
-0.6
176
     1
 41
-30.0
176
     1
 62
     5
 63
     7
421
 16777215
176
     1
 74
     1
176
     1
 91
        4
176
     1
 64
     7
176
     1
 65
   257
176
     1
 75
     7
176
     1
175
     7
176
     1
 42
1.0
176
     1
 92
        8
176
     1
 66
     7
176
     1
 43
1.0
176
     1
 76
     1
176
     1
 77
     6
176
     1
 78
     2
176
     1
 67
     7
176
     1
 79
     5
176
     1
170
     0
176
     1
171
     0
176
     1
290
     0
176
     1
 93
        1
176
     1
 44
0.0
176
     1
173
     0
176
     1
  0
VISUALSTYLE
  5
33
102
{ACAD_REACTORS
330
2A
102
}
330
2A
100
AcDbVisualStyle
  2
Realistic
 70
     8
177
     2
291
     0
 71
     2
176
     1
 72
     2
176
     1
 73
     0
176
     1
 90
        0
176
     1
 40
-0.6
176
     1
 41
-30.0
176
     1
 62
     5
 63
     7
421
 16777215
176
     1
 74
     1
176
     1
 91
        0
176
     1
 64
     7
176
     1
 65
   257
176
     1
 75
     1
176
     1
175
     1
176
     1
 42
1.0
176
     1
 92
        8
176
     1
 66
     8
424
  7895160
176
     1
 43
1.0
176
     1
 76
     1
176
     1
 77
     6
176
     1
 78
     2
176
     1
 67
     7
176
     1
 79
     5
176
     1
170
     0
176
     1
171
     0
176
     1
290
     0
176
     1
 93
       13
176
     1
 44
0.0
176
     1
173
     0
176
     1
  0
VISUALSTYLE
  5
37
102
{ACAD_REACTORS
330
2A
102
}
330
2A
100
AcDbVisualStyle
  2
Thicken
 70
    13
177
     2
291
     1
 71
     2
176
     1
 72
     2
176
     1
 73
     0
176
     1
 90
        0
176
     1
 40
-0.6
176
     1
 41
-30.0
176
     1
 62
     5
 63
     7
421
 16777215
176
     1
 74
     1
176
     1
 91
        4
176
     1
 64
     7
176
     1
 65
   257
176
     1
 75
     1
176
     1
175
     1
176
     1
 42
1.0
176
     1
 92
       12
176
     1
 66
     7
176
     1
 43
1.0
176
     1
 76
     1
176
     1
 77
     6
176
     1
 78
     2
176
     1
 67
     7
176
     1
 79
     5
176
     1
170
     0
176
     1
171
     0
176
     1
290
     0
176
     1
 93
        1
176
     1
 44
0.0
176
     1
173
     0
176
     1
  0
ENDSEC
  0
EOF
