  0
SECTION
  2
HEADER
  9
$ACADVER
  1
AC1024
  9
$ACADMAINTVER
 70
     6
  9
$DWGCODEPAGE
  3
UNDEFINED
  9
$INSBASE
 10
0.0
 20
0.0
 30
0.0
  9
$EXTMIN
 10
1.000000000000000E+20
 20
1.000000000000000E+20
 30
1.000000000000000E+20
  9
$EXTMAX
 10
-1.000000000000000E+20
 20
-1.000000000000000E+20
 30
-1.000000000000000E+20
  9
$LIMMIN
 10
0.0
 20
0.0
  9
$LIMMAX
 10
12.0
 20
9.0
  9
$ORTHOMODE
 70
     0
  9
$REGENMODE
 70
     1
  9
$FILLMODE
 70
     1
  9
$QTEXTMODE
 70
     0
  9
$MIRRTEXT
 70
     1
  9
$LTSCALE
 40
1.0
  9
$ATTMODE
 70
     1
  9
$TEXTSIZE
 40
0.2
  9
$TRACEWID
 40
0.05
  9
$TEXTSTYLE
  7
Standard
  9
$CLAYER
  8
0
  9
$CELTYPE
  6
ByLayer
  9
$CECOLOR
 62
   256
  9
$CELTSCALE
 40
1.0
  9
$DISPSILH
 70
     0
  9
$DIMSCALE
 40
1.0
  9
$DIMASZ
 40
0.18
  9
$DIMEXO
 40
0.0625
  9
$DIMDLI
 40
0.38
  9
$DIMRND
 40
0.0
  9
$DIMDLE
 40
0.0
  9
$DIMEXE
 40
0.18
  9
$DIMTP
 40
0.0
  9
$DIMTM
 40
0.0
  9
$DIMTXT
 40
0.18
  9
$DIMCEN
 40
0.09
  9
$DIMTSZ
 40
0.0
  9
$DIMTOL
 70
     0
  9
$DIMLIM
 70
     0
  9
$DIMTIH
 70
     1
  9
$DIMTOH
 70
     1
  9
$DIMSE1
 70
     0
  9
$DIMSE2
 70
     0
  9
$DIMTAD
 70
     0
  9
$DIMZIN
 70
     0
  9
$DIMBLK
  1

  9
$DIMASO
 70
     1
  9
$DIMSHO
 70
     1
  9
$DIMPOST
  1

  9
$DIMAPOST
  1

  9
$DIMALT
 70
     0
  9
$DIMALTD
 70
     2
  9
$DIMALTF
 40
25.4
  9
$DIMLFAC
 40
1.0
  9
$DIMTOFL
 70
     0
  9
$DIMTVP
 40
0.0
  9
$DIMTIX
 70
     0
  9
$DIMSOXD
 70
     0
  9
$DIMSAH
 70
     0
  9
$DIMBLK1
  1

  9
$DIMBLK2
  1

  9
$DIMSTYLE
  2
Standard
  9
$DIMCLRD
 70
     0
  9
$DIMCLRE
 70
     0
  9
$DIMCLRT
 70
     0
  9
$DIMTFAC
 40
1.0
  9
$DIMGAP
 40
0.09
  9
$DIMJUST
 70
     0
  9
$DIMSD1
 70
     0
  9
$DIMSD2
 70
     0
  9
$DIMTOLJ
 70
     1
  9
$DIMTZIN
 70
     0
  9
$DIMALTZ
 70
     0
  9
$DIMALTTZ
 70
     0
  9
$DIMUPT
 70
     0
  9
$DIMDEC
 70
     4
  9
$DIMTDEC
 70
     4
  9
$DIMALTU
 70
     2
  9
$DIMALTTD
 70
     2
  9
$DIMTXSTY
  7
Standard
  9
$DIMAUNIT
 70
     0
  9
$DIMADEC
 70
     0
  9
$DIMALTRND
 40
0.0
  9
$DIMAZIN
 70
     0
  9
$DIMDSEP
 70
    46
  9
$DIMATFIT
 70
     3
  9
$DIMFRAC
 70
     0
  9
$DIMLDRBLK
  1

  9
$DIMLUNIT
 70
     2
  9
$DIMLWD
 70
    -2
  9
$DIMLWE
 70
    -2
  9
$DIMTMOVE
 70
     0
  9
$DIMFXL
 40
1.0
  9
$DIMFXLON
 70
     0
  9
$DIMJOGANG
 40
0.7853981633974483
  9
$DIMTFILL
 70
     0
  9
$DIMTFILLCLR
 70
     0
  9
$DIMARCSYM
 70
     0
  9
$DIMLTYPE
  6

  9
$DIMLTEX1
  6

  9
$DIMLTEX2
  6

  9
$DIMTXTDIRECTION
 70
     0
  9
$LUNITS
 70
     2
  9
$LUPREC
 70
     4
  9
$SKETCHINC
 40
0.1
  9
$FILLETRAD
 40
0.5
  9
$AUNITS
 70
     0
  9
$AUPREC
 70
     0
  9
$MENU
  1
.
  9
$ELEVATION
 40
0.0
  9
$PELEVATION
 40
0.0
  9
$THICKNESS
 40
0.0
  9
$LIMCHECK
 70
     0
  9
$CHAMFERA
 40
0.5
  9
$CHAMFERB
 40
0.5
  9
$CHAMFERC
 40
1.0
  9
$CHAMFERD
 40
0.0
  9
$SKPOLY
 70
     0
  9
$TDCREATE
 40
2457917.627673599
  9
$TDUCREATE
 40
2457917.252673611
  9
$TDUPDATE
 40
2457917.627673599
  9
$TDUUPDATE
 40
2457917.252673611
  9
$TDINDWG
 40
0.0000000116
  9
$TDUSRTIMER
 40
0.0000000116
  9
$USRTIMER
 70
     1
  9
$ANGBASE
 50
0.0
  9
$ANGDIR
 70
     0
  9
$PDMODE
 70
     0
  9
$PDSIZE
 40
0.0
  9
$PLINEWID
 40
0.0
  9
$SPLFRAME
 70
     0
  9
$SPLINETYPE
 70
     6
  9
$SPLINESEGS
 70
     8
  9
$HANDSEED
  5
17C
  9
$SURFTAB1
 70
     6
  9
$SURFTAB2
 70
     6
  9
$SURFTYPE
 70
     6
  9
$SURFU
 70
     6
  9
$SURFV
 70
     6
  9
$UCSBASE
  2

  9
$UCSNAME
  2

  9
$UCSORG
 10
0.0
 20
0.0
 30
0.0
  9
$UCSXDIR
 10
1.0
 20
0.0
 30
0.0
  9
$UCSYDIR
 10
0.0
 20
1.0
 30
0.0
  9
$UCSORTHOREF
  2

  9
$UCSORTHOVIEW
 70
     0
  9
$UCSORGTOP
 10
0.0
 20
0.0
 30
0.0
  9
$UCSORGBOTTOM
 10
0.0
 20
0.0
 30
0.0
  9
$UCSORGLEFT
 10
0.0
 20
0.0
 30
0.0
  9
$UCSORGRIGHT
 10
0.0
 20
0.0
 30
0.0
  9
$UCSORGFRONT
 10
0.0
 20
0.0
 30
0.0
  9
$UCSORGBACK
 10
0.0
 20
0.0
 30
0.0
  9
$PUCSBASE
  2

  9
$PUCSNAME
  2

  9
$PUCSORG
 10
0.0
 20
0.0
 30
0.0
  9
$PUCSXDIR
 10
1.0
 20
0.0
 30
0.0
  9
$PUCSYDIR
 10
0.0
 20
1.0
 30
0.0
  9
$PUCSORTHOREF
  2

  9
$PUCSORTHOVIEW
 70
     0
  9
$PUCSORGTOP
 10
0.0
 20
0.0
 30
0.0
  9
$PUCSORGBOTTOM
 10
0.0
 20
0.0
 30
0.0
  9
$PUCSORGLEFT
 10
0.0
 20
0.0
 30
0.0
  9
$PUCSORGRIGHT
 10
0.0
 20
0.0
 30
0.0
  9
$PUCSORGFRONT
 10
0.0
 20
0.0
 30
0.0
  9
$PUCSORGBACK
 10
0.0
 20
0.0
 30
0.0
  9
$USERI1
 70
     0
  9
$USERI2
 70
     0
  9
$USERI3
 70
     0
  9
$USERI4
 70
     0
  9
$USERI5
 70
     0
  9
$USERR1
 40
0.0
  9
$USERR2
 40
0.0
  9
$USERR3
 40
0.0
  9
$USERR4
 40
0.0
  9
$USERR5
 40
0.0
  9
$WORLDVIEW
 70
     1
  9
$SHADEDGE
 70
     3
  9
$SHADEDIF
 70
    70
  9
$TILEMODE
 70
     1
  9
$MAXACTVP
 70
    64
  9
$PINSBASE
 10
0.0
 20
0.0
 30
0.0
  9
$PLIMCHECK
 70
     0
  9
$PEXTMIN
 10
1.000000000000000E+20
 20
1.000000000000000E+20
 30
1.000000000000000E+20
  9
$PEXTMAX
 10
-1.000000000000000E+20
 20
-1.000000000000000E+20
 30
-1.000000000000000E+20
  9
$PLIMMIN
 10
0.0
 20
0.0
  9
$PLIMMAX
 10
12.0
 20
9.0
  9
$UNITMODE
 70
     0
  9
$VISRETAIN
 70
     1
  9
$PLINEGEN
 70
     0
  9
$PSLTSCALE
 70
     1
  9
$TREEDEPTH
 70
  3020
  9
$CMLSTYLE
  2
Standard
  9
$CMLJUST
 70
     0
  9
$CMLSCALE
 40
1.0
  9
$PROXYGRAPHICS
 70
     1
  9
$MEASUREMENT
 70
     0
  9
$CELWEIGHT
370
    -1
  9
$ENDCAPS
280
     0
  9
$JOINSTYLE
280
     0
  9
$LWDISPLAY
290
     1
  9
$INSUNITS
 70
     1
  9
$HYPERLINKBASE
  1

  9
$STYLESHEET
  1

  9
$XEDIT
290
     1
  9
$CEPSNTYPE
380
     0
  9
$PSTYLEMODE
290
     1
  9
$FINGERPRINTGUID
  2
{FBA77C26-8B7B-DDBB-2026-9101CBDEA3E3}
  9
$VERSIONGUID
  2
{FAEB1C32-E019-11D5-929B-00C0DF256EC4}
  9
$EXTNAMES
290
     1
  9
$PSVPSCALE
 40
0.0
  9
$OLESTARTUP
290
     0
  9
$SORTENTS
280
   127
  9
$INDEXCTL
280
     0
  9
$HIDETEXT
280
     1
  9
$XCLIPFRAME
280
     2
  9
$HALOGAP
280
     0
  9
$OBSCOLOR
 70
   257
  9
$OBSLTYPE
280
     0
  9
$INTERSECTIONDISPLAY
280
     0
  9
$INTERSECTIONCOLOR
 70
   257
  9
$DIMASSOC
280
     2
  9
$PROJECTNAME
  1

  9
$CAMERADISPLAY
290
     0
  9
$LENSLENGTH
 40
50.0
  9
$CAMERAHEIGHT
 40
0.0
  9
$STEPSPERSEC
 40
2.0
  9
$STEPSIZE
 40
6.0
  9
$3DDWFPREC
 40
2.0
  9
$PSOLWIDTH
 40
0.25
  9
$PSOLHEIGHT
 40
4.0
  9
$LOFTANG1
 40
1.570796326794897
  9
$LOFTANG2
 40
1.570796326794897
  9
$LOFTMAG1
 40
0.0
  9
$LOFTMAG2
 40
0.0
  9
$LOFTPARAM
 70
     7
  9
$LOFTNORMALS
280
     1
  9
$LATITUDE
 40
37.795
  9
$LONGITUDE
 40
-122.394
  9
$NORTHDIRECTION
 40
0.0
  9
$TIMEZONE
 70
 -8000
  9
$LIGHTGLYPHDISPLAY
280
     1
  9
$TILEMODELIGHTSYNCH
280
     1
  9
$CMATERIAL
347
3C
  9
$SOLIDHIST
280
     1
  9
$SHOWHIST
280
     1
  9
$DWFFRAME
280
     2
  9
$DGNFRAME
280
     2
  9
$REALWORLDSCALE
290
     1
  9
$INTERFERECOLOR
 62
   256
  9
$CSHADOW
280
     0
  9
$SHADOWPLANELOCATION
 40
0.0
  0
ENDSEC
  0
SECTION
  2
CLASSES
  0
CLASS
  1
ACDBDICTIONARYWDFLT
  2
AcDbDictionaryWithDefault
  3
ObjectDBX Classes
 90
        0
 91
        4
280
     0
281
     0
  0
CLASS
  1
VISUALSTYLE
  2
AcDbVisualStyle
  3
ObjectDBX Classes
 90
     4095
 91
        4
280
     0
281
     0
  0
CLASS
  1
MATERIAL
  2
AcDbMaterial
  3
ObjectDBX Classes
 90
     1153
 91
        4
280
     0
281
     0
  0
CLASS
  1
SUN
  2
AcDbSun
  3
SCENEOE
 90
     1024
 91
        4
280
     0
281
     0
  0
ENDSEC
  0
SECTION
  2
TABLES
  0
TABLE
  2
VPORT
  5
8
330
0
100
AcDbSymbolTable
 70
     1
  0
VPORT
  5
29
330
8
100
AcDbSymbolTableRecord
100
AcDbViewportTableRecord
  2
*Active
 70
     0
 10
0.0
 20
0.0
 11
1.0
 21
1.0
 12
0.0
 22
0.0
 13
0.0
 23
0.0
 14
0.5
 24
0.5
 15
0.5
 25
0.5
 16
0.0
 26
0.0
 36
1.0
 17
91.00082462281999
 27
-128.4993055234307
 37
0.0
 40
256.9986110468615
 41
0.7081814508812795
 42
50.0
 43
0.0
 44
0.0
 50
0.0
 51
0.0
 71
     0
 72
   100
 73
     1
 74
     3
 75
     0
 76
     0
 77
     0
 78
     0
281
     0
 65
     1
110
0.0
120
0.0
130
0.0
111
1.0
121
0.0
131
0.0
112
0.0
122
1.0
132
0.0
 79
     0
146
0.0
 60
     3
 61
     5
292
     1
282
     1
141
0.0
142
0.0
 63
   250
361
3F
  0
ENDTAB
  0
TABLE
  2
LTYPE
  5
5
330
0
100
AcDbSymbolTable
 70
     1
  0
LTYPE
  5
14
330
5
100
AcDbSymbolTableRecord
100
AcDbLinetypeTableRecord
  2
ByBlock
 70
     0
  3

 72
    65
 73
     0
 40
0.0
  0
LTYPE
  5
15
330
5
100
AcDbSymbolTableRecord
100
AcDbLinetypeTableRecord
  2
ByLayer
 70
     0
  3

 72
    65
 73
     0
 40
0.0
  0
LTYPE
  5
16
330
5
100
AcDbSymbolTableRecord
100
AcDbLinetypeTableRecord
  2
Continuous
 70
     0
  3
Solid line
 72
    65
 73
     0
 40
0.0
  0
ENDTAB
  0
TABLE
  2
LAYER
  5
2
330
0
100
AcDbSymbolTable
 70
     2
  0
LAYER
  5
10
330
2
100
AcDbSymbolTableRecord
100
AcDbLayerTableRecord
  2
0
 70
     0
 62
     7
  6
Continuous
370
    -3
390
F
347
3E
  0
LAYER
  5
40
330
2
100
AcDbSymbolTableRecord
100
AcDbLayerTableRecord
  2
_U+30EC_U+30A4_U+30E4_U+30FC 1
 70
     0
 62
     7
  6
Continuous
370
    -3
390
F
347
3E
  0
ENDTAB
  0
TABLE
  2
STYLE
  5
3
330
0
100
AcDbSymbolTable
 70
     1
  0
STYLE
  5
11
330
3
100
AcDbSymbolTableRecord
100
AcDbTextStyleTableRecord
  2
Standard
 70
     0
 40
0.0
 41
1.0
 50
0.0
 71
     0
 42
0.2
  3
txt
  4

  0
ENDTAB
  0
TABLE
  2
VIEW
  5
6
330
0
100
AcDbSymbolTable
 70
     0
  0
ENDTAB
  0
TABLE
  2
UCS
  5
7
330
0
100
AcDbSymbolTable
 70
     0
  0
ENDTAB
  0
TABLE
  2
APPID
  5
9
330
0
100
AcDbSymbolTable
 70
     1
  0
APPID
  5
12
330
9
100
AcDbSymbolTableRecord
100
AcDbRegAppTableRecord
  2
ACAD
 70
     0
  0
ENDTAB
  0
TABLE
  2
DIMSTYLE
  5
A
330
0
100
AcDbSymbolTable
 70
     1
100
AcDbDimStyleTable
  0
DIMSTYLE
105
27
330
A
100
AcDbSymbolTableRecord
100
AcDbDimStyleTableRecord
  2
Standard
 70
     0
178
     0
340
11
  0
ENDTAB
  0
TABLE
  2
BLOCK_RECORD
  5
1
330
0
100
AcDbSymbolTable
 70
    11
  0
BLOCK_RECORD
  5
1F
330
1
100
AcDbSymbolTableRecord
100
AcDbBlockTableRecord
  2
*Model_Space
340
22
 70
     0
280
     1
281
     0
  0
BLOCK_RECORD
  5
1B
330
1
100
AcDbSymbolTableRecord
100
AcDbBlockTableRecord
  2
*Paper_Space
340
1E
 70
     0
280
     1
281
     0
  0
BLOCK_RECORD
  5
23
330
1
100
AcDbSymbolTableRecord
100
AcDbBlockTableRecord
  2
*Paper_Space0
340
26
 70
     0
280
     1
281
     0
  0
BLOCK_RECORD
  5
45
330
1
100
AcDbSymbolTableRecord
100
AcDbBlockTableRecord
  2
block 2
340
0
102
{BLKREFS
331
46
102
}
 70
     0
280
     1
281
     0
  0
BLOCK_RECORD
  5
59
330
1
100
AcDbSymbolTableRecord
100
AcDbBlockTableRecord
  2
block 3
340
0
102
{BLKREFS
331
5A
102
}
 70
     0
280
     1
281
     0
  0
BLOCK_RECORD
  5
9A
330
1
100
AcDbSymbolTableRecord
100
AcDbBlockTableRecord
  2
block 4
340
0
102
{BLKREFS
331
9B
102
}
 70
     0
280
     1
281
     0
  0
BLOCK_RECORD
  5
A2
330
1
100
AcDbSymbolTableRecord
100
AcDbBlockTableRecord
  2
block 5
340
0
102
{BLKREFS
331
A3
102
}
 70
     0
280
     1
281
     0
  0
BLOCK_RECORD
  5
A8
330
1
100
AcDbSymbolTableRecord
100
AcDbBlockTableRecord
  2
block 6
340
0
102
{BLKREFS
331
A9
102
}
 70
     0
280
     1
281
     0
  0
BLOCK_RECORD
  5
BA
330
1
100
AcDbSymbolTableRecord
100
AcDbBlockTableRecord
  2
block 7
340
0
102
{BLKREFS
331
BB
102
}
 70
     0
280
     1
281
     0
  0
BLOCK_RECORD
  5
C2
330
1
100
AcDbSymbolTableRecord
100
AcDbBlockTableRecord
  2
block 8
340
0
102
{BLKREFS
331
C3
102
}
 70
     0
280
     1
281
     0
  0
BLOCK_RECORD
  5
F4
330
1
100
AcDbSymbolTableRecord
100
AcDbBlockTableRecord
  2
block 9
340
0
102
{BLKREFS
331
F5
102
}
 70
     0
280
     1
281
     0
  0
BLOCK_RECORD
  5
10F
330
1
100
AcDbSymbolTableRecord
100
AcDbBlockTableRecord
  2
block 10
340
0
102
{BLKREFS
331
110
102
}
 70
     0
280
     1
281
     0
  0
BLOCK_RECORD
  5
12E
330
1
100
AcDbSymbolTableRecord
100
AcDbBlockTableRecord
  2
block 11
340
0
102
{BLKREFS
331
12F
102
}
 70
     0
280
     1
281
     0
  0
ENDTAB
  0
ENDSEC
  0
SECTION
  2
BLOCKS
  0
BLOCK
  5
20
330
1F
100
AcDbEntity
  8
0
100
AcDbBlockBegin
  2
*Model_Space
 70
     0
 10
0.0
 20
0.0
 30
0.0
  3
*Model_Space
  1

  0
ENDBLK
  5
21
330
1F
100
AcDbEntity
  8
0
100
AcDbBlockEnd
  0
BLOCK
  5
1C
330
1B
100
AcDbEntity
 67
     1
  8
0
100
AcDbBlockBegin
  2
*Paper_Space
 70
     0
 10
0.0
 20
0.0
 30
0.0
  3
*Paper_Space
  1

  0
ENDBLK
  5
1D
330
1B
100
AcDbEntity
 67
     1
  8
0
100
AcDbBlockEnd
  0
BLOCK
  5
24
330
23
100
AcDbEntity
  8
0
100
AcDbBlockBegin
  2
*Paper_Space0
 70
     0
 10
0.0
 20
0.0
 30
0.0
  3
*Paper_Space0
  1

  0
ENDBLK
  5
25
330
23
100
AcDbEntity
  8
0
100
AcDbBlockEnd
  0
BLOCK
  5
47
330
45
100
AcDbEntity
  8
0
100
AcDbBlockBegin
  2
block 2
 70
     0
 10
0.0
 20
0.0
 30
0.0
  3
block 2
  1

  0
SPLINE
  5
49
330
45
100
AcDbEntity
  8
_U+30EC_U+30A4_U+30E4_U+30FC 1
370
     0
100
AcDbSpline
210
0.0
220
0.0
230
1.0
 70
    11
 71
     3
 72
    32
 73
    28
 74
     0
 42
0.0000000001
 43
0.0000000001
 12
1.0
 22
0.0
 32
0.0
 13
1.0
 23
0.0
 33
0.0
 40
0.0
 40
0.0
 40
0.0
 40
0.0
 40
1.0
 40
1.0
 40
1.0
 40
2.0
 40
2.0
 40
2.0
 40
3.0
 40
3.0
 40
3.0
 40
4.0
 40
4.0
 40
4.0
 40
5.0
 40
5.0
 40
5.0
 40
6.0
 40
6.0
 40
6.0
 40
7.0
 40
7.0
 40
7.0
 40
8.0
 40
8.0
 40
8.0
 40
9.0
 40
9.0
 40
9.0
 40
9.0
 10
92.95349932571996
 20
-112.4985595421879
 30
0.0
 10
92.43742402202953
 20
-112.4985595421879
 30
0.0
 10
92.42915579286493
 20
-111.9445881881597
 30
0.0
 10
92.42915579286493
 20
-111.7306477585257
 30
0.0
 10
92.42915579286493
 20
-111.5001708705625
 30
0.0
 10
92.44810381803381
 20
-110.852837428884
 30
0.0
 10
92.99173988560624
 20
-110.852837428884
 30
0.0
 10
93.1650281885143
 20
-110.852837428884
 30
0.0
 10
93.41066349661261
 20
-110.9227728672346
 30
0.0
 10
93.44855954695036
 20
-111.2548800720127
 30
0.0
 10
93.44855954695036
 20
-111.2548800720127
 30
0.0
 10
93.23496362686487
 20
-111.2548800720127
 30
0.0
 10
93.23496362686487
 20
-111.2548800720127
 30
0.0
 10
93.2242838308606
 20
-111.1976914869575
 30
0.0
 10
93.1925889523963
 20
-111.0495523810918
 30
0.0
 10
92.98967282831508
 20
-111.0495523810918
 30
0.0
 10
92.6975287311659
 20
-111.0495523810918
 30
0.0
 10
92.657565623537
 20
-111.3775254712876
 30
0.0
 10
92.64481877024157
 20
-111.5825086526599
 30
0.0
 10
92.73783634834332
 20
-111.5043049851448
 30
0.0
 10
92.80570472940275
 20
-111.4450493427985
 30
0.0
 10
92.98760577102394
 20
-111.4450493427985
 30
0.0
 10
93.16743975535398
 20
-111.4450493427985
 30
0.0
 10
93.46991913895891
 20
-111.5532253410353
 30
0.0
 10
93.46991913895891
 20
-111.9594020987463
 30
0.0
 10
93.46991913895891
 20
-112.2787624502289
 30
0.0
 10
93.27079261991148
 20
-112.4985595421879
 30
0.0
 10
92.95349932571996
 20
-112.4985595421879
 30
0.0
  0
SPLINE
  5
4A
330
45
100
AcDbEntity
  8
_U+30EC_U+30A4_U+30E4_U+30FC 1
370
     0
100
AcDbSpline
210
0.0
220
0.0
230
1.0
 70
    11
 71
     3
 72
    17
 73
    13
 74
     0
 42
0.0000000001
 43
0.0000000001
 12
1.0
 22
0.0
 32
0.0
 13
1.0
 23
0.0
 33
0.0
 40
0.0
 40
0.0
 40
0.0
 40
0.0
 40
1.0
 40
1.0
 40
1.0
 40
2.0
 40
2.0
 40
2.0
 40
3.0
 40
3.0
 40
3.0
 40
4.0
 40
4.0
 40
4.0
 40
4.0
 10
92.97072480314621
 20
-111.6396972377151
 30
0.0
 10
92.70820852717017
 20
-111.6396972377151
 30
0.0
 10
92.67031247683242
 20
-111.8512261005094
 30
0.0
 10
92.67031247683242
 20
-111.9676703279109
 30
0.0
 10
92.67031247683242
 20
-112.1433701976586
 30
0.0
 10
92.76539711222532
 20
-112.3063232141109
 30
0.0
 10
92.94936521113766
 20
-112.3063232141109
 30
0.0
 10
93.0699435531214
 20
-112.3063232141109
 30
0.0
 10
93.24564342286915
 20
-112.2470675717646
 30
0.0
 10
93.24564342286915
 20
-111.9614691560374
 30
0.0
 10
93.24564342286915
 20
-111.7371934399476
 30
0.0
 10
93.10577254616801
 20
-111.6396972377151
 30
0.0
 10
92.97072480314621
 20
-111.6396972377151
 30
0.0
  0
HATCH
  5
4B
330
45
100
AcDbEntity
  8
_U+30EC_U+30A4_U+30E4_U+30FC 1
 62
   179
420
  2234388
100
AcDbHatch
 10
0.0
 20
0.0
 30
0.0
210
0.0
220
0.0
230
1.0
  2
SOLID
 70
     1
 71
     0
 91
        2
 92
        1
 93
        1
 72
     4
 94
        3
 73
     0
 74
     1
 95
       32
 96
       28
 40
0.0
 40
0.0
 40
0.0
 40
0.0
 40
1.0
 40
1.0
 40
1.0
 40
2.0
 40
2.0
 40
2.0
 40
3.0
 40
3.0
 40
3.0
 40
4.0
 40
4.0
 40
4.0
 40
5.0
 40
5.0
 40
5.0
 40
6.0
 40
6.0
 40
6.0
 40
7.0
 40
7.0
 40
7.0
 40
8.0
 40
8.0
 40
8.0
 40
9.0
 40
9.0
 40
9.0
 40
9.0
 10
92.95349932571996
 20
-112.4985595421879
 10
92.43742402202953
 20
-112.4985595421879
 10
92.42915579286493
 20
-111.9445881881597
 10
92.42915579286493
 20
-111.7306477585257
 10
92.42915579286493
 20
-111.5001708705625
 10
92.44810381803381
 20
-110.852837428884
 10
92.99173988560624
 20
-110.852837428884
 10
93.1650281885143
 20
-110.852837428884
 10
93.41066349661261
 20
-110.9227728672346
 10
93.44855954695036
 20
-111.2548800720127
 10
93.44855954695036
 20
-111.2548800720127
 10
93.23496362686487
 20
-111.2548800720127
 10
93.23496362686487
 20
-111.2548800720127
 10
93.2242838308606
 20
-111.1976914869575
 10
93.1925889523963
 20
-111.0495523810918
 10
92.98967282831508
 20
-111.0495523810918
 10
92.6975287311659
 20
-111.0495523810918
 10
92.657565623537
 20
-111.3775254712876
 10
92.64481877024157
 20
-111.5825086526599
 10
92.73783634834332
 20
-111.5043049851448
 10
92.80570472940275
 20
-111.4450493427985
 10
92.98760577102394
 20
-111.4450493427985
 10
93.16743975535398
 20
-111.4450493427985
 10
93.46991913895891
 20
-111.5532253410353
 10
93.46991913895891
 20
-111.9594020987463
 10
93.46991913895891
 20
-112.2787624502289
 10
93.27079261991148
 20
-112.4985595421879
 10
92.95349932571996
 20
-112.4985595421879
 97
        0
 97
        0
 92
        1
 93
        1
 72
     4
 94
        3
 73
     0
 74
     1
 95
       17
 96
       13
 40
0.0
 40
0.0
 40
0.0
 40
0.0
 40
1.0
 40
1.0
 40
1.0
 40
2.0
 40
2.0
 40
2.0
 40
3.0
 40
3.0
 40
3.0
 40
4.0
 40
4.0
 40
4.0
 40
4.0
 10
92.97072480314621
 20
-111.6396972377151
 10
92.70820852717017
 20
-111.6396972377151
 10
92.67031247683242
 20
-111.8512261005094
 10
92.67031247683242
 20
-111.9676703279109
 10
92.67031247683242
 20
-112.1433701976586
 10
92.76539711222532
 20
-112.3063232141109
 10
92.94936521113766
 20
-112.3063232141109
 10
93.0699435531214
 20
-112.3063232141109
 10
93.24564342286915
 20
-112.2470675717646
 10
93.24564342286915
 20
-111.9614691560374
 10
93.24564342286915
 20
-111.7371934399476
 10
93.10577254616801
 20
-111.6396972377151
 10
92.97072480314621
 20
-111.6396972377151
 97
        0
 97
        0
 75
     2
 76
     1
 98
        0
  0
SPLINE
  5
4C
330
45
100
AcDbEntity
  8
_U+30EC_U+30A4_U+30E4_U+30FC 1
370
     0
100
AcDbSpline
210
0.0
220
0.0
230
1.0
 70
    11
 71
     3
 72
    29
 73
    25
 74
     0
 42
0.0000000001
 43
0.0000000001
 12
1.0
 22
0.0
 32
0.0
 13
1.0
 23
0.0
 33
0.0
 40
0.0
 40
0.0
 40
0.0
 40
0.0
 40
1.0
 40
1.0
 40
1.0
 40
2.0
 40
2.0
 40
2.0
 40
3.0
 40
3.0
 40
3.0
 40
4.0
 40
4.0
 40
4.0
 40
5.0
 40
5.0
 40
5.0
 40
6.0
 40
6.0
 40
6.0
 40
7.0
 40
7.0
 40
7.0
 40
8.0
 40
8.0
 40
8.0
 40
8.0
 10
94.52411835744536
 20
-112.2701497115158
 30
0.0
 10
94.41594235920851
 20
-112.479611517019
 30
0.0
 10
94.24265405630045
 20
-112.4985595421879
 30
0.0
 10
94.12620982889901
 20
-112.4985595421879
 30
0.0
 10
93.96532386973784
 20
-112.4985595421879
 30
0.0
 10
93.82373044529407
 20
-112.452050753137
 30
0.0
 10
93.72864580990118
 20
-112.2701497115158
 30
0.0
 10
93.62494843579516
 20
-112.0755018165992
 30
0.0
 10
93.60600041062628
 20
-111.8388237567625
 30
0.0
 10
93.60600041062628
 20
-111.6758707403102
 30
0.0
 10
93.60600041062628
 20
-111.5318657490268
 30
0.0
 10
93.622881378504
 20
-111.280029269055
 30
0.0
 10
93.72864580990118
 20
-111.0812472595561
 30
0.0
 10
93.8364772985895
 20
-110.8783311354749
 30
0.0
 10
93.99736325775066
 20
-110.8549044861752
 30
0.0
 10
94.12620982889901
 20
-110.8549044861752
 30
0.0
 10
94.28502873076903
 20
-110.8549044861752
 30
0.0
 10
94.42868921250394
 20
-110.8993462179349
 30
0.0
 10
94.52411835744536
 20
-111.0812472595561
 30
0.0
 10
94.62333710742055
 20
-111.2738280971815
 30
0.0
 10
94.64676375672026
 20
-111.5022379278536
 30
0.0
 10
94.64676375672026
 20
-111.6758707403102
 30
0.0
 10
94.64676375672026
 20
-111.8470919859271
 30
0.0
 10
94.62540416471171
 20
-112.0775688738903
 30
0.0
 10
94.52411835744536
 20
-112.2701497115158
 30
0.0
  0
SPLINE
  5
4D
330
45
100
AcDbEntity
  8
_U+30EC_U+30A4_U+30E4_U+30FC 1
370
     0
100
AcDbSpline
210
0.0
220
0.0
230
1.0
 70
    11
 71
     3
 72
    17
 73
    13
 74
     0
 42
0.0000000001
 43
0.0000000001
 12
1.0
 22
0.0
 32
0.0
 13
1.0
 23
0.0
 33
0.0
 40
0.0
 40
0.0
 40
0.0
 40
0.0
 40
1.0
 40
1.0
 40
1.0
 40
2.0
 40
2.0
 40
2.0
 40
3.0
 40
3.0
 40
3.0
 40
4.0
 40
4.0
 40
4.0
 40
4.0
 10
94.12620982889901
 20
-111.0474853238006
 30
0.0
 10
93.87678491576692
 20
-111.0474853238006
 30
0.0
 10
93.82993161716752
 20
-111.3310166822367
 30
0.0
 10
93.82993161716752
 20
-111.6758707403102
 30
0.0
 10
93.82993161716752
 20
-111.9952310917929
 30
0.0
 10
93.86610511976265
 20
-112.3039116472712
 30
0.0
 10
94.12620982889901
 20
-112.3039116472712
 30
0.0
 10
94.37391219428847
 20
-112.3039116472712
 30
0.0
 10
94.4224880406305
 20
-112.0227918556749
 30
0.0
 10
94.4224880406305
 20
-111.6758707403102
 30
0.0
 10
94.4224880406305
 20
-111.356165879279
 30
0.0
 10
94.38424748074422
 20
-111.0474853238006
 30
0.0
 10
94.12620982889901
 20
-111.0474853238006
 30
0.0
  0
HATCH
  5
4E
330
45
100
AcDbEntity
  8
_U+30EC_U+30A4_U+30E4_U+30FC 1
 62
   179
420
  2234388
100
AcDbHatch
 10
0.0
 20
0.0
 30
0.0
210
0.0
220
0.0
230
1.0
  2
SOLID
 70
     1
 71
     0
 91
        2
 92
        1
 93
        1
 72
     4
 94
        3
 73
     0
 74
     1
 95
       29
 96
       25
 40
0.0
 40
0.0
 40
0.0
 40
0.0
 40
1.0
 40
1.0
 40
1.0
 40
2.0
 40
2.0
 40
2.0
 40
3.0
 40
3.0
 40
3.0
 40
4.0
 40
4.0
 40
4.0
 40
5.0
 40
5.0
 40
5.0
 40
6.0
 40
6.0
 40
6.0
 40
7.0
 40
7.0
 40
7.0
 40
8.0
 40
8.0
 40
8.0
 40
8.0
 10
94.52411835744536
 20
-112.2701497115158
 10
94.41594235920851
 20
-112.479611517019
 10
94.24265405630045
 20
-112.4985595421879
 10
94.12620982889901
 20
-112.4985595421879
 10
93.96532386973784
 20
-112.4985595421879
 10
93.82373044529407
 20
-112.452050753137
 10
93.72864580990118
 20
-112.2701497115158
 10
93.62494843579516
 20
-112.0755018165992
 10
93.60600041062628
 20
-111.8388237567625
 10
93.60600041062628
 20
-111.6758707403102
 10
93.60600041062628
 20
-111.5318657490268
 10
93.622881378504
 20
-111.280029269055
 10
93.72864580990118
 20
-111.0812472595561
 10
93.8364772985895
 20
-110.8783311354749
 10
93.99736325775066
 20
-110.8549044861752
 10
94.12620982889901
 20
-110.8549044861752
 10
94.28502873076903
 20
-110.8549044861752
 10
94.42868921250394
 20
-110.8993462179349
 10
94.52411835744536
 20
-111.0812472595561
 10
94.62333710742055
 20
-111.2738280971815
 10
94.64676375672026
 20
-111.5022379278536
 10
94.64676375672026
 20
-111.6758707403102
 10
94.64676375672026
 20
-111.8470919859271
 10
94.62540416471171
 20
-112.0775688738903
 10
94.52411835744536
 20
-112.2701497115158
 97
        0
 97
        0
 92
        1
 93
        1
 72
     4
 94
        3
 73
     0
 74
     1
 95
       17
 96
       13
 40
0.0
 40
0.0
 40
0.0
 40
0.0
 40
1.0
 40
1.0
 40
1.0
 40
2.0
 40
2.0
 40
2.0
 40
3.0
 40
3.0
 40
3.0
 40
4.0
 40
4.0
 40
4.0
 40
4.0
 10
94.12620982889901
 20
-111.0474853238006
 10
93.87678491576692
 20
-111.0474853238006
 10
93.82993161716752
 20
-111.3310166822367
 10
93.82993161716752
 20
-111.6758707403102
 10
93.82993161716752
 20
-111.9952310917929
 10
93.86610511976265
 20
-112.3039116472712
 10
94.12620982889901
 20
-112.3039116472712
 10
94.37391219428847
 20
-112.3039116472712
 10
94.4224880406305
 20
-112.0227918556749
 10
94.4224880406305
 20
-111.6758707403102
 10
94.4224880406305
 20
-111.356165879279
 10
94.38424748074422
 20
-111.0474853238006
 10
94.12620982889901
 20
-111.0474853238006
 97
        0
 97
        0
 75
     2
 76
     1
 98
        0
  0
POLYLINE
  5
4F
330
45
100
AcDbEntity
  8
_U+30EC_U+30A4_U+30E4_U+30FC 1
370
     0
100
AcDb2dPolyline
 66
     1
 10
0.0
 20
0.0
 30
0.0
  0
VERTEX
  5
50
330
4F
100
AcDbEntity
  8
_U+30EC_U+30A4_U+30E4_U+30FC 1
370
     0
100
AcDbVertex
100
AcDb2dVertex
 10
94.86311575319395
 20
-112.4479166385547
 30
0.0
  0
VERTEX
  5
51
330
4F
100
AcDbEntity
  8
_U+30EC_U+30A4_U+30E4_U+30FC 1
370
     0
100
AcDbVertex
100
AcDb2dVertex
 10
94.86311575319395
 20
-112.1960801585829
 30
0.0
  0
VERTEX
  5
52
330
4F
100
AcDbEntity
  8
_U+30EC_U+30A4_U+30E4_U+30FC 1
370
     0
100
AcDbVertex
100
AcDb2dVertex
 10
95.11495223316571
 20
-112.1960801585829
 30
0.0
  0
VERTEX
  5
53
330
4F
100
AcDbEntity
  8
_U+30EC_U+30A4_U+30E4_U+30FC 1
370
     0
100
AcDbVertex
100
AcDb2dVertex
 10
95.11495223316571
 20
-112.4479166385547
 30
0.0
  0
VERTEX
  5
54
330
4F
100
AcDbEntity
  8
_U+30EC_U+30A4_U+30E4_U+30FC 1
370
     0
100
AcDbVertex
100
AcDb2dVertex
 10
94.86311575319395
 20
-112.4479166385547
 30
0.0
  0
SEQEND
  5
55
330
4F
100
AcDbEntity
  8
_U+30EC_U+30A4_U+30E4_U+30FC 1
370
     0
  0
HATCH
  5
56
330
45
100
AcDbEntity
  8
_U+30EC_U+30A4_U+30E4_U+30FC 1
 62
   179
420
  2234388
100
AcDbHatch
 10
0.0
 20
0.0
 30
0.0
210
0.0
220
0.0
230
1.0
  2
SOLID
 70
     1
 71
     0
 91
        1
 92
        1
 93
        4
 72
     1
 10
94.86311575319395
 20
-112.4479166385547
 11
94.86311575319395
 21
-112.1960801585829
 72
     1
 10
94.86311575319395
 20
-112.1960801585829
 11
95.11495223316571
 21
-112.1960801585829
 72
     1
 10
95.11495223316571
 20
-112.1960801585829
 11
95.11495223316571
 21
-112.4479166385547
 72
     1
 10
95.11495223316571
 20
-112.4479166385547
 11
94.86311575319395
 21
-112.4479166385547
 97
        0
 75
     2
 76
     1
 98
        0
  0
SPLINE
  5
57
330
45
100
AcDbEntity
  8
_U+30EC_U+30A4_U+30E4_U+30FC 1
370
     0
100
AcDbSpline
210
0.0
220
0.0
230
1.0
 70
    11
 71
     3
 72
    44
 73
    40
 74
     0
 42
0.0000000001
 43
0.0000000001
 12
1.0
 22
0.0
 32
0.0
 13
1.0
 23
0.0
 33
0.0
 40
0.0
 40
0.0
 40
0.0
 40
0.0
 40
1.0
 40
1.0
 40
1.0
 40
2.0
 40
2.0
 40
2.0
 40
3.0
 40
3.0
 40
3.0
 40
4.0
 40
4.0
 40
4.0
 40
5.0
 40
5.0
 40
5.0
 40
6.0
 40
6.0
 40
6.0
 40
7.0
 40
7.0
 40
7.0
 40
8.0
 40
8.0
 40
8.0
 40
9.0
 40
9.0
 40
9.0
 40
10.0
 40
10.0
 40
10.0
 40
11.0
 40
11.0
 40
11.0
 40
12.0
 40
12.0
 40
12.0
 40
13.0
 40
13.0
 40
13.0
 40
13.0
 10
95.94418671646535
 20
-111.866040011096
 30
0.0
 10
95.72645668179756
 20
-112.024858912966
 30
0.0
 10
95.6334391036958
 20
-112.0989284658989
 30
0.0
 10
95.58451874780526
 20
-112.2425889476338
 30
0.0
 10
95.58451874780526
 20
-112.2425889476338
 30
0.0
 10
96.36311032747173
 20
-112.2425889476338
 30
0.0
 10
96.36311032747173
 20
-112.2425889476338
 30
0.0
 10
96.36311032747173
 20
-112.2425889476338
 30
0.0
 10
96.36311032747173
 20
-112.4479166385547
 30
0.0
 10
96.36311032747173
 20
-112.4479166385547
 30
0.0
 10
96.36311032747173
 20
-112.4479166385547
 30
0.0
 10
95.33509383467317
 20
-112.4479166385547
 30
0.0
 10
95.33509383467317
 20
-112.4479166385547
 30
0.0
 10
95.36678871313747
 20
-112.0903157271858
 30
0.0
 10
95.43224552735722
 20
-112.0121120596706
 30
0.0
 10
95.81740720260815
 20
-111.713766790648
 30
0.0
 10
96.07337779716221
 20
-111.514984781149
 30
0.0
 10
96.13883461138197
 20
-111.4471164000896
 30
0.0
 10
96.13883461138197
 20
-111.3096570902281
 30
0.0
 10
96.13883461138197
 20
-111.1911458055356
 30
0.0
 10
96.06683211574024
 20
-111.0602321770961
 30
0.0
 10
95.87011716353247
 20
-111.0602321770961
 30
0.0
 10
95.61001245439611
 20
-111.0602321770961
 30
0.0
 10
95.60139971568299
 20
-111.2907090650593
 30
0.0
 10
95.59726560110069
 20
-111.4071532924607
 30
0.0
 10
95.59726560110069
 20
-111.4071532924607
 30
0.0
 10
95.37298988501092
 20
-111.4071532924607
 30
0.0
 10
95.37298988501092
 20
-111.4071532924607
 30
0.0
 10
95.38160262372405
 20
-111.280029269055
 30
0.0
 10
95.39228241972832
 20
-111.1680636657844
 30
0.0
 10
95.47255314453464
 20
-111.0495523810918
 30
0.0
 10
95.58245169051412
 20
-110.8886664219306
 30
0.0
 10
95.76883135626613
 20
-110.8549044861752
 30
0.0
 10
95.88493107411905
 20
-110.8549044861752
 30
0.0
 10
96.16226126068166
 20
-110.8549044861752
 30
0.0
 10
96.3696560088937
 20
-111.0388725850875
 30
0.0
 10
96.3696560088937
 20
-111.3117241475193
 30
0.0
 10
96.3696560088937
 20
-111.5404784877399
 30
0.0
 10
96.25321178149225
 20
-111.6396972377151
 30
0.0
 10
95.94418671646535
 20
-111.866040011096
 30
0.0
  0
HATCH
  5
58
330
45
100
AcDbEntity
  8
_U+30EC_U+30A4_U+30E4_U+30FC 1
 62
   179
420
  2234388
100
AcDbHatch
 10
0.0
 20
0.0
 30
0.0
210
0.0
220
0.0
230
1.0
  2
SOLID
 70
     1
 71
     0
 91
        1
 92
        1
 93
        1
 72
     4
 94
        3
 73
     0
 74
     1
 95
       44
 96
       40
 40
0.0
 40
0.0
 40
0.0
 40
0.0
 40
1.0
 40
1.0
 40
1.0
 40
2.0
 40
2.0
 40
2.0
 40
3.0
 40
3.0
 40
3.0
 40
4.0
 40
4.0
 40
4.0
 40
5.0
 40
5.0
 40
5.0
 40
6.0
 40
6.0
 40
6.0
 40
7.0
 40
7.0
 40
7.0
 40
8.0
 40
8.0
 40
8.0
 40
9.0
 40
9.0
 40
9.0
 40
10.0
 40
10.0
 40
10.0
 40
11.0
 40
11.0
 40
11.0
 40
12.0
 40
12.0
 40
12.0
 40
13.0
 40
13.0
 40
13.0
 40
13.0
 10
95.94418671646535
 20
-111.866040011096
 10
95.72645668179756
 20
-112.024858912966
 10
95.6334391036958
 20
-112.0989284658989
 10
95.58451874780526
 20
-112.2425889476338
 10
95.58451874780526
 20
-112.2425889476338
 10
96.36311032747173
 20
-112.2425889476338
 10
96.36311032747173
 20
-112.2425889476338
 10
96.36311032747173
 20
-112.2425889476338
 10
96.36311032747173
 20
-112.4479166385547
 10
96.36311032747173
 20
-112.4479166385547
 10
96.36311032747173
 20
-112.4479166385547
 10
95.33509383467317
 20
-112.4479166385547
 10
95.33509383467317
 20
-112.4479166385547
 10
95.36678871313747
 20
-112.0903157271858
 10
95.43224552735722
 20
-112.0121120596706
 10
95.81740720260815
 20
-111.713766790648
 10
96.07337779716221
 20
-111.514984781149
 10
96.13883461138197
 20
-111.4471164000896
 10
96.13883461138197
 20
-111.3096570902281
 10
96.13883461138197
 20
-111.1911458055356
 10
96.06683211574024
 20
-111.0602321770961
 10
95.87011716353247
 20
-111.0602321770961
 10
95.61001245439611
 20
-111.0602321770961
 10
95.60139971568299
 20
-111.2907090650593
 10
95.59726560110069
 20
-111.4071532924607
 10
95.59726560110069
 20
-111.4071532924607
 10
95.37298988501092
 20
-111.4071532924607
 10
95.37298988501092
 20
-111.4071532924607
 10
95.38160262372405
 20
-111.280029269055
 10
95.39228241972832
 20
-111.1680636657844
 10
95.47255314453464
 20
-111.0495523810918
 10
95.58245169051412
 20
-110.8886664219306
 10
95.76883135626613
 20
-110.8549044861752
 10
95.88493107411905
 20
-110.8549044861752
 10
96.16226126068166
 20
-110.8549044861752
 10
96.3696560088937
 20
-111.0388725850875
 10
96.3696560088937
 20
-111.3117241475193
 10
96.3696560088937
 20
-111.5404784877399
 10
96.25321178149225
 20
-111.6396972377151
 10
95.94418671646535
 20
-111.866040011096
 97
        0
 97
        0
 75
     2
 76
     1
 98
        0
  0
ENDBLK
  5
48
330
45
100
AcDbEntity
  8
0
100
AcDbBlockEnd
  0
BLOCK
  5
5B
330
59
100
AcDbEntity
  8
0
100
AcDbBlockBegin
  2
block 3
 70
     0
 10
0.0
 20
0.0
 30
0.0
  3
block 3
  1

  0
SPLINE
  5
5D
330
59
100
AcDbEntity
  8
_U+30EC_U+30A4_U+30E4_U+30FC 1
370
     0
100
AcDbSpline
210
0.0
220
0.0
230
1.0
 70
    11
 71
     3
 72
    62
 73
    58
 74
     0
 42
0.0000000001
 43
0.0000000001
 12
1.0
 22
0.0
 32
0.0
 13
1.0
 23
0.0
 33
0.0
 40
0.0
 40
0.0
 40
0.0
 40
0.0
 40
1.0
 40
1.0
 40
1.0
 40
2.0
 40
2.0
 40
2.0
 40
3.0
 40
3.0
 40
3.0
 40
4.0
 40
4.0
 40
4.0
 40
5.0
 40
5.0
 40
5.0
 40
6.0
 40
6.0
 40
6.0
 40
7.0
 40
7.0
 40
7.0
 40
8.0
 40
8.0
 40
8.0
 40
9.0
 40
9.0
 40
9.0
 40
10.0
 40
10.0
 40
10.0
 40
11.0
 40
11.0
 40
11.0
 40
12.0
 40
12.0
 40
12.0
 40
13.0
 40
13.0
 40
13.0
 40
14.0
 40
14.0
 40
14.0
 40
15.0
 40
15.0
 40
15.0
 40
16.0
 40
16.0
 40
16.0
 40
17.0
 40
17.0
 40
17.0
 40
18.0
 40
18.0
 40
18.0
 40
19.0
 40
19.0
 40
19.0
 40
19.0
 10
98.71266544841211
 20
-115.5705511863851
 30
0.0
 10
98.61723630347069
 20
-115.5705511863851
 30
0.0
 10
98.39950626880291
 20
-115.5495361039251
 30
0.0
 10
98.27444930268834
 20
-115.3635009477216
 30
0.0
 10
98.20037974975547
 20
-115.2511908349025
 30
0.0
 10
98.19624563517317
 20
-115.1519720849273
 30
0.0
 10
98.19211152059087
 20
-115.0672227359901
 30
0.0
 10
98.19211152059087
 20
-115.0672227359901
 30
0.0
 10
98.41225312209833
 20
-115.0672227359901
 30
0.0
 10
98.41225312209833
 20
-115.0672227359901
 30
0.0
 10
98.41432017938948
 20
-115.141292288923
 30
0.0
 10
98.42465546584523
 20
-115.3759032914685
 30
0.0
 10
98.70818682428128
 20
-115.3759032914685
 30
0.0
 10
98.84564613414275
 20
-115.3759032914685
 30
0.0
 10
98.99826386413933
 20
-115.3063123626665
 30
0.0
 10
98.99826386413933
 20
-115.0779025319944
 30
0.0
 10
98.99826386413933
 20
-114.961458304593
 30
0.0
 10
98.96002330425306
 20
-114.9128824582509
 30
0.0
 10
98.92832842578875
 20
-114.8811875797867
 30
0.0
 10
98.85425887285588
 20
-114.8071180268538
 30
0.0
 10
98.73781464545443
 20
-114.7943711735584
 30
0.0
 10
98.68303762723897
 20
-114.7943711735584
 30
0.0
 10
98.66374509252157
 20
-114.7943711735584
 30
0.0
 10
98.62791609947497
 20
-114.7964382308495
 30
0.0
 10
98.60035533559297
 20
-114.8005723454318
 30
0.0
 10
98.60035533559297
 20
-114.8005723454318
 30
0.0
 10
98.60035533559297
 20
-114.6059244505152
 30
0.0
 10
98.60035533559297
 20
-114.6059244505152
 30
0.0
 10
98.63859589547924
 20
-114.6124701319372
 30
0.0
 10
98.68062606039929
 20
-114.6145371892283
 30
0.0
 10
98.68717174182127
 20
-114.6145371892283
 30
0.0
 10
98.75262855604102
 20
-114.6145371892283
 30
0.0
 10
98.95141056553993
 20
-114.5931775972198
 30
0.0
 10
98.95141056553993
 20
-114.3564995373831
 30
0.0
 10
98.95141056553993
 20
-114.1787326103442
 30
0.0
 10
98.82049693710043
 20
-114.1236110825802
 30
0.0
 10
98.71025388157244
 20
-114.1236110825802
 30
0.0
 10
98.44601505785378
 20
-114.1236110825802
 30
0.0
 10
98.43740231914066
 20
-114.3564995373831
 30
0.0
 10
98.43326820455836
 20
-114.4281575234763
 30
0.0
 10
98.43326820455836
 20
-114.4281575234763
 30
0.0
 10
98.23000757092862
 20
-114.4281575234763
 30
0.0
 10
98.23000757092862
 20
-114.4281575234763
 30
0.0
 10
98.23862030964173
 20
-114.3034450669103
 30
0.0
 10
98.26618107352374
 20
-113.9268961303724
 30
0.0
 10
98.72300073486787
 20
-113.9268961303724
 30
0.0
 10
98.94727645095763
 20
-113.9268961303724
 30
0.0
 10
99.18843313492512
 20
-114.0540201537782
 30
0.0
 10
99.18843313492512
 20
-114.3499538559611
 30
0.0
 10
99.18843313492512
 20
-114.5363335217131
 30
0.0
 10
99.09334849953223
 20
-114.6186713038106
 30
0.0
 10
98.9937852400085
 20
-114.6799940034481
 30
0.0
 10
99.05510793964595
 20
-114.7075547673301
 30
0.0
 10
99.23700898126714
 20
-114.7878254921364
 30
0.0
 10
99.23700898126714
 20
-115.065155678699
 30
0.0
 10
99.23700898126714
 20
-115.4034640553505
 30
0.0
 10
98.9896511254262
 20
-115.5705511863851
 30
0.0
 10
98.71266544841211
 20
-115.5705511863851
 30
0.0
  0
HATCH
  5
5E
330
59
100
AcDbEntity
  8
_U+30EC_U+30A4_U+30E4_U+30FC 1
 62
   179
420
  2234388
100
AcDbHatch
 10
0.0
 20
0.0
 30
0.0
210
0.0
220
0.0
230
1.0
  2
SOLID
 70
     1
 71
     0
 91
        1
 92
        1
 93
        1
 72
     4
 94
        3
 73
     0
 74
     1
 95
       62
 96
       58
 40
0.0
 40
0.0
 40
0.0
 40
0.0
 40
1.0
 40
1.0
 40
1.0
 40
2.0
 40
2.0
 40
2.0
 40
3.0
 40
3.0
 40
3.0
 40
4.0
 40
4.0
 40
4.0
 40
5.0
 40
5.0
 40
5.0
 40
6.0
 40
6.0
 40
6.0
 40
7.0
 40
7.0
 40
7.0
 40
8.0
 40
8.0
 40
8.0
 40
9.0
 40
9.0
 40
9.0
 40
10.0
 40
10.0
 40
10.0
 40
11.0
 40
11.0
 40
11.0
 40
12.0
 40
12.0
 40
12.0
 40
13.0
 40
13.0
 40
13.0
 40
14.0
 40
14.0
 40
14.0
 40
15.0
 40
15.0
 40
15.0
 40
16.0
 40
16.0
 40
16.0
 40
17.0
 40
17.0
 40
17.0
 40
18.0
 40
18.0
 40
18.0
 40
19.0
 40
19.0
 40
19.0
 40
19.0
 10
98.71266544841211
 20
-115.5705511863851
 10
98.61723630347069
 20
-115.5705511863851
 10
98.39950626880291
 20
-115.5495361039251
 10
98.27444930268834
 20
-115.3635009477216
 10
98.20037974975547
 20
-115.2511908349025
 10
98.19624563517317
 20
-115.1519720849273
 10
98.19211152059087
 20
-115.0672227359901
 10
98.19211152059087
 20
-115.0672227359901
 10
98.41225312209833
 20
-115.0672227359901
 10
98.41225312209833
 20
-115.0672227359901
 10
98.41432017938948
 20
-115.141292288923
 10
98.42465546584523
 20
-115.3759032914685
 10
98.70818682428128
 20
-115.3759032914685
 10
98.84564613414275
 20
-115.3759032914685
 10
98.99826386413933
 20
-115.3063123626665
 10
98.99826386413933
 20
-115.0779025319944
 10
98.99826386413933
 20
-114.961458304593
 10
98.96002330425306
 20
-114.9128824582509
 10
98.92832842578875
 20
-114.8811875797867
 10
98.85425887285588
 20
-114.8071180268538
 10
98.73781464545443
 20
-114.7943711735584
 10
98.68303762723897
 20
-114.7943711735584
 10
98.66374509252157
 20
-114.7943711735584
 10
98.62791609947497
 20
-114.7964382308495
 10
98.60035533559297
 20
-114.8005723454318
 10
98.60035533559297
 20
-114.8005723454318
 10
98.60035533559297
 20
-114.6059244505152
 10
98.60035533559297
 20
-114.6059244505152
 10
98.63859589547924
 20
-114.6124701319372
 10
98.68062606039929
 20
-114.6145371892283
 10
98.68717174182127
 20
-114.6145371892283
 10
98.75262855604102
 20
-114.6145371892283
 10
98.95141056553993
 20
-114.5931775972198
 10
98.95141056553993
 20
-114.3564995373831
 10
98.95141056553993
 20
-114.1787326103442
 10
98.82049693710043
 20
-114.1236110825802
 10
98.71025388157244
 20
-114.1236110825802
 10
98.44601505785378
 20
-114.1236110825802
 10
98.43740231914066
 20
-114.3564995373831
 10
98.43326820455836
 20
-114.4281575234763
 10
98.43326820455836
 20
-114.4281575234763
 10
98.23000757092862
 20
-114.4281575234763
 10
98.23000757092862
 20
-114.4281575234763
 10
98.23862030964173
 20
-114.3034450669103
 10
98.26618107352374
 20
-113.9268961303724
 10
98.72300073486787
 20
-113.9268961303724
 10
98.94727645095763
 20
-113.9268961303724
 10
99.18843313492512
 20
-114.0540201537782
 10
99.18843313492512
 20
-114.3499538559611
 10
99.18843313492512
 20
-114.5363335217131
 10
99.09334849953223
 20
-114.6186713038106
 10
98.9937852400085
 20
-114.6799940034481
 10
99.05510793964595
 20
-114.7075547673301
 10
99.23700898126714
 20
-114.7878254921364
 10
99.23700898126714
 20
-115.065155678699
 10
99.23700898126714
 20
-115.4034640553505
 10
98.9896511254262
 20
-115.5705511863851
 10
98.71266544841211
 20
-115.5705511863851
 97
        0
 97
        0
 75
     2
 76
     1
 98
        0
  0
SPLINE
  5
5F
330
59
100
AcDbEntity
  8
_U+30EC_U+30A4_U+30E4_U+30FC 1
370
     0
100
AcDbSpline
210
0.0
220
0.0
230
1.0
 70
    11
 71
     3
 72
    62
 73
    58
 74
     0
 42
0.0000000001
 43
0.0000000001
 12
1.0
 22
0.0
 32
0.0
 13
1.0
 23
0.0
 33
0.0
 40
0.0
 40
0.0
 40
0.0
 40
0.0
 40
1.0
 40
1.0
 40
1.0
 40
2.0
 40
2.0
 40
2.0
 40
3.0
 40
3.0
 40
3.0
 40
4.0
 40
4.0
 40
4.0
 40
5.0
 40
5.0
 40
5.0
 40
6.0
 40
6.0
 40
6.0
 40
7.0
 40
7.0
 40
7.0
 40
8.0
 40
8.0
 40
8.0
 40
9.0
 40
9.0
 40
9.0
 40
10.0
 40
10.0
 40
10.0
 40
11.0
 40
11.0
 40
11.0
 40
12.0
 40
12.0
 40
12.0
 40
13.0
 40
13.0
 40
13.0
 40
14.0
 40
14.0
 40
14.0
 40
15.0
 40
15.0
 40
15.0
 40
16.0
 40
16.0
 40
16.0
 40
17.0
 40
17.0
 40
17.0
 40
18.0
 40
18.0
 40
18.0
 40
19.0
 40
19.0
 40
19.0
 40
19.0
 10
99.88951006617346
 20
-115.5705511863851
 30
0.0
 10
99.79408092123204
 20
-115.5705511863851
 30
0.0
 10
99.57635088656426
 20
-115.5495361039251
 30
0.0
 10
99.45129392044969
 20
-115.3635009477216
 30
0.0
 10
99.3772243675168
 20
-115.2511908349025
 30
0.0
 10
99.3730902529345
 20
-115.1519720849273
 30
0.0
 10
99.3689561383522
 20
-115.0672227359901
 30
0.0
 10
99.3689561383522
 20
-115.0672227359901
 30
0.0
 10
99.58909773985967
 20
-115.0672227359901
 30
0.0
 10
99.58909773985967
 20
-115.0672227359901
 30
0.0
 10
99.59116479715082
 20
-115.141292288923
 30
0.0
 10
99.60150008360658
 20
-115.3759032914685
 30
0.0
 10
99.88503144204263
 20
-115.3759032914685
 30
0.0
 10
100.0224907519041
 20
-115.3759032914685
 30
0.0
 10
100.1751084819007
 20
-115.3063123626665
 30
0.0
 10
100.1751084819007
 20
-115.0779025319944
 30
0.0
 10
100.1751084819007
 20
-114.961458304593
 30
0.0
 10
100.1368679220144
 20
-114.9128824582509
 30
0.0
 10
100.1051730435501
 20
-114.8811875797867
 30
0.0
 10
100.0311034906172
 20
-114.8071180268538
 30
0.0
 10
99.91465926321578
 20
-114.7943711735584
 30
0.0
 10
99.8598822450003
 20
-114.7943711735584
 30
0.0
 10
99.84058971028291
 20
-114.7943711735584
 30
0.0
 10
99.80476071723632
 20
-114.7964382308495
 30
0.0
 10
99.77719995335431
 20
-114.8005723454318
 30
0.0
 10
99.77719995335431
 20
-114.8005723454318
 30
0.0
 10
99.77719995335431
 20
-114.6059244505152
 30
0.0
 10
99.77719995335431
 20
-114.6059244505152
 30
0.0
 10
99.81544051324059
 20
-114.6124701319372
 30
0.0
 10
99.85747067816064
 20
-114.6145371892283
 30
0.0
 10
99.8640163595826
 20
-114.6145371892283
 30
0.0
 10
99.92947317380236
 20
-114.6145371892283
 30
0.0
 10
100.1282551833013
 20
-114.5931775972198
 30
0.0
 10
100.1282551833013
 20
-114.3564995373831
 30
0.0
 10
100.1282551833013
 20
-114.1787326103442
 30
0.0
 10
99.99734155486178
 20
-114.1236110825802
 30
0.0
 10
99.88709849933379
 20
-114.1236110825802
 30
0.0
 10
99.62285967561512
 20
-114.1236110825802
 30
0.0
 10
99.61424693690199
 20
-114.3564995373831
 30
0.0
 10
99.61011282231969
 20
-114.4281575234763
 30
0.0
 10
99.61011282231969
 20
-114.4281575234763
 30
0.0
 10
99.40685218868995
 20
-114.4281575234763
 30
0.0
 10
99.40685218868995
 20
-114.4281575234763
 30
0.0
 10
99.41546492740308
 20
-114.3034450669103
 30
0.0
 10
99.44302569128509
 20
-113.9268961303724
 30
0.0
 10
99.89984535262921
 20
-113.9268961303724
 30
0.0
 10
100.124121068719
 20
-113.9268961303724
 30
0.0
 10
100.3652777526865
 20
-114.0540201537782
 30
0.0
 10
100.3652777526865
 20
-114.3499538559611
 30
0.0
 10
100.3652777526865
 20
-114.5363335217131
 30
0.0
 10
100.2701931172936
 20
-114.6186713038106
 30
0.0
 10
100.1706298577699
 20
-114.6799940034481
 30
0.0
 10
100.2319525574073
 20
-114.7075547673301
 30
0.0
 10
100.4138535990285
 20
-114.7878254921364
 30
0.0
 10
100.4138535990285
 20
-115.065155678699
 30
0.0
 10
100.4138535990285
 20
-115.4034640553505
 30
0.0
 10
100.1664957431876
 20
-115.5705511863851
 30
0.0
 10
99.88951006617346
 20
-115.5705511863851
 30
0.0
  0
HATCH
  5
60
330
59
100
AcDbEntity
  8
_U+30EC_U+30A4_U+30E4_U+30FC 1
 62
   179
420
  2234388
100
AcDbHatch
 10
0.0
 20
0.0
 30
0.0
210
0.0
220
0.0
230
1.0
  2
SOLID
 70
     1
 71
     0
 91
        1
 92
        1
 93
        1
 72
     4
 94
        3
 73
     0
 74
     1
 95
       62
 96
       58
 40
0.0
 40
0.0
 40
0.0
 40
0.0
 40
1.0
 40
1.0
 40
1.0
 40
2.0
 40
2.0
 40
2.0
 40
3.0
 40
3.0
 40
3.0
 40
4.0
 40
4.0
 40
4.0
 40
5.0
 40
5.0
 40
5.0
 40
6.0
 40
6.0
 40
6.0
 40
7.0
 40
7.0
 40
7.0
 40
8.0
 40
8.0
 40
8.0
 40
9.0
 40
9.0
 40
9.0
 40
10.0
 40
10.0
 40
10.0
 40
11.0
 40
11.0
 40
11.0
 40
12.0
 40
12.0
 40
12.0
 40
13.0
 40
13.0
 40
13.0
 40
14.0
 40
14.0
 40
14.0
 40
15.0
 40
15.0
 40
15.0
 40
16.0
 40
16.0
 40
16.0
 40
17.0
 40
17.0
 40
17.0
 40
18.0
 40
18.0
 40
18.0
 40
19.0
 40
19.0
 40
19.0
 40
19.0
 10
99.88951006617346
 20
-115.5705511863851
 10
99.79408092123204
 20
-115.5705511863851
 10
99.57635088656426
 20
-115.5495361039251
 10
99.45129392044969
 20
-115.3635009477216
 10
99.3772243675168
 20
-115.2511908349025
 10
99.3730902529345
 20
-115.1519720849273
 10
99.3689561383522
 20
-115.0672227359901
 10
99.3689561383522
 20
-115.0672227359901
 10
99.58909773985967
 20
-115.0672227359901
 10
99.58909773985967
 20
-115.0672227359901
 10
99.59116479715082
 20
-115.141292288923
 10
99.60150008360658
 20
-115.3759032914685
 10
99.88503144204263
 20
-115.3759032914685
 10
100.0224907519041
 20
-115.3759032914685
 10
100.1751084819007
 20
-115.3063123626665
 10
100.1751084819007
 20
-115.0779025319944
 10
100.1751084819007
 20
-114.961458304593
 10
100.1368679220144
 20
-114.9128824582509
 10
100.1051730435501
 20
-114.8811875797867
 10
100.0311034906172
 20
-114.8071180268538
 10
99.91465926321578
 20
-114.7943711735584
 10
99.8598822450003
 20
-114.7943711735584
 10
99.84058971028291
 20
-114.7943711735584
 10
99.80476071723632
 20
-114.7964382308495
 10
99.77719995335431
 20
-114.8005723454318
 10
99.77719995335431
 20
-114.8005723454318
 10
99.77719995335431
 20
-114.6059244505152
 10
99.77719995335431
 20
-114.6059244505152
 10
99.81544051324059
 20
-114.6124701319372
 10
99.85747067816064
 20
-114.6145371892283
 10
99.8640163595826
 20
-114.6145371892283
 10
99.92947317380236
 20
-114.6145371892283
 10
100.1282551833013
 20
-114.5931775972198
 10
100.1282551833013
 20
-114.3564995373831
 10
100.1282551833013
 20
-114.1787326103442
 10
99.99734155486178
 20
-114.1236110825802
 10
99.88709849933379
 20
-114.1236110825802
 10
99.62285967561512
 20
-114.1236110825802
 10
99.61424693690199
 20
-114.3564995373831
 10
99.61011282231969
 20
-114.4281575234763
 10
99.61011282231969
 20
-114.4281575234763
 10
99.40685218868995
 20
-114.4281575234763
 10
99.40685218868995
 20
-114.4281575234763
 10
99.41546492740308
 20
-114.3034450669103
 10
99.44302569128509
 20
-113.9268961303724
 10
99.89984535262921
 20
-113.9268961303724
 10
100.124121068719
 20
-113.9268961303724
 10
100.3652777526865
 20
-114.0540201537782
 10
100.3652777526865
 20
-114.3499538559611
 10
100.3652777526865
 20
-114.5363335217131
 10
100.2701931172936
 20
-114.6186713038106
 10
100.1706298577699
 20
-114.6799940034481
 10
100.2319525574073
 20
-114.7075547673301
 10
100.4138535990285
 20
-114.7878254921364
 10
100.4138535990285
 20
-115.065155678699
 10
100.4138535990285
 20
-115.4034640553505
 10
100.1664957431876
 20
-115.5705511863851
 10
99.88951006617346
 20
-115.5705511863851
 97
        0
 97
        0
 75
     2
 76
     1
 98
        0
  0
POLYLINE
  5
61
330
59
100
AcDbEntity
  8
_U+30EC_U+30A4_U+30E4_U+30FC 1
370
     0
100
AcDb2dPolyline
 66
     1
 10
0.0
 20
0.0
 30
0.0
  0
VERTEX
  5
62
330
61
100
AcDbEntity
  8
_U+30EC_U+30A4_U+30E4_U+30FC 1
370
     0
100
AcDbVertex
100
AcDb2dVertex
 10
100.634684219633
 20
-115.519908282752
 30
0.0
  0
VERTEX
  5
63
330
61
100
AcDbEntity
  8
_U+30EC_U+30A4_U+30E4_U+30FC 1
370
     0
100
AcDbVertex
100
AcDb2dVertex
 10
100.634684219633
 20
-115.2680718027802
 30
0.0
  0
VERTEX
  5
64
330
61
100
AcDbEntity
  8
_U+30EC_U+30A4_U+30E4_U+30FC 1
370
     0
100
AcDbVertex
100
AcDb2dVertex
 10
100.8865206996048
 20
-115.2680718027802
 30
0.0
  0
VERTEX
  5
65
330
61
100
AcDbEntity
  8
_U+30EC_U+30A4_U+30E4_U+30FC 1
370
     0
100
AcDbVertex
100
AcDb2dVertex
 10
100.8865206996048
 20
-115.519908282752
 30
0.0
  0
VERTEX
  5
66
330
61
100
AcDbEntity
  8
_U+30EC_U+30A4_U+30E4_U+30FC 1
370
     0
100
AcDbVertex
100
AcDb2dVertex
 10
100.634684219633
 20
-115.519908282752
 30
0.0
  0
SEQEND
  5
67
330
61
100
AcDbEntity
  8
_U+30EC_U+30A4_U+30E4_U+30FC 1
370
     0
  0
HATCH
  5
68
330
59
100
AcDbEntity
  8
_U+30EC_U+30A4_U+30E4_U+30FC 1
 62
   179
420
  2234388
100
AcDbHatch
 10
0.0
 20
0.0
 30
0.0
210
0.0
220
0.0
230
1.0
  2
SOLID
 70
     1
 71
     0
 91
        1
 92
        1
 93
        4
 72
     1
 10
100.634684219633
 20
-115.519908282752
 11
100.634684219633
 21
-115.2680718027802
 72
     1
 10
100.634684219633
 20
-115.2680718027802
 11
100.8865206996048
 21
-115.2680718027802
 72
     1
 10
100.8865206996048
 20
-115.2680718027802
 11
100.8865206996048
 21
-115.519908282752
 72
     1
 10
100.8865206996048
 20
-115.519908282752
 11
100.634684219633
 21
-115.519908282752
 97
        0
 75
     2
 76
     1
 98
        0
  0
SPLINE
  5
69
330
59
100
AcDbEntity
  8
_U+30EC_U+30A4_U+30E4_U+30FC 1
370
     0
100
AcDbSpline
210
0.0
220
0.0
230
1.0
 70
    11
 71
     3
 72
    44
 73
    40
 74
     0
 42
0.0000000001
 43
0.0000000001
 12
1.0
 22
0.0
 32
0.0
 13
1.0
 23
0.0
 33
0.0
 40
0.0
 40
0.0
 40
0.0
 40
0.0
 40
1.0
 40
1.0
 40
1.0
 40
2.0
 40
2.0
 40
2.0
 40
3.0
 40
3.0
 40
3.0
 40
4.0
 40
4.0
 40
4.0
 40
5.0
 40
5.0
 40
5.0
 40
6.0
 40
6.0
 40
6.0
 40
7.0
 40
7.0
 40
7.0
 40
8.0
 40
8.0
 40
8.0
 40
9.0
 40
9.0
 40
9.0
 40
10.0
 40
10.0
 40
10.0
 40
11.0
 40
11.0
 40
11.0
 40
12.0
 40
12.0
 40
12.0
 40
13.0
 40
13.0
 40
13.0
 40
13.0
 10
101.7157551829044
 20
-114.9380316552933
 30
0.0
 10
101.4980251482366
 20
-115.0968505571633
 30
0.0
 10
101.4050075701349
 20
-115.1709201100962
 30
0.0
 10
101.3560872142443
 20
-115.3145805918311
 30
0.0
 10
101.3560872142443
 20
-115.3145805918311
 30
0.0
 10
102.1346787939108
 20
-115.3145805918311
 30
0.0
 10
102.1346787939108
 20
-115.3145805918311
 30
0.0
 10
102.1346787939108
 20
-115.3145805918311
 30
0.0
 10
102.1346787939108
 20
-115.519908282752
 30
0.0
 10
102.1346787939108
 20
-115.519908282752
 30
0.0
 10
102.1346787939108
 20
-115.519908282752
 30
0.0
 10
101.1066623011122
 20
-115.519908282752
 30
0.0
 10
101.1066623011122
 20
-115.519908282752
 30
0.0
 10
101.1383571795765
 20
-115.162307371383
 30
0.0
 10
101.2038139937963
 20
-115.0841037038679
 30
0.0
 10
101.5889756690472
 20
-114.7857584348452
 30
0.0
 10
101.8449462636013
 20
-114.5869764253463
 30
0.0
 10
101.910403077821
 20
-114.5191080442869
 30
0.0
 10
101.910403077821
 20
-114.3816487344254
 30
0.0
 10
101.910403077821
 20
-114.2631374497328
 30
0.0
 10
101.8384005821793
 20
-114.1322238212933
 30
0.0
 10
101.6416856299715
 20
-114.1322238212933
 30
0.0
 10
101.3815809208352
 20
-114.1322238212933
 30
0.0
 10
101.3733126916706
 20
-114.3627007092566
 30
0.0
 10
101.3688340675397
 20
-114.479144936658
 30
0.0
 10
101.3688340675397
 20
-114.479144936658
 30
0.0
 10
101.14455835145
 20
-114.479144936658
 30
0.0
 10
101.14455835145
 20
-114.479144936658
 30
0.0
 10
101.1531710901631
 20
-114.3520209132523
 30
0.0
 10
101.1638508861674
 20
-114.2400553099817
 30
0.0
 10
101.2441216109737
 20
-114.1215440252891
 30
0.0
 10
101.3540201569532
 20
-113.9606580661279
 30
0.0
 10
101.5403998227052
 20
-113.9268961303724
 30
0.0
 10
101.6564995405581
 20
-113.9268961303724
 30
0.0
 10
101.9338297271207
 20
-113.9268961303724
 30
0.0
 10
102.1412244753327
 20
-114.1108642292848
 30
0.0
 10
102.1412244753327
 20
-114.3837157917166
 30
0.0
 10
102.1412244753327
 20
-114.6124701319372
 30
0.0
 10
102.0247802479313
 20
-114.7116888819124
 30
0.0
 10
101.7157551829044
 20
-114.9380316552933
 30
0.0
  0
HATCH
  5
6A
330
59
100
AcDbEntity
  8
_U+30EC_U+30A4_U+30E4_U+30FC 1
 62
   179
420
  2234388
100
AcDbHatch
 10
0.0
 20
0.0
 30
0.0
210
0.0
220
0.0
230
1.0
  2
SOLID
 70
     1
 71
     0
 91
        1
 92
        1
 93
        1
 72
     4
 94
        3
 73
     0
 74
     1
 95
       44
 96
       40
 40
0.0
 40
0.0
 40
0.0
 40
0.0
 40
1.0
 40
1.0
 40
1.0
 40
2.0
 40
2.0
 40
2.0
 40
3.0
 40
3.0
 40
3.0
 40
4.0
 40
4.0
 40
4.0
 40
5.0
 40
5.0
 40
5.0
 40
6.0
 40
6.0
 40
6.0
 40
7.0
 40
7.0
 40
7.0
 40
8.0
 40
8.0
 40
8.0
 40
9.0
 40
9.0
 40
9.0
 40
10.0
 40
10.0
 40
10.0
 40
11.0
 40
11.0
 40
11.0
 40
12.0
 40
12.0
 40
12.0
 40
13.0
 40
13.0
 40
13.0
 40
13.0
 10
101.7157551829044
 20
-114.9380316552933
 10
101.4980251482366
 20
-115.0968505571633
 10
101.4050075701349
 20
-115.1709201100962
 10
101.3560872142443
 20
-115.3145805918311
 10
101.3560872142443
 20
-115.3145805918311
 10
102.1346787939108
 20
-115.3145805918311
 10
102.1346787939108
 20
-115.3145805918311
 10
102.1346787939108
 20
-115.3145805918311
 10
102.1346787939108
 20
-115.519908282752
 10
102.1346787939108
 20
-115.519908282752
 10
102.1346787939108
 20
-115.519908282752
 10
101.1066623011122
 20
-115.519908282752
 10
101.1066623011122
 20
-115.519908282752
 10
101.1383571795765
 20
-115.162307371383
 10
101.2038139937963
 20
-115.0841037038679
 10
101.5889756690472
 20
-114.7857584348452
 10
101.8449462636013
 20
-114.5869764253463
 10
101.910403077821
 20
-114.5191080442869
 10
101.910403077821
 20
-114.3816487344254
 10
101.910403077821
 20
-114.2631374497328
 10
101.8384005821793
 20
-114.1322238212933
 10
101.6416856299715
 20
-114.1322238212933
 10
101.3815809208352
 20
-114.1322238212933
 10
101.3733126916706
 20
-114.3627007092566
 10
101.3688340675397
 20
-114.479144936658
 10
101.3688340675397
 20
-114.479144936658
 10
101.14455835145
 20
-114.479144936658
 10
101.14455835145
 20
-114.479144936658
 10
101.1531710901631
 20
-114.3520209132523
 10
101.1638508861674
 20
-114.2400553099817
 10
101.2441216109737
 20
-114.1215440252891
 10
101.3540201569532
 20
-113.9606580661279
 10
101.5403998227052
 20
-113.9268961303724
 10
101.6564995405581
 20
-113.9268961303724
 10
101.9338297271207
 20
-113.9268961303724
 10
102.1412244753327
 20
-114.1108642292848
 10
102.1412244753327
 20
-114.3837157917166
 10
102.1412244753327
 20
-114.6124701319372
 10
102.0247802479313
 20
-114.7116888819124
 10
101.7157551829044
 20
-114.9380316552933
 97
        0
 97
        0
 75
     2
 76
     1
 98
        0
  0
ENDBLK
  5
5C
330
59
100
AcDbEntity
  8
0
100
AcDbBlockEnd
  0
BLOCK
  5
9C
330
9A
100
AcDbEntity
  8
0
100
AcDbBlockBegin
  2
block 4
 70
     0
 10
0.0
 20
0.0
 30
0.0
  3
block 4
  1

  0
SPLINE
  5
9E
330
9A
100
AcDbEntity
  8
_U+30EC_U+30A4_U+30E4_U+30FC 1
370
     0
100
AcDbSpline
210
0.0
220
0.0
230
1.0
 70
    11
 71
     3
 72
    26
 73
    22
 74
     0
 42
0.0000000001
 43
0.0000000001
 12
1.0
 22
0.0
 32
0.0
 13
1.0
 23
0.0
 33
0.0
 40
0.0
 40
0.0
 40
0.0
 40
0.0
 40
1.0
 40
1.0
 40
1.0
 40
2.0
 40
2.0
 40
2.0
 40
3.0
 40
3.0
 40
3.0
 40
4.0
 40
4.0
 40
4.0
 40
5.0
 40
5.0
 40
5.0
 40
6.0
 40
6.0
 40
6.0
 40
7.0
 40
7.0
 40
7.0
 40
7.0
 10
111.1918348246326
 20
-133.4123561949455
 30
0.0
 10
111.1918348246326
 20
-133.4123561949455
 30
0.0
 10
110.08768172161
 20
-133.4123561949455
 30
0.0
 10
110.08768172161
 20
-133.4123561949455
 30
0.0
 10
110.08768172161
 20
-133.4123561949455
 30
0.0
 10
110.08768172161
 20
-133.7423963424325
 30
0.0
 10
110.08768172161
 20
-133.7423963424325
 30
0.0
 10
110.08768172161
 20
-133.7423963424325
 30
0.0
 10
109.9395426157443
 20
-133.7423963424325
 30
0.0
 10
109.9395426157443
 20
-133.7423963424325
 30
0.0
 10
109.9247287051577
 20
-133.4102891376544
 30
0.0
 10
109.7617756887054
 20
-133.3637803486035
 30
0.0
 10
109.6473985185951
 20
-133.3341525274303
 30
0.0
 10
109.6473985185951
 20
-133.3341525274303
 30
0.0
 10
109.6473985185951
 20
-133.1880804788558
 30
0.0
 10
109.6473985185951
 20
-133.1880804788558
 30
0.0
 10
109.6473985185951
 20
-133.1880804788558
 30
0.0
 10
111.1918348246326
 20
-133.1880804788558
 30
0.0
 10
111.1918348246326
 20
-133.1880804788558
 30
0.0
 10
111.1918348246326
 20
-133.1880804788558
 30
0.0
 10
111.1918348246326
 20
-133.4123561949455
 30
0.0
 10
111.1918348246326
 20
-133.4123561949455
 30
0.0
  0
HATCH
  5
9F
330
9A
100
AcDbEntity
  8
_U+30EC_U+30A4_U+30E4_U+30FC 1
 62
   179
420
  2234388
100
AcDbHatch
 10
0.0
 20
0.0
 30
0.0
210
0.0
220
0.0
230
1.0
  2
SOLID
 70
     1
 71
     0
 91
        1
 92
        1
 93
        1
 72
     4
 94
        3
 73
     0
 74
     1
 95
       26
 96
       22
 40
0.0
 40
0.0
 40
0.0
 40
0.0
 40
1.0
 40
1.0
 40
1.0
 40
2.0
 40
2.0
 40
2.0
 40
3.0
 40
3.0
 40
3.0
 40
4.0
 40
4.0
 40
4.0
 40
5.0
 40
5.0
 40
5.0
 40
6.0
 40
6.0
 40
6.0
 40
7.0
 40
7.0
 40
7.0
 40
7.0
 10
111.1918348246326
 20
-133.4123561949455
 10
111.1918348246326
 20
-133.4123561949455
 10
110.08768172161
 20
-133.4123561949455
 10
110.08768172161
 20
-133.4123561949455
 10
110.08768172161
 20
-133.4123561949455
 10
110.08768172161
 20
-133.7423963424325
 10
110.08768172161
 20
-133.7423963424325
 10
110.08768172161
 20
-133.7423963424325
 10
109.9395426157443
 20
-133.7423963424325
 10
109.9395426157443
 20
-133.7423963424325
 10
109.9247287051577
 20
-133.4102891376544
 10
109.7617756887054
 20
-133.3637803486035
 10
109.6473985185951
 20
-133.3341525274303
 10
109.6473985185951
 20
-133.3341525274303
 10
109.6473985185951
 20
-133.1880804788558
 10
109.6473985185951
 20
-133.1880804788558
 10
109.6473985185951
 20
-133.1880804788558
 10
111.1918348246326
 20
-133.1880804788558
 10
111.1918348246326
 20
-133.1880804788558
 10
111.1918348246326
 20
-133.1880804788558
 10
111.1918348246326
 20
-133.4123561949455
 10
111.1918348246326
 20
-133.4123561949455
 97
        0
 97
        0
 75
     2
 76
     1
 98
        0
  0
SPLINE
  5
A0
330
9A
100
AcDbEntity
  8
_U+30EC_U+30A4_U+30E4_U+30FC 1
370
     0
100
AcDbSpline
210
0.0
220
0.0
230
1.0
 70
    11
 71
     3
 72
    53
 73
    49
 74
     0
 42
0.0000000001
 43
0.0000000001
 12
1.0
 22
0.0
 32
0.0
 13
1.0
 23
0.0
 33
0.0
 40
0.0
 40
0.0
 40
0.0
 40
0.0
 40
1.0
 40
1.0
 40
1.0
 40
2.0
 40
2.0
 40
2.0
 40
3.0
 40
3.0
 40
3.0
 40
4.0
 40
4.0
 40
4.0
 40
5.0
 40
5.0
 40
5.0
 40
6.0
 40
6.0
 40
6.0
 40
7.0
 40
7.0
 40
7.0
 40
8.0
 40
8.0
 40
8.0
 40
9.0
 40
9.0
 40
9.0
 40
10.0
 40
10.0
 40
10.0
 40
11.0
 40
11.0
 40
11.0
 40
12.0
 40
12.0
 40
12.0
 40
13.0
 40
13.0
 40
13.0
 40
14.0
 40
14.0
 40
14.0
 40
15.0
 40
15.0
 40
15.0
 40
16.0
 40
16.0
 40
16.0
 40
16.0
 10
111.2424777282658
 20
-132.205883756011
 30
0.0
 10
111.2424777282658
 20
-132.2840874235262
 30
0.0
 10
111.225596760388
 20
-132.3857177403411
 30
0.0
 10
111.1622070034595
 20
-132.4873480571559
 30
0.0
 10
111.05230845748
 20
-132.660636360064
 30
0.0
 10
110.921050319492
 20
-132.6819959520726
 30
0.0
 10
110.8132188308036
 20
-132.7009439772414
 30
0.0
 10
110.8132188308036
 20
-132.7009439772414
 30
0.0
 10
110.8132188308036
 20
-132.4787353184428
 30
0.0
 10
110.8132188308036
 20
-132.4787353184428
 30
0.0
 10
111.0120008403026
 20
-132.4239583002274
 30
0.0
 10
111.0416286614757
 20
-132.2968342768216
 30
0.0
 10
111.0416286614757
 20
-132.2038166987199
 30
0.0
 10
111.0416286614757
 20
-132.0642903315673
 30
0.0
 10
110.942065401952
 20
-131.9120171111192
 30
0.0
 10
110.7095214566976
 20
-131.9120171111192
 30
0.0
 10
110.4535508621436
 20
-131.9120171111192
 30
0.0
 10
110.383615423793
 20
-132.0918510954493
 30
0.0
 10
110.383615423793
 20
-132.212429437433
 30
0.0
 10
110.383615423793
 20
-132.2441243158973
 30
0.0
 10
110.383615423793
 20
-132.3857177403411
 30
0.0
 10
110.5128065044899
 20
-132.4746012038605
 30
0.0
 10
110.5128065044899
 20
-132.4746012038605
 30
0.0
 10
110.493858479321
 20
-132.6503010736083
 30
0.0
 10
110.493858479321
 20
-132.6503010736083
 30
0.0
 10
110.493858479321
 20
-132.6503010736083
 30
0.0
 10
109.6473985185951
 20
-132.5297227316245
 30
0.0
 10
109.6473985185951
 20
-132.5297227316245
 30
0.0
 10
109.6473985185951
 20
-132.5297227316245
 30
0.0
 10
109.6473985185951
 20
-131.751131151958
 30
0.0
 10
109.6473985185951
 20
-131.751131151958
 30
0.0
 10
109.6473985185951
 20
-131.751131151958
 30
0.0
 10
109.8420464135117
 20
-131.751131151958
 30
0.0
 10
109.8420464135117
 20
-131.751131151958
 30
0.0
 10
109.8420464135117
 20
-131.751131151958
 30
0.0
 10
109.8420464135117
 20
-132.3667697151722
 30
0.0
 10
109.8420464135117
 20
-132.3667697151722
 30
0.0
 10
109.8420464135117
 20
-132.3667697151722
 30
0.0
 10
110.2651041391004
 20
-132.432226529392
 30
0.0
 10
110.2651041391004
 20
-132.432226529392
 30
0.0
 10
110.231342203345
 20
-132.3709038297545
 30
0.0
 10
110.1910345861675
 20
-132.288566047657
 30
0.0
 10
110.1910345861675
 20
-132.1700547629644
 30
0.0
 10
110.1910345861675
 20
-131.9161512257015
 30
0.0
 10
110.3774142519195
 20
-131.6791286563163
 30
0.0
 10
110.6905734315287
 20
-131.6791286563163
 30
0.0
 10
111.0078667257203
 20
-131.6791286563163
 30
0.0
 10
111.2424777282658
 20
-131.9034043724061
 30
0.0
 10
111.2424777282658
 20
-132.205883756011
 30
0.0
  0
HATCH
  5
A1
330
9A
100
AcDbEntity
  8
_U+30EC_U+30A4_U+30E4_U+30FC 1
 62
   179
420
  2234388
100
AcDbHatch
 10
0.0
 20
0.0
 30
0.0
210
0.0
220
0.0
230
1.0
  2
SOLID
 70
     1
 71
     0
 91
        1
 92
        1
 93
        1
 72
     4
 94
        3
 73
     0
 74
     1
 95
       53
 96
       49
 40
0.0
 40
0.0
 40
0.0
 40
0.0
 40
1.0
 40
1.0
 40
1.0
 40
2.0
 40
2.0
 40
2.0
 40
3.0
 40
3.0
 40
3.0
 40
4.0
 40
4.0
 40
4.0
 40
5.0
 40
5.0
 40
5.0
 40
6.0
 40
6.0
 40
6.0
 40
7.0
 40
7.0
 40
7.0
 40
8.0
 40
8.0
 40
8.0
 40
9.0
 40
9.0
 40
9.0
 40
10.0
 40
10.0
 40
10.0
 40
11.0
 40
11.0
 40
11.0
 40
12.0
 40
12.0
 40
12.0
 40
13.0
 40
13.0
 40
13.0
 40
14.0
 40
14.0
 40
14.0
 40
15.0
 40
15.0
 40
15.0
 40
16.0
 40
16.0
 40
16.0
 40
16.0
 10
111.2424777282658
 20
-132.205883756011
 10
111.2424777282658
 20
-132.2840874235262
 10
111.225596760388
 20
-132.3857177403411
 10
111.1622070034595
 20
-132.4873480571559
 10
111.05230845748
 20
-132.660636360064
 10
110.921050319492
 20
-132.6819959520726
 10
110.8132188308036
 20
-132.7009439772414
 10
110.8132188308036
 20
-132.7009439772414
 10
110.8132188308036
 20
-132.4787353184428
 10
110.8132188308036
 20
-132.4787353184428
 10
111.0120008403026
 20
-132.4239583002274
 10
111.0416286614757
 20
-132.2968342768216
 10
111.0416286614757
 20
-132.2038166987199
 10
111.0416286614757
 20
-132.0642903315673
 10
110.942065401952
 20
-131.9120171111192
 10
110.7095214566976
 20
-131.9120171111192
 10
110.4535508621436
 20
-131.9120171111192
 10
110.383615423793
 20
-132.0918510954493
 10
110.383615423793
 20
-132.212429437433
 10
110.383615423793
 20
-132.2441243158973
 10
110.383615423793
 20
-132.3857177403411
 10
110.5128065044899
 20
-132.4746012038605
 10
110.5128065044899
 20
-132.4746012038605
 10
110.493858479321
 20
-132.6503010736083
 10
110.493858479321
 20
-132.6503010736083
 10
110.493858479321
 20
-132.6503010736083
 10
109.6473985185951
 20
-132.5297227316245
 10
109.6473985185951
 20
-132.5297227316245
 10
109.6473985185951
 20
-132.5297227316245
 10
109.6473985185951
 20
-131.751131151958
 10
109.6473985185951
 20
-131.751131151958
 10
109.6473985185951
 20
-131.751131151958
 10
109.8420464135117
 20
-131.751131151958
 10
109.8420464135117
 20
-131.751131151958
 10
109.8420464135117
 20
-131.751131151958
 10
109.8420464135117
 20
-132.3667697151722
 10
109.8420464135117
 20
-132.3667697151722
 10
109.8420464135117
 20
-132.3667697151722
 10
110.2651041391004
 20
-132.432226529392
 10
110.2651041391004
 20
-132.432226529392
 10
110.231342203345
 20
-132.3709038297545
 10
110.1910345861675
 20
-132.288566047657
 10
110.1910345861675
 20
-132.1700547629644
 10
110.1910345861675
 20
-131.9161512257015
 10
110.3774142519195
 20
-131.6791286563163
 10
110.6905734315287
 20
-131.6791286563163
 10
111.0078667257203
 20
-131.6791286563163
 10
111.2424777282658
 20
-131.9034043724061
 10
111.2424777282658
 20
-132.205883756011
 97
        0
 97
        0
 75
     2
 76
     1
 98
        0
  0
ENDBLK
  5
9D
330
9A
100
AcDbEntity
  8
0
100
AcDbBlockEnd
  0
BLOCK
  5
A4
330
A2
100
AcDbEntity
  8
0
100
AcDbBlockBegin
  2
block 5
 70
     0
 10
0.0
 20
0.0
 30
0.0
  3
block 5
  1

  0
SPLINE
  5
A6
330
A2
100
AcDbEntity
  8
_U+30EC_U+30A4_U+30E4_U+30FC 1
370
     0
100
AcDbSpline
210
0.0
220
0.0
230
1.0
 70
    11
 71
     3
 72
    62
 73
    58
 74
     0
 42
0.0000000001
 43
0.0000000001
 12
1.0
 22
0.0
 32
0.0
 13
1.0
 23
0.0
 33
0.0
 40
0.0
 40
0.0
 40
0.0
 40
0.0
 40
1.0
 40
1.0
 40
1.0
 40
2.0
 40
2.0
 40
2.0
 40
3.0
 40
3.0
 40
3.0
 40
4.0
 40
4.0
 40
4.0
 40
5.0
 40
5.0
 40
5.0
 40
6.0
 40
6.0
 40
6.0
 40
7.0
 40
7.0
 40
7.0
 40
8.0
 40
8.0
 40
8.0
 40
9.0
 40
9.0
 40
9.0
 40
10.0
 40
10.0
 40
10.0
 40
11.0
 40
11.0
 40
11.0
 40
12.0
 40
12.0
 40
12.0
 40
13.0
 40
13.0
 40
13.0
 40
14.0
 40
14.0
 40
14.0
 40
15.0
 40
15.0
 40
15.0
 40
16.0
 40
16.0
 40
16.0
 40
17.0
 40
17.0
 40
17.0
 40
18.0
 40
18.0
 40
18.0
 40
19.0
 40
19.0
 40
19.0
 40
19.0
 10
111.2424777282658
 20
-128.9971218210493
 30
0.0
 10
111.2424777282658
 20
-129.068435297594
 30
0.0
 10
111.2214626458057
 20
-129.2320773331434
 30
0.0
 10
111.0354274896023
 20
-129.3257839303422
 30
0.0
 10
110.9231173767831
 20
-129.3812499676547
 30
0.0
 10
110.8238986268079
 20
-129.3846950631399
 30
0.0
 10
110.7391492778708
 20
-129.3877956490767
 30
0.0
 10
110.7391492778708
 20
-129.3877956490767
 30
0.0
 10
110.7391492778708
 20
-129.2227755753332
 30
0.0
 10
110.7391492778708
 20
-129.2227755753332
 30
0.0
 10
110.8132188308036
 20
-129.2210530275906
 30
0.0
 10
111.0478298333492
 20
-129.2131293079745
 30
0.0
 10
111.0478298333492
 20
-129.0002224069861
 30
0.0
 10
111.0478298333492
 20
-128.8972140519771
 30
0.0
 10
110.9782389045471
 20
-128.7828368818668
 30
0.0
 10
110.749829073875
 20
-128.7828368818668
 30
0.0
 10
110.6333848464736
 20
-128.7828368818668
 30
0.0
 10
110.5848090001316
 20
-128.8114311743944
 30
0.0
 10
110.5531141216673
 20
-128.8352023332426
 30
0.0
 10
110.4790445687344
 20
-128.8906683705551
 30
0.0
 10
110.466297715439
 20
-128.9781737958805
 30
0.0
 10
110.466297715439
 20
-129.0195149417034
 30
0.0
 10
110.466297715439
 20
-129.033639833193
 30
0.0
 10
110.4683647727301
 20
-129.0605115779779
 30
0.0
 10
110.4724988873124
 20
-129.0811821508894
 30
0.0
 10
110.4724988873124
 20
-129.0811821508894
 30
0.0
 10
110.2778509923958
 20
-129.0811821508894
 30
0.0
 10
110.2778509923958
 20
-129.0811821508894
 30
0.0
 10
110.2843966738178
 20
-129.0525878583618
 30
0.0
 10
110.2864637311089
 20
-129.0208929798976
 30
0.0
 10
110.2864637311089
 20
-129.0160698462182
 30
0.0
 10
110.2864637311089
 20
-128.9668049807791
 30
0.0
 10
110.2651041391004
 20
-128.8176323462678
 30
0.0
 10
110.0284260792637
 20
-128.8176323462678
 30
0.0
 10
109.8506591522248
 20
-128.8176323462678
 30
0.0
 10
109.7955376244608
 20
-128.916162077146
 30
0.0
 10
109.7955376244608
 20
-128.998844368792
 30
0.0
 10
109.7955376244608
 20
-129.1972818687424
 30
0.0
 10
110.0284260792637
 20
-129.2034830406158
 30
0.0
 10
110.1000840653569
 20
-129.2065836265525
 30
0.0
 10
110.1000840653569
 20
-129.2065836265525
 30
0.0
 10
110.1000840653569
 20
-129.3592013565491
 30
0.0
 10
110.1000840653569
 20
-129.3592013565491
 30
0.0
 10
109.9753716087909
 20
-129.3530001846756
 30
0.0
 10
109.5988226722531
 20
-129.3323296117642
 30
0.0
 10
109.5988226722531
 20
-128.9891981014333
 30
0.0
 10
109.5988226722531
 20
-128.8207329322045
 30
0.0
 10
109.7259466956588
 20
-128.6398654192289
 30
0.0
 10
110.0218803978418
 20
-128.6398654192289
 30
0.0
 10
110.2082600635938
 20
-128.6398654192289
 30
0.0
 10
110.2905978456912
 20
-128.7111788957736
 30
0.0
 10
110.3519205453287
 20
-128.7859374678035
 30
0.0
 10
110.3794813092107
 20
-128.7397731883012
 30
0.0
 10
110.459752034017
 20
-128.6033474070853
 30
0.0
 10
110.7370822205796
 20
-128.6033474070853
 30
0.0
 10
111.0753905972312
 20
-128.6033474070853
 30
0.0
 10
111.2424777282658
 20
-128.7890380537403
 30
0.0
 10
111.2424777282658
 20
-128.9971218210493
 30
0.0
  0
HATCH
  5
A7
330
A2
100
AcDbEntity
  8
_U+30EC_U+30A4_U+30E4_U+30FC 1
 62
   179
420
  2234388
100
AcDbHatch
 10
0.0
 20
0.0
 30
0.0
210
0.0
220
0.0
230
1.0
  2
SOLID
 70
     1
 71
     0
 91
        1
 92
        1
 93
        1
 72
     4
 94
        3
 73
     0
 74
     1
 95
       62
 96
       58
 40
0.0
 40
0.0
 40
0.0
 40
0.0
 40
1.0
 40
1.0
 40
1.0
 40
2.0
 40
2.0
 40
2.0
 40
3.0
 40
3.0
 40
3.0
 40
4.0
 40
4.0
 40
4.0
 40
5.0
 40
5.0
 40
5.0
 40
6.0
 40
6.0
 40
6.0
 40
7.0
 40
7.0
 40
7.0
 40
8.0
 40
8.0
 40
8.0
 40
9.0
 40
9.0
 40
9.0
 40
10.0
 40
10.0
 40
10.0
 40
11.0
 40
11.0
 40
11.0
 40
12.0
 40
12.0
 40
12.0
 40
13.0
 40
13.0
 40
13.0
 40
14.0
 40
14.0
 40
14.0
 40
15.0
 40
15.0
 40
15.0
 40
16.0
 40
16.0
 40
16.0
 40
17.0
 40
17.0
 40
17.0
 40
18.0
 40
18.0
 40
18.0
 40
19.0
 40
19.0
 40
19.0
 40
19.0
 10
111.2424777282658
 20
-128.9971218210493
 10
111.2424777282658
 20
-129.068435297594
 10
111.2214626458057
 20
-129.2320773331434
 10
111.0354274896023
 20
-129.3257839303422
 10
110.9231173767831
 20
-129.3812499676547
 10
110.8238986268079
 20
-129.3846950631399
 10
110.7391492778708
 20
-129.3877956490767
 10
110.7391492778708
 20
-129.3877956490767
 10
110.7391492778708
 20
-129.2227755753332
 10
110.7391492778708
 20
-129.2227755753332
 10
110.8132188308036
 20
-129.2210530275906
 10
111.0478298333492
 20
-129.2131293079745
 10
111.0478298333492
 20
-129.0002224069861
 10
111.0478298333492
 20
-128.8972140519771
 10
110.9782389045471
 20
-128.7828368818668
 10
110.749829073875
 20
-128.7828368818668
 10
110.6333848464736
 20
-128.7828368818668
 10
110.5848090001316
 20
-128.8114311743944
 10
110.5531141216673
 20
-128.8352023332426
 10
110.4790445687344
 20
-128.8906683705551
 10
110.466297715439
 20
-128.9781737958805
 10
110.466297715439
 20
-129.0195149417034
 10
110.466297715439
 20
-129.033639833193
 10
110.4683647727301
 20
-129.0605115779779
 10
110.4724988873124
 20
-129.0811821508894
 10
110.4724988873124
 20
-129.0811821508894
 10
110.2778509923958
 20
-129.0811821508894
 10
110.2778509923958
 20
-129.0811821508894
 10
110.2843966738178
 20
-129.0525878583618
 10
110.2864637311089
 20
-129.0208929798976
 10
110.2864637311089
 20
-129.0160698462182
 10
110.2864637311089
 20
-128.9668049807791
 10
110.2651041391004
 20
-128.8176323462678
 10
110.0284260792637
 20
-128.8176323462678
 10
109.8506591522248
 20
-128.8176323462678
 10
109.7955376244608
 20
-128.916162077146
 10
109.7955376244608
 20
-128.998844368792
 10
109.7955376244608
 20
-129.1972818687424
 10
110.0284260792637
 20
-129.2034830406158
 10
110.1000840653569
 20
-129.2065836265525
 10
110.1000840653569
 20
-129.2065836265525
 10
110.1000840653569
 20
-129.3592013565491
 10
110.1000840653569
 20
-129.3592013565491
 10
109.9753716087909
 20
-129.3530001846756
 10
109.5988226722531
 20
-129.3323296117642
 10
109.5988226722531
 20
-128.9891981014333
 10
109.5988226722531
 20
-128.8207329322045
 10
109.7259466956588
 20
-128.6398654192289
 10
110.0218803978418
 20
-128.6398654192289
 10
110.2082600635938
 20
-128.6398654192289
 10
110.2905978456912
 20
-128.7111788957736
 10
110.3519205453287
 20
-128.7859374678035
 10
110.3794813092107
 20
-128.7397731883012
 10
110.459752034017
 20
-128.6033474070853
 10
110.7370822205796
 20
-128.6033474070853
 10
111.0753905972312
 20
-128.6033474070853
 10
111.2424777282658
 20
-128.7890380537403
 10
111.2424777282658
 20
-128.9971218210493
 97
        0
 97
        0
 75
     2
 76
     1
 98
        0
  0
ENDBLK
  5
A5
330
A2
100
AcDbEntity
  8
0
100
AcDbBlockEnd
  0
BLOCK
  5
AA
330
A8
100
AcDbEntity
  8
0
100
AcDbBlockBegin
  2
block 6
 70
     0
 10
0.0
 20
0.0
 30
0.0
  3
block 6
  1

  0
SPLINE
  5
AC
330
A8
100
AcDbEntity
  8
_U+30EC_U+30A4_U+30E4_U+30FC 1
370
     0
100
AcDbSpline
210
0.0
220
0.0
230
1.0
 70
    11
 71
     3
 72
    62
 73
    58
 74
     0
 42
0.0000000001
 43
0.0000000001
 12
1.0
 22
0.0
 32
0.0
 13
1.0
 23
0.0
 33
0.0
 40
0.0
 40
0.0
 40
0.0
 40
0.0
 40
1.0
 40
1.0
 40
1.0
 40
2.0
 40
2.0
 40
2.0
 40
3.0
 40
3.0
 40
3.0
 40
4.0
 40
4.0
 40
4.0
 40
5.0
 40
5.0
 40
5.0
 40
6.0
 40
6.0
 40
6.0
 40
7.0
 40
7.0
 40
7.0
 40
8.0
 40
8.0
 40
8.0
 40
9.0
 40
9.0
 40
9.0
 40
10.0
 40
10.0
 40
10.0
 40
11.0
 40
11.0
 40
11.0
 40
12.0
 40
12.0
 40
12.0
 40
13.0
 40
13.0
 40
13.0
 40
14.0
 40
14.0
 40
14.0
 40
15.0
 40
15.0
 40
15.0
 40
16.0
 40
16.0
 40
16.0
 40
17.0
 40
17.0
 40
17.0
 40
18.0
 40
18.0
 40
18.0
 40
19.0
 40
19.0
 40
19.0
 40
19.0
 10
75.99088268499534
 20
-137.6108940628195
 30
0.0
 10
75.99088268499534
 20
-137.7063232077609
 30
0.0
 10
75.96986760253532
 20
-137.9240532424287
 30
0.0
 10
75.78383244633183
 20
-138.0491102085433
 30
0.0
 10
75.67152233351268
 20
-138.1228352519276
 30
0.0
 10
75.57230358353749
 20
-138.1273138760585
 30
0.0
 10
75.48755423460034
 20
-138.1314479906408
 30
0.0
 10
75.48755423460034
 20
-138.1314479906408
 30
0.0
 10
75.48755423460034
 20
-137.9113063891333
 30
0.0
 10
75.48755423460034
 20
-137.9113063891333
 30
0.0
 10
75.56162378753321
 20
-137.9092393318421
 30
0.0
 10
75.79623479007873
 20
-137.8989040453864
 30
0.0
 10
75.79623479007873
 20
-137.6153726869503
 30
0.0
 10
75.79623479007873
 20
-137.4779133770889
 30
0.0
 10
75.72664386127667
 20
-137.3252956470923
 30
0.0
 10
75.4982340306046
 20
-137.3252956470923
 30
0.0
 10
75.38178980320316
 20
-137.3252956470923
 30
0.0
 10
75.33321395686114
 20
-137.3635362069786
 30
0.0
 10
75.30151907839685
 20
-137.3952310854429
 30
0.0
 10
75.22744952546397
 20
-137.4693006383757
 30
0.0
 10
75.21470267216856
 20
-137.5857448657772
 30
0.0
 10
75.21470267216856
 20
-137.6405218839926
 30
0.0
 10
75.21470267216856
 20
-137.6598144187101
 30
0.0
 10
75.2167697294597
 20
-137.6956434117567
 30
0.0
 10
75.220903844042
 20
-137.7232041756386
 30
0.0
 10
75.220903844042
 20
-137.7232041756386
 30
0.0
 10
75.02625594912539
 20
-137.7232041756386
 30
0.0
 10
75.02625594912539
 20
-137.7232041756386
 30
0.0
 10
75.03280163054735
 20
-137.6849636157524
 30
0.0
 10
75.03486868783851
 20
-137.6429334508323
 30
0.0
 10
75.03486868783851
 20
-137.6363877694104
 30
0.0
 10
75.03486868783851
 20
-137.5709309551906
 30
0.0
 10
75.01350909582996
 20
-137.3721489456917
 30
0.0
 10
74.7768310359933
 20
-137.3721489456917
 30
0.0
 10
74.59906410895441
 20
-137.3721489456917
 30
0.0
 10
74.54394258119041
 20
-137.5030625741312
 30
0.0
 10
74.54394258119041
 20
-137.6133056296592
 30
0.0
 10
74.54394258119041
 20
-137.8775444533779
 30
0.0
 10
74.7768310359933
 20
-137.886157192091
 30
0.0
 10
74.8484890220865
 20
-137.8902913066733
 30
0.0
 10
74.8484890220865
 20
-137.8902913066733
 30
0.0
 10
74.8484890220865
 20
-138.093551940303
 30
0.0
 10
74.8484890220865
 20
-138.093551940303
 30
0.0
 10
74.72377656552045
 20
-138.0849392015899
 30
0.0
 10
74.34722762898264
 20
-138.0573784377079
 30
0.0
 10
74.34722762898264
 20
-137.6005587763638
 30
0.0
 10
74.34722762898264
 20
-137.376283060274
 30
0.0
 10
74.47435165238836
 20
-137.1351263763065
 30
0.0
 10
74.77028535457131
 20
-137.1351263763065
 30
0.0
 10
74.95666502032334
 20
-137.1351263763065
 30
0.0
 10
75.03900280242081
 20
-137.2302110116994
 30
0.0
 10
75.10032550205825
 20
-137.3297742712231
 30
0.0
 10
75.12788626594025
 20
-137.2684515715857
 30
0.0
 10
75.20815699074657
 20
-137.0865505299645
 30
0.0
 10
75.48548717730918
 20
-137.0865505299645
 30
0.0
 10
75.82379555396072
 20
-137.0865505299645
 30
0.0
 10
75.99088268499534
 20
-137.3339083858054
 30
0.0
 10
75.99088268499534
 20
-137.6108940628195
 30
0.0
  0
HATCH
  5
AD
330
A8
100
AcDbEntity
  8
_U+30EC_U+30A4_U+30E4_U+30FC 1
 62
   179
420
  2234388
100
AcDbHatch
 10
0.0
 20
0.0
 30
0.0
210
0.0
220
0.0
230
1.0
  2
SOLID
 70
     1
 71
     0
 91
        1
 92
        1
 93
        1
 72
     4
 94
        3
 73
     0
 74
     1
 95
       62
 96
       58
 40
0.0
 40
0.0
 40
0.0
 40
0.0
 40
1.0
 40
1.0
 40
1.0
 40
2.0
 40
2.0
 40
2.0
 40
3.0
 40
3.0
 40
3.0
 40
4.0
 40
4.0
 40
4.0
 40
5.0
 40
5.0
 40
5.0
 40
6.0
 40
6.0
 40
6.0
 40
7.0
 40
7.0
 40
7.0
 40
8.0
 40
8.0
 40
8.0
 40
9.0
 40
9.0
 40
9.0
 40
10.0
 40
10.0
 40
10.0
 40
11.0
 40
11.0
 40
11.0
 40
12.0
 40
12.0
 40
12.0
 40
13.0
 40
13.0
 40
13.0
 40
14.0
 40
14.0
 40
14.0
 40
15.0
 40
15.0
 40
15.0
 40
16.0
 40
16.0
 40
16.0
 40
17.0
 40
17.0
 40
17.0
 40
18.0
 40
18.0
 40
18.0
 40
19.0
 40
19.0
 40
19.0
 40
19.0
 10
75.99088268499534
 20
-137.6108940628195
 10
75.99088268499534
 20
-137.7063232077609
 10
75.96986760253532
 20
-137.9240532424287
 10
75.78383244633183
 20
-138.0491102085433
 10
75.67152233351268
 20
-138.1228352519276
 10
75.57230358353749
 20
-138.1273138760585
 10
75.48755423460034
 20
-138.1314479906408
 10
75.48755423460034
 20
-138.1314479906408
 10
75.48755423460034
 20
-137.9113063891333
 10
75.48755423460034
 20
-137.9113063891333
 10
75.56162378753321
 20
-137.9092393318421
 10
75.79623479007873
 20
-137.8989040453864
 10
75.79623479007873
 20
-137.6153726869503
 10
75.79623479007873
 20
-137.4779133770889
 10
75.72664386127667
 20
-137.3252956470923
 10
75.4982340306046
 20
-137.3252956470923
 10
75.38178980320316
 20
-137.3252956470923
 10
75.33321395686114
 20
-137.3635362069786
 10
75.30151907839685
 20
-137.3952310854429
 10
75.22744952546397
 20
-137.4693006383757
 10
75.21470267216856
 20
-137.5857448657772
 10
75.21470267216856
 20
-137.6405218839926
 10
75.21470267216856
 20
-137.6598144187101
 10
75.2167697294597
 20
-137.6956434117567
 10
75.220903844042
 20
-137.7232041756386
 10
75.220903844042
 20
-137.7232041756386
 10
75.02625594912539
 20
-137.7232041756386
 10
75.02625594912539
 20
-137.7232041756386
 10
75.03280163054735
 20
-137.6849636157524
 10
75.03486868783851
 20
-137.6429334508323
 10
75.03486868783851
 20
-137.6363877694104
 10
75.03486868783851
 20
-137.5709309551906
 10
75.01350909582996
 20
-137.3721489456917
 10
74.7768310359933
 20
-137.3721489456917
 10
74.59906410895441
 20
-137.3721489456917
 10
74.54394258119041
 20
-137.5030625741312
 10
74.54394258119041
 20
-137.6133056296592
 10
74.54394258119041
 20
-137.8775444533779
 10
74.7768310359933
 20
-137.886157192091
 10
74.8484890220865
 20
-137.8902913066733
 10
74.8484890220865
 20
-137.8902913066733
 10
74.8484890220865
 20
-138.093551940303
 10
74.8484890220865
 20
-138.093551940303
 10
74.72377656552045
 20
-138.0849392015899
 10
74.34722762898264
 20
-138.0573784377079
 10
74.34722762898264
 20
-137.6005587763638
 10
74.34722762898264
 20
-137.376283060274
 10
74.47435165238836
 20
-137.1351263763065
 10
74.77028535457131
 20
-137.1351263763065
 10
74.95666502032334
 20
-137.1351263763065
 10
75.03900280242081
 20
-137.2302110116994
 10
75.10032550205825
 20
-137.3297742712231
 10
75.12788626594025
 20
-137.2684515715857
 10
75.20815699074657
 20
-137.0865505299645
 10
75.48548717730918
 20
-137.0865505299645
 10
75.82379555396072
 20
-137.0865505299645
 10
75.99088268499534
 20
-137.3339083858054
 10
75.99088268499534
 20
-137.6108940628195
 97
        0
 97
        0
 75
     2
 76
     1
 98
        0
  0
SPLINE
  5
AE
330
A8
100
AcDbEntity
  8
_U+30EC_U+30A4_U+30E4_U+30FC 1
370
     0
100
AcDbSpline
210
0.0
220
0.0
230
1.0
 70
    11
 71
     3
 72
    62
 73
    58
 74
     0
 42
0.0000000001
 43
0.0000000001
 12
1.0
 22
0.0
 32
0.0
 13
1.0
 23
0.0
 33
0.0
 40
0.0
 40
0.0
 40
0.0
 40
0.0
 40
1.0
 40
1.0
 40
1.0
 40
2.0
 40
2.0
 40
2.0
 40
3.0
 40
3.0
 40
3.0
 40
4.0
 40
4.0
 40
4.0
 40
5.0
 40
5.0
 40
5.0
 40
6.0
 40
6.0
 40
6.0
 40
7.0
 40
7.0
 40
7.0
 40
8.0
 40
8.0
 40
8.0
 40
9.0
 40
9.0
 40
9.0
 40
10.0
 40
10.0
 40
10.0
 40
11.0
 40
11.0
 40
11.0
 40
12.0
 40
12.0
 40
12.0
 40
13.0
 40
13.0
 40
13.0
 40
14.0
 40
14.0
 40
14.0
 40
15.0
 40
15.0
 40
15.0
 40
16.0
 40
16.0
 40
16.0
 40
17.0
 40
17.0
 40
17.0
 40
18.0
 40
18.0
 40
18.0
 40
19.0
 40
19.0
 40
19.0
 40
19.0
 10
75.99088268499534
 20
-136.4340494450582
 30
0.0
 10
75.99088268499534
 20
-136.5294785899996
 30
0.0
 10
75.96986760253532
 20
-136.7472086246674
 30
0.0
 10
75.78383244633183
 20
-136.872265590782
 30
0.0
 10
75.67152233351268
 20
-136.9459906341663
 30
0.0
 10
75.57230358353749
 20
-136.9504692582971
 30
0.0
 10
75.48755423460034
 20
-136.9546033728794
 30
0.0
 10
75.48755423460034
 20
-136.9546033728794
 30
0.0
 10
75.48755423460034
 20
-136.7344617713719
 30
0.0
 10
75.48755423460034
 20
-136.7344617713719
 30
0.0
 10
75.56162378753321
 20
-136.7323947140808
 30
0.0
 10
75.79623479007873
 20
-136.7220594276251
 30
0.0
 10
75.79623479007873
 20
-136.438528069189
 30
0.0
 10
75.79623479007873
 20
-136.3010687593275
 30
0.0
 10
75.72664386127667
 20
-136.1484510293309
 30
0.0
 10
75.4982340306046
 20
-136.1484510293309
 30
0.0
 10
75.38178980320316
 20
-136.1484510293309
 30
0.0
 10
75.33321395686114
 20
-136.1866915892172
 30
0.0
 10
75.30151907839685
 20
-136.2183864676815
 30
0.0
 10
75.22744952546397
 20
-136.2924560206144
 30
0.0
 10
75.21470267216856
 20
-136.4089002480158
 30
0.0
 10
75.21470267216856
 20
-136.4636772662313
 30
0.0
 10
75.21470267216856
 20
-136.4829698009487
 30
0.0
 10
75.2167697294597
 20
-136.5187987939953
 30
0.0
 10
75.220903844042
 20
-136.5463595578773
 30
0.0
 10
75.220903844042
 20
-136.5463595578773
 30
0.0
 10
75.02625594912539
 20
-136.5463595578773
 30
0.0
 10
75.02625594912539
 20
-136.5463595578773
 30
0.0
 10
75.03280163054735
 20
-136.508118997991
 30
0.0
 10
75.03486868783851
 20
-136.466088833071
 30
0.0
 10
75.03486868783851
 20
-136.459543151649
 30
0.0
 10
75.03486868783851
 20
-136.3940863374293
 30
0.0
 10
75.01350909582996
 20
-136.1953043279304
 30
0.0
 10
74.7768310359933
 20
-136.1953043279304
 30
0.0
 10
74.59906410895441
 20
-136.1953043279304
 30
0.0
 10
74.54394258119041
 20
-136.3262179563698
 30
0.0
 10
74.54394258119041
 20
-136.4364610118978
 30
0.0
 10
74.54394258119041
 20
-136.7006998356165
 30
0.0
 10
74.7768310359933
 20
-136.7093125743296
 30
0.0
 10
74.8484890220865
 20
-136.7134466889119
 30
0.0
 10
74.8484890220865
 20
-136.7134466889119
 30
0.0
 10
74.8484890220865
 20
-136.9167073225417
 30
0.0
 10
74.8484890220865
 20
-136.9167073225417
 30
0.0
 10
74.72377656552045
 20
-136.9080945838285
 30
0.0
 10
74.34722762898264
 20
-136.8805338199465
 30
0.0
 10
74.34722762898264
 20
-136.4237141586024
 30
0.0
 10
74.34722762898264
 20
-136.1994384425126
 30
0.0
 10
74.47435165238836
 20
-135.9582817585452
 30
0.0
 10
74.77028535457131
 20
-135.9582817585452
 30
0.0
 10
74.95666502032334
 20
-135.9582817585452
 30
0.0
 10
75.03900280242081
 20
-136.0533663939381
 30
0.0
 10
75.10032550205825
 20
-136.1529296534618
 30
0.0
 10
75.12788626594025
 20
-136.0916069538243
 30
0.0
 10
75.20815699074657
 20
-135.9097059122031
 30
0.0
 10
75.48548717730918
 20
-135.9097059122031
 30
0.0
 10
75.82379555396072
 20
-135.9097059122031
 30
0.0
 10
75.99088268499534
 20
-136.1570637680441
 30
0.0
 10
75.99088268499534
 20
-136.4340494450582
 30
0.0
  0
HATCH
  5
AF
330
A8
100
AcDbEntity
  8
_U+30EC_U+30A4_U+30E4_U+30FC 1
 62
   179
420
  2234388
100
AcDbHatch
 10
0.0
 20
0.0
 30
0.0
210
0.0
220
0.0
230
1.0
  2
SOLID
 70
     1
 71
     0
 91
        1
 92
        1
 93
        1
 72
     4
 94
        3
 73
     0
 74
     1
 95
       62
 96
       58
 40
0.0
 40
0.0
 40
0.0
 40
0.0
 40
1.0
 40
1.0
 40
1.0
 40
2.0
 40
2.0
 40
2.0
 40
3.0
 40
3.0
 40
3.0
 40
4.0
 40
4.0
 40
4.0
 40
5.0
 40
5.0
 40
5.0
 40
6.0
 40
6.0
 40
6.0
 40
7.0
 40
7.0
 40
7.0
 40
8.0
 40
8.0
 40
8.0
 40
9.0
 40
9.0
 40
9.0
 40
10.0
 40
10.0
 40
10.0
 40
11.0
 40
11.0
 40
11.0
 40
12.0
 40
12.0
 40
12.0
 40
13.0
 40
13.0
 40
13.0
 40
14.0
 40
14.0
 40
14.0
 40
15.0
 40
15.0
 40
15.0
 40
16.0
 40
16.0
 40
16.0
 40
17.0
 40
17.0
 40
17.0
 40
18.0
 40
18.0
 40
18.0
 40
19.0
 40
19.0
 40
19.0
 40
19.0
 10
75.99088268499534
 20
-136.4340494450582
 10
75.99088268499534
 20
-136.5294785899996
 10
75.96986760253532
 20
-136.7472086246674
 10
75.78383244633183
 20
-136.872265590782
 10
75.67152233351268
 20
-136.9459906341663
 10
75.57230358353749
 20
-136.9504692582971
 10
75.48755423460034
 20
-136.9546033728794
 10
75.48755423460034
 20
-136.9546033728794
 10
75.48755423460034
 20
-136.7344617713719
 10
75.48755423460034
 20
-136.7344617713719
 10
75.56162378753321
 20
-136.7323947140808
 10
75.79623479007873
 20
-136.7220594276251
 10
75.79623479007873
 20
-136.438528069189
 10
75.79623479007873
 20
-136.3010687593275
 10
75.72664386127667
 20
-136.1484510293309
 10
75.4982340306046
 20
-136.1484510293309
 10
75.38178980320316
 20
-136.1484510293309
 10
75.33321395686114
 20
-136.1866915892172
 10
75.30151907839685
 20
-136.2183864676815
 10
75.22744952546397
 20
-136.2924560206144
 10
75.21470267216856
 20
-136.4089002480158
 10
75.21470267216856
 20
-136.4636772662313
 10
75.21470267216856
 20
-136.4829698009487
 10
75.2167697294597
 20
-136.5187987939953
 10
75.220903844042
 20
-136.5463595578773
 10
75.220903844042
 20
-136.5463595578773
 10
75.02625594912539
 20
-136.5463595578773
 10
75.02625594912539
 20
-136.5463595578773
 10
75.03280163054735
 20
-136.508118997991
 10
75.03486868783851
 20
-136.466088833071
 10
75.03486868783851
 20
-136.459543151649
 10
75.03486868783851
 20
-136.3940863374293
 10
75.01350909582996
 20
-136.1953043279304
 10
74.7768310359933
 20
-136.1953043279304
 10
74.59906410895441
 20
-136.1953043279304
 10
74.54394258119041
 20
-136.3262179563698
 10
74.54394258119041
 20
-136.4364610118978
 10
74.54394258119041
 20
-136.7006998356165
 10
74.7768310359933
 20
-136.7093125743296
 10
74.8484890220865
 20
-136.7134466889119
 10
74.8484890220865
 20
-136.7134466889119
 10
74.8484890220865
 20
-136.9167073225417
 10
74.8484890220865
 20
-136.9167073225417
 10
74.72377656552045
 20
-136.9080945838285
 10
74.34722762898264
 20
-136.8805338199465
 10
74.34722762898264
 20
-136.4237141586024
 10
74.34722762898264
 20
-136.1994384425126
 10
74.47435165238836
 20
-135.9582817585452
 10
74.77028535457131
 20
-135.9582817585452
 10
74.95666502032334
 20
-135.9582817585452
 10
75.03900280242081
 20
-136.0533663939381
 10
75.10032550205825
 20
-136.1529296534618
 10
75.12788626594025
 20
-136.0916069538243
 10
75.20815699074657
 20
-135.9097059122031
 10
75.48548717730918
 20
-135.9097059122031
 10
75.82379555396072
 20
-135.9097059122031
 10
75.99088268499534
 20
-136.1570637680441
 10
75.99088268499534
 20
-136.4340494450582
 97
        0
 97
        0
 75
     2
 76
     1
 98
        0
  0
POLYLINE
  5
B0
330
A8
100
AcDbEntity
  8
_U+30EC_U+30A4_U+30E4_U+30FC 1
370
     0
100
AcDb2dPolyline
 66
     1
 10
0.0
 20
0.0
 30
0.0
  0
VERTEX
  5
B1
330
B0
100
AcDbEntity
  8
_U+30EC_U+30A4_U+30E4_U+30FC 1
370
     0
100
AcDbVertex
100
AcDb2dVertex
 10
75.94023978136217
 20
-135.6888752915986
 30
0.0
  0
VERTEX
  5
B2
330
B0
100
AcDbEntity
  8
_U+30EC_U+30A4_U+30E4_U+30FC 1
370
     0
100
AcDbVertex
100
AcDb2dVertex
 10
75.68840330139041
 20
-135.6888752915986
 30
0.0
  0
VERTEX
  5
B3
330
B0
100
AcDbEntity
  8
_U+30EC_U+30A4_U+30E4_U+30FC 1
370
     0
100
AcDbVertex
100
AcDb2dVertex
 10
75.68840330139041
 20
-135.4370388116268
 30
0.0
  0
VERTEX
  5
B4
330
B0
100
AcDbEntity
  8
_U+30EC_U+30A4_U+30E4_U+30FC 1
370
     0
100
AcDbVertex
100
AcDb2dVertex
 10
75.94023978136217
 20
-135.4370388116268
 30
0.0
  0
VERTEX
  5
B5
330
B0
100
AcDbEntity
  8
_U+30EC_U+30A4_U+30E4_U+30FC 1
370
     0
100
AcDbVertex
100
AcDb2dVertex
 10
75.94023978136217
 20
-135.6888752915986
 30
0.0
  0
SEQEND
  5
B6
330
B0
100
AcDbEntity
  8
_U+30EC_U+30A4_U+30E4_U+30FC 1
370
     0
  0
HATCH
  5
B7
330
A8
100
AcDbEntity
  8
_U+30EC_U+30A4_U+30E4_U+30FC 1
 62
   179
420
  2234388
100
AcDbHatch
 10
0.0
 20
0.0
 30
0.0
210
0.0
220
0.0
230
1.0
  2
SOLID
 70
     1
 71
     0
 91
        1
 92
        1
 93
        4
 72
     1
 10
75.94023978136217
 20
-135.6888752915986
 11
75.68840330139041
 21
-135.6888752915986
 72
     1
 10
75.68840330139041
 20
-135.6888752915986
 11
75.68840330139041
 21
-135.4370388116268
 72
     1
 10
75.68840330139041
 20
-135.4370388116268
 11
75.94023978136217
 21
-135.4370388116268
 72
     1
 10
75.94023978136217
 20
-135.4370388116268
 11
75.94023978136217
 21
-135.6888752915986
 97
        0
 75
     2
 76
     1
 98
        0
  0
SPLINE
  5
B8
330
A8
100
AcDbEntity
  8
_U+30EC_U+30A4_U+30E4_U+30FC 1
370
     0
100
AcDbSpline
210
0.0
220
0.0
230
1.0
 70
    11
 71
     3
 72
    44
 73
    40
 74
     0
 42
0.0000000001
 43
0.0000000001
 12
1.0
 22
0.0
 32
0.0
 13
1.0
 23
0.0
 33
0.0
 40
0.0
 40
0.0
 40
0.0
 40
0.0
 40
1.0
 40
1.0
 40
1.0
 40
2.0
 40
2.0
 40
2.0
 40
3.0
 40
3.0
 40
3.0
 40
4.0
 40
4.0
 40
4.0
 40
5.0
 40
5.0
 40
5.0
 40
6.0
 40
6.0
 40
6.0
 40
7.0
 40
7.0
 40
7.0
 40
8.0
 40
8.0
 40
8.0
 40
9.0
 40
9.0
 40
9.0
 40
10.0
 40
10.0
 40
10.0
 40
11.0
 40
11.0
 40
11.0
 40
12.0
 40
12.0
 40
12.0
 40
13.0
 40
13.0
 40
13.0
 40
13.0
 10
75.35836315390347
 20
-134.6078043283272
 30
0.0
 10
75.51718205577349
 20
-134.825534362995
 30
0.0
 10
75.59125160870636
 20
-134.9185519410968
 30
0.0
 10
75.73491209044127
 20
-134.9674722969873
 30
0.0
 10
75.73491209044127
 20
-134.9674722969873
 30
0.0
 10
75.73491209044127
 20
-134.1888807173208
 30
0.0
 10
75.73491209044127
 20
-134.1888807173208
 30
0.0
 10
75.73491209044127
 20
-134.1888807173208
 30
0.0
 10
75.94023978136217
 20
-134.1888807173208
 30
0.0
 10
75.94023978136217
 20
-134.1888807173208
 30
0.0
 10
75.94023978136217
 20
-134.1888807173208
 30
0.0
 10
75.94023978136217
 20
-135.2168972101194
 30
0.0
 10
75.94023978136217
 20
-135.2168972101194
 30
0.0
 10
75.58263886999323
 20
-135.1852023316551
 30
0.0
 10
75.50443520247806
 20
-135.1197455174353
 30
0.0
 10
75.20608993345543
 20
-134.7345838421844
 30
0.0
 10
75.0073079239565
 20
-134.4786132476304
 30
0.0
 10
74.93943954289709
 20
-134.4131564334106
 30
0.0
 10
74.80198023303562
 20
-134.4131564334106
 30
0.0
 10
74.68346894834302
 20
-134.4131564334106
 30
0.0
 10
74.55255531990353
 20
-134.4851589290523
 30
0.0
 10
74.55255531990353
 20
-134.6818738812601
 30
0.0
 10
74.55255531990353
 20
-134.9419785903964
 30
0.0
 10
74.78303220786674
 20
-134.9505913291096
 30
0.0
 10
74.89947643526818
 20
-134.9547254436919
 30
0.0
 10
74.89947643526818
 20
-134.9547254436919
 30
0.0
 10
74.89947643526818
 20
-135.1790011597816
 30
0.0
 10
74.89947643526818
 20
-135.1790011597816
 30
0.0
 10
74.77235241186247
 20
-135.1703884210685
 30
0.0
 10
74.66038680859185
 20
-135.1597086250642
 30
0.0
 10
74.54187552389925
 20
-135.0794379002579
 30
0.0
 10
74.38098956473809
 20
-134.9695393542785
 30
0.0
 10
74.34722762898264
 20
-134.7831596885264
 30
0.0
 10
74.34722762898264
 20
-134.6670599706735
 30
0.0
 10
74.34722762898264
 20
-134.3897297841109
 30
0.0
 10
74.53119572789498
 20
-134.1823350358989
 30
0.0
 10
74.80404729032676
 20
-134.1823350358989
 30
0.0
 10
75.03280163054735
 20
-134.1823350358989
 30
0.0
 10
75.13202038052255
 20
-134.2987792633003
 30
0.0
 10
75.35836315390347
 20
-134.6078043283272
 30
0.0
  0
HATCH
  5
B9
330
A8
100
AcDbEntity
  8
_U+30EC_U+30A4_U+30E4_U+30FC 1
 62
   179
420
  2234388
100
AcDbHatch
 10
0.0
 20
0.0
 30
0.0
210
0.0
220
0.0
230
1.0
  2
SOLID
 70
     1
 71
     0
 91
        1
 92
        1
 93
        1
 72
     4
 94
        3
 73
     0
 74
     1
 95
       44
 96
       40
 40
0.0
 40
0.0
 40
0.0
 40
0.0
 40
1.0
 40
1.0
 40
1.0
 40
2.0
 40
2.0
 40
2.0
 40
3.0
 40
3.0
 40
3.0
 40
4.0
 40
4.0
 40
4.0
 40
5.0
 40
5.0
 40
5.0
 40
6.0
 40
6.0
 40
6.0
 40
7.0
 40
7.0
 40
7.0
 40
8.0
 40
8.0
 40
8.0
 40
9.0
 40
9.0
 40
9.0
 40
10.0
 40
10.0
 40
10.0
 40
11.0
 40
11.0
 40
11.0
 40
12.0
 40
12.0
 40
12.0
 40
13.0
 40
13.0
 40
13.0
 40
13.0
 10
75.35836315390347
 20
-134.6078043283272
 10
75.51718205577349
 20
-134.825534362995
 10
75.59125160870636
 20
-134.9185519410968
 10
75.73491209044127
 20
-134.9674722969873
 10
75.73491209044127
 20
-134.9674722969873
 10
75.73491209044127
 20
-134.1888807173208
 10
75.73491209044127
 20
-134.1888807173208
 10
75.73491209044127
 20
-134.1888807173208
 10
75.94023978136217
 20
-134.1888807173208
 10
75.94023978136217
 20
-134.1888807173208
 10
75.94023978136217
 20
-134.1888807173208
 10
75.94023978136217
 20
-135.2168972101194
 10
75.94023978136217
 20
-135.2168972101194
 10
75.58263886999323
 20
-135.1852023316551
 10
75.50443520247806
 20
-135.1197455174353
 10
75.20608993345543
 20
-134.7345838421844
 10
75.0073079239565
 20
-134.4786132476304
 10
74.93943954289709
 20
-134.4131564334106
 10
74.80198023303562
 20
-134.4131564334106
 10
74.68346894834302
 20
-134.4131564334106
 10
74.55255531990353
 20
-134.4851589290523
 10
74.55255531990353
 20
-134.6818738812601
 10
74.55255531990353
 20
-134.9419785903964
 10
74.78303220786674
 20
-134.9505913291096
 10
74.89947643526818
 20
-134.9547254436919
 10
74.89947643526818
 20
-134.9547254436919
 10
74.89947643526818
 20
-135.1790011597816
 10
74.89947643526818
 20
-135.1790011597816
 10
74.77235241186247
 20
-135.1703884210685
 10
74.66038680859185
 20
-135.1597086250642
 10
74.54187552389925
 20
-135.0794379002579
 10
74.38098956473809
 20
-134.9695393542785
 10
74.34722762898264
 20
-134.7831596885264
 10
74.34722762898264
 20
-134.6670599706735
 10
74.34722762898264
 20
-134.3897297841109
 10
74.53119572789498
 20
-134.1823350358989
 10
74.80404729032676
 20
-134.1823350358989
 10
75.03280163054735
 20
-134.1823350358989
 10
75.13202038052255
 20
-134.2987792633003
 10
75.35836315390347
 20
-134.6078043283272
 97
        0
 97
        0
 75
     2
 76
     1
 98
        0
  0
ENDBLK
  5
AB
330
A8
100
AcDbEntity
  8
0
100
AcDbBlockEnd
  0
BLOCK
  5
BC
330
BA
100
AcDbEntity
  8
0
100
AcDbBlockBegin
  2
block 7
 70
     0
 10
0.0
 20
0.0
 30
0.0
  3
block 7
  1

  0
SPLINE
  5
BE
330
BA
100
AcDbEntity
  8
_U+30EC_U+30A4_U+30E4_U+30FC 1
370
     0
100
AcDbSpline
210
0.0
220
0.0
230
1.0
 70
    11
 71
     3
 72
    26
 73
    22
 74
     0
 42
0.0000000001
 43
0.0000000001
 12
1.0
 22
0.0
 32
0.0
 13
1.0
 23
0.0
 33
0.0
 40
0.0
 40
0.0
 40
0.0
 40
0.0
 40
1.0
 40
1.0
 40
1.0
 40
2.0
 40
2.0
 40
2.0
 40
3.0
 40
3.0
 40
3.0
 40
4.0
 40
4.0
 40
4.0
 40
5.0
 40
5.0
 40
5.0
 40
6.0
 40
6.0
 40
6.0
 40
7.0
 40
7.0
 40
7.0
 40
7.0
 10
96.15709361745378
 20
-144.9224202111652
 30
0.0
 10
96.15709361745378
 20
-144.9224202111652
 30
0.0
 10
96.15709361745378
 20
-143.8182671081427
 30
0.0
 10
96.15709361745378
 20
-143.8182671081427
 30
0.0
 10
96.15709361745378
 20
-143.8182671081427
 30
0.0
 10
95.82705346996686
 20
-143.8182671081427
 30
0.0
 10
95.82705346996686
 20
-143.8182671081427
 30
0.0
 10
95.82705346996686
 20
-143.8182671081427
 30
0.0
 10
95.82705346996686
 20
-143.6701280022769
 30
0.0
 10
95.82705346996686
 20
-143.6701280022769
 30
0.0
 10
96.15916067474494
 20
-143.6553140916903
 30
0.0
 10
96.20566946379581
 20
-143.492361075238
 30
0.0
 10
96.23529728496895
 20
-143.3779839051277
 30
0.0
 10
96.23529728496895
 20
-143.3779839051277
 30
0.0
 10
96.38136933354355
 20
-143.3779839051277
 30
0.0
 10
96.38136933354355
 20
-143.3779839051277
 30
0.0
 10
96.38136933354355
 20
-143.3779839051277
 30
0.0
 10
96.38136933354355
 20
-144.9224202111652
 30
0.0
 10
96.38136933354355
 20
-144.9224202111652
 30
0.0
 10
96.38136933354355
 20
-144.9224202111652
 30
0.0
 10
96.15709361745378
 20
-144.9224202111652
 30
0.0
 10
96.15709361745378
 20
-144.9224202111652
 30
0.0
  0
HATCH
  5
BF
330
BA
100
AcDbEntity
  8
_U+30EC_U+30A4_U+30E4_U+30FC 1
 62
   179
420
  2234388
100
AcDbHatch
 10
0.0
 20
0.0
 30
0.0
210
0.0
220
0.0
230
1.0
  2
SOLID
 70
     1
 71
     0
 91
        1
 92
        1
 93
        1
 72
     4
 94
        3
 73
     0
 74
     1
 95
       26
 96
       22
 40
0.0
 40
0.0
 40
0.0
 40
0.0
 40
1.0
 40
1.0
 40
1.0
 40
2.0
 40
2.0
 40
2.0
 40
3.0
 40
3.0
 40
3.0
 40
4.0
 40
4.0
 40
4.0
 40
5.0
 40
5.0
 40
5.0
 40
6.0
 40
6.0
 40
6.0
 40
7.0
 40
7.0
 40
7.0
 40
7.0
 10
96.15709361745378
 20
-144.9224202111652
 10
96.15709361745378
 20
-144.9224202111652
 10
96.15709361745378
 20
-143.8182671081427
 10
96.15709361745378
 20
-143.8182671081427
 10
96.15709361745378
 20
-143.8182671081427
 10
95.82705346996686
 20
-143.8182671081427
 10
95.82705346996686
 20
-143.8182671081427
 10
95.82705346996686
 20
-143.8182671081427
 10
95.82705346996686
 20
-143.6701280022769
 10
95.82705346996686
 20
-143.6701280022769
 10
96.15916067474494
 20
-143.6553140916903
 10
96.20566946379581
 20
-143.492361075238
 10
96.23529728496895
 20
-143.3779839051277
 10
96.23529728496895
 20
-143.3779839051277
 10
96.38136933354355
 20
-143.3779839051277
 10
96.38136933354355
 20
-143.3779839051277
 10
96.38136933354355
 20
-143.3779839051277
 10
96.38136933354355
 20
-144.9224202111652
 10
96.38136933354355
 20
-144.9224202111652
 10
96.38136933354355
 20
-144.9224202111652
 10
96.15709361745378
 20
-144.9224202111652
 10
96.15709361745378
 20
-144.9224202111652
 97
        0
 97
        0
 75
     2
 76
     1
 98
        0
  0
SPLINE
  5
C0
330
BA
100
AcDbEntity
  8
_U+30EC_U+30A4_U+30E4_U+30FC 1
370
     0
100
AcDbSpline
210
0.0
220
0.0
230
1.0
 70
    11
 71
     3
 72
    53
 73
    49
 74
     0
 42
0.0000000001
 43
0.0000000001
 12
1.0
 22
0.0
 32
0.0
 13
1.0
 23
0.0
 33
0.0
 40
0.0
 40
0.0
 40
0.0
 40
0.0
 40
1.0
 40
1.0
 40
1.0
 40
2.0
 40
2.0
 40
2.0
 40
3.0
 40
3.0
 40
3.0
 40
4.0
 40
4.0
 40
4.0
 40
5.0
 40
5.0
 40
5.0
 40
6.0
 40
6.0
 40
6.0
 40
7.0
 40
7.0
 40
7.0
 40
8.0
 40
8.0
 40
8.0
 40
9.0
 40
9.0
 40
9.0
 40
10.0
 40
10.0
 40
10.0
 40
11.0
 40
11.0
 40
11.0
 40
12.0
 40
12.0
 40
12.0
 40
13.0
 40
13.0
 40
13.0
 40
14.0
 40
14.0
 40
14.0
 40
15.0
 40
15.0
 40
15.0
 40
16.0
 40
16.0
 40
16.0
 40
16.0
 10
97.36356605638828
 20
-144.9730631147984
 30
0.0
 10
97.28536238887311
 20
-144.9730631147984
 30
0.0
 10
97.18373207205823
 20
-144.9561821469207
 30
0.0
 10
97.08210175524337
 20
-144.8927923899921
 30
0.0
 10
96.9088134523353
 20
-144.7828938440126
 30
0.0
 10
96.88745386032676
 20
-144.6516357060246
 30
0.0
 10
96.86850583515788
 20
-144.5438042173363
 30
0.0
 10
96.86850583515788
 20
-144.5438042173363
 30
0.0
 10
97.0907144939565
 20
-144.5438042173363
 30
0.0
 10
97.0907144939565
 20
-144.5438042173363
 30
0.0
 10
97.14549151217196
 20
-144.7425862268352
 30
0.0
 10
97.27261553557769
 20
-144.7722140480084
 30
0.0
 10
97.36563311367944
 20
-144.7722140480084
 30
0.0
 10
97.50515948083205
 20
-144.7722140480084
 30
0.0
 10
97.65743270128009
 20
-144.6726507884846
 30
0.0
 10
97.65743270128009
 20
-144.4401068432303
 30
0.0
 10
97.65743270128009
 20
-144.1841362486762
 30
0.0
 10
97.47759871695006
 20
-144.1142008103256
 30
0.0
 10
97.35702037496631
 20
-144.1142008103256
 30
0.0
 10
97.325325496502
 20
-144.1142008103256
 30
0.0
 10
97.18373207205823
 20
-144.1142008103256
 30
0.0
 10
97.0948486085388
 20
-144.2433918910225
 30
0.0
 10
97.0948486085388
 20
-144.2433918910225
 30
0.0
 10
96.91914873879105
 20
-144.2244438658536
 30
0.0
 10
96.91914873879105
 20
-144.2244438658536
 30
0.0
 10
96.91914873879105
 20
-144.2244438658536
 30
0.0
 10
97.0397270807748
 20
-143.3779839051277
 30
0.0
 10
97.0397270807748
 20
-143.3779839051277
 30
0.0
 10
97.0397270807748
 20
-143.3779839051277
 30
0.0
 10
97.81831866044126
 20
-143.3779839051277
 30
0.0
 10
97.81831866044126
 20
-143.3779839051277
 30
0.0
 10
97.81831866044126
 20
-143.3779839051277
 30
0.0
 10
97.81831866044126
 20
-143.5726318000443
 30
0.0
 10
97.81831866044126
 20
-143.5726318000443
 30
0.0
 10
97.81831866044126
 20
-143.5726318000443
 30
0.0
 10
97.20268009722712
 20
-143.5726318000443
 30
0.0
 10
97.20268009722712
 20
-143.5726318000443
 30
0.0
 10
97.20268009722712
 20
-143.5726318000443
 30
0.0
 10
97.13722328300736
 20
-143.995689525633
 30
0.0
 10
97.13722328300736
 20
-143.995689525633
 30
0.0
 10
97.19854598264482
 20
-143.9619275898776
 30
0.0
 10
97.28088376474228
 20
-143.9216199727002
 30
0.0
 10
97.39939504943487
 20
-143.9216199727002
 30
0.0
 10
97.65329858669779
 20
-143.9216199727002
 30
0.0
 10
97.89032115608298
 20
-144.1079996384522
 30
0.0
 10
97.89032115608298
 20
-144.4211588180614
 30
0.0
 10
97.89032115608298
 20
-144.7384521122529
 30
0.0
 10
97.66604543999321
 20
-144.9730631147984
 30
0.0
 10
97.36356605638828
 20
-144.9730631147984
 30
0.0
  0
HATCH
  5
C1
330
BA
100
AcDbEntity
  8
_U+30EC_U+30A4_U+30E4_U+30FC 1
 62
   179
420
  2234388
100
AcDbHatch
 10
0.0
 20
0.0
 30
0.0
210
0.0
220
0.0
230
1.0
  2
SOLID
 70
     1
 71
     0
 91
        1
 92
        1
 93
        1
 72
     4
 94
        3
 73
     0
 74
     1
 95
       53
 96
       49
 40
0.0
 40
0.0
 40
0.0
 40
0.0
 40
1.0
 40
1.0
 40
1.0
 40
2.0
 40
2.0
 40
2.0
 40
3.0
 40
3.0
 40
3.0
 40
4.0
 40
4.0
 40
4.0
 40
5.0
 40
5.0
 40
5.0
 40
6.0
 40
6.0
 40
6.0
 40
7.0
 40
7.0
 40
7.0
 40
8.0
 40
8.0
 40
8.0
 40
9.0
 40
9.0
 40
9.0
 40
10.0
 40
10.0
 40
10.0
 40
11.0
 40
11.0
 40
11.0
 40
12.0
 40
12.0
 40
12.0
 40
13.0
 40
13.0
 40
13.0
 40
14.0
 40
14.0
 40
14.0
 40
15.0
 40
15.0
 40
15.0
 40
16.0
 40
16.0
 40
16.0
 40
16.0
 10
97.36356605638828
 20
-144.9730631147984
 10
97.28536238887311
 20
-144.9730631147984
 10
97.18373207205823
 20
-144.9561821469207
 10
97.08210175524337
 20
-144.8927923899921
 10
96.9088134523353
 20
-144.7828938440126
 10
96.88745386032676
 20
-144.6516357060246
 10
96.86850583515788
 20
-144.5438042173363
 10
96.86850583515788
 20
-144.5438042173363
 10
97.0907144939565
 20
-144.5438042173363
 10
97.0907144939565
 20
-144.5438042173363
 10
97.14549151217196
 20
-144.7425862268352
 10
97.27261553557769
 20
-144.7722140480084
 10
97.36563311367944
 20
-144.7722140480084
 10
97.50515948083205
 20
-144.7722140480084
 10
97.65743270128009
 20
-144.6726507884846
 10
97.65743270128009
 20
-144.4401068432303
 10
97.65743270128009
 20
-144.1841362486762
 10
97.47759871695006
 20
-144.1142008103256
 10
97.35702037496631
 20
-144.1142008103256
 10
97.325325496502
 20
-144.1142008103256
 10
97.18373207205823
 20
-144.1142008103256
 10
97.0948486085388
 20
-144.2433918910225
 10
97.0948486085388
 20
-144.2433918910225
 10
96.91914873879105
 20
-144.2244438658536
 10
96.91914873879105
 20
-144.2244438658536
 10
96.91914873879105
 20
-144.2244438658536
 10
97.0397270807748
 20
-143.3779839051277
 10
97.0397270807748
 20
-143.3779839051277
 10
97.0397270807748
 20
-143.3779839051277
 10
97.81831866044126
 20
-143.3779839051277
 10
97.81831866044126
 20
-143.3779839051277
 10
97.81831866044126
 20
-143.3779839051277
 10
97.81831866044126
 20
-143.5726318000443
 10
97.81831866044126
 20
-143.5726318000443
 10
97.81831866044126
 20
-143.5726318000443
 10
97.20268009722712
 20
-143.5726318000443
 10
97.20268009722712
 20
-143.5726318000443
 10
97.20268009722712
 20
-143.5726318000443
 10
97.13722328300736
 20
-143.995689525633
 10
97.13722328300736
 20
-143.995689525633
 10
97.19854598264482
 20
-143.9619275898776
 10
97.28088376474228
 20
-143.9216199727002
 10
97.39939504943487
 20
-143.9216199727002
 10
97.65329858669779
 20
-143.9216199727002
 10
97.89032115608298
 20
-144.1079996384522
 10
97.89032115608298
 20
-144.4211588180614
 10
97.89032115608298
 20
-144.7384521122529
 10
97.66604543999321
 20
-144.9730631147984
 10
97.36356605638828
 20
-144.9730631147984
 97
        0
 97
        0
 75
     2
 76
     1
 98
        0
  0
ENDBLK
  5
BD
330
BA
100
AcDbEntity
  8
0
100
AcDbBlockEnd
  0
BLOCK
  5
C4
330
C2
100
AcDbEntity
  8
0
100
AcDbBlockBegin
  2
block 8
 70
     0
 10
0.0
 20
0.0
 30
0.0
  3
block 8
  1

  0
SPLINE
  5
C6
330
C2
100
AcDbEntity
  8
_U+30EC_U+30A4_U+30E4_U+30FC 1
370
     0
100
AcDbSpline
210
0.0
220
0.0
230
1.0
 70
    11
 71
     3
 72
    62
 73
    58
 74
     0
 42
0.0000000001
 43
0.0000000001
 12
1.0
 22
0.0
 32
0.0
 13
1.0
 23
0.0
 33
0.0
 40
0.0
 40
0.0
 40
0.0
 40
0.0
 40
1.0
 40
1.0
 40
1.0
 40
2.0
 40
2.0
 40
2.0
 40
3.0
 40
3.0
 40
3.0
 40
4.0
 40
4.0
 40
4.0
 40
5.0
 40
5.0
 40
5.0
 40
6.0
 40
6.0
 40
6.0
 40
7.0
 40
7.0
 40
7.0
 40
8.0
 40
8.0
 40
8.0
 40
9.0
 40
9.0
 40
9.0
 40
10.0
 40
10.0
 40
10.0
 40
11.0
 40
11.0
 40
11.0
 40
12.0
 40
12.0
 40
12.0
 40
13.0
 40
13.0
 40
13.0
 40
14.0
 40
14.0
 40
14.0
 40
15.0
 40
15.0
 40
15.0
 40
16.0
 40
16.0
 40
16.0
 40
17.0
 40
17.0
 40
17.0
 40
18.0
 40
18.0
 40
18.0
 40
19.0
 40
19.0
 40
19.0
 40
19.0
 10
92.96555715991833
 20
-144.9730631147984
 30
0.0
 10
92.89424368337366
 20
-144.9730631147984
 30
0.0
 10
92.7306016478243
 20
-144.9520480323384
 30
0.0
 10
92.6368950506255
 20
-144.7660128761349
 30
0.0
 10
92.58142901331298
 20
-144.6537027633157
 30
0.0
 10
92.57798391782774
 20
-144.5544840133406
 30
0.0
 10
92.574883331891
 20
-144.4697346644034
 30
0.0
 10
92.574883331891
 20
-144.4697346644034
 30
0.0
 10
92.73990340563448
 20
-144.4697346644034
 30
0.0
 10
92.73990340563448
 20
-144.4697346644034
 30
0.0
 10
92.7416259533771
 20
-144.5438042173363
 30
0.0
 10
92.74954967299317
 20
-144.7784152198818
 30
0.0
 10
92.96245657398161
 20
-144.7784152198818
 30
0.0
 10
93.06546492899058
 20
-144.7784152198818
 30
0.0
 10
93.17984209910088
 20
-144.7088242910797
 30
0.0
 10
93.17984209910088
 20
-144.4804144604077
 30
0.0
 10
93.17984209910088
 20
-144.3639702330062
 30
0.0
 10
93.15124780657331
 20
-144.3153943866642
 30
0.0
 10
93.12747664772508
 20
-144.2836995081999
 30
0.0
 10
93.07201061041256
 20
-144.209629955267
 30
0.0
 10
92.98450518508722
 20
-144.1968831019716
 30
0.0
 10
92.94316403926422
 20
-144.1968831019716
 30
0.0
 10
92.92903914777469
 20
-144.1968831019716
 30
0.0
 10
92.90216740298975
 20
-144.1989501592628
 30
0.0
 10
92.88149683007825
 20
-144.2030842738451
 30
0.0
 10
92.88149683007825
 20
-144.2030842738451
 30
0.0
 10
92.88149683007825
 20
-144.0084363789285
 30
0.0
 10
92.88149683007825
 20
-144.0084363789285
 30
0.0
 10
92.91009112260582
 20
-144.0149820603504
 30
0.0
 10
92.94178600107011
 20
-144.0170491176416
 30
0.0
 10
92.94660913474947
 20
-144.0170491176416
 30
0.0
 10
92.99587400018854
 20
-144.0170491176416
 30
0.0
 10
93.14504663469985
 20
-143.995689525633
 30
0.0
 10
93.14504663469985
 20
-143.7590114657964
 30
0.0
 10
93.14504663469985
 20
-143.5812445387575
 30
0.0
 10
93.04651690382171
 20
-143.5261230109935
 30
0.0
 10
92.96383461217572
 20
-143.5261230109935
 30
0.0
 10
92.76539711222532
 20
-143.5261230109935
 30
0.0
 10
92.75919594035187
 20
-143.7590114657964
 30
0.0
 10
92.75609535441515
 20
-143.8306694518895
 30
0.0
 10
92.75609535441515
 20
-143.8306694518895
 30
0.0
 10
92.60347762441857
 20
-143.8306694518895
 30
0.0
 10
92.60347762441857
 20
-143.8306694518895
 30
0.0
 10
92.60967879629203
 20
-143.7059569953235
 30
0.0
 10
92.63034936920353
 20
-143.3294080587857
 30
0.0
 10
92.9734808795344
 20
-143.3294080587857
 30
0.0
 10
93.14194604876313
 20
-143.3294080587857
 30
0.0
 10
93.32281356173874
 20
-143.4565320821914
 30
0.0
 10
93.32281356173874
 20
-143.7524657843744
 30
0.0
 10
93.32281356173874
 20
-143.9388454501264
 30
0.0
 10
93.25150008519407
 20
-144.0211832322239
 30
0.0
 10
93.17674151316415
 20
-144.0825059318613
 30
0.0
 10
93.2229057926665
 20
-144.1100666957433
 30
0.0
 10
93.3593315738824
 20
-144.1903374205496
 30
0.0
 10
93.3593315738824
 20
-144.4676676071122
 30
0.0
 10
93.3593315738824
 20
-144.8059759837638
 30
0.0
 10
93.17364092722742
 20
-144.9730631147984
 30
0.0
 10
92.96555715991833
 20
-144.9730631147984
 30
0.0
  0
HATCH
  5
C7
330
C2
100
AcDbEntity
  8
_U+30EC_U+30A4_U+30E4_U+30FC 1
 62
   179
420
  2234388
100
AcDbHatch
 10
0.0
 20
0.0
 30
0.0
210
0.0
220
0.0
230
1.0
  2
SOLID
 70
     1
 71
     0
 91
        1
 92
        1
 93
        1
 72
     4
 94
        3
 73
     0
 74
     1
 95
       62
 96
       58
 40
0.0
 40
0.0
 40
0.0
 40
0.0
 40
1.0
 40
1.0
 40
1.0
 40
2.0
 40
2.0
 40
2.0
 40
3.0
 40
3.0
 40
3.0
 40
4.0
 40
4.0
 40
4.0
 40
5.0
 40
5.0
 40
5.0
 40
6.0
 40
6.0
 40
6.0
 40
7.0
 40
7.0
 40
7.0
 40
8.0
 40
8.0
 40
8.0
 40
9.0
 40
9.0
 40
9.0
 40
10.0
 40
10.0
 40
10.0
 40
11.0
 40
11.0
 40
11.0
 40
12.0
 40
12.0
 40
12.0
 40
13.0
 40
13.0
 40
13.0
 40
14.0
 40
14.0
 40
14.0
 40
15.0
 40
15.0
 40
15.0
 40
16.0
 40
16.0
 40
16.0
 40
17.0
 40
17.0
 40
17.0
 40
18.0
 40
18.0
 40
18.0
 40
19.0
 40
19.0
 40
19.0
 40
19.0
 10
92.96555715991833
 20
-144.9730631147984
 10
92.89424368337366
 20
-144.9730631147984
 10
92.7306016478243
 20
-144.9520480323384
 10
92.6368950506255
 20
-144.7660128761349
 10
92.58142901331298
 20
-144.6537027633157
 10
92.57798391782774
 20
-144.5544840133406
 10
92.574883331891
 20
-144.4697346644034
 10
92.574883331891
 20
-144.4697346644034
 10
92.73990340563448
 20
-144.4697346644034
 10
92.73990340563448
 20
-144.4697346644034
 10
92.7416259533771
 20
-144.5438042173363
 10
92.74954967299317
 20
-144.7784152198818
 10
92.96245657398161
 20
-144.7784152198818
 10
93.06546492899058
 20
-144.7784152198818
 10
93.17984209910088
 20
-144.7088242910797
 10
93.17984209910088
 20
-144.4804144604077
 10
93.17984209910088
 20
-144.3639702330062
 10
93.15124780657331
 20
-144.3153943866642
 10
93.12747664772508
 20
-144.2836995081999
 10
93.07201061041256
 20
-144.209629955267
 10
92.98450518508722
 20
-144.1968831019716
 10
92.94316403926422
 20
-144.1968831019716
 10
92.92903914777469
 20
-144.1968831019716
 10
92.90216740298975
 20
-144.1989501592628
 10
92.88149683007825
 20
-144.2030842738451
 10
92.88149683007825
 20
-144.2030842738451
 10
92.88149683007825
 20
-144.0084363789285
 10
92.88149683007825
 20
-144.0084363789285
 10
92.91009112260582
 20
-144.0149820603504
 10
92.94178600107011
 20
-144.0170491176416
 10
92.94660913474947
 20
-144.0170491176416
 10
92.99587400018854
 20
-144.0170491176416
 10
93.14504663469985
 20
-143.995689525633
 10
93.14504663469985
 20
-143.7590114657964
 10
93.14504663469985
 20
-143.5812445387575
 10
93.04651690382171
 20
-143.5261230109935
 10
92.96383461217572
 20
-143.5261230109935
 10
92.76539711222532
 20
-143.5261230109935
 10
92.75919594035187
 20
-143.7590114657964
 10
92.75609535441515
 20
-143.8306694518895
 10
92.75609535441515
 20
-143.8306694518895
 10
92.60347762441857
 20
-143.8306694518895
 10
92.60347762441857
 20
-143.8306694518895
 10
92.60967879629203
 20
-143.7059569953235
 10
92.63034936920353
 20
-143.3294080587857
 10
92.9734808795344
 20
-143.3294080587857
 10
93.14194604876313
 20
-143.3294080587857
 10
93.32281356173874
 20
-143.4565320821914
 10
93.32281356173874
 20
-143.7524657843744
 10
93.32281356173874
 20
-143.9388454501264
 10
93.25150008519407
 20
-144.0211832322239
 10
93.17674151316415
 20
-144.0825059318613
 10
93.2229057926665
 20
-144.1100666957433
 10
93.3593315738824
 20
-144.1903374205496
 10
93.3593315738824
 20
-144.4676676071122
 10
93.3593315738824
 20
-144.8059759837638
 10
93.17364092722742
 20
-144.9730631147984
 10
92.96555715991833
 20
-144.9730631147984
 97
        0
 97
        0
 75
     2
 76
     1
 98
        0
  0
ENDBLK
  5
C5
330
C2
100
AcDbEntity
  8
0
100
AcDbBlockEnd
  0
BLOCK
  5
F6
330
F4
100
AcDbEntity
  8
0
100
AcDbBlockBegin
  2
block 9
 70
     0
 10
0.0
 20
0.0
 30
0.0
  3
block 9
  1

  0
SPLINE
  5
F8
330
F4
100
AcDbEntity
  8
_U+30EC_U+30A4_U+30E4_U+30FC 1
370
     0
100
AcDbSpline
210
0.0
220
0.0
230
1.0
 70
    11
 71
     3
 72
    44
 73
    40
 74
     0
 42
0.0000000001
 43
0.0000000001
 12
1.0
 22
0.0
 32
0.0
 13
1.0
 23
0.0
 33
0.0
 40
0.0
 40
0.0
 40
0.0
 40
0.0
 40
1.0
 40
1.0
 40
1.0
 40
2.0
 40
2.0
 40
2.0
 40
3.0
 40
3.0
 40
3.0
 40
4.0
 40
4.0
 40
4.0
 40
5.0
 40
5.0
 40
5.0
 40
6.0
 40
6.0
 40
6.0
 40
7.0
 40
7.0
 40
7.0
 40
8.0
 40
8.0
 40
8.0
 40
9.0
 40
9.0
 40
9.0
 40
10.0
 40
10.0
 40
10.0
 40
11.0
 40
11.0
 40
11.0
 40
12.0
 40
12.0
 40
12.0
 40
13.0
 40
13.0
 40
13.0
 40
13.0
 10
110.6099581971739
 20
-123.6513671565872
 30
0.0
 10
110.7687770990439
 20
-123.869097191255
 30
0.0
 10
110.8428466519768
 20
-123.9621147693567
 30
0.0
 10
110.9865071337117
 20
-124.0110351252472
 30
0.0
 10
110.9865071337117
 20
-124.0110351252472
 30
0.0
 10
110.9865071337117
 20
-123.2324435455808
 30
0.0
 10
110.9865071337117
 20
-123.2324435455808
 30
0.0
 10
110.9865071337117
 20
-123.2324435455808
 30
0.0
 10
111.1918348246326
 20
-123.2324435455808
 30
0.0
 10
111.1918348246326
 20
-123.2324435455808
 30
0.0
 10
111.1918348246326
 20
-123.2324435455808
 30
0.0
 10
111.1918348246326
 20
-124.2604600383793
 30
0.0
 10
111.1918348246326
 20
-124.2604600383793
 30
0.0
 10
110.8342339132637
 20
-124.228765159915
 30
0.0
 10
110.7560302457485
 20
-124.1633083456953
 30
0.0
 10
110.4576849767259
 20
-123.7781466704444
 30
0.0
 10
110.2589029672269
 20
-123.5221760758903
 30
0.0
 10
110.1910345861675
 20
-123.4567192616705
 30
0.0
 10
110.053575276306
 20
-123.4567192616705
 30
0.0
 10
109.9350639916135
 20
-123.4567192616705
 30
0.0
 10
109.804150363174
 20
-123.5287217573123
 30
0.0
 10
109.804150363174
 20
-123.72543670952
 30
0.0
 10
109.804150363174
 20
-123.9855414186564
 30
0.0
 10
110.0346272511372
 20
-123.993809647821
 30
0.0
 10
110.1510714785386
 20
-123.9982882719518
 30
0.0
 10
110.1510714785386
 20
-123.9982882719518
 30
0.0
 10
110.1510714785386
 20
-124.2225639880416
 30
0.0
 10
110.1510714785386
 20
-124.2225639880416
 30
0.0
 10
110.0239474551329
 20
-124.2139512493285
 30
0.0
 10
109.9119818518623
 20
-124.2032714533242
 30
0.0
 10
109.7934705671697
 20
-124.1230007285179
 30
0.0
 10
109.6325846080085
 20
-124.0131021825384
 30
0.0
 10
109.5988226722531
 20
-123.8267225167864
 30
0.0
 10
109.5988226722531
 20
-123.7106227989335
 30
0.0
 10
109.5988226722531
 20
-123.4332926123708
 30
0.0
 10
109.7827907711654
 20
-123.2258978641588
 30
0.0
 10
110.0556423335972
 20
-123.2258978641588
 30
0.0
 10
110.2843966738178
 20
-123.2258978641588
 30
0.0
 10
110.383615423793
 20
-123.3423420915603
 30
0.0
 10
110.6099581971739
 20
-123.6513671565872
 30
0.0
  0
HATCH
  5
F9
330
F4
100
AcDbEntity
  8
_U+30EC_U+30A4_U+30E4_U+30FC 1
 62
   179
420
  2234388
100
AcDbHatch
 10
0.0
 20
0.0
 30
0.0
210
0.0
220
0.0
230
1.0
  2
SOLID
 70
     1
 71
     0
 91
        1
 92
        1
 93
        1
 72
     4
 94
        3
 73
     0
 74
     1
 95
       44
 96
       40
 40
0.0
 40
0.0
 40
0.0
 40
0.0
 40
1.0
 40
1.0
 40
1.0
 40
2.0
 40
2.0
 40
2.0
 40
3.0
 40
3.0
 40
3.0
 40
4.0
 40
4.0
 40
4.0
 40
5.0
 40
5.0
 40
5.0
 40
6.0
 40
6.0
 40
6.0
 40
7.0
 40
7.0
 40
7.0
 40
8.0
 40
8.0
 40
8.0
 40
9.0
 40
9.0
 40
9.0
 40
10.0
 40
10.0
 40
10.0
 40
11.0
 40
11.0
 40
11.0
 40
12.0
 40
12.0
 40
12.0
 40
13.0
 40
13.0
 40
13.0
 40
13.0
 10
110.6099581971739
 20
-123.6513671565872
 10
110.7687770990439
 20
-123.869097191255
 10
110.8428466519768
 20
-123.9621147693567
 10
110.9865071337117
 20
-124.0110351252472
 10
110.9865071337117
 20
-124.0110351252472
 10
110.9865071337117
 20
-123.2324435455808
 10
110.9865071337117
 20
-123.2324435455808
 10
110.9865071337117
 20
-123.2324435455808
 10
111.1918348246326
 20
-123.2324435455808
 10
111.1918348246326
 20
-123.2324435455808
 10
111.1918348246326
 20
-123.2324435455808
 10
111.1918348246326
 20
-124.2604600383793
 10
111.1918348246326
 20
-124.2604600383793
 10
110.8342339132637
 20
-124.228765159915
 10
110.7560302457485
 20
-124.1633083456953
 10
110.4576849767259
 20
-123.7781466704444
 10
110.2589029672269
 20
-123.5221760758903
 10
110.1910345861675
 20
-123.4567192616705
 10
110.053575276306
 20
-123.4567192616705
 10
109.9350639916135
 20
-123.4567192616705
 10
109.804150363174
 20
-123.5287217573123
 10
109.804150363174
 20
-123.72543670952
 10
109.804150363174
 20
-123.9855414186564
 10
110.0346272511372
 20
-123.993809647821
 10
110.1510714785386
 20
-123.9982882719518
 10
110.1510714785386
 20
-123.9982882719518
 10
110.1510714785386
 20
-124.2225639880416
 10
110.1510714785386
 20
-124.2225639880416
 10
110.0239474551329
 20
-124.2139512493285
 10
109.9119818518623
 20
-124.2032714533242
 10
109.7934705671697
 20
-124.1230007285179
 10
109.6325846080085
 20
-124.0131021825384
 10
109.5988226722531
 20
-123.8267225167864
 10
109.5988226722531
 20
-123.7106227989335
 10
109.5988226722531
 20
-123.4332926123708
 10
109.7827907711654
 20
-123.2258978641588
 10
110.0556423335972
 20
-123.2258978641588
 10
110.2843966738178
 20
-123.2258978641588
 10
110.383615423793
 20
-123.3423420915603
 10
110.6099581971739
 20
-123.6513671565872
 97
        0
 97
        0
 75
     2
 76
     1
 98
        0
  0
POLYLINE
  5
FA
330
F4
100
AcDbEntity
  8
_U+30EC_U+30A4_U+30E4_U+30FC 1
370
     0
100
AcDb2dPolyline
 66
     1
 10
0.0
 20
0.0
 30
0.0
  0
VERTEX
  5
FB
330
FA
100
AcDbEntity
  8
_U+30EC_U+30A4_U+30E4_U+30FC 1
370
     0
100
AcDbVertex
100
AcDb2dVertex
 10
110.8449137092679
 20
-122.2354329121495
 30
0.0
  0
VERTEX
  5
FC
330
FA
100
AcDbEntity
  8
_U+30EC_U+30A4_U+30E4_U+30FC 1
370
     0
100
AcDbVertex
100
AcDb2dVertex
 10
111.1918348246326
 20
-122.2354329121495
 30
0.0
  0
VERTEX
  5
FD
330
FA
100
AcDbEntity
  8
_U+30EC_U+30A4_U+30E4_U+30FC 1
370
     0
100
AcDbVertex
100
AcDb2dVertex
 10
111.1918348246326
 20
-122.4531629468173
 30
0.0
  0
VERTEX
  5
FE
330
FA
100
AcDbEntity
  8
_U+30EC_U+30A4_U+30E4_U+30FC 1
370
     0
100
AcDbVertex
100
AcDb2dVertex
 10
110.8449137092679
 20
-122.4531629468173
 30
0.0
  0
VERTEX
  5
FF
330
FA
100
AcDbEntity
  8
_U+30EC_U+30A4_U+30E4_U+30FC 1
370
     0
100
AcDbVertex
100
AcDb2dVertex
 10
110.8449137092679
 20
-123.1091091272088
 30
0.0
  0
VERTEX
  5
100
330
FA
100
AcDbEntity
  8
_U+30EC_U+30A4_U+30E4_U+30FC 1
370
     0
100
AcDbVertex
100
AcDb2dVertex
 10
110.6206379931782
 20
-123.1091091272088
 30
0.0
  0
VERTEX
  5
101
330
FA
100
AcDbEntity
  8
_U+30EC_U+30A4_U+30E4_U+30FC 1
370
     0
100
AcDbVertex
100
AcDb2dVertex
 10
109.6473985185951
 20
-122.4300808070661
 30
0.0
  0
VERTEX
  5
102
330
FA
100
AcDbEntity
  8
_U+30EC_U+30A4_U+30E4_U+30FC 1
370
     0
100
AcDbVertex
100
AcDb2dVertex
 10
109.6473985185951
 20
-122.2354329121495
 30
0.0
  0
VERTEX
  5
103
330
FA
100
AcDbEntity
  8
_U+30EC_U+30A4_U+30E4_U+30FC 1
370
     0
100
AcDbVertex
100
AcDb2dVertex
 10
110.646131699769
 20
-122.2354329121495
 30
0.0
  0
VERTEX
  5
104
330
FA
100
AcDbEntity
  8
_U+30EC_U+30A4_U+30E4_U+30FC 1
370
     0
100
AcDbVertex
100
AcDb2dVertex
 10
110.646131699769
 20
-122.0280381639374
 30
0.0
  0
VERTEX
  5
105
330
FA
100
AcDbEntity
  8
_U+30EC_U+30A4_U+30E4_U+30FC 1
370
     0
100
AcDbVertex
100
AcDb2dVertex
 10
110.8449137092679
 20
-122.0280381639374
 30
0.0
  0
VERTEX
  5
106
330
FA
100
AcDbEntity
  8
_U+30EC_U+30A4_U+30E4_U+30FC 1
370
     0
100
AcDbVertex
100
AcDb2dVertex
 10
110.8449137092679
 20
-122.2354329121495
 30
0.0
  0
SEQEND
  5
107
330
FA
100
AcDbEntity
  8
_U+30EC_U+30A4_U+30E4_U+30FC 1
370
     0
  0
POLYLINE
  5
108
330
F4
100
AcDbEntity
  8
_U+30EC_U+30A4_U+30E4_U+30FC 1
370
     0
100
AcDb2dPolyline
 66
     1
 10
0.0
 20
0.0
 30
0.0
  0
VERTEX
  5
109
330
108
100
AcDbEntity
  8
_U+30EC_U+30A4_U+30E4_U+30FC 1
370
     0
100
AcDbVertex
100
AcDb2dVertex
 10
109.9901855193775
 20
-122.4531629468173
 30
0.0
  0
VERTEX
  5
10A
330
108
100
AcDbEntity
  8
_U+30EC_U+30A4_U+30E4_U+30FC 1
370
     0
100
AcDbVertex
100
AcDb2dVertex
 10
110.646131699769
 20
-122.9103271177099
 30
0.0
  0
VERTEX
  5
10B
330
108
100
AcDbEntity
  8
_U+30EC_U+30A4_U+30E4_U+30FC 1
370
     0
100
AcDbVertex
100
AcDb2dVertex
 10
110.646131699769
 20
-122.4531629468173
 30
0.0
  0
VERTEX
  5
10C
330
108
100
AcDbEntity
  8
_U+30EC_U+30A4_U+30E4_U+30FC 1
370
     0
100
AcDbVertex
100
AcDb2dVertex
 10
109.9901855193775
 20
-122.4531629468173
 30
0.0
  0
SEQEND
  5
10D
330
108
100
AcDbEntity
  8
_U+30EC_U+30A4_U+30E4_U+30FC 1
370
     0
  0
HATCH
  5
10E
330
F4
100
AcDbEntity
  8
_U+30EC_U+30A4_U+30E4_U+30FC 1
 62
   179
420
  2234388
100
AcDbHatch
 10
0.0
 20
0.0
 30
0.0
210
0.0
220
0.0
230
1.0
  2
SOLID
 70
     1
 71
     0
 91
        2
 92
        1
 93
       11
 72
     1
 10
110.8449137092679
 20
-122.2354329121495
 11
111.1918348246326
 21
-122.2354329121495
 72
     1
 10
111.1918348246326
 20
-122.2354329121495
 11
111.1918348246326
 21
-122.4531629468173
 72
     1
 10
111.1918348246326
 20
-122.4531629468173
 11
110.8449137092679
 21
-122.4531629468173
 72
     1
 10
110.8449137092679
 20
-122.4531629468173
 11
110.8449137092679
 21
-123.1091091272088
 72
     1
 10
110.8449137092679
 20
-123.1091091272088
 11
110.6206379931782
 21
-123.1091091272088
 72
     1
 10
110.6206379931782
 20
-123.1091091272088
 11
109.6473985185951
 21
-122.4300808070661
 72
     1
 10
109.6473985185951
 20
-122.4300808070661
 11
109.6473985185951
 21
-122.2354329121495
 72
     1
 10
109.6473985185951
 20
-122.2354329121495
 11
110.646131699769
 21
-122.2354329121495
 72
     1
 10
110.646131699769
 20
-122.2354329121495
 11
110.646131699769
 21
-122.0280381639374
 72
     1
 10
110.646131699769
 20
-122.0280381639374
 11
110.8449137092679
 21
-122.0280381639374
 72
     1
 10
110.8449137092679
 20
-122.0280381639374
 11
110.8449137092679
 21
-122.2354329121495
 97
        0
 92
        1
 93
        3
 72
     1
 10
109.9901855193775
 20
-122.4531629468173
 11
110.646131699769
 21
-122.9103271177099
 72
     1
 10
110.646131699769
 20
-122.9103271177099
 11
110.646131699769
 21
-122.4531629468173
 72
     1
 10
110.646131699769
 20
-122.4531629468173
 11
109.9901855193775
 21
-122.4531629468173
 97
        0
 75
     2
 76
     1
 98
        0
  0
ENDBLK
  5
F7
330
F4
100
AcDbEntity
  8
0
100
AcDbBlockEnd
  0
BLOCK
  5
111
330
10F
100
AcDbEntity
  8
0
100
AcDbBlockBegin
  2
block 10
 70
     0
 10
0.0
 20
0.0
 30
0.0
  3
block 10
  1

  0
SPLINE
  5
113
330
10F
100
AcDbEntity
  8
_U+30EC_U+30A4_U+30E4_U+30FC 1
370
     0
100
AcDbSpline
210
0.0
220
0.0
230
1.0
 70
    11
 71
     3
 72
    44
 73
    40
 74
     0
 42
0.0000000001
 43
0.0000000001
 12
1.0
 22
0.0
 32
0.0
 13
1.0
 23
0.0
 33
0.0
 40
0.0
 40
0.0
 40
0.0
 40
0.0
 40
1.0
 40
1.0
 40
1.0
 40
2.0
 40
2.0
 40
2.0
 40
3.0
 40
3.0
 40
3.0
 40
4.0
 40
4.0
 40
4.0
 40
5.0
 40
5.0
 40
5.0
 40
6.0
 40
6.0
 40
6.0
 40
7.0
 40
7.0
 40
7.0
 40
8.0
 40
8.0
 40
8.0
 40
9.0
 40
9.0
 40
9.0
 40
10.0
 40
10.0
 40
10.0
 40
11.0
 40
11.0
 40
11.0
 40
12.0
 40
12.0
 40
12.0
 40
13.0
 40
13.0
 40
13.0
 40
13.0
 10
86.67894691843443
 20
-144.3405435837065
 30
0.0
 10
86.46121688376664
 20
-144.4993624855766
 30
0.0
 10
86.3681993056649
 20
-144.5734320385094
 30
0.0
 10
86.31927894977436
 20
-144.7170925202443
 30
0.0
 10
86.31927894977436
 20
-144.7170925202443
 30
0.0
 10
87.09787052944081
 20
-144.7170925202443
 30
0.0
 10
87.09787052944081
 20
-144.7170925202443
 30
0.0
 10
87.09787052944081
 20
-144.7170925202443
 30
0.0
 10
87.09787052944081
 20
-144.9224202111652
 30
0.0
 10
87.09787052944081
 20
-144.9224202111652
 30
0.0
 10
87.09787052944081
 20
-144.9224202111652
 30
0.0
 10
86.06985403664227
 20
-144.9224202111652
 30
0.0
 10
86.06985403664227
 20
-144.9224202111652
 30
0.0
 10
86.10154891510656
 20
-144.5648192997963
 30
0.0
 10
86.1670057293263
 20
-144.4866156322811
 30
0.0
 10
86.55216740457723
 20
-144.1882703632585
 30
0.0
 10
86.8081379991313
 20
-143.9894883537596
 30
0.0
 10
86.87359481335105
 20
-143.9216199727002
 30
0.0
 10
86.87359481335105
 20
-143.7841606628387
 30
0.0
 10
86.87359481335105
 20
-143.6656493781461
 30
0.0
 10
86.80159231770932
 20
-143.5347357497066
 30
0.0
 10
86.60487736550157
 20
-143.5347357497066
 30
0.0
 10
86.3447726563652
 20
-143.5347357497066
 30
0.0
 10
86.33615991765207
 20
-143.7652126376698
 30
0.0
 10
86.33202580306977
 20
-143.8816568650712
 30
0.0
 10
86.33202580306977
 20
-143.8816568650712
 30
0.0
 10
86.10775008698
 20
-143.8816568650712
 30
0.0
 10
86.10775008698
 20
-143.8816568650712
 30
0.0
 10
86.11636282569313
 20
-143.7545328416655
 30
0.0
 10
86.12704262169741
 20
-143.6425672383949
 30
0.0
 10
86.20731334650372
 20
-143.5240559537023
 30
0.0
 10
86.3172118924832
 20
-143.3631699945412
 30
0.0
 10
86.50359155823521
 20
-143.3294080587857
 30
0.0
 10
86.61969127608813
 20
-143.3294080587857
 30
0.0
 10
86.89702146265076
 20
-143.3294080587857
 30
0.0
 10
87.1044162108628
 20
-143.513376157698
 30
0.0
 10
87.1044162108628
 20
-143.7862277201298
 30
0.0
 10
87.1044162108628
 20
-144.0149820603504
 30
0.0
 10
86.98797198346135
 20
-144.1142008103256
 30
0.0
 10
86.67894691843443
 20
-144.3405435837065
 30
0.0
  0
HATCH
  5
114
330
10F
100
AcDbEntity
  8
_U+30EC_U+30A4_U+30E4_U+30FC 1
 62
   179
420
  2234388
100
AcDbHatch
 10
0.0
 20
0.0
 30
0.0
210
0.0
220
0.0
230
1.0
  2
SOLID
 70
     1
 71
     0
 91
        1
 92
        1
 93
        1
 72
     4
 94
        3
 73
     0
 74
     1
 95
       44
 96
       40
 40
0.0
 40
0.0
 40
0.0
 40
0.0
 40
1.0
 40
1.0
 40
1.0
 40
2.0
 40
2.0
 40
2.0
 40
3.0
 40
3.0
 40
3.0
 40
4.0
 40
4.0
 40
4.0
 40
5.0
 40
5.0
 40
5.0
 40
6.0
 40
6.0
 40
6.0
 40
7.0
 40
7.0
 40
7.0
 40
8.0
 40
8.0
 40
8.0
 40
9.0
 40
9.0
 40
9.0
 40
10.0
 40
10.0
 40
10.0
 40
11.0
 40
11.0
 40
11.0
 40
12.0
 40
12.0
 40
12.0
 40
13.0
 40
13.0
 40
13.0
 40
13.0
 10
86.67894691843443
 20
-144.3405435837065
 10
86.46121688376664
 20
-144.4993624855766
 10
86.3681993056649
 20
-144.5734320385094
 10
86.31927894977436
 20
-144.7170925202443
 10
86.31927894977436
 20
-144.7170925202443
 10
87.09787052944081
 20
-144.7170925202443
 10
87.09787052944081
 20
-144.7170925202443
 10
87.09787052944081
 20
-144.7170925202443
 10
87.09787052944081
 20
-144.9224202111652
 10
87.09787052944081
 20
-144.9224202111652
 10
87.09787052944081
 20
-144.9224202111652
 10
86.06985403664227
 20
-144.9224202111652
 10
86.06985403664227
 20
-144.9224202111652
 10
86.10154891510656
 20
-144.5648192997963
 10
86.1670057293263
 20
-144.4866156322811
 10
86.55216740457723
 20
-144.1882703632585
 10
86.8081379991313
 20
-143.9894883537596
 10
86.87359481335105
 20
-143.9216199727002
 10
86.87359481335105
 20
-143.7841606628387
 10
86.87359481335105
 20
-143.6656493781461
 10
86.80159231770932
 20
-143.5347357497066
 10
86.60487736550157
 20
-143.5347357497066
 10
86.3447726563652
 20
-143.5347357497066
 10
86.33615991765207
 20
-143.7652126376698
 10
86.33202580306977
 20
-143.8816568650712
 10
86.33202580306977
 20
-143.8816568650712
 10
86.10775008698
 20
-143.8816568650712
 10
86.10775008698
 20
-143.8816568650712
 10
86.11636282569313
 20
-143.7545328416655
 10
86.12704262169741
 20
-143.6425672383949
 10
86.20731334650372
 20
-143.5240559537023
 10
86.3172118924832
 20
-143.3631699945412
 10
86.50359155823521
 20
-143.3294080587857
 10
86.61969127608813
 20
-143.3294080587857
 10
86.89702146265076
 20
-143.3294080587857
 10
87.1044162108628
 20
-143.513376157698
 10
87.1044162108628
 20
-143.7862277201298
 10
87.1044162108628
 20
-144.0149820603504
 10
86.98797198346135
 20
-144.1142008103256
 10
86.67894691843443
 20
-144.3405435837065
 97
        0
 97
        0
 75
     2
 76
     1
 98
        0
  0
POLYLINE
  5
115
330
10F
100
AcDbEntity
  8
_U+30EC_U+30A4_U+30E4_U+30FC 1
370
     0
100
AcDb2dPolyline
 66
     1
 10
0.0
 20
0.0
 30
0.0
  0
VERTEX
  5
116
330
115
100
AcDbEntity
  8
_U+30EC_U+30A4_U+30E4_U+30FC 1
370
     0
100
AcDbVertex
100
AcDb2dVertex
 10
88.09488116287211
 20
-144.5754990958006
 30
0.0
  0
VERTEX
  5
117
330
115
100
AcDbEntity
  8
_U+30EC_U+30A4_U+30E4_U+30FC 1
370
     0
100
AcDbVertex
100
AcDb2dVertex
 10
88.09488116287211
 20
-144.9224202111652
 30
0.0
  0
VERTEX
  5
118
330
115
100
AcDbEntity
  8
_U+30EC_U+30A4_U+30E4_U+30FC 1
370
     0
100
AcDbVertex
100
AcDb2dVertex
 10
87.87715112820433
 20
-144.9224202111652
 30
0.0
  0
VERTEX
  5
119
330
115
100
AcDbEntity
  8
_U+30EC_U+30A4_U+30E4_U+30FC 1
370
     0
100
AcDbVertex
100
AcDb2dVertex
 10
87.87715112820433
 20
-144.5754990958006
 30
0.0
  0
VERTEX
  5
11A
330
115
100
AcDbEntity
  8
_U+30EC_U+30A4_U+30E4_U+30FC 1
370
     0
100
AcDbVertex
100
AcDb2dVertex
 10
87.22120494781277
 20
-144.5754990958006
 30
0.0
  0
VERTEX
  5
11B
330
115
100
AcDbEntity
  8
_U+30EC_U+30A4_U+30E4_U+30FC 1
370
     0
100
AcDbVertex
100
AcDb2dVertex
 10
87.22120494781277
 20
-144.3512233797108
 30
0.0
  0
VERTEX
  5
11C
330
115
100
AcDbEntity
  8
_U+30EC_U+30A4_U+30E4_U+30FC 1
370
     0
100
AcDbVertex
100
AcDb2dVertex
 10
87.9002332679555
 20
-143.3779839051277
 30
0.0
  0
VERTEX
  5
11D
330
115
100
AcDbEntity
  8
_U+30EC_U+30A4_U+30E4_U+30FC 1
370
     0
100
AcDbVertex
100
AcDb2dVertex
 10
88.09488116287211
 20
-143.3779839051277
 30
0.0
  0
VERTEX
  5
11E
330
115
100
AcDbEntity
  8
_U+30EC_U+30A4_U+30E4_U+30FC 1
370
     0
100
AcDbVertex
100
AcDb2dVertex
 10
88.09488116287211
 20
-144.3767170863017
 30
0.0
  0
VERTEX
  5
11F
330
115
100
AcDbEntity
  8
_U+30EC_U+30A4_U+30E4_U+30FC 1
370
     0
100
AcDbVertex
100
AcDb2dVertex
 10
88.30227591108415
 20
-144.3767170863017
 30
0.0
  0
VERTEX
  5
120
330
115
100
AcDbEntity
  8
_U+30EC_U+30A4_U+30E4_U+30FC 1
370
     0
100
AcDbVertex
100
AcDb2dVertex
 10
88.30227591108415
 20
-144.5754990958006
 30
0.0
  0
VERTEX
  5
121
330
115
100
AcDbEntity
  8
_U+30EC_U+30A4_U+30E4_U+30FC 1
370
     0
100
AcDbVertex
100
AcDb2dVertex
 10
88.09488116287211
 20
-144.5754990958006
 30
0.0
  0
SEQEND
  5
122
330
115
100
AcDbEntity
  8
_U+30EC_U+30A4_U+30E4_U+30FC 1
370
     0
  0
POLYLINE
  5
123
330
10F
100
AcDbEntity
  8
_U+30EC_U+30A4_U+30E4_U+30FC 1
370
     0
100
AcDb2dPolyline
 66
     1
 10
0.0
 20
0.0
 30
0.0
  0
VERTEX
  5
124
330
123
100
AcDbEntity
  8
_U+30EC_U+30A4_U+30E4_U+30FC 1
370
     0
100
AcDbVertex
100
AcDb2dVertex
 10
87.87715112820433
 20
-143.7207709059101
 30
0.0
  0
VERTEX
  5
125
330
123
100
AcDbEntity
  8
_U+30EC_U+30A4_U+30E4_U+30FC 1
370
     0
100
AcDbVertex
100
AcDb2dVertex
 10
87.41998695731168
 20
-144.3767170863017
 30
0.0
  0
VERTEX
  5
126
330
123
100
AcDbEntity
  8
_U+30EC_U+30A4_U+30E4_U+30FC 1
370
     0
100
AcDbVertex
100
AcDb2dVertex
 10
87.87715112820433
 20
-144.3767170863017
 30
0.0
  0
VERTEX
  5
127
330
123
100
AcDbEntity
  8
_U+30EC_U+30A4_U+30E4_U+30FC 1
370
     0
100
AcDbVertex
100
AcDb2dVertex
 10
87.87715112820433
 20
-143.7207709059101
 30
0.0
  0
SEQEND
  5
128
330
123
100
AcDbEntity
  8
_U+30EC_U+30A4_U+30E4_U+30FC 1
370
     0
  0
HATCH
  5
129
330
10F
100
AcDbEntity
  8
_U+30EC_U+30A4_U+30E4_U+30FC 1
 62
   179
420
  2234388
100
AcDbHatch
 10
0.0
 20
0.0
 30
0.0
210
0.0
220
0.0
230
1.0
  2
SOLID
 70
     1
 71
     0
 91
        2
 92
        1
 93
       11
 72
     1
 10
88.09488116287211
 20
-144.5754990958006
 11
88.09488116287211
 21
-144.9224202111652
 72
     1
 10
88.09488116287211
 20
-144.9224202111652
 11
87.87715112820433
 21
-144.9224202111652
 72
     1
 10
87.87715112820433
 20
-144.9224202111652
 11
87.87715112820433
 21
-144.5754990958006
 72
     1
 10
87.87715112820433
 20
-144.5754990958006
 11
87.22120494781277
 21
-144.5754990958006
 72
     1
 10
87.22120494781277
 20
-144.5754990958006
 11
87.22120494781277
 21
-144.3512233797108
 72
     1
 10
87.22120494781277
 20
-144.3512233797108
 11
87.9002332679555
 21
-143.3779839051277
 72
     1
 10
87.9002332679555
 20
-143.3779839051277
 11
88.09488116287211
 21
-143.3779839051277
 72
     1
 10
88.09488116287211
 20
-143.3779839051277
 11
88.09488116287211
 21
-144.3767170863017
 72
     1
 10
88.09488116287211
 20
-144.3767170863017
 11
88.30227591108415
 21
-144.3767170863017
 72
     1
 10
88.30227591108415
 20
-144.3767170863017
 11
88.30227591108415
 21
-144.5754990958006
 72
     1
 10
88.30227591108415
 20
-144.5754990958006
 11
88.09488116287211
 21
-144.5754990958006
 97
        0
 92
        1
 93
        3
 72
     1
 10
87.87715112820433
 20
-143.7207709059101
 11
87.41998695731168
 21
-144.3767170863017
 72
     1
 10
87.41998695731168
 20
-144.3767170863017
 11
87.87715112820433
 21
-144.3767170863017
 72
     1
 10
87.87715112820433
 20
-144.3767170863017
 11
87.87715112820433
 21
-143.7207709059101
 97
        0
 75
     2
 76
     1
 98
        0
  0
ENDBLK
  5
112
330
10F
100
AcDbEntity
  8
0
100
AcDbBlockEnd
  0
BLOCK
  5
130
330
12E
100
AcDbEntity
  8
0
100
AcDbBlockBegin
  2
block 11
 70
     0
 10
0.0
 20
0.0
 30
0.0
  3
block 11
  1

  0
SPLINE
  5
132
330
12E
100
AcDbEntity
  8
_U+30EC_U+30A4_U+30E4_U+30FC 1
370
     0
100
AcDbSpline
210
0.0
220
0.0
230
1.0
 70
    11
 71
     3
 72
    32
 73
    28
 74
     0
 42
0.0000000001
 43
0.0000000001
 12
1.0
 22
0.0
 32
0.0
 13
1.0
 23
0.0
 33
0.0
 40
0.0
 40
0.0
 40
0.0
 40
0.0
 40
1.0
 40
1.0
 40
1.0
 40
2.0
 40
2.0
 40
2.0
 40
3.0
 40
3.0
 40
3.0
 40
4.0
 40
4.0
 40
4.0
 40
5.0
 40
5.0
 40
5.0
 40
6.0
 40
6.0
 40
6.0
 40
7.0
 40
7.0
 40
7.0
 40
8.0
 40
8.0
 40
8.0
 40
9.0
 40
9.0
 40
9.0
 40
9.0
 10
71.06542966973365
 20
-131.8286458003762
 30
0.0
 10
71.06542966973365
 20
-132.3447211040666
 30
0.0
 10
70.51145831570547
 20
-132.3529893332312
 30
0.0
 10
70.29751788607146
 20
-132.3529893332312
 30
0.0
 10
70.06704099810824
 20
-132.3529893332312
 30
0.0
 10
69.4197075564298
 20
-132.3340413080623
 30
0.0
 10
69.4197075564298
 20
-131.7904052404899
 30
0.0
 10
69.4197075564298
 20
-131.6171169375818
 30
0.0
 10
69.48964299478037
 20
-131.3714816294835
 30
0.0
 10
69.82175019955845
 20
-131.3335855791458
 30
0.0
 10
69.82175019955845
 20
-131.3335855791458
 30
0.0
 10
69.82175019955845
 20
-131.5471814992313
 30
0.0
 10
69.82175019955845
 20
-131.5471814992313
 30
0.0
 10
69.76456161450331
 20
-131.5578612952355
 30
0.0
 10
69.61642250863757
 20
-131.5895561736998
 30
0.0
 10
69.61642250863757
 20
-131.792472297781
 30
0.0
 10
69.61642250863757
 20
-132.0846163949302
 30
0.0
 10
69.94439559883335
 20
-132.1245795025591
 30
0.0
 10
70.14937878020571
 20
-132.1373263558546
 30
0.0
 10
70.07117511269054
 20
-132.0443087777528
 30
0.0
 10
70.01191947034424
 20
-131.9764403966934
 30
0.0
 10
70.01191947034424
 20
-131.7945393550722
 30
0.0
 10
70.01191947034424
 20
-131.6147053707422
 30
0.0
 10
70.12009546858108
 20
-131.3122259871372
 30
0.0
 10
70.52627222629205
 20
-131.3122259871372
 30
0.0
 10
70.84563257777471
 20
-131.3122259871372
 30
0.0
 10
71.06542966973365
 20
-131.5113525061847
 30
0.0
 10
71.06542966973365
 20
-131.8286458003762
 30
0.0
  0
SPLINE
  5
133
330
12E
100
AcDbEntity
  8
_U+30EC_U+30A4_U+30E4_U+30FC 1
370
     0
100
AcDbSpline
210
0.0
220
0.0
230
1.0
 70
    11
 71
     3
 72
    17
 73
    13
 74
     0
 42
0.0000000001
 43
0.0000000001
 12
1.0
 22
0.0
 32
0.0
 13
1.0
 23
0.0
 33
0.0
 40
0.0
 40
0.0
 40
0.0
 40
0.0
 40
1.0
 40
1.0
 40
1.0
 40
2.0
 40
2.0
 40
2.0
 40
3.0
 40
3.0
 40
3.0
 40
4.0
 40
4.0
 40
4.0
 40
4.0
 10
70.20656736526087
 20
-131.8114203229499
 30
0.0
 10
70.20656736526087
 20
-132.073936598926
 30
0.0
 10
70.4180962280552
 20
-132.1118326492637
 30
0.0
 10
70.53454045545665
 20
-132.1118326492637
 30
0.0
 10
70.71024032520438
 20
-132.1118326492637
 30
0.0
 10
70.8731933416567
 20
-132.0167480138708
 30
0.0
 10
70.8731933416567
 20
-131.8327799149585
 30
0.0
 10
70.8731933416567
 20
-131.7122015729747
 30
0.0
 10
70.8139376993104
 20
-131.536501703227
 30
0.0
 10
70.5283392835832
 20
-131.536501703227
 30
0.0
 10
70.30406356749343
 20
-131.536501703227
 30
0.0
 10
70.20656736526087
 20
-131.6763725799281
 30
0.0
 10
70.20656736526087
 20
-131.8114203229499
 30
0.0
  0
HATCH
  5
134
330
12E
100
AcDbEntity
  8
_U+30EC_U+30A4_U+30E4_U+30FC 1
 62
   179
420
  2234388
100
AcDbHatch
 10
0.0
 20
0.0
 30
0.0
210
0.0
220
0.0
230
1.0
  2
SOLID
 70
     1
 71
     0
 91
        2
 92
        1
 93
        1
 72
     4
 94
        3
 73
     0
 74
     1
 95
       32
 96
       28
 40
0.0
 40
0.0
 40
0.0
 40
0.0
 40
1.0
 40
1.0
 40
1.0
 40
2.0
 40
2.0
 40
2.0
 40
3.0
 40
3.0
 40
3.0
 40
4.0
 40
4.0
 40
4.0
 40
5.0
 40
5.0
 40
5.0
 40
6.0
 40
6.0
 40
6.0
 40
7.0
 40
7.0
 40
7.0
 40
8.0
 40
8.0
 40
8.0
 40
9.0
 40
9.0
 40
9.0
 40
9.0
 10
71.06542966973365
 20
-131.8286458003762
 10
71.06542966973365
 20
-132.3447211040666
 10
70.51145831570547
 20
-132.3529893332312
 10
70.29751788607146
 20
-132.3529893332312
 10
70.06704099810824
 20
-132.3529893332312
 10
69.4197075564298
 20
-132.3340413080623
 10
69.4197075564298
 20
-131.7904052404899
 10
69.4197075564298
 20
-131.6171169375818
 10
69.48964299478037
 20
-131.3714816294835
 10
69.82175019955845
 20
-131.3335855791458
 10
69.82175019955845
 20
-131.3335855791458
 10
69.82175019955845
 20
-131.5471814992313
 10
69.82175019955845
 20
-131.5471814992313
 10
69.76456161450331
 20
-131.5578612952355
 10
69.61642250863757
 20
-131.5895561736998
 10
69.61642250863757
 20
-131.792472297781
 10
69.61642250863757
 20
-132.0846163949302
 10
69.94439559883335
 20
-132.1245795025591
 10
70.14937878020571
 20
-132.1373263558546
 10
70.07117511269054
 20
-132.0443087777528
 10
70.01191947034424
 20
-131.9764403966934
 10
70.01191947034424
 20
-131.7945393550722
 10
70.01191947034424
 20
-131.6147053707422
 10
70.12009546858108
 20
-131.3122259871372
 10
70.52627222629205
 20
-131.3122259871372
 10
70.84563257777471
 20
-131.3122259871372
 10
71.06542966973365
 20
-131.5113525061847
 10
71.06542966973365
 20
-131.8286458003762
 97
        0
 97
        0
 92
        1
 93
        1
 72
     4
 94
        3
 73
     0
 74
     1
 95
       17
 96
       13
 40
0.0
 40
0.0
 40
0.0
 40
0.0
 40
1.0
 40
1.0
 40
1.0
 40
2.0
 40
2.0
 40
2.0
 40
3.0
 40
3.0
 40
3.0
 40
4.0
 40
4.0
 40
4.0
 40
4.0
 10
70.20656736526087
 20
-131.8114203229499
 10
70.20656736526087
 20
-132.073936598926
 10
70.4180962280552
 20
-132.1118326492637
 10
70.53454045545665
 20
-132.1118326492637
 10
70.71024032520438
 20
-132.1118326492637
 10
70.8731933416567
 20
-132.0167480138708
 10
70.8731933416567
 20
-131.8327799149585
 10
70.8731933416567
 20
-131.7122015729747
 10
70.8139376993104
 20
-131.536501703227
 10
70.5283392835832
 20
-131.536501703227
 10
70.30406356749343
 20
-131.536501703227
 10
70.20656736526087
 20
-131.6763725799281
 10
70.20656736526087
 20
-131.8114203229499
 97
        0
 97
        0
 75
     2
 76
     1
 98
        0
  0
SPLINE
  5
135
330
12E
100
AcDbEntity
  8
_U+30EC_U+30A4_U+30E4_U+30FC 1
370
     0
100
AcDbSpline
210
0.0
220
0.0
230
1.0
 70
    11
 71
     3
 72
    29
 73
    25
 74
     0
 42
0.0000000001
 43
0.0000000001
 12
1.0
 22
0.0
 32
0.0
 13
1.0
 23
0.0
 33
0.0
 40
0.0
 40
0.0
 40
0.0
 40
0.0
 40
1.0
 40
1.0
 40
1.0
 40
2.0
 40
2.0
 40
2.0
 40
3.0
 40
3.0
 40
3.0
 40
4.0
 40
4.0
 40
4.0
 40
5.0
 40
5.0
 40
5.0
 40
6.0
 40
6.0
 40
6.0
 40
7.0
 40
7.0
 40
7.0
 40
8.0
 40
8.0
 40
8.0
 40
8.0
 10
70.83701983906158
 20
-130.2580267686508
 30
0.0
 10
71.04648164456478
 20
-130.3662027668876
 30
0.0
 10
71.06542966973365
 20
-130.5394910697957
 30
0.0
 10
71.06542966973365
 20
-130.6559352971971
 30
0.0
 10
71.06542966973365
 20
-130.8168212563583
 30
0.0
 10
71.01892088068277
 20
-130.9584146808021
 30
0.0
 10
70.83701983906158
 20
-131.053499316195
 30
0.0
 10
70.64237194414497
 20
-131.157196690301
 30
0.0
 10
70.40534937475978
 20
-131.1761447154699
 30
0.0
 10
70.24274086785599
 20
-131.1761447154699
 30
0.0
 10
70.09873587657255
 20
-131.1761447154699
 30
0.0
 10
69.84689939660078
 20
-131.1592637475921
 30
0.0
 10
69.64811738710186
 20
-131.053499316195
 30
0.0
 10
69.44520126302065
 20
-130.9456678275066
 30
0.0
 10
69.42177461372094
 20
-130.7847818683455
 30
0.0
 10
69.42177461372094
 20
-130.6559352971971
 30
0.0
 10
69.42177461372094
 20
-130.4971163953271
 30
0.0
 10
69.46621634548067
 20
-130.3534559135922
 30
0.0
 10
69.64811738710186
 20
-130.2580267686508
 30
0.0
 10
69.84069822472733
 20
-130.1588080186756
 30
0.0
 10
70.0691080553994
 20
-130.1353813693759
 30
0.0
 10
70.24274086785599
 20
-130.1353813693759
 30
0.0
 10
70.4139621134729
 20
-130.1353813693759
 30
0.0
 10
70.64443900143611
 20
-130.1567409613844
 30
0.0
 10
70.83701983906158
 20
-130.2580267686508
 30
0.0
  0
SPLINE
  5
136
330
12E
100
AcDbEntity
  8
_U+30EC_U+30A4_U+30E4_U+30FC 1
370
     0
100
AcDbSpline
210
0.0
220
0.0
230
1.0
 70
    11
 71
     3
 72
    17
 73
    13
 74
     0
 42
0.0000000001
 43
0.0000000001
 12
1.0
 22
0.0
 32
0.0
 13
1.0
 23
0.0
 33
0.0
 40
0.0
 40
0.0
 40
0.0
 40
0.0
 40
1.0
 40
1.0
 40
1.0
 40
2.0
 40
2.0
 40
2.0
 40
3.0
 40
3.0
 40
3.0
 40
4.0
 40
4.0
 40
4.0
 40
4.0
 10
69.61435545134641
 20
-130.6559352971971
 30
0.0
 10
69.61435545134641
 20
-130.9053602103292
 30
0.0
 10
69.89788680978248
 20
-130.9522135089286
 30
0.0
 10
70.24274086785599
 20
-130.9522135089286
 30
0.0
 10
70.56210121933864
 20
-130.9522135089286
 30
0.0
 10
70.87078177481703
 20
-130.9160400063335
 30
0.0
 10
70.87078177481703
 20
-130.6559352971971
 30
0.0
 10
70.87078177481703
 20
-130.4082329318077
 30
0.0
 10
70.58966198322064
 20
-130.3596570854656
 30
0.0
 10
70.24274086785599
 20
-130.3596570854656
 30
0.0
 10
69.9230360068248
 20
-130.3596570854656
 30
0.0
 10
69.61435545134641
 20
-130.3978976453519
 30
0.0
 10
69.61435545134641
 20
-130.6559352971971
 30
0.0
  0
HATCH
  5
137
330
12E
100
AcDbEntity
  8
_U+30EC_U+30A4_U+30E4_U+30FC 1
 62
   179
420
  2234388
100
AcDbHatch
 10
0.0
 20
0.0
 30
0.0
210
0.0
220
0.0
230
1.0
  2
SOLID
 70
     1
 71
     0
 91
        2
 92
        1
 93
        1
 72
     4
 94
        3
 73
     0
 74
     1
 95
       29
 96
       25
 40
0.0
 40
0.0
 40
0.0
 40
0.0
 40
1.0
 40
1.0
 40
1.0
 40
2.0
 40
2.0
 40
2.0
 40
3.0
 40
3.0
 40
3.0
 40
4.0
 40
4.0
 40
4.0
 40
5.0
 40
5.0
 40
5.0
 40
6.0
 40
6.0
 40
6.0
 40
7.0
 40
7.0
 40
7.0
 40
8.0
 40
8.0
 40
8.0
 40
8.0
 10
70.83701983906158
 20
-130.2580267686508
 10
71.04648164456478
 20
-130.3662027668876
 10
71.06542966973365
 20
-130.5394910697957
 10
71.06542966973365
 20
-130.6559352971971
 10
71.06542966973365
 20
-130.8168212563583
 10
71.01892088068277
 20
-130.9584146808021
 10
70.83701983906158
 20
-131.053499316195
 10
70.64237194414497
 20
-131.157196690301
 10
70.40534937475978
 20
-131.1761447154699
 10
70.24274086785599
 20
-131.1761447154699
 10
70.09873587657255
 20
-131.1761447154699
 10
69.84689939660078
 20
-131.1592637475921
 10
69.64811738710186
 20
-131.053499316195
 10
69.44520126302065
 20
-130.9456678275066
 10
69.42177461372094
 20
-130.7847818683455
 10
69.42177461372094
 20
-130.6559352971971
 10
69.42177461372094
 20
-130.4971163953271
 10
69.46621634548067
 20
-130.3534559135922
 10
69.64811738710186
 20
-130.2580267686508
 10
69.84069822472733
 20
-130.1588080186756
 10
70.0691080553994
 20
-130.1353813693759
 10
70.24274086785599
 20
-130.1353813693759
 10
70.4139621134729
 20
-130.1353813693759
 10
70.64443900143611
 20
-130.1567409613844
 10
70.83701983906158
 20
-130.2580267686508
 97
        0
 97
        0
 92
        1
 93
        1
 72
     4
 94
        3
 73
     0
 74
     1
 95
       17
 96
       13
 40
0.0
 40
0.0
 40
0.0
 40
0.0
 40
1.0
 40
1.0
 40
1.0
 40
2.0
 40
2.0
 40
2.0
 40
3.0
 40
3.0
 40
3.0
 40
4.0
 40
4.0
 40
4.0
 40
4.0
 10
69.61435545134641
 20
-130.6559352971971
 10
69.61435545134641
 20
-130.9053602103292
 10
69.89788680978248
 20
-130.9522135089286
 10
70.24274086785599
 20
-130.9522135089286
 10
70.56210121933864
 20
-130.9522135089286
 10
70.87078177481703
 20
-130.9160400063335
 10
70.87078177481703
 20
-130.6559352971971
 10
70.87078177481703
 20
-130.4082329318077
 10
70.58966198322064
 20
-130.3596570854656
 10
70.24274086785599
 20
-130.3596570854656
 10
69.9230360068248
 20
-130.3596570854656
 10
69.61435545134641
 20
-130.3978976453519
 10
69.61435545134641
 20
-130.6559352971971
 97
        0
 97
        0
 75
     2
 76
     1
 98
        0
  0
POLYLINE
  5
138
330
12E
100
AcDbEntity
  8
_U+30EC_U+30A4_U+30E4_U+30FC 1
370
     0
100
AcDb2dPolyline
 66
     1
 10
0.0
 20
0.0
 30
0.0
  0
VERTEX
  5
139
330
138
100
AcDbEntity
  8
_U+30EC_U+30A4_U+30E4_U+30FC 1
370
     0
100
AcDbVertex
100
AcDb2dVertex
 10
71.01478676610047
 20
-129.9190293729022
 30
0.0
  0
VERTEX
  5
13A
330
138
100
AcDbEntity
  8
_U+30EC_U+30A4_U+30E4_U+30FC 1
370
     0
100
AcDbVertex
100
AcDb2dVertex
 10
70.76295028612871
 20
-129.9190293729022
 30
0.0
  0
VERTEX
  5
13B
330
138
100
AcDbEntity
  8
_U+30EC_U+30A4_U+30E4_U+30FC 1
370
     0
100
AcDbVertex
100
AcDb2dVertex
 10
70.76295028612871
 20
-129.6671928929304
 30
0.0
  0
VERTEX
  5
13C
330
138
100
AcDbEntity
  8
_U+30EC_U+30A4_U+30E4_U+30FC 1
370
     0
100
AcDbVertex
100
AcDb2dVertex
 10
71.01478676610047
 20
-129.6671928929304
 30
0.0
  0
VERTEX
  5
13D
330
138
100
AcDbEntity
  8
_U+30EC_U+30A4_U+30E4_U+30FC 1
370
     0
100
AcDbVertex
100
AcDb2dVertex
 10
71.01478676610047
 20
-129.9190293729022
 30
0.0
  0
SEQEND
  5
13E
330
138
100
AcDbEntity
  8
_U+30EC_U+30A4_U+30E4_U+30FC 1
370
     0
  0
HATCH
  5
13F
330
12E
100
AcDbEntity
  8
_U+30EC_U+30A4_U+30E4_U+30FC 1
 62
   179
420
  2234388
100
AcDbHatch
 10
0.0
 20
0.0
 30
0.0
210
0.0
220
0.0
230
1.0
  2
SOLID
 70
     1
 71
     0
 91
        1
 92
        1
 93
        4
 72
     1
 10
71.01478676610047
 20
-129.9190293729022
 11
70.76295028612871
 21
-129.9190293729022
 72
     1
 10
70.76295028612871
 20
-129.9190293729022
 11
70.76295028612871
 21
-129.6671928929304
 72
     1
 10
70.76295028612871
 20
-129.6671928929304
 11
71.01478676610047
 21
-129.6671928929304
 72
     1
 10
71.01478676610047
 20
-129.6671928929304
 11
71.01478676610047
 21
-129.9190293729022
 97
        0
 75
     2
 76
     1
 98
        0
  0
SPLINE
  5
140
330
12E
100
AcDbEntity
  8
_U+30EC_U+30A4_U+30E4_U+30FC 1
370
     0
100
AcDbSpline
210
0.0
220
0.0
230
1.0
 70
    11
 71
     3
 72
    44
 73
    40
 74
     0
 42
0.0000000001
 43
0.0000000001
 12
1.0
 22
0.0
 32
0.0
 13
1.0
 23
0.0
 33
0.0
 40
0.0
 40
0.0
 40
0.0
 40
0.0
 40
1.0
 40
1.0
 40
1.0
 40
2.0
 40
2.0
 40
2.0
 40
3.0
 40
3.0
 40
3.0
 40
4.0
 40
4.0
 40
4.0
 40
5.0
 40
5.0
 40
5.0
 40
6.0
 40
6.0
 40
6.0
 40
7.0
 40
7.0
 40
7.0
 40
8.0
 40
8.0
 40
8.0
 40
9.0
 40
9.0
 40
9.0
 40
10.0
 40
10.0
 40
10.0
 40
11.0
 40
11.0
 40
11.0
 40
12.0
 40
12.0
 40
12.0
 40
13.0
 40
13.0
 40
13.0
 40
13.0
 10
70.43291013864177
 20
-128.8379584096308
 30
0.0
 10
70.5917290405118
 20
-129.0556884442986
 30
0.0
 10
70.66579859344466
 20
-129.1487060224003
 30
0.0
 10
70.80945907517959
 20
-129.1976263782909
 30
0.0
 10
70.80945907517959
 20
-129.1976263782909
 30
0.0
 10
70.80945907517959
 20
-128.4190347986244
 30
0.0
 10
70.80945907517959
 20
-128.4190347986244
 30
0.0
 10
70.80945907517959
 20
-128.4190347986244
 30
0.0
 10
71.01478676610047
 20
-128.4190347986244
 30
0.0
 10
71.01478676610047
 20
-128.4190347986244
 30
0.0
 10
71.01478676610047
 20
-128.4190347986244
 30
0.0
 10
71.01478676610047
 20
-129.447051291423
 30
0.0
 10
71.01478676610047
 20
-129.447051291423
 30
0.0
 10
70.65718585473154
 20
-129.4153564129587
 30
0.0
 10
70.57898218721637
 20
-129.3498995987389
 30
0.0
 10
70.28063691819374
 20
-128.964737923488
 30
0.0
 10
70.08185490869482
 20
-128.7087673289339
 30
0.0
 10
70.0139865276354
 20
-128.6433105147142
 30
0.0
 10
69.87652721777393
 20
-128.6433105147142
 30
0.0
 10
69.75801593308134
 20
-128.6433105147142
 30
0.0
 10
69.62710230464184
 20
-128.7153130103559
 30
0.0
 10
69.62710230464184
 20
-128.9120279625637
 30
0.0
 10
69.62710230464184
 20
-129.1721326717
 30
0.0
 10
69.85757919260506
 20
-129.1807454104132
 30
0.0
 10
69.9740234200065
 20
-129.1848795249955
 30
0.0
 10
69.9740234200065
 20
-129.1848795249955
 30
0.0
 10
69.9740234200065
 20
-129.4091552410852
 30
0.0
 10
69.9740234200065
 20
-129.4091552410852
 30
0.0
 10
69.84689939660078
 20
-129.4005425023721
 30
0.0
 10
69.73493379333016
 20
-129.3898627063678
 30
0.0
 10
69.61642250863757
 20
-129.3095919815615
 30
0.0
 10
69.45553654947639
 20
-129.199693435582
 30
0.0
 10
69.42177461372094
 20
-129.01331376983
 30
0.0
 10
69.42177461372094
 20
-128.8972140519771
 30
0.0
 10
69.42177461372094
 20
-128.6198838654145
 30
0.0
 10
69.60574271263329
 20
-128.4124891172024
 30
0.0
 10
69.87859427506508
 20
-128.4124891172024
 30
0.0
 10
70.10734861528567
 20
-128.4124891172024
 30
0.0
 10
70.20656736526087
 20
-128.5289333446039
 30
0.0
 10
70.43291013864177
 20
-128.8379584096308
 30
0.0
  0
HATCH
  5
141
330
12E
100
AcDbEntity
  8
_U+30EC_U+30A4_U+30E4_U+30FC 1
 62
   179
420
  2234388
100
AcDbHatch
 10
0.0
 20
0.0
 30
0.0
210
0.0
220
0.0
230
1.0
  2
SOLID
 70
     1
 71
     0
 91
        1
 92
        1
 93
        1
 72
     4
 94
        3
 73
     0
 74
     1
 95
       44
 96
       40
 40
0.0
 40
0.0
 40
0.0
 40
0.0
 40
1.0
 40
1.0
 40
1.0
 40
2.0
 40
2.0
 40
2.0
 40
3.0
 40
3.0
 40
3.0
 40
4.0
 40
4.0
 40
4.0
 40
5.0
 40
5.0
 40
5.0
 40
6.0
 40
6.0
 40
6.0
 40
7.0
 40
7.0
 40
7.0
 40
8.0
 40
8.0
 40
8.0
 40
9.0
 40
9.0
 40
9.0
 40
10.0
 40
10.0
 40
10.0
 40
11.0
 40
11.0
 40
11.0
 40
12.0
 40
12.0
 40
12.0
 40
13.0
 40
13.0
 40
13.0
 40
13.0
 10
70.43291013864177
 20
-128.8379584096308
 10
70.5917290405118
 20
-129.0556884442986
 10
70.66579859344466
 20
-129.1487060224003
 10
70.80945907517959
 20
-129.1976263782909
 10
70.80945907517959
 20
-129.1976263782909
 10
70.80945907517959
 20
-128.4190347986244
 10
70.80945907517959
 20
-128.4190347986244
 10
70.80945907517959
 20
-128.4190347986244
 10
71.01478676610047
 20
-128.4190347986244
 10
71.01478676610047
 20
-128.4190347986244
 10
71.01478676610047
 20
-128.4190347986244
 10
71.01478676610047
 20
-129.447051291423
 10
71.01478676610047
 20
-129.447051291423
 10
70.65718585473154
 20
-129.4153564129587
 10
70.57898218721637
 20
-129.3498995987389
 10
70.28063691819374
 20
-128.964737923488
 10
70.08185490869482
 20
-128.7087673289339
 10
70.0139865276354
 20
-128.6433105147142
 10
69.87652721777393
 20
-128.6433105147142
 10
69.75801593308134
 20
-128.6433105147142
 10
69.62710230464184
 20
-128.7153130103559
 10
69.62710230464184
 20
-128.9120279625637
 10
69.62710230464184
 20
-129.1721326717
 10
69.85757919260506
 20
-129.1807454104132
 10
69.9740234200065
 20
-129.1848795249955
 10
69.9740234200065
 20
-129.1848795249955
 10
69.9740234200065
 20
-129.4091552410852
 10
69.9740234200065
 20
-129.4091552410852
 10
69.84689939660078
 20
-129.4005425023721
 10
69.73493379333016
 20
-129.3898627063678
 10
69.61642250863757
 20
-129.3095919815615
 10
69.45553654947639
 20
-129.199693435582
 10
69.42177461372094
 20
-129.01331376983
 10
69.42177461372094
 20
-128.8972140519771
 10
69.42177461372094
 20
-128.6198838654145
 10
69.60574271263329
 20
-128.4124891172024
 10
69.87859427506508
 20
-128.4124891172024
 10
70.10734861528567
 20
-128.4124891172024
 10
70.20656736526087
 20
-128.5289333446039
 10
70.43291013864177
 20
-128.8379584096308
 97
        0
 97
        0
 75
     2
 76
     1
 98
        0
  0
ENDBLK
  5
131
330
12E
100
AcDbEntity
  8
0
100
AcDbBlockEnd
  0
ENDSEC
  0
SECTION
  2
ENTITIES
  0
POLYLINE
  5
41
330
1F
100
AcDbEntity
  8
_U+30EC_U+30A4_U+30E4_U+30FC 1
 62
   179
420
  2234388
370
     9
100
AcDb2dPolyline
 66
     1
 10
0.0
 20
0.0
 30
0.0
  0
VERTEX
  5
42
330
41
100
AcDbEntity
  8
_U+30EC_U+30A4_U+30E4_U+30FC 1
 62
   179
420
  2234388
370
     9
100
AcDbVertex
100
AcDb2dVertex
 10
107.2688892077871
 20
-113.1369269161601
 30
0.0
  0
VERTEX
  5
43
330
41
100
AcDbEntity
  8
_U+30EC_U+30A4_U+30E4_U+30FC 1
 62
   179
420
  2234388
370
     9
100
AcDbVertex
100
AcDb2dVertex
 10
81.53230458660428
 20
-113.1369269161601
 30
0.0
  0
SEQEND
  5
44
330
41
100
AcDbEntity
  8
_U+30EC_U+30A4_U+30E4_U+30FC 1
 62
   179
420
  2234388
370
     9
  0
INSERT
  5
46
330
1F
100
AcDbEntity
  8
_U+30EC_U+30A4_U+30E4_U+30FC 1
100
AcDbBlockReference
  2
block 2
 10
0.0
 20
0.0
 30
0.0
  0
INSERT
  5
5A
330
1F
100
AcDbEntity
  8
_U+30EC_U+30A4_U+30E4_U+30FC 1
100
AcDbBlockReference
  2
block 3
 10
0.0
 20
0.0
 30
0.0
  0
POLYLINE
  5
6B
330
1F
100
AcDbEntity
  8
_U+30EC_U+30A4_U+30E4_U+30FC 1
 62
   179
420
  2234388
370
     9
100
AcDb2dPolyline
 66
     1
 10
0.0
 20
0.0
 30
0.0
  0
VERTEX
  5
6C
330
6B
100
AcDbEntity
  8
_U+30EC_U+30A4_U+30E4_U+30FC 1
 62
   179
420
  2234388
370
     9
100
AcDbVertex
100
AcDb2dVertex
 10
80.55563933374331
 20
-143.2488032975213
 30
0.0
  0
VERTEX
  5
6D
330
6B
100
AcDbEntity
  8
_U+30EC_U+30A4_U+30E4_U+30FC 1
 62
   179
420
  2234388
370
     9
100
AcDbVertex
100
AcDb2dVertex
 10
75.34320668894577
 20
-143.2488032975213
 30
0.0
  0
SEQEND
  5
6E
330
6B
100
AcDbEntity
  8
_U+30EC_U+30A4_U+30E4_U+30FC 1
 62
   179
420
  2234388
370
     9
  0
POLYLINE
  5
6F
330
1F
100
AcDbEntity
  8
_U+30EC_U+30A4_U+30E4_U+30FC 1
 62
   179
420
  2234388
370
     9
100
AcDb2dPolyline
 66
     1
 10
0.0
 20
0.0
 30
0.0
  0
VERTEX
  5
70
330
6F
100
AcDbEntity
  8
_U+30EC_U+30A4_U+30E4_U+30FC 1
 62
   179
420
  2234388
370
     9
100
AcDbVertex
100
AcDb2dVertex
 10
107.2688892077871
 20
-115.9732955265622
 30
0.0
  0
VERTEX
  5
71
330
6F
100
AcDbEntity
  8
_U+30EC_U+30A4_U+30E4_U+30FC 1
 62
   179
420
  2234388
370
     9
100
AcDbVertex
100
AcDb2dVertex
 10
93.0754401254477
 20
-115.9732955265622
 30
0.0
  0
SEQEND
  5
72
330
6F
100
AcDbEntity
  8
_U+30EC_U+30A4_U+30E4_U+30FC 1
 62
   179
420
  2234388
370
     9
  0
SPLINE
  5
73
330
1F
100
AcDbEntity
  8
_U+30EC_U+30A4_U+30E4_U+30FC 1
370
     0
100
AcDbSpline
210
0.0
220
0.0
230
1.0
 70
    11
 71
     3
 72
    95
 73
    91
 74
     0
 42
0.0000000001
 43
0.0000000001
 12
1.0
 22
0.0
 32
0.0
 13
1.0
 23
0.0
 33
0.0
 40
0.0
 40
0.0
 40
0.0
 40
0.0
 40
1.0
 40
1.0
 40
1.0
 40
2.0
 40
2.0
 40
2.0
 40
3.0
 40
3.0
 40
3.0
 40
4.0
 40
4.0
 40
4.0
 40
5.0
 40
5.0
 40
5.0
 40
6.0
 40
6.0
 40
6.0
 40
7.0
 40
7.0
 40
7.0
 40
8.0
 40
8.0
 40
8.0
 40
9.0
 40
9.0
 40
9.0
 40
10.0
 40
10.0
 40
10.0
 40
11.0
 40
11.0
 40
11.0
 40
12.0
 40
12.0
 40
12.0
 40
13.0
 40
13.0
 40
13.0
 40
14.0
 40
14.0
 40
14.0
 40
15.0
 40
15.0
 40
15.0
 40
16.0
 40
16.0
 40
16.0
 40
17.0
 40
17.0
 40
17.0
 40
18.0
 40
18.0
 40
18.0
 40
19.0
 40
19.0
 40
19.0
 40
20.0
 40
20.0
 40
20.0
 40
21.0
 40
21.0
 40
21.0
 40
22.0
 40
22.0
 40
22.0
 40
23.0
 40
23.0
 40
23.0
 40
24.0
 40
24.0
 40
24.0
 40
25.0
 40
25.0
 40
25.0
 40
26.0
 40
26.0
 40
26.0
 40
27.0
 40
27.0
 40
27.0
 40
28.0
 40
28.0
 40
28.0
 40
29.0
 40
29.0
 40
29.0
 40
30.0
 40
30.0
 40
30.0
 40
30.0
 10
104.2761342841386
 20
-117.8973808038589
 30
0.0
 10
104.2761342841386
 20
-117.8973808038589
 30
0.0
 10
104.147299842981
 20
-118.0255096927157
 30
0.0
 10
104.147299842981
 20
-118.0255096927157
 30
0.0
 10
104.147299842981
 20
-118.0255096927157
 30
0.0
 10
93.58876942104699
 20
-118.0255096927157
 30
0.0
 10
93.58876942104699
 20
-118.0255096927157
 30
0.0
 10
93.58876942104699
 20
-118.0255096927157
 30
0.0
 10
93.58876942104699
 20
-129.0553538566249
 30
0.0
 10
93.58876942104699
 20
-129.0553538566249
 30
0.0
 10
93.58876942104699
 20
-129.0553538566249
 30
0.0
 10
99.4878110729656
 20
-129.0553538566249
 30
0.0
 10
99.4878110729656
 20
-129.0553538566249
 30
0.0
 10
99.4878110729656
 20
-129.0553538566249
 30
0.0
 10
99.4878110729656
 20
-128.2860513568172
 30
0.0
 10
99.4878110729656
 20
-128.2860513568172
 30
0.0
 10
99.4878110729656
 20
-128.2860513568172
 30
0.0
 10
100.0007852265452
 20
-128.2860513568172
 30
0.0
 10
100.0007852265452
 20
-128.2860513568172
 30
0.0
 10
100.0007852265452
 20
-128.2860513568172
 30
0.0
 10
100.0007852265452
 20
-129.5683280231636
 30
0.0
 10
100.0007852265452
 20
-129.5683280231636
 30
0.0
 10
100.0007852265452
 20
-129.5683280231636
 30
0.0
 10
93.58876942104699
 20
-129.5683280231636
 30
0.0
 10
93.58876942104699
 20
-129.5683280231636
 30
0.0
 10
93.58876942104699
 20
-129.5683280231636
 30
0.0
 10
93.58876942104699
 20
-135.9813694104494
 30
0.0
 10
93.58876942104699
 20
-135.9813694104494
 30
0.0
 10
93.58876942104699
 20
-135.9813694104494
 30
0.0
 10
92.30479708955288
 20
-135.9813694104494
 30
0.0
 10
92.30479708955288
 20
-135.9813694104494
 30
0.0
 10
92.30479708955288
 20
-135.9813694104494
 30
0.0
 10
92.30479708955288
 20
-135.4683952439107
 30
0.0
 10
92.30479708955288
 20
-135.4683952439107
 30
0.0
 10
92.30479708955288
 20
-135.4683952439107
 30
0.0
 10
93.0754401254477
 20
-135.4683952439107
 30
0.0
 10
93.0754401254477
 20
-135.4683952439107
 30
0.0
 10
93.0754401254477
 20
-135.4683952439107
 30
0.0
 10
93.0754401254477
 20
-129.5683280231636
 30
0.0
 10
93.0754401254477
 20
-129.5683280231636
 30
0.0
 10
93.0754401254477
 20
-129.5683280231636
 30
0.0
 10
82.044961240192
 20
-129.5683280231636
 30
0.0
 10
82.044961240192
 20
-129.5683280231636
 30
0.0
 10
82.044961240192
 20
-129.5683280231636
 30
0.0
 10
82.044961240192
 20
-140.1271785760793
 30
0.0
 10
82.044961240192
 20
-140.1271785760793
 30
0.0
 10
82.044961240192
 20
-140.1271785760793
 30
0.0
 10
81.91714985456385
 20
-140.2563657982694
 30
0.0
 10
81.91714985456385
 20
-140.2563657982694
 30
0.0
 10
81.91714985456385
 20
-140.2563657982694
 30
0.0
 10
82.044961240192
 20
-140.3845299649037
 30
0.0
 10
82.044961240192
 20
-140.3845299649037
 30
0.0
 10
82.044961240192
 20
-140.3845299649037
 30
0.0
 10
82.044961240192
 20
-143.2488032975213
 30
0.0
 10
82.044961240192
 20
-143.2488032975213
 30
0.0
 10
82.044961240192
 20
-143.2488032975213
 30
0.0
 10
81.53230458660428
 20
-143.2488032975213
 30
0.0
 10
81.53230458660428
 20
-143.2488032975213
 30
0.0
 10
81.53230458660428
 20
-143.2488032975213
 30
0.0
 10
81.53230458660428
 20
-129.4832380231847
 30
0.0
 10
81.53230458660428
 20
-129.4832380231847
 30
0.0
 10
81.53230458660428
 20
-129.3712663565461
 30
0.0
 10
81.57848319653728
 20
-129.2596474676852
 30
0.0
 10
81.65771708340475
 20
-129.1807310788159
 30
0.0
 10
81.73730374804099
 20
-129.1011796899467
 30
0.0
 10
81.84821707854469
 20
-129.0553538566249
 30
0.0
 10
81.96018874235472
 20
-129.0553538566249
 30
0.0
 10
81.96018874235472
 20
-129.0553538566249
 30
0.0
 10
93.0754401254477
 20
-129.0553538566249
 30
0.0
 10
93.0754401254477
 20
-129.0553538566249
 30
0.0
 10
93.0754401254477
 20
-129.0553538566249
 30
0.0
 10
93.0754401254477
 20
-117.9401021927372
 30
0.0
 10
93.0754401254477
 20
-117.9401021927372
 30
0.0
 10
93.0754401254477
 20
-117.8277777483208
 30
0.0
 10
93.12197151314948
 20
-117.7168291372373
 30
0.0
 10
93.20049984447938
 20
-117.6379480261462
 30
0.0
 10
93.27941623135494
 20
-117.5583613594995
 30
0.0
 10
93.3910351173962
 20
-117.5128883039551
 30
0.0
 10
93.50300678120622
 20
-117.5128883039551
 30
0.0
 10
93.50300678120622
 20
-117.5128883039551
 30
0.0
 10
107.2688892077871
 20
-117.5128883039551
 30
0.0
 10
107.2688892077871
 20
-117.5128883039551
 30
0.0
 10
107.2688892077871
 20
-117.5128883039551
 30
0.0
 10
107.2688892077871
 20
-118.0255096927157
 30
0.0
 10
107.2688892077871
 20
-118.0255096927157
 30
0.0
 10
107.2688892077871
 20
-118.0255096927157
 30
0.0
 10
104.4039456697668
 20
-118.0255096927157
 30
0.0
 10
104.4039456697668
 20
-118.0255096927157
 30
0.0
 10
104.4039456697668
 20
-118.0255096927157
 30
0.0
 10
104.2761342841386
 20
-117.8973808038589
 30
0.0
 10
104.2761342841386
 20
-117.8973808038589
 30
0.0
  0
HATCH
  5
74
330
1F
100
AcDbEntity
  8
_U+30EC_U+30A4_U+30E4_U+30FC 1
 62
   253
420
 10066329
100
AcDbHatch
 10
0.0
 20
0.0
 30
0.0
210
0.0
220
0.0
230
1.0
  2
SOLID
 70
     1
 71
     0
 91
        1
 92
        1
 93
        1
 72
     4
 94
        3
 73
     0
 74
     1
 95
       95
 96
       91
 40
0.0
 40
0.0
 40
0.0
 40
0.0
 40
1.0
 40
1.0
 40
1.0
 40
2.0
 40
2.0
 40
2.0
 40
3.0
 40
3.0
 40
3.0
 40
4.0
 40
4.0
 40
4.0
 40
5.0
 40
5.0
 40
5.0
 40
6.0
 40
6.0
 40
6.0
 40
7.0
 40
7.0
 40
7.0
 40
8.0
 40
8.0
 40
8.0
 40
9.0
 40
9.0
 40
9.0
 40
10.0
 40
10.0
 40
10.0
 40
11.0
 40
11.0
 40
11.0
 40
12.0
 40
12.0
 40
12.0
 40
13.0
 40
13.0
 40
13.0
 40
14.0
 40
14.0
 40
14.0
 40
15.0
 40
15.0
 40
15.0
 40
16.0
 40
16.0
 40
16.0
 40
17.0
 40
17.0
 40
17.0
 40
18.0
 40
18.0
 40
18.0
 40
19.0
 40
19.0
 40
19.0
 40
20.0
 40
20.0
 40
20.0
 40
21.0
 40
21.0
 40
21.0
 40
22.0
 40
22.0
 40
22.0
 40
23.0
 40
23.0
 40
23.0
 40
24.0
 40
24.0
 40
24.0
 40
25.0
 40
25.0
 40
25.0
 40
26.0
 40
26.0
 40
26.0
 40
27.0
 40
27.0
 40
27.0
 40
28.0
 40
28.0
 40
28.0
 40
29.0
 40
29.0
 40
29.0
 40
30.0
 40
30.0
 40
30.0
 40
30.0
 10
104.2761342841386
 20
-117.8973808038589
 10
104.2761342841386
 20
-117.8973808038589
 10
104.147299842981
 20
-118.0255096927157
 10
104.147299842981
 20
-118.0255096927157
 10
104.147299842981
 20
-118.0255096927157
 10
93.58876942104699
 20
-118.0255096927157
 10
93.58876942104699
 20
-118.0255096927157
 10
93.58876942104699
 20
-118.0255096927157
 10
93.58876942104699
 20
-129.0553538566249
 10
93.58876942104699
 20
-129.0553538566249
 10
93.58876942104699
 20
-129.0553538566249
 10
99.4878110729656
 20
-129.0553538566249
 10
99.4878110729656
 20
-129.0553538566249
 10
99.4878110729656
 20
-129.0553538566249
 10
99.4878110729656
 20
-128.2860513568172
 10
99.4878110729656
 20
-128.2860513568172
 10
99.4878110729656
 20
-128.2860513568172
 10
100.0007852265452
 20
-128.2860513568172
 10
100.0007852265452
 20
-128.2860513568172
 10
100.0007852265452
 20
-128.2860513568172
 10
100.0007852265452
 20
-129.5683280231636
 10
100.0007852265452
 20
-129.5683280231636
 10
100.0007852265452
 20
-129.5683280231636
 10
93.58876942104699
 20
-129.5683280231636
 10
93.58876942104699
 20
-129.5683280231636
 10
93.58876942104699
 20
-129.5683280231636
 10
93.58876942104699
 20
-135.9813694104494
 10
93.58876942104699
 20
-135.9813694104494
 10
93.58876942104699
 20
-135.9813694104494
 10
92.30479708955288
 20
-135.9813694104494
 10
92.30479708955288
 20
-135.9813694104494
 10
92.30479708955288
 20
-135.9813694104494
 10
92.30479708955288
 20
-135.4683952439107
 10
92.30479708955288
 20
-135.4683952439107
 10
92.30479708955288
 20
-135.4683952439107
 10
93.0754401254477
 20
-135.4683952439107
 10
93.0754401254477
 20
-135.4683952439107
 10
93.0754401254477
 20
-135.4683952439107
 10
93.0754401254477
 20
-129.5683280231636
 10
93.0754401254477
 20
-129.5683280231636
 10
93.0754401254477
 20
-129.5683280231636
 10
82.044961240192
 20
-129.5683280231636
 10
82.044961240192
 20
-129.5683280231636
 10
82.044961240192
 20
-129.5683280231636
 10
82.044961240192
 20
-140.1271785760793
 10
82.044961240192
 20
-140.1271785760793
 10
82.044961240192
 20
-140.1271785760793
 10
81.91714985456385
 20
-140.2563657982694
 10
81.91714985456385
 20
-140.2563657982694
 10
81.91714985456385
 20
-140.2563657982694
 10
82.044961240192
 20
-140.3845299649037
 10
82.044961240192
 20
-140.3845299649037
 10
82.044961240192
 20
-140.3845299649037
 10
82.044961240192
 20
-143.2488032975213
 10
82.044961240192
 20
-143.2488032975213
 10
82.044961240192
 20
-143.2488032975213
 10
81.53230458660428
 20
-143.2488032975213
 10
81.53230458660428
 20
-143.2488032975213
 10
81.53230458660428
 20
-143.2488032975213
 10
81.53230458660428
 20
-129.4832380231847
 10
81.53230458660428
 20
-129.4832380231847
 10
81.53230458660428
 20
-129.3712663565461
 10
81.57848319653728
 20
-129.2596474676852
 10
81.65771708340475
 20
-129.1807310788159
 10
81.73730374804099
 20
-129.1011796899467
 10
81.84821707854469
 20
-129.0553538566249
 10
81.96018874235472
 20
-129.0553538566249
 10
81.96018874235472
 20
-129.0553538566249
 10
93.0754401254477
 20
-129.0553538566249
 10
93.0754401254477
 20
-129.0553538566249
 10
93.0754401254477
 20
-129.0553538566249
 10
93.0754401254477
 20
-117.9401021927372
 10
93.0754401254477
 20
-117.9401021927372
 10
93.0754401254477
 20
-117.8277777483208
 10
93.12197151314948
 20
-117.7168291372373
 10
93.20049984447938
 20
-117.6379480261462
 10
93.27941623135494
 20
-117.5583613594995
 10
93.3910351173962
 20
-117.5128883039551
 10
93.50300678120622
 20
-117.5128883039551
 10
93.50300678120622
 20
-117.5128883039551
 10
107.2688892077871
 20
-117.5128883039551
 10
107.2688892077871
 20
-117.5128883039551
 10
107.2688892077871
 20
-117.5128883039551
 10
107.2688892077871
 20
-118.0255096927157
 10
107.2688892077871
 20
-118.0255096927157
 10
107.2688892077871
 20
-118.0255096927157
 10
104.4039456697668
 20
-118.0255096927157
 10
104.4039456697668
 20
-118.0255096927157
 10
104.4039456697668
 20
-118.0255096927157
 10
104.2761342841386
 20
-117.8973808038589
 10
104.2761342841386
 20
-117.8973808038589
 97
        0
 97
        0
 75
     2
 76
     1
 98
        0
  0
SPLINE
  5
75
330
1F
100
AcDbEntity
  8
_U+30EC_U+30A4_U+30E4_U+30FC 1
 62
   179
420
  2234388
370
    25
100
AcDbSpline
210
0.0
220
0.0
230
1.0
 70
    11
 71
     3
 72
    95
 73
    91
 74
     0
 42
0.0000000001
 43
0.0000000001
 12
1.0
 22
0.0
 32
0.0
 13
1.0
 23
0.0
 33
0.0
 40
0.0
 40
0.0
 40
0.0
 40
0.0
 40
1.0
 40
1.0
 40
1.0
 40
2.0
 40
2.0
 40
2.0
 40
3.0
 40
3.0
 40
3.0
 40
4.0
 40
4.0
 40
4.0
 40
5.0
 40
5.0
 40
5.0
 40
6.0
 40
6.0
 40
6.0
 40
7.0
 40
7.0
 40
7.0
 40
8.0
 40
8.0
 40
8.0
 40
9.0
 40
9.0
 40
9.0
 40
10.0
 40
10.0
 40
10.0
 40
11.0
 40
11.0
 40
11.0
 40
12.0
 40
12.0
 40
12.0
 40
13.0
 40
13.0
 40
13.0
 40
14.0
 40
14.0
 40
14.0
 40
15.0
 40
15.0
 40
15.0
 40
16.0
 40
16.0
 40
16.0
 40
17.0
 40
17.0
 40
17.0
 40
18.0
 40
18.0
 40
18.0
 40
19.0
 40
19.0
 40
19.0
 40
20.0
 40
20.0
 40
20.0
 40
21.0
 40
21.0
 40
21.0
 40
22.0
 40
22.0
 40
22.0
 40
23.0
 40
23.0
 40
23.0
 40
24.0
 40
24.0
 40
24.0
 40
25.0
 40
25.0
 40
25.0
 40
26.0
 40
26.0
 40
26.0
 40
27.0
 40
27.0
 40
27.0
 40
28.0
 40
28.0
 40
28.0
 40
29.0
 40
29.0
 40
29.0
 40
30.0
 40
30.0
 40
30.0
 40
30.0
 10
104.2761342841386
 20
-117.8973808038589
 30
0.0
 10
104.2761342841386
 20
-117.8973808038589
 30
0.0
 10
104.147299842981
 20
-118.0255096927157
 30
0.0
 10
104.147299842981
 20
-118.0255096927157
 30
0.0
 10
104.147299842981
 20
-118.0255096927157
 30
0.0
 10
93.58876942104699
 20
-118.0255096927157
 30
0.0
 10
93.58876942104699
 20
-118.0255096927157
 30
0.0
 10
93.58876942104699
 20
-118.0255096927157
 30
0.0
 10
93.58876942104699
 20
-129.0553538566249
 30
0.0
 10
93.58876942104699
 20
-129.0553538566249
 30
0.0
 10
93.58876942104699
 20
-129.0553538566249
 30
0.0
 10
99.4878110729656
 20
-129.0553538566249
 30
0.0
 10
99.4878110729656
 20
-129.0553538566249
 30
0.0
 10
99.4878110729656
 20
-129.0553538566249
 30
0.0
 10
99.4878110729656
 20
-128.2860513568172
 30
0.0
 10
99.4878110729656
 20
-128.2860513568172
 30
0.0
 10
99.4878110729656
 20
-128.2860513568172
 30
0.0
 10
100.0007852265452
 20
-128.2860513568172
 30
0.0
 10
100.0007852265452
 20
-128.2860513568172
 30
0.0
 10
100.0007852265452
 20
-128.2860513568172
 30
0.0
 10
100.0007852265452
 20
-129.5683280231636
 30
0.0
 10
100.0007852265452
 20
-129.5683280231636
 30
0.0
 10
100.0007852265452
 20
-129.5683280231636
 30
0.0
 10
93.58876942104699
 20
-129.5683280231636
 30
0.0
 10
93.58876942104699
 20
-129.5683280231636
 30
0.0
 10
93.58876942104699
 20
-129.5683280231636
 30
0.0
 10
93.58876942104699
 20
-135.9813694104494
 30
0.0
 10
93.58876942104699
 20
-135.9813694104494
 30
0.0
 10
93.58876942104699
 20
-135.9813694104494
 30
0.0
 10
92.30479708955288
 20
-135.9813694104494
 30
0.0
 10
92.30479708955288
 20
-135.9813694104494
 30
0.0
 10
92.30479708955288
 20
-135.9813694104494
 30
0.0
 10
92.30479708955288
 20
-135.4683952439107
 30
0.0
 10
92.30479708955288
 20
-135.4683952439107
 30
0.0
 10
92.30479708955288
 20
-135.4683952439107
 30
0.0
 10
93.0754401254477
 20
-135.4683952439107
 30
0.0
 10
93.0754401254477
 20
-135.4683952439107
 30
0.0
 10
93.0754401254477
 20
-135.4683952439107
 30
0.0
 10
93.0754401254477
 20
-129.5683280231636
 30
0.0
 10
93.0754401254477
 20
-129.5683280231636
 30
0.0
 10
93.0754401254477
 20
-129.5683280231636
 30
0.0
 10
82.044961240192
 20
-129.5683280231636
 30
0.0
 10
82.044961240192
 20
-129.5683280231636
 30
0.0
 10
82.044961240192
 20
-129.5683280231636
 30
0.0
 10
82.044961240192
 20
-140.1271785760793
 30
0.0
 10
82.044961240192
 20
-140.1271785760793
 30
0.0
 10
82.044961240192
 20
-140.1271785760793
 30
0.0
 10
81.91714985456385
 20
-140.2563657982694
 30
0.0
 10
81.91714985456385
 20
-140.2563657982694
 30
0.0
 10
81.91714985456385
 20
-140.2563657982694
 30
0.0
 10
82.044961240192
 20
-140.3845299649037
 30
0.0
 10
82.044961240192
 20
-140.3845299649037
 30
0.0
 10
82.044961240192
 20
-140.3845299649037
 30
0.0
 10
82.044961240192
 20
-143.2488032975213
 30
0.0
 10
82.044961240192
 20
-143.2488032975213
 30
0.0
 10
82.044961240192
 20
-143.2488032975213
 30
0.0
 10
81.53230458660428
 20
-143.2488032975213
 30
0.0
 10
81.53230458660428
 20
-143.2488032975213
 30
0.0
 10
81.53230458660428
 20
-143.2488032975213
 30
0.0
 10
81.53230458660428
 20
-129.4832380231847
 30
0.0
 10
81.53230458660428
 20
-129.4832380231847
 30
0.0
 10
81.53230458660428
 20
-129.3712663565461
 30
0.0
 10
81.57848319653728
 20
-129.2596474676852
 30
0.0
 10
81.65771708340475
 20
-129.1807310788159
 30
0.0
 10
81.73730374804099
 20
-129.1011796899467
 30
0.0
 10
81.84821707854469
 20
-129.0553538566249
 30
0.0
 10
81.96018874235472
 20
-129.0553538566249
 30
0.0
 10
81.96018874235472
 20
-129.0553538566249
 30
0.0
 10
93.0754401254477
 20
-129.0553538566249
 30
0.0
 10
93.0754401254477
 20
-129.0553538566249
 30
0.0
 10
93.0754401254477
 20
-129.0553538566249
 30
0.0
 10
93.0754401254477
 20
-117.9401021927372
 30
0.0
 10
93.0754401254477
 20
-117.9401021927372
 30
0.0
 10
93.0754401254477
 20
-117.8277777483208
 30
0.0
 10
93.12197151314948
 20
-117.7168291372373
 30
0.0
 10
93.20049984447938
 20
-117.6379480261462
 30
0.0
 10
93.27941623135494
 20
-117.5583613594995
 30
0.0
 10
93.3910351173962
 20
-117.5128883039551
 30
0.0
 10
93.50300678120622
 20
-117.5128883039551
 30
0.0
 10
93.50300678120622
 20
-117.5128883039551
 30
0.0
 10
107.2688892077871
 20
-117.5128883039551
 30
0.0
 10
107.2688892077871
 20
-117.5128883039551
 30
0.0
 10
107.2688892077871
 20
-117.5128883039551
 30
0.0
 10
107.2688892077871
 20
-118.0255096927157
 30
0.0
 10
107.2688892077871
 20
-118.0255096927157
 30
0.0
 10
107.2688892077871
 20
-118.0255096927157
 30
0.0
 10
104.4039456697668
 20
-118.0255096927157
 30
0.0
 10
104.4039456697668
 20
-118.0255096927157
 30
0.0
 10
104.4039456697668
 20
-118.0255096927157
 30
0.0
 10
104.2761342841386
 20
-117.8973808038589
 30
0.0
 10
104.2761342841386
 20
-117.8973808038589
 30
0.0
  0
POLYLINE
  5
76
330
1F
100
AcDbEntity
  8
_U+30EC_U+30A4_U+30E4_U+30FC 1
 62
   179
420
  2234388
370
     9
100
AcDb2dPolyline
 66
     1
 10
0.0
 20
0.0
 30
0.0
  0
VERTEX
  5
77
330
76
100
AcDbEntity
  8
_U+30EC_U+30A4_U+30E4_U+30FC 1
 62
   179
420
  2234388
370
     9
100
AcDbVertex
100
AcDb2dVertex
 10
76.56448804667718
 20
-129.0553538566249
 30
0.0
  0
VERTEX
  5
78
330
76
100
AcDbEntity
  8
_U+30EC_U+30A4_U+30E4_U+30FC 1
 62
   179
420
  2234388
370
     9
100
AcDbVertex
100
AcDb2dVertex
 10
76.56448804667718
 20
-143.2488032975213
 30
0.0
  0
SEQEND
  5
79
330
76
100
AcDbEntity
  8
_U+30EC_U+30A4_U+30E4_U+30FC 1
 62
   179
420
  2234388
370
     9
  0
POLYLINE
  5
7A
330
1F
100
AcDbEntity
  8
_U+30EC_U+30A4_U+30E4_U+30FC 1
 62
   179
420
  2234388
370
     9
100
AcDb2dPolyline
 66
     1
 10
0.0
 20
0.0
 30
0.0
  0
VERTEX
  5
7B
330
7A
100
AcDbEntity
  8
_U+30EC_U+30A4_U+30E4_U+30FC 1
 62
   179
420
  2234388
370
     9
100
AcDbVertex
100
AcDb2dVertex
 10
80.98281793395618
 20
-129.0553538566249
 30
0.0
  0
VERTEX
  5
7C
330
7A
100
AcDbEntity
  8
_U+30EC_U+30A4_U+30E4_U+30FC 1
 62
   179
420
  2234388
370
     9
100
AcDbVertex
100
AcDb2dVertex
 10
75.34320668894577
 20
-129.0553538566249
 30
0.0
  0
SEQEND
  5
7D
330
7A
100
AcDbEntity
  8
_U+30EC_U+30A4_U+30E4_U+30FC 1
 62
   179
420
  2234388
370
     9
  0
POLYLINE
  5
7E
330
1F
100
AcDbEntity
  8
_U+30EC_U+30A4_U+30E4_U+30FC 1
 62
   179
420
  2234388
370
     9
100
AcDb2dPolyline
 66
     1
 10
0.0
 20
0.0
 30
0.0
  0
VERTEX
  5
7F
330
7E
100
AcDbEntity
  8
_U+30EC_U+30A4_U+30E4_U+30FC 1
 62
   179
420
  2234388
370
     9
100
AcDbVertex
100
AcDb2dVertex
 10
100.0007852265452
 20
-130.5456988562528
 30
0.0
  0
VERTEX
  5
80
330
7E
100
AcDbEntity
  8
_U+30EC_U+30A4_U+30E4_U+30FC 1
 62
   179
420
  2234388
370
     9
100
AcDbVertex
100
AcDb2dVertex
 10
100.0007852265452
 20
-146.8168682966293
 30
0.0
  0
SEQEND
  5
81
330
7E
100
AcDbEntity
  8
_U+30EC_U+30A4_U+30E4_U+30FC 1
 62
   179
420
  2234388
370
     9
  0
POLYLINE
  5
82
330
1F
100
AcDbEntity
  8
_U+30EC_U+30A4_U+30E4_U+30FC 1
 62
   179
420
  2234388
370
     9
100
AcDb2dPolyline
 66
     1
 10
0.0
 20
0.0
 30
0.0
  0
VERTEX
  5
83
330
82
100
AcDbEntity
  8
_U+30EC_U+30A4_U+30E4_U+30FC 1
 62
   179
420
  2234388
370
     9
100
AcDbVertex
100
AcDb2dVertex
 10
93.58876942104699
 20
-145.5952341302679
 30
0.0
  0
VERTEX
  5
84
330
82
100
AcDbEntity
  8
_U+30EC_U+30A4_U+30E4_U+30FC 1
 62
   179
420
  2234388
370
     9
100
AcDbVertex
100
AcDb2dVertex
 10
100.0007852265452
 20
-145.5952341302679
 30
0.0
  0
SEQEND
  5
85
330
82
100
AcDbEntity
  8
_U+30EC_U+30A4_U+30E4_U+30FC 1
 62
   179
420
  2234388
370
     9
  0
POLYLINE
  5
86
330
1F
100
AcDbEntity
  8
_U+30EC_U+30A4_U+30E4_U+30FC 1
 62
   179
420
  2234388
370
     9
100
AcDb2dPolyline
 66
     1
 10
0.0
 20
0.0
 30
0.0
  0
VERTEX
  5
87
330
86
100
AcDbEntity
  8
_U+30EC_U+30A4_U+30E4_U+30FC 1
 62
   179
420
  2234388
370
     9
100
AcDbVertex
100
AcDb2dVertex
 10
93.58876942104699
 20
-136.958034687983
 30
0.0
  0
VERTEX
  5
88
330
86
100
AcDbEntity
  8
_U+30EC_U+30A4_U+30E4_U+30FC 1
 62
   179
420
  2234388
370
     9
100
AcDbVertex
100
AcDb2dVertex
 10
93.58876942104699
 20
-146.8168682966293
 30
0.0
  0
SEQEND
  5
89
330
86
100
AcDbEntity
  8
_U+30EC_U+30A4_U+30E4_U+30FC 1
 62
   179
420
  2234388
370
     9
  0
POLYLINE
  5
8A
330
1F
100
AcDbEntity
  8
_U+30EC_U+30A4_U+30E4_U+30FC 1
 62
   179
420
  2234388
370
     9
100
AcDb2dPolyline
 66
     1
 10
0.0
 20
0.0
 30
0.0
  0
VERTEX
  5
8B
330
8A
100
AcDbEntity
  8
_U+30EC_U+30A4_U+30E4_U+30FC 1
 62
   179
420
  2234388
370
     9
100
AcDbVertex
100
AcDb2dVertex
 10
93.58876942104699
 20
-136.958034687983
 30
0.0
  0
VERTEX
  5
8C
330
8A
100
AcDbEntity
  8
_U+30EC_U+30A4_U+30E4_U+30FC 1
 62
   179
420
  2234388
370
     9
100
AcDbVertex
100
AcDb2dVertex
 10
93.58876942104699
 20
-146.8168682966293
 30
0.0
  0
SEQEND
  5
8D
330
8A
100
AcDbEntity
  8
_U+30EC_U+30A4_U+30E4_U+30FC 1
 62
   179
420
  2234388
370
     9
  0
POLYLINE
  5
8E
330
1F
100
AcDbEntity
  8
_U+30EC_U+30A4_U+30E4_U+30FC 1
 62
   179
420
  2234388
370
     9
100
AcDb2dPolyline
 66
     1
 10
0.0
 20
0.0
 30
0.0
  0
VERTEX
  5
8F
330
8E
100
AcDbEntity
  8
_U+30EC_U+30A4_U+30E4_U+30FC 1
 62
   179
420
  2234388
370
     9
100
AcDbVertex
100
AcDb2dVertex
 10
92.30479708955288
 20
-145.5952341302679
 30
0.0
  0
VERTEX
  5
90
330
8E
100
AcDbEntity
  8
_U+30EC_U+30A4_U+30E4_U+30FC 1
 62
   179
420
  2234388
370
     9
100
AcDbVertex
100
AcDb2dVertex
 10
93.58876942104699
 20
-145.5952341302679
 30
0.0
  0
SEQEND
  5
91
330
8E
100
AcDbEntity
  8
_U+30EC_U+30A4_U+30E4_U+30FC 1
 62
   179
420
  2234388
370
     9
  0
POLYLINE
  5
92
330
1F
100
AcDbEntity
  8
_U+30EC_U+30A4_U+30E4_U+30FC 1
 62
   179
420
  2234388
370
     9
100
AcDb2dPolyline
 66
     1
 10
0.0
 20
0.0
 30
0.0
  0
VERTEX
  5
93
330
92
100
AcDbEntity
  8
_U+30EC_U+30A4_U+30E4_U+30FC 1
 62
   179
420
  2234388
370
     9
100
AcDbVertex
100
AcDb2dVertex
 10
92.30479708955288
 20
-136.958034687983
 30
0.0
  0
VERTEX
  5
94
330
92
100
AcDbEntity
  8
_U+30EC_U+30A4_U+30E4_U+30FC 1
 62
   179
420
  2234388
370
     9
100
AcDbVertex
100
AcDb2dVertex
 10
92.30479708955288
 20
-146.8168682966293
 30
0.0
  0
SEQEND
  5
95
330
92
100
AcDbEntity
  8
_U+30EC_U+30A4_U+30E4_U+30FC 1
 62
   179
420
  2234388
370
     9
  0
POLYLINE
  5
96
330
1F
100
AcDbEntity
  8
_U+30EC_U+30A4_U+30E4_U+30FC 1
 62
   179
420
  2234388
370
     9
100
AcDb2dPolyline
 66
     1
 10
0.0
 20
0.0
 30
0.0
  0
VERTEX
  5
97
330
96
100
AcDbEntity
  8
_U+30EC_U+30A4_U+30E4_U+30FC 1
 62
   179
420
  2234388
370
     9
100
AcDbVertex
100
AcDb2dVertex
 10
92.30479708955288
 20
-136.958034687983
 30
0.0
  0
VERTEX
  5
98
330
96
100
AcDbEntity
  8
_U+30EC_U+30A4_U+30E4_U+30FC 1
 62
   179
420
  2234388
370
     9
100
AcDbVertex
100
AcDb2dVertex
 10
92.30479708955288
 20
-146.8168682966293
 30
0.0
  0
SEQEND
  5
99
330
96
100
AcDbEntity
  8
_U+30EC_U+30A4_U+30E4_U+30FC 1
 62
   179
420
  2234388
370
     9
  0
INSERT
  5
9B
330
1F
100
AcDbEntity
  8
_U+30EC_U+30A4_U+30E4_U+30FC 1
100
AcDbBlockReference
  2
block 4
 10
0.0
 20
0.0
 30
0.0
  0
INSERT
  5
A3
330
1F
100
AcDbEntity
  8
_U+30EC_U+30A4_U+30E4_U+30FC 1
100
AcDbBlockReference
  2
block 5
 10
0.0
 20
0.0
 30
0.0
  0
INSERT
  5
A9
330
1F
100
AcDbEntity
  8
_U+30EC_U+30A4_U+30E4_U+30FC 1
100
AcDbBlockReference
  2
block 6
 10
0.0
 20
0.0
 30
0.0
  0
INSERT
  5
BB
330
1F
100
AcDbEntity
  8
_U+30EC_U+30A4_U+30E4_U+30FC 1
100
AcDbBlockReference
  2
block 7
 10
0.0
 20
0.0
 30
0.0
  0
INSERT
  5
C3
330
1F
100
AcDbEntity
  8
_U+30EC_U+30A4_U+30E4_U+30FC 1
100
AcDbBlockReference
  2
block 8
 10
0.0
 20
0.0
 30
0.0
  0
POLYLINE
  5
C8
330
1F
100
AcDbEntity
  8
_U+30EC_U+30A4_U+30E4_U+30FC 1
 62
   179
420
  2234388
370
     9
100
AcDb2dPolyline
 66
     1
 10
0.0
 20
0.0
 30
0.0
  0
VERTEX
  5
C9
330
C8
100
AcDbEntity
  8
_U+30EC_U+30A4_U+30E4_U+30FC 1
 62
   179
420
  2234388
370
     9
100
AcDbVertex
100
AcDb2dVertex
 10
111.858104646262
 20
-118.0255096927157
 30
0.0
  0
VERTEX
  5
CA
330
C8
100
AcDbEntity
  8
_U+30EC_U+30A4_U+30E4_U+30FC 1
 62
   179
420
  2234388
370
     9
100
AcDbVertex
100
AcDb2dVertex
 10
111.858104646262
 20
-128.2860513568172
 30
0.0
  0
SEQEND
  5
CB
330
C8
100
AcDbEntity
  8
_U+30EC_U+30A4_U+30E4_U+30FC 1
 62
   179
420
  2234388
370
     9
  0
POLYLINE
  5
CC
330
1F
100
AcDbEntity
  8
_U+30EC_U+30A4_U+30E4_U+30FC 1
 62
   179
420
  2234388
370
     9
100
AcDb2dPolyline
 66
     1
 10
0.0
 20
0.0
 30
0.0
  0
VERTEX
  5
CD
330
CC
100
AcDbEntity
  8
_U+30EC_U+30A4_U+30E4_U+30FC 1
 62
   179
420
  2234388
370
     9
100
AcDbVertex
100
AcDb2dVertex
 10
108.2448841828874
 20
-118.0255096927157
 30
0.0
  0
VERTEX
  5
CE
330
CC
100
AcDbEntity
  8
_U+30EC_U+30A4_U+30E4_U+30FC 1
 62
   179
420
  2234388
370
     9
100
AcDbVertex
100
AcDb2dVertex
 10
113.0797416383965
 20
-118.0255096927157
 30
0.0
  0
SEQEND
  5
CF
330
CC
100
AcDbEntity
  8
_U+30EC_U+30A4_U+30E4_U+30FC 1
 62
   179
420
  2234388
370
     9
  0
POLYLINE
  5
D0
330
1F
100
AcDbEntity
  8
_U+30EC_U+30A4_U+30E4_U+30FC 1
 62
   179
420
  2234388
370
     9
100
AcDb2dPolyline
 66
     1
 10
0.0
 20
0.0
 30
0.0
  0
VERTEX
  5
D1
330
D0
100
AcDbEntity
  8
_U+30EC_U+30A4_U+30E4_U+30FC 1
 62
   179
420
  2234388
370
     9
100
AcDbVertex
100
AcDb2dVertex
 10
82.044961240192
 20
-145.5952341302679
 30
0.0
  0
VERTEX
  5
D2
330
D0
100
AcDbEntity
  8
_U+30EC_U+30A4_U+30E4_U+30FC 1
 62
   179
420
  2234388
370
     9
100
AcDbVertex
100
AcDb2dVertex
 10
92.30479708955288
 20
-145.5952341302679
 30
0.0
  0
SEQEND
  5
D3
330
D0
100
AcDbEntity
  8
_U+30EC_U+30A4_U+30E4_U+30FC 1
 62
   179
420
  2234388
370
     9
  0
POLYLINE
  5
D4
330
1F
100
AcDbEntity
  8
_U+30EC_U+30A4_U+30E4_U+30FC 1
 62
   179
420
  2234388
370
     9
100
AcDb2dPolyline
 66
     1
 10
0.0
 20
0.0
 30
0.0
  0
VERTEX
  5
D5
330
D4
100
AcDbEntity
  8
_U+30EC_U+30A4_U+30E4_U+30FC 1
 62
   179
420
  2234388
370
     9
100
AcDbVertex
100
AcDb2dVertex
 10
82.044961240192
 20
-144.2258213528327
 30
0.0
  0
VERTEX
  5
D6
330
D4
100
AcDbEntity
  8
_U+30EC_U+30A4_U+30E4_U+30FC 1
 62
   179
420
  2234388
370
     9
100
AcDbVertex
100
AcDb2dVertex
 10
82.044961240192
 20
-146.8168682966293
 30
0.0
  0
SEQEND
  5
D7
330
D4
100
AcDbEntity
  8
_U+30EC_U+30A4_U+30E4_U+30FC 1
 62
   179
420
  2234388
370
     9
  0
POLYLINE
  5
D8
330
1F
100
AcDbEntity
  8
_U+30EC_U+30A4_U+30E4_U+30FC 1
 62
   179
420
  2234388
370
     9
100
AcDb2dPolyline
 66
     1
 10
0.0
 20
0.0
 30
0.0
  0
VERTEX
  5
D9
330
D8
100
AcDbEntity
  8
_U+30EC_U+30A4_U+30E4_U+30FC 1
 62
   179
420
  2234388
370
     9
100
AcDbVertex
100
AcDb2dVertex
 10
94.56511480966515
 20
-135.9813694104494
 30
0.0
  0
VERTEX
  5
DA
330
D8
100
AcDbEntity
  8
_U+30EC_U+30A4_U+30E4_U+30FC 1
 62
   179
420
  2234388
370
     9
100
AcDbVertex
100
AcDb2dVertex
 10
113.0797416383965
 20
-135.9813694104494
 30
0.0
  0
SEQEND
  5
DB
330
D8
100
AcDbEntity
  8
_U+30EC_U+30A4_U+30E4_U+30FC 1
 62
   179
420
  2234388
370
     9
  0
POLYLINE
  5
DC
330
1F
100
AcDbEntity
  8
_U+30EC_U+30A4_U+30E4_U+30FC 1
 62
   179
420
  2234388
370
     9
100
AcDb2dPolyline
 66
     1
 10
0.0
 20
0.0
 30
0.0
  0
VERTEX
  5
DD
330
DC
100
AcDbEntity
  8
_U+30EC_U+30A4_U+30E4_U+30FC 1
 62
   179
420
  2234388
370
     9
100
AcDbVertex
100
AcDb2dVertex
 10
111.858104646262
 20
-129.5683280231636
 30
0.0
  0
VERTEX
  5
DE
330
DC
100
AcDbEntity
  8
_U+30EC_U+30A4_U+30E4_U+30FC 1
 62
   179
420
  2234388
370
     9
100
AcDbVertex
100
AcDb2dVertex
 10
111.858104646262
 20
-135.9813694104494
 30
0.0
  0
SEQEND
  5
DF
330
DC
100
AcDbEntity
  8
_U+30EC_U+30A4_U+30E4_U+30FC 1
 62
   179
420
  2234388
370
     9
  0
POLYLINE
  5
E0
330
1F
100
AcDbEntity
  8
_U+30EC_U+30A4_U+30E4_U+30FC 1
 62
   179
420
  2234388
370
     9
100
AcDb2dPolyline
 66
     1
 10
0.0
 20
0.0
 30
0.0
  0
VERTEX
  5
E1
330
E0
100
AcDbEntity
  8
_U+30EC_U+30A4_U+30E4_U+30FC 1
 62
   179
420
  2234388
370
     9
100
AcDbVertex
100
AcDb2dVertex
 10
100.977803257175
 20
-129.5683280231636
 30
0.0
  0
VERTEX
  5
E2
330
E0
100
AcDbEntity
  8
_U+30EC_U+30A4_U+30E4_U+30FC 1
 62
   179
420
  2234388
370
     9
100
AcDbVertex
100
AcDb2dVertex
 10
113.0797416383965
 20
-129.5683280231636
 30
0.0
  0
SEQEND
  5
E3
330
E0
100
AcDbEntity
  8
_U+30EC_U+30A4_U+30E4_U+30FC 1
 62
   179
420
  2234388
370
     9
  0
POLYLINE
  5
E4
330
1F
100
AcDbEntity
  8
_U+30EC_U+30A4_U+30E4_U+30FC 1
 62
   179
420
  2234388
370
     9
100
AcDb2dPolyline
 66
     1
 10
0.0
 20
0.0
 30
0.0
  0
VERTEX
  5
E5
330
E4
100
AcDbEntity
  8
_U+30EC_U+30A4_U+30E4_U+30FC 1
 62
   179
420
  2234388
370
     9
100
AcDbVertex
100
AcDb2dVertex
 10
100.977803257175
 20
-129.5683280231636
 30
0.0
  0
VERTEX
  5
E6
330
E4
100
AcDbEntity
  8
_U+30EC_U+30A4_U+30E4_U+30FC 1
 62
   179
420
  2234388
370
     9
100
AcDbVertex
100
AcDb2dVertex
 10
113.0797416383965
 20
-129.5683280231636
 30
0.0
  0
SEQEND
  5
E7
330
E4
100
AcDbEntity
  8
_U+30EC_U+30A4_U+30E4_U+30FC 1
 62
   179
420
  2234388
370
     9
  0
POLYLINE
  5
E8
330
1F
100
AcDbEntity
  8
_U+30EC_U+30A4_U+30E4_U+30FC 1
 62
   179
420
  2234388
370
     9
100
AcDb2dPolyline
 66
     1
 10
0.0
 20
0.0
 30
0.0
  0
VERTEX
  5
E9
330
E8
100
AcDbEntity
  8
_U+30EC_U+30A4_U+30E4_U+30FC 1
 62
   179
420
  2234388
370
     9
100
AcDbVertex
100
AcDb2dVertex
 10
111.858104646262
 20
-128.2860513568172
 30
0.0
  0
VERTEX
  5
EA
330
E8
100
AcDbEntity
  8
_U+30EC_U+30A4_U+30E4_U+30FC 1
 62
   179
420
  2234388
370
     9
100
AcDbVertex
100
AcDb2dVertex
 10
111.858104646262
 20
-129.5683280231636
 30
0.0
  0
SEQEND
  5
EB
330
E8
100
AcDbEntity
  8
_U+30EC_U+30A4_U+30E4_U+30FC 1
 62
   179
420
  2234388
370
     9
  0
POLYLINE
  5
EC
330
1F
100
AcDbEntity
  8
_U+30EC_U+30A4_U+30E4_U+30FC 1
 62
   179
420
  2234388
370
     9
100
AcDb2dPolyline
 66
     1
 10
0.0
 20
0.0
 30
0.0
  0
VERTEX
  5
ED
330
EC
100
AcDbEntity
  8
_U+30EC_U+30A4_U+30E4_U+30FC 1
 62
   179
420
  2234388
370
     9
100
AcDbVertex
100
AcDb2dVertex
 10
100.977803257175
 20
-128.2860513568172
 30
0.0
  0
VERTEX
  5
EE
330
EC
100
AcDbEntity
  8
_U+30EC_U+30A4_U+30E4_U+30FC 1
 62
   179
420
  2234388
370
     9
100
AcDbVertex
100
AcDb2dVertex
 10
113.0797416383965
 20
-128.2860513568172
 30
0.0
  0
SEQEND
  5
EF
330
EC
100
AcDbEntity
  8
_U+30EC_U+30A4_U+30E4_U+30FC 1
 62
   179
420
  2234388
370
     9
  0
POLYLINE
  5
F0
330
1F
100
AcDbEntity
  8
_U+30EC_U+30A4_U+30E4_U+30FC 1
 62
   179
420
  2234388
370
     9
100
AcDb2dPolyline
 66
     1
 10
0.0
 20
0.0
 30
0.0
  0
VERTEX
  5
F1
330
F0
100
AcDbEntity
  8
_U+30EC_U+30A4_U+30E4_U+30FC 1
 62
   179
420
  2234388
370
     9
100
AcDbVertex
100
AcDb2dVertex
 10
100.977803257175
 20
-128.2860513568172
 30
0.0
  0
VERTEX
  5
F2
330
F0
100
AcDbEntity
  8
_U+30EC_U+30A4_U+30E4_U+30FC 1
 62
   179
420
  2234388
370
     9
100
AcDbVertex
100
AcDb2dVertex
 10
113.0797416383965
 20
-128.2860513568172
 30
0.0
  0
SEQEND
  5
F3
330
F0
100
AcDbEntity
  8
_U+30EC_U+30A4_U+30E4_U+30FC 1
 62
   179
420
  2234388
370
     9
  0
INSERT
  5
F5
330
1F
100
AcDbEntity
  8
_U+30EC_U+30A4_U+30E4_U+30FC 1
100
AcDbBlockReference
  2
block 9
 10
0.0
 20
0.0
 30
0.0
  0
INSERT
  5
110
330
1F
100
AcDbEntity
  8
_U+30EC_U+30A4_U+30E4_U+30FC 1
100
AcDbBlockReference
  2
block 10
 10
0.0
 20
0.0
 30
0.0
  0
POLYLINE
  5
12A
330
1F
100
AcDbEntity
  8
_U+30EC_U+30A4_U+30E4_U+30FC 1
 62
   179
420
  2234388
370
     9
100
AcDb2dPolyline
 66
     1
 10
0.0
 20
0.0
 30
0.0
  0
VERTEX
  5
12B
330
12A
100
AcDbEntity
  8
_U+30EC_U+30A4_U+30E4_U+30FC 1
 62
   179
420
  2234388
370
     9
100
AcDbVertex
100
AcDb2dVertex
 10
71.68003289351223
 20
-117.5128883039551
 30
0.0
  0
VERTEX
  5
12C
330
12A
100
AcDbEntity
  8
_U+30EC_U+30A4_U+30E4_U+30FC 1
 62
   179
420
  2234388
370
     9
100
AcDbVertex
100
AcDb2dVertex
 10
71.68003289351223
 20
-143.2488032975213
 30
0.0
  0
SEQEND
  5
12D
330
12A
100
AcDbEntity
  8
_U+30EC_U+30A4_U+30E4_U+30FC 1
 62
   179
420
  2234388
370
     9
  0
INSERT
  5
12F
330
1F
100
AcDbEntity
  8
_U+30EC_U+30A4_U+30E4_U+30FC 1
100
AcDbBlockReference
  2
block 11
 10
0.0
 20
0.0
 30
0.0
  0
POLYLINE
  5
142
330
1F
100
AcDbEntity
  8
_U+30EC_U+30A4_U+30E4_U+30FC 1
 62
   179
420
  2234388
370
     9
100
AcDb2dPolyline
 66
     1
 10
0.0
 20
0.0
 30
0.0
  0
VERTEX
  5
143
330
142
100
AcDbEntity
  8
_U+30EC_U+30A4_U+30E4_U+30FC 1
 62
   179
420
  2234388
370
     9
100
AcDbVertex
100
AcDb2dVertex
 10
92.5259534727996
 20
-117.5128883039551
 30
0.0
  0
VERTEX
  5
144
330
142
100
AcDbEntity
  8
_U+30EC_U+30A4_U+30E4_U+30FC 1
 62
   179
420
  2234388
370
     9
100
AcDbVertex
100
AcDb2dVertex
 10
70.45875153578082
 20
-117.5128883039551
 30
0.0
  0
SEQEND
  5
145
330
142
100
AcDbEntity
  8
_U+30EC_U+30A4_U+30E4_U+30FC 1
 62
   179
420
  2234388
370
     9
  0
POLYLINE
  5
146
330
1F
100
AcDbEntity
  8
_U+30EC_U+30A4_U+30E4_U+30FC 1
 62
   179
420
  2234388
370
     9
100
AcDb2dPolyline
 66
     1
 10
0.0
 20
0.0
 30
0.0
  0
VERTEX
  5
147
330
146
100
AcDbEntity
  8
_U+30EC_U+30A4_U+30E4_U+30FC 1
 62
   179
420
  2234388
370
     9
100
AcDbVertex
100
AcDb2dVertex
 10
80.55563933374331
 20
-143.2488032975213
 30
0.0
  0
VERTEX
  5
148
330
146
100
AcDbEntity
  8
_U+30EC_U+30A4_U+30E4_U+30FC 1
 62
   179
420
  2234388
370
     9
100
AcDbVertex
100
AcDb2dVertex
 10
70.45875153578082
 20
-143.2488032975213
 30
0.0
  0
SEQEND
  5
149
330
146
100
AcDbEntity
  8
_U+30EC_U+30A4_U+30E4_U+30FC 1
 62
   179
420
  2234388
370
     9
  0
POLYLINE
  5
14A
330
1F
100
AcDbEntity
  8
_U+30EC_U+30A4_U+30E4_U+30FC 1
 62
   179
420
  2234388
370
     9
100
AcDb2dPolyline
 66
     1
 10
0.0
 20
0.0
 30
0.0
  0
VERTEX
  5
14B
330
14A
100
AcDbEntity
  8
_U+30EC_U+30A4_U+30E4_U+30FC 1
 62
   179
420
  2234388
370
     9
100
AcDbVertex
100
AcDb2dVertex
 10
107.2688892077871
 20
-116.5351646930884
 30
0.0
  0
VERTEX
  5
14C
330
14A
100
AcDbEntity
  8
_U+30EC_U+30A4_U+30E4_U+30FC 1
 62
   179
420
  2234388
370
     9
100
AcDbVertex
100
AcDb2dVertex
 10
107.2688892077871
 20
-114.7520141379785
 30
0.0
  0
SEQEND
  5
14D
330
14A
100
AcDbEntity
  8
_U+30EC_U+30A4_U+30E4_U+30FC 1
 62
   179
420
  2234388
370
     9
  0
POLYLINE
  5
14E
330
1F
100
AcDbEntity
  8
_U+30EC_U+30A4_U+30E4_U+30FC 1
 62
   179
420
  2234388
370
     9
100
AcDb2dPolyline
 66
     1
 10
0.0
 20
0.0
 30
0.0
  0
VERTEX
  5
14F
330
14E
100
AcDbEntity
  8
_U+30EC_U+30A4_U+30E4_U+30FC 1
 62
   179
420
  2234388
370
     9
100
AcDbVertex
100
AcDb2dVertex
 10
81.53230458660428
 20
-128.5058671900959
 30
0.0
  0
VERTEX
  5
150
330
14E
100
AcDbEntity
  8
_U+30EC_U+30A4_U+30E4_U+30FC 1
 62
   179
420
  2234388
370
     9
100
AcDbVertex
100
AcDb2dVertex
 10
81.53230458660428
 20
-111.9156455275768
 30
0.0
  0
SEQEND
  5
151
330
14E
100
AcDbEntity
  8
_U+30EC_U+30A4_U+30E4_U+30FC 1
 62
   179
420
  2234388
370
     9
  0
POLYLINE
  5
152
330
1F
100
AcDbEntity
  8
_U+30EC_U+30A4_U+30E4_U+30FC 1
 62
   179
420
  2234388
370
     9
100
AcDb2dPolyline
 66
     1
 10
0.0
 20
0.0
 30
0.0
  0
VERTEX
  5
153
330
152
100
AcDbEntity
  8
_U+30EC_U+30A4_U+30E4_U+30FC 1
 62
   179
420
  2234388
370
     9
100
AcDbVertex
100
AcDb2dVertex
 10
107.2688892077871
 20
-116.5351646930884
 30
0.0
  0
VERTEX
  5
154
330
152
100
AcDbEntity
  8
_U+30EC_U+30A4_U+30E4_U+30FC 1
 62
   179
420
  2234388
370
     9
100
AcDbVertex
100
AcDb2dVertex
 10
107.2688892077871
 20
-111.9156455275768
 30
0.0
  0
SEQEND
  5
155
330
152
100
AcDbEntity
  8
_U+30EC_U+30A4_U+30E4_U+30FC 1
 62
   179
420
  2234388
370
     9
  0
POLYLINE
  5
156
330
1F
100
AcDbEntity
  8
_U+30EC_U+30A4_U+30E4_U+30FC 1
 62
   179
420
  2234388
370
     9
100
AcDb2dPolyline
 66
     1
 10
0.0
 20
0.0
 30
0.0
  0
VERTEX
  5
157
330
156
100
AcDbEntity
  8
_U+30EC_U+30A4_U+30E4_U+30FC 1
 62
   179
420
  2234388
370
     9
100
AcDbVertex
100
AcDb2dVertex
 10
93.0754401254477
 20
-116.9623785818706
 30
0.0
  0
VERTEX
  5
158
330
156
100
AcDbEntity
  8
_U+30EC_U+30A4_U+30E4_U+30FC 1
 62
   179
420
  2234388
370
     9
100
AcDbVertex
100
AcDb2dVertex
 10
93.0754401254477
 20
-114.7520141379785
 30
0.0
  0
SEQEND
  5
159
330
156
100
AcDbEntity
  8
_U+30EC_U+30A4_U+30E4_U+30FC 1
 62
   179
420
  2234388
370
     9
  0
SPLINE
  5
15A
330
1F
100
AcDbEntity
  8
_U+30EC_U+30A4_U+30E4_U+30FC 1
370
     0
100
AcDbSpline
210
0.0
220
0.0
230
1.0
 70
    11
 71
     3
 72
    29
 73
    25
 74
     0
 42
0.0000000001
 43
0.0000000001
 12
1.0
 22
0.0
 32
0.0
 13
1.0
 23
0.0
 33
0.0
 40
0.0
 40
0.0
 40
0.0
 40
0.0
 40
1.0
 40
1.0
 40
1.0
 40
2.0
 40
2.0
 40
2.0
 40
3.0
 40
3.0
 40
3.0
 40
4.0
 40
4.0
 40
4.0
 40
5.0
 40
5.0
 40
5.0
 40
6.0
 40
6.0
 40
6.0
 40
7.0
 40
7.0
 40
7.0
 40
8.0
 40
8.0
 40
8.0
 40
8.0
 10
107.1466164331287
 20
-115.9732955265622
 30
0.0
 10
107.1466164331287
 20
-116.0056805265542
 30
0.0
 10
107.1600219883423
 20
-116.0373599709906
 30
0.0
 10
107.1824233766597
 20
-116.0601141376517
 30
0.0
 10
107.2048247649771
 20
-116.082833026535
 30
0.0
 10
107.2365042086133
 20
-116.0959210820871
 30
0.0
 10
107.2685717077952
 20
-116.0959210820871
 30
0.0
 10
107.300956706969
 20
-116.0959210820871
 30
0.0
 10
107.332286084278
 20
-116.082833026535
 30
0.0
 10
107.3546847611538
 20
-116.0601141376517
 30
0.0
 10
107.3774416398225
 20
-116.0373599709906
 30
0.0
 10
107.3911999731519
 20
-116.0056805265542
 30
0.0
 10
107.3911999731519
 20
-115.9732955265622
 30
0.0
 10
107.3911999731519
 20
-115.9419335821257
 30
0.0
 10
107.3774416398225
 20
-115.9095485821337
 30
0.0
 10
107.3546847611538
 20
-115.8867944154726
 30
0.0
 10
107.332286084278
 20
-115.8644283043671
 30
0.0
 10
107.300956706969
 20
-115.8516577488149
 30
0.0
 10
107.2685717077952
 20
-115.8516577488149
 30
0.0
 10
107.2365042086133
 20
-115.8516577488149
 30
0.0
 10
107.2048247649771
 20
-115.8644283043671
 30
0.0
 10
107.1824233766597
 20
-115.8867944154726
 30
0.0
 10
107.1600219883423
 20
-115.9095485821337
 30
0.0
 10
107.1466164331287
 20
-115.9419335821257
 30
0.0
 10
107.1466164331287
 20
-115.9732955265622
 30
0.0
  0
HATCH
  5
15B
330
1F
100
AcDbEntity
  8
_U+30EC_U+30A4_U+30E4_U+30FC 1
 62
     7
420
 16777215
100
AcDbHatch
 10
0.0
 20
0.0
 30
0.0
210
0.0
220
0.0
230
1.0
  2
SOLID
 70
     1
 71
     0
 91
        1
 92
        1
 93
        1
 72
     4
 94
        3
 73
     0
 74
     1
 95
       29
 96
       25
 40
0.0
 40
0.0
 40
0.0
 40
0.0
 40
1.0
 40
1.0
 40
1.0
 40
2.0
 40
2.0
 40
2.0
 40
3.0
 40
3.0
 40
3.0
 40
4.0
 40
4.0
 40
4.0
 40
5.0
 40
5.0
 40
5.0
 40
6.0
 40
6.0
 40
6.0
 40
7.0
 40
7.0
 40
7.0
 40
8.0
 40
8.0
 40
8.0
 40
8.0
 10
107.1466164331287
 20
-115.9732955265622
 10
107.1466164331287
 20
-116.0056805265542
 10
107.1600219883423
 20
-116.0373599709906
 10
107.1824233766597
 20
-116.0601141376517
 10
107.2048247649771
 20
-116.082833026535
 10
107.2365042086133
 20
-116.0959210820871
 10
107.2685717077952
 20
-116.0959210820871
 10
107.300956706969
 20
-116.0959210820871
 10
107.332286084278
 20
-116.082833026535
 10
107.3546847611538
 20
-116.0601141376517
 10
107.3774416398225
 20
-116.0373599709906
 10
107.3911999731519
 20
-116.0056805265542
 10
107.3911999731519
 20
-115.9732955265622
 10
107.3911999731519
 20
-115.9419335821257
 10
107.3774416398225
 20
-115.9095485821337
 10
107.3546847611538
 20
-115.8867944154726
 10
107.332286084278
 20
-115.8644283043671
 10
107.300956706969
 20
-115.8516577488149
 10
107.2685717077952
 20
-115.8516577488149
 10
107.2365042086133
 20
-115.8516577488149
 10
107.2048247649771
 20
-115.8644283043671
 10
107.1824233766597
 20
-115.8867944154726
 10
107.1600219883423
 20
-115.9095485821337
 10
107.1466164331287
 20
-115.9419335821257
 10
107.1466164331287
 20
-115.9732955265622
 97
        0
 97
        0
 75
     2
 76
     1
 98
        0
  0
SPLINE
  5
15C
330
1F
100
AcDbEntity
  8
_U+30EC_U+30A4_U+30E4_U+30FC 1
370
     0
100
AcDbSpline
210
0.0
220
0.0
230
1.0
 70
    11
 71
     3
 72
    29
 73
    25
 74
     0
 42
0.0000000001
 43
0.0000000001
 12
1.0
 22
0.0
 32
0.0
 13
1.0
 23
0.0
 33
0.0
 40
0.0
 40
0.0
 40
0.0
 40
0.0
 40
1.0
 40
1.0
 40
1.0
 40
2.0
 40
2.0
 40
2.0
 40
3.0
 40
3.0
 40
3.0
 40
4.0
 40
4.0
 40
4.0
 40
5.0
 40
5.0
 40
5.0
 40
6.0
 40
6.0
 40
6.0
 40
7.0
 40
7.0
 40
7.0
 40
8.0
 40
8.0
 40
8.0
 40
8.0
 10
81.41070208970662
 20
-113.1376324717156
 30
0.0
 10
81.41070208970662
 20
-113.1693119161521
 30
0.0
 10
81.42379014492828
 20
-113.2010266383663
 30
0.0
 10
81.44654431101443
 20
-113.2240983050274
 30
0.0
 10
81.46891042155494
 20
-113.2468171939107
 30
0.0
 10
81.50097792073683
 20
-113.2595877494629
 30
0.0
 10
81.53230458660428
 20
-113.2595877494629
 30
0.0
 10
81.56504442405306
 20
-113.2595877494629
 30
0.0
 10
81.5964043071912
 20
-113.2468171939107
 30
0.0
 10
81.61880569550857
 20
-113.2240983050274
 30
0.0
 10
81.64152458381785
 20
-113.2010266383663
 30
0.0
 10
81.65531819457706
 20
-113.1693119161521
 30
0.0
 10
81.65531819457706
 20
-113.1376324717156
 30
0.0
 10
81.65531819457706
 20
-113.1052474717237
 30
0.0
 10
81.64152458381785
 20
-113.0735327495094
 30
0.0
 10
81.61880569550857
 20
-113.0508138606261
 30
0.0
 10
81.5964043071912
 20
-113.0284124717428
 30
0.0
 10
81.56504442405306
 20
-113.0149716384129
 30
0.0
 10
81.53230458660428
 20
-113.0149716384129
 30
0.0
 10
81.50097792073683
 20
-113.0149716384129
 30
0.0
 10
81.46891042155494
 20
-113.0284124717428
 30
0.0
 10
81.44654431101443
 20
-113.0508138606261
 30
0.0
 10
81.42379014492828
 20
-113.0735327495094
 30
0.0
 10
81.41070208970662
 20
-113.1052474717237
 30
0.0
 10
81.41070208970662
 20
-113.1376324717156
 30
0.0
  0
HATCH
  5
15D
330
1F
100
AcDbEntity
  8
_U+30EC_U+30A4_U+30E4_U+30FC 1
 62
     7
420
 16777215
100
AcDbHatch
 10
0.0
 20
0.0
 30
0.0
210
0.0
220
0.0
230
1.0
  2
SOLID
 70
     1
 71
     0
 91
        1
 92
        1
 93
        1
 72
     4
 94
        3
 73
     0
 74
     1
 95
       29
 96
       25
 40
0.0
 40
0.0
 40
0.0
 40
0.0
 40
1.0
 40
1.0
 40
1.0
 40
2.0
 40
2.0
 40
2.0
 40
3.0
 40
3.0
 40
3.0
 40
4.0
 40
4.0
 40
4.0
 40
5.0
 40
5.0
 40
5.0
 40
6.0
 40
6.0
 40
6.0
 40
7.0
 40
7.0
 40
7.0
 40
8.0
 40
8.0
 40
8.0
 40
8.0
 10
81.41070208970662
 20
-113.1376324717156
 10
81.41070208970662
 20
-113.1693119161521
 10
81.42379014492828
 20
-113.2010266383663
 10
81.44654431101443
 20
-113.2240983050274
 10
81.46891042155494
 20
-113.2468171939107
 10
81.50097792073683
 20
-113.2595877494629
 10
81.53230458660428
 20
-113.2595877494629
 10
81.56504442405306
 20
-113.2595877494629
 10
81.5964043071912
 20
-113.2468171939107
 10
81.61880569550857
 20
-113.2240983050274
 10
81.64152458381785
 20
-113.2010266383663
 10
81.65531819457706
 20
-113.1693119161521
 10
81.65531819457706
 20
-113.1376324717156
 10
81.65531819457706
 20
-113.1052474717237
 10
81.64152458381785
 20
-113.0735327495094
 10
81.61880569550857
 20
-113.0508138606261
 10
81.5964043071912
 20
-113.0284124717428
 10
81.56504442405306
 20
-113.0149716384129
 10
81.53230458660428
 20
-113.0149716384129
 10
81.50097792073683
 20
-113.0149716384129
 10
81.46891042155494
 20
-113.0284124717428
 10
81.44654431101443
 20
-113.0508138606261
 10
81.42379014492828
 20
-113.0735327495094
 10
81.41070208970662
 20
-113.1052474717237
 10
81.41070208970662
 20
-113.1376324717156
 97
        0
 97
        0
 75
     2
 76
     1
 98
        0
  0
SPLINE
  5
15E
330
1F
100
AcDbEntity
  8
_U+30EC_U+30A4_U+30E4_U+30FC 1
370
     0
100
AcDbSpline
210
0.0
220
0.0
230
1.0
 70
    11
 71
     3
 72
    29
 73
    25
 74
     0
 42
0.0000000001
 43
0.0000000001
 12
1.0
 22
0.0
 32
0.0
 13
1.0
 23
0.0
 33
0.0
 40
0.0
 40
0.0
 40
0.0
 40
0.0
 40
1.0
 40
1.0
 40
1.0
 40
2.0
 40
2.0
 40
2.0
 40
3.0
 40
3.0
 40
3.0
 40
4.0
 40
4.0
 40
4.0
 40
5.0
 40
5.0
 40
5.0
 40
6.0
 40
6.0
 40
6.0
 40
7.0
 40
7.0
 40
7.0
 40
8.0
 40
8.0
 40
8.0
 40
8.0
 10
107.1466164331287
 20
-113.1369269161601
 30
0.0
 10
107.1466164331287
 20
-113.1693119161521
 30
0.0
 10
107.1600219883423
 20
-113.2010266383663
 30
0.0
 10
107.1824233766597
 20
-113.2240983050274
 30
0.0
 10
107.2048247649771
 20
-113.246146916133
 30
0.0
 10
107.2365042086133
 20
-113.2595877494629
 30
0.0
 10
107.2685717077952
 20
-113.2595877494629
 30
0.0
 10
107.300956706969
 20
-113.2595877494629
 30
0.0
 10
107.332286084278
 20
-113.246146916133
 30
0.0
 10
107.3546847611538
 20
-113.2240983050274
 30
0.0
 10
107.3774416398225
 20
-113.2010266383663
 30
0.0
 10
107.3911999731519
 20
-113.1693119161521
 30
0.0
 10
107.3911999731519
 20
-113.1369269161601
 30
0.0
 10
107.3911999731519
 20
-113.1052474717237
 30
0.0
 10
107.3774416398225
 20
-113.0735327495094
 30
0.0
 10
107.3546847611538
 20
-113.0508138606261
 30
0.0
 10
107.332286084278
 20
-113.0280596939653
 30
0.0
 10
107.300956706969
 20
-113.0149716384129
 30
0.0
 10
107.2685717077952
 20
-113.0149716384129
 30
0.0
 10
107.2365042086133
 20
-113.0149716384129
 30
0.0
 10
107.2048247649771
 20
-113.0280596939653
 30
0.0
 10
107.1824233766597
 20
-113.0508138606261
 30
0.0
 10
107.1600219883423
 20
-113.0735327495094
 30
0.0
 10
107.1466164331287
 20
-113.1052474717237
 30
0.0
 10
107.1466164331287
 20
-113.1369269161601
 30
0.0
  0
HATCH
  5
15F
330
1F
100
AcDbEntity
  8
_U+30EC_U+30A4_U+30E4_U+30FC 1
 62
     7
420
 16777215
100
AcDbHatch
 10
0.0
 20
0.0
 30
0.0
210
0.0
220
0.0
230
1.0
  2
SOLID
 70
     1
 71
     0
 91
        1
 92
        1
 93
        1
 72
     4
 94
        3
 73
     0
 74
     1
 95
       29
 96
       25
 40
0.0
 40
0.0
 40
0.0
 40
0.0
 40
1.0
 40
1.0
 40
1.0
 40
2.0
 40
2.0
 40
2.0
 40
3.0
 40
3.0
 40
3.0
 40
4.0
 40
4.0
 40
4.0
 40
5.0
 40
5.0
 40
5.0
 40
6.0
 40
6.0
 40
6.0
 40
7.0
 40
7.0
 40
7.0
 40
8.0
 40
8.0
 40
8.0
 40
8.0
 10
107.1466164331287
 20
-113.1369269161601
 10
107.1466164331287
 20
-113.1693119161521
 10
107.1600219883423
 20
-113.2010266383663
 10
107.1824233766597
 20
-113.2240983050274
 10
107.2048247649771
 20
-113.246146916133
 10
107.2365042086133
 20
-113.2595877494629
 10
107.2685717077952
 20
-113.2595877494629
 10
107.300956706969
 20
-113.2595877494629
 10
107.332286084278
 20
-113.246146916133
 10
107.3546847611538
 20
-113.2240983050274
 10
107.3774416398225
 20
-113.2010266383663
 10
107.3911999731519
 20
-113.1693119161521
 10
107.3911999731519
 20
-113.1369269161601
 10
107.3911999731519
 20
-113.1052474717237
 10
107.3774416398225
 20
-113.0735327495094
 10
107.3546847611538
 20
-113.0508138606261
 10
107.332286084278
 20
-113.0280596939653
 10
107.300956706969
 20
-113.0149716384129
 10
107.2685717077952
 20
-113.0149716384129
 10
107.2365042086133
 20
-113.0149716384129
 10
107.2048247649771
 20
-113.0280596939653
 10
107.1824233766597
 20
-113.0508138606261
 10
107.1600219883423
 20
-113.0735327495094
 10
107.1466164331287
 20
-113.1052474717237
 10
107.1466164331287
 20
-113.1369269161601
 97
        0
 97
        0
 75
     2
 76
     1
 98
        0
  0
SPLINE
  5
160
330
1F
100
AcDbEntity
  8
_U+30EC_U+30A4_U+30E4_U+30FC 1
370
     0
100
AcDbSpline
210
0.0
220
0.0
230
1.0
 70
    11
 71
     3
 72
    29
 73
    25
 74
     0
 42
0.0000000001
 43
0.0000000001
 12
1.0
 22
0.0
 32
0.0
 13
1.0
 23
0.0
 33
0.0
 40
0.0
 40
0.0
 40
0.0
 40
0.0
 40
1.0
 40
1.0
 40
1.0
 40
2.0
 40
2.0
 40
2.0
 40
3.0
 40
3.0
 40
3.0
 40
4.0
 40
4.0
 40
4.0
 40
5.0
 40
5.0
 40
5.0
 40
6.0
 40
6.0
 40
6.0
 40
7.0
 40
7.0
 40
7.0
 40
8.0
 40
8.0
 40
8.0
 40
8.0
 10
92.95316735078936
 20
-115.9732955265622
 30
0.0
 10
92.95316735078936
 20
-116.0053277487764
 30
0.0
 10
92.96625540601102
 20
-116.0373599709906
 30
0.0
 10
92.98897429432029
 20
-116.0601141376517
 30
0.0
 10
93.0110229048689
 20
-116.082833026535
 30
0.0
 10
93.04305512627391
 20
-116.0955683043094
 30
0.0
 10
93.0754401254477
 20
-116.0955683043094
 30
0.0
 10
93.10715484686081
 20
-116.0955683043094
 30
0.0
 10
93.13883429049704
 20
-116.082833026535
 30
0.0
 10
93.16123567881442
 20
-116.0601141376517
 30
0.0
 10
93.18398984490058
 20
-116.0373599709906
 30
0.0
 10
93.19707790012224
 20
-116.0053277487764
 30
0.0
 10
93.19707790012224
 20
-115.9732955265622
 30
0.0
 10
93.19707790012224
 20
-115.9412280265702
 30
0.0
 10
93.18398984490058
 20
-115.9102541376893
 30
0.0
 10
93.16123567881442
 20
-115.8871471932504
 30
0.0
 10
93.13883429049704
 20
-115.864745804367
 30
0.0
 10
93.10715484686081
 20
-115.8516577488149
 30
0.0
 10
93.0754401254477
 20
-115.8516577488149
 30
0.0
 10
93.04305512627391
 20
-115.8516577488149
 30
0.0
 10
93.0110229048689
 20
-115.864745804367
 30
0.0
 10
92.98897429432029
 20
-115.8871471932504
 30
0.0
 10
92.96625540601102
 20
-115.9102541376893
 30
0.0
 10
92.95316735078936
 20
-115.9412280265702
 30
0.0
 10
92.95316735078936
 20
-115.9732955265622
 30
0.0
  0
HATCH
  5
161
330
1F
100
AcDbEntity
  8
_U+30EC_U+30A4_U+30E4_U+30FC 1
 62
     7
420
 16777215
100
AcDbHatch
 10
0.0
 20
0.0
 30
0.0
210
0.0
220
0.0
230
1.0
  2
SOLID
 70
     1
 71
     0
 91
        1
 92
        1
 93
        1
 72
     4
 94
        3
 73
     0
 74
     1
 95
       29
 96
       25
 40
0.0
 40
0.0
 40
0.0
 40
0.0
 40
1.0
 40
1.0
 40
1.0
 40
2.0
 40
2.0
 40
2.0
 40
3.0
 40
3.0
 40
3.0
 40
4.0
 40
4.0
 40
4.0
 40
5.0
 40
5.0
 40
5.0
 40
6.0
 40
6.0
 40
6.0
 40
7.0
 40
7.0
 40
7.0
 40
8.0
 40
8.0
 40
8.0
 40
8.0
 10
92.95316735078936
 20
-115.9732955265622
 10
92.95316735078936
 20
-116.0053277487764
 10
92.96625540601102
 20
-116.0373599709906
 10
92.98897429432029
 20
-116.0601141376517
 10
93.0110229048689
 20
-116.082833026535
 10
93.04305512627391
 20
-116.0955683043094
 10
93.0754401254477
 20
-116.0955683043094
 10
93.10715484686081
 20
-116.0955683043094
 10
93.13883429049704
 20
-116.082833026535
 10
93.16123567881442
 20
-116.0601141376517
 10
93.18398984490058
 20
-116.0373599709906
 10
93.19707790012224
 20
-116.0053277487764
 10
93.19707790012224
 20
-115.9732955265622
 10
93.19707790012224
 20
-115.9412280265702
 10
93.18398984490058
 20
-115.9102541376893
 10
93.16123567881442
 20
-115.8871471932504
 10
93.13883429049704
 20
-115.864745804367
 10
93.10715484686081
 20
-115.8516577488149
 10
93.0754401254477
 20
-115.8516577488149
 10
93.04305512627391
 20
-115.8516577488149
 10
93.0110229048689
 20
-115.864745804367
 10
92.98897429432029
 20
-115.8871471932504
 10
92.96625540601102
 20
-115.9102541376893
 10
92.95316735078936
 20
-115.9412280265702
 10
92.95316735078936
 20
-115.9732955265622
 97
        0
 97
        0
 75
     2
 76
     1
 98
        0
  0
SPLINE
  5
162
330
1F
100
AcDbEntity
  8
_U+30EC_U+30A4_U+30E4_U+30FC 1
370
     0
100
AcDbSpline
210
0.0
220
0.0
230
1.0
 70
    11
 71
     3
 72
    29
 73
    25
 74
     0
 42
0.0000000001
 43
0.0000000001
 12
1.0
 22
0.0
 32
0.0
 13
1.0
 23
0.0
 33
0.0
 40
0.0
 40
0.0
 40
0.0
 40
0.0
 40
1.0
 40
1.0
 40
1.0
 40
2.0
 40
2.0
 40
2.0
 40
3.0
 40
3.0
 40
3.0
 40
4.0
 40
4.0
 40
4.0
 40
5.0
 40
5.0
 40
5.0
 40
6.0
 40
6.0
 40
6.0
 40
7.0
 40
7.0
 40
7.0
 40
8.0
 40
8.0
 40
8.0
 40
8.0
 10
76.44288554977952
 20
-143.2488032975213
 30
0.0
 10
76.44288554977952
 20
-143.2815057975129
 30
0.0
 10
76.45526804946361
 20
-143.3128677419497
 30
0.0
 10
76.47802221554977
 20
-143.3349163530553
 30
0.0
 10
76.50007082609838
 20
-143.3573177419387
 30
0.0
 10
76.53280860304095
 20
-143.3714288530459
 30
0.0
 10
76.56448804667718
 20
-143.3714288530459
 30
0.0
 10
76.59616942529526
 20
-143.3714288530459
 30
0.0
 10
76.62788221172653
 20
-143.3573177419387
 30
0.0
 10
76.6502836000439
 20
-143.3349163530553
 30
0.0
 10
76.67370804389074
 20
-143.3128677419497
 30
0.0
 10
76.68609054357484
 20
-143.2815057975129
 30
0.0
 10
76.68609054357484
 20
-143.2488032975213
 30
0.0
 10
76.68609054357484
 20
-143.2170885753067
 30
0.0
 10
76.67370804389074
 20
-143.1854091308703
 30
0.0
 10
76.6502836000439
 20
-143.1623374642096
 30
0.0
 10
76.62788221172653
 20
-143.140288853104
 30
0.0
 10
76.59616942529526
 20
-143.1271655197737
 30
0.0
 10
76.56448804667718
 20
-143.1271655197737
 30
0.0
 10
76.53280860304095
 20
-143.1271655197737
 30
0.0
 10
76.50007082609838
 20
-143.140288853104
 30
0.0
 10
76.47802221554977
 20
-143.1623374642096
 30
0.0
 10
76.45526804946361
 20
-143.1854091308703
 30
0.0
 10
76.44288554977952
 20
-143.2170885753067
 30
0.0
 10
76.44288554977952
 20
-143.2488032975213
 30
0.0
  0
HATCH
  5
163
330
1F
100
AcDbEntity
  8
_U+30EC_U+30A4_U+30E4_U+30FC 1
 62
     7
420
 16777215
100
AcDbHatch
 10
0.0
 20
0.0
 30
0.0
210
0.0
220
0.0
230
1.0
  2
SOLID
 70
     1
 71
     0
 91
        1
 92
        1
 93
        1
 72
     4
 94
        3
 73
     0
 74
     1
 95
       29
 96
       25
 40
0.0
 40
0.0
 40
0.0
 40
0.0
 40
1.0
 40
1.0
 40
1.0
 40
2.0
 40
2.0
 40
2.0
 40
3.0
 40
3.0
 40
3.0
 40
4.0
 40
4.0
 40
4.0
 40
5.0
 40
5.0
 40
5.0
 40
6.0
 40
6.0
 40
6.0
 40
7.0
 40
7.0
 40
7.0
 40
8.0
 40
8.0
 40
8.0
 40
8.0
 10
76.44288554977952
 20
-143.2488032975213
 10
76.44288554977952
 20
-143.2815057975129
 10
76.45526804946361
 20
-143.3128677419497
 10
76.47802221554977
 20
-143.3349163530553
 10
76.50007082609838
 20
-143.3573177419387
 10
76.53280860304095
 20
-143.3714288530459
 10
76.56448804667718
 20
-143.3714288530459
 10
76.59616942529526
 20
-143.3714288530459
 10
76.62788221172653
 20
-143.3573177419387
 10
76.6502836000439
 20
-143.3349163530553
 10
76.67370804389074
 20
-143.3128677419497
 10
76.68609054357484
 20
-143.2815057975129
 10
76.68609054357484
 20
-143.2488032975213
 10
76.68609054357484
 20
-143.2170885753067
 10
76.67370804389074
 20
-143.1854091308703
 10
76.6502836000439
 20
-143.1623374642096
 10
76.62788221172653
 20
-143.140288853104
 10
76.59616942529526
 20
-143.1271655197737
 10
76.56448804667718
 20
-143.1271655197737
 10
76.53280860304095
 20
-143.1271655197737
 10
76.50007082609838
 20
-143.140288853104
 10
76.47802221554977
 20
-143.1623374642096
 10
76.45526804946361
 20
-143.1854091308703
 10
76.44288554977952
 20
-143.2170885753067
 10
76.44288554977952
 20
-143.2488032975213
 97
        0
 97
        0
 75
     2
 76
     1
 98
        0
  0
SPLINE
  5
164
330
1F
100
AcDbEntity
  8
_U+30EC_U+30A4_U+30E4_U+30FC 1
370
     0
100
AcDbSpline
210
0.0
220
0.0
230
1.0
 70
    11
 71
     3
 72
    29
 73
    25
 74
     0
 42
0.0000000001
 43
0.0000000001
 12
1.0
 22
0.0
 32
0.0
 13
1.0
 23
0.0
 33
0.0
 40
0.0
 40
0.0
 40
0.0
 40
0.0
 40
1.0
 40
1.0
 40
1.0
 40
2.0
 40
2.0
 40
2.0
 40
3.0
 40
3.0
 40
3.0
 40
4.0
 40
4.0
 40
4.0
 40
5.0
 40
5.0
 40
5.0
 40
6.0
 40
6.0
 40
6.0
 40
7.0
 40
7.0
 40
7.0
 40
8.0
 40
8.0
 40
8.0
 40
8.0
 10
111.7361493715956
 20
-118.0255096927157
 30
0.0
 10
111.7361493715956
 20
-118.0575771927077
 30
0.0
 10
111.7492374268172
 20
-118.0892566371445
 30
0.0
 10
111.7719944165017
 20
-118.1116580260275
 30
0.0
 10
111.7947104812127
 20
-118.1343769149108
 30
0.0
 10
111.8264252026258
 20
-118.1475002482408
 30
0.0
 10
111.858104646262
 20
-118.1475002482408
 30
0.0
 10
111.890136867667
 20
-118.1475002482408
 30
0.0
 10
111.9222043668489
 20
-118.1343769149108
 30
0.0
 10
111.9445704773894
 20
-118.1116580260275
 30
0.0
 10
111.9673246434756
 20
-118.0892566371445
 30
0.0
 10
111.9804126986972
 20
-118.0575771927077
 30
0.0
 10
111.9804126986972
 20
-118.0255096927157
 30
0.0
 10
111.9804126986972
 20
-117.9931599705016
 30
0.0
 10
111.9673246434756
 20
-117.9610924705099
 30
0.0
 10
111.9445704773894
 20
-117.9390438594043
 30
0.0
 10
111.9222043668489
 20
-117.9166777482988
 30
0.0
 10
111.890136867667
 20
-117.9032369149685
 30
0.0
 10
111.858104646262
 20
-117.9032369149685
 30
0.0
 10
111.8264252026258
 20
-117.9032369149685
 30
0.0
 10
111.7947104812127
 20
-117.9166777482988
 30
0.0
 10
111.7719944165017
 20
-117.9390438594043
 30
0.0
 10
111.7492374268172
 20
-117.9610924705099
 30
0.0
 10
111.7361493715956
 20
-117.9931599705016
 30
0.0
 10
111.7361493715956
 20
-118.0255096927157
 30
0.0
  0
HATCH
  5
165
330
1F
100
AcDbEntity
  8
_U+30EC_U+30A4_U+30E4_U+30FC 1
 62
     7
420
 16777215
100
AcDbHatch
 10
0.0
 20
0.0
 30
0.0
210
0.0
220
0.0
230
1.0
  2
SOLID
 70
     1
 71
     0
 91
        1
 92
        1
 93
        1
 72
     4
 94
        3
 73
     0
 74
     1
 95
       29
 96
       25
 40
0.0
 40
0.0
 40
0.0
 40
0.0
 40
1.0
 40
1.0
 40
1.0
 40
2.0
 40
2.0
 40
2.0
 40
3.0
 40
3.0
 40
3.0
 40
4.0
 40
4.0
 40
4.0
 40
5.0
 40
5.0
 40
5.0
 40
6.0
 40
6.0
 40
6.0
 40
7.0
 40
7.0
 40
7.0
 40
8.0
 40
8.0
 40
8.0
 40
8.0
 10
111.7361493715956
 20
-118.0255096927157
 10
111.7361493715956
 20
-118.0575771927077
 10
111.7492374268172
 20
-118.0892566371445
 10
111.7719944165017
 20
-118.1116580260275
 10
111.7947104812127
 20
-118.1343769149108
 10
111.8264252026258
 20
-118.1475002482408
 10
111.858104646262
 20
-118.1475002482408
 10
111.890136867667
 20
-118.1475002482408
 10
111.9222043668489
 20
-118.1343769149108
 10
111.9445704773894
 20
-118.1116580260275
 10
111.9673246434756
 20
-118.0892566371445
 10
111.9804126986972
 20
-118.0575771927077
 10
111.9804126986972
 20
-118.0255096927157
 10
111.9804126986972
 20
-117.9931599705016
 10
111.9673246434756
 20
-117.9610924705099
 10
111.9445704773894
 20
-117.9390438594043
 10
111.9222043668489
 20
-117.9166777482988
 10
111.890136867667
 20
-117.9032369149685
 10
111.858104646262
 20
-117.9032369149685
 10
111.8264252026258
 20
-117.9032369149685
 10
111.7947104812127
 20
-117.9166777482988
 10
111.7719944165017
 20
-117.9390438594043
 10
111.7492374268172
 20
-117.9610924705099
 10
111.7361493715956
 20
-117.9931599705016
 10
111.7361493715956
 20
-118.0255096927157
 97
        0
 97
        0
 75
     2
 76
     1
 98
        0
  0
SPLINE
  5
166
330
1F
100
AcDbEntity
  8
_U+30EC_U+30A4_U+30E4_U+30FC 1
370
     0
100
AcDbSpline
210
0.0
220
0.0
230
1.0
 70
    11
 71
     3
 72
    29
 73
    25
 74
     0
 42
0.0000000001
 43
0.0000000001
 12
1.0
 22
0.0
 32
0.0
 13
1.0
 23
0.0
 33
0.0
 40
0.0
 40
0.0
 40
0.0
 40
0.0
 40
1.0
 40
1.0
 40
1.0
 40
2.0
 40
2.0
 40
2.0
 40
3.0
 40
3.0
 40
3.0
 40
4.0
 40
4.0
 40
4.0
 40
5.0
 40
5.0
 40
5.0
 40
6.0
 40
6.0
 40
6.0
 40
7.0
 40
7.0
 40
7.0
 40
8.0
 40
8.0
 40
8.0
 40
8.0
 10
76.44288554977952
 20
-129.0550010788471
 30
0.0
 10
76.44288554977952
 20
-129.0873860788391
 30
0.0
 10
76.45526804946361
 20
-129.1190655232755
 30
0.0
 10
76.47802221554977
 20
-129.1414669121589
 30
0.0
 10
76.50042360386715
 20
-129.1638683010422
 30
0.0
 10
76.53280860304095
 20
-129.1776619121499
 30
0.0
 10
76.56448804667718
 20
-129.1776619121499
 30
0.0
 10
76.59616942529526
 20
-129.1776619121499
 30
0.0
 10
76.6282349894953
 20
-129.1638683010422
 30
0.0
 10
76.6502836000439
 20
-129.1414669121589
 30
0.0
 10
76.67370804389074
 20
-129.1190655232755
 30
0.0
 10
76.68609054357484
 20
-129.0873860788391
 30
0.0
 10
76.68609054357484
 20
-129.0550010788471
 30
0.0
 10
76.68609054357484
 20
-129.0233216344107
 30
0.0
 10
76.67370804389074
 20
-128.991254134419
 30
0.0
 10
76.6502836000439
 20
-128.9688880233131
 30
0.0
 10
76.6282349894953
 20
-128.9468394122075
 30
0.0
 10
76.59616942529526
 20
-128.9337160788779
 30
0.0
 10
76.56448804667718
 20
-128.9337160788779
 30
0.0
 10
76.53280860304095
 20
-128.9337160788779
 30
0.0
 10
76.50042360386715
 20
-128.9468394122075
 30
0.0
 10
76.47802221554977
 20
-128.9688880233131
 30
0.0
 10
76.45526804946361
 20
-128.991254134419
 30
0.0
 10
76.44288554977952
 20
-129.0233216344107
 30
0.0
 10
76.44288554977952
 20
-129.0550010788471
 30
0.0
  0
HATCH
  5
167
330
1F
100
AcDbEntity
  8
_U+30EC_U+30A4_U+30E4_U+30FC 1
 62
     7
420
 16777215
100
AcDbHatch
 10
0.0
 20
0.0
 30
0.0
210
0.0
220
0.0
230
1.0
  2
SOLID
 70
     1
 71
     0
 91
        1
 92
        1
 93
        1
 72
     4
 94
        3
 73
     0
 74
     1
 95
       29
 96
       25
 40
0.0
 40
0.0
 40
0.0
 40
0.0
 40
1.0
 40
1.0
 40
1.0
 40
2.0
 40
2.0
 40
2.0
 40
3.0
 40
3.0
 40
3.0
 40
4.0
 40
4.0
 40
4.0
 40
5.0
 40
5.0
 40
5.0
 40
6.0
 40
6.0
 40
6.0
 40
7.0
 40
7.0
 40
7.0
 40
8.0
 40
8.0
 40
8.0
 40
8.0
 10
76.44288554977952
 20
-129.0550010788471
 10
76.44288554977952
 20
-129.0873860788391
 10
76.45526804946361
 20
-129.1190655232755
 10
76.47802221554977
 20
-129.1414669121589
 10
76.50042360386715
 20
-129.1638683010422
 10
76.53280860304095
 20
-129.1776619121499
 10
76.56448804667718
 20
-129.1776619121499
 10
76.59616942529526
 20
-129.1776619121499
 10
76.6282349894953
 20
-129.1638683010422
 10
76.6502836000439
 20
-129.1414669121589
 10
76.67370804389074
 20
-129.1190655232755
 10
76.68609054357484
 20
-129.0873860788391
 10
76.68609054357484
 20
-129.0550010788471
 10
76.68609054357484
 20
-129.0233216344107
 10
76.67370804389074
 20
-128.991254134419
 10
76.6502836000439
 20
-128.9688880233131
 10
76.6282349894953
 20
-128.9468394122075
 10
76.59616942529526
 20
-128.9337160788779
 10
76.56448804667718
 20
-128.9337160788779
 10
76.53280860304095
 20
-128.9337160788779
 10
76.50042360386715
 20
-128.9468394122075
 10
76.47802221554977
 20
-128.9688880233131
 10
76.45526804946361
 20
-128.991254134419
 10
76.44288554977952
 20
-129.0233216344107
 10
76.44288554977952
 20
-129.0550010788471
 97
        0
 97
        0
 75
     2
 76
     1
 98
        0
  0
SPLINE
  5
168
330
1F
100
AcDbEntity
  8
_U+30EC_U+30A4_U+30E4_U+30FC 1
370
     0
100
AcDbSpline
210
0.0
220
0.0
230
1.0
 70
    11
 71
     3
 72
    29
 73
    25
 74
     0
 42
0.0000000001
 43
0.0000000001
 12
1.0
 22
0.0
 32
0.0
 13
1.0
 23
0.0
 33
0.0
 40
0.0
 40
0.0
 40
0.0
 40
0.0
 40
1.0
 40
1.0
 40
1.0
 40
2.0
 40
2.0
 40
2.0
 40
3.0
 40
3.0
 40
3.0
 40
4.0
 40
4.0
 40
4.0
 40
5.0
 40
5.0
 40
5.0
 40
6.0
 40
6.0
 40
6.0
 40
7.0
 40
7.0
 40
7.0
 40
8.0
 40
8.0
 40
8.0
 40
8.0
 10
99.87882995187876
 20
-145.5955869080456
 30
0.0
 10
99.87882995187876
 20
-145.6276191302598
 30
0.0
 10
99.8922707848692
 20
-145.6586282969189
 30
0.0
 10
99.91467217318657
 20
-145.6810296858023
 30
0.0
 10
99.93809661703341
 20
-145.7048069080185
 30
0.0
 10
99.9691083083412
 20
-145.7175421857929
 30
0.0
 10
100.001138004314
 20
-145.7175421857929
 30
0.0
 10
100.0335230034878
 20
-145.7175421857929
 30
0.0
 10
100.065202447124
 20
-145.7048069080185
 30
0.0
 10
100.0876038354414
 20
-145.6810296858023
 30
0.0
 10
100.1100052237588
 20
-145.6586282969189
 30
0.0
 10
100.1237635567411
 20
-145.6276191302598
 30
0.0
 10
100.1237635567411
 20
-145.5955869080456
 30
0.0
 10
100.1237635567411
 20
-145.5639074636092
 30
0.0
 10
100.1100052237588
 20
-145.5315224636173
 30
0.0
 10
100.0876038354414
 20
-145.5087682969561
 30
0.0
 10
100.065202447124
 20
-145.4860494080732
 30
0.0
 10
100.0335230034878
 20
-145.4729613525204
 30
0.0
 10
100.001138004314
 20
-145.4729613525204
 30
0.0
 10
99.9691083083412
 20
-145.4729613525204
 30
0.0
 10
99.93809661703341
 20
-145.4860494080732
 30
0.0
 10
99.91467217318657
 20
-145.5087682969561
 30
0.0
 10
99.8922707848692
 20
-145.5315224636173
 30
0.0
 10
99.87882995187876
 20
-145.5639074636092
 30
0.0
 10
99.87882995187876
 20
-145.5955869080456
 30
0.0
  0
HATCH
  5
169
330
1F
100
AcDbEntity
  8
_U+30EC_U+30A4_U+30E4_U+30FC 1
 62
     7
420
 16777215
100
AcDbHatch
 10
0.0
 20
0.0
 30
0.0
210
0.0
220
0.0
230
1.0
  2
SOLID
 70
     1
 71
     0
 91
        1
 92
        1
 93
        1
 72
     4
 94
        3
 73
     0
 74
     1
 95
       29
 96
       25
 40
0.0
 40
0.0
 40
0.0
 40
0.0
 40
1.0
 40
1.0
 40
1.0
 40
2.0
 40
2.0
 40
2.0
 40
3.0
 40
3.0
 40
3.0
 40
4.0
 40
4.0
 40
4.0
 40
5.0
 40
5.0
 40
5.0
 40
6.0
 40
6.0
 40
6.0
 40
7.0
 40
7.0
 40
7.0
 40
8.0
 40
8.0
 40
8.0
 40
8.0
 10
99.87882995187876
 20
-145.5955869080456
 10
99.87882995187876
 20
-145.6276191302598
 10
99.8922707848692
 20
-145.6586282969189
 10
99.91467217318657
 20
-145.6810296858023
 10
99.93809661703341
 20
-145.7048069080185
 10
99.9691083083412
 20
-145.7175421857929
 10
100.001138004314
 20
-145.7175421857929
 10
100.0335230034878
 20
-145.7175421857929
 10
100.065202447124
 20
-145.7048069080185
 10
100.0876038354414
 20
-145.6810296858023
 10
100.1100052237588
 20
-145.6586282969189
 10
100.1237635567411
 20
-145.6276191302598
 10
100.1237635567411
 20
-145.5955869080456
 10
100.1237635567411
 20
-145.5639074636092
 10
100.1100052237588
 20
-145.5315224636173
 10
100.0876038354414
 20
-145.5087682969561
 10
100.065202447124
 20
-145.4860494080732
 10
100.0335230034878
 20
-145.4729613525204
 10
100.001138004314
 20
-145.4729613525204
 10
99.9691083083412
 20
-145.4729613525204
 10
99.93809661703341
 20
-145.4860494080732
 10
99.91467217318657
 20
-145.5087682969561
 10
99.8922707848692
 20
-145.5315224636173
 10
99.87882995187876
 20
-145.5639074636092
 10
99.87882995187876
 20
-145.5955869080456
 97
        0
 97
        0
 75
     2
 76
     1
 98
        0
  0
SPLINE
  5
16A
330
1F
100
AcDbEntity
  8
_U+30EC_U+30A4_U+30E4_U+30FC 1
370
     0
100
AcDbSpline
210
0.0
220
0.0
230
1.0
 70
    11
 71
     3
 72
    29
 73
    25
 74
     0
 42
0.0000000001
 43
0.0000000001
 12
1.0
 22
0.0
 32
0.0
 13
1.0
 23
0.0
 33
0.0
 40
0.0
 40
0.0
 40
0.0
 40
0.0
 40
1.0
 40
1.0
 40
1.0
 40
2.0
 40
2.0
 40
2.0
 40
3.0
 40
3.0
 40
3.0
 40
4.0
 40
4.0
 40
4.0
 40
5.0
 40
5.0
 40
5.0
 40
6.0
 40
6.0
 40
6.0
 40
7.0
 40
7.0
 40
7.0
 40
8.0
 40
8.0
 40
8.0
 40
8.0
 10
93.46578872660018
 20
-145.5949166302676
 30
0.0
 10
93.46578872660018
 20
-145.6276191302598
 30
0.0
 10
93.47922955959062
 20
-145.6586282969189
 30
0.0
 10
93.50194844789989
 20
-145.6810296858023
 30
0.0
 10
93.52470261398605
 20
-145.7048069080185
 30
0.0
 10
93.55571177986161
 20
-145.7175421857929
 30
0.0
 10
93.58841664326988
 20
-145.7175421857929
 30
0.0
 10
93.62012900044041
 20
-145.7175421857929
 30
0.0
 10
93.65180844407665
 20
-145.7048069080185
 30
0.0
 10
93.67456261016281
 20
-145.6810296858023
 30
0.0
 10
93.6972814984721
 20
-145.6586282969189
 30
0.0
 10
93.71036955369374
 20
-145.6276191302598
 30
0.0
 10
93.71036955369374
 20
-145.5949166302676
 30
0.0
 10
93.71036955369374
 20
-145.5639074636092
 30
0.0
 10
93.6972814984721
 20
-145.5315224636173
 30
0.0
 10
93.67456261016281
 20
-145.5087682969561
 30
0.0
 10
93.65180844407665
 20
-145.4860494080732
 30
0.0
 10
93.62012900044041
 20
-145.4729613525204
 30
0.0
 10
93.58841664326988
 20
-145.4729613525204
 30
0.0
 10
93.55571177986161
 20
-145.4729613525204
 30
0.0
 10
93.52470261398605
 20
-145.4860494080732
 30
0.0
 10
93.50194844789989
 20
-145.5087682969561
 30
0.0
 10
93.47922955959062
 20
-145.5315224636173
 30
0.0
 10
93.46578872660018
 20
-145.5639074636092
 30
0.0
 10
93.46578872660018
 20
-145.5949166302676
 30
0.0
  0
HATCH
  5
16B
330
1F
100
AcDbEntity
  8
_U+30EC_U+30A4_U+30E4_U+30FC 1
 62
     7
420
 16777215
100
AcDbHatch
 10
0.0
 20
0.0
 30
0.0
210
0.0
220
0.0
230
1.0
  2
SOLID
 70
     1
 71
     0
 91
        1
 92
        1
 93
        1
 72
     4
 94
        3
 73
     0
 74
     1
 95
       29
 96
       25
 40
0.0
 40
0.0
 40
0.0
 40
0.0
 40
1.0
 40
1.0
 40
1.0
 40
2.0
 40
2.0
 40
2.0
 40
3.0
 40
3.0
 40
3.0
 40
4.0
 40
4.0
 40
4.0
 40
5.0
 40
5.0
 40
5.0
 40
6.0
 40
6.0
 40
6.0
 40
7.0
 40
7.0
 40
7.0
 40
8.0
 40
8.0
 40
8.0
 40
8.0
 10
93.46578872660018
 20
-145.5949166302676
 10
93.46578872660018
 20
-145.6276191302598
 10
93.47922955959062
 20
-145.6586282969189
 10
93.50194844789989
 20
-145.6810296858023
 10
93.52470261398605
 20
-145.7048069080185
 10
93.55571177986161
 20
-145.7175421857929
 10
93.58841664326988
 20
-145.7175421857929
 10
93.62012900044041
 20
-145.7175421857929
 10
93.65180844407665
 20
-145.7048069080185
 10
93.67456261016281
 20
-145.6810296858023
 10
93.6972814984721
 20
-145.6586282969189
 10
93.71036955369374
 20
-145.6276191302598
 10
93.71036955369374
 20
-145.5949166302676
 10
93.71036955369374
 20
-145.5639074636092
 10
93.6972814984721
 20
-145.5315224636173
 10
93.67456261016281
 20
-145.5087682969561
 10
93.65180844407665
 20
-145.4860494080732
 10
93.62012900044041
 20
-145.4729613525204
 10
93.58841664326988
 20
-145.4729613525204
 10
93.55571177986161
 20
-145.4729613525204
 10
93.52470261398605
 20
-145.4860494080732
 10
93.50194844789989
 20
-145.5087682969561
 10
93.47922955959062
 20
-145.5315224636173
 10
93.46578872660018
 20
-145.5639074636092
 10
93.46578872660018
 20
-145.5949166302676
 97
        0
 97
        0
 75
     2
 76
     1
 98
        0
  0
SPLINE
  5
16C
330
1F
100
AcDbEntity
  8
_U+30EC_U+30A4_U+30E4_U+30FC 1
370
     0
100
AcDbSpline
210
0.0
220
0.0
230
1.0
 70
    11
 71
     3
 72
    29
 73
    25
 74
     0
 42
0.0000000001
 43
0.0000000001
 12
1.0
 22
0.0
 32
0.0
 13
1.0
 23
0.0
 33
0.0
 40
0.0
 40
0.0
 40
0.0
 40
0.0
 40
1.0
 40
1.0
 40
1.0
 40
2.0
 40
2.0
 40
2.0
 40
3.0
 40
3.0
 40
3.0
 40
4.0
 40
4.0
 40
4.0
 40
5.0
 40
5.0
 40
5.0
 40
6.0
 40
6.0
 40
6.0
 40
7.0
 40
7.0
 40
7.0
 40
8.0
 40
8.0
 40
8.0
 40
8.0
 10
92.18315931487834
 20
-145.5955869080456
 30
0.0
 10
92.18315931487834
 20
-145.6269488524825
 30
0.0
 10
92.19660014786878
 20
-145.6586282969189
 30
0.0
 10
92.2197070917237
 20
-145.6810296858023
 30
0.0
 10
92.24207320226421
 20
-145.7048069080185
 30
0.0
 10
92.27308236813977
 20
-145.7175421857929
 30
0.0
 10
92.30546736731355
 20
-145.7175421857929
 30
0.0
 10
92.33749958871857
 20
-145.7175421857929
 30
0.0
 10
92.36921664357463
 20
-145.7048069080185
 30
0.0
 10
92.39161569844907
 20
-145.6810296858023
 30
0.0
 10
92.41468736452713
 20
-145.6586282969189
 30
0.0
 10
92.4281305324486
 20
-145.6269488524825
 30
0.0
 10
92.4281305324486
 20
-145.5955869080456
 30
0.0
 10
92.4281305324486
 20
-145.5628491302759
 30
0.0
 10
92.41468736452713
 20
-145.5315224636173
 30
0.0
 10
92.39161569844907
 20
-145.5087682969561
 30
0.0
 10
92.36921664357463
 20
-145.4860494080732
 30
0.0
 10
92.33749958871857
 20
-145.4729613525204
 30
0.0
 10
92.30546736731355
 20
-145.4729613525204
 30
0.0
 10
92.27308236813977
 20
-145.4729613525204
 30
0.0
 10
92.24207320226421
 20
-145.4860494080732
 30
0.0
 10
92.2197070917237
 20
-145.5087682969561
 30
0.0
 10
92.19660014786878
 20
-145.5315224636173
 30
0.0
 10
92.18315931487834
 20
-145.5628491302759
 30
0.0
 10
92.18315931487834
 20
-145.5955869080456
 30
0.0
  0
HATCH
  5
16D
330
1F
100
AcDbEntity
  8
_U+30EC_U+30A4_U+30E4_U+30FC 1
 62
     7
420
 16777215
100
AcDbHatch
 10
0.0
 20
0.0
 30
0.0
210
0.0
220
0.0
230
1.0
  2
SOLID
 70
     1
 71
     0
 91
        1
 92
        1
 93
        1
 72
     4
 94
        3
 73
     0
 74
     1
 95
       29
 96
       25
 40
0.0
 40
0.0
 40
0.0
 40
0.0
 40
1.0
 40
1.0
 40
1.0
 40
2.0
 40
2.0
 40
2.0
 40
3.0
 40
3.0
 40
3.0
 40
4.0
 40
4.0
 40
4.0
 40
5.0
 40
5.0
 40
5.0
 40
6.0
 40
6.0
 40
6.0
 40
7.0
 40
7.0
 40
7.0
 40
8.0
 40
8.0
 40
8.0
 40
8.0
 10
92.18315931487834
 20
-145.5955869080456
 10
92.18315931487834
 20
-145.6269488524825
 10
92.19660014786878
 20
-145.6586282969189
 10
92.2197070917237
 20
-145.6810296858023
 10
92.24207320226421
 20
-145.7048069080185
 10
92.27308236813977
 20
-145.7175421857929
 10
92.30546736731355
 20
-145.7175421857929
 10
92.33749958871857
 20
-145.7175421857929
 10
92.36921664357463
 20
-145.7048069080185
 10
92.39161569844907
 20
-145.6810296858023
 10
92.41468736452713
 20
-145.6586282969189
 10
92.4281305324486
 20
-145.6269488524825
 10
92.4281305324486
 20
-145.5955869080456
 10
92.4281305324486
 20
-145.5628491302759
 10
92.41468736452713
 20
-145.5315224636173
 10
92.39161569844907
 20
-145.5087682969561
 10
92.36921664357463
 20
-145.4860494080732
 10
92.33749958871857
 20
-145.4729613525204
 10
92.30546736731355
 20
-145.4729613525204
 10
92.27308236813977
 20
-145.4729613525204
 10
92.24207320226421
 20
-145.4860494080732
 10
92.2197070917237
 20
-145.5087682969561
 10
92.19660014786878
 20
-145.5315224636173
 10
92.18315931487834
 20
-145.5628491302759
 10
92.18315931487834
 20
-145.5955869080456
 97
        0
 97
        0
 75
     2
 76
     1
 98
        0
  0
SPLINE
  5
16E
330
1F
100
AcDbEntity
  8
_U+30EC_U+30A4_U+30E4_U+30FC 1
370
     0
100
AcDbSpline
210
0.0
220
0.0
230
1.0
 70
    11
 71
     3
 72
    29
 73
    25
 74
     0
 42
0.0000000001
 43
0.0000000001
 12
1.0
 22
0.0
 32
0.0
 13
1.0
 23
0.0
 33
0.0
 40
0.0
 40
0.0
 40
0.0
 40
0.0
 40
1.0
 40
1.0
 40
1.0
 40
2.0
 40
2.0
 40
2.0
 40
3.0
 40
3.0
 40
3.0
 40
4.0
 40
4.0
 40
4.0
 40
5.0
 40
5.0
 40
5.0
 40
6.0
 40
6.0
 40
6.0
 40
7.0
 40
7.0
 40
7.0
 40
8.0
 40
8.0
 40
8.0
 40
8.0
 10
81.92332346551746
 20
-145.5955869080456
 30
0.0
 10
81.92332346551746
 20
-145.6273016302596
 30
0.0
 10
81.93676429850788
 20
-145.6586282969189
 30
0.0
 10
81.95916568682526
 20
-145.6810296858023
 30
0.0
 10
81.98156707514265
 20
-145.7048069080185
 30
0.0
 10
82.0128937410101
 20
-145.7175421857929
 30
0.0
 10
82.04527874018389
 20
-145.7175421857929
 30
0.0
 10
82.07734623936578
 20
-145.7175421857929
 30
0.0
 10
82.10902775725053
 20
-145.7048069080185
 30
0.0
 10
82.1314270713194
 20
-145.6810296858023
 30
0.0
 10
82.15449873739746
 20
-145.6586282969189
 30
0.0
 10
82.16829442390225
 20
-145.6273016302596
 30
0.0
 10
82.16829442390225
 20
-145.5955869080456
 30
0.0
 10
82.16829442390225
 20
-145.5628491302759
 30
0.0
 10
82.15449873739746
 20
-145.5315224636173
 30
0.0
 10
82.1314270713194
 20
-145.5087682969561
 30
0.0
 10
82.10902775725053
 20
-145.4860494080732
 30
0.0
 10
82.07734623936578
 20
-145.4729613525204
 30
0.0
 10
82.04527874018389
 20
-145.4729613525204
 30
0.0
 10
82.0128937410101
 20
-145.4729613525204
 30
0.0
 10
81.98156707514265
 20
-145.4860494080732
 30
0.0
 10
81.95916568682526
 20
-145.5087682969561
 30
0.0
 10
81.93676429850788
 20
-145.5315224636173
 30
0.0
 10
81.92332346551746
 20
-145.5628491302759
 30
0.0
 10
81.92332346551746
 20
-145.5955869080456
 30
0.0
  0
HATCH
  5
16F
330
1F
100
AcDbEntity
  8
_U+30EC_U+30A4_U+30E4_U+30FC 1
 62
     7
420
 16777215
100
AcDbHatch
 10
0.0
 20
0.0
 30
0.0
210
0.0
220
0.0
230
1.0
  2
SOLID
 70
     1
 71
     0
 91
        1
 92
        1
 93
        1
 72
     4
 94
        3
 73
     0
 74
     1
 95
       29
 96
       25
 40
0.0
 40
0.0
 40
0.0
 40
0.0
 40
1.0
 40
1.0
 40
1.0
 40
2.0
 40
2.0
 40
2.0
 40
3.0
 40
3.0
 40
3.0
 40
4.0
 40
4.0
 40
4.0
 40
5.0
 40
5.0
 40
5.0
 40
6.0
 40
6.0
 40
6.0
 40
7.0
 40
7.0
 40
7.0
 40
8.0
 40
8.0
 40
8.0
 40
8.0
 10
81.92332346551746
 20
-145.5955869080456
 10
81.92332346551746
 20
-145.6273016302596
 10
81.93676429850788
 20
-145.6586282969189
 10
81.95916568682526
 20
-145.6810296858023
 10
81.98156707514265
 20
-145.7048069080185
 10
82.0128937410101
 20
-145.7175421857929
 10
82.04527874018389
 20
-145.7175421857929
 10
82.07734623936578
 20
-145.7175421857929
 10
82.10902775725053
 20
-145.7048069080185
 10
82.1314270713194
 20
-145.6810296858023
 10
82.15449873739746
 20
-145.6586282969189
 10
82.16829442390225
 20
-145.6273016302596
 10
82.16829442390225
 20
-145.5955869080456
 10
82.16829442390225
 20
-145.5628491302759
 10
82.15449873739746
 20
-145.5315224636173
 10
82.1314270713194
 20
-145.5087682969561
 10
82.10902775725053
 20
-145.4860494080732
 10
82.07734623936578
 20
-145.4729613525204
 10
82.04527874018389
 20
-145.4729613525204
 10
82.0128937410101
 20
-145.4729613525204
 10
81.98156707514265
 20
-145.4860494080732
 10
81.95916568682526
 20
-145.5087682969561
 10
81.93676429850788
 20
-145.5315224636173
 10
81.92332346551746
 20
-145.5628491302759
 10
81.92332346551746
 20
-145.5955869080456
 97
        0
 97
        0
 75
     2
 76
     1
 98
        0
  0
SPLINE
  5
170
330
1F
100
AcDbEntity
  8
_U+30EC_U+30A4_U+30E4_U+30FC 1
370
     0
100
AcDbSpline
210
0.0
220
0.0
230
1.0
 70
    11
 71
     3
 72
    29
 73
    25
 74
     0
 42
0.0000000001
 43
0.0000000001
 12
1.0
 22
0.0
 32
0.0
 13
1.0
 23
0.0
 33
0.0
 40
0.0
 40
0.0
 40
0.0
 40
0.0
 40
1.0
 40
1.0
 40
1.0
 40
2.0
 40
2.0
 40
2.0
 40
3.0
 40
3.0
 40
3.0
 40
4.0
 40
4.0
 40
4.0
 40
5.0
 40
5.0
 40
5.0
 40
6.0
 40
6.0
 40
6.0
 40
7.0
 40
7.0
 40
7.0
 40
8.0
 40
8.0
 40
8.0
 40
8.0
 10
111.7361493715956
 20
-135.9806638548938
 30
0.0
 10
111.7361493715956
 20
-136.0134016326636
 30
0.0
 10
111.7492374268172
 20
-136.0450810771
 30
0.0
 10
111.7719944165017
 20
-136.0674824659833
 30
0.0
 10
111.7947104812127
 20
-136.0902366326438
 30
0.0
 10
111.8264252026258
 20
-136.1033246881966
 30
0.0
 10
111.858104646262
 20
-136.1033246881966
 30
0.0
 10
111.890136867667
 20
-136.1033246881966
 30
0.0
 10
111.9222043668489
 20
-136.0902366326438
 30
0.0
 10
111.9445704773894
 20
-136.0674824659833
 30
0.0
 10
111.9673246434756
 20
-136.0450810771
 30
0.0
 10
111.9804126986972
 20
-136.0134016326636
 30
0.0
 10
111.9804126986972
 20
-135.9806638548938
 30
0.0
 10
111.9804126986972
 20
-135.9489844104574
 30
0.0
 10
111.9673246434756
 20
-135.9172696882428
 30
0.0
 10
111.9445704773894
 20
-135.8952210771372
 30
0.0
 10
111.9222043668489
 20
-135.872854966032
 30
0.0
 10
111.890136867667
 20
-135.8590613549244
 30
0.0
 10
111.858104646262
 20
-135.8590613549244
 30
0.0
 10
111.8264252026258
 20
-135.8590613549244
 30
0.0
 10
111.7947104812127
 20
-135.872854966032
 30
0.0
 10
111.7719944165017
 20
-135.8952210771372
 30
0.0
 10
111.7492374268172
 20
-135.9172696882428
 30
0.0
 10
111.7361493715956
 20
-135.9489844104574
 30
0.0
 10
111.7361493715956
 20
-135.9806638548938
 30
0.0
  0
HATCH
  5
171
330
1F
100
AcDbEntity
  8
_U+30EC_U+30A4_U+30E4_U+30FC 1
 62
     7
420
 16777215
100
AcDbHatch
 10
0.0
 20
0.0
 30
0.0
210
0.0
220
0.0
230
1.0
  2
SOLID
 70
     1
 71
     0
 91
        1
 92
        1
 93
        1
 72
     4
 94
        3
 73
     0
 74
     1
 95
       29
 96
       25
 40
0.0
 40
0.0
 40
0.0
 40
0.0
 40
1.0
 40
1.0
 40
1.0
 40
2.0
 40
2.0
 40
2.0
 40
3.0
 40
3.0
 40
3.0
 40
4.0
 40
4.0
 40
4.0
 40
5.0
 40
5.0
 40
5.0
 40
6.0
 40
6.0
 40
6.0
 40
7.0
 40
7.0
 40
7.0
 40
8.0
 40
8.0
 40
8.0
 40
8.0
 10
111.7361493715956
 20
-135.9806638548938
 10
111.7361493715956
 20
-136.0134016326636
 10
111.7492374268172
 20
-136.0450810771
 10
111.7719944165017
 20
-136.0674824659833
 10
111.7947104812127
 20
-136.0902366326438
 10
111.8264252026258
 20
-136.1033246881966
 10
111.858104646262
 20
-136.1033246881966
 10
111.890136867667
 20
-136.1033246881966
 10
111.9222043668489
 20
-136.0902366326438
 10
111.9445704773894
 20
-136.0674824659833
 10
111.9673246434756
 20
-136.0450810771
 10
111.9804126986972
 20
-136.0134016326636
 10
111.9804126986972
 20
-135.9806638548938
 10
111.9804126986972
 20
-135.9489844104574
 10
111.9673246434756
 20
-135.9172696882428
 10
111.9445704773894
 20
-135.8952210771372
 10
111.9222043668489
 20
-135.872854966032
 10
111.890136867667
 20
-135.8590613549244
 10
111.858104646262
 20
-135.8590613549244
 10
111.8264252026258
 20
-135.8590613549244
 10
111.7947104812127
 20
-135.872854966032
 10
111.7719944165017
 20
-135.8952210771372
 10
111.7492374268172
 20
-135.9172696882428
 10
111.7361493715956
 20
-135.9489844104574
 10
111.7361493715956
 20
-135.9806638548938
 97
        0
 97
        0
 75
     2
 76
     1
 98
        0
  0
SPLINE
  5
172
330
1F
100
AcDbEntity
  8
_U+30EC_U+30A4_U+30E4_U+30FC 1
370
     0
100
AcDbSpline
210
0.0
220
0.0
230
1.0
 70
    11
 71
     3
 72
    29
 73
    25
 74
     0
 42
0.0000000001
 43
0.0000000001
 12
1.0
 22
0.0
 32
0.0
 13
1.0
 23
0.0
 33
0.0
 40
0.0
 40
0.0
 40
0.0
 40
0.0
 40
1.0
 40
1.0
 40
1.0
 40
2.0
 40
2.0
 40
2.0
 40
3.0
 40
3.0
 40
3.0
 40
4.0
 40
4.0
 40
4.0
 40
5.0
 40
5.0
 40
5.0
 40
6.0
 40
6.0
 40
6.0
 40
7.0
 40
7.0
 40
7.0
 40
8.0
 40
8.0
 40
8.0
 40
8.0
 10
111.7361493715956
 20
-129.5686808009414
 30
0.0
 10
111.7361493715956
 20
-129.6003602453778
 30
0.0
 10
111.7492374268172
 20
-129.6327452453698
 30
0.0
 10
111.7719944165017
 20
-129.6551466342531
 30
0.0
 10
111.7947104812127
 20
-129.6775127453583
 30
0.0
 10
111.8264252026258
 20
-129.6909535786882
 30
0.0
 10
111.858104646262
 20
-129.6909535786882
 30
0.0
 10
111.890136867667
 20
-129.6909535786882
 30
0.0
 10
111.9218515890801
 20
-129.6775127453583
 30
0.0
 10
111.9445704773894
 20
-129.6551466342531
 30
0.0
 10
111.9673246434756
 20
-129.6327452453698
 30
0.0
 10
111.9804126986972
 20
-129.6003602453778
 30
0.0
 10
111.9804126986972
 20
-129.5686808009414
 30
0.0
 10
111.9804126986972
 20
-129.5369660787268
 30
0.0
 10
111.9673246434756
 20
-129.5052866342903
 30
0.0
 10
111.9445704773894
 20
-129.4821796898514
 30
0.0
 10
111.9218515890801
 20
-129.4594608009685
 30
0.0
 10
111.890136867667
 20
-129.446690245416
 30
0.0
 10
111.858104646262
 20
-129.446690245416
 30
0.0
 10
111.8264252026258
 20
-129.446690245416
 30
0.0
 10
111.7947104812127
 20
-129.4594608009685
 30
0.0
 10
111.7719944165017
 20
-129.4821796898514
 30
0.0
 10
111.7492374268172
 20
-129.5052866342903
 30
0.0
 10
111.7361493715956
 20
-129.5369660787268
 30
0.0
 10
111.7361493715956
 20
-129.5686808009414
 30
0.0
  0
HATCH
  5
173
330
1F
100
AcDbEntity
  8
_U+30EC_U+30A4_U+30E4_U+30FC 1
 62
     7
420
 16777215
100
AcDbHatch
 10
0.0
 20
0.0
 30
0.0
210
0.0
220
0.0
230
1.0
  2
SOLID
 70
     1
 71
     0
 91
        1
 92
        1
 93
        1
 72
     4
 94
        3
 73
     0
 74
     1
 95
       29
 96
       25
 40
0.0
 40
0.0
 40
0.0
 40
0.0
 40
1.0
 40
1.0
 40
1.0
 40
2.0
 40
2.0
 40
2.0
 40
3.0
 40
3.0
 40
3.0
 40
4.0
 40
4.0
 40
4.0
 40
5.0
 40
5.0
 40
5.0
 40
6.0
 40
6.0
 40
6.0
 40
7.0
 40
7.0
 40
7.0
 40
8.0
 40
8.0
 40
8.0
 40
8.0
 10
111.7361493715956
 20
-129.5686808009414
 10
111.7361493715956
 20
-129.6003602453778
 10
111.7492374268172
 20
-129.6327452453698
 10
111.7719944165017
 20
-129.6551466342531
 10
111.7947104812127
 20
-129.6775127453583
 10
111.8264252026258
 20
-129.6909535786882
 10
111.858104646262
 20
-129.6909535786882
 10
111.890136867667
 20
-129.6909535786882
 10
111.9218515890801
 20
-129.6775127453583
 10
111.9445704773894
 20
-129.6551466342531
 10
111.9673246434756
 20
-129.6327452453698
 10
111.9804126986972
 20
-129.6003602453778
 10
111.9804126986972
 20
-129.5686808009414
 10
111.9804126986972
 20
-129.5369660787268
 10
111.9673246434756
 20
-129.5052866342903
 10
111.9445704773894
 20
-129.4821796898514
 10
111.9218515890801
 20
-129.4594608009685
 10
111.890136867667
 20
-129.446690245416
 10
111.858104646262
 20
-129.446690245416
 10
111.8264252026258
 20
-129.446690245416
 10
111.7947104812127
 20
-129.4594608009685
 10
111.7719944165017
 20
-129.4821796898514
 10
111.7492374268172
 20
-129.5052866342903
 10
111.7361493715956
 20
-129.5369660787268
 10
111.7361493715956
 20
-129.5686808009414
 97
        0
 97
        0
 75
     2
 76
     1
 98
        0
  0
SPLINE
  5
174
330
1F
100
AcDbEntity
  8
_U+30EC_U+30A4_U+30E4_U+30FC 1
370
     0
100
AcDbSpline
210
0.0
220
0.0
230
1.0
 70
    11
 71
     3
 72
    29
 73
    25
 74
     0
 42
0.0000000001
 43
0.0000000001
 12
1.0
 22
0.0
 32
0.0
 13
1.0
 23
0.0
 33
0.0
 40
0.0
 40
0.0
 40
0.0
 40
0.0
 40
1.0
 40
1.0
 40
1.0
 40
2.0
 40
2.0
 40
2.0
 40
3.0
 40
3.0
 40
3.0
 40
4.0
 40
4.0
 40
4.0
 40
5.0
 40
5.0
 40
5.0
 40
6.0
 40
6.0
 40
6.0
 40
7.0
 40
7.0
 40
7.0
 40
8.0
 40
8.0
 40
8.0
 40
8.0
 10
111.7361493715956
 20
-128.2860513568172
 30
0.0
 10
111.7361493715956
 20
-128.3177660790315
 30
0.0
 10
111.749590204586
 20
-128.349798301246
 30
0.0
 10
111.7712888609462
 20
-128.3718469123516
 30
0.0
 10
111.7947104812127
 20
-128.3945658012346
 30
0.0
 10
111.8264252026258
 20
-128.4076538567871
 30
0.0
 10
111.858104646262
 20
-128.4076538567871
 30
0.0
 10
111.890136867667
 20
-128.4076538567871
 30
0.0
 10
111.9222043668489
 20
-128.3945658012346
 30
0.0
 10
111.9449232551582
 20
-128.3718469123516
 30
0.0
 10
111.9673246434756
 20
-128.349798301246
 30
0.0
 10
111.9804126986972
 20
-128.3177660790315
 30
0.0
 10
111.9804126986972
 20
-128.2860513568172
 30
0.0
 10
111.9804126986972
 20
-128.2540191346031
 30
0.0
 10
111.9673246434756
 20
-128.2219869123889
 30
0.0
 10
111.9449232551582
 20
-128.1995855235058
 30
0.0
 10
111.9222043668489
 20
-128.1765138568448
 30
0.0
 10
111.890136867667
 20
-128.1634258012923
 30
0.0
 10
111.858104646262
 20
-128.1634258012923
 30
0.0
 10
111.8264252026258
 20
-128.1634258012923
 30
0.0
 10
111.7947104812127
 20
-128.1765138568448
 30
0.0
 10
111.7712888609462
 20
-128.1995855235058
 30
0.0
 10
111.749590204586
 20
-128.2219869123889
 30
0.0
 10
111.7361493715956
 20
-128.2540191346031
 30
0.0
 10
111.7361493715956
 20
-128.2860513568172
 30
0.0
  0
HATCH
  5
175
330
1F
100
AcDbEntity
  8
_U+30EC_U+30A4_U+30E4_U+30FC 1
 62
     7
420
 16777215
100
AcDbHatch
 10
0.0
 20
0.0
 30
0.0
210
0.0
220
0.0
230
1.0
  2
SOLID
 70
     1
 71
     0
 91
        1
 92
        1
 93
        1
 72
     4
 94
        3
 73
     0
 74
     1
 95
       29
 96
       25
 40
0.0
 40
0.0
 40
0.0
 40
0.0
 40
1.0
 40
1.0
 40
1.0
 40
2.0
 40
2.0
 40
2.0
 40
3.0
 40
3.0
 40
3.0
 40
4.0
 40
4.0
 40
4.0
 40
5.0
 40
5.0
 40
5.0
 40
6.0
 40
6.0
 40
6.0
 40
7.0
 40
7.0
 40
7.0
 40
8.0
 40
8.0
 40
8.0
 40
8.0
 10
111.7361493715956
 20
-128.2860513568172
 10
111.7361493715956
 20
-128.3177660790315
 10
111.749590204586
 20
-128.349798301246
 10
111.7712888609462
 20
-128.3718469123516
 10
111.7947104812127
 20
-128.3945658012346
 10
111.8264252026258
 20
-128.4076538567871
 10
111.858104646262
 20
-128.4076538567871
 10
111.890136867667
 20
-128.4076538567871
 10
111.9222043668489
 20
-128.3945658012346
 10
111.9449232551582
 20
-128.3718469123516
 10
111.9673246434756
 20
-128.349798301246
 10
111.9804126986972
 20
-128.3177660790315
 10
111.9804126986972
 20
-128.2860513568172
 10
111.9804126986972
 20
-128.2540191346031
 10
111.9673246434756
 20
-128.2219869123889
 10
111.9449232551582
 20
-128.1995855235058
 10
111.9222043668489
 20
-128.1765138568448
 10
111.890136867667
 20
-128.1634258012923
 10
111.858104646262
 20
-128.1634258012923
 10
111.8264252026258
 20
-128.1634258012923
 10
111.7947104812127
 20
-128.1765138568448
 10
111.7712888609462
 20
-128.1995855235058
 10
111.749590204586
 20
-128.2219869123889
 10
111.7361493715956
 20
-128.2540191346031
 10
111.7361493715956
 20
-128.2860513568172
 97
        0
 97
        0
 75
     2
 76
     1
 98
        0
  0
SPLINE
  5
176
330
1F
100
AcDbEntity
  8
_U+30EC_U+30A4_U+30E4_U+30FC 1
370
     0
100
AcDbSpline
210
0.0
220
0.0
230
1.0
 70
    11
 71
     3
 72
    29
 73
    25
 74
     0
 42
0.0000000001
 43
0.0000000001
 12
1.0
 22
0.0
 32
0.0
 13
1.0
 23
0.0
 33
0.0
 40
0.0
 40
0.0
 40
0.0
 40
0.0
 40
1.0
 40
1.0
 40
1.0
 40
2.0
 40
2.0
 40
2.0
 40
3.0
 40
3.0
 40
3.0
 40
4.0
 40
4.0
 40
4.0
 40
5.0
 40
5.0
 40
5.0
 40
6.0
 40
6.0
 40
6.0
 40
7.0
 40
7.0
 40
7.0
 40
8.0
 40
8.0
 40
8.0
 40
8.0
 10
71.55737206330824
 20
-143.2494735752987
 30
0.0
 10
71.55737206330824
 20
-143.2811882975133
 30
0.0
 10
71.57049720432974
 20
-143.3128677419497
 30
0.0
 10
71.59356706238482
 20
-143.3352691308331
 30
0.0
 10
71.61596845070221
 20
-143.3573177419387
 30
0.0
 10
71.64729511656967
 20
-143.3714288530459
 30
0.0
 10
71.68003289351223
 20
-143.3714288530459
 30
0.0
 10
71.71171233714847
 20
-143.3714288530459
 30
0.0
 10
71.74342705856158
 20
-143.3573177419387
 30
0.0
 10
71.76614594687086
 20
-143.3352691308331
 30
0.0
 10
71.78890011295702
 20
-143.3128677419497
 30
0.0
 10
71.80198816817867
 20
-143.2811882975133
 30
0.0
 10
71.80198816817867
 20
-143.2494735752987
 30
0.0
 10
71.80198816817867
 20
-143.2167710753071
 30
0.0
 10
71.78890011295702
 20
-143.1854091308703
 30
0.0
 10
71.76614594687086
 20
-143.1623374642096
 30
0.0
 10
71.74342705856158
 20
-143.1399360753262
 30
0.0
 10
71.71171233714847
 20
-143.1264952419963
 30
0.0
 10
71.68003289351223
 20
-143.1264952419963
 30
0.0
 10
71.64729511656967
 20
-143.1264952419963
 30
0.0
 10
71.61596845070221
 20
-143.1399360753262
 30
0.0
 10
71.59356706238482
 20
-143.1623374642096
 30
0.0
 10
71.57049720432974
 20
-143.1854091308703
 30
0.0
 10
71.55737206330824
 20
-143.2167710753071
 30
0.0
 10
71.55737206330824
 20
-143.2494735752987
 30
0.0
  0
HATCH
  5
177
330
1F
100
AcDbEntity
  8
_U+30EC_U+30A4_U+30E4_U+30FC 1
 62
     7
420
 16777215
100
AcDbHatch
 10
0.0
 20
0.0
 30
0.0
210
0.0
220
0.0
230
1.0
  2
SOLID
 70
     1
 71
     0
 91
        1
 92
        1
 93
        1
 72
     4
 94
        3
 73
     0
 74
     1
 95
       29
 96
       25
 40
0.0
 40
0.0
 40
0.0
 40
0.0
 40
1.0
 40
1.0
 40
1.0
 40
2.0
 40
2.0
 40
2.0
 40
3.0
 40
3.0
 40
3.0
 40
4.0
 40
4.0
 40
4.0
 40
5.0
 40
5.0
 40
5.0
 40
6.0
 40
6.0
 40
6.0
 40
7.0
 40
7.0
 40
7.0
 40
8.0
 40
8.0
 40
8.0
 40
8.0
 10
71.55737206330824
 20
-143.2494735752987
 10
71.55737206330824
 20
-143.2811882975133
 10
71.57049720432974
 20
-143.3128677419497
 10
71.59356706238482
 20
-143.3352691308331
 10
71.61596845070221
 20
-143.3573177419387
 10
71.64729511656967
 20
-143.3714288530459
 10
71.68003289351223
 20
-143.3714288530459
 10
71.71171233714847
 20
-143.3714288530459
 10
71.74342705856158
 20
-143.3573177419387
 10
71.76614594687086
 20
-143.3352691308331
 10
71.78890011295702
 20
-143.3128677419497
 10
71.80198816817867
 20
-143.2811882975133
 10
71.80198816817867
 20
-143.2494735752987
 10
71.80198816817867
 20
-143.2167710753071
 10
71.78890011295702
 20
-143.1854091308703
 10
71.76614594687086
 20
-143.1623374642096
 10
71.74342705856158
 20
-143.1399360753262
 10
71.71171233714847
 20
-143.1264952419963
 10
71.68003289351223
 20
-143.1264952419963
 10
71.64729511656967
 20
-143.1264952419963
 10
71.61596845070221
 20
-143.1399360753262
 10
71.59356706238482
 20
-143.1623374642096
 10
71.57049720432974
 20
-143.1854091308703
 10
71.55737206330824
 20
-143.2167710753071
 10
71.55737206330824
 20
-143.2494735752987
 97
        0
 97
        0
 75
     2
 76
     1
 98
        0
  0
SPLINE
  5
178
330
1F
100
AcDbEntity
  8
_U+30EC_U+30A4_U+30E4_U+30FC 1
370
     0
100
AcDbSpline
210
0.0
220
0.0
230
1.0
 70
    11
 71
     3
 72
    29
 73
    25
 74
     0
 42
0.0000000001
 43
0.0000000001
 12
1.0
 22
0.0
 32
0.0
 13
1.0
 23
0.0
 33
0.0
 40
0.0
 40
0.0
 40
0.0
 40
0.0
 40
1.0
 40
1.0
 40
1.0
 40
2.0
 40
2.0
 40
2.0
 40
3.0
 40
3.0
 40
3.0
 40
4.0
 40
4.0
 40
4.0
 40
5.0
 40
5.0
 40
5.0
 40
6.0
 40
6.0
 40
6.0
 40
7.0
 40
7.0
 40
7.0
 40
8.0
 40
8.0
 40
8.0
 40
8.0
 10
71.55737206330824
 20
-117.5128883039551
 30
0.0
 10
71.55737206330824
 20
-117.5449205261693
 30
0.0
 10
71.57081289629866
 20
-117.5762824706058
 30
0.0
 10
71.59356706238482
 20
-117.5986838594891
 30
0.0
 10
71.61596845070221
 20
-117.6210852483725
 30
0.0
 10
71.64729511656967
 20
-117.6348435817023
 30
0.0
 10
71.68003289351223
 20
-117.6348435817023
 30
0.0
 10
71.71171233714847
 20
-117.6348435817023
 30
0.0
 10
71.74342705856158
 20
-117.6210852483725
 30
0.0
 10
71.76614594687086
 20
-117.5986838594891
 30
0.0
 10
71.78925289072579
 20
-117.5762824706058
 30
0.0
 10
71.80198816817867
 20
-117.5449205261693
 30
0.0
 10
71.80198816817867
 20
-117.5128883039551
 30
0.0
 10
71.80198816817867
 20
-117.4805033039631
 30
0.0
 10
71.78925289072579
 20
-117.4488238595267
 30
0.0
 10
71.76614594687086
 20
-117.4260696928659
 30
0.0
 10
71.74342705856158
 20
-117.40370358176
 30
0.0
 10
71.71171233714847
 20
-117.3905802484301
 30
0.0
 10
71.68003289351223
 20
-117.3905802484301
 30
0.0
 10
71.64729511656967
 20
-117.3905802484301
 30
0.0
 10
71.61596845070221
 20
-117.40370358176
 30
0.0
 10
71.59356706238482
 20
-117.4260696928659
 30
0.0
 10
71.57081289629866
 20
-117.4488238595267
 30
0.0
 10
71.55737206330824
 20
-117.4805033039631
 30
0.0
 10
71.55737206330824
 20
-117.5128883039551
 30
0.0
  0
HATCH
  5
179
330
1F
100
AcDbEntity
  8
_U+30EC_U+30A4_U+30E4_U+30FC 1
 62
     7
420
 16777215
100
AcDbHatch
 10
0.0
 20
0.0
 30
0.0
210
0.0
220
0.0
230
1.0
  2
SOLID
 70
     1
 71
     0
 91
        1
 92
        1
 93
        1
 72
     4
 94
        3
 73
     0
 74
     1
 95
       29
 96
       25
 40
0.0
 40
0.0
 40
0.0
 40
0.0
 40
1.0
 40
1.0
 40
1.0
 40
2.0
 40
2.0
 40
2.0
 40
3.0
 40
3.0
 40
3.0
 40
4.0
 40
4.0
 40
4.0
 40
5.0
 40
5.0
 40
5.0
 40
6.0
 40
6.0
 40
6.0
 40
7.0
 40
7.0
 40
7.0
 40
8.0
 40
8.0
 40
8.0
 40
8.0
 10
71.55737206330824
 20
-117.5128883039551
 10
71.55737206330824
 20
-117.5449205261693
 10
71.57081289629866
 20
-117.5762824706058
 10
71.59356706238482
 20
-117.5986838594891
 10
71.61596845070221
 20
-117.6210852483725
 10
71.64729511656967
 20
-117.6348435817023
 10
71.68003289351223
 20
-117.6348435817023
 10
71.71171233714847
 20
-117.6348435817023
 10
71.74342705856158
 20
-117.6210852483725
 10
71.76614594687086
 20
-117.5986838594891
 10
71.78925289072579
 20
-117.5762824706058
 10
71.80198816817867
 20
-117.5449205261693
 10
71.80198816817867
 20
-117.5128883039551
 10
71.80198816817867
 20
-117.4805033039631
 10
71.78925289072579
 20
-117.4488238595267
 10
71.76614594687086
 20
-117.4260696928659
 10
71.74342705856158
 20
-117.40370358176
 10
71.71171233714847
 20
-117.3905802484301
 10
71.68003289351223
 20
-117.3905802484301
 10
71.64729511656967
 20
-117.3905802484301
 10
71.61596845070221
 20
-117.40370358176
 10
71.59356706238482
 20
-117.4260696928659
 10
71.57081289629866
 20
-117.4488238595267
 10
71.55737206330824
 20
-117.4805033039631
 10
71.55737206330824
 20
-117.5128883039551
 97
        0
 97
        0
 75
     2
 76
     1
 98
        0
  0
ENDSEC
  0
SECTION
  2
OBJECTS
  0
DICTIONARY
  5
C
330
0
100
AcDbDictionary
281
     1
  3
ACAD_GROUP
350
D
  3
ACAD_LAYOUT
350
1A
  3
ACAD_MATERIAL
350
3B
  3
ACAD_MLEADERSTYLE
350
17B
  3
ACAD_MLINESTYLE
350
17
  3
ACAD_PLOTSETTINGS
350
19
  3
ACAD_PLOTSTYLENAME
350
E
  3
ACAD_TABLESTYLE
350
17A
  3
ACAD_VISUALSTYLE
350
2A
  0
SUN
  5
3F
330
29
100
AcDbSun
 90
        1
290
     0
 63
     7
421
 16777215
 40
1.0
291
     1
 91
  2455826
 92
 54000000
292
     0
 70
     2
 71
   256
280
     1
  0
DICTIONARY
  5
D
102
{ACAD_REACTORS
330
C
102
}
330
C
100
AcDbDictionary
281
     1
  0
DICTIONARY
  5
1A
102
{ACAD_REACTORS
330
C
102
}
330
C
100
AcDbDictionary
281
     1
  3
Layout1
350
1E
  3
Layout2
350
26
  3
Model
350
22
  0
DICTIONARY
  5
3B
102
{ACAD_REACTORS
330
C
102
}
330
C
100
AcDbDictionary
281
     1
  3
ByBlock
350
3D
  3
ByLayer
350
3C
  3
Global
350
3E
  0
DICTIONARY
  5
17B
102
{ACAD_REACTORS
330
C
102
}
330
C
100
AcDbDictionary
281
     1
  0
DICTIONARY
  5
17
102
{ACAD_REACTORS
330
C
102
}
330
C
100
AcDbDictionary
281
     1
  3
Standard
350
18
  0
DICTIONARY
  5
19
102
{ACAD_REACTORS
330
C
102
}
330
C
100
AcDbDictionary
281
     1
  0
ACDBDICTIONARYWDFLT
  5
E
102
{ACAD_REACTORS
330
C
102
}
330
C
100
AcDbDictionary
281
     1
  3
Normal
350
F
100
AcDbDictionaryWithDefault
340
F
  0
DICTIONARY
  5
17A
102
{ACAD_REACTORS
330
C
102
}
330
C
100
AcDbDictionary
281
     1
  0
DICTIONARY
  5
2A
102
{ACAD_REACTORS
330
C
102
}
330
C
100
AcDbDictionary
281
     1
  3
2dWireframe
350
2F
  3
3D Hidden
350
31
  3
3dWireframe
350
30
  3
Basic
350
32
  3
Brighten
350
36
  3
ColorChange
350
3A
  3
Conceptual
350
34
  3
Dim
350
35
  3
Facepattern
350
39
  3
Flat
350
2B
  3
FlatWithEdges
350
2C
  3
Gouraud
350
2D
  3
GouraudWithEdges
350
2E
  3
Linepattern
350
38
  3
Realistic
350
33
  3
Thicken
350
37
  0
LAYOUT
  5
1E
102
{ACAD_REACTORS
330
1A
102
}
330
1A
100
AcDbPlotSettings
  1

  2
none_device
  4

  6

 40
0.0
 41
0.0
 42
0.0
 43
0.0
 44
0.0
 45
0.0
 46
0.0
 47
0.0
 48
0.0
 49
0.0
140
0.0
141
0.0
142
1.0
143
1.0
 70
   688
 72
     0
 73
     0
 74
     5
  7

 75
    16
 76
     0
 77
     2
 78
   300
147
1.0
148
0.0
149
0.0
100
AcDbLayout
  1
Layout1
 70
     1
 71
     1
 10
0.0
 20
0.0
 11
12.0
 21
9.0
 12
0.0
 22
0.0
 32
0.0
 14
1.000000000000000E+20
 24
1.000000000000000E+20
 34
1.000000000000000E+20
 15
-1.000000000000000E+20
 25
-1.000000000000000E+20
 35
-1.000000000000000E+20
146
0.0
 13
0.0
 23
0.0
 33
0.0
 16
1.0
 26
0.0
 36
0.0
 17
0.0
 27
1.0
 37
0.0
 76
     0
330
1B
  0
LAYOUT
  5
26
102
{ACAD_REACTORS
330
1A
102
}
330
1A
100
AcDbPlotSettings
  1

  2
none_device
  4

  6

 40
0.0
 41
0.0
 42
0.0
 43
0.0
 44
0.0
 45
0.0
 46
0.0
 47
0.0
 48
0.0
 49
0.0
140
0.0
141
0.0
142
1.0
143
1.0
 70
   688
 72
     0
 73
     0
 74
     5
  7

 75
    16
 76
     0
 77
     2
 78
   300
147
1.0
148
0.0
149
0.0
100
AcDbLayout
  1
Layout2
 70
     1
 71
     2
 10
0.0
 20
0.0
 11
0.0
 21
0.0
 12
0.0
 22
0.0
 32
0.0
 14
0.0
 24
0.0
 34
0.0
 15
0.0
 25
0.0
 35
0.0
146
0.0
 13
0.0
 23
0.0
 33
0.0
 16
1.0
 26
0.0
 36
0.0
 17
0.0
 27
1.0
 37
0.0
 76
     0
330
23
  0
LAYOUT
  5
22
102
{ACAD_REACTORS
330
1A
102
}
330
1A
100
AcDbPlotSettings
  1

  2
none_device
  4

  6

 40
0.0
 41
0.0
 42
0.0
 43
0.0
 44
0.0
 45
0.0
 46
0.0
 47
0.0
 48
0.0
 49
0.0
140
0.0
141
0.0
142
1.0
143
1.0
 70
  1712
 72
     0
 73
     0
 74
     0
  7

 75
     0
 76
     0
 77
     2
 78
   300
147
1.0
148
0.0
149
0.0
100
AcDbLayout
  1
Model
 70
     1
 71
     0
 10
0.0
 20
0.0
 11
12.0
 21
9.0
 12
0.0
 22
0.0
 32
0.0
 14
1.000000000000000E+20
 24
1.000000000000000E+20
 34
1.000000000000000E+20
 15
-1.000000000000000E+20
 25
-1.000000000000000E+20
 35
-1.000000000000000E+20
146
0.0
 13
0.0
 23
0.0
 33
0.0
 16
1.0
 26
0.0
 36
0.0
 17
0.0
 27
1.0
 37
0.0
 76
     0
330
1F
331
29
  0
MATERIAL
  5
3D
102
{ACAD_REACTORS
330
3B
102
}
330
3B
100
AcDbMaterial
  1
ByBlock
 72
     1
 94
      127
  0
MATERIAL
  5
3C
102
{ACAD_REACTORS
330
3B
102
}
330
3B
100
AcDbMaterial
  1
ByLayer
 72
     1
 94
      127
  0
MATERIAL
  5
3E
102
{ACAD_REACTORS
330
3B
102
}
330
3B
100
AcDbMaterial
  1
Global
 72
     1
 94
      127
  0
MLINESTYLE
  5
18
102
{ACAD_REACTORS
330
17
102
}
330
17
100
AcDbMlineStyle
  2
Standard
 70
     0
  3

 62
   256
 51
90.0
 52
90.0
 71
     2
 49
0.5
 62
   256
  6
BYLAYER
 49
-0.5
 62
   256
  6
BYLAYER
  0
ACDBPLACEHOLDER
  5
F
102
{ACAD_REACTORS
330
E
102
}
330
E
  0
VISUALSTYLE
  5
2F
102
{ACAD_REACTORS
330
2A
102
}
330
2A
100
AcDbVisualStyle
  2
2dWireframe
 70
     4
177
     2
291
     0
 71
     0
176
     1
 72
     2
176
     1
 73
     0
176
     1
 90
        0
176
     1
 40
-0.6
176
     1
 41
-30.0
176
     1
 62
     5
 63
     7
421
 16777215
176
     1
 74
     1
176
     1
 91
        4
176
     1
 64
     7
176
     1
 65
   257
176
     1
 75
     1
176
     1
175
     1
176
     1
 42
1.0
176
     1
 92
        0
176
     1
 66
   257
176
     1
 43
1.0
176
     1
 76
     1
176
     1
 77
     6
176
     1
 78
     2
176
     1
 67
     7
176
     1
 79
     5
176
     1
170
     0
176
     1
171
     0
176
     1
290
     0
176
     1
 93
        1
176
     1
 44
0.0
176
     1
173
     0
176
     1
  0
VISUALSTYLE
  5
31
102
{ACAD_REACTORS
330
2A
102
}
330
2A
100
AcDbVisualStyle
  2
3D Hidden
 70
     6
177
     2
291
     0
 71
     1
176
     1
 72
     2
176
     1
 73
     2
176
     1
 90
        0
176
     1
 40
-0.6
176
     1
 41
-30.0
176
     1
 62
     5
 63
     7
421
 16777215
176
     1
 74
     2
176
     1
 91
        2
176
     1
 64
     7
176
     1
 65
   257
176
     1
 75
     2
176
     1
175
     1
176
     1
 42
40.0
176
     1
 92
        0
176
     1
 66
   257
176
     1
 43
1.0
176
     1
 76
     1
176
     1
 77
     6
176
     1
 78
     2
176
     1
 67
     7
176
     1
 79
     3
176
     1
170
     0
176
     1
171
     0
176
     1
290
     0
176
     1
 93
        1
176
     1
 44
0.0
176
     1
173
     0
176
     1
  0
VISUALSTYLE
  5
30
102
{ACAD_REACTORS
330
2A
102
}
330
2A
100
AcDbVisualStyle
  2
3dWireframe
 70
     5
177
     2
291
     0
 71
     0
176
     1
 72
     2
176
     1
 73
     0
176
     1
 90
        0
176
     1
 40
-0.6
176
     1
 41
-30.0
176
     1
 62
     5
 63
     7
421
 16777215
176
     1
 74
     1
176
     1
 91
        4
176
     1
 64
     7
176
     1
 65
   257
176
     1
 75
     1
176
     1
175
     1
176
     1
 42
1.0
176
     1
 92
        0
176
     1
 66
   257
176
     1
 43
1.0
176
     1
 76
     1
176
     1
 77
     6
176
     1
 78
     2
176
     1
 67
     7
176
     1
 79
     5
176
     1
170
     0
176
     1
171
     0
176
     1
290
     0
176
     1
 93
        1
176
     1
 44
0.0
176
     1
173
     0
176
     1
  0
VISUALSTYLE
  5
32
102
{ACAD_REACTORS
330
2A
102
}
330
2A
100
AcDbVisualStyle
  2
Basic
 70
     7
177
     2
291
     1
 71
     1
176
     1
 72
     0
176
     1
 73
     1
176
     1
 90
        0
176
     1
 40
-0.6
176
     1
 41
-30.0
176
     1
 62
     5
 63
     7
421
 16777215
176
     1
 74
     0
176
     1
 91
        4
176
     1
 64
     7
176
     1
 65
   257
176
     1
 75
     1
176
     1
175
     1
176
     1
 42
1.0
176
     1
 92
        8
176
     1
 66
     7
176
     1
 43
1.0
176
     1
 76
     1
176
     1
 77
     6
176
     1
 78
     2
176
     1
 67
     7
176
     1
 79
     5
176
     1
170
     0
176
     1
171
     0
176
     1
290
     0
176
     1
 93
        1
176
     1
 44
0.0
176
     1
173
     0
176
     1
  0
VISUALSTYLE
  5
36
102
{ACAD_REACTORS
330
2A
102
}
330
2A
100
AcDbVisualStyle
  2
Brighten
 70
    12
177
     2
291
     1
 71
     2
176
     1
 72
     2
176
     1
 73
     0
176
     1
 90
        0
176
     1
 40
-0.6
176
     1
 41
-30.0
176
     1
 62
     5
 63
     7
421
 16777215
176
     1
 74
     1
176
     1
 91
        4
176
     1
 64
     7
176
     1
 65
   257
176
     1
 75
     1
176
     1
175
     1
176
     1
 42
1.0
176
     1
 92
        8
176
     1
 66
     7
176
     1
 43
1.0
176
     1
 76
     1
176
     1
 77
     6
176
     1
 78
     2
176
     1
 67
     7
176
     1
 79
     5
176
     1
170
     0
176
     1
171
     0
176
     1
290
     0
176
     1
 93
        1
176
     1
 44
50.0
176
     1
173
     0
176
     1
  0
VISUALSTYLE
  5
3A
102
{ACAD_REACTORS
330
2A
102
}
330
2A
100
AcDbVisualStyle
  2
ColorChange
 70
    16
177
     2
291
     1
 71
     2
176
     1
 72
     2
176
     1
 73
     3
176
     1
 90
        0
176
     1
 40
-0.6
176
     1
 41
-30.0
176
     1
 62
     5
 63
     8
421
  8421504
176
     1
 74
     1
176
     1
 91
        4
176
     1
 64
     7
176
     1
 65
   257
176
     1
 75
     1
176
     1
175
     1
176
     1
 42
1.0
176
     1
 92
        8
176
     1
 66
     8
424
  8421504
176
     1
 43
1.0
176
     1
 76
     1
176
     1
 77
     6
176
     1
 78
     2
176
     1
 67
     7
176
     1
 79
     5
176
     1
170
     0
176
     1
171
     0
176
     1
290
     0
176
     1
 93
        1
176
     1
 44
0.0
176
     1
173
     0
176
     1
  0
VISUALSTYLE
  5
34
102
{ACAD_REACTORS
330
2A
102
}
330
2A
100
AcDbVisualStyle
  2
Conceptual
 70
     9
177
     2
291
     0
 71
     3
176
     1
 72
     2
176
     1
 73
     0
176
     1
 90
        0
176
     1
 40
-0.6
176
     1
 41
-30.0
176
     1
 62
     5
 63
     7
421
 16777215
176
     1
 74
     2
176
     1
 91
        2
176
     1
 64
     7
176
     1
 65
   257
176
     1
 75
     1
176
     1
175
     1
176
     1
 42
40.0
176
     1
 92
        8
176
     1
 66
     7
176
     1
 43
1.0
176
     1
 76
     1
176
     1
 77
     6
176
     1
 78
     2
176
     1
 67
     7
176
     1
 79
     3
176
     1
170
     0
176
     1
171
     0
176
     1
290
     0
176
     1
 93
        1
176
     1
 44
0.0
176
     1
173
     0
176
     1
  0
VISUALSTYLE
  5
35
102
{ACAD_REACTORS
330
2A
102
}
330
2A
100
AcDbVisualStyle
  2
Dim
 70
    11
177
     2
291
     1
 71
     2
176
     1
 72
     2
176
     1
 73
     0
176
     1
 90
        0
176
     1
 40
-0.6
176
     1
 41
-30.0
176
     1
 62
     5
 63
     7
421
 16777215
176
     1
 74
     1
176
     1
 91
        4
176
     1
 64
     7
176
     1
 65
   257
176
     1
 75
     1
176
     1
175
     1
176
     1
 42
1.0
176
     1
 92
        8
176
     1
 66
     7
176
     1
 43
1.0
176
     1
 76
     1
176
     1
 77
     6
176
     1
 78
     2
176
     1
 67
     7
176
     1
 79
     5
176
     1
170
     0
176
     1
171
     0
176
     1
290
     0
176
     1
 93
        1
176
     1
 44
-50.0
176
     1
173
     0
176
     1
  0
VISUALSTYLE
  5
39
102
{ACAD_REACTORS
330
2A
102
}
330
2A
100
AcDbVisualStyle
  2
Facepattern
 70
    15
177
     2
291
     1
 71
     2
176
     1
 72
     2
176
     1
 73
     0
176
     1
 90
        0
176
     1
 40
-0.6
176
     1
 41
-30.0
176
     1
 62
     5
 63
     7
421
 16777215
176
     1
 74
     1
176
     1
 91
        4
176
     1
 64
     7
176
     1
 65
   257
176
     1
 75
     1
176
     1
175
     1
176
     1
 42
1.0
176
     1
 92
        8
176
     1
 66
     7
176
     1
 43
1.0
176
     1
 76
     1
176
     1
 77
     6
176
     1
 78
     2
176
     1
 67
     7
176
     1
 79
     5
176
     1
170
     0
176
     1
171
     0
176
     1
290
     0
176
     1
 93
        1
176
     1
 44
0.0
176
     1
173
     0
176
     1
  0
VISUALSTYLE
  5
2B
102
{ACAD_REACTORS
330
2A
102
}
330
2A
100
AcDbVisualStyle
  2
Flat
 70
     0
177
     2
291
     1
 71
     2
176
     1
 72
     1
176
     1
 73
     1
176
     1
 90
        2
176
     1
 40
-0.6
176
     1
 41
30.0
176
     1
 62
     5
 63
     7
421
 16777215
176
     1
 74
     0
176
     1
 91
        4
176
     1
 64
     7
176
     1
 65
   257
176
     1
 75
     1
176
     1
175
     1
176
     1
 42
1.0
176
     1
 92
        8
176
     1
 66
     7
176
     1
 43
1.0
176
     1
 76
     1
176
     1
 77
     6
176
     1
 78
     2
176
     1
 67
     7
176
     1
 79
     5
176
     1
170
     0
176
     1
171
     0
176
     1
290
     0
176
     1
 93
       13
176
     1
 44
0.0
176
     1
173
     0
176
     1
  0
VISUALSTYLE
  5
2C
102
{ACAD_REACTORS
330
2A
102
}
330
2A
100
AcDbVisualStyle
  2
FlatWithEdges
 70
     1
177
     2
291
     1
 71
     2
176
     1
 72
     1
176
     1
 73
     1
176
     1
 90
        2
176
     1
 40
-0.6
176
     1
 41
30.0
176
     1
 62
     5
 63
     7
421
 16777215
176
     1
 74
     1
176
     1
 91
        4
176
     1
 64
     7
176
     1
 65
   257
176
     1
 75
     1
176
     1
175
     1
176
     1
 42
1.0
176
     1
 92
        0
176
     1
 66
   257
176
     1
 43
1.0
176
     1
 76
     1
176
     1
 77
     6
176
     1
 78
     2
176
     1
 67
     7
176
     1
 79
     5
176
     1
170
     0
176
     1
171
     0
176
     1
290
     0
176
     1
 93
       13
176
     1
 44
0.0
176
     1
173
     0
176
     1
  0
VISUALSTYLE
  5
2D
102
{ACAD_REACTORS
330
2A
102
}
330
2A
100
AcDbVisualStyle
  2
Gouraud
 70
     2
177
     2
291
     1
 71
     2
176
     1
 72
     2
176
     1
 73
     1
176
     1
 90
        2
176
     1
 40
-0.6
176
     1
 41
30.0
176
     1
 62
     5
 63
     7
421
 16777215
176
     1
 74
     0
176
     1
 91
        4
176
     1
 64
     7
176
     1
 65
   257
176
     1
 75
     1
176
     1
175
     1
176
     1
 42
1.0
176
     1
 92
        0
176
     1
 66
     7
176
     1
 43
1.0
176
     1
 76
     1
176
     1
 77
     6
176
     1
 78
     2
176
     1
 67
     7
176
     1
 79
     5
176
     1
170
     0
176
     1
171
     0
176
     1
290
     0
176
     1
 93
       13
176
     1
 44
0.0
176
     1
173
     0
176
     1
  0
VISUALSTYLE
  5
2E
102
{ACAD_REACTORS
330
2A
102
}
330
2A
100
AcDbVisualStyle
  2
GouraudWithEdges
 70
     3
177
     2
291
     1
 71
     2
176
     1
 72
     2
176
     1
 73
     1
176
     1
 90
        2
176
     1
 40
-0.6
176
     1
 41
30.0
176
     1
 62
     5
 63
     7
421
 16777215
176
     1
 74
     1
176
     1
 91
        4
176
     1
 64
     7
176
     1
 65
   257
176
     1
 75
     1
176
     1
175
     1
176
     1
 42
1.0
176
     1
 92
        0
176
     1
 66
   257
176
     1
 43
1.0
176
     1
 76
     1
176
     1
 77
     6
176
     1
 78
     2
176
     1
 67
     7
176
     1
 79
     5
176
     1
170
     0
176
     1
171
     0
176
     1
290
     0
176
     1
 93
       13
176
     1
 44
0.0
176
     1
173
     0
176
     1
  0
VISUALSTYLE
  5
38
102
{ACAD_REACTORS
330
2A
102
}
330
2A
100
AcDbVisualStyle
  2
Linepattern
 70
    14
177
     2
291
     1
 71
     2
176
     1
 72
     2
176
     1
 73
     0
176
     1
 90
        0
176
     1
 40
-0.6
176
     1
 41
-30.0
176
     1
 62
     5
 63
     7
421
 16777215
176
     1
 74
     1
176
     1
 91
        4
176
     1
 64
     7
176
     1
 65
   257
176
     1
 75
     7
176
     1
175
     7
176
     1
 42
1.0
176
     1
 92
        8
176
     1
 66
     7
176
     1
 43
1.0
176
     1
 76
     1
176
     1
 77
     6
176
     1
 78
     2
176
     1
 67
     7
176
     1
 79
     5
176
     1
170
     0
176
     1
171
     0
176
     1
290
     0
176
     1
 93
        1
176
     1
 44
0.0
176
     1
173
     0
176
     1
  0
VISUALSTYLE
  5
33
102
{ACAD_REACTORS
330
2A
102
}
330
2A
100
AcDbVisualStyle
  2
Realistic
 70
     8
177
     2
291
     0
 71
     2
176
     1
 72
     2
176
     1
 73
     0
176
     1
 90
        0
176
     1
 40
-0.6
176
     1
 41
-30.0
176
     1
 62
     5
 63
     7
421
 16777215
176
     1
 74
     1
176
     1
 91
        0
176
     1
 64
     7
176
     1
 65
   257
176
     1
 75
     1
176
     1
175
     1
176
     1
 42
1.0
176
     1
 92
        8
176
     1
 66
     8
424
  7895160
176
     1
 43
1.0
176
     1
 76
     1
176
     1
 77
     6
176
     1
 78
     2
176
     1
 67
     7
176
     1
 79
     5
176
     1
170
     0
176
     1
171
     0
176
     1
290
     0
176
     1
 93
       13
176
     1
 44
0.0
176
     1
173
     0
176
     1
  0
VISUALSTYLE
  5
37
102
{ACAD_REACTORS
330
2A
102
}
330
2A
100
AcDbVisualStyle
  2
Thicken
 70
    13
177
     2
291
     1
 71
     2
176
     1
 72
     2
176
     1
 73
     0
176
     1
 90
        0
176
     1
 40
-0.6
176
     1
 41
-30.0
176
     1
 62
     5
 63
     7
421
 16777215
176
     1
 74
     1
176
     1
 91
        4
176
     1
 64
     7
176
     1
 65
   257
176
     1
 75
     1
176
     1
175
     1
176
     1
 42
1.0
176
     1
 92
       12
176
     1
 66
     7
176
     1
 43
1.0
176
     1
 76
     1
176
     1
 77
     6
176
     1
 78
     2
176
     1
 67
     7
176
     1
 79
     5
176
     1
170
     0
176
     1
171
     0
176
     1
290
     0
176
     1
 93
        1
176
     1
 44
0.0
176
     1
173
     0
176
     1
  0
ENDSEC
  0
EOF
