  0
SECTION
  2
HEADER
  9
$ACADVER
  1
AC1024
  9
$ACADMAINTVER
 70
     6
  9
$DWGCODEPAGE
  3
UNDEFINED
  9
$INSBASE
 10
0.0
 20
0.0
 30
0.0
  9
$EXTMIN
 10
1.000000000000000E+20
 20
1.000000000000000E+20
 30
1.000000000000000E+20
  9
$EXTMAX
 10
-1.000000000000000E+20
 20
-1.000000000000000E+20
 30
-1.000000000000000E+20
  9
$LIMMIN
 10
0.0
 20
0.0
  9
$LIMMAX
 10
12.0
 20
9.0
  9
$ORTHOMODE
 70
     0
  9
$REGENMODE
 70
     1
  9
$FILLMODE
 70
     1
  9
$QTEXTMODE
 70
     0
  9
$MIRRTEXT
 70
     1
  9
$LTSCALE
 40
1.0
  9
$ATTMODE
 70
     1
  9
$TEXTSIZE
 40
0.2
  9
$TRACEWID
 40
0.05
  9
$TEXTSTYLE
  7
Standard
  9
$CLAYER
  8
0
  9
$CELTYPE
  6
ByLayer
  9
$CECOLOR
 62
   256
  9
$CELTSCALE
 40
1.0
  9
$DISPSILH
 70
     0
  9
$DIMSCALE
 40
1.0
  9
$DIMASZ
 40
0.18
  9
$DIMEXO
 40
0.0625
  9
$DIMDLI
 40
0.38
  9
$DIMRND
 40
0.0
  9
$DIMDLE
 40
0.0
  9
$DIMEXE
 40
0.18
  9
$DIMTP
 40
0.0
  9
$DIMTM
 40
0.0
  9
$DIMTXT
 40
0.18
  9
$DIMCEN
 40
0.09
  9
$DIMTSZ
 40
0.0
  9
$DIMTOL
 70
     0
  9
$DIMLIM
 70
     0
  9
$DIMTIH
 70
     1
  9
$DIMTOH
 70
     1
  9
$DIMSE1
 70
     0
  9
$DIMSE2
 70
     0
  9
$DIMTAD
 70
     0
  9
$DIMZIN
 70
     0
  9
$DIMBLK
  1

  9
$DIMASO
 70
     1
  9
$DIMSHO
 70
     1
  9
$DIMPOST
  1

  9
$DIMAPOST
  1

  9
$DIMALT
 70
     0
  9
$DIMALTD
 70
     2
  9
$DIMALTF
 40
25.4
  9
$DIMLFAC
 40
1.0
  9
$DIMTOFL
 70
     0
  9
$DIMTVP
 40
0.0
  9
$DIMTIX
 70
     0
  9
$DIMSOXD
 70
     0
  9
$DIMSAH
 70
     0
  9
$DIMBLK1
  1

  9
$DIMBLK2
  1

  9
$DIMSTYLE
  2
Standard
  9
$DIMCLRD
 70
     0
  9
$DIMCLRE
 70
     0
  9
$DIMCLRT
 70
     0
  9
$DIMTFAC
 40
1.0
  9
$DIMGAP
 40
0.09
  9
$DIMJUST
 70
     0
  9
$DIMSD1
 70
     0
  9
$DIMSD2
 70
     0
  9
$DIMTOLJ
 70
     1
  9
$DIMTZIN
 70
     0
  9
$DIMALTZ
 70
     0
  9
$DIMALTTZ
 70
     0
  9
$DIMUPT
 70
     0
  9
$DIMDEC
 70
     4
  9
$DIMTDEC
 70
     4
  9
$DIMALTU
 70
     2
  9
$DIMALTTD
 70
     2
  9
$DIMTXSTY
  7
Standard
  9
$DIMAUNIT
 70
     0
  9
$DIMADEC
 70
     0
  9
$DIMALTRND
 40
0.0
  9
$DIMAZIN
 70
     0
  9
$DIMDSEP
 70
    46
  9
$DIMATFIT
 70
     3
  9
$DIMFRAC
 70
     0
  9
$DIMLDRBLK
  1

  9
$DIMLUNIT
 70
     2
  9
$DIMLWD
 70
    -2
  9
$DIMLWE
 70
    -2
  9
$DIMTMOVE
 70
     0
  9
$DIMFXL
 40
1.0
  9
$DIMFXLON
 70
     0
  9
$DIMJOGANG
 40
0.7853981633974483
  9
$DIMTFILL
 70
     0
  9
$DIMTFILLCLR
 70
     0
  9
$DIMARCSYM
 70
     0
  9
$DIMLTYPE
  6

  9
$DIMLTEX1
  6

  9
$DIMLTEX2
  6

  9
$DIMTXTDIRECTION
 70
     0
  9
$LUNITS
 70
     2
  9
$LUPREC
 70
     4
  9
$SKETCHINC
 40
0.1
  9
$FILLETRAD
 40
0.5
  9
$AUNITS
 70
     0
  9
$AUPREC
 70
     0
  9
$MENU
  1
.
  9
$ELEVATION
 40
0.0
  9
$PELEVATION
 40
0.0
  9
$THICKNESS
 40
0.0
  9
$LIMCHECK
 70
     0
  9
$CHAMFERA
 40
0.5
  9
$CHAMFERB
 40
0.5
  9
$CHAMFERC
 40
1.0
  9
$CHAMFERD
 40
0.0
  9
$SKPOLY
 70
     0
  9
$TDCREATE
 40
2457917.627650463
  9
$TDUCREATE
 40
2457917.252650463
  9
$TDUPDATE
 40
2457917.627650463
  9
$TDUUPDATE
 40
2457917.252650463
  9
$TDINDWG
 40
0.0000000116
  9
$TDUSRTIMER
 40
0.0000000116
  9
$USRTIMER
 70
     1
  9
$ANGBASE
 50
0.0
  9
$ANGDIR
 70
     0
  9
$PDMODE
 70
     0
  9
$PDSIZE
 40
0.0
  9
$PLINEWID
 40
0.0
  9
$SPLFRAME
 70
     0
  9
$SPLINETYPE
 70
     6
  9
$SPLINESEGS
 70
     8
  9
$HANDSEED
  5
19B
  9
$SURFTAB1
 70
     6
  9
$SURFTAB2
 70
     6
  9
$SURFTYPE
 70
     6
  9
$SURFU
 70
     6
  9
$SURFV
 70
     6
  9
$UCSBASE
  2

  9
$UCSNAME
  2

  9
$UCSORG
 10
0.0
 20
0.0
 30
0.0
  9
$UCSXDIR
 10
1.0
 20
0.0
 30
0.0
  9
$UCSYDIR
 10
0.0
 20
1.0
 30
0.0
  9
$UCSORTHOREF
  2

  9
$UCSORTHOVIEW
 70
     0
  9
$UCSORGTOP
 10
0.0
 20
0.0
 30
0.0
  9
$UCSORGBOTTOM
 10
0.0
 20
0.0
 30
0.0
  9
$UCSORGLEFT
 10
0.0
 20
0.0
 30
0.0
  9
$UCSORGRIGHT
 10
0.0
 20
0.0
 30
0.0
  9
$UCSORGFRONT
 10
0.0
 20
0.0
 30
0.0
  9
$UCSORGBACK
 10
0.0
 20
0.0
 30
0.0
  9
$PUCSBASE
  2

  9
$PUCSNAME
  2

  9
$PUCSORG
 10
0.0
 20
0.0
 30
0.0
  9
$PUCSXDIR
 10
1.0
 20
0.0
 30
0.0
  9
$PUCSYDIR
 10
0.0
 20
1.0
 30
0.0
  9
$PUCSORTHOREF
  2

  9
$PUCSORTHOVIEW
 70
     0
  9
$PUCSORGTOP
 10
0.0
 20
0.0
 30
0.0
  9
$PUCSORGBOTTOM
 10
0.0
 20
0.0
 30
0.0
  9
$PUCSORGLEFT
 10
0.0
 20
0.0
 30
0.0
  9
$PUCSORGRIGHT
 10
0.0
 20
0.0
 30
0.0
  9
$PUCSORGFRONT
 10
0.0
 20
0.0
 30
0.0
  9
$PUCSORGBACK
 10
0.0
 20
0.0
 30
0.0
  9
$USERI1
 70
     0
  9
$USERI2
 70
     0
  9
$USERI3
 70
     0
  9
$USERI4
 70
     0
  9
$USERI5
 70
     0
  9
$USERR1
 40
0.0
  9
$USERR2
 40
0.0
  9
$USERR3
 40
0.0
  9
$USERR4
 40
0.0
  9
$USERR5
 40
0.0
  9
$WORLDVIEW
 70
     1
  9
$SHADEDGE
 70
     3
  9
$SHADEDIF
 70
    70
  9
$TILEMODE
 70
     1
  9
$MAXACTVP
 70
    64
  9
$PINSBASE
 10
0.0
 20
0.0
 30
0.0
  9
$PLIMCHECK
 70
     0
  9
$PEXTMIN
 10
1.000000000000000E+20
 20
1.000000000000000E+20
 30
1.000000000000000E+20
  9
$PEXTMAX
 10
-1.000000000000000E+20
 20
-1.000000000000000E+20
 30
-1.000000000000000E+20
  9
$PLIMMIN
 10
0.0
 20
0.0
  9
$PLIMMAX
 10
12.0
 20
9.0
  9
$UNITMODE
 70
     0
  9
$VISRETAIN
 70
     1
  9
$PLINEGEN
 70
     0
  9
$PSLTSCALE
 70
     1
  9
$TREEDEPTH
 70
  3020
  9
$CMLSTYLE
  2
Standard
  9
$CMLJUST
 70
     0
  9
$CMLSCALE
 40
1.0
  9
$PROXYGRAPHICS
 70
     1
  9
$MEASUREMENT
 70
     0
  9
$CELWEIGHT
370
    -1
  9
$ENDCAPS
280
     0
  9
$JOINSTYLE
280
     0
  9
$LWDISPLAY
290
     1
  9
$INSUNITS
 70
     1
  9
$HYPERLINKBASE
  1

  9
$STYLESHEET
  1

  9
$XEDIT
290
     1
  9
$CEPSNTYPE
380
     0
  9
$PSTYLEMODE
290
     1
  9
$FINGERPRINTGUID
  2
{937AB501-01AF-2283-0ABD-02317A08E52A}
  9
$VERSIONGUID
  2
{FAEB1C32-E019-11D5-929B-00C0DF256EC4}
  9
$EXTNAMES
290
     1
  9
$PSVPSCALE
 40
0.0
  9
$OLESTARTUP
290
     0
  9
$SORTENTS
280
   127
  9
$INDEXCTL
280
     0
  9
$HIDETEXT
280
     1
  9
$XCLIPFRAME
280
     2
  9
$HALOGAP
280
     0
  9
$OBSCOLOR
 70
   257
  9
$OBSLTYPE
280
     0
  9
$INTERSECTIONDISPLAY
280
     0
  9
$INTERSECTIONCOLOR
 70
   257
  9
$DIMASSOC
280
     2
  9
$PROJECTNAME
  1

  9
$CAMERADISPLAY
290
     0
  9
$LENSLENGTH
 40
50.0
  9
$CAMERAHEIGHT
 40
0.0
  9
$STEPSPERSEC
 40
2.0
  9
$STEPSIZE
 40
6.0
  9
$3DDWFPREC
 40
2.0
  9
$PSOLWIDTH
 40
0.25
  9
$PSOLHEIGHT
 40
4.0
  9
$LOFTANG1
 40
1.570796326794897
  9
$LOFTANG2
 40
1.570796326794897
  9
$LOFTMAG1
 40
0.0
  9
$LOFTMAG2
 40
0.0
  9
$LOFTPARAM
 70
     7
  9
$LOFTNORMALS
280
     1
  9
$LATITUDE
 40
37.795
  9
$LONGITUDE
 40
-122.394
  9
$NORTHDIRECTION
 40
0.0
  9
$TIMEZONE
 70
 -8000
  9
$LIGHTGLYPHDISPLAY
280
     1
  9
$TILEMODELIGHTSYNCH
280
     1
  9
$CMATERIAL
347
3C
  9
$SOLIDHIST
280
     1
  9
$SHOWHIST
280
     1
  9
$DWFFRAME
280
     2
  9
$DGNFRAME
280
     2
  9
$REALWORLDSCALE
290
     1
  9
$INTERFERECOLOR
 62
   256
  9
$CSHADOW
280
     0
  9
$SHADOWPLANELOCATION
 40
0.0
  0
ENDSEC
  0
SECTION
  2
CLASSES
  0
CLASS
  1
ACDBDICTIONARYWDFLT
  2
AcDbDictionaryWithDefault
  3
ObjectDBX Classes
 90
        0
 91
        4
280
     0
281
     0
  0
CLASS
  1
VISUALSTYLE
  2
AcDbVisualStyle
  3
ObjectDBX Classes
 90
     4095
 91
        4
280
     0
281
     0
  0
CLASS
  1
MATERIAL
  2
AcDbMaterial
  3
ObjectDBX Classes
 90
     1153
 91
        4
280
     0
281
     0
  0
CLASS
  1
SUN
  2
AcDbSun
  3
SCENEOE
 90
     1024
 91
        4
280
     0
281
     0
  0
ENDSEC
  0
SECTION
  2
TABLES
  0
TABLE
  2
VPORT
  5
8
330
0
100
AcDbSymbolTable
 70
     1
  0
VPORT
  5
29
330
8
100
AcDbSymbolTableRecord
100
AcDbViewportTableRecord
  2
*Active
 70
     0
 10
0.0
 20
0.0
 11
1.0
 21
1.0
 12
0.0
 22
0.0
 13
0.0
 23
0.0
 14
0.5
 24
0.5
 15
0.5
 25
0.5
 16
0.0
 26
0.0
 36
1.0
 17
91.00082462281999
 27
-128.4993055234307
 37
0.0
 40
256.9986110468615
 41
0.7081814508812795
 42
50.0
 43
0.0
 44
0.0
 50
0.0
 51
0.0
 71
     0
 72
   100
 73
     1
 74
     3
 75
     0
 76
     0
 77
     0
 78
     0
281
     0
 65
     1
110
0.0
120
0.0
130
0.0
111
1.0
121
0.0
131
0.0
112
0.0
122
1.0
132
0.0
 79
     0
146
0.0
 60
     3
 61
     5
292
     1
282
     1
141
0.0
142
0.0
 63
   250
361
3F
  0
ENDTAB
  0
TABLE
  2
LTYPE
  5
5
330
0
100
AcDbSymbolTable
 70
     1
  0
LTYPE
  5
14
330
5
100
AcDbSymbolTableRecord
100
AcDbLinetypeTableRecord
  2
ByBlock
 70
     0
  3

 72
    65
 73
     0
 40
0.0
  0
LTYPE
  5
15
330
5
100
AcDbSymbolTableRecord
100
AcDbLinetypeTableRecord
  2
ByLayer
 70
     0
  3

 72
    65
 73
     0
 40
0.0
  0
LTYPE
  5
16
330
5
100
AcDbSymbolTableRecord
100
AcDbLinetypeTableRecord
  2
Continuous
 70
     0
  3
Solid line
 72
    65
 73
     0
 40
0.0
  0
ENDTAB
  0
TABLE
  2
LAYER
  5
2
330
0
100
AcDbSymbolTable
 70
     2
  0
LAYER
  5
10
330
2
100
AcDbSymbolTableRecord
100
AcDbLayerTableRecord
  2
0
 70
     0
 62
     7
  6
Continuous
370
    -3
390
F
347
3E
  0
LAYER
  5
40
330
2
100
AcDbSymbolTableRecord
100
AcDbLayerTableRecord
  2
_U+30EC_U+30A4_U+30E4_U+30FC 1
 70
     0
 62
     7
  6
Continuous
370
    -3
390
F
347
3E
  0
ENDTAB
  0
TABLE
  2
STYLE
  5
3
330
0
100
AcDbSymbolTable
 70
     1
  0
STYLE
  5
11
330
3
100
AcDbSymbolTableRecord
100
AcDbTextStyleTableRecord
  2
Standard
 70
     0
 40
0.0
 41
1.0
 50
0.0
 71
     0
 42
0.2
  3
txt
  4

  0
ENDTAB
  0
TABLE
  2
VIEW
  5
6
330
0
100
AcDbSymbolTable
 70
     0
  0
ENDTAB
  0
TABLE
  2
UCS
  5
7
330
0
100
AcDbSymbolTable
 70
     0
  0
ENDTAB
  0
TABLE
  2
APPID
  5
9
330
0
100
AcDbSymbolTable
 70
     1
  0
APPID
  5
12
330
9
100
AcDbSymbolTableRecord
100
AcDbRegAppTableRecord
  2
ACAD
 70
     0
  0
ENDTAB
  0
TABLE
  2
DIMSTYLE
  5
A
330
0
100
AcDbSymbolTable
 70
     1
100
AcDbDimStyleTable
  0
DIMSTYLE
105
27
330
A
100
AcDbSymbolTableRecord
100
AcDbDimStyleTableRecord
  2
Standard
 70
     0
178
     0
340
11
  0
ENDTAB
  0
TABLE
  2
BLOCK_RECORD
  5
1
330
0
100
AcDbSymbolTable
 70
     9
  0
BLOCK_RECORD
  5
1F
330
1
100
AcDbSymbolTableRecord
100
AcDbBlockTableRecord
  2
*Model_Space
340
22
 70
     0
280
     1
281
     0
  0
BLOCK_RECORD
  5
1B
330
1
100
AcDbSymbolTableRecord
100
AcDbBlockTableRecord
  2
*Paper_Space
340
1E
 70
     0
280
     1
281
     0
  0
BLOCK_RECORD
  5
23
330
1
100
AcDbSymbolTableRecord
100
AcDbBlockTableRecord
  2
*Paper_Space0
340
26
 70
     0
280
     1
281
     0
  0
BLOCK_RECORD
  5
62
330
1
100
AcDbSymbolTableRecord
100
AcDbBlockTableRecord
  2
block 2
340
0
102
{BLKREFS
331
63
102
}
 70
     0
280
     1
281
     0
  0
BLOCK_RECORD
  5
88
330
1
100
AcDbSymbolTableRecord
100
AcDbBlockTableRecord
  2
block 3
340
0
102
{BLKREFS
331
89
102
}
 70
     0
280
     1
281
     0
  0
BLOCK_RECORD
  5
90
330
1
100
AcDbSymbolTableRecord
100
AcDbBlockTableRecord
  2
block 4
340
0
102
{BLKREFS
331
91
102
}
 70
     0
280
     1
281
     0
  0
BLOCK_RECORD
  5
A7
330
1
100
AcDbSymbolTableRecord
100
AcDbBlockTableRecord
  2
block 5
340
0
102
{BLKREFS
331
A8
102
}
 70
     0
280
     1
281
     0
  0
BLOCK_RECORD
  5
C2
330
1
100
AcDbSymbolTableRecord
100
AcDbBlockTableRecord
  2
block 6
340
0
102
{BLKREFS
331
C3
102
}
 70
     0
280
     1
281
     0
  0
BLOCK_RECORD
  5
DF
330
1
100
AcDbSymbolTableRecord
100
AcDbBlockTableRecord
  2
block 7
340
0
102
{BLKREFS
331
E0
102
}
 70
     0
280
     1
281
     0
  0
BLOCK_RECORD
  5
E7
330
1
100
AcDbSymbolTableRecord
100
AcDbBlockTableRecord
  2
block 8
340
0
102
{BLKREFS
331
E8
102
}
 70
     0
280
     1
281
     0
  0
BLOCK_RECORD
  5
102
330
1
100
AcDbSymbolTableRecord
100
AcDbBlockTableRecord
  2
block 9
340
0
102
{BLKREFS
331
103
102
}
 70
     0
280
     1
281
     0
  0
ENDTAB
  0
ENDSEC
  0
SECTION
  2
BLOCKS
  0
BLOCK
  5
20
330
1F
100
AcDbEntity
  8
0
100
AcDbBlockBegin
  2
*Model_Space
 70
     0
 10
0.0
 20
0.0
 30
0.0
  3
*Model_Space
  1

  0
ENDBLK
  5
21
330
1F
100
AcDbEntity
  8
0
100
AcDbBlockEnd
  0
BLOCK
  5
1C
330
1B
100
AcDbEntity
 67
     1
  8
0
100
AcDbBlockBegin
  2
*Paper_Space
 70
     0
 10
0.0
 20
0.0
 30
0.0
  3
*Paper_Space
  1

  0
ENDBLK
  5
1D
330
1B
100
AcDbEntity
 67
     1
  8
0
100
AcDbBlockEnd
  0
BLOCK
  5
24
330
23
100
AcDbEntity
  8
0
100
AcDbBlockBegin
  2
*Paper_Space0
 70
     0
 10
0.0
 20
0.0
 30
0.0
  3
*Paper_Space0
  1

  0
ENDBLK
  5
25
330
23
100
AcDbEntity
  8
0
100
AcDbBlockEnd
  0
BLOCK
  5
64
330
62
100
AcDbEntity
  8
0
100
AcDbBlockBegin
  2
block 2
 70
     0
 10
0.0
 20
0.0
 30
0.0
  3
block 2
  1

  0
SPLINE
  5
66
330
62
100
AcDbEntity
  8
_U+30EC_U+30A4_U+30E4_U+30FC 1
370
     0
100
AcDbSpline
210
0.0
220
0.0
230
1.0
 70
    11
 71
     3
 72
    62
 73
    58
 74
     0
 42
0.0000000001
 43
0.0000000001
 12
1.0
 22
0.0
 32
0.0
 13
1.0
 23
0.0
 33
0.0
 40
0.0
 40
0.0
 40
0.0
 40
0.0
 40
1.0
 40
1.0
 40
1.0
 40
2.0
 40
2.0
 40
2.0
 40
3.0
 40
3.0
 40
3.0
 40
4.0
 40
4.0
 40
4.0
 40
5.0
 40
5.0
 40
5.0
 40
6.0
 40
6.0
 40
6.0
 40
7.0
 40
7.0
 40
7.0
 40
8.0
 40
8.0
 40
8.0
 40
9.0
 40
9.0
 40
9.0
 40
10.0
 40
10.0
 40
10.0
 40
11.0
 40
11.0
 40
11.0
 40
12.0
 40
12.0
 40
12.0
 40
13.0
 40
13.0
 40
13.0
 40
14.0
 40
14.0
 40
14.0
 40
15.0
 40
15.0
 40
15.0
 40
16.0
 40
16.0
 40
16.0
 40
17.0
 40
17.0
 40
17.0
 40
18.0
 40
18.0
 40
18.0
 40
19.0
 40
19.0
 40
19.0
 40
19.0
 10
74.62076821051147
 20
-141.7646456893852
 30
0.0
 10
74.62076821051147
 20
-141.8600748343267
 30
0.0
 10
74.59958087327719
 20
-142.0778048689944
 30
0.0
 10
74.41337346229943
 20
-142.202861835109
 30
0.0
 10
74.30123560425456
 20
-142.2769313880419
 30
0.0
 10
74.2018445995051
 20
-142.2810655026242
 30
0.0
 10
74.11726750534221
 20
-142.2851996172065
 30
0.0
 10
74.11726750534221
 20
-142.2851996172065
 30
0.0
 10
74.11726750534221
 20
-142.065058015699
 30
0.0
 10
74.11726750534221
 20
-142.065058015699
 30
0.0
 10
74.19133705827508
 20
-142.0629909584079
 30
0.0
 10
74.42612031559486
 20
-142.0526556719521
 30
0.0
 10
74.42612031559486
 20
-141.769124313516
 30
0.0
 10
74.42612031559486
 20
-141.6316650036546
 30
0.0
 10
74.35635713201856
 20
-141.479047273658
 30
0.0
 10
74.12777504657222
 20
-141.479047273658
 30
0.0
 10
74.01150307394505
 20
-141.479047273658
 30
0.0
 10
73.96275497282876
 20
-141.5172878335443
 30
0.0
 10
73.93106009436445
 20
-141.5489827120086
 30
0.0
 10
73.85699054143159
 20
-141.6230522649415
 30
0.0
 10
73.84441594291043
 20
-141.7394964923429
 30
0.0
 10
73.84441594291043
 20
-141.7942735105584
 30
0.0
 10
73.84441594291043
 20
-141.8135660452758
 30
0.0
 10
73.84648300020157
 20
-141.8493950383224
 30
0.0
 10
73.85061711478387
 20
-141.8769558022044
 30
0.0
 10
73.85061711478387
 20
-141.8769558022044
 30
0.0
 10
73.65614147464153
 20
-141.8769558022044
 30
0.0
 10
73.65614147464153
 20
-141.8769558022044
 30
0.0
 10
73.66234264651497
 20
-141.8387152423181
 30
0.0
 10
73.66458195858038
 20
-141.7966850773981
 30
0.0
 10
73.66458195858038
 20
-141.7901393959761
 30
0.0
 10
73.66458195858038
 20
-141.7246825817563
 30
0.0
 10
73.6433946213461
 20
-141.5259005722574
 30
0.0
 10
73.40637205196091
 20
-141.5259005722574
 30
0.0
 10
73.22877737969628
 20
-141.5259005722574
 30
0.0
 10
73.17365585193228
 20
-141.6568142006969
 30
0.0
 10
73.17365585193228
 20
-141.7670572562249
 30
0.0
 10
73.17365585193228
 20
-142.0312960799436
 30
0.0
 10
73.40637205196091
 20
-142.0399088186567
 30
0.0
 10
73.47837454760263
 20
-142.044042933239
 30
0.0
 10
73.47837454760263
 20
-142.044042933239
 30
0.0
 10
73.47837454760263
 20
-142.2473035668687
 30
0.0
 10
73.47837454760263
 20
-142.2473035668687
 30
0.0
 10
73.35348983626233
 20
-142.2386908281556
 30
0.0
 10
72.97694089972453
 20
-142.2111300642736
 30
0.0
 10
72.97694089972453
 20
-141.7543104029295
 30
0.0
 10
72.97694089972453
 20
-141.5300346868397
 30
0.0
 10
73.10389266835597
 20
-141.2888780028722
 30
0.0
 10
73.3999986253132
 20
-141.2888780028722
 30
0.0
 10
73.58620603629095
 20
-141.2888780028722
 30
0.0
 10
73.66871607316268
 20
-141.3839626382651
 30
0.0
 10
73.73003877280013
 20
-141.4835258977888
 30
0.0
 10
73.75759953668214
 20
-141.4222031981514
 30
0.0
 10
73.83804251626272
 20
-141.2403021565302
 30
0.0
 10
74.11520044805107
 20
-141.2403021565302
 30
0.0
 10
74.45368107947687
 20
-141.2403021565302
 30
0.0
 10
74.62076821051147
 20
-141.4876600123712
 30
0.0
 10
74.62076821051147
 20
-141.7646456893852
 30
0.0
  0
HATCH
  5
67
330
62
100
AcDbEntity
  8
_U+30EC_U+30A4_U+30E4_U+30FC 1
 62
   179
420
  2234388
100
AcDbHatch
 10
0.0
 20
0.0
 30
0.0
210
0.0
220
0.0
230
1.0
  2
SOLID
 70
     1
 71
     0
 91
        1
 92
        1
 93
        1
 72
     4
 94
        3
 73
     0
 74
     1
 95
       62
 96
       58
 40
0.0
 40
0.0
 40
0.0
 40
0.0
 40
1.0
 40
1.0
 40
1.0
 40
2.0
 40
2.0
 40
2.0
 40
3.0
 40
3.0
 40
3.0
 40
4.0
 40
4.0
 40
4.0
 40
5.0
 40
5.0
 40
5.0
 40
6.0
 40
6.0
 40
6.0
 40
7.0
 40
7.0
 40
7.0
 40
8.0
 40
8.0
 40
8.0
 40
9.0
 40
9.0
 40
9.0
 40
10.0
 40
10.0
 40
10.0
 40
11.0
 40
11.0
 40
11.0
 40
12.0
 40
12.0
 40
12.0
 40
13.0
 40
13.0
 40
13.0
 40
14.0
 40
14.0
 40
14.0
 40
15.0
 40
15.0
 40
15.0
 40
16.0
 40
16.0
 40
16.0
 40
17.0
 40
17.0
 40
17.0
 40
18.0
 40
18.0
 40
18.0
 40
19.0
 40
19.0
 40
19.0
 40
19.0
 10
74.62076821051147
 20
-141.7646456893852
 10
74.62076821051147
 20
-141.8600748343267
 10
74.59958087327719
 20
-142.0778048689944
 10
74.41337346229943
 20
-142.202861835109
 10
74.30123560425456
 20
-142.2769313880419
 10
74.2018445995051
 20
-142.2810655026242
 10
74.11726750534221
 20
-142.2851996172065
 10
74.11726750534221
 20
-142.2851996172065
 10
74.11726750534221
 20
-142.065058015699
 10
74.11726750534221
 20
-142.065058015699
 10
74.19133705827508
 20
-142.0629909584079
 10
74.42612031559486
 20
-142.0526556719521
 10
74.42612031559486
 20
-141.769124313516
 10
74.42612031559486
 20
-141.6316650036546
 10
74.35635713201856
 20
-141.479047273658
 10
74.12777504657222
 20
-141.479047273658
 10
74.01150307394505
 20
-141.479047273658
 10
73.96275497282876
 20
-141.5172878335443
 10
73.93106009436445
 20
-141.5489827120086
 10
73.85699054143159
 20
-141.6230522649415
 10
73.84441594291043
 20
-141.7394964923429
 10
73.84441594291043
 20
-141.7942735105584
 10
73.84441594291043
 20
-141.8135660452758
 10
73.84648300020157
 20
-141.8493950383224
 10
73.85061711478387
 20
-141.8769558022044
 10
73.85061711478387
 20
-141.8769558022044
 10
73.65614147464153
 20
-141.8769558022044
 10
73.65614147464153
 20
-141.8769558022044
 10
73.66234264651497
 20
-141.8387152423181
 10
73.66458195858038
 20
-141.7966850773981
 10
73.66458195858038
 20
-141.7901393959761
 10
73.66458195858038
 20
-141.7246825817563
 10
73.6433946213461
 20
-141.5259005722574
 10
73.40637205196091
 20
-141.5259005722574
 10
73.22877737969628
 20
-141.5259005722574
 10
73.17365585193228
 20
-141.6568142006969
 10
73.17365585193228
 20
-141.7670572562249
 10
73.17365585193228
 20
-142.0312960799436
 10
73.40637205196091
 20
-142.0399088186567
 10
73.47837454760263
 20
-142.044042933239
 10
73.47837454760263
 20
-142.044042933239
 10
73.47837454760263
 20
-142.2473035668687
 10
73.47837454760263
 20
-142.2473035668687
 10
73.35348983626233
 20
-142.2386908281556
 10
72.97694089972453
 20
-142.2111300642736
 10
72.97694089972453
 20
-141.7543104029295
 10
72.97694089972453
 20
-141.5300346868397
 10
73.10389266835597
 20
-141.2888780028722
 10
73.3999986253132
 20
-141.2888780028722
 10
73.58620603629095
 20
-141.2888780028722
 10
73.66871607316268
 20
-141.3839626382651
 10
73.73003877280013
 20
-141.4835258977888
 10
73.75759953668214
 20
-141.4222031981514
 10
73.83804251626272
 20
-141.2403021565302
 10
74.11520044805107
 20
-141.2403021565302
 10
74.45368107947687
 20
-141.2403021565302
 10
74.62076821051147
 20
-141.4876600123712
 10
74.62076821051147
 20
-141.7646456893852
 97
        0
 97
        0
 75
     2
 76
     1
 98
        0
  0
ENDBLK
  5
65
330
62
100
AcDbEntity
  8
0
100
AcDbBlockEnd
  0
BLOCK
  5
8A
330
88
100
AcDbEntity
  8
0
100
AcDbBlockBegin
  2
block 3
 70
     0
 10
0.0
 20
0.0
 30
0.0
  3
block 3
  1

  0
SPLINE
  5
8C
330
88
100
AcDbEntity
  8
_U+30EC_U+30A4_U+30E4_U+30FC 1
370
     0
100
AcDbSpline
210
0.0
220
0.0
230
1.0
 70
    11
 71
     3
 72
    62
 73
    58
 74
     0
 42
0.0000000001
 43
0.0000000001
 12
1.0
 22
0.0
 32
0.0
 13
1.0
 23
0.0
 33
0.0
 40
0.0
 40
0.0
 40
0.0
 40
0.0
 40
1.0
 40
1.0
 40
1.0
 40
2.0
 40
2.0
 40
2.0
 40
3.0
 40
3.0
 40
3.0
 40
4.0
 40
4.0
 40
4.0
 40
5.0
 40
5.0
 40
5.0
 40
6.0
 40
6.0
 40
6.0
 40
7.0
 40
7.0
 40
7.0
 40
8.0
 40
8.0
 40
8.0
 40
9.0
 40
9.0
 40
9.0
 40
10.0
 40
10.0
 40
10.0
 40
11.0
 40
11.0
 40
11.0
 40
12.0
 40
12.0
 40
12.0
 40
13.0
 40
13.0
 40
13.0
 40
14.0
 40
14.0
 40
14.0
 40
15.0
 40
15.0
 40
15.0
 40
16.0
 40
16.0
 40
16.0
 40
17.0
 40
17.0
 40
17.0
 40
18.0
 40
18.0
 40
18.0
 40
19.0
 40
19.0
 40
19.0
 40
19.0
 10
103.7335476086152
 20
-133.6869303051199
 30
0.0
 10
103.7335476086152
 20
-133.7823594500614
 30
0.0
 10
103.7125325261552
 20
-134.0000894847292
 30
0.0
 10
103.5264973699517
 20
-134.1251464508437
 30
0.0
 10
103.4141872571326
 20
-134.1988714942281
 30
0.0
 10
103.3149685071574
 20
-134.2033501183589
 30
0.0
 10
103.2302191582202
 20
-134.2074842329412
 30
0.0
 10
103.2302191582202
 20
-134.2074842329412
 30
0.0
 10
103.2302191582202
 20
-133.9873426314337
 30
0.0
 10
103.2302191582202
 20
-133.9873426314337
 30
0.0
 10
103.3042887111531
 20
-133.9852755741426
 30
0.0
 10
103.5388997136986
 20
-133.9749402876868
 30
0.0
 10
103.5388997136986
 20
-133.6914089292508
 30
0.0
 10
103.5388997136986
 20
-133.5539496193893
 30
0.0
 10
103.4693087848966
 20
-133.4013318893927
 30
0.0
 10
103.2408989542245
 20
-133.4013318893927
 30
0.0
 10
103.1244547268231
 20
-133.4013318893927
 30
0.0
 10
103.075878880481
 20
-133.439572449279
 30
0.0
 10
103.0441840020167
 20
-133.4712673277433
 30
0.0
 10
102.9701144490839
 20
-133.5453368806762
 30
0.0
 10
102.9573675957884
 20
-133.6617811080776
 30
0.0
 10
102.9573675957884
 20
-133.7165581262931
 30
0.0
 10
102.9573675957884
 20
-133.7358506610105
 30
0.0
 10
102.9594346530796
 20
-133.7716796540571
 30
0.0
 10
102.9635687676619
 20
-133.7992404179391
 30
0.0
 10
102.9635687676619
 20
-133.7992404179391
 30
0.0
 10
102.7689208727453
 20
-133.7992404179391
 30
0.0
 10
102.7689208727453
 20
-133.7992404179391
 30
0.0
 10
102.7754665541673
 20
-133.7609998580528
 30
0.0
 10
102.7775336114584
 20
-133.7189696931328
 30
0.0
 10
102.7775336114584
 20
-133.7124240117108
 30
0.0
 10
102.7775336114584
 20
-133.6469671974911
 30
0.0
 10
102.7561740194498
 20
-133.4481851879921
 30
0.0
 10
102.5194959596132
 20
-133.4481851879921
 30
0.0
 10
102.3417290325743
 20
-133.4481851879921
 30
0.0
 10
102.2866075048103
 20
-133.5790988164316
 30
0.0
 10
102.2866075048103
 20
-133.6893418719596
 30
0.0
 10
102.2866075048103
 20
-133.9535806956783
 30
0.0
 10
102.5194959596132
 20
-133.9621934343914
 30
0.0
 10
102.5911539457064
 20
-133.9663275489737
 30
0.0
 10
102.5911539457064
 20
-133.9663275489737
 30
0.0
 10
102.5911539457064
 20
-134.1695881826034
 30
0.0
 10
102.5911539457064
 20
-134.1695881826034
 30
0.0
 10
102.4664414891403
 20
-134.1609754438903
 30
0.0
 10
102.0898925526025
 20
-134.1334146800083
 30
0.0
 10
102.0898925526025
 20
-133.6765950186642
 30
0.0
 10
102.0898925526025
 20
-133.4523193025744
 30
0.0
 10
102.2170165760082
 20
-133.2111626186069
 30
0.0
 10
102.5129502781912
 20
-133.2111626186069
 30
0.0
 10
102.6993299439432
 20
-133.2111626186069
 30
0.0
 10
102.7816677260407
 20
-133.3062472539998
 30
0.0
 10
102.8429904256782
 20
-133.4058105135236
 30
0.0
 10
102.8705511895601
 20
-133.3444878138861
 30
0.0
 10
102.9508219143665
 20
-133.1625867722649
 30
0.0
 10
103.2281521009291
 20
-133.1625867722649
 30
0.0
 10
103.5664604775806
 20
-133.1625867722649
 30
0.0
 10
103.7335476086152
 20
-133.4099446281058
 30
0.0
 10
103.7335476086152
 20
-133.6869303051199
 30
0.0
  0
HATCH
  5
8D
330
88
100
AcDbEntity
  8
_U+30EC_U+30A4_U+30E4_U+30FC 1
 62
   179
420
  2234388
100
AcDbHatch
 10
0.0
 20
0.0
 30
0.0
210
0.0
220
0.0
230
1.0
  2
SOLID
 70
     1
 71
     0
 91
        1
 92
        1
 93
        1
 72
     4
 94
        3
 73
     0
 74
     1
 95
       62
 96
       58
 40
0.0
 40
0.0
 40
0.0
 40
0.0
 40
1.0
 40
1.0
 40
1.0
 40
2.0
 40
2.0
 40
2.0
 40
3.0
 40
3.0
 40
3.0
 40
4.0
 40
4.0
 40
4.0
 40
5.0
 40
5.0
 40
5.0
 40
6.0
 40
6.0
 40
6.0
 40
7.0
 40
7.0
 40
7.0
 40
8.0
 40
8.0
 40
8.0
 40
9.0
 40
9.0
 40
9.0
 40
10.0
 40
10.0
 40
10.0
 40
11.0
 40
11.0
 40
11.0
 40
12.0
 40
12.0
 40
12.0
 40
13.0
 40
13.0
 40
13.0
 40
14.0
 40
14.0
 40
14.0
 40
15.0
 40
15.0
 40
15.0
 40
16.0
 40
16.0
 40
16.0
 40
17.0
 40
17.0
 40
17.0
 40
18.0
 40
18.0
 40
18.0
 40
19.0
 40
19.0
 40
19.0
 40
19.0
 10
103.7335476086152
 20
-133.6869303051199
 10
103.7335476086152
 20
-133.7823594500614
 10
103.7125325261552
 20
-134.0000894847292
 10
103.5264973699517
 20
-134.1251464508437
 10
103.4141872571326
 20
-134.1988714942281
 10
103.3149685071574
 20
-134.2033501183589
 10
103.2302191582202
 20
-134.2074842329412
 10
103.2302191582202
 20
-134.2074842329412
 10
103.2302191582202
 20
-133.9873426314337
 10
103.2302191582202
 20
-133.9873426314337
 10
103.3042887111531
 20
-133.9852755741426
 10
103.5388997136986
 20
-133.9749402876868
 10
103.5388997136986
 20
-133.6914089292508
 10
103.5388997136986
 20
-133.5539496193893
 10
103.4693087848966
 20
-133.4013318893927
 10
103.2408989542245
 20
-133.4013318893927
 10
103.1244547268231
 20
-133.4013318893927
 10
103.075878880481
 20
-133.439572449279
 10
103.0441840020167
 20
-133.4712673277433
 10
102.9701144490839
 20
-133.5453368806762
 10
102.9573675957884
 20
-133.6617811080776
 10
102.9573675957884
 20
-133.7165581262931
 10
102.9573675957884
 20
-133.7358506610105
 10
102.9594346530796
 20
-133.7716796540571
 10
102.9635687676619
 20
-133.7992404179391
 10
102.9635687676619
 20
-133.7992404179391
 10
102.7689208727453
 20
-133.7992404179391
 10
102.7689208727453
 20
-133.7992404179391
 10
102.7754665541673
 20
-133.7609998580528
 10
102.7775336114584
 20
-133.7189696931328
 10
102.7775336114584
 20
-133.7124240117108
 10
102.7775336114584
 20
-133.6469671974911
 10
102.7561740194498
 20
-133.4481851879921
 10
102.5194959596132
 20
-133.4481851879921
 10
102.3417290325743
 20
-133.4481851879921
 10
102.2866075048103
 20
-133.5790988164316
 10
102.2866075048103
 20
-133.6893418719596
 10
102.2866075048103
 20
-133.9535806956783
 10
102.5194959596132
 20
-133.9621934343914
 10
102.5911539457064
 20
-133.9663275489737
 10
102.5911539457064
 20
-133.9663275489737
 10
102.5911539457064
 20
-134.1695881826034
 10
102.5911539457064
 20
-134.1695881826034
 10
102.4664414891403
 20
-134.1609754438903
 10
102.0898925526025
 20
-134.1334146800083
 10
102.0898925526025
 20
-133.6765950186642
 10
102.0898925526025
 20
-133.4523193025744
 10
102.2170165760082
 20
-133.2111626186069
 10
102.5129502781912
 20
-133.2111626186069
 10
102.6993299439432
 20
-133.2111626186069
 10
102.7816677260407
 20
-133.3062472539998
 10
102.8429904256782
 20
-133.4058105135236
 10
102.8705511895601
 20
-133.3444878138861
 10
102.9508219143665
 20
-133.1625867722649
 10
103.2281521009291
 20
-133.1625867722649
 10
103.5664604775806
 20
-133.1625867722649
 10
103.7335476086152
 20
-133.4099446281058
 10
103.7335476086152
 20
-133.6869303051199
 97
        0
 97
        0
 75
     2
 76
     1
 98
        0
  0
SPLINE
  5
8E
330
88
100
AcDbEntity
  8
_U+30EC_U+30A4_U+30E4_U+30FC 1
370
     0
100
AcDbSpline
210
0.0
220
0.0
230
1.0
 70
    11
 71
     3
 72
    53
 73
    49
 74
     0
 42
0.0000000001
 43
0.0000000001
 12
1.0
 22
0.0
 32
0.0
 13
1.0
 23
0.0
 33
0.0
 40
0.0
 40
0.0
 40
0.0
 40
0.0
 40
1.0
 40
1.0
 40
1.0
 40
2.0
 40
2.0
 40
2.0
 40
3.0
 40
3.0
 40
3.0
 40
4.0
 40
4.0
 40
4.0
 40
5.0
 40
5.0
 40
5.0
 40
6.0
 40
6.0
 40
6.0
 40
7.0
 40
7.0
 40
7.0
 40
8.0
 40
8.0
 40
8.0
 40
9.0
 40
9.0
 40
9.0
 40
10.0
 40
10.0
 40
10.0
 40
11.0
 40
11.0
 40
11.0
 40
12.0
 40
12.0
 40
12.0
 40
13.0
 40
13.0
 40
13.0
 40
14.0
 40
14.0
 40
14.0
 40
15.0
 40
15.0
 40
15.0
 40
16.0
 40
16.0
 40
16.0
 40
16.0
 10
103.7335476086152
 20
-132.5207654833629
 30
0.0
 10
103.7335476086152
 20
-132.598969150878
 30
0.0
 10
103.7166666407375
 20
-132.7005994676929
 30
0.0
 10
103.6532768838089
 20
-132.8022297845078
 30
0.0
 10
103.5433783378294
 20
-132.9755180874158
 30
0.0
 10
103.4121201998414
 20
-132.9968776794244
 30
0.0
 10
103.3042887111531
 20
-133.0158257045933
 30
0.0
 10
103.3042887111531
 20
-133.0158257045933
 30
0.0
 10
103.3042887111531
 20
-132.7936170457947
 30
0.0
 10
103.3042887111531
 20
-132.7936170457947
 30
0.0
 10
103.503070720652
 20
-132.7388400275792
 30
0.0
 10
103.5326985418252
 20
-132.6117160041735
 30
0.0
 10
103.5326985418252
 20
-132.5186984260717
 30
0.0
 10
103.5326985418252
 20
-132.3791720589191
 30
0.0
 10
103.4331352823014
 20
-132.2268988384711
 30
0.0
 10
103.2005913370471
 20
-132.2268988384711
 30
0.0
 10
102.944620742493
 20
-132.2268988384711
 30
0.0
 10
102.8746853041424
 20
-132.4067328228011
 30
0.0
 10
102.8746853041424
 20
-132.5273111647848
 30
0.0
 10
102.8746853041424
 20
-132.5590060432492
 30
0.0
 10
102.8746853041424
 20
-132.7005994676929
 30
0.0
 10
103.0038763848393
 20
-132.7894829312123
 30
0.0
 10
103.0038763848393
 20
-132.7894829312123
 30
0.0
 10
102.9849283596704
 20
-132.9651828009601
 30
0.0
 10
102.9849283596704
 20
-132.9651828009601
 30
0.0
 10
102.9849283596704
 20
-132.9651828009601
 30
0.0
 10
102.1384683989446
 20
-132.8446044589764
 30
0.0
 10
102.1384683989446
 20
-132.8446044589764
 30
0.0
 10
102.1384683989446
 20
-132.8446044589764
 30
0.0
 10
102.1384683989446
 20
-132.0660128793099
 30
0.0
 10
102.1384683989446
 20
-132.0660128793099
 30
0.0
 10
102.1384683989446
 20
-132.0660128793099
 30
0.0
 10
102.3331162938612
 20
-132.0660128793099
 30
0.0
 10
102.3331162938612
 20
-132.0660128793099
 30
0.0
 10
102.3331162938612
 20
-132.0660128793099
 30
0.0
 10
102.3331162938612
 20
-132.681651442524
 30
0.0
 10
102.3331162938612
 20
-132.681651442524
 30
0.0
 10
102.3331162938612
 20
-132.681651442524
 30
0.0
 10
102.7561740194498
 20
-132.7471082567438
 30
0.0
 10
102.7561740194498
 20
-132.7471082567438
 30
0.0
 10
102.7224120836944
 20
-132.6857855571063
 30
0.0
 10
102.682104466517
 20
-132.6034477750089
 30
0.0
 10
102.682104466517
 20
-132.4849364903163
 30
0.0
 10
102.682104466517
 20
-132.2310329530534
 30
0.0
 10
102.868484132269
 20
-131.9940103836682
 30
0.0
 10
103.1816433118782
 20
-131.9940103836682
 30
0.0
 10
103.4989366060697
 20
-131.9940103836682
 30
0.0
 10
103.7335476086152
 20
-132.2182860997579
 30
0.0
 10
103.7335476086152
 20
-132.5207654833629
 30
0.0
  0
HATCH
  5
8F
330
88
100
AcDbEntity
  8
_U+30EC_U+30A4_U+30E4_U+30FC 1
 62
   179
420
  2234388
100
AcDbHatch
 10
0.0
 20
0.0
 30
0.0
210
0.0
220
0.0
230
1.0
  2
SOLID
 70
     1
 71
     0
 91
        1
 92
        1
 93
        1
 72
     4
 94
        3
 73
     0
 74
     1
 95
       53
 96
       49
 40
0.0
 40
0.0
 40
0.0
 40
0.0
 40
1.0
 40
1.0
 40
1.0
 40
2.0
 40
2.0
 40
2.0
 40
3.0
 40
3.0
 40
3.0
 40
4.0
 40
4.0
 40
4.0
 40
5.0
 40
5.0
 40
5.0
 40
6.0
 40
6.0
 40
6.0
 40
7.0
 40
7.0
 40
7.0
 40
8.0
 40
8.0
 40
8.0
 40
9.0
 40
9.0
 40
9.0
 40
10.0
 40
10.0
 40
10.0
 40
11.0
 40
11.0
 40
11.0
 40
12.0
 40
12.0
 40
12.0
 40
13.0
 40
13.0
 40
13.0
 40
14.0
 40
14.0
 40
14.0
 40
15.0
 40
15.0
 40
15.0
 40
16.0
 40
16.0
 40
16.0
 40
16.0
 10
103.7335476086152
 20
-132.5207654833629
 10
103.7335476086152
 20
-132.598969150878
 10
103.7166666407375
 20
-132.7005994676929
 10
103.6532768838089
 20
-132.8022297845078
 10
103.5433783378294
 20
-132.9755180874158
 10
103.4121201998414
 20
-132.9968776794244
 10
103.3042887111531
 20
-133.0158257045933
 10
103.3042887111531
 20
-133.0158257045933
 10
103.3042887111531
 20
-132.7936170457947
 10
103.3042887111531
 20
-132.7936170457947
 10
103.503070720652
 20
-132.7388400275792
 10
103.5326985418252
 20
-132.6117160041735
 10
103.5326985418252
 20
-132.5186984260717
 10
103.5326985418252
 20
-132.3791720589191
 10
103.4331352823014
 20
-132.2268988384711
 10
103.2005913370471
 20
-132.2268988384711
 10
102.944620742493
 20
-132.2268988384711
 10
102.8746853041424
 20
-132.4067328228011
 10
102.8746853041424
 20
-132.5273111647848
 10
102.8746853041424
 20
-132.5590060432492
 10
102.8746853041424
 20
-132.7005994676929
 10
103.0038763848393
 20
-132.7894829312123
 10
103.0038763848393
 20
-132.7894829312123
 10
102.9849283596704
 20
-132.9651828009601
 10
102.9849283596704
 20
-132.9651828009601
 10
102.9849283596704
 20
-132.9651828009601
 10
102.1384683989446
 20
-132.8446044589764
 10
102.1384683989446
 20
-132.8446044589764
 10
102.1384683989446
 20
-132.8446044589764
 10
102.1384683989446
 20
-132.0660128793099
 10
102.1384683989446
 20
-132.0660128793099
 10
102.1384683989446
 20
-132.0660128793099
 10
102.3331162938612
 20
-132.0660128793099
 10
102.3331162938612
 20
-132.0660128793099
 10
102.3331162938612
 20
-132.0660128793099
 10
102.3331162938612
 20
-132.681651442524
 10
102.3331162938612
 20
-132.681651442524
 10
102.3331162938612
 20
-132.681651442524
 10
102.7561740194498
 20
-132.7471082567438
 10
102.7561740194498
 20
-132.7471082567438
 10
102.7224120836944
 20
-132.6857855571063
 10
102.682104466517
 20
-132.6034477750089
 10
102.682104466517
 20
-132.4849364903163
 10
102.682104466517
 20
-132.2310329530534
 10
102.868484132269
 20
-131.9940103836682
 10
103.1816433118782
 20
-131.9940103836682
 10
103.4989366060697
 20
-131.9940103836682
 10
103.7335476086152
 20
-132.2182860997579
 10
103.7335476086152
 20
-132.5207654833629
 97
        0
 97
        0
 75
     2
 76
     1
 98
        0
  0
ENDBLK
  5
8B
330
88
100
AcDbEntity
  8
0
100
AcDbBlockEnd
  0
BLOCK
  5
92
330
90
100
AcDbEntity
  8
0
100
AcDbBlockBegin
  2
block 4
 70
     0
 10
0.0
 20
0.0
 30
0.0
  3
block 4
  1

  0
SPLINE
  5
94
330
90
100
AcDbEntity
  8
_U+30EC_U+30A4_U+30E4_U+30FC 1
370
     0
100
AcDbSpline
210
0.0
220
0.0
230
1.0
 70
    11
 71
     3
 72
    32
 73
    28
 74
     0
 42
0.0000000001
 43
0.0000000001
 12
1.0
 22
0.0
 32
0.0
 13
1.0
 23
0.0
 33
0.0
 40
0.0
 40
0.0
 40
0.0
 40
0.0
 40
1.0
 40
1.0
 40
1.0
 40
2.0
 40
2.0
 40
2.0
 40
3.0
 40
3.0
 40
3.0
 40
4.0
 40
4.0
 40
4.0
 40
5.0
 40
5.0
 40
5.0
 40
6.0
 40
6.0
 40
6.0
 40
7.0
 40
7.0
 40
7.0
 40
8.0
 40
8.0
 40
8.0
 40
9.0
 40
9.0
 40
9.0
 40
9.0
 10
107.2337646216291
 20
-128.5068847334983
 30
0.0
 10
107.2337646216291
 20
-129.0229600371887
 30
0.0
 10
106.6797932676009
 20
-129.0312282663533
 30
0.0
 10
106.4658528379669
 20
-129.0312282663533
 30
0.0
 10
106.2353759500037
 20
-129.0312282663533
 30
0.0
 10
105.5880425083252
 20
-129.0122802411844
 30
0.0
 10
105.5880425083252
 20
-128.468644173612
 30
0.0
 10
105.5880425083252
 20
-128.295355870704
 30
0.0
 10
105.6579779466758
 20
-128.0497205626056
 30
0.0
 10
105.9900851514539
 20
-128.0118245122679
 30
0.0
 10
105.9900851514539
 20
-128.0118245122679
 30
0.0
 10
105.9900851514539
 20
-128.2254204323534
 30
0.0
 10
105.9900851514539
 20
-128.2254204323534
 30
0.0
 10
105.9328965663987
 20
-128.2361002283577
 30
0.0
 10
105.784757460533
 20
-128.2677951068219
 30
0.0
 10
105.784757460533
 20
-128.4707112309032
 30
0.0
 10
105.784757460533
 20
-128.7628553280524
 30
0.0
 10
106.1127305507288
 20
-128.8028184356812
 30
0.0
 10
106.3177137321011
 20
-128.8155652889767
 30
0.0
 10
106.239510064586
 20
-128.7225477108749
 30
0.0
 10
106.1802544222397
 20
-128.6546793298155
 30
0.0
 10
106.1802544222397
 20
-128.4727782881943
 30
0.0
 10
106.1802544222397
 20
-128.2929443038643
 30
0.0
 10
106.2884304204765
 20
-127.9904649202593
 30
0.0
 10
106.6946071781875
 20
-127.9904649202593
 30
0.0
 10
107.0139675296701
 20
-127.9904649202593
 30
0.0
 10
107.2337646216291
 20
-128.1895914393068
 30
0.0
 10
107.2337646216291
 20
-128.5068847334983
 30
0.0
  0
SPLINE
  5
95
330
90
100
AcDbEntity
  8
_U+30EC_U+30A4_U+30E4_U+30FC 1
370
     0
100
AcDbSpline
210
0.0
220
0.0
230
1.0
 70
    11
 71
     3
 72
    17
 73
    13
 74
     0
 42
0.0000000001
 43
0.0000000001
 12
1.0
 22
0.0
 32
0.0
 13
1.0
 23
0.0
 33
0.0
 40
0.0
 40
0.0
 40
0.0
 40
0.0
 40
1.0
 40
1.0
 40
1.0
 40
2.0
 40
2.0
 40
2.0
 40
3.0
 40
3.0
 40
3.0
 40
4.0
 40
4.0
 40
4.0
 40
4.0
 10
106.3749023171563
 20
-128.489659256072
 30
0.0
 10
106.3749023171563
 20
-128.7521755320481
 30
0.0
 10
106.5864311799506
 20
-128.7900715823858
 30
0.0
 10
106.7028754073521
 20
-128.7900715823858
 30
0.0
 10
106.8785752770998
 20
-128.7900715823858
 30
0.0
 10
107.0415282935521
 20
-128.6949869469929
 30
0.0
 10
107.0415282935521
 20
-128.5110188480806
 30
0.0
 10
107.0415282935521
 20
-128.3904405060968
 30
0.0
 10
106.9822726512058
 20
-128.2147406363491
 30
0.0
 10
106.6966742354786
 20
-128.2147406363491
 30
0.0
 10
106.4723985193888
 20
-128.2147406363491
 30
0.0
 10
106.3749023171563
 20
-128.3546115130502
 30
0.0
 10
106.3749023171563
 20
-128.489659256072
 30
0.0
  0
HATCH
  5
96
330
90
100
AcDbEntity
  8
_U+30EC_U+30A4_U+30E4_U+30FC 1
 62
   179
420
  2234388
100
AcDbHatch
 10
0.0
 20
0.0
 30
0.0
210
0.0
220
0.0
230
1.0
  2
SOLID
 70
     1
 71
     0
 91
        2
 92
        1
 93
        1
 72
     4
 94
        3
 73
     0
 74
     1
 95
       32
 96
       28
 40
0.0
 40
0.0
 40
0.0
 40
0.0
 40
1.0
 40
1.0
 40
1.0
 40
2.0
 40
2.0
 40
2.0
 40
3.0
 40
3.0
 40
3.0
 40
4.0
 40
4.0
 40
4.0
 40
5.0
 40
5.0
 40
5.0
 40
6.0
 40
6.0
 40
6.0
 40
7.0
 40
7.0
 40
7.0
 40
8.0
 40
8.0
 40
8.0
 40
9.0
 40
9.0
 40
9.0
 40
9.0
 10
107.2337646216291
 20
-128.5068847334983
 10
107.2337646216291
 20
-129.0229600371887
 10
106.6797932676009
 20
-129.0312282663533
 10
106.4658528379669
 20
-129.0312282663533
 10
106.2353759500037
 20
-129.0312282663533
 10
105.5880425083252
 20
-129.0122802411844
 10
105.5880425083252
 20
-128.468644173612
 10
105.5880425083252
 20
-128.295355870704
 10
105.6579779466758
 20
-128.0497205626056
 10
105.9900851514539
 20
-128.0118245122679
 10
105.9900851514539
 20
-128.0118245122679
 10
105.9900851514539
 20
-128.2254204323534
 10
105.9900851514539
 20
-128.2254204323534
 10
105.9328965663987
 20
-128.2361002283577
 10
105.784757460533
 20
-128.2677951068219
 10
105.784757460533
 20
-128.4707112309032
 10
105.784757460533
 20
-128.7628553280524
 10
106.1127305507288
 20
-128.8028184356812
 10
106.3177137321011
 20
-128.8155652889767
 10
106.239510064586
 20
-128.7225477108749
 10
106.1802544222397
 20
-128.6546793298155
 10
106.1802544222397
 20
-128.4727782881943
 10
106.1802544222397
 20
-128.2929443038643
 10
106.2884304204765
 20
-127.9904649202593
 10
106.6946071781875
 20
-127.9904649202593
 10
107.0139675296701
 20
-127.9904649202593
 10
107.2337646216291
 20
-128.1895914393068
 10
107.2337646216291
 20
-128.5068847334983
 97
        0
 97
        0
 92
        1
 93
        1
 72
     4
 94
        3
 73
     0
 74
     1
 95
       17
 96
       13
 40
0.0
 40
0.0
 40
0.0
 40
0.0
 40
1.0
 40
1.0
 40
1.0
 40
2.0
 40
2.0
 40
2.0
 40
3.0
 40
3.0
 40
3.0
 40
4.0
 40
4.0
 40
4.0
 40
4.0
 10
106.3749023171563
 20
-128.489659256072
 10
106.3749023171563
 20
-128.7521755320481
 10
106.5864311799506
 20
-128.7900715823858
 10
106.7028754073521
 20
-128.7900715823858
 10
106.8785752770998
 20
-128.7900715823858
 10
107.0415282935521
 20
-128.6949869469929
 10
107.0415282935521
 20
-128.5110188480806
 10
107.0415282935521
 20
-128.3904405060968
 10
106.9822726512058
 20
-128.2147406363491
 10
106.6966742354786
 20
-128.2147406363491
 10
106.4723985193888
 20
-128.2147406363491
 10
106.3749023171563
 20
-128.3546115130502
 10
106.3749023171563
 20
-128.489659256072
 97
        0
 97
        0
 75
     2
 76
     1
 98
        0
  0
SPLINE
  5
97
330
90
100
AcDbEntity
  8
_U+30EC_U+30A4_U+30E4_U+30FC 1
370
     0
100
AcDbSpline
210
0.0
220
0.0
230
1.0
 70
    11
 71
     3
 72
    29
 73
    25
 74
     0
 42
0.0000000001
 43
0.0000000001
 12
1.0
 22
0.0
 32
0.0
 13
1.0
 23
0.0
 33
0.0
 40
0.0
 40
0.0
 40
0.0
 40
0.0
 40
1.0
 40
1.0
 40
1.0
 40
2.0
 40
2.0
 40
2.0
 40
3.0
 40
3.0
 40
3.0
 40
4.0
 40
4.0
 40
4.0
 40
5.0
 40
5.0
 40
5.0
 40
6.0
 40
6.0
 40
6.0
 40
7.0
 40
7.0
 40
7.0
 40
8.0
 40
8.0
 40
8.0
 40
8.0
 10
107.005354790957
 20
-126.9362657017729
 30
0.0
 10
107.2148165964602
 20
-127.0444417000097
 30
0.0
 10
107.2337646216291
 20
-127.2177300029178
 30
0.0
 10
107.2337646216291
 20
-127.3341742303192
 30
0.0
 10
107.2337646216291
 20
-127.4950601894804
 30
0.0
 10
107.1872558325782
 20
-127.6366536139242
 30
0.0
 10
107.005354790957
 20
-127.7317382493171
 30
0.0
 10
106.8107068960404
 20
-127.8354356234231
 30
0.0
 10
106.5740288362037
 20
-127.854383648592
 30
0.0
 10
106.4110758197514
 20
-127.854383648592
 30
0.0
 10
106.267070828468
 20
-127.854383648592
 30
0.0
 10
106.0152343484962
 20
-127.8375026807142
 30
0.0
 10
105.8164523389973
 20
-127.7317382493171
 30
0.0
 10
105.6135362149161
 20
-127.6239067606288
 30
0.0
 10
105.5901095656164
 20
-127.4630208014676
 30
0.0
 10
105.5901095656164
 20
-127.3341742303192
 30
0.0
 10
105.5901095656164
 20
-127.1753553284492
 30
0.0
 10
105.6345512973761
 20
-127.0316948467143
 30
0.0
 10
105.8164523389973
 20
-126.9362657017729
 30
0.0
 10
106.0090331766228
 20
-126.8370469517977
 30
0.0
 10
106.2374430072948
 20
-126.813620302498
 30
0.0
 10
106.4110758197514
 20
-126.813620302498
 30
0.0
 10
106.5822970653683
 20
-126.813620302498
 30
0.0
 10
106.8127739533315
 20
-126.8349798945065
 30
0.0
 10
107.005354790957
 20
-126.9362657017729
 30
0.0
  0
SPLINE
  5
98
330
90
100
AcDbEntity
  8
_U+30EC_U+30A4_U+30E4_U+30FC 1
370
     0
100
AcDbSpline
210
0.0
220
0.0
230
1.0
 70
    11
 71
     3
 72
    17
 73
    13
 74
     0
 42
0.0000000001
 43
0.0000000001
 12
1.0
 22
0.0
 32
0.0
 13
1.0
 23
0.0
 33
0.0
 40
0.0
 40
0.0
 40
0.0
 40
0.0
 40
1.0
 40
1.0
 40
1.0
 40
2.0
 40
2.0
 40
2.0
 40
3.0
 40
3.0
 40
3.0
 40
4.0
 40
4.0
 40
4.0
 40
4.0
 10
105.7826904032418
 20
-127.3341742303192
 30
0.0
 10
105.7826904032418
 20
-127.5835991434513
 30
0.0
 10
106.0662217616779
 20
-127.6304524420507
 30
0.0
 10
106.4110758197514
 20
-127.6304524420507
 30
0.0
 10
106.7304361712341
 20
-127.6304524420507
 30
0.0
 10
107.0391167267125
 20
-127.5942789394556
 30
0.0
 10
107.0391167267125
 20
-127.3341742303192
 30
0.0
 10
107.0391167267125
 20
-127.0864718649298
 30
0.0
 10
106.7579969351161
 20
-127.0378960185878
 30
0.0
 10
106.4110758197514
 20
-127.0378960185878
 30
0.0
 10
106.0913709587202
 20
-127.0378960185878
 30
0.0
 10
105.7826904032418
 20
-127.076136578474
 30
0.0
 10
105.7826904032418
 20
-127.3341742303192
 30
0.0
  0
HATCH
  5
99
330
90
100
AcDbEntity
  8
_U+30EC_U+30A4_U+30E4_U+30FC 1
 62
   179
420
  2234388
100
AcDbHatch
 10
0.0
 20
0.0
 30
0.0
210
0.0
220
0.0
230
1.0
  2
SOLID
 70
     1
 71
     0
 91
        2
 92
        1
 93
        1
 72
     4
 94
        3
 73
     0
 74
     1
 95
       29
 96
       25
 40
0.0
 40
0.0
 40
0.0
 40
0.0
 40
1.0
 40
1.0
 40
1.0
 40
2.0
 40
2.0
 40
2.0
 40
3.0
 40
3.0
 40
3.0
 40
4.0
 40
4.0
 40
4.0
 40
5.0
 40
5.0
 40
5.0
 40
6.0
 40
6.0
 40
6.0
 40
7.0
 40
7.0
 40
7.0
 40
8.0
 40
8.0
 40
8.0
 40
8.0
 10
107.005354790957
 20
-126.9362657017729
 10
107.2148165964602
 20
-127.0444417000097
 10
107.2337646216291
 20
-127.2177300029178
 10
107.2337646216291
 20
-127.3341742303192
 10
107.2337646216291
 20
-127.4950601894804
 10
107.1872558325782
 20
-127.6366536139242
 10
107.005354790957
 20
-127.7317382493171
 10
106.8107068960404
 20
-127.8354356234231
 10
106.5740288362037
 20
-127.854383648592
 10
106.4110758197514
 20
-127.854383648592
 10
106.267070828468
 20
-127.854383648592
 10
106.0152343484962
 20
-127.8375026807142
 10
105.8164523389973
 20
-127.7317382493171
 10
105.6135362149161
 20
-127.6239067606288
 10
105.5901095656164
 20
-127.4630208014676
 10
105.5901095656164
 20
-127.3341742303192
 10
105.5901095656164
 20
-127.1753553284492
 10
105.6345512973761
 20
-127.0316948467143
 10
105.8164523389973
 20
-126.9362657017729
 10
106.0090331766228
 20
-126.8370469517977
 10
106.2374430072948
 20
-126.813620302498
 10
106.4110758197514
 20
-126.813620302498
 10
106.5822970653683
 20
-126.813620302498
 10
106.8127739533315
 20
-126.8349798945065
 10
107.005354790957
 20
-126.9362657017729
 97
        0
 97
        0
 92
        1
 93
        1
 72
     4
 94
        3
 73
     0
 74
     1
 95
       17
 96
       13
 40
0.0
 40
0.0
 40
0.0
 40
0.0
 40
1.0
 40
1.0
 40
1.0
 40
2.0
 40
2.0
 40
2.0
 40
3.0
 40
3.0
 40
3.0
 40
4.0
 40
4.0
 40
4.0
 40
4.0
 10
105.7826904032418
 20
-127.3341742303192
 10
105.7826904032418
 20
-127.5835991434513
 10
106.0662217616779
 20
-127.6304524420507
 10
106.4110758197514
 20
-127.6304524420507
 10
106.7304361712341
 20
-127.6304524420507
 10
107.0391167267125
 20
-127.5942789394556
 10
107.0391167267125
 20
-127.3341742303192
 10
107.0391167267125
 20
-127.0864718649298
 10
106.7579969351161
 20
-127.0378960185878
 10
106.4110758197514
 20
-127.0378960185878
 10
106.0913709587202
 20
-127.0378960185878
 10
105.7826904032418
 20
-127.076136578474
 10
105.7826904032418
 20
-127.3341742303192
 97
        0
 97
        0
 75
     2
 76
     1
 98
        0
  0
ENDBLK
  5
93
330
90
100
AcDbEntity
  8
0
100
AcDbBlockEnd
  0
BLOCK
  5
A9
330
A7
100
AcDbEntity
  8
0
100
AcDbBlockBegin
  2
block 5
 70
     0
 10
0.0
 20
0.0
 30
0.0
  3
block 5
  1

  0
SPLINE
  5
AB
330
A7
100
AcDbEntity
  8
_U+30EC_U+30A4_U+30E4_U+30FC 1
370
     0
100
AcDbSpline
210
0.0
220
0.0
230
1.0
 70
    11
 71
     3
 72
    44
 73
    40
 74
     0
 42
0.0000000001
 43
0.0000000001
 12
1.0
 22
0.0
 32
0.0
 13
1.0
 23
0.0
 33
0.0
 40
0.0
 40
0.0
 40
0.0
 40
0.0
 40
1.0
 40
1.0
 40
1.0
 40
2.0
 40
2.0
 40
2.0
 40
3.0
 40
3.0
 40
3.0
 40
4.0
 40
4.0
 40
4.0
 40
5.0
 40
5.0
 40
5.0
 40
6.0
 40
6.0
 40
6.0
 40
7.0
 40
7.0
 40
7.0
 40
8.0
 40
8.0
 40
8.0
 40
9.0
 40
9.0
 40
9.0
 40
10.0
 40
10.0
 40
10.0
 40
11.0
 40
11.0
 40
11.0
 40
12.0
 40
12.0
 40
12.0
 40
13.0
 40
13.0
 40
13.0
 40
13.0
 10
94.34152829672712
 20
-109.7585028479944
 30
0.0
 10
94.12379826205934
 20
-109.9171494950902
 30
0.0
 10
94.03078068395759
 20
-109.991219048023
 30
0.0
 10
93.98186032806704
 20
-110.1350517845322
 30
0.0
 10
93.98186032806704
 20
-110.1350517845322
 30
0.0
 10
94.7604519077335
 20
-110.1350517845322
 30
0.0
 10
94.7604519077335
 20
-110.1350517845322
 30
0.0
 10
94.7604519077335
 20
-110.1350517845322
 30
0.0
 10
94.7604519077335
 20
-110.3402072206788
 30
0.0
 10
94.7604519077335
 20
-110.3402072206788
 30
0.0
 10
94.7604519077335
 20
-110.3402072206788
 30
0.0
 10
93.73243541493495
 20
-110.3402072206788
 30
0.0
 10
93.73243541493495
 20
-110.3402072206788
 30
0.0
 10
93.76413029339925
 20
-109.9826063093099
 30
0.0
 10
93.82958710761899
 20
-109.9044026417947
 30
0.0
 10
94.21474878286993
 20
-109.6060573727721
 30
0.0
 10
94.47071937742399
 20
-109.4072753632732
 30
0.0
 10
94.53617619164373
 20
-109.339579236988
 30
0.0
 10
94.53617619164373
 20
-109.2021199271266
 30
0.0
 10
94.53617619164373
 20
-109.083608642434
 30
0.0
 10
94.46417369600202
 20
-108.9525227592202
 30
0.0
 10
94.26745874379425
 20
-108.9525227592202
 30
0.0
 10
94.0073540346579
 20
-108.9525227592202
 30
0.0
 10
93.99874129594477
 20
-109.1829996471834
 30
0.0
 10
93.99460718136247
 20
-109.2994438745849
 30
0.0
 10
93.99460718136247
 20
-109.2994438745849
 30
0.0
 10
93.7703314652727
 20
-109.2994438745849
 30
0.0
 10
93.7703314652727
 20
-109.2994438745849
 30
0.0
 10
93.77894420398583
 20
-109.1724921059534
 30
0.0
 10
93.7896239999901
 20
-109.0603542479085
 30
0.0
 10
93.86989472479642
 20
-108.9418429632159
 30
0.0
 10
93.97979327077589
 20
-108.781129258829
 30
0.0
 10
94.1661729365279
 20
-108.7471950682993
 30
0.0
 10
94.28227265438082
 20
-108.7471950682993
 30
0.0
 10
94.55960284094344
 20
-108.7471950682993
 30
0.0
 10
94.76699758915548
 20
-108.9313354219859
 30
0.0
 10
94.76699758915548
 20
-109.2041869844177
 30
0.0
 10
94.76699758915548
 20
-109.4325968150898
 30
0.0
 10
94.65055336175404
 20
-109.5321600746135
 30
0.0
 10
94.34152829672712
 20
-109.7585028479944
 30
0.0
  0
HATCH
  5
AC
330
A7
100
AcDbEntity
  8
_U+30EC_U+30A4_U+30E4_U+30FC 1
 62
   179
420
  2234388
100
AcDbHatch
 10
0.0
 20
0.0
 30
0.0
210
0.0
220
0.0
230
1.0
  2
SOLID
 70
     1
 71
     0
 91
        1
 92
        1
 93
        1
 72
     4
 94
        3
 73
     0
 74
     1
 95
       44
 96
       40
 40
0.0
 40
0.0
 40
0.0
 40
0.0
 40
1.0
 40
1.0
 40
1.0
 40
2.0
 40
2.0
 40
2.0
 40
3.0
 40
3.0
 40
3.0
 40
4.0
 40
4.0
 40
4.0
 40
5.0
 40
5.0
 40
5.0
 40
6.0
 40
6.0
 40
6.0
 40
7.0
 40
7.0
 40
7.0
 40
8.0
 40
8.0
 40
8.0
 40
9.0
 40
9.0
 40
9.0
 40
10.0
 40
10.0
 40
10.0
 40
11.0
 40
11.0
 40
11.0
 40
12.0
 40
12.0
 40
12.0
 40
13.0
 40
13.0
 40
13.0
 40
13.0
 10
94.34152829672712
 20
-109.7585028479944
 10
94.12379826205934
 20
-109.9171494950902
 10
94.03078068395759
 20
-109.991219048023
 10
93.98186032806704
 20
-110.1350517845322
 10
93.98186032806704
 20
-110.1350517845322
 10
94.7604519077335
 20
-110.1350517845322
 10
94.7604519077335
 20
-110.1350517845322
 10
94.7604519077335
 20
-110.1350517845322
 10
94.7604519077335
 20
-110.3402072206788
 10
94.7604519077335
 20
-110.3402072206788
 10
94.7604519077335
 20
-110.3402072206788
 10
93.73243541493495
 20
-110.3402072206788
 10
93.73243541493495
 20
-110.3402072206788
 10
93.76413029339925
 20
-109.9826063093099
 10
93.82958710761899
 20
-109.9044026417947
 10
94.21474878286993
 20
-109.6060573727721
 10
94.47071937742399
 20
-109.4072753632732
 10
94.53617619164373
 20
-109.339579236988
 10
94.53617619164373
 20
-109.2021199271266
 10
94.53617619164373
 20
-109.083608642434
 10
94.46417369600202
 20
-108.9525227592202
 10
94.26745874379425
 20
-108.9525227592202
 10
94.0073540346579
 20
-108.9525227592202
 10
93.99874129594477
 20
-109.1829996471834
 10
93.99460718136247
 20
-109.2994438745849
 10
93.99460718136247
 20
-109.2994438745849
 10
93.7703314652727
 20
-109.2994438745849
 10
93.7703314652727
 20
-109.2994438745849
 10
93.77894420398583
 20
-109.1724921059534
 10
93.7896239999901
 20
-109.0603542479085
 10
93.86989472479642
 20
-108.9418429632159
 10
93.97979327077589
 20
-108.781129258829
 10
94.1661729365279
 20
-108.7471950682993
 10
94.28227265438082
 20
-108.7471950682993
 10
94.55960284094344
 20
-108.7471950682993
 10
94.76699758915548
 20
-108.9313354219859
 10
94.76699758915548
 20
-109.2041869844177
 10
94.76699758915548
 20
-109.4325968150898
 10
94.65055336175404
 20
-109.5321600746135
 10
94.34152829672712
 20
-109.7585028479944
 97
        0
 97
        0
 75
     2
 76
     1
 98
        0
  0
POLYLINE
  5
AD
330
A7
100
AcDbEntity
  8
_U+30EC_U+30A4_U+30E4_U+30FC 1
370
     0
100
AcDb2dPolyline
 66
     1
 10
0.0
 20
0.0
 30
0.0
  0
VERTEX
  5
AE
330
AD
100
AcDbEntity
  8
_U+30EC_U+30A4_U+30E4_U+30FC 1
370
     0
100
AcDbVertex
100
AcDb2dVertex
 10
95.7574625411648
 20
-109.9932861053142
 30
0.0
  0
VERTEX
  5
AF
330
AD
100
AcDbEntity
  8
_U+30EC_U+30A4_U+30E4_U+30FC 1
370
     0
100
AcDbVertex
100
AcDb2dVertex
 10
95.7574625411648
 20
-110.3402072206788
 30
0.0
  0
VERTEX
  5
B0
330
AD
100
AcDbEntity
  8
_U+30EC_U+30A4_U+30E4_U+30FC 1
370
     0
100
AcDbVertex
100
AcDb2dVertex
 10
95.53973250649702
 20
-110.3402072206788
 30
0.0
  0
VERTEX
  5
B1
330
AD
100
AcDbEntity
  8
_U+30EC_U+30A4_U+30E4_U+30FC 1
370
     0
100
AcDbVertex
100
AcDb2dVertex
 10
95.53973250649702
 20
-109.9932861053142
 30
0.0
  0
VERTEX
  5
B2
330
AD
100
AcDbEntity
  8
_U+30EC_U+30A4_U+30E4_U+30FC 1
370
     0
100
AcDbVertex
100
AcDb2dVertex
 10
94.88378632610545
 20
-109.9932861053142
 30
0.0
  0
VERTEX
  5
B3
330
AD
100
AcDbEntity
  8
_U+30EC_U+30A4_U+30E4_U+30FC 1
370
     0
100
AcDbVertex
100
AcDb2dVertex
 10
94.88378632610545
 20
-109.7690103892244
 30
0.0
  0
VERTEX
  5
B4
330
AD
100
AcDbEntity
  8
_U+30EC_U+30A4_U+30E4_U+30FC 1
370
     0
100
AcDbVertex
100
AcDb2dVertex
 10
95.56281464624819
 20
-108.7959431694156
 30
0.0
  0
VERTEX
  5
B5
330
AD
100
AcDbEntity
  8
_U+30EC_U+30A4_U+30E4_U+30FC 1
370
     0
100
AcDbVertex
100
AcDb2dVertex
 10
95.7574625411648
 20
-108.7959431694156
 30
0.0
  0
VERTEX
  5
B6
330
AD
100
AcDbEntity
  8
_U+30EC_U+30A4_U+30E4_U+30FC 1
370
     0
100
AcDbVertex
100
AcDb2dVertex
 10
95.7574625411648
 20
-109.794331841041
 30
0.0
  0
VERTEX
  5
B7
330
AD
100
AcDbEntity
  8
_U+30EC_U+30A4_U+30E4_U+30FC 1
370
     0
100
AcDbVertex
100
AcDb2dVertex
 10
95.96485728937685
 20
-109.794331841041
 30
0.0
  0
VERTEX
  5
B8
330
AD
100
AcDbEntity
  8
_U+30EC_U+30A4_U+30E4_U+30FC 1
370
     0
100
AcDbVertex
100
AcDb2dVertex
 10
95.96485728937685
 20
-109.9932861053142
 30
0.0
  0
VERTEX
  5
B9
330
AD
100
AcDbEntity
  8
_U+30EC_U+30A4_U+30E4_U+30FC 1
370
     0
100
AcDbVertex
100
AcDb2dVertex
 10
95.7574625411648
 20
-109.9932861053142
 30
0.0
  0
SEQEND
  5
BA
330
AD
100
AcDbEntity
  8
_U+30EC_U+30A4_U+30E4_U+30FC 1
370
     0
  0
POLYLINE
  5
BB
330
A7
100
AcDbEntity
  8
_U+30EC_U+30A4_U+30E4_U+30FC 1
370
     0
100
AcDb2dPolyline
 66
     1
 10
0.0
 20
0.0
 30
0.0
  0
VERTEX
  5
BC
330
BB
100
AcDbEntity
  8
_U+30EC_U+30A4_U+30E4_U+30FC 1
370
     0
100
AcDbVertex
100
AcDb2dVertex
 10
95.53973250649702
 20
-109.1385579154237
 30
0.0
  0
VERTEX
  5
BD
330
BB
100
AcDbEntity
  8
_U+30EC_U+30A4_U+30E4_U+30FC 1
370
     0
100
AcDbVertex
100
AcDb2dVertex
 10
95.08256833560436
 20
-109.794331841041
 30
0.0
  0
VERTEX
  5
BE
330
BB
100
AcDbEntity
  8
_U+30EC_U+30A4_U+30E4_U+30FC 1
370
     0
100
AcDbVertex
100
AcDb2dVertex
 10
95.53973250649702
 20
-109.794331841041
 30
0.0
  0
VERTEX
  5
BF
330
BB
100
AcDbEntity
  8
_U+30EC_U+30A4_U+30E4_U+30FC 1
370
     0
100
AcDbVertex
100
AcDb2dVertex
 10
95.53973250649702
 20
-109.1385579154237
 30
0.0
  0
SEQEND
  5
C0
330
BB
100
AcDbEntity
  8
_U+30EC_U+30A4_U+30E4_U+30FC 1
370
     0
  0
HATCH
  5
C1
330
A7
100
AcDbEntity
  8
_U+30EC_U+30A4_U+30E4_U+30FC 1
 62
   179
420
  2234388
100
AcDbHatch
 10
0.0
 20
0.0
 30
0.0
210
0.0
220
0.0
230
1.0
  2
SOLID
 70
     1
 71
     0
 91
        2
 92
        1
 93
       11
 72
     1
 10
95.7574625411648
 20
-109.9932861053142
 11
95.7574625411648
 21
-110.3402072206788
 72
     1
 10
95.7574625411648
 20
-110.3402072206788
 11
95.53973250649702
 21
-110.3402072206788
 72
     1
 10
95.53973250649702
 20
-110.3402072206788
 11
95.53973250649702
 21
-109.9932861053142
 72
     1
 10
95.53973250649702
 20
-109.9932861053142
 11
94.88378632610545
 21
-109.9932861053142
 72
     1
 10
94.88378632610545
 20
-109.9932861053142
 11
94.88378632610545
 21
-109.7690103892244
 72
     1
 10
94.88378632610545
 20
-109.7690103892244
 11
95.56281464624819
 21
-108.7959431694156
 72
     1
 10
95.56281464624819
 20
-108.7959431694156
 11
95.7574625411648
 21
-108.7959431694156
 72
     1
 10
95.7574625411648
 20
-108.7959431694156
 11
95.7574625411648
 21
-109.794331841041
 72
     1
 10
95.7574625411648
 20
-109.794331841041
 11
95.96485728937685
 21
-109.794331841041
 72
     1
 10
95.96485728937685
 20
-109.794331841041
 11
95.96485728937685
 21
-109.9932861053142
 72
     1
 10
95.96485728937685
 20
-109.9932861053142
 11
95.7574625411648
 21
-109.9932861053142
 97
        0
 92
        1
 93
        3
 72
     1
 10
95.53973250649702
 20
-109.1385579154237
 11
95.08256833560436
 21
-109.794331841041
 72
     1
 10
95.08256833560436
 20
-109.794331841041
 11
95.53973250649702
 21
-109.794331841041
 72
     1
 10
95.53973250649702
 20
-109.794331841041
 11
95.53973250649702
 21
-109.1385579154237
 97
        0
 75
     2
 76
     1
 98
        0
  0
ENDBLK
  5
AA
330
A7
100
AcDbEntity
  8
0
100
AcDbBlockEnd
  0
BLOCK
  5
C4
330
C2
100
AcDbEntity
  8
0
100
AcDbBlockBegin
  2
block 6
 70
     0
 10
0.0
 20
0.0
 30
0.0
  3
block 6
  1

  0
SPLINE
  5
C6
330
C2
100
AcDbEntity
  8
_U+30EC_U+30A4_U+30E4_U+30FC 1
370
     0
100
AcDbSpline
210
0.0
220
0.0
230
1.0
 70
    11
 71
     3
 72
    62
 73
    58
 74
     0
 42
0.0000000001
 43
0.0000000001
 12
1.0
 22
0.0
 32
0.0
 13
1.0
 23
0.0
 33
0.0
 40
0.0
 40
0.0
 40
0.0
 40
0.0
 40
1.0
 40
1.0
 40
1.0
 40
2.0
 40
2.0
 40
2.0
 40
3.0
 40
3.0
 40
3.0
 40
4.0
 40
4.0
 40
4.0
 40
5.0
 40
5.0
 40
5.0
 40
6.0
 40
6.0
 40
6.0
 40
7.0
 40
7.0
 40
7.0
 40
8.0
 40
8.0
 40
8.0
 40
9.0
 40
9.0
 40
9.0
 40
10.0
 40
10.0
 40
10.0
 40
11.0
 40
11.0
 40
11.0
 40
12.0
 40
12.0
 40
12.0
 40
13.0
 40
13.0
 40
13.0
 40
14.0
 40
14.0
 40
14.0
 40
15.0
 40
15.0
 40
15.0
 40
16.0
 40
16.0
 40
16.0
 40
17.0
 40
17.0
 40
17.0
 40
18.0
 40
18.0
 40
18.0
 40
19.0
 40
19.0
 40
19.0
 40
19.0
 10
102.4161430950557
 20
-110.3910223790863
 30
0.0
 10
102.3207139501143
 20
-110.3910223790863
 30
0.0
 10
102.1029839154465
 20
-110.369835041852
 30
0.0
 10
101.9779269493319
 20
-110.1836276308742
 30
0.0
 10
101.903857396399
 20
-110.0714897728294
 30
0.0
 10
101.8997232818167
 20
-109.9720987680799
 30
0.0
 10
101.8955891672344
 20
-109.887521673917
 30
0.0
 10
101.8955891672344
 20
-109.887521673917
 30
0.0
 10
102.1157307687419
 20
-109.887521673917
 30
0.0
 10
102.1157307687419
 20
-109.887521673917
 30
0.0
 10
102.1177978260331
 20
-109.9615912268499
 30
0.0
 10
102.1281331124888
 20
-110.1963744841697
 30
0.0
 10
102.4116644709249
 20
-110.1963744841697
 30
0.0
 10
102.5491237807863
 20
-110.1963744841697
 30
0.0
 10
102.7017415107829
 20
-110.1266113005934
 30
0.0
 10
102.7017415107829
 20
-109.898029215147
 30
0.0
 10
102.7017415107829
 20
-109.7817572425198
 30
0.0
 10
102.6635009508966
 20
-109.7330091414036
 30
0.0
 10
102.6318060724323
 20
-109.7013142629393
 30
0.0
 10
102.5577365194995
 20
-109.6272447100064
 30
0.0
 10
102.441292292098
 20
-109.6146701114852
 30
0.0
 10
102.3865152738825
 20
-109.6146701114852
 30
0.0
 10
102.3672227391651
 20
-109.6146701114852
 30
0.0
 10
102.3313937461186
 20
-109.6167371687764
 30
0.0
 10
102.3038329822365
 20
-109.6208712833587
 30
0.0
 10
102.3038329822365
 20
-109.6208712833587
 30
0.0
 10
102.3038329822365
 20
-109.4262233884421
 30
0.0
 10
102.3038329822365
 20
-109.4262233884421
 30
0.0
 10
102.3420735421228
 20
-109.4325968150898
 30
0.0
 10
102.3841037070429
 20
-109.4348361271552
 30
0.0
 10
102.3906493884648
 20
-109.4348361271552
 30
0.0
 10
102.4561062026846
 20
-109.4348361271552
 30
0.0
 10
102.6548882121835
 20
-109.4136487899209
 30
0.0
 10
102.6548882121835
 20
-109.1766262205357
 30
0.0
 10
102.6548882121835
 20
-108.9990315482711
 30
0.0
 10
102.523974583744
 20
-108.9439100205071
 30
0.0
 10
102.413731528216
 20
-108.9439100205071
 30
0.0
 10
102.1494927044973
 20
-108.9439100205071
 30
0.0
 10
102.1408799657842
 20
-109.1766262205357
 30
0.0
 10
102.1367458512019
 20
-109.2486287161774
 30
0.0
 10
102.1367458512019
 20
-109.2486287161774
 30
0.0
 10
101.9334852175722
 20
-109.2486287161774
 30
0.0
 10
101.9334852175722
 20
-109.2486287161774
 30
0.0
 10
101.9420979562853
 20
-109.1237440048371
 30
0.0
 10
101.9696587201673
 20
-108.7471950682993
 30
0.0
 10
102.4264783815114
 20
-108.7471950682993
 30
0.0
 10
102.6507540976012
 20
-108.7471950682993
 30
0.0
 10
102.8919107815687
 20
-108.8741468369308
 30
0.0
 10
102.8919107815687
 20
-109.170252793888
 30
0.0
 10
102.8919107815687
 20
-109.3564602048658
 30
0.0
 10
102.7968261461758
 20
-109.4389702417375
 30
0.0
 10
102.6972628866521
 20
-109.5002929413749
 30
0.0
 10
102.7585855862895
 20
-109.5278537052569
 30
0.0
 10
102.9404866279107
 20
-109.6082966848375
 30
0.0
 10
102.9404866279107
 20
-109.8854546166259
 30
0.0
 10
102.9404866279107
 20
-110.2239352480517
 30
0.0
 10
102.6931287720698
 20
-110.3910223790863
 30
0.0
 10
102.4161430950557
 20
-110.3910223790863
 30
0.0
  0
HATCH
  5
C7
330
C2
100
AcDbEntity
  8
_U+30EC_U+30A4_U+30E4_U+30FC 1
 62
   179
420
  2234388
100
AcDbHatch
 10
0.0
 20
0.0
 30
0.0
210
0.0
220
0.0
230
1.0
  2
SOLID
 70
     1
 71
     0
 91
        1
 92
        1
 93
        1
 72
     4
 94
        3
 73
     0
 74
     1
 95
       62
 96
       58
 40
0.0
 40
0.0
 40
0.0
 40
0.0
 40
1.0
 40
1.0
 40
1.0
 40
2.0
 40
2.0
 40
2.0
 40
3.0
 40
3.0
 40
3.0
 40
4.0
 40
4.0
 40
4.0
 40
5.0
 40
5.0
 40
5.0
 40
6.0
 40
6.0
 40
6.0
 40
7.0
 40
7.0
 40
7.0
 40
8.0
 40
8.0
 40
8.0
 40
9.0
 40
9.0
 40
9.0
 40
10.0
 40
10.0
 40
10.0
 40
11.0
 40
11.0
 40
11.0
 40
12.0
 40
12.0
 40
12.0
 40
13.0
 40
13.0
 40
13.0
 40
14.0
 40
14.0
 40
14.0
 40
15.0
 40
15.0
 40
15.0
 40
16.0
 40
16.0
 40
16.0
 40
17.0
 40
17.0
 40
17.0
 40
18.0
 40
18.0
 40
18.0
 40
19.0
 40
19.0
 40
19.0
 40
19.0
 10
102.4161430950557
 20
-110.3910223790863
 10
102.3207139501143
 20
-110.3910223790863
 10
102.1029839154465
 20
-110.369835041852
 10
101.9779269493319
 20
-110.1836276308742
 10
101.903857396399
 20
-110.0714897728294
 10
101.8997232818167
 20
-109.9720987680799
 10
101.8955891672344
 20
-109.887521673917
 10
101.8955891672344
 20
-109.887521673917
 10
102.1157307687419
 20
-109.887521673917
 10
102.1157307687419
 20
-109.887521673917
 10
102.1177978260331
 20
-109.9615912268499
 10
102.1281331124888
 20
-110.1963744841697
 10
102.4116644709249
 20
-110.1963744841697
 10
102.5491237807863
 20
-110.1963744841697
 10
102.7017415107829
 20
-110.1266113005934
 10
102.7017415107829
 20
-109.898029215147
 10
102.7017415107829
 20
-109.7817572425198
 10
102.6635009508966
 20
-109.7330091414036
 10
102.6318060724323
 20
-109.7013142629393
 10
102.5577365194995
 20
-109.6272447100064
 10
102.441292292098
 20
-109.6146701114852
 10
102.3865152738825
 20
-109.6146701114852
 10
102.3672227391651
 20
-109.6146701114852
 10
102.3313937461186
 20
-109.6167371687764
 10
102.3038329822365
 20
-109.6208712833587
 10
102.3038329822365
 20
-109.6208712833587
 10
102.3038329822365
 20
-109.4262233884421
 10
102.3038329822365
 20
-109.4262233884421
 10
102.3420735421228
 20
-109.4325968150898
 10
102.3841037070429
 20
-109.4348361271552
 10
102.3906493884648
 20
-109.4348361271552
 10
102.4561062026846
 20
-109.4348361271552
 10
102.6548882121835
 20
-109.4136487899209
 10
102.6548882121835
 20
-109.1766262205357
 10
102.6548882121835
 20
-108.9990315482711
 10
102.523974583744
 20
-108.9439100205071
 10
102.413731528216
 20
-108.9439100205071
 10
102.1494927044973
 20
-108.9439100205071
 10
102.1408799657842
 20
-109.1766262205357
 10
102.1367458512019
 20
-109.2486287161774
 10
102.1367458512019
 20
-109.2486287161774
 10
101.9334852175722
 20
-109.2486287161774
 10
101.9334852175722
 20
-109.2486287161774
 10
101.9420979562853
 20
-109.1237440048371
 10
101.9696587201673
 20
-108.7471950682993
 10
102.4264783815114
 20
-108.7471950682993
 10
102.6507540976012
 20
-108.7471950682993
 10
102.8919107815687
 20
-108.8741468369308
 10
102.8919107815687
 20
-109.170252793888
 10
102.8919107815687
 20
-109.3564602048658
 10
102.7968261461758
 20
-109.4389702417375
 10
102.6972628866521
 20
-109.5002929413749
 10
102.7585855862895
 20
-109.5278537052569
 10
102.9404866279107
 20
-109.6082966848375
 10
102.9404866279107
 20
-109.8854546166259
 10
102.9404866279107
 20
-110.2239352480517
 10
102.6931287720698
 20
-110.3910223790863
 10
102.4161430950557
 20
-110.3910223790863
 97
        0
 97
        0
 75
     2
 76
     1
 98
        0
  0
ENDBLK
  5
C5
330
C2
100
AcDbEntity
  8
0
100
AcDbBlockEnd
  0
BLOCK
  5
E1
330
DF
100
AcDbEntity
  8
0
100
AcDbBlockBegin
  2
block 7
 70
     0
 10
0.0
 20
0.0
 30
0.0
  3
block 7
  1

  0
SPLINE
  5
E3
330
DF
100
AcDbEntity
  8
_U+30EC_U+30A4_U+30E4_U+30FC 1
370
     0
100
AcDbSpline
210
0.0
220
0.0
230
1.0
 70
    11
 71
     3
 72
    62
 73
    58
 74
     0
 42
0.0000000001
 43
0.0000000001
 12
1.0
 22
0.0
 32
0.0
 13
1.0
 23
0.0
 33
0.0
 40
0.0
 40
0.0
 40
0.0
 40
0.0
 40
1.0
 40
1.0
 40
1.0
 40
2.0
 40
2.0
 40
2.0
 40
3.0
 40
3.0
 40
3.0
 40
4.0
 40
4.0
 40
4.0
 40
5.0
 40
5.0
 40
5.0
 40
6.0
 40
6.0
 40
6.0
 40
7.0
 40
7.0
 40
7.0
 40
8.0
 40
8.0
 40
8.0
 40
9.0
 40
9.0
 40
9.0
 40
10.0
 40
10.0
 40
10.0
 40
11.0
 40
11.0
 40
11.0
 40
12.0
 40
12.0
 40
12.0
 40
13.0
 40
13.0
 40
13.0
 40
14.0
 40
14.0
 40
14.0
 40
15.0
 40
15.0
 40
15.0
 40
16.0
 40
16.0
 40
16.0
 40
17.0
 40
17.0
 40
17.0
 40
18.0
 40
18.0
 40
18.0
 40
19.0
 40
19.0
 40
19.0
 40
19.0
 10
93.20602482478877
 20
-142.6844861839469
 30
0.0
 10
93.11059567984735
 20
-142.6844861839469
 30
0.0
 10
92.89286564517957
 20
-142.6634711014869
 30
0.0
 10
92.767808679065
 20
-142.4774359452834
 30
0.0
 10
92.69373912613213
 20
-142.3651258324643
 30
0.0
 10
92.68960501154983
 20
-142.2659070824891
 30
0.0
 10
92.68547089696753
 20
-142.1811577335519
 30
0.0
 10
92.68547089696753
 20
-142.1811577335519
 30
0.0
 10
92.905612498475
 20
-142.1811577335519
 30
0.0
 10
92.905612498475
 20
-142.1811577335519
 30
0.0
 10
92.90767955576614
 20
-142.2552272864848
 30
0.0
 10
92.9180148422219
 20
-142.4898382890303
 30
0.0
 10
93.20154620065794
 20
-142.4898382890303
 30
0.0
 10
93.33900551051941
 20
-142.4898382890303
 30
0.0
 10
93.49162324051599
 20
-142.4202473602283
 30
0.0
 10
93.49162324051599
 20
-142.1918375295562
 30
0.0
 10
93.49162324051599
 20
-142.0753933021548
 30
0.0
 10
93.45338268062972
 20
-142.0268174558127
 30
0.0
 10
93.42168780216542
 20
-141.9951225773484
 30
0.0
 10
93.34761824923254
 20
-141.9210530244156
 30
0.0
 10
93.2311740218311
 20
-141.9083061711202
 30
0.0
 10
93.17639700361563
 20
-141.9083061711202
 30
0.0
 10
93.15710446889823
 20
-141.9083061711202
 30
0.0
 10
93.12127547585163
 20
-141.9103732284113
 30
0.0
 10
93.09371471196962
 20
-141.9145073429936
 30
0.0
 10
93.09371471196962
 20
-141.9145073429936
 30
0.0
 10
93.09371471196962
 20
-141.719859448077
 30
0.0
 10
93.09371471196962
 20
-141.719859448077
 30
0.0
 10
93.1319552718559
 20
-141.726405129499
 30
0.0
 10
93.17398543677595
 20
-141.7284721867901
 30
0.0
 10
93.18053111819793
 20
-141.7284721867901
 30
0.0
 10
93.24598793241768
 20
-141.7284721867901
 30
0.0
 10
93.44476994191659
 20
-141.7071125947816
 30
0.0
 10
93.44476994191659
 20
-141.4704345349449
 30
0.0
 10
93.44476994191659
 20
-141.292667607906
 30
0.0
 10
93.31385631347709
 20
-141.237546080142
 30
0.0
 10
93.2036132579491
 20
-141.237546080142
 30
0.0
 10
92.93937443423044
 20
-141.237546080142
 30
0.0
 10
92.93076169551732
 20
-141.4704345349449
 30
0.0
 10
92.92662758093502
 20
-141.5420925210381
 30
0.0
 10
92.92662758093502
 20
-141.5420925210381
 30
0.0
 10
92.72336694730528
 20
-141.5420925210381
 30
0.0
 10
92.72336694730528
 20
-141.5420925210381
 30
0.0
 10
92.73197968601839
 20
-141.417380064472
 30
0.0
 10
92.7595404499004
 20
-141.0408311279342
 30
0.0
 10
93.21636011124453
 20
-141.0408311279342
 30
0.0
 10
93.44063582733429
 20
-141.0408311279342
 30
0.0
 10
93.68179251130178
 20
-141.16795515134
 30
0.0
 10
93.68179251130178
 20
-141.4638888535229
 30
0.0
 10
93.68179251130178
 20
-141.6502685192749
 30
0.0
 10
93.58670787590889
 20
-141.7326063013724
 30
0.0
 10
93.48714461638517
 20
-141.7939290010099
 30
0.0
 10
93.54846731602261
 20
-141.8214897648919
 30
0.0
 10
93.7303683576438
 20
-141.9017604896982
 30
0.0
 10
93.7303683576438
 20
-142.1790906762608
 30
0.0
 10
93.7303683576438
 20
-142.5173990529123
 30
0.0
 10
93.48301050180287
 20
-142.6844861839469
 30
0.0
 10
93.20602482478877
 20
-142.6844861839469
 30
0.0
  0
HATCH
  5
E4
330
DF
100
AcDbEntity
  8
_U+30EC_U+30A4_U+30E4_U+30FC 1
 62
   179
420
  2234388
100
AcDbHatch
 10
0.0
 20
0.0
 30
0.0
210
0.0
220
0.0
230
1.0
  2
SOLID
 70
     1
 71
     0
 91
        1
 92
        1
 93
        1
 72
     4
 94
        3
 73
     0
 74
     1
 95
       62
 96
       58
 40
0.0
 40
0.0
 40
0.0
 40
0.0
 40
1.0
 40
1.0
 40
1.0
 40
2.0
 40
2.0
 40
2.0
 40
3.0
 40
3.0
 40
3.0
 40
4.0
 40
4.0
 40
4.0
 40
5.0
 40
5.0
 40
5.0
 40
6.0
 40
6.0
 40
6.0
 40
7.0
 40
7.0
 40
7.0
 40
8.0
 40
8.0
 40
8.0
 40
9.0
 40
9.0
 40
9.0
 40
10.0
 40
10.0
 40
10.0
 40
11.0
 40
11.0
 40
11.0
 40
12.0
 40
12.0
 40
12.0
 40
13.0
 40
13.0
 40
13.0
 40
14.0
 40
14.0
 40
14.0
 40
15.0
 40
15.0
 40
15.0
 40
16.0
 40
16.0
 40
16.0
 40
17.0
 40
17.0
 40
17.0
 40
18.0
 40
18.0
 40
18.0
 40
19.0
 40
19.0
 40
19.0
 40
19.0
 10
93.20602482478877
 20
-142.6844861839469
 10
93.11059567984735
 20
-142.6844861839469
 10
92.89286564517957
 20
-142.6634711014869
 10
92.767808679065
 20
-142.4774359452834
 10
92.69373912613213
 20
-142.3651258324643
 10
92.68960501154983
 20
-142.2659070824891
 10
92.68547089696753
 20
-142.1811577335519
 10
92.68547089696753
 20
-142.1811577335519
 10
92.905612498475
 20
-142.1811577335519
 10
92.905612498475
 20
-142.1811577335519
 10
92.90767955576614
 20
-142.2552272864848
 10
92.9180148422219
 20
-142.4898382890303
 10
93.20154620065794
 20
-142.4898382890303
 10
93.33900551051941
 20
-142.4898382890303
 10
93.49162324051599
 20
-142.4202473602283
 10
93.49162324051599
 20
-142.1918375295562
 10
93.49162324051599
 20
-142.0753933021548
 10
93.45338268062972
 20
-142.0268174558127
 10
93.42168780216542
 20
-141.9951225773484
 10
93.34761824923254
 20
-141.9210530244156
 10
93.2311740218311
 20
-141.9083061711202
 10
93.17639700361563
 20
-141.9083061711202
 10
93.15710446889823
 20
-141.9083061711202
 10
93.12127547585163
 20
-141.9103732284113
 10
93.09371471196962
 20
-141.9145073429936
 10
93.09371471196962
 20
-141.9145073429936
 10
93.09371471196962
 20
-141.719859448077
 10
93.09371471196962
 20
-141.719859448077
 10
93.1319552718559
 20
-141.726405129499
 10
93.17398543677595
 20
-141.7284721867901
 10
93.18053111819793
 20
-141.7284721867901
 10
93.24598793241768
 20
-141.7284721867901
 10
93.44476994191659
 20
-141.7071125947816
 10
93.44476994191659
 20
-141.4704345349449
 10
93.44476994191659
 20
-141.292667607906
 10
93.31385631347709
 20
-141.237546080142
 10
93.2036132579491
 20
-141.237546080142
 10
92.93937443423044
 20
-141.237546080142
 10
92.93076169551732
 20
-141.4704345349449
 10
92.92662758093502
 20
-141.5420925210381
 10
92.92662758093502
 20
-141.5420925210381
 10
92.72336694730528
 20
-141.5420925210381
 10
92.72336694730528
 20
-141.5420925210381
 10
92.73197968601839
 20
-141.417380064472
 10
92.7595404499004
 20
-141.0408311279342
 10
93.21636011124453
 20
-141.0408311279342
 10
93.44063582733429
 20
-141.0408311279342
 10
93.68179251130178
 20
-141.16795515134
 10
93.68179251130178
 20
-141.4638888535229
 10
93.68179251130178
 20
-141.6502685192749
 10
93.58670787590889
 20
-141.7326063013724
 10
93.48714461638517
 20
-141.7939290010099
 10
93.54846731602261
 20
-141.8214897648919
 10
93.7303683576438
 20
-141.9017604896982
 10
93.7303683576438
 20
-142.1790906762608
 10
93.7303683576438
 20
-142.5173990529123
 10
93.48301050180287
 20
-142.6844861839469
 10
93.20602482478877
 20
-142.6844861839469
 97
        0
 97
        0
 75
     2
 76
     1
 98
        0
  0
SPLINE
  5
E5
330
DF
100
AcDbEntity
  8
_U+30EC_U+30A4_U+30E4_U+30FC 1
370
     0
100
AcDbSpline
210
0.0
220
0.0
230
1.0
 70
    11
 71
     3
 72
    53
 73
    49
 74
     0
 42
0.0000000001
 43
0.0000000001
 12
1.0
 22
0.0
 32
0.0
 13
1.0
 23
0.0
 33
0.0
 40
0.0
 40
0.0
 40
0.0
 40
0.0
 40
1.0
 40
1.0
 40
1.0
 40
2.0
 40
2.0
 40
2.0
 40
3.0
 40
3.0
 40
3.0
 40
4.0
 40
4.0
 40
4.0
 40
5.0
 40
5.0
 40
5.0
 40
6.0
 40
6.0
 40
6.0
 40
7.0
 40
7.0
 40
7.0
 40
8.0
 40
8.0
 40
8.0
 40
9.0
 40
9.0
 40
9.0
 40
10.0
 40
10.0
 40
10.0
 40
11.0
 40
11.0
 40
11.0
 40
12.0
 40
12.0
 40
12.0
 40
13.0
 40
13.0
 40
13.0
 40
14.0
 40
14.0
 40
14.0
 40
15.0
 40
15.0
 40
15.0
 40
16.0
 40
16.0
 40
16.0
 40
16.0
 10
94.37218964654585
 20
-142.6844861839469
 30
0.0
 10
94.29398597903068
 20
-142.6844861839469
 30
0.0
 10
94.1923556622158
 20
-142.6676052160692
 30
0.0
 10
94.09072534540094
 20
-142.6042154591406
 30
0.0
 10
93.91743704249286
 20
-142.4943169131612
 30
0.0
 10
93.89607745048431
 20
-142.3630587751731
 30
0.0
 10
93.87712942531545
 20
-142.2552272864848
 30
0.0
 10
93.87712942531545
 20
-142.2552272864848
 30
0.0
 10
94.09933808411405
 20
-142.2552272864848
 30
0.0
 10
94.09933808411405
 20
-142.2552272864848
 30
0.0
 10
94.15411510232953
 20
-142.4540092959837
 30
0.0
 10
94.28123912573525
 20
-142.4836371171569
 30
0.0
 10
94.37425670383699
 20
-142.4836371171569
 30
0.0
 10
94.51378307098962
 20
-142.4836371171569
 30
0.0
 10
94.66605629143766
 20
-142.3840738576332
 30
0.0
 10
94.66605629143766
 20
-142.1515299123788
 30
0.0
 10
94.66605629143766
 20
-141.8955593178247
 30
0.0
 10
94.48622230710761
 20
-141.8256238794742
 30
0.0
 10
94.36564396512387
 20
-141.8256238794742
 30
0.0
 10
94.33394908665957
 20
-141.8256238794742
 30
0.0
 10
94.1923556622158
 20
-141.8256238794742
 30
0.0
 10
94.10347219869635
 20
-141.954814960171
 30
0.0
 10
94.10347219869635
 20
-141.954814960171
 30
0.0
 10
93.92777232894862
 20
-141.9358669350021
 30
0.0
 10
93.92777232894862
 20
-141.9358669350021
 30
0.0
 10
93.92777232894862
 20
-141.9358669350021
 30
0.0
 10
94.04835067093236
 20
-141.0894069742763
 30
0.0
 10
94.04835067093236
 20
-141.0894069742763
 30
0.0
 10
94.04835067093236
 20
-141.0894069742763
 30
0.0
 10
94.82694225059882
 20
-141.0894069742763
 30
0.0
 10
94.82694225059882
 20
-141.0894069742763
 30
0.0
 10
94.82694225059882
 20
-141.0894069742763
 30
0.0
 10
94.82694225059882
 20
-141.2840548691929
 30
0.0
 10
94.82694225059882
 20
-141.2840548691929
 30
0.0
 10
94.82694225059882
 20
-141.2840548691929
 30
0.0
 10
94.21130368738469
 20
-141.2840548691929
 30
0.0
 10
94.21130368738469
 20
-141.2840548691929
 30
0.0
 10
94.21130368738469
 20
-141.2840548691929
 30
0.0
 10
94.14584687316493
 20
-141.7071125947816
 30
0.0
 10
94.14584687316493
 20
-141.7071125947816
 30
0.0
 10
94.20716957280239
 20
-141.6733506590261
 30
0.0
 10
94.28950735489985
 20
-141.6330430418487
 30
0.0
 10
94.40801863959244
 20
-141.6330430418487
 30
0.0
 10
94.66192217685536
 20
-141.6330430418487
 30
0.0
 10
94.89894474624055
 20
-141.8194227076007
 30
0.0
 10
94.89894474624055
 20
-142.1325818872099
 30
0.0
 10
94.89894474624055
 20
-142.4498751814014
 30
0.0
 10
94.67466903015078
 20
-142.6844861839469
 30
0.0
 10
94.37218964654585
 20
-142.6844861839469
 30
0.0
  0
HATCH
  5
E6
330
DF
100
AcDbEntity
  8
_U+30EC_U+30A4_U+30E4_U+30FC 1
 62
   179
420
  2234388
100
AcDbHatch
 10
0.0
 20
0.0
 30
0.0
210
0.0
220
0.0
230
1.0
  2
SOLID
 70
     1
 71
     0
 91
        1
 92
        1
 93
        1
 72
     4
 94
        3
 73
     0
 74
     1
 95
       53
 96
       49
 40
0.0
 40
0.0
 40
0.0
 40
0.0
 40
1.0
 40
1.0
 40
1.0
 40
2.0
 40
2.0
 40
2.0
 40
3.0
 40
3.0
 40
3.0
 40
4.0
 40
4.0
 40
4.0
 40
5.0
 40
5.0
 40
5.0
 40
6.0
 40
6.0
 40
6.0
 40
7.0
 40
7.0
 40
7.0
 40
8.0
 40
8.0
 40
8.0
 40
9.0
 40
9.0
 40
9.0
 40
10.0
 40
10.0
 40
10.0
 40
11.0
 40
11.0
 40
11.0
 40
12.0
 40
12.0
 40
12.0
 40
13.0
 40
13.0
 40
13.0
 40
14.0
 40
14.0
 40
14.0
 40
15.0
 40
15.0
 40
15.0
 40
16.0
 40
16.0
 40
16.0
 40
16.0
 10
94.37218964654585
 20
-142.6844861839469
 10
94.29398597903068
 20
-142.6844861839469
 10
94.1923556622158
 20
-142.6676052160692
 10
94.09072534540094
 20
-142.6042154591406
 10
93.91743704249286
 20
-142.4943169131612
 10
93.89607745048431
 20
-142.3630587751731
 10
93.87712942531545
 20
-142.2552272864848
 10
93.87712942531545
 20
-142.2552272864848
 10
94.09933808411405
 20
-142.2552272864848
 10
94.09933808411405
 20
-142.2552272864848
 10
94.15411510232953
 20
-142.4540092959837
 10
94.28123912573525
 20
-142.4836371171569
 10
94.37425670383699
 20
-142.4836371171569
 10
94.51378307098962
 20
-142.4836371171569
 10
94.66605629143766
 20
-142.3840738576332
 10
94.66605629143766
 20
-142.1515299123788
 10
94.66605629143766
 20
-141.8955593178247
 10
94.48622230710761
 20
-141.8256238794742
 10
94.36564396512387
 20
-141.8256238794742
 10
94.33394908665957
 20
-141.8256238794742
 10
94.1923556622158
 20
-141.8256238794742
 10
94.10347219869635
 20
-141.954814960171
 10
94.10347219869635
 20
-141.954814960171
 10
93.92777232894862
 20
-141.9358669350021
 10
93.92777232894862
 20
-141.9358669350021
 10
93.92777232894862
 20
-141.9358669350021
 10
94.04835067093236
 20
-141.0894069742763
 10
94.04835067093236
 20
-141.0894069742763
 10
94.04835067093236
 20
-141.0894069742763
 10
94.82694225059882
 20
-141.0894069742763
 10
94.82694225059882
 20
-141.0894069742763
 10
94.82694225059882
 20
-141.0894069742763
 10
94.82694225059882
 20
-141.2840548691929
 10
94.82694225059882
 20
-141.2840548691929
 10
94.82694225059882
 20
-141.2840548691929
 10
94.21130368738469
 20
-141.2840548691929
 10
94.21130368738469
 20
-141.2840548691929
 10
94.21130368738469
 20
-141.2840548691929
 10
94.14584687316493
 20
-141.7071125947816
 10
94.14584687316493
 20
-141.7071125947816
 10
94.20716957280239
 20
-141.6733506590261
 10
94.28950735489985
 20
-141.6330430418487
 10
94.40801863959244
 20
-141.6330430418487
 10
94.66192217685536
 20
-141.6330430418487
 10
94.89894474624055
 20
-141.8194227076007
 10
94.89894474624055
 20
-142.1325818872099
 10
94.89894474624055
 20
-142.4498751814014
 10
94.67466903015078
 20
-142.6844861839469
 10
94.37218964654585
 20
-142.6844861839469
 97
        0
 97
        0
 75
     2
 76
     1
 98
        0
  0
ENDBLK
  5
E2
330
DF
100
AcDbEntity
  8
0
100
AcDbBlockEnd
  0
BLOCK
  5
E9
330
E7
100
AcDbEntity
  8
0
100
AcDbBlockBegin
  2
block 8
 70
     0
 10
0.0
 20
0.0
 30
0.0
  3
block 8
  1

  0
SPLINE
  5
EB
330
E7
100
AcDbEntity
  8
_U+30EC_U+30A4_U+30E4_U+30FC 1
370
     0
100
AcDbSpline
210
0.0
220
0.0
230
1.0
 70
    11
 71
     3
 72
    44
 73
    40
 74
     0
 42
0.0000000001
 43
0.0000000001
 12
1.0
 22
0.0
 32
0.0
 13
1.0
 23
0.0
 33
0.0
 40
0.0
 40
0.0
 40
0.0
 40
0.0
 40
1.0
 40
1.0
 40
1.0
 40
2.0
 40
2.0
 40
2.0
 40
3.0
 40
3.0
 40
3.0
 40
4.0
 40
4.0
 40
4.0
 40
5.0
 40
5.0
 40
5.0
 40
6.0
 40
6.0
 40
6.0
 40
7.0
 40
7.0
 40
7.0
 40
8.0
 40
8.0
 40
8.0
 40
9.0
 40
9.0
 40
9.0
 40
10.0
 40
10.0
 40
10.0
 40
11.0
 40
11.0
 40
11.0
 40
12.0
 40
12.0
 40
12.0
 40
13.0
 40
13.0
 40
13.0
 40
13.0
 10
73.98824867941961
 20
-134.6195176529771
 30
0.0
 10
74.14689532651536
 20
-134.8372476876449
 30
0.0
 10
74.22096487944823
 20
-134.9302652657466
 30
0.0
 10
74.36479761595741
 20
-134.9791856216372
 30
0.0
 10
74.36479761595741
 20
-134.9791856216372
 30
0.0
 10
74.36479761595741
 20
-134.2005940419707
 30
0.0
 10
74.36479761595741
 20
-134.2005940419707
 30
0.0
 10
74.36479761595741
 20
-134.2005940419707
 30
0.0
 10
74.56995305210404
 20
-134.2005940419707
 30
0.0
 10
74.56995305210404
 20
-134.2005940419707
 30
0.0
 10
74.56995305210404
 20
-134.2005940419707
 30
0.0
 10
74.56995305210404
 20
-135.2286105347692
 30
0.0
 10
74.56995305210404
 20
-135.2286105347692
 30
0.0
 10
74.2123521407351
 20
-135.196915656305
 30
0.0
 10
74.13414847321994
 20
-135.1314588420852
 30
0.0
 10
73.8358032041973
 20
-134.7462971668343
 30
0.0
 10
73.63702119469839
 20
-134.4903265722802
 30
0.0
 10
73.56932506841322
 20
-134.4248697580605
 30
0.0
 10
73.43186575855177
 20
-134.4248697580605
 30
0.0
 10
73.31335447385916
 20
-134.4248697580605
 30
0.0
 10
73.18209633587115
 20
-134.4968722537022
 30
0.0
 10
73.18209633587115
 20
-134.6935872059099
 30
0.0
 10
73.18209633587115
 20
-134.9536919150463
 30
0.0
 10
73.41274547860863
 20
-134.9623046537594
 30
0.0
 10
73.52918970601007
 20
-134.9664387683417
 30
0.0
 10
73.52918970601007
 20
-134.9664387683417
 30
0.0
 10
73.52918970601007
 20
-135.1907144844315
 30
0.0
 10
73.52918970601007
 20
-135.1907144844315
 30
0.0
 10
73.40223793737862
 20
-135.1821017457184
 30
0.0
 10
73.29010007933373
 20
-135.1714219497141
 30
0.0
 10
73.17158879464114
 20
-135.0911512249078
 30
0.0
 10
73.01087509025423
 20
-134.9812526789283
 30
0.0
 10
72.97694089972453
 20
-134.7948730131763
 30
0.0
 10
72.97694089972453
 20
-134.6787732953234
 30
0.0
 10
72.97694089972453
 20
-134.4014431087608
 30
0.0
 10
73.16108125341113
 20
-134.1940483605487
 30
0.0
 10
73.43393281584291
 20
-134.1940483605487
 30
0.0
 10
73.66234264651497
 20
-134.1940483605487
 30
0.0
 10
73.76190590603869
 20
-134.3104925879502
 30
0.0
 10
73.98824867941961
 20
-134.6195176529771
 30
0.0
  0
HATCH
  5
EC
330
E7
100
AcDbEntity
  8
_U+30EC_U+30A4_U+30E4_U+30FC 1
 62
   179
420
  2234388
100
AcDbHatch
 10
0.0
 20
0.0
 30
0.0
210
0.0
220
0.0
230
1.0
  2
SOLID
 70
     1
 71
     0
 91
        1
 92
        1
 93
        1
 72
     4
 94
        3
 73
     0
 74
     1
 95
       44
 96
       40
 40
0.0
 40
0.0
 40
0.0
 40
0.0
 40
1.0
 40
1.0
 40
1.0
 40
2.0
 40
2.0
 40
2.0
 40
3.0
 40
3.0
 40
3.0
 40
4.0
 40
4.0
 40
4.0
 40
5.0
 40
5.0
 40
5.0
 40
6.0
 40
6.0
 40
6.0
 40
7.0
 40
7.0
 40
7.0
 40
8.0
 40
8.0
 40
8.0
 40
9.0
 40
9.0
 40
9.0
 40
10.0
 40
10.0
 40
10.0
 40
11.0
 40
11.0
 40
11.0
 40
12.0
 40
12.0
 40
12.0
 40
13.0
 40
13.0
 40
13.0
 40
13.0
 10
73.98824867941961
 20
-134.6195176529771
 10
74.14689532651536
 20
-134.8372476876449
 10
74.22096487944823
 20
-134.9302652657466
 10
74.36479761595741
 20
-134.9791856216372
 10
74.36479761595741
 20
-134.9791856216372
 10
74.36479761595741
 20
-134.2005940419707
 10
74.36479761595741
 20
-134.2005940419707
 10
74.36479761595741
 20
-134.2005940419707
 10
74.56995305210404
 20
-134.2005940419707
 10
74.56995305210404
 20
-134.2005940419707
 10
74.56995305210404
 20
-134.2005940419707
 10
74.56995305210404
 20
-135.2286105347692
 10
74.56995305210404
 20
-135.2286105347692
 10
74.2123521407351
 20
-135.196915656305
 10
74.13414847321994
 20
-135.1314588420852
 10
73.8358032041973
 20
-134.7462971668343
 10
73.63702119469839
 20
-134.4903265722802
 10
73.56932506841322
 20
-134.4248697580605
 10
73.43186575855177
 20
-134.4248697580605
 10
73.31335447385916
 20
-134.4248697580605
 10
73.18209633587115
 20
-134.4968722537022
 10
73.18209633587115
 20
-134.6935872059099
 10
73.18209633587115
 20
-134.9536919150463
 10
73.41274547860863
 20
-134.9623046537594
 10
73.52918970601007
 20
-134.9664387683417
 10
73.52918970601007
 20
-134.9664387683417
 10
73.52918970601007
 20
-135.1907144844315
 10
73.52918970601007
 20
-135.1907144844315
 10
73.40223793737862
 20
-135.1821017457184
 10
73.29010007933373
 20
-135.1714219497141
 10
73.17158879464114
 20
-135.0911512249078
 10
73.01087509025423
 20
-134.9812526789283
 10
72.97694089972453
 20
-134.7948730131763
 10
72.97694089972453
 20
-134.6787732953234
 10
72.97694089972453
 20
-134.4014431087608
 10
73.16108125341113
 20
-134.1940483605487
 10
73.43393281584291
 20
-134.1940483605487
 10
73.66234264651497
 20
-134.1940483605487
 10
73.76190590603869
 20
-134.3104925879502
 10
73.98824867941961
 20
-134.6195176529771
 97
        0
 97
        0
 75
     2
 76
     1
 98
        0
  0
POLYLINE
  5
ED
330
E7
100
AcDbEntity
  8
_U+30EC_U+30A4_U+30E4_U+30FC 1
370
     0
100
AcDb2dPolyline
 66
     1
 10
0.0
 20
0.0
 30
0.0
  0
VERTEX
  5
EE
330
ED
100
AcDbEntity
  8
_U+30EC_U+30A4_U+30E4_U+30FC 1
370
     0
100
AcDbVertex
100
AcDb2dVertex
 10
74.22303193673939
 20
-133.2035834085394
 30
0.0
  0
VERTEX
  5
EF
330
ED
100
AcDbEntity
  8
_U+30EC_U+30A4_U+30E4_U+30FC 1
370
     0
100
AcDbVertex
100
AcDb2dVertex
 10
74.56995305210404
 20
-133.2035834085394
 30
0.0
  0
VERTEX
  5
F0
330
ED
100
AcDbEntity
  8
_U+30EC_U+30A4_U+30E4_U+30FC 1
370
     0
100
AcDbVertex
100
AcDb2dVertex
 10
74.56995305210404
 20
-133.4213134432072
 30
0.0
  0
VERTEX
  5
F1
330
ED
100
AcDbEntity
  8
_U+30EC_U+30A4_U+30E4_U+30FC 1
370
     0
100
AcDbVertex
100
AcDb2dVertex
 10
74.22303193673939
 20
-133.4213134432072
 30
0.0
  0
VERTEX
  5
F2
330
ED
100
AcDbEntity
  8
_U+30EC_U+30A4_U+30E4_U+30FC 1
370
     0
100
AcDbVertex
100
AcDb2dVertex
 10
74.22303193673939
 20
-134.0772596235987
 30
0.0
  0
VERTEX
  5
F3
330
ED
100
AcDbEntity
  8
_U+30EC_U+30A4_U+30E4_U+30FC 1
370
     0
100
AcDbVertex
100
AcDb2dVertex
 10
73.99875622064962
 20
-134.0772596235987
 30
0.0
  0
VERTEX
  5
F4
330
ED
100
AcDbEntity
  8
_U+30EC_U+30A4_U+30E4_U+30FC 1
370
     0
100
AcDbVertex
100
AcDb2dVertex
 10
73.0256890008408
 20
-133.398231303456
 30
0.0
  0
VERTEX
  5
F5
330
ED
100
AcDbEntity
  8
_U+30EC_U+30A4_U+30E4_U+30FC 1
370
     0
100
AcDbVertex
100
AcDb2dVertex
 10
73.0256890008408
 20
-133.2035834085394
 30
0.0
  0
VERTEX
  5
F6
330
ED
100
AcDbEntity
  8
_U+30EC_U+30A4_U+30E4_U+30FC 1
370
     0
100
AcDbVertex
100
AcDb2dVertex
 10
74.0240776724662
 20
-133.2035834085394
 30
0.0
  0
VERTEX
  5
F7
330
ED
100
AcDbEntity
  8
_U+30EC_U+30A4_U+30E4_U+30FC 1
370
     0
100
AcDbVertex
100
AcDb2dVertex
 10
74.0240776724662
 20
-132.9961886603273
 30
0.0
  0
VERTEX
  5
F8
330
ED
100
AcDbEntity
  8
_U+30EC_U+30A4_U+30E4_U+30FC 1
370
     0
100
AcDbVertex
100
AcDb2dVertex
 10
74.22303193673939
 20
-132.9961886603273
 30
0.0
  0
VERTEX
  5
F9
330
ED
100
AcDbEntity
  8
_U+30EC_U+30A4_U+30E4_U+30FC 1
370
     0
100
AcDbVertex
100
AcDb2dVertex
 10
74.22303193673939
 20
-133.2035834085394
 30
0.0
  0
SEQEND
  5
FA
330
ED
100
AcDbEntity
  8
_U+30EC_U+30A4_U+30E4_U+30FC 1
370
     0
  0
POLYLINE
  5
FB
330
E7
100
AcDbEntity
  8
_U+30EC_U+30A4_U+30E4_U+30FC 1
370
     0
100
AcDb2dPolyline
 66
     1
 10
0.0
 20
0.0
 30
0.0
  0
VERTEX
  5
FC
330
FB
100
AcDbEntity
  8
_U+30EC_U+30A4_U+30E4_U+30FC 1
370
     0
100
AcDbVertex
100
AcDb2dVertex
 10
73.3683037468489
 20
-133.4213134432072
 30
0.0
  0
VERTEX
  5
FD
330
FB
100
AcDbEntity
  8
_U+30EC_U+30A4_U+30E4_U+30FC 1
370
     0
100
AcDbVertex
100
AcDb2dVertex
 10
74.0240776724662
 20
-133.8784776140998
 30
0.0
  0
VERTEX
  5
FE
330
FB
100
AcDbEntity
  8
_U+30EC_U+30A4_U+30E4_U+30FC 1
370
     0
100
AcDbVertex
100
AcDb2dVertex
 10
74.0240776724662
 20
-133.4213134432072
 30
0.0
  0
VERTEX
  5
FF
330
FB
100
AcDbEntity
  8
_U+30EC_U+30A4_U+30E4_U+30FC 1
370
     0
100
AcDbVertex
100
AcDb2dVertex
 10
73.3683037468489
 20
-133.4213134432072
 30
0.0
  0
SEQEND
  5
100
330
FB
100
AcDbEntity
  8
_U+30EC_U+30A4_U+30E4_U+30FC 1
370
     0
  0
HATCH
  5
101
330
E7
100
AcDbEntity
  8
_U+30EC_U+30A4_U+30E4_U+30FC 1
 62
   179
420
  2234388
100
AcDbHatch
 10
0.0
 20
0.0
 30
0.0
210
0.0
220
0.0
230
1.0
  2
SOLID
 70
     1
 71
     0
 91
        2
 92
        1
 93
       11
 72
     1
 10
74.22303193673939
 20
-133.2035834085394
 11
74.56995305210404
 21
-133.2035834085394
 72
     1
 10
74.56995305210404
 20
-133.2035834085394
 11
74.56995305210404
 21
-133.4213134432072
 72
     1
 10
74.56995305210404
 20
-133.4213134432072
 11
74.22303193673939
 21
-133.4213134432072
 72
     1
 10
74.22303193673939
 20
-133.4213134432072
 11
74.22303193673939
 21
-134.0772596235987
 72
     1
 10
74.22303193673939
 20
-134.0772596235987
 11
73.99875622064962
 21
-134.0772596235987
 72
     1
 10
73.99875622064962
 20
-134.0772596235987
 11
73.0256890008408
 21
-133.398231303456
 72
     1
 10
73.0256890008408
 20
-133.398231303456
 11
73.0256890008408
 21
-133.2035834085394
 72
     1
 10
73.0256890008408
 20
-133.2035834085394
 11
74.0240776724662
 21
-133.2035834085394
 72
     1
 10
74.0240776724662
 20
-133.2035834085394
 11
74.0240776724662
 21
-132.9961886603273
 72
     1
 10
74.0240776724662
 20
-132.9961886603273
 11
74.22303193673939
 21
-132.9961886603273
 72
     1
 10
74.22303193673939
 20
-132.9961886603273
 11
74.22303193673939
 21
-133.2035834085394
 97
        0
 92
        1
 93
        3
 72
     1
 10
73.3683037468489
 20
-133.4213134432072
 11
74.0240776724662
 21
-133.8784776140998
 72
     1
 10
74.0240776724662
 20
-133.8784776140998
 11
74.0240776724662
 21
-133.4213134432072
 72
     1
 10
74.0240776724662
 20
-133.4213134432072
 11
73.3683037468489
 21
-133.4213134432072
 97
        0
 75
     2
 76
     1
 98
        0
  0
ENDBLK
  5
EA
330
E7
100
AcDbEntity
  8
0
100
AcDbBlockEnd
  0
BLOCK
  5
104
330
102
100
AcDbEntity
  8
0
100
AcDbBlockBegin
  2
block 9
 70
     0
 10
0.0
 20
0.0
 30
0.0
  3
block 9
  1

  0
SPLINE
  5
106
330
102
100
AcDbEntity
  8
_U+30EC_U+30A4_U+30E4_U+30FC 1
370
     0
100
AcDbSpline
210
0.0
220
0.0
230
1.0
 70
    11
 71
     3
 72
    32
 73
    28
 74
     0
 42
0.0000000001
 43
0.0000000001
 12
1.0
 22
0.0
 32
0.0
 13
1.0
 23
0.0
 33
0.0
 40
0.0
 40
0.0
 40
0.0
 40
0.0
 40
1.0
 40
1.0
 40
1.0
 40
2.0
 40
2.0
 40
2.0
 40
3.0
 40
3.0
 40
3.0
 40
4.0
 40
4.0
 40
4.0
 40
5.0
 40
5.0
 40
5.0
 40
6.0
 40
6.0
 40
6.0
 40
7.0
 40
7.0
 40
7.0
 40
8.0
 40
8.0
 40
8.0
 40
9.0
 40
9.0
 40
9.0
 40
9.0
 10
88.05078394066092
 20
-146.9140299111882
 30
0.0
 10
87.53453638219624
 20
-146.9140299111882
 30
0.0
 10
87.52609589825737
 20
-146.36005855716
 30
0.0
 10
87.52609589825737
 20
-146.146118127526
 30
0.0
 10
87.52609589825737
 20
-145.9156412395628
 30
0.0
 10
87.5452161782005
 20
-145.2683077978843
 30
0.0
 10
88.08885224577293
 20
-145.2683077978843
 30
0.0
 10
88.26231280345526
 20
-145.2683077978843
 30
0.0
 10
88.50760360200505
 20
-145.3382432362349
 30
0.0
 10
88.54584416189132
 20
-145.670350441013
 30
0.0
 10
88.54584416189132
 20
-145.670350441013
 30
0.0
 10
88.33207598703157
 20
-145.670350441013
 30
0.0
 10
88.33207598703157
 20
-145.670350441013
 30
0.0
 10
88.32156844580156
 20
-145.6131618559578
 30
0.0
 10
88.28987356733725
 20
-145.4650227500921
 30
0.0
 10
88.08678518848178
 20
-145.4650227500921
 30
0.0
 10
87.79481334610685
 20
-145.4650227500921
 30
0.0
 10
87.75450572892943
 20
-145.7929958402879
 30
0.0
 10
87.74193113040828
 20
-145.9979790216602
 30
0.0
 10
87.83494870851001
 20
-145.9197753541451
 30
0.0
 10
87.90264483479518
 20
-145.8605197117988
 30
0.0
 10
88.08454587641637
 20
-145.8605197117988
 30
0.0
 10
88.2643798607464
 20
-145.8605197117988
 30
0.0
 10
88.56685924435135
 20
-145.9686957100356
 30
0.0
 10
88.56685924435135
 20
-146.3748724677466
 30
0.0
 10
88.56685924435135
 20
-146.6942328192292
 30
0.0
 10
88.36807723485244
 20
-146.9140299111882
 30
0.0
 10
88.05078394066092
 20
-146.9140299111882
 30
0.0
  0
SPLINE
  5
107
330
102
100
AcDbEntity
  8
_U+30EC_U+30A4_U+30E4_U+30FC 1
370
     0
100
AcDbSpline
210
0.0
220
0.0
230
1.0
 70
    11
 71
     3
 72
    17
 73
    13
 74
     0
 42
0.0000000001
 43
0.0000000001
 12
1.0
 22
0.0
 32
0.0
 13
1.0
 23
0.0
 33
0.0
 40
0.0
 40
0.0
 40
0.0
 40
0.0
 40
1.0
 40
1.0
 40
1.0
 40
2.0
 40
2.0
 40
2.0
 40
3.0
 40
3.0
 40
3.0
 40
4.0
 40
4.0
 40
4.0
 40
4.0
 10
88.06766490853865
 20
-146.0551676067154
 30
0.0
 10
87.80532088733686
 20
-146.0551676067154
 30
0.0
 10
87.76725258222486
 20
-146.2666964695097
 30
0.0
 10
87.76725258222486
 20
-146.3831406969112
 30
0.0
 10
87.76725258222486
 20
-146.5588405666589
 30
0.0
 10
87.86250947239202
 20
-146.7217935831112
 30
0.0
 10
88.04647757130435
 20
-146.7217935831112
 30
0.0
 10
88.1670559132881
 20
-146.7217935831112
 30
0.0
 10
88.34275578303584
 20
-146.6625379407649
 30
0.0
 10
88.34275578303584
 20
-146.3769395250377
 30
0.0
 10
88.34275578303584
 20
-146.1526638089479
 30
0.0
 10
88.20305716110896
 20
-146.0551676067154
 30
0.0
 10
88.06766490853865
 20
-146.0551676067154
 30
0.0
  0
HATCH
  5
108
330
102
100
AcDbEntity
  8
_U+30EC_U+30A4_U+30E4_U+30FC 1
 62
   179
420
  2234388
100
AcDbHatch
 10
0.0
 20
0.0
 30
0.0
210
0.0
220
0.0
230
1.0
  2
SOLID
 70
     1
 71
     0
 91
        2
 92
        1
 93
        1
 72
     4
 94
        3
 73
     0
 74
     1
 95
       32
 96
       28
 40
0.0
 40
0.0
 40
0.0
 40
0.0
 40
1.0
 40
1.0
 40
1.0
 40
2.0
 40
2.0
 40
2.0
 40
3.0
 40
3.0
 40
3.0
 40
4.0
 40
4.0
 40
4.0
 40
5.0
 40
5.0
 40
5.0
 40
6.0
 40
6.0
 40
6.0
 40
7.0
 40
7.0
 40
7.0
 40
8.0
 40
8.0
 40
8.0
 40
9.0
 40
9.0
 40
9.0
 40
9.0
 10
88.05078394066092
 20
-146.9140299111882
 10
87.53453638219624
 20
-146.9140299111882
 10
87.52609589825737
 20
-146.36005855716
 10
87.52609589825737
 20
-146.146118127526
 10
87.52609589825737
 20
-145.9156412395628
 10
87.5452161782005
 20
-145.2683077978843
 10
88.08885224577293
 20
-145.2683077978843
 10
88.26231280345526
 20
-145.2683077978843
 10
88.50760360200505
 20
-145.3382432362349
 10
88.54584416189132
 20
-145.670350441013
 10
88.54584416189132
 20
-145.670350441013
 10
88.33207598703157
 20
-145.670350441013
 10
88.33207598703157
 20
-145.670350441013
 10
88.32156844580156
 20
-145.6131618559578
 10
88.28987356733725
 20
-145.4650227500921
 10
88.08678518848178
 20
-145.4650227500921
 10
87.79481334610685
 20
-145.4650227500921
 10
87.75450572892943
 20
-145.7929958402879
 10
87.74193113040828
 20
-145.9979790216602
 10
87.83494870851001
 20
-145.9197753541451
 10
87.90264483479518
 20
-145.8605197117988
 10
88.08454587641637
 20
-145.8605197117988
 10
88.2643798607464
 20
-145.8605197117988
 10
88.56685924435135
 20
-145.9686957100356
 10
88.56685924435135
 20
-146.3748724677466
 10
88.56685924435135
 20
-146.6942328192292
 10
88.36807723485244
 20
-146.9140299111882
 10
88.05078394066092
 20
-146.9140299111882
 97
        0
 97
        0
 92
        1
 93
        1
 72
     4
 94
        3
 73
     0
 74
     1
 95
       17
 96
       13
 40
0.0
 40
0.0
 40
0.0
 40
0.0
 40
1.0
 40
1.0
 40
1.0
 40
2.0
 40
2.0
 40
2.0
 40
3.0
 40
3.0
 40
3.0
 40
4.0
 40
4.0
 40
4.0
 40
4.0
 10
88.06766490853865
 20
-146.0551676067154
 10
87.80532088733686
 20
-146.0551676067154
 10
87.76725258222486
 20
-146.2666964695097
 10
87.76725258222486
 20
-146.3831406969112
 10
87.76725258222486
 20
-146.5588405666589
 10
87.86250947239202
 20
-146.7217935831112
 10
88.04647757130435
 20
-146.7217935831112
 10
88.1670559132881
 20
-146.7217935831112
 10
88.34275578303584
 20
-146.6625379407649
 10
88.34275578303584
 20
-146.3769395250377
 10
88.34275578303584
 20
-146.1526638089479
 10
88.20305716110896
 20
-146.0551676067154
 10
88.06766490853865
 20
-146.0551676067154
 97
        0
 97
        0
 75
     2
 76
     1
 98
        0
  0
SPLINE
  5
109
330
102
100
AcDbEntity
  8
_U+30EC_U+30A4_U+30E4_U+30FC 1
370
     0
100
AcDbSpline
210
0.0
220
0.0
230
1.0
 70
    11
 71
     3
 72
    29
 73
    25
 74
     0
 42
0.0000000001
 43
0.0000000001
 12
1.0
 22
0.0
 32
0.0
 13
1.0
 23
0.0
 33
0.0
 40
0.0
 40
0.0
 40
0.0
 40
0.0
 40
1.0
 40
1.0
 40
1.0
 40
2.0
 40
2.0
 40
2.0
 40
3.0
 40
3.0
 40
3.0
 40
4.0
 40
4.0
 40
4.0
 40
5.0
 40
5.0
 40
5.0
 40
6.0
 40
6.0
 40
6.0
 40
7.0
 40
7.0
 40
7.0
 40
8.0
 40
8.0
 40
8.0
 40
8.0
 10
89.6210584628378
 20
-146.6856200805161
 30
0.0
 10
89.51322697414948
 20
-146.8950818860193
 30
0.0
 10
89.33976641646714
 20
-146.9140299111882
 30
0.0
 10
89.2233221890657
 20
-146.9140299111882
 30
0.0
 10
89.06260848467879
 20
-146.9140299111882
 30
0.0
 10
88.92084280546077
 20
-146.8675211221373
 30
0.0
 10
88.8255859152936
 20
-146.6856200805161
 30
0.0
 10
88.72206079596185
 20
-146.4909721855995
 30
0.0
 10
88.70294051601871
 20
-146.2539496162143
 30
0.0
 10
88.70294051601871
 20
-146.0913411093105
 30
0.0
 10
88.70294051601871
 20
-145.9473361180271
 30
0.0
 10
88.71982148389644
 20
-145.6954996380553
 30
0.0
 10
88.8255859152936
 20
-145.4967176285564
 30
0.0
 10
88.93358965875619
 20
-145.2938015044752
 30
0.0
 10
89.0943033631431
 20
-145.2703748551755
 30
0.0
 10
89.2233221890657
 20
-145.2703748551755
 30
0.0
 10
89.38196883616146
 20
-145.2703748551755
 30
0.0
 10
89.52580157267063
 20
-145.3148165869352
 30
0.0
 10
89.6210584628378
 20
-145.4967176285564
 30
0.0
 10
89.72044946758726
 20
-145.6892984661818
 30
0.0
 10
89.7437038621127
 20
-145.9177082968539
 30
0.0
 10
89.7437038621127
 20
-146.0913411093105
 30
0.0
 10
89.7437038621127
 20
-146.2625623549274
 30
0.0
 10
89.72268877965267
 20
-146.4930392428906
 30
0.0
 10
89.6210584628378
 20
-146.6856200805161
 30
0.0
  0
SPLINE
  5
10A
330
102
100
AcDbEntity
  8
_U+30EC_U+30A4_U+30E4_U+30FC 1
370
     0
100
AcDbSpline
210
0.0
220
0.0
230
1.0
 70
    11
 71
     3
 72
    17
 73
    13
 74
     0
 42
0.0000000001
 43
0.0000000001
 12
1.0
 22
0.0
 32
0.0
 13
1.0
 23
0.0
 33
0.0
 40
0.0
 40
0.0
 40
0.0
 40
0.0
 40
1.0
 40
1.0
 40
1.0
 40
2.0
 40
2.0
 40
2.0
 40
3.0
 40
3.0
 40
3.0
 40
4.0
 40
4.0
 40
4.0
 40
4.0
 10
89.2233221890657
 20
-145.4629556928009
 30
0.0
 10
88.97372502115935
 20
-145.4629556928009
 30
0.0
 10
88.92721623210848
 20
-145.746487051237
 30
0.0
 10
88.92721623210848
 20
-146.0913411093105
 30
0.0
 10
88.92721623210848
 20
-146.4107014607932
 30
0.0
 10
88.96321747992934
 20
-146.7193820162715
 30
0.0
 10
89.2233221890657
 20
-146.7193820162715
 30
0.0
 10
89.4708522996809
 20
-146.7193820162715
 30
0.0
 10
89.51960040079719
 20
-146.4382622246752
 30
0.0
 10
89.51960040079719
 20
-146.0913411093105
 30
0.0
 10
89.51960040079719
 20
-145.7716362482793
 30
0.0
 10
89.48153209568518
 20
-145.4629556928009
 30
0.0
 10
89.2233221890657
 20
-145.4629556928009
 30
0.0
  0
HATCH
  5
10B
330
102
100
AcDbEntity
  8
_U+30EC_U+30A4_U+30E4_U+30FC 1
 62
   179
420
  2234388
100
AcDbHatch
 10
0.0
 20
0.0
 30
0.0
210
0.0
220
0.0
230
1.0
  2
SOLID
 70
     1
 71
     0
 91
        2
 92
        1
 93
        1
 72
     4
 94
        3
 73
     0
 74
     1
 95
       29
 96
       25
 40
0.0
 40
0.0
 40
0.0
 40
0.0
 40
1.0
 40
1.0
 40
1.0
 40
2.0
 40
2.0
 40
2.0
 40
3.0
 40
3.0
 40
3.0
 40
4.0
 40
4.0
 40
4.0
 40
5.0
 40
5.0
 40
5.0
 40
6.0
 40
6.0
 40
6.0
 40
7.0
 40
7.0
 40
7.0
 40
8.0
 40
8.0
 40
8.0
 40
8.0
 10
89.6210584628378
 20
-146.6856200805161
 10
89.51322697414948
 20
-146.8950818860193
 10
89.33976641646714
 20
-146.9140299111882
 10
89.2233221890657
 20
-146.9140299111882
 10
89.06260848467879
 20
-146.9140299111882
 10
88.92084280546077
 20
-146.8675211221373
 10
88.8255859152936
 20
-146.6856200805161
 10
88.72206079596185
 20
-146.4909721855995
 10
88.70294051601871
 20
-146.2539496162143
 10
88.70294051601871
 20
-146.0913411093105
 10
88.70294051601871
 20
-145.9473361180271
 10
88.71982148389644
 20
-145.6954996380553
 10
88.8255859152936
 20
-145.4967176285564
 10
88.93358965875619
 20
-145.2938015044752
 10
89.0943033631431
 20
-145.2703748551755
 10
89.2233221890657
 20
-145.2703748551755
 10
89.38196883616146
 20
-145.2703748551755
 10
89.52580157267063
 20
-145.3148165869352
 10
89.6210584628378
 20
-145.4967176285564
 10
89.72044946758726
 20
-145.6892984661818
 10
89.7437038621127
 20
-145.9177082968539
 10
89.7437038621127
 20
-146.0913411093105
 10
89.7437038621127
 20
-146.2625623549274
 10
89.72268877965267
 20
-146.4930392428906
 10
89.6210584628378
 20
-146.6856200805161
 97
        0
 97
        0
 92
        1
 93
        1
 72
     4
 94
        3
 73
     0
 74
     1
 95
       17
 96
       13
 40
0.0
 40
0.0
 40
0.0
 40
0.0
 40
1.0
 40
1.0
 40
1.0
 40
2.0
 40
2.0
 40
2.0
 40
3.0
 40
3.0
 40
3.0
 40
4.0
 40
4.0
 40
4.0
 40
4.0
 10
89.2233221890657
 20
-145.4629556928009
 10
88.97372502115935
 20
-145.4629556928009
 10
88.92721623210848
 20
-145.746487051237
 10
88.92721623210848
 20
-146.0913411093105
 10
88.92721623210848
 20
-146.4107014607932
 10
88.96321747992934
 20
-146.7193820162715
 10
89.2233221890657
 20
-146.7193820162715
 10
89.4708522996809
 20
-146.7193820162715
 10
89.51960040079719
 20
-146.4382622246752
 10
89.51960040079719
 20
-146.0913411093105
 10
89.51960040079719
 20
-145.7716362482793
 10
89.48153209568518
 20
-145.4629556928009
 10
89.2233221890657
 20
-145.4629556928009
 97
        0
 97
        0
 75
     2
 76
     1
 98
        0
  0
ENDBLK
  5
105
330
102
100
AcDbEntity
  8
0
100
AcDbBlockEnd
  0
ENDSEC
  0
SECTION
  2
ENTITIES
  0
POLYLINE
  5
41
330
1F
100
AcDbEntity
  8
_U+30EC_U+30A4_U+30E4_U+30FC 1
370
     0
100
AcDb2dPolyline
 66
     1
 10
0.0
 20
0.0
 30
0.0
  0
VERTEX
  5
42
330
41
100
AcDbEntity
  8
_U+30EC_U+30A4_U+30E4_U+30FC 1
370
     0
100
AcDbVertex
100
AcDb2dVertex
 10
76.23118361073604
 20
-129.1652441343751
 30
0.0
  0
VERTEX
  5
43
330
41
100
AcDbEntity
  8
_U+30EC_U+30A4_U+30E4_U+30FC 1
370
     0
100
AcDbVertex
100
AcDb2dVertex
 10
76.23118361073604
 20
-128.6760471900533
 30
0.0
  0
VERTEX
  5
44
330
41
100
AcDbEntity
  8
_U+30EC_U+30A4_U+30E4_U+30FC 1
370
     0
100
AcDbVertex
100
AcDb2dVertex
 10
89.34629688725273
 20
-128.6760471900533
 30
0.0
  0
VERTEX
  5
45
330
41
100
AcDbEntity
  8
_U+30EC_U+30A4_U+30E4_U+30FC 1
370
     0
100
AcDbVertex
100
AcDb2dVertex
 10
89.34629688725273
 20
-115.488226082239
 30
0.0
  0
VERTEX
  5
46
330
41
100
AcDbEntity
  8
_U+30EC_U+30A4_U+30E4_U+30FC 1
370
     0
100
AcDbVertex
100
AcDb2dVertex
 10
89.85944742971672
 20
-115.488226082239
 30
0.0
  0
VERTEX
  5
47
330
41
100
AcDbEntity
  8
_U+30EC_U+30A4_U+30E4_U+30FC 1
370
     0
100
AcDbVertex
100
AcDb2dVertex
 10
89.85944742971672
 20
-119.4201108034785
 30
0.0
  0
VERTEX
  5
48
330
41
100
AcDbEntity
  8
_U+30EC_U+30A4_U+30E4_U+30FC 1
370
     0
100
AcDbVertex
100
AcDb2dVertex
 10
89.76162215443468
 20
-119.5906435812133
 30
0.0
  0
VERTEX
  5
49
330
41
100
AcDbEntity
  8
_U+30EC_U+30A4_U+30E4_U+30FC 1
370
     0
100
AcDbVertex
100
AcDb2dVertex
 10
89.88375381798551
 20
-119.7859766367202
 30
0.0
  0
VERTEX
  5
4A
330
41
100
AcDbEntity
  8
_U+30EC_U+30A4_U+30E4_U+30FC 1
370
     0
100
AcDbVertex
100
AcDb2dVertex
 10
89.88375381798551
 20
-128.7500952455903
 30
0.0
  0
VERTEX
  5
4B
330
41
100
AcDbEntity
  8
_U+30EC_U+30A4_U+30E4_U+30FC 1
370
     0
100
AcDbVertex
100
AcDb2dVertex
 10
100.1902621661557
 20
-139.1046874652238
 30
0.0
  0
VERTEX
  5
4C
330
41
100
AcDbEntity
  8
_U+30EC_U+30A4_U+30E4_U+30FC 1
370
     0
100
AcDbVertex
100
AcDb2dVertex
 10
100.3852424389591
 20
-139.1046874652238
 30
0.0
  0
VERTEX
  5
4D
330
41
100
AcDbEntity
  8
_U+30EC_U+30A4_U+30E4_U+30FC 1
370
     0
100
AcDbVertex
100
AcDb2dVertex
 10
100.483105530435
 20
-138.9827321874766
 30
0.0
  0
VERTEX
  5
4E
330
41
100
AcDbEntity
  8
_U+30EC_U+30A4_U+30E4_U+30FC 1
370
     0
100
AcDbVertex
100
AcDb2dVertex
 10
100.483105530435
 20
-126.3561099684109
 30
0.0
  0
VERTEX
  5
4F
330
41
100
AcDbEntity
  8
_U+30EC_U+30A4_U+30E4_U+30FC 1
370
     0
100
AcDbVertex
100
AcDb2dVertex
 10
99.84852634154076
 20
-126.3561099684109
 30
0.0
  0
VERTEX
  5
50
330
41
100
AcDbEntity
  8
_U+30EC_U+30A4_U+30E4_U+30FC 1
370
     0
100
AcDbVertex
100
AcDb2dVertex
 10
99.84852634154076
 20
-125.8186883018786
 30
0.0
  0
VERTEX
  5
51
330
41
100
AcDbEntity
  8
_U+30EC_U+30A4_U+30E4_U+30FC 1
370
     0
100
AcDbVertex
100
AcDb2dVertex
 10
101.0205246449739
 20
-125.8186883018786
 30
0.0
  0
VERTEX
  5
52
330
41
100
AcDbEntity
  8
_U+30EC_U+30A4_U+30E4_U+30FC 1
370
     0
100
AcDbVertex
100
AcDb2dVertex
 10
101.0205246449739
 20
-140.1306357983006
 30
0.0
  0
VERTEX
  5
53
330
41
100
AcDbEntity
  8
_U+30EC_U+30A4_U+30E4_U+30FC 1
370
     0
100
AcDbVertex
100
AcDb2dVertex
 10
100.9230521474607
 20
-140.301874131591
 30
0.0
  0
VERTEX
  5
54
330
41
100
AcDbEntity
  8
_U+30EC_U+30A4_U+30E4_U+30FC 1
370
     0
100
AcDbVertex
100
AcDb2dVertex
 10
86.5623158471669
 20
-140.301874131591
 30
0.0
  0
VERTEX
  5
55
330
41
100
AcDbEntity
  8
_U+30EC_U+30A4_U+30E4_U+30FC 1
370
     0
100
AcDbVertex
100
AcDb2dVertex
 10
86.5623158471669
 20
-139.1046874652238
 30
0.0
  0
VERTEX
  5
56
330
41
100
AcDbEntity
  8
_U+30EC_U+30A4_U+30E4_U+30FC 1
370
     0
100
AcDbVertex
100
AcDb2dVertex
 10
87.00159472484884
 20
-139.1046874652238
 30
0.0
  0
VERTEX
  5
57
330
41
100
AcDbEntity
  8
_U+30EC_U+30A4_U+30E4_U+30FC 1
370
     0
100
AcDbVertex
100
AcDb2dVertex
 10
87.00159472484884
 20
-139.7644171872812
 30
0.0
  0
VERTEX
  5
58
330
41
100
AcDbEntity
  8
_U+30EC_U+30A4_U+30E4_U+30FC 1
370
     0
100
AcDbVertex
100
AcDb2dVertex
 10
99.75066578848184
 20
-139.7644171872812
 30
0.0
  0
VERTEX
  5
59
330
41
100
AcDbEntity
  8
_U+30EC_U+30A4_U+30E4_U+30FC 1
370
     0
100
AcDbVertex
100
AcDb2dVertex
 10
99.89675106253267
 20
-139.5442838540029
 30
0.0
  0
VERTEX
  5
5A
330
41
100
AcDbEntity
  8
_U+30EC_U+30A4_U+30E4_U+30FC 1
370
     0
100
AcDbVertex
100
AcDb2dVertex
 10
99.68935553063348
 20
-139.3368857984991
 30
0.0
  0
VERTEX
  5
5B
330
41
100
AcDbEntity
  8
_U+30EC_U+30A4_U+30E4_U+30FC 1
370
     0
100
AcDbVertex
100
AcDb2dVertex
 10
89.54180632670932
 20
-129.1652441343751
 30
0.0
  0
VERTEX
  5
5C
330
41
100
AcDbEntity
  8
_U+30EC_U+30A4_U+30E4_U+30FC 1
370
     0
100
AcDbVertex
100
AcDb2dVertex
 10
80.5297807232919
 20
-129.1652441343751
 30
0.0
  0
VERTEX
  5
5D
330
41
100
AcDbEntity
  8
_U+30EC_U+30A4_U+30E4_U+30FC 1
370
     0
100
AcDbVertex
100
AcDb2dVertex
 10
80.40764905974108
 20
-129.0429360788501
 30
0.0
  0
VERTEX
  5
5E
330
41
100
AcDbEntity
  8
_U+30EC_U+30A4_U+30E4_U+30FC 1
370
     0
100
AcDbVertex
100
AcDb2dVertex
 10
80.28555267396713
 20
-129.140091078826
 30
0.0
  0
VERTEX
  5
5F
330
41
100
AcDbEntity
  8
_U+30EC_U+30A4_U+30E4_U+30FC 1
370
     0
100
AcDbVertex
100
AcDb2dVertex
 10
76.23118361073604
 20
-129.1652441343751
 30
0.0
  0
SEQEND
  5
61
330
41
100
AcDbEntity
  8
_U+30EC_U+30A4_U+30E4_U+30FC 1
370
     0
  0
HATCH
  5
60
330
1F
100
AcDbEntity
  8
_U+30EC_U+30A4_U+30E4_U+30FC 1
 62
   253
420
 10066329
100
AcDbHatch
 10
0.0
 20
0.0
 30
0.0
210
0.0
220
0.0
230
1.0
  2
SOLID
 70
     1
 71
     0
 91
        1
 92
        1
 93
       29
 72
     1
 10
76.23118361073604
 20
-129.1652441343751
 11
76.23118361073604
 21
-128.6760471900533
 72
     1
 10
76.23118361073604
 20
-128.6760471900533
 11
89.34629688725273
 21
-128.6760471900533
 72
     1
 10
89.34629688725273
 20
-128.6760471900533
 11
89.34629688725273
 21
-115.488226082239
 72
     1
 10
89.34629688725273
 20
-115.488226082239
 11
89.85944742971672
 21
-115.488226082239
 72
     1
 10
89.85944742971672
 20
-115.488226082239
 11
89.85944742971672
 21
-119.4201108034785
 72
     1
 10
89.85944742971672
 20
-119.4201108034785
 11
89.76162215443468
 21
-119.5906435812133
 72
     1
 10
89.76162215443468
 20
-119.5906435812133
 11
89.88375381798551
 21
-119.7859766367202
 72
     1
 10
89.88375381798551
 20
-119.7859766367202
 11
89.88375381798551
 21
-128.7500952455903
 72
     1
 10
89.88375381798551
 20
-128.7500952455903
 11
100.1902621661557
 21
-139.1046874652238
 72
     1
 10
100.1902621661557
 20
-139.1046874652238
 11
100.3852424389591
 21
-139.1046874652238
 72
     1
 10
100.3852424389591
 20
-139.1046874652238
 11
100.483105530435
 21
-138.9827321874766
 72
     1
 10
100.483105530435
 20
-138.9827321874766
 11
100.483105530435
 21
-126.3561099684109
 72
     1
 10
100.483105530435
 20
-126.3561099684109
 11
99.84852634154076
 21
-126.3561099684109
 72
     1
 10
99.84852634154076
 20
-126.3561099684109
 11
99.84852634154076
 21
-125.8186883018786
 72
     1
 10
99.84852634154076
 20
-125.8186883018786
 11
101.0205246449739
 21
-125.8186883018786
 72
     1
 10
101.0205246449739
 20
-125.8186883018786
 11
101.0205246449739
 21
-140.1306357983006
 72
     1
 10
101.0205246449739
 20
-140.1306357983006
 11
100.9230521474607
 21
-140.301874131591
 72
     1
 10
100.9230521474607
 20
-140.301874131591
 11
86.56231584716689
 21
-140.301874131591
 72
     1
 10
86.5623158471669
 20
-140.301874131591
 11
86.5623158471669
 21
-139.1046874652238
 72
     1
 10
86.5623158471669
 20
-139.1046874652238
 11
87.00159472484886
 21
-139.1046874652238
 72
     1
 10
87.00159472484884
 20
-139.1046874652238
 11
87.00159472484884
 21
-139.7644171872812
 72
     1
 10
87.00159472484884
 20
-139.7644171872812
 11
99.75066578848183
 21
-139.7644171872812
 72
     1
 10
99.75066578848184
 20
-139.7644171872812
 11
99.89675106253267
 21
-139.5442838540029
 72
     1
 10
99.89675106253267
 20
-139.5442838540029
 11
99.68935553063349
 21
-139.3368857984991
 72
     1
 10
99.68935553063348
 20
-139.3368857984991
 11
89.5418063267093
 21
-129.1652441343751
 72
     1
 10
89.54180632670932
 20
-129.1652441343751
 11
80.5297807232919
 21
-129.1652441343751
 72
     1
 10
80.5297807232919
 20
-129.1652441343751
 11
80.40764905974108
 21
-129.0429360788501
 72
     1
 10
80.40764905974108
 20
-129.0429360788501
 11
80.28555267396712
 21
-129.140091078826
 72
     1
 10
80.28555267396713
 20
-129.140091078826
 11
76.23118361073604
 21
-129.1652441343751
 97
        0
 75
     2
 76
     1
 98
        0
  0
INSERT
  5
63
330
1F
100
AcDbEntity
  8
_U+30EC_U+30A4_U+30E4_U+30FC 1
100
AcDbBlockReference
  2
block 2
 10
0.0
 20
0.0
 30
0.0
  0
POLYLINE
  5
68
330
1F
100
AcDbEntity
  8
_U+30EC_U+30A4_U+30E4_U+30FC 1
 62
   179
420
  2234388
370
     9
100
AcDb2dPolyline
 66
     1
 10
0.0
 20
0.0
 30
0.0
  0
VERTEX
  5
69
330
68
100
AcDbEntity
  8
_U+30EC_U+30A4_U+30E4_U+30FC 1
 62
   179
420
  2234388
370
     9
100
AcDbVertex
100
AcDb2dVertex
 10
99.79786745394429
 20
-124.9098621909948
 30
0.0
  0
VERTEX
  5
6A
330
68
100
AcDbEntity
  8
_U+30EC_U+30A4_U+30E4_U+30FC 1
 62
   179
420
  2234388
370
     9
100
AcDbVertex
100
AcDb2dVertex
 10
99.79786745394429
 20
-109.6973435836867
 30
0.0
  0
SEQEND
  5
6B
330
68
100
AcDbEntity
  8
_U+30EC_U+30A4_U+30E4_U+30FC 1
 62
   179
420
  2234388
370
     9
  0
POLYLINE
  5
6C
330
1F
100
AcDbEntity
  8
_U+30EC_U+30A4_U+30E4_U+30FC 1
 62
   179
420
  2234388
370
     9
100
AcDb2dPolyline
 66
     1
 10
0.0
 20
0.0
 30
0.0
  0
VERTEX
  5
6D
330
6C
100
AcDbEntity
  8
_U+30EC_U+30A4_U+30E4_U+30FC 1
 62
   179
420
  2234388
370
     9
100
AcDbVertex
100
AcDb2dVertex
 10
99.79786745394429
 20
-110.878690527836
 30
0.0
  0
VERTEX
  5
6E
330
6C
100
AcDbEntity
  8
_U+30EC_U+30A4_U+30E4_U+30FC 1
 62
   179
420
  2234388
370
     9
100
AcDbVertex
100
AcDb2dVertex
 10
103.1454815352062
 20
-110.878690527836
 30
0.0
  0
SEQEND
  5
6F
330
6C
100
AcDbEntity
  8
_U+30EC_U+30A4_U+30E4_U+30FC 1
 62
   179
420
  2234388
370
     9
  0
POLYLINE
  5
70
330
1F
100
AcDbEntity
  8
_U+30EC_U+30A4_U+30E4_U+30FC 1
 62
   179
420
  2234388
370
     9
100
AcDb2dPolyline
 66
     1
 10
0.0
 20
0.0
 30
0.0
  0
VERTEX
  5
71
330
70
100
AcDbEntity
  8
_U+30EC_U+30A4_U+30E4_U+30FC 1
 62
   179
420
  2234388
370
     9
100
AcDbVertex
100
AcDb2dVertex
 10
101.0391513111654
 20
-124.9098621909948
 30
0.0
  0
VERTEX
  5
72
330
70
100
AcDbEntity
  8
_U+30EC_U+30A4_U+30E4_U+30FC 1
 62
   179
420
  2234388
370
     9
100
AcDbVertex
100
AcDb2dVertex
 10
101.0391513111654
 20
-109.6973435836867
 30
0.0
  0
SEQEND
  5
73
330
70
100
AcDbEntity
  8
_U+30EC_U+30A4_U+30E4_U+30FC 1
 62
   179
420
  2234388
370
     9
  0
POLYLINE
  5
74
330
1F
100
AcDbEntity
  8
_U+30EC_U+30A4_U+30E4_U+30FC 1
 62
   179
420
  2234388
370
     9
100
AcDb2dPolyline
 66
     1
 10
0.0
 20
0.0
 30
0.0
  0
VERTEX
  5
75
330
74
100
AcDbEntity
  8
_U+30EC_U+30A4_U+30E4_U+30FC 1
 62
   179
420
  2234388
370
     9
100
AcDbVertex
100
AcDb2dVertex
 10
101.9837843426213
 20
-125.8544952463143
 30
0.0
  0
VERTEX
  5
76
330
74
100
AcDbEntity
  8
_U+30EC_U+30A4_U+30E4_U+30FC 1
 62
   179
420
  2234388
370
     9
100
AcDbVertex
100
AcDb2dVertex
 10
105.4395600877905
 20
-125.8544952463143
 30
0.0
  0
SEQEND
  5
77
330
74
100
AcDbEntity
  8
_U+30EC_U+30A4_U+30E4_U+30FC 1
 62
   179
420
  2234388
370
     9
  0
POLYLINE
  5
78
330
1F
100
AcDbEntity
  8
_U+30EC_U+30A4_U+30E4_U+30FC 1
 62
   179
420
  2234388
370
    25
100
AcDb2dPolyline
 66
     1
 10
0.0
 20
0.0
 30
0.0
  0
VERTEX
  5
79
330
78
100
AcDbEntity
  8
_U+30EC_U+30A4_U+30E4_U+30FC 1
 62
   179
420
  2234388
370
    25
100
AcDbVertex
100
AcDb2dVertex
 10
99.79786745394429
 20
-126.350606635079
 30
0.0
  0
VERTEX
  5
7A
330
78
100
AcDbEntity
  8
_U+30EC_U+30A4_U+30E4_U+30FC 1
 62
   179
420
  2234388
370
    25
100
AcDbVertex
100
AcDb2dVertex
 10
99.79786745394429
 20
-125.8544952463143
 30
0.0
  0
SEQEND
  5
7B
330
78
100
AcDbEntity
  8
_U+30EC_U+30A4_U+30E4_U+30FC 1
 62
   179
420
  2234388
370
    25
  0
POLYLINE
  5
7C
330
1F
100
AcDbEntity
  8
_U+30EC_U+30A4_U+30E4_U+30FC 1
 62
   179
420
  2234388
370
    25
100
AcDb2dPolyline
 66
     1
 10
0.0
 20
0.0
 30
0.0
  0
VERTEX
  5
7D
330
7C
100
AcDbEntity
  8
_U+30EC_U+30A4_U+30E4_U+30FC 1
 62
   179
420
  2234388
370
    25
100
AcDbVertex
100
AcDb2dVertex
 10
101.0384457556278
 20
-125.8544952463143
 30
0.0
  0
VERTEX
  5
7E
330
7C
100
AcDbEntity
  8
_U+30EC_U+30A4_U+30E4_U+30FC 1
 62
   179
420
  2234388
370
    25
100
AcDbVertex
100
AcDb2dVertex
 10
99.79786745394429
 20
-125.8544952463143
 30
0.0
  0
SEQEND
  5
7F
330
7C
100
AcDbEntity
  8
_U+30EC_U+30A4_U+30E4_U+30FC 1
 62
   179
420
  2234388
370
    25
  0
POLYLINE
  5
80
330
1F
100
AcDbEntity
  8
_U+30EC_U+30A4_U+30E4_U+30FC 1
 62
   179
420
  2234388
370
     9
100
AcDb2dPolyline
 66
     1
 10
0.0
 20
0.0
 30
0.0
  0
VERTEX
  5
81
330
80
100
AcDbEntity
  8
_U+30EC_U+30A4_U+30E4_U+30FC 1
 62
   179
420
  2234388
370
     9
100
AcDbVertex
100
AcDb2dVertex
 10
101.0384457556278
 20
-141.0628863536235
 30
0.0
  0
VERTEX
  5
82
330
80
100
AcDbEntity
  8
_U+30EC_U+30A4_U+30E4_U+30FC 1
 62
   179
420
  2234388
370
     9
100
AcDbVertex
100
AcDb2dVertex
 10
101.0384457556278
 20
-144.3942727416792
 30
0.0
  0
SEQEND
  5
83
330
80
100
AcDbEntity
  8
_U+30EC_U+30A4_U+30E4_U+30FC 1
 62
   179
420
  2234388
370
     9
  0
POLYLINE
  5
84
330
1F
100
AcDbEntity
  8
_U+30EC_U+30A4_U+30E4_U+30FC 1
 62
   179
420
  2234388
370
     9
100
AcDb2dPolyline
 66
     1
 10
0.0
 20
0.0
 30
0.0
  0
VERTEX
  5
85
330
84
100
AcDbEntity
  8
_U+30EC_U+30A4_U+30E4_U+30FC 1
 62
   179
420
  2234388
370
     9
100
AcDbVertex
100
AcDb2dVertex
 10
101.7763888634448
 20
-140.3245930204746
 30
0.0
  0
VERTEX
  5
86
330
84
100
AcDbEntity
  8
_U+30EC_U+30A4_U+30E4_U+30FC 1
 62
   179
420
  2234388
370
     9
100
AcDbVertex
100
AcDb2dVertex
 10
105.4392073100217
 20
-140.3245930204746
 30
0.0
  0
SEQEND
  5
87
330
84
100
AcDbEntity
  8
_U+30EC_U+30A4_U+30E4_U+30FC 1
 62
   179
420
  2234388
370
     9
  0
INSERT
  5
89
330
1F
100
AcDbEntity
  8
_U+30EC_U+30A4_U+30E4_U+30FC 1
100
AcDbBlockReference
  2
block 3
 10
0.0
 20
0.0
 30
0.0
  0
INSERT
  5
91
330
1F
100
AcDbEntity
  8
_U+30EC_U+30A4_U+30E4_U+30FC 1
100
AcDbBlockReference
  2
block 4
 10
0.0
 20
0.0
 30
0.0
  0
POLYLINE
  5
9A
330
1F
100
AcDbEntity
  8
_U+30EC_U+30A4_U+30E4_U+30FC 1
 62
   179
420
  2234388
370
     9
100
AcDb2dPolyline
 66
     1
 10
0.0
 20
0.0
 30
0.0
  0
VERTEX
  5
9B
330
9A
100
AcDbEntity
  8
_U+30EC_U+30A4_U+30E4_U+30FC 1
 62
   179
420
  2234388
370
     9
100
AcDbVertex
100
AcDb2dVertex
 10
101.0384457556278
 20
-141.0628863536235
 30
0.0
  0
VERTEX
  5
9C
330
9A
100
AcDbEntity
  8
_U+30EC_U+30A4_U+30E4_U+30FC 1
 62
   179
420
  2234388
370
     9
100
AcDbVertex
100
AcDb2dVertex
 10
101.0384457556278
 20
-148.6848266294957
 30
0.0
  0
SEQEND
  5
9D
330
9A
100
AcDbEntity
  8
_U+30EC_U+30A4_U+30E4_U+30FC 1
 62
   179
420
  2234388
370
     9
  0
POLYLINE
  5
9E
330
1F
100
AcDbEntity
  8
_U+30EC_U+30A4_U+30E4_U+30FC 1
 62
   179
420
  2234388
370
     9
100
AcDb2dPolyline
 66
     1
 10
0.0
 20
0.0
 30
0.0
  0
VERTEX
  5
9F
330
9E
100
AcDbEntity
  8
_U+30EC_U+30A4_U+30E4_U+30FC 1
 62
   179
420
  2234388
370
     9
100
AcDbVertex
100
AcDb2dVertex
 10
101.7756833078893
 20
-140.3245930204746
 30
0.0
  0
VERTEX
  5
A0
330
9E
100
AcDbEntity
  8
_U+30EC_U+30A4_U+30E4_U+30FC 1
 62
   179
420
  2234388
370
     9
100
AcDbVertex
100
AcDb2dVertex
 10
108.9332241653264
 20
-140.3245930204746
 30
0.0
  0
SEQEND
  5
A1
330
9E
100
AcDbEntity
  8
_U+30EC_U+30A4_U+30E4_U+30FC 1
 62
   179
420
  2234388
370
     9
  0
POLYLINE
  5
A2
330
1F
100
AcDbEntity
  8
_U+30EC_U+30A4_U+30E4_U+30FC 1
 62
   179
420
  2234388
370
    25
100
AcDb2dPolyline
 66
     1
 10
0.0
 20
0.0
 30
0.0
  0
VERTEX
  5
A3
330
A2
100
AcDbEntity
  8
_U+30EC_U+30A4_U+30E4_U+30FC 1
 62
   179
420
  2234388
370
    25
100
AcDbVertex
100
AcDb2dVertex
 10
100.542019419309
 20
-126.350606635079
 30
0.0
  0
VERTEX
  5
A4
330
A2
100
AcDbEntity
  8
_U+30EC_U+30A4_U+30E4_U+30FC 1
 62
   179
420
  2234388
370
    25
100
AcDbVertex
100
AcDb2dVertex
 10
99.79786745394429
 20
-126.350606635079
 30
0.0
  0
SEQEND
  5
A5
330
A2
100
AcDbEntity
  8
_U+30EC_U+30A4_U+30E4_U+30FC 1
 62
   179
420
  2234388
370
    25
  0
SPLINE
  5
A6
330
1F
100
AcDbEntity
  8
_U+30EC_U+30A4_U+30E4_U+30FC 1
 62
   179
420
  2234388
370
    25
100
AcDbSpline
210
0.0
220
0.0
230
1.0
 70
     8
 71
     3
 72
    14
 73
    10
 74
     0
 42
0.0000000001
 43
0.0000000001
 12
1.0
 22
0.0
 32
0.0
 13
1.0
 23
0.0
 33
0.0
 40
0.0
 40
0.0
 40
0.0
 40
0.0
 40
1.0
 40
1.0
 40
1.0
 40
2.0
 40
2.0
 40
2.0
 40
3.0
 40
3.0
 40
3.0
 40
3.0
 10
100.1888888638417
 20
-139.1253602429965
 30
0.0
 10
100.2274802207617
 20
-139.1636013540978
 30
0.0
 10
100.2815610527153
 20
-139.1860027429812
 30
0.0
 10
100.3356444193603
 20
-139.1860027429812
 30
0.0
 10
100.3894052166307
 20
-139.1860027429812
 30
0.0
 10
100.4434860485843
 20
-139.1636013540978
 30
0.0
 10
100.4817271587198
 20
-139.1253602429965
 30
0.0
 10
100.5196154910865
 20
-139.0871191318946
 30
0.0
 10
100.542019419309
 20
-139.0330382985749
 30
0.0
 10
100.542019419309
 20
-138.9789574652551
 30
0.0
  0
INSERT
  5
A8
330
1F
100
AcDbEntity
  8
_U+30EC_U+30A4_U+30E4_U+30FC 1
100
AcDbBlockReference
  2
block 5
 10
0.0
 20
0.0
 30
0.0
  0
INSERT
  5
C3
330
1F
100
AcDbEntity
  8
_U+30EC_U+30A4_U+30E4_U+30FC 1
100
AcDbBlockReference
  2
block 6
 10
0.0
 20
0.0
 30
0.0
  0
POLYLINE
  5
C8
330
1F
100
AcDbEntity
  8
_U+30EC_U+30A4_U+30E4_U+30FC 1
 62
   179
420
  2234388
370
    25
100
AcDb2dPolyline
 66
     1
 10
0.0
 20
0.0
 30
0.0
  0
VERTEX
  5
C9
330
C8
100
AcDbEntity
  8
_U+30EC_U+30A4_U+30E4_U+30FC 1
 62
   179
420
  2234388
370
    25
100
AcDbVertex
100
AcDb2dVertex
 10
100.542019419309
 20
-126.350606635079
 30
0.0
  0
VERTEX
  5
CA
330
C8
100
AcDbEntity
  8
_U+30EC_U+30A4_U+30E4_U+30FC 1
 62
   179
420
  2234388
370
    25
100
AcDbVertex
100
AcDb2dVertex
 10
100.542019419309
 20
-138.9789574652551
 30
0.0
  0
SEQEND
  5
CB
330
C8
100
AcDbEntity
  8
_U+30EC_U+30A4_U+30E4_U+30FC 1
 62
   179
420
  2234388
370
    25
  0
SPLINE
  5
CC
330
1F
100
AcDbEntity
  8
_U+30EC_U+30A4_U+30E4_U+30FC 1
 62
   179
420
  2234388
370
    25
100
AcDbSpline
210
0.0
220
0.0
230
1.0
 70
     8
 71
     3
 72
    14
 73
    10
 74
     0
 42
0.0000000001
 43
0.0000000001
 12
1.0
 22
0.0
 32
0.0
 13
1.0
 23
0.0
 33
0.0
 40
0.0
 40
0.0
 40
0.0
 40
0.0
 40
1.0
 40
1.0
 40
1.0
 40
2.0
 40
2.0
 40
2.0
 40
3.0
 40
3.0
 40
3.0
 40
3.0
 10
99.69245745663352
 20
-139.8291871872651
 30
0.0
 10
99.74653828858713
 20
-139.8291871872651
 30
0.0
 10
99.80026634277198
 20
-139.8064682983815
 30
0.0
 10
99.83818995291557
 20
-139.7682271872802
 30
0.0
 10
99.87710134081175
 20
-139.7303035761786
 30
0.0
 10
99.89914995136036
 20
-139.675869965081
 30
0.0
 10
99.89914995136036
 20
-139.622141909539
 30
0.0
 10
99.89914995136036
 20
-139.5684138539969
 30
0.0
 10
99.87710134081175
 20
-139.5146505206768
 30
0.0
 10
99.83818995291557
 20
-139.4757391317975
 30
0.0
  0
SPLINE
  5
CD
330
1F
100
AcDbEntity
  8
_U+30EC_U+30A4_U+30E4_U+30FC 1
 62
   179
420
  2234388
370
    25
100
AcDbSpline
210
0.0
220
0.0
230
1.0
 70
     8
 71
     3
 72
    11
 73
     7
 74
     0
 42
0.0000000001
 43
0.0000000001
 12
1.0
 22
0.0
 32
0.0
 13
1.0
 23
0.0
 33
0.0
 40
0.0
 40
0.0
 40
0.0
 40
0.0
 40
1.0
 40
1.0
 40
1.0
 40
2.0
 40
2.0
 40
2.0
 40
2.0
 10
100.831753260901
 20
-140.3245930204746
 30
0.0
 10
100.8854813150858
 20
-140.3245930204746
 30
0.0
 10
100.9395621470395
 20
-140.302544409369
 30
0.0
 10
100.977803257175
 20
-140.2643032982671
 30
0.0
 10
101.0163971450792
 20
-140.2253919093878
 30
0.0
 10
101.0384457556278
 20
-140.1719813538461
 30
0.0
 10
101.0384457556278
 20
-140.1179005205263
 30
0.0
  0
POLYLINE
  5
CE
330
1F
100
AcDbEntity
  8
_U+30EC_U+30A4_U+30E4_U+30FC 1
 62
   179
420
  2234388
370
    25
100
AcDb2dPolyline
 66
     1
 10
0.0
 20
0.0
 30
0.0
  0
VERTEX
  5
CF
330
CE
100
AcDbEntity
  8
_U+30EC_U+30A4_U+30E4_U+30FC 1
 62
   179
420
  2234388
370
    25
100
AcDbVertex
100
AcDb2dVertex
 10
89.75146215469388
 20
-119.6529794145314
 30
0.0
  0
VERTEX
  5
D0
330
CE
100
AcDbEntity
  8
_U+30EC_U+30A4_U+30E4_U+30FC 1
 62
   179
420
  2234388
370
    25
100
AcDbVertex
100
AcDb2dVertex
 10
89.87546354041923
 20
-119.5292955256732
 30
0.0
  0
SEQEND
  5
D1
330
CE
100
AcDbEntity
  8
_U+30EC_U+30A4_U+30E4_U+30FC 1
 62
   179
420
  2234388
370
    25
  0
POLYLINE
  5
D2
330
1F
100
AcDbEntity
  8
_U+30EC_U+30A4_U+30E4_U+30FC 1
 62
   179
420
  2234388
370
    25
100
AcDb2dPolyline
 66
     1
 10
0.0
 20
0.0
 30
0.0
  0
VERTEX
  5
D3
330
D2
100
AcDbEntity
  8
_U+30EC_U+30A4_U+30E4_U+30FC 1
 62
   179
420
  2234388
370
    25
100
AcDbVertex
100
AcDb2dVertex
 10
89.87546354041923
 20
-119.777016081167
 30
0.0
  0
VERTEX
  5
D4
330
D2
100
AcDbEntity
  8
_U+30EC_U+30A4_U+30E4_U+30FC 1
 62
   179
420
  2234388
370
    25
100
AcDbVertex
100
AcDb2dVertex
 10
89.75146215469388
 20
-119.6529794145314
 30
0.0
  0
SEQEND
  5
D5
330
D2
100
AcDbEntity
  8
_U+30EC_U+30A4_U+30E4_U+30FC 1
 62
   179
420
  2234388
370
    25
  0
POLYLINE
  5
D6
330
1F
100
AcDbEntity
  8
_U+30EC_U+30A4_U+30E4_U+30FC 1
 62
   179
420
  2234388
370
    25
100
AcDb2dPolyline
 66
     1
 10
0.0
 20
0.0
 30
0.0
  0
VERTEX
  5
D7
330
D6
100
AcDbEntity
  8
_U+30EC_U+30A4_U+30E4_U+30FC 1
 62
   179
420
  2234388
370
    25
100
AcDbVertex
100
AcDb2dVertex
 10
89.87546354041923
 20
-119.5292955256732
 30
0.0
  0
VERTEX
  5
D8
330
D6
100
AcDbEntity
  8
_U+30EC_U+30A4_U+30E4_U+30FC 1
 62
   179
420
  2234388
370
    25
100
AcDbVertex
100
AcDb2dVertex
 10
89.87546354041923
 20
-115.5185296933426
 30
0.0
  0
VERTEX
  5
D9
330
D6
100
AcDbEntity
  8
_U+30EC_U+30A4_U+30E4_U+30FC 1
 62
   179
420
  2234388
370
    25
100
AcDbVertex
100
AcDb2dVertex
 10
89.37921105307969
 20
-115.5185296933426
 30
0.0
  0
SEQEND
  5
DA
330
D6
100
AcDbEntity
  8
_U+30EC_U+30A4_U+30E4_U+30FC 1
 62
   179
420
  2234388
370
    25
  0
POLYLINE
  5
DB
330
1F
100
AcDbEntity
  8
_U+30EC_U+30A4_U+30E4_U+30FC 1
 62
   179
420
  2234388
370
     9
100
AcDb2dPolyline
 66
     1
 10
0.0
 20
0.0
 30
0.0
  0
VERTEX
  5
DC
330
DB
100
AcDbEntity
  8
_U+30EC_U+30A4_U+30E4_U+30FC 1
 62
   179
420
  2234388
370
     9
100
AcDbVertex
100
AcDb2dVertex
 10
89.87546354041923
 20
-114.5735438602457
 30
0.0
  0
VERTEX
  5
DD
330
DB
100
AcDbEntity
  8
_U+30EC_U+30A4_U+30E4_U+30FC 1
 62
   179
420
  2234388
370
     9
100
AcDbVertex
100
AcDb2dVertex
 10
89.87546354041923
 20
-109.6973435836867
 30
0.0
  0
SEQEND
  5
DE
330
DB
100
AcDbEntity
  8
_U+30EC_U+30A4_U+30E4_U+30FC 1
 62
   179
420
  2234388
370
     9
  0
INSERT
  5
E0
330
1F
100
AcDbEntity
  8
_U+30EC_U+30A4_U+30E4_U+30FC 1
100
AcDbBlockReference
  2
block 7
 10
0.0
 20
0.0
 30
0.0
  0
INSERT
  5
E8
330
1F
100
AcDbEntity
  8
_U+30EC_U+30A4_U+30E4_U+30FC 1
100
AcDbBlockReference
  2
block 8
 10
0.0
 20
0.0
 30
0.0
  0
INSERT
  5
103
330
1F
100
AcDbEntity
  8
_U+30EC_U+30A4_U+30E4_U+30FC 1
100
AcDbBlockReference
  2
block 9
 10
0.0
 20
0.0
 30
0.0
  0
POLYLINE
  5
10C
330
1F
100
AcDbEntity
  8
_U+30EC_U+30A4_U+30E4_U+30FC 1
 62
   179
420
  2234388
370
     9
100
AcDb2dPolyline
 66
     1
 10
0.0
 20
0.0
 30
0.0
  0
VERTEX
  5
10D
330
10C
100
AcDbEntity
  8
_U+30EC_U+30A4_U+30E4_U+30FC 1
 62
   179
420
  2234388
370
     9
100
AcDbVertex
100
AcDb2dVertex
 10
85.62283337113509
 20
-139.0847202430066
 30
0.0
  0
VERTEX
  5
10E
330
10C
100
AcDbEntity
  8
_U+30EC_U+30A4_U+30E4_U+30FC 1
 62
   179
420
  2234388
370
     9
100
AcDbVertex
100
AcDb2dVertex
 10
74.01097672293379
 20
-139.0847202430066
 30
0.0
  0
SEQEND
  5
10F
330
10C
100
AcDbEntity
  8
_U+30EC_U+30A4_U+30E4_U+30FC 1
 62
   179
420
  2234388
370
     9
  0
POLYLINE
  5
110
330
1F
100
AcDbEntity
  8
_U+30EC_U+30A4_U+30E4_U+30FC 1
 62
   179
420
  2234388
370
     9
100
AcDb2dPolyline
 66
     1
 10
0.0
 20
0.0
 30
0.0
  0
VERTEX
  5
111
330
110
100
AcDbEntity
  8
_U+30EC_U+30A4_U+30E4_U+30FC 1
 62
   179
420
  2234388
370
     9
100
AcDbVertex
100
AcDb2dVertex
 10
75.19246664786864
 20
-139.0847202430066
 30
0.0
  0
VERTEX
  5
112
330
110
100
AcDbEntity
  8
_U+30EC_U+30A4_U+30E4_U+30FC 1
 62
   179
420
  2234388
370
     9
100
AcDbVertex
100
AcDb2dVertex
 10
75.19246664786864
 20
-129.1621396899316
 30
0.0
  0
SEQEND
  5
113
330
110
100
AcDbEntity
  8
_U+30EC_U+30A4_U+30E4_U+30FC 1
 62
   179
420
  2234388
370
     9
  0
POLYLINE
  5
114
330
1F
100
AcDbEntity
  8
_U+30EC_U+30A4_U+30E4_U+30FC 1
 62
   179
420
  2234388
370
     9
100
AcDb2dPolyline
 66
     1
 10
0.0
 20
0.0
 30
0.0
  0
VERTEX
  5
115
330
114
100
AcDbEntity
  8
_U+30EC_U+30A4_U+30E4_U+30FC 1
 62
   179
420
  2234388
370
     9
100
AcDbVertex
100
AcDb2dVertex
 10
75.28704446815637
 20
-129.1621396899316
 30
0.0
  0
VERTEX
  5
116
330
114
100
AcDbEntity
  8
_U+30EC_U+30A4_U+30E4_U+30FC 1
 62
   179
420
  2234388
370
     9
100
AcDbVertex
100
AcDb2dVertex
 10
74.01150588958696
 20
-129.1621396899316
 30
0.0
  0
SEQEND
  5
117
330
114
100
AcDbEntity
  8
_U+30EC_U+30A4_U+30E4_U+30FC 1
 62
   179
420
  2234388
370
     9
  0
POLYLINE
  5
118
330
1F
100
AcDbEntity
  8
_U+30EC_U+30A4_U+30E4_U+30FC 1
 62
   179
420
  2234388
370
     9
100
AcDb2dPolyline
 66
     1
 10
0.0
 20
0.0
 30
0.0
  0
VERTEX
  5
119
330
118
100
AcDbEntity
  8
_U+30EC_U+30A4_U+30E4_U+30FC 1
 62
   179
420
  2234388
370
     9
100
AcDbVertex
100
AcDb2dVertex
 10
86.56785445813671
 20
-141.269931631349
 30
0.0
  0
VERTEX
  5
11A
330
118
100
AcDbEntity
  8
_U+30EC_U+30A4_U+30E4_U+30FC 1
 62
   179
420
  2234388
370
     9
100
AcDbVertex
100
AcDb2dVertex
 10
86.56785445813671
 20
-144.3953310750125
 30
0.0
  0
SEQEND
  5
11B
330
118
100
AcDbEntity
  8
_U+30EC_U+30A4_U+30E4_U+30FC 1
 62
   179
420
  2234388
370
     9
  0
POLYLINE
  5
11C
330
1F
100
AcDbEntity
  8
_U+30EC_U+30A4_U+30E4_U+30FC 1
 62
   179
420
  2234388
370
     9
100
AcDb2dPolyline
 66
     1
 10
0.0
 20
0.0
 30
0.0
  0
VERTEX
  5
11D
330
11C
100
AcDbEntity
  8
_U+30EC_U+30A4_U+30E4_U+30FC 1
 62
   179
420
  2234388
370
     9
100
AcDbVertex
100
AcDb2dVertex
 10
85.62283337113509
 20
-140.3245930204746
 30
0.0
  0
VERTEX
  5
11E
330
11C
100
AcDbEntity
  8
_U+30EC_U+30A4_U+30E4_U+30FC 1
 62
   179
420
  2234388
370
     9
100
AcDbVertex
100
AcDb2dVertex
 10
74.01097672293379
 20
-140.3245930204746
 30
0.0
  0
SEQEND
  5
11F
330
11C
100
AcDbEntity
  8
_U+30EC_U+30A4_U+30E4_U+30FC 1
 62
   179
420
  2234388
370
     9
  0
POLYLINE
  5
120
330
1F
100
AcDbEntity
  8
_U+30EC_U+30A4_U+30E4_U+30FC 1
 62
   179
420
  2234388
370
     9
100
AcDb2dPolyline
 66
     1
 10
0.0
 20
0.0
 30
0.0
  0
VERTEX
  5
121
330
120
100
AcDbEntity
  8
_U+30EC_U+30A4_U+30E4_U+30FC 1
 62
   179
420
  2234388
370
     9
100
AcDbVertex
100
AcDb2dVertex
 10
75.19246664786864
 20
-142.4202341310616
 30
0.0
  0
VERTEX
  5
122
330
120
100
AcDbEntity
  8
_U+30EC_U+30A4_U+30E4_U+30FC 1
 62
   179
420
  2234388
370
     9
100
AcDbVertex
100
AcDb2dVertex
 10
75.19246664786864
 20
-139.0847202430066
 30
0.0
  0
SEQEND
  5
123
330
120
100
AcDbEntity
  8
_U+30EC_U+30A4_U+30E4_U+30FC 1
 62
   179
420
  2234388
370
     9
  0
POLYLINE
  5
124
330
1F
100
AcDbEntity
  8
_U+30EC_U+30A4_U+30E4_U+30FC 1
 62
   179
420
  2234388
370
    25
100
AcDb2dPolyline
 66
     1
 10
0.0
 20
0.0
 30
0.0
  0
VERTEX
  5
125
330
124
100
AcDbEntity
  8
_U+30EC_U+30A4_U+30E4_U+30FC 1
 62
   179
420
  2234388
370
    25
100
AcDbVertex
100
AcDb2dVertex
 10
80.24230211951499
 20
-129.1621396899316
 30
0.0
  0
VERTEX
  5
126
330
124
100
AcDbEntity
  8
_U+30EC_U+30A4_U+30E4_U+30FC 1
 62
   179
420
  2234388
370
    25
100
AcDbVertex
100
AcDb2dVertex
 10
76.23153638850482
 20
-129.1621396899316
 30
0.0
  0
SEQEND
  5
127
330
124
100
AcDbEntity
  8
_U+30EC_U+30A4_U+30E4_U+30FC 1
 62
   179
420
  2234388
370
    25
  0
POLYLINE
  5
128
330
1F
100
AcDbEntity
  8
_U+30EC_U+30A4_U+30E4_U+30FC 1
 62
   179
420
  2234388
370
    25
100
AcDb2dPolyline
 66
     1
 10
0.0
 20
0.0
 30
0.0
  0
VERTEX
  5
129
330
128
100
AcDbEntity
  8
_U+30EC_U+30A4_U+30E4_U+30FC 1
 62
   179
420
  2234388
370
    25
100
AcDbVertex
100
AcDb2dVertex
 10
89.52459077159297
 20
-129.1621396899316
 30
0.0
  0
VERTEX
  5
12A
330
128
100
AcDbEntity
  8
_U+30EC_U+30A4_U+30E4_U+30FC 1
 62
   179
420
  2234388
370
    25
100
AcDbVertex
100
AcDb2dVertex
 10
80.49016377985818
 20
-129.1621396899316
 30
0.0
  0
SEQEND
  5
12B
330
128
100
AcDbEntity
  8
_U+30EC_U+30A4_U+30E4_U+30FC 1
 62
   179
420
  2234388
370
    25
  0
POLYLINE
  5
12C
330
1F
100
AcDbEntity
  8
_U+30EC_U+30A4_U+30E4_U+30FC 1
 62
   179
420
  2234388
370
    25
100
AcDb2dPolyline
 66
     1
 10
0.0
 20
0.0
 30
0.0
  0
VERTEX
  5
12D
330
12C
100
AcDbEntity
  8
_U+30EC_U+30A4_U+30E4_U+30FC 1
 62
   179
420
  2234388
370
    25
100
AcDbVertex
100
AcDb2dVertex
 10
76.2320302773811
 20
-129.1621396899316
 30
0.0
  0
VERTEX
  5
12E
330
12C
100
AcDbEntity
  8
_U+30EC_U+30A4_U+30E4_U+30FC 1
 62
   179
420
  2234388
370
    25
100
AcDbVertex
100
AcDb2dVertex
 10
76.2320302773811
 20
-128.6660635789447
 30
0.0
  0
SEQEND
  5
12F
330
12C
100
AcDbEntity
  8
_U+30EC_U+30A4_U+30E4_U+30FC 1
 62
   179
420
  2234388
370
    25
  0
POLYLINE
  5
130
330
1F
100
AcDbEntity
  8
_U+30EC_U+30A4_U+30E4_U+30FC 1
 62
   179
420
  2234388
370
     9
100
AcDb2dPolyline
 66
     1
 10
0.0
 20
0.0
 30
0.0
  0
VERTEX
  5
131
330
130
100
AcDbEntity
  8
_U+30EC_U+30A4_U+30E4_U+30FC 1
 62
   179
420
  2234388
370
     9
100
AcDbVertex
100
AcDb2dVertex
 10
76.2320302773811
 20
-130.106772745251
 30
0.0
  0
VERTEX
  5
132
330
130
100
AcDbEntity
  8
_U+30EC_U+30A4_U+30E4_U+30FC 1
 62
   179
420
  2234388
370
     9
100
AcDbVertex
100
AcDb2dVertex
 10
76.2320302773811
 20
-148.6848266294957
 30
0.0
  0
SEQEND
  5
133
330
130
100
AcDbEntity
  8
_U+30EC_U+30A4_U+30E4_U+30FC 1
 62
   179
420
  2234388
370
     9
  0
POLYLINE
  5
134
330
1F
100
AcDbEntity
  8
_U+30EC_U+30A4_U+30E4_U+30FC 1
 62
   179
420
  2234388
370
    25
100
AcDb2dPolyline
 66
     1
 10
0.0
 20
0.0
 30
0.0
  0
VERTEX
  5
135
330
134
100
AcDbEntity
  8
_U+30EC_U+30A4_U+30E4_U+30FC 1
 62
   179
420
  2234388
370
    25
100
AcDbVertex
100
AcDb2dVertex
 10
87.06375416770747
 20
-139.8291871872651
 30
0.0
  0
VERTEX
  5
136
330
134
100
AcDbEntity
  8
_U+30EC_U+30A4_U+30E4_U+30FC 1
 62
   179
420
  2234388
370
    25
100
AcDbVertex
100
AcDb2dVertex
 10
87.06375416770747
 20
-139.0847202430066
 30
0.0
  0
SEQEND
  5
137
330
134
100
AcDbEntity
  8
_U+30EC_U+30A4_U+30E4_U+30FC 1
 62
   179
420
  2234388
370
    25
  0
POLYLINE
  5
138
330
1F
100
AcDbEntity
  8
_U+30EC_U+30A4_U+30E4_U+30FC 1
 62
   179
420
  2234388
370
    25
100
AcDb2dPolyline
 66
     1
 10
0.0
 20
0.0
 30
0.0
  0
VERTEX
  5
139
330
138
100
AcDbEntity
  8
_U+30EC_U+30A4_U+30E4_U+30FC 1
 62
   179
420
  2234388
370
    25
100
AcDbVertex
100
AcDb2dVertex
 10
86.56785445813671
 20
-140.3245930204746
 30
0.0
  0
VERTEX
  5
13A
330
138
100
AcDbEntity
  8
_U+30EC_U+30A4_U+30E4_U+30FC 1
 62
   179
420
  2234388
370
    25
100
AcDbVertex
100
AcDb2dVertex
 10
86.56785445813671
 20
-139.0847202430066
 30
0.0
  0
SEQEND
  5
13B
330
138
100
AcDbEntity
  8
_U+30EC_U+30A4_U+30E4_U+30FC 1
 62
   179
420
  2234388
370
    25
  0
POLYLINE
  5
13C
330
1F
100
AcDbEntity
  8
_U+30EC_U+30A4_U+30E4_U+30FC 1
 62
   179
420
  2234388
370
    25
100
AcDb2dPolyline
 66
     1
 10
0.0
 20
0.0
 30
0.0
  0
VERTEX
  5
13D
330
13C
100
AcDbEntity
  8
_U+30EC_U+30A4_U+30E4_U+30FC 1
 62
   179
420
  2234388
370
    25
100
AcDbVertex
100
AcDb2dVertex
 10
89.37921105307969
 20
-128.6660635789447
 30
0.0
  0
VERTEX
  5
13E
330
13C
100
AcDbEntity
  8
_U+30EC_U+30A4_U+30E4_U+30FC 1
 62
   179
420
  2234388
370
    25
100
AcDbVertex
100
AcDb2dVertex
 10
76.2320302773811
 20
-128.6660635789447
 30
0.0
  0
SEQEND
  5
13F
330
13C
100
AcDbEntity
  8
_U+30EC_U+30A4_U+30E4_U+30FC 1
 62
   179
420
  2234388
370
    25
  0
POLYLINE
  5
140
330
1F
100
AcDbEntity
  8
_U+30EC_U+30A4_U+30E4_U+30FC 1
 62
   179
420
  2234388
370
    25
100
AcDb2dPolyline
 66
     1
 10
0.0
 20
0.0
 30
0.0
  0
VERTEX
  5
141
330
140
100
AcDbEntity
  8
_U+30EC_U+30A4_U+30E4_U+30FC 1
 62
   179
420
  2234388
370
    25
100
AcDbVertex
100
AcDb2dVertex
 10
87.06410694547625
 20
-139.0847202430066
 30
0.0
  0
VERTEX
  5
142
330
140
100
AcDbEntity
  8
_U+30EC_U+30A4_U+30E4_U+30FC 1
 62
   179
420
  2234388
370
    25
100
AcDbVertex
100
AcDb2dVertex
 10
86.568348347013
 20
-139.0847202430066
 30
0.0
  0
SEQEND
  5
143
330
140
100
AcDbEntity
  8
_U+30EC_U+30A4_U+30E4_U+30FC 1
 62
   179
420
  2234388
370
    25
  0
POLYLINE
  5
144
330
1F
100
AcDbEntity
  8
_U+30EC_U+30A4_U+30E4_U+30FC 1
 62
   179
420
  2234388
370
    25
100
AcDb2dPolyline
 66
     1
 10
0.0
 20
0.0
 30
0.0
  0
VERTEX
  5
145
330
144
100
AcDbEntity
  8
_U+30EC_U+30A4_U+30E4_U+30FC 1
 62
   179
420
  2234388
370
    25
100
AcDbVertex
100
AcDb2dVertex
 10
80.24265489728377
 20
-129.1621396899316
 30
0.0
  0
VERTEX
  5
146
330
144
100
AcDbEntity
  8
_U+30EC_U+30A4_U+30E4_U+30FC 1
 62
   179
420
  2234388
370
    25
100
AcDbVertex
100
AcDb2dVertex
 10
80.36647989412472
 20
-129.0384558010737
 30
0.0
  0
VERTEX
  5
147
330
144
100
AcDbEntity
  8
_U+30EC_U+30A4_U+30E4_U+30FC 1
 62
   179
420
  2234388
370
    25
100
AcDbVertex
100
AcDb2dVertex
 10
80.49051655762696
 20
-129.1621396899316
 30
0.0
  0
SEQEND
  5
148
330
144
100
AcDbEntity
  8
_U+30EC_U+30A4_U+30E4_U+30FC 1
 62
   179
420
  2234388
370
    25
  0
POLYLINE
  5
149
330
1F
100
AcDbEntity
  8
_U+30EC_U+30A4_U+30E4_U+30FC 1
 62
   179
420
  2234388
370
    25
100
AcDb2dPolyline
 66
     1
 10
0.0
 20
0.0
 30
0.0
  0
VERTEX
  5
14A
330
149
100
AcDbEntity
  8
_U+30EC_U+30A4_U+30E4_U+30FC 1
 62
   179
420
  2234388
370
    25
100
AcDbVertex
100
AcDb2dVertex
 10
89.37921105307969
 20
-128.6660635789447
 30
0.0
  0
VERTEX
  5
14B
330
149
100
AcDbEntity
  8
_U+30EC_U+30A4_U+30E4_U+30FC 1
 62
   179
420
  2234388
370
    25
100
AcDbVertex
100
AcDb2dVertex
 10
89.37921105307969
 20
-115.5185296933426
 30
0.0
  0
SEQEND
  5
14C
330
149
100
AcDbEntity
  8
_U+30EC_U+30A4_U+30E4_U+30FC 1
 62
   179
420
  2234388
370
    25
  0
POLYLINE
  5
14D
330
1F
100
AcDbEntity
  8
_U+30EC_U+30A4_U+30E4_U+30FC 1
 62
   179
420
  2234388
370
    25
100
AcDb2dPolyline
 66
     1
 10
0.0
 20
0.0
 30
0.0
  0
VERTEX
  5
14E
330
14D
100
AcDbEntity
  8
_U+30EC_U+30A4_U+30E4_U+30FC 1
 62
   179
420
  2234388
370
    25
100
AcDbVertex
100
AcDb2dVertex
 10
89.87546354041923
 20
-128.8107377455749
 30
0.0
  0
VERTEX
  5
14F
330
14D
100
AcDbEntity
  8
_U+30EC_U+30A4_U+30E4_U+30FC 1
 62
   179
420
  2234388
370
    25
100
AcDbVertex
100
AcDb2dVertex
 10
89.87546354041923
 20
-119.777016081167
 30
0.0
  0
SEQEND
  5
150
330
14D
100
AcDbEntity
  8
_U+30EC_U+30A4_U+30E4_U+30FC 1
 62
   179
420
  2234388
370
    25
  0
POLYLINE
  5
151
330
1F
100
AcDbEntity
  8
_U+30EC_U+30A4_U+30E4_U+30FC 1
 62
   179
420
  2234388
370
    25
100
AcDb2dPolyline
 66
     1
 10
0.0
 20
0.0
 30
0.0
  0
VERTEX
  5
152
330
151
100
AcDbEntity
  8
_U+30EC_U+30A4_U+30E4_U+30FC 1
 62
   179
420
  2234388
370
    25
100
AcDbVertex
100
AcDb2dVertex
 10
101.0384457556278
 20
-140.1179005205263
 30
0.0
  0
VERTEX
  5
153
330
151
100
AcDbEntity
  8
_U+30EC_U+30A4_U+30E4_U+30FC 1
 62
   179
420
  2234388
370
    25
100
AcDbVertex
100
AcDb2dVertex
 10
101.0384457556278
 20
-125.8544952463143
 30
0.0
  0
SEQEND
  5
154
330
151
100
AcDbEntity
  8
_U+30EC_U+30A4_U+30E4_U+30FC 1
 62
   179
420
  2234388
370
    25
  0
POLYLINE
  5
155
330
1F
100
AcDbEntity
  8
_U+30EC_U+30A4_U+30E4_U+30FC 1
 62
   179
420
  2234388
370
     9
100
AcDb2dPolyline
 66
     1
 10
0.0
 20
0.0
 30
0.0
  0
VERTEX
  5
156
330
155
100
AcDbEntity
  8
_U+30EC_U+30A4_U+30E4_U+30FC 1
 62
   179
420
  2234388
370
     9
100
AcDbVertex
100
AcDb2dVertex
 10
107.7522653065662
 20
-140.3245930204746
 30
0.0
  0
VERTEX
  5
157
330
155
100
AcDbEntity
  8
_U+30EC_U+30A4_U+30E4_U+30FC 1
 62
   179
420
  2234388
370
     9
100
AcDbVertex
100
AcDb2dVertex
 10
107.7522653065662
 20
-115.5185296933426
 30
0.0
  0
SEQEND
  5
158
330
155
100
AcDbEntity
  8
_U+30EC_U+30A4_U+30E4_U+30FC 1
 62
   179
420
  2234388
370
     9
  0
POLYLINE
  5
159
330
1F
100
AcDbEntity
  8
_U+30EC_U+30A4_U+30E4_U+30FC 1
 62
   179
420
  2234388
370
     9
100
AcDb2dPolyline
 66
     1
 10
0.0
 20
0.0
 30
0.0
  0
VERTEX
  5
15A
330
159
100
AcDbEntity
  8
_U+30EC_U+30A4_U+30E4_U+30FC 1
 62
   179
420
  2234388
370
     9
100
AcDbVertex
100
AcDb2dVertex
 10
104.2578956734928
 20
-140.3245930204746
 30
0.0
  0
VERTEX
  5
15B
330
159
100
AcDbEntity
  8
_U+30EC_U+30A4_U+30E4_U+30FC 1
 62
   179
420
  2234388
370
     9
100
AcDbVertex
100
AcDb2dVertex
 10
104.2578956734928
 20
-125.8544952463143
 30
0.0
  0
SEQEND
  5
15C
330
159
100
AcDbEntity
  8
_U+30EC_U+30A4_U+30E4_U+30FC 1
 62
   179
420
  2234388
370
     9
  0
POLYLINE
  5
15D
330
1F
100
AcDbEntity
  8
_U+30EC_U+30A4_U+30E4_U+30FC 1
 62
   179
420
  2234388
370
    25
100
AcDb2dPolyline
 66
     1
 10
0.0
 20
0.0
 30
0.0
  0
VERTEX
  5
15E
330
15D
100
AcDbEntity
  8
_U+30EC_U+30A4_U+30E4_U+30FC 1
 62
   179
420
  2234388
370
    25
100
AcDbVertex
100
AcDb2dVertex
 10
100.831753260901
 20
-140.3245930204746
 30
0.0
  0
VERTEX
  5
15F
330
15D
100
AcDbEntity
  8
_U+30EC_U+30A4_U+30E4_U+30FC 1
 62
   179
420
  2234388
370
    25
100
AcDbVertex
100
AcDb2dVertex
 10
86.568348347013
 20
-140.3245930204746
 30
0.0
  0
SEQEND
  5
160
330
15D
100
AcDbEntity
  8
_U+30EC_U+30A4_U+30E4_U+30FC 1
 62
   179
420
  2234388
370
    25
  0
POLYLINE
  5
161
330
1F
100
AcDbEntity
  8
_U+30EC_U+30A4_U+30E4_U+30FC 1
 62
   179
420
  2234388
370
    25
100
AcDb2dPolyline
 66
     1
 10
0.0
 20
0.0
 30
0.0
  0
VERTEX
  5
162
330
161
100
AcDbEntity
  8
_U+30EC_U+30A4_U+30E4_U+30FC 1
 62
   179
420
  2234388
370
    25
100
AcDbVertex
100
AcDb2dVertex
 10
89.52494354936174
 20
-129.1621396899316
 30
0.0
  0
VERTEX
  5
163
330
161
100
AcDbEntity
  8
_U+30EC_U+30A4_U+30E4_U+30FC 1
 62
   179
420
  2234388
370
    25
100
AcDbVertex
100
AcDb2dVertex
 10
99.83850745290748
 20
-139.4757391317975
 30
0.0
  0
SEQEND
  5
164
330
161
100
AcDbEntity
  8
_U+30EC_U+30A4_U+30E4_U+30FC 1
 62
   179
420
  2234388
370
    25
  0
POLYLINE
  5
165
330
1F
100
AcDbEntity
  8
_U+30EC_U+30A4_U+30E4_U+30FC 1
 62
   179
420
  2234388
370
    25
100
AcDb2dPolyline
 66
     1
 10
0.0
 20
0.0
 30
0.0
  0
VERTEX
  5
166
330
165
100
AcDbEntity
  8
_U+30EC_U+30A4_U+30E4_U+30FC 1
 62
   179
420
  2234388
370
    25
100
AcDbVertex
100
AcDb2dVertex
 10
87.06410694547625
 20
-139.8291871872651
 30
0.0
  0
VERTEX
  5
167
330
165
100
AcDbEntity
  8
_U+30EC_U+30A4_U+30E4_U+30FC 1
 62
   179
420
  2234388
370
    25
100
AcDbVertex
100
AcDb2dVertex
 10
99.69245745663352
 20
-139.8291871872651
 30
0.0
  0
SEQEND
  5
168
330
165
100
AcDbEntity
  8
_U+30EC_U+30A4_U+30E4_U+30FC 1
 62
   179
420
  2234388
370
    25
  0
POLYLINE
  5
169
330
1F
100
AcDbEntity
  8
_U+30EC_U+30A4_U+30E4_U+30FC 1
 62
   179
420
  2234388
370
    25
100
AcDb2dPolyline
 66
     1
 10
0.0
 20
0.0
 30
0.0
  0
VERTEX
  5
16A
330
169
100
AcDbEntity
  8
_U+30EC_U+30A4_U+30E4_U+30FC 1
 62
   179
420
  2234388
370
    25
100
AcDbVertex
100
AcDb2dVertex
 10
89.87546354041923
 20
-128.8107377455749
 30
0.0
  0
VERTEX
  5
16B
330
169
100
AcDbEntity
  8
_U+30EC_U+30A4_U+30E4_U+30FC 1
 62
   179
420
  2234388
370
    25
100
AcDbVertex
100
AcDb2dVertex
 10
100.1888888638417
 20
-139.1253602429965
 30
0.0
  0
SEQEND
  5
16C
330
169
100
AcDbEntity
  8
_U+30EC_U+30A4_U+30E4_U+30FC 1
 62
   179
420
  2234388
370
    25
  0
POLYLINE
  5
16D
330
1F
100
AcDbEntity
  8
_U+30EC_U+30A4_U+30E4_U+30FC 1
 62
   179
420
  2234388
370
     9
100
AcDb2dPolyline
 66
     1
 10
0.0
 20
0.0
 30
0.0
  0
VERTEX
  5
16E
330
16D
100
AcDbEntity
  8
_U+30EC_U+30A4_U+30E4_U+30FC 1
 62
   179
420
  2234388
370
     9
100
AcDbVertex
100
AcDb2dVertex
 10
86.56785445813671
 20
-143.2136666308629
 30
0.0
  0
VERTEX
  5
16F
330
16D
100
AcDbEntity
  8
_U+30EC_U+30A4_U+30E4_U+30FC 1
 62
   179
420
  2234388
370
     9
100
AcDbVertex
100
AcDb2dVertex
 10
101.0384457556278
 20
-143.2136666308629
 30
0.0
  0
SEQEND
  5
170
330
16D
100
AcDbEntity
  8
_U+30EC_U+30A4_U+30E4_U+30FC 1
 62
   179
420
  2234388
370
     9
  0
POLYLINE
  5
171
330
1F
100
AcDbEntity
  8
_U+30EC_U+30A4_U+30E4_U+30FC 1
 62
   179
420
  2234388
370
     9
100
AcDb2dPolyline
 66
     1
 10
0.0
 20
0.0
 30
0.0
  0
VERTEX
  5
172
330
171
100
AcDbEntity
  8
_U+30EC_U+30A4_U+30E4_U+30FC 1
 62
   179
420
  2234388
370
     9
100
AcDbVertex
100
AcDb2dVertex
 10
89.87546354041923
 20
-110.878690527836
 30
0.0
  0
VERTEX
  5
173
330
171
100
AcDbEntity
  8
_U+30EC_U+30A4_U+30E4_U+30FC 1
 62
   179
420
  2234388
370
     9
100
AcDbVertex
100
AcDb2dVertex
 10
99.79786745394429
 20
-110.878690527836
 30
0.0
  0
SEQEND
  5
174
330
171
100
AcDbEntity
  8
_U+30EC_U+30A4_U+30E4_U+30FC 1
 62
   179
420
  2234388
370
     9
  0
POLYLINE
  5
175
330
1F
100
AcDbEntity
  8
_U+30EC_U+30A4_U+30E4_U+30FC 1
 62
   179
420
  2234388
370
     9
100
AcDb2dPolyline
 66
     1
 10
0.0
 20
0.0
 30
0.0
  0
VERTEX
  5
176
330
175
100
AcDbEntity
  8
_U+30EC_U+30A4_U+30E4_U+30FC 1
 62
   179
420
  2234388
370
     9
100
AcDbVertex
100
AcDb2dVertex
 10
90.82030823853646
 20
-115.5185296933426
 30
0.0
  0
VERTEX
  5
177
330
175
100
AcDbEntity
  8
_U+30EC_U+30A4_U+30E4_U+30FC 1
 62
   179
420
  2234388
370
     9
100
AcDbVertex
100
AcDb2dVertex
 10
108.9339297208639
 20
-115.5185296933426
 30
0.0
  0
SEQEND
  5
178
330
175
100
AcDbEntity
  8
_U+30EC_U+30A4_U+30E4_U+30FC 1
 62
   179
420
  2234388
370
     9
  0
POLYLINE
  5
179
330
1F
100
AcDbEntity
  8
_U+30EC_U+30A4_U+30E4_U+30FC 1
 62
   179
420
  2234388
370
     9
100
AcDb2dPolyline
 66
     1
 10
0.0
 20
0.0
 30
0.0
  0
VERTEX
  5
17A
330
179
100
AcDbEntity
  8
_U+30EC_U+30A4_U+30E4_U+30FC 1
 62
   179
420
  2234388
370
     9
100
AcDbVertex
100
AcDb2dVertex
 10
76.2320302773811
 20
-147.5024566297913
 30
0.0
  0
VERTEX
  5
17B
330
179
100
AcDbEntity
  8
_U+30EC_U+30A4_U+30E4_U+30FC 1
 62
   179
420
  2234388
370
     9
100
AcDbVertex
100
AcDb2dVertex
 10
101.0384457556278
 20
-147.5024566297913
 30
0.0
  0
SEQEND
  5
17C
330
179
100
AcDbEntity
  8
_U+30EC_U+30A4_U+30E4_U+30FC 1
 62
   179
420
  2234388
370
     9
  0
SPLINE
  5
17D
330
1F
100
AcDbEntity
  8
_U+30EC_U+30A4_U+30E4_U+30FC 1
370
     0
100
AcDbSpline
210
0.0
220
0.0
230
1.0
 70
    11
 71
     3
 72
    29
 73
    25
 74
     0
 42
0.0000000001
 43
0.0000000001
 12
1.0
 22
0.0
 32
0.0
 13
1.0
 23
0.0
 33
0.0
 40
0.0
 40
0.0
 40
0.0
 40
0.0
 40
1.0
 40
1.0
 40
1.0
 40
2.0
 40
2.0
 40
2.0
 40
3.0
 40
3.0
 40
3.0
 40
4.0
 40
4.0
 40
4.0
 40
5.0
 40
5.0
 40
5.0
 40
6.0
 40
6.0
 40
6.0
 40
7.0
 40
7.0
 40
7.0
 40
8.0
 40
8.0
 40
8.0
 40
8.0
 10
100.9254510362884
 20
-110.8783377500582
 30
0.0
 10
100.9254510362884
 20
-110.9079710833841
 30
0.0
 10
100.9378360858765
 20
-110.9376044167099
 30
0.0
 10
100.9588590909916
 20
-110.9582419167048
 30
0.0
 10
100.9802374237795
 20
-110.9789146944775
 30
0.0
 10
101.0088124230505
 20
-110.9913324722523
 30
0.0
 10
101.0387985333966
 20
-110.9913324722523
 30
0.0
 10
101.0684318659739
 20
-110.9913324722523
 30
0.0
 10
101.0977124207825
 20
-110.9789146944775
 30
0.0
 10
101.1183851980329
 20
-110.9582419167048
 30
0.0
 10
101.1397282530439
 20
-110.9376044167099
 30
0.0
 10
101.1517932527361
 20
-110.9079710833841
 30
0.0
 10
101.1517932527361
 20
-110.8783377500582
 30
0.0
 10
101.1517932527361
 20
-110.8487044167323
 30
0.0
 10
101.1397282530439
 20
-110.8190710834065
 30
0.0
 10
101.1183851980329
 20
-110.7983983056337
 30
0.0
 10
101.0977124207825
 20
-110.7773727500836
 30
0.0
 10
101.0684318659739
 20
-110.7653430278641
 30
0.0
 10
101.0387985333966
 20
-110.7653430278641
 30
0.0
 10
101.0088124230505
 20
-110.7653430278641
 30
0.0
 10
100.9802374237795
 20
-110.7773727500836
 30
0.0
 10
100.9588590909916
 20
-110.7983983056337
 30
0.0
 10
100.9378360858765
 20
-110.8190710834065
 30
0.0
 10
100.9254510362884
 20
-110.8487044167323
 30
0.0
 10
100.9254510362884
 20
-110.8783377500582
 30
0.0
  0
HATCH
  5
17E
330
1F
100
AcDbEntity
  8
_U+30EC_U+30A4_U+30E4_U+30FC 1
 62
     7
420
 16777215
100
AcDbHatch
 10
0.0
 20
0.0
 30
0.0
210
0.0
220
0.0
230
1.0
  2
SOLID
 70
     1
 71
     0
 91
        1
 92
        1
 93
        1
 72
     4
 94
        3
 73
     0
 74
     1
 95
       29
 96
       25
 40
0.0
 40
0.0
 40
0.0
 40
0.0
 40
1.0
 40
1.0
 40
1.0
 40
2.0
 40
2.0
 40
2.0
 40
3.0
 40
3.0
 40
3.0
 40
4.0
 40
4.0
 40
4.0
 40
5.0
 40
5.0
 40
5.0
 40
6.0
 40
6.0
 40
6.0
 40
7.0
 40
7.0
 40
7.0
 40
8.0
 40
8.0
 40
8.0
 40
8.0
 10
100.9254510362884
 20
-110.8783377500582
 10
100.9254510362884
 20
-110.9079710833841
 10
100.9378360858765
 20
-110.9376044167099
 10
100.9588590909916
 20
-110.9582419167048
 10
100.9802374237795
 20
-110.9789146944775
 10
101.0088124230505
 20
-110.9913324722523
 10
101.0387985333966
 20
-110.9913324722523
 10
101.0684318659739
 20
-110.9913324722523
 10
101.0977124207825
 20
-110.9789146944775
 10
101.1183851980329
 20
-110.9582419167048
 10
101.1397282530439
 20
-110.9376044167099
 10
101.1517932527361
 20
-110.9079710833841
 10
101.1517932527361
 20
-110.8783377500582
 10
101.1517932527361
 20
-110.8487044167323
 10
101.1397282530439
 20
-110.8190710834065
 10
101.1183851980329
 20
-110.7983983056337
 10
101.0977124207825
 20
-110.7773727500836
 10
101.0684318659739
 20
-110.7653430278641
 10
101.0387985333966
 20
-110.7653430278641
 10
101.0088124230505
 20
-110.7653430278641
 10
100.9802374237795
 20
-110.7773727500836
 10
100.9588590909916
 20
-110.7983983056337
 10
100.9378360858765
 20
-110.8190710834065
 10
100.9254510362884
 20
-110.8487044167323
 10
100.9254510362884
 20
-110.8783377500582
 97
        0
 97
        0
 75
     2
 76
     1
 98
        0
  0
SPLINE
  5
17F
330
1F
100
AcDbEntity
  8
_U+30EC_U+30A4_U+30E4_U+30FC 1
370
     0
100
AcDbSpline
210
0.0
220
0.0
230
1.0
 70
    11
 71
     3
 72
    29
 73
    25
 74
     0
 42
0.0000000001
 43
0.0000000001
 12
1.0
 22
0.0
 32
0.0
 13
1.0
 23
0.0
 33
0.0
 40
0.0
 40
0.0
 40
0.0
 40
0.0
 40
1.0
 40
1.0
 40
1.0
 40
2.0
 40
2.0
 40
2.0
 40
3.0
 40
3.0
 40
3.0
 40
4.0
 40
4.0
 40
4.0
 40
5.0
 40
5.0
 40
5.0
 40
6.0
 40
6.0
 40
6.0
 40
7.0
 40
7.0
 40
7.0
 40
8.0
 40
8.0
 40
8.0
 40
8.0
 10
104.145571231914
 20
-125.8544952463143
 30
0.0
 10
104.145571231914
 20
-125.8841285796402
 30
0.0
 10
104.1572860850717
 20
-125.913761912966
 30
0.0
 10
104.1783090088566
 20
-125.9347874685162
 30
0.0
 10
104.2000048416364
 20
-125.9551074685111
 30
0.0
 10
104.229285396445
 20
-125.9674899685081
 30
0.0
 10
104.2589187290223
 20
-125.9674899685081
 30
0.0
 10
104.2881992838308
 20
-125.9674899685081
 30
0.0
 10
104.3174798386394
 20
-125.9551074685111
 30
0.0
 10
104.3385053936585
 20
-125.9347874685162
 30
0.0
 10
104.3598484486696
 20
-125.913761912966
 30
0.0
 10
104.3719134483618
 20
-125.8841285796402
 30
0.0
 10
104.3719134483618
 20
-125.8544952463143
 30
0.0
 10
104.3719134483618
 20
-125.8252146907659
 30
0.0
 10
104.3598484486696
 20
-125.79558135744
 30
0.0
 10
104.3385053936585
 20
-125.7749085796673
 30
0.0
 10
104.3174798386394
 20
-125.7542710796724
 30
0.0
 10
104.2881992838308
 20
-125.7415005241202
 30
0.0
 10
104.2589187290223
 20
-125.7415005241202
 30
0.0
 10
104.229285396445
 20
-125.7415005241202
 30
0.0
 10
104.2000048416364
 20
-125.7542710796724
 30
0.0
 10
104.1783090088566
 20
-125.7742383018899
 30
0.0
 10
104.1572860850717
 20
-125.79558135744
 30
0.0
 10
104.145571231914
 20
-125.8252146907659
 30
0.0
 10
104.145571231914
 20
-125.8544952463143
 30
0.0
  0
HATCH
  5
180
330
1F
100
AcDbEntity
  8
_U+30EC_U+30A4_U+30E4_U+30FC 1
 62
     7
420
 16777215
100
AcDbHatch
 10
0.0
 20
0.0
 30
0.0
210
0.0
220
0.0
230
1.0
  2
SOLID
 70
     1
 71
     0
 91
        1
 92
        1
 93
        1
 72
     4
 94
        3
 73
     0
 74
     1
 95
       29
 96
       25
 40
0.0
 40
0.0
 40
0.0
 40
0.0
 40
1.0
 40
1.0
 40
1.0
 40
2.0
 40
2.0
 40
2.0
 40
3.0
 40
3.0
 40
3.0
 40
4.0
 40
4.0
 40
4.0
 40
5.0
 40
5.0
 40
5.0
 40
6.0
 40
6.0
 40
6.0
 40
7.0
 40
7.0
 40
7.0
 40
8.0
 40
8.0
 40
8.0
 40
8.0
 10
104.145571231914
 20
-125.8544952463143
 10
104.145571231914
 20
-125.8841285796402
 10
104.1572860850717
 20
-125.913761912966
 10
104.1783090088566
 20
-125.9347874685162
 10
104.2000048416364
 20
-125.9551074685111
 10
104.229285396445
 20
-125.9674899685081
 10
104.2589187290223
 20
-125.9674899685081
 10
104.2881992838308
 20
-125.9674899685081
 10
104.3174798386394
 20
-125.9551074685111
 10
104.3385053936585
 20
-125.9347874685162
 10
104.3598484486696
 20
-125.913761912966
 10
104.3719134483618
 20
-125.8841285796402
 10
104.3719134483618
 20
-125.8544952463143
 10
104.3719134483618
 20
-125.8252146907659
 10
104.3598484486696
 20
-125.79558135744
 10
104.3385053936585
 20
-125.7749085796673
 10
104.3174798386394
 20
-125.7542710796724
 10
104.2881992838308
 20
-125.7415005241202
 10
104.2589187290223
 20
-125.7415005241202
 10
104.229285396445
 20
-125.7415005241202
 10
104.2000048416364
 20
-125.7542710796724
 10
104.1783090088566
 20
-125.7742383018899
 10
104.1572860850717
 20
-125.79558135744
 10
104.145571231914
 20
-125.8252146907659
 10
104.145571231914
 20
-125.8544952463143
 97
        0
 97
        0
 75
     2
 76
     1
 98
        0
  0
SPLINE
  5
181
330
1F
100
AcDbEntity
  8
_U+30EC_U+30A4_U+30E4_U+30FC 1
370
     0
100
AcDbSpline
210
0.0
220
0.0
230
1.0
 70
    11
 71
     3
 72
    29
 73
    25
 74
     0
 42
0.0000000001
 43
0.0000000001
 12
1.0
 22
0.0
 32
0.0
 13
1.0
 23
0.0
 33
0.0
 40
0.0
 40
0.0
 40
0.0
 40
0.0
 40
1.0
 40
1.0
 40
1.0
 40
2.0
 40
2.0
 40
2.0
 40
3.0
 40
3.0
 40
3.0
 40
4.0
 40
4.0
 40
4.0
 40
5.0
 40
5.0
 40
5.0
 40
6.0
 40
6.0
 40
6.0
 40
7.0
 40
7.0
 40
7.0
 40
8.0
 40
8.0
 40
8.0
 40
8.0
 10
107.6402936427562
 20
-115.5192352488981
 30
0.0
 10
107.6402936427562
 20
-115.5488333044461
 30
0.0
 10
107.6520058646796
 20
-115.5774435822169
 30
0.0
 10
107.6733489196907
 20
-115.5987866377669
 30
0.0
 10
107.6936689191723
 20
-115.6194594155397
 30
0.0
 10
107.7233022517496
 20
-115.6322299710919
 30
0.0
 10
107.7529355843269
 20
-115.6322299710919
 30
0.0
 10
107.782921694673
 20
-115.6322299710919
 30
0.0
 10
107.8122022494816
 20
-115.6194594155397
 30
0.0
 10
107.8331925267238
 20
-115.5987866377669
 30
0.0
 10
107.854218081743
 20
-115.5774435822169
 30
0.0
 10
107.8659303036664
 20
-115.5488333044461
 30
0.0
 10
107.8659303036664
 20
-115.5192352488981
 30
0.0
 10
107.8659303036664
 20
-115.4888963600167
 30
0.0
 10
107.854218081743
 20
-115.4603213600238
 30
0.0
 10
107.8331925267238
 20
-115.4389430266959
 30
0.0
 10
107.8122022494816
 20
-115.4182702489232
 30
0.0
 10
107.782921694673
 20
-115.4055349711485
 30
0.0
 10
107.7529355843269
 20
-115.4055349711485
 30
0.0
 10
107.7233022517496
 20
-115.4055349711485
 30
0.0
 10
107.6936689191723
 20
-115.4182702489232
 30
0.0
 10
107.6733489196907
 20
-115.4389430266959
 30
0.0
 10
107.6520058646796
 20
-115.4603213600238
 30
0.0
 10
107.6402936427562
 20
-115.4888963600167
 30
0.0
 10
107.6402936427562
 20
-115.5192352488981
 30
0.0
  0
HATCH
  5
182
330
1F
100
AcDbEntity
  8
_U+30EC_U+30A4_U+30E4_U+30FC 1
 62
     7
420
 16777215
100
AcDbHatch
 10
0.0
 20
0.0
 30
0.0
210
0.0
220
0.0
230
1.0
  2
SOLID
 70
     1
 71
     0
 91
        1
 92
        1
 93
        1
 72
     4
 94
        3
 73
     0
 74
     1
 95
       29
 96
       25
 40
0.0
 40
0.0
 40
0.0
 40
0.0
 40
1.0
 40
1.0
 40
1.0
 40
2.0
 40
2.0
 40
2.0
 40
3.0
 40
3.0
 40
3.0
 40
4.0
 40
4.0
 40
4.0
 40
5.0
 40
5.0
 40
5.0
 40
6.0
 40
6.0
 40
6.0
 40
7.0
 40
7.0
 40
7.0
 40
8.0
 40
8.0
 40
8.0
 40
8.0
 10
107.6402936427562
 20
-115.5192352488981
 10
107.6402936427562
 20
-115.5488333044461
 10
107.6520058646796
 20
-115.5774435822169
 10
107.6733489196907
 20
-115.5987866377669
 10
107.6936689191723
 20
-115.6194594155397
 10
107.7233022517496
 20
-115.6322299710919
 10
107.7529355843269
 20
-115.6322299710919
 10
107.782921694673
 20
-115.6322299710919
 10
107.8122022494816
 20
-115.6194594155397
 10
107.8331925267238
 20
-115.5987866377669
 10
107.854218081743
 20
-115.5774435822169
 10
107.8659303036664
 20
-115.5488333044461
 10
107.8659303036664
 20
-115.5192352488981
 10
107.8659303036664
 20
-115.4888963600167
 10
107.854218081743
 20
-115.4603213600238
 10
107.8331925267238
 20
-115.4389430266959
 10
107.8122022494816
 20
-115.4182702489232
 10
107.782921694673
 20
-115.4055349711485
 10
107.7529355843269
 20
-115.4055349711485
 10
107.7233022517496
 20
-115.4055349711485
 10
107.6936689191723
 20
-115.4182702489232
 10
107.6733489196907
 20
-115.4389430266959
 10
107.6520058646796
 20
-115.4603213600238
 10
107.6402936427562
 20
-115.4888963600167
 10
107.6402936427562
 20
-115.5192352488981
 97
        0
 97
        0
 75
     2
 76
     1
 98
        0
  0
SPLINE
  5
183
330
1F
100
AcDbEntity
  8
_U+30EC_U+30A4_U+30E4_U+30FC 1
370
     0
100
AcDbSpline
210
0.0
220
0.0
230
1.0
 70
    11
 71
     3
 72
    44
 73
    40
 74
     0
 42
0.0000000001
 43
0.0000000001
 12
1.0
 22
0.0
 32
0.0
 13
1.0
 23
0.0
 33
0.0
 40
0.0
 40
0.0
 40
0.0
 40
0.0
 40
1.0
 40
1.0
 40
1.0
 40
2.0
 40
2.0
 40
2.0
 40
3.0
 40
3.0
 40
3.0
 40
4.0
 40
4.0
 40
4.0
 40
5.0
 40
5.0
 40
5.0
 40
6.0
 40
6.0
 40
6.0
 40
7.0
 40
7.0
 40
7.0
 40
8.0
 40
8.0
 40
8.0
 40
9.0
 40
9.0
 40
9.0
 40
10.0
 40
10.0
 40
10.0
 40
11.0
 40
11.0
 40
11.0
 40
12.0
 40
12.0
 40
12.0
 40
13.0
 40
13.0
 40
13.0
 40
13.0
 10
99.7182833084035
 20
-110.7991038611893
 30
0.0
 10
99.7182833084035
 20
-110.7991038611893
 30
0.0
 10
99.7182833084035
 20
-110.7991038611893
 30
0.0
 10
99.7182833084035
 20
-110.7991038611893
 30
0.0
 10
99.70896745621232
 20
-110.8080644167424
 30
0.0
 10
99.70244106748993
 20
-110.8194238611839
 30
0.0
 10
99.69658495652821
 20
-110.8314888611809
 30
0.0
 10
99.69587940099066
 20
-110.8328646945141
 30
0.0
 10
99.6948563454612
 20
-110.8338877500692
 30
0.0
 10
99.69418606770053
 20
-110.8356163611799
 30
0.0
 10
99.68832995673883
 20
-110.8490571945101
 30
0.0
 10
99.68522551237358
 20
-110.8638738611729
 30
0.0
 10
99.68522551237358
 20
-110.8790080278359
 30
0.0
 10
99.68522551237358
 20
-110.9079710833841
 30
0.0
 10
99.69760801205767
 20
-110.9376044167099
 30
0.0
 10
99.7182833084035
 20
-110.9589474722603
 30
0.0
 10
99.73930634432719
 20
-110.979620250033
 30
0.0
 10
99.76823412136696
 20
-110.9920027500296
 30
0.0
 10
99.79857300948184
 20
-110.9920027500296
 30
0.0
 10
99.82266773108935
 20
-110.9920027500296
 30
0.0
 10
99.84573939716742
 20
-110.9817016389211
 30
0.0
 10
99.86539164170051
 20
-110.967555250036
 30
0.0
 10
99.86951661878304
 20
-110.9637805278145
 30
0.0
 10
99.87470245198406
 20
-110.9624046944816
 30
0.0
 10
99.87882995187876
 20
-110.9582419167048
 30
0.0
 10
99.89950272912914
 20
-110.9376044167099
 30
0.0
 10
99.91156772882132
 20
-110.9079710833841
 30
0.0
 10
99.91156772882132
 20
-110.878690527836
 30
0.0
 10
99.91156772882132
 20
-110.8490571945101
 30
0.0
 10
99.89950272912914
 20
-110.8197766389617
 30
0.0
 10
99.87882995187876
 20
-110.7991038611893
 30
0.0
 10
99.85745161909084
 20
-110.777725527861
 30
0.0
 10
99.82817106428229
 20
-110.7653430278641
 30
0.0
 10
99.79857300948184
 20
-110.7653430278641
 30
0.0
 10
99.76893967690452
 20
-110.7653430278641
 30
0.0
 10
99.73930634432719
 20
-110.777725527861
 30
0.0
 10
99.7182833084035
 20
-110.7991038611893
 30
0.0
 10
99.7182833084035
 20
-110.7991038611893
 30
0.0
 10
99.7182833084035
 20
-110.7991038611893
 30
0.0
 10
99.7182833084035
 20
-110.7991038611893
 30
0.0
  0
HATCH
  5
184
330
1F
100
AcDbEntity
  8
_U+30EC_U+30A4_U+30E4_U+30FC 1
 62
     7
420
 16777215
100
AcDbHatch
 10
0.0
 20
0.0
 30
0.0
210
0.0
220
0.0
230
1.0
  2
SOLID
 70
     1
 71
     0
 91
        1
 92
        1
 93
        1
 72
     4
 94
        3
 73
     0
 74
     1
 95
       44
 96
       40
 40
0.0
 40
0.0
 40
0.0
 40
0.0
 40
1.0
 40
1.0
 40
1.0
 40
2.0
 40
2.0
 40
2.0
 40
3.0
 40
3.0
 40
3.0
 40
4.0
 40
4.0
 40
4.0
 40
5.0
 40
5.0
 40
5.0
 40
6.0
 40
6.0
 40
6.0
 40
7.0
 40
7.0
 40
7.0
 40
8.0
 40
8.0
 40
8.0
 40
9.0
 40
9.0
 40
9.0
 40
10.0
 40
10.0
 40
10.0
 40
11.0
 40
11.0
 40
11.0
 40
12.0
 40
12.0
 40
12.0
 40
13.0
 40
13.0
 40
13.0
 40
13.0
 10
99.7182833084035
 20
-110.7991038611893
 10
99.7182833084035
 20
-110.7991038611893
 10
99.7182833084035
 20
-110.7991038611893
 10
99.7182833084035
 20
-110.7991038611893
 10
99.70896745621232
 20
-110.8080644167424
 10
99.70244106748993
 20
-110.8194238611839
 10
99.69658495652821
 20
-110.8314888611809
 10
99.69587940099066
 20
-110.8328646945141
 10
99.6948563454612
 20
-110.8338877500692
 10
99.69418606770053
 20
-110.8356163611799
 10
99.68832995673883
 20
-110.8490571945101
 10
99.68522551237358
 20
-110.8638738611729
 10
99.68522551237358
 20
-110.8790080278359
 10
99.68522551237358
 20
-110.9079710833841
 10
99.69760801205767
 20
-110.9376044167099
 10
99.7182833084035
 20
-110.9589474722603
 10
99.73930634432719
 20
-110.979620250033
 10
99.76823412136696
 20
-110.9920027500296
 10
99.79857300948184
 20
-110.9920027500296
 10
99.82266773108935
 20
-110.9920027500296
 10
99.84573939716742
 20
-110.9817016389211
 10
99.86539164170051
 20
-110.967555250036
 10
99.86951661878304
 20
-110.9637805278145
 10
99.87470245198406
 20
-110.9624046944816
 10
99.87882995187876
 20
-110.9582419167048
 10
99.89950272912914
 20
-110.9376044167099
 10
99.91156772882132
 20
-110.9079710833841
 10
99.91156772882132
 20
-110.878690527836
 10
99.91156772882132
 20
-110.8490571945101
 10
99.89950272912914
 20
-110.8197766389617
 10
99.87882995187876
 20
-110.7991038611893
 10
99.85745161909084
 20
-110.777725527861
 10
99.82817106428229
 20
-110.7653430278641
 10
99.79857300948184
 20
-110.7653430278641
 10
99.76893967690452
 20
-110.7653430278641
 10
99.73930634432719
 20
-110.777725527861
 10
99.7182833084035
 20
-110.7991038611893
 10
99.7182833084035
 20
-110.7991038611893
 10
99.7182833084035
 20
-110.7991038611893
 10
99.7182833084035
 20
-110.7991038611893
 97
        0
 97
        0
 75
     2
 76
     1
 98
        0
  0
SPLINE
  5
185
330
1F
100
AcDbEntity
  8
_U+30EC_U+30A4_U+30E4_U+30FC 1
370
     0
100
AcDbSpline
210
0.0
220
0.0
230
1.0
 70
    11
 71
     3
 72
    29
 73
    25
 74
     0
 42
0.0000000001
 43
0.0000000001
 12
1.0
 22
0.0
 32
0.0
 13
1.0
 23
0.0
 33
0.0
 40
0.0
 40
0.0
 40
0.0
 40
0.0
 40
1.0
 40
1.0
 40
1.0
 40
2.0
 40
2.0
 40
2.0
 40
3.0
 40
3.0
 40
3.0
 40
4.0
 40
4.0
 40
4.0
 40
5.0
 40
5.0
 40
5.0
 40
6.0
 40
6.0
 40
6.0
 40
7.0
 40
7.0
 40
7.0
 40
8.0
 40
8.0
 40
8.0
 40
8.0
 10
100.9244305303241
 20
-143.2136666308629
 30
0.0
 10
100.9244305303241
 20
-143.2432646864116
 30
0.0
 10
100.9371632582118
 20
-143.2728980197372
 30
0.0
 10
100.9581888132309
 20
-143.2942763530654
 30
0.0
 10
100.9791790904732
 20
-143.3142435752826
 30
0.0
 10
101.0081421452898
 20
-143.3266613530573
 30
0.0
 10
101.0377754778672
 20
-143.3266613530573
 30
0.0
 10
101.0677263104364
 20
-143.3266613530573
 30
0.0
 10
101.0970068652449
 20
-143.3142435752826
 30
0.0
 10
101.1176796424953
 20
-143.2942763530654
 30
0.0
 10
101.1390579752832
 20
-143.2728980197372
 30
0.0
 10
101.1507701972066
 20
-143.2432646864116
 30
0.0
 10
101.1507701972066
 20
-143.2136666308629
 30
0.0
 10
101.1507701972066
 20
-143.1843860753152
 30
0.0
 10
101.1390579752832
 20
-143.154752741989
 30
0.0
 10
101.1176796424953
 20
-143.1333744086614
 30
0.0
 10
101.0970068652449
 20
-143.1127016308887
 30
0.0
 10
101.0677263104364
 20
-143.1009894086694
 30
0.0
 10
101.0377754778672
 20
-143.1009894086694
 30
0.0
 10
101.0081421452898
 20
-143.1009894086694
 30
0.0
 10
100.9791790904732
 20
-143.1127016308887
 30
0.0
 10
100.9581888132309
 20
-143.1333744086614
 30
0.0
 10
100.9371632582118
 20
-143.154752741989
 30
0.0
 10
100.9244305303241
 20
-143.1843860753152
 30
0.0
 10
100.9244305303241
 20
-143.2136666308629
 30
0.0
  0
HATCH
  5
186
330
1F
100
AcDbEntity
  8
_U+30EC_U+30A4_U+30E4_U+30FC 1
 62
     7
420
 16777215
100
AcDbHatch
 10
0.0
 20
0.0
 30
0.0
210
0.0
220
0.0
230
1.0
  2
SOLID
 70
     1
 71
     0
 91
        1
 92
        1
 93
        1
 72
     4
 94
        3
 73
     0
 74
     1
 95
       29
 96
       25
 40
0.0
 40
0.0
 40
0.0
 40
0.0
 40
1.0
 40
1.0
 40
1.0
 40
2.0
 40
2.0
 40
2.0
 40
3.0
 40
3.0
 40
3.0
 40
4.0
 40
4.0
 40
4.0
 40
5.0
 40
5.0
 40
5.0
 40
6.0
 40
6.0
 40
6.0
 40
7.0
 40
7.0
 40
7.0
 40
8.0
 40
8.0
 40
8.0
 40
8.0
 10
100.9244305303241
 20
-143.2136666308629
 10
100.9244305303241
 20
-143.2432646864116
 10
100.9371632582118
 20
-143.2728980197372
 10
100.9581888132309
 20
-143.2942763530654
 10
100.9791790904732
 20
-143.3142435752826
 10
101.0081421452898
 20
-143.3266613530573
 10
101.0377754778672
 20
-143.3266613530573
 10
101.0677263104364
 20
-143.3266613530573
 10
101.0970068652449
 20
-143.3142435752826
 10
101.1176796424953
 20
-143.2942763530654
 10
101.1390579752832
 20
-143.2728980197372
 10
101.1507701972066
 20
-143.2432646864116
 10
101.1507701972066
 20
-143.2136666308629
 10
101.1507701972066
 20
-143.1843860753152
 10
101.1390579752832
 20
-143.154752741989
 10
101.1176796424953
 20
-143.1333744086614
 10
101.0970068652449
 20
-143.1127016308887
 10
101.0677263104364
 20
-143.1009894086694
 10
101.0377754778672
 20
-143.1009894086694
 10
101.0081421452898
 20
-143.1009894086694
 10
100.9791790904732
 20
-143.1127016308887
 10
100.9581888132309
 20
-143.1333744086614
 10
100.9371632582118
 20
-143.154752741989
 10
100.9244305303241
 20
-143.1843860753152
 10
100.9244305303241
 20
-143.2136666308629
 97
        0
 97
        0
 75
     2
 76
     1
 98
        0
  0
SPLINE
  5
187
330
1F
100
AcDbEntity
  8
_U+30EC_U+30A4_U+30E4_U+30FC 1
370
     0
100
AcDbSpline
210
0.0
220
0.0
230
1.0
 70
    11
 71
     3
 72
    29
 73
    25
 74
     0
 42
0.0000000001
 43
0.0000000001
 12
1.0
 22
0.0
 32
0.0
 13
1.0
 23
0.0
 33
0.0
 40
0.0
 40
0.0
 40
0.0
 40
0.0
 40
1.0
 40
1.0
 40
1.0
 40
2.0
 40
2.0
 40
2.0
 40
3.0
 40
3.0
 40
3.0
 40
4.0
 40
4.0
 40
4.0
 40
5.0
 40
5.0
 40
5.0
 40
6.0
 40
6.0
 40
6.0
 40
7.0
 40
7.0
 40
7.0
 40
8.0
 40
8.0
 40
8.0
 40
8.0
 10
104.1452184541452
 20
-140.3245930204746
 30
0.0
 10
104.1452184541452
 20
-140.3538735760224
 30
0.0
 10
104.1566131760767
 20
-140.3835069093486
 30
0.0
 10
104.177603453319
 20
-140.4048499648987
 30
0.0
 10
104.1986290083382
 20
-140.4255227426714
 30
0.0
 10
104.2282623409155
 20
-140.4375877426684
 30
0.0
 10
104.2578956734928
 20
-140.4375877426684
 30
0.0
 10
104.2875290060701
 20
-140.4375877426684
 30
0.0
 10
104.3168095608787
 20
-140.4255227426714
 30
0.0
 10
104.3374823381291
 20
-140.4048499648987
 30
0.0
 10
104.3588253931401
 20
-140.3835069093486
 30
0.0
 10
104.3705376150635
 20
-140.3538735760224
 30
0.0
 10
104.3705376150635
 20
-140.3245930204746
 30
0.0
 10
104.3705376150635
 20
-140.2949596871484
 30
0.0
 10
104.3588253931401
 20
-140.2653263538229
 30
0.0
 10
104.3374823381291
 20
-140.2450063538279
 30
0.0
 10
104.3168095608787
 20
-140.224016076055
 30
0.0
 10
104.2875290060701
 20
-140.2115982982802
 30
0.0
 10
104.2578956734928
 20
-140.2115982982802
 30
0.0
 10
104.2282623409155
 20
-140.2115982982802
 30
0.0
 10
104.1986290083382
 20
-140.224016076055
 30
0.0
 10
104.177603453319
 20
-140.2450063538279
 30
0.0
 10
104.1566131760767
 20
-140.2653263538229
 30
0.0
 10
104.1452184541452
 20
-140.2949596871484
 30
0.0
 10
104.1452184541452
 20
-140.3245930204746
 30
0.0
  0
HATCH
  5
188
330
1F
100
AcDbEntity
  8
_U+30EC_U+30A4_U+30E4_U+30FC 1
 62
     7
420
 16777215
100
AcDbHatch
 10
0.0
 20
0.0
 30
0.0
210
0.0
220
0.0
230
1.0
  2
SOLID
 70
     1
 71
     0
 91
        1
 92
        1
 93
        1
 72
     4
 94
        3
 73
     0
 74
     1
 95
       29
 96
       25
 40
0.0
 40
0.0
 40
0.0
 40
0.0
 40
1.0
 40
1.0
 40
1.0
 40
2.0
 40
2.0
 40
2.0
 40
3.0
 40
3.0
 40
3.0
 40
4.0
 40
4.0
 40
4.0
 40
5.0
 40
5.0
 40
5.0
 40
6.0
 40
6.0
 40
6.0
 40
7.0
 40
7.0
 40
7.0
 40
8.0
 40
8.0
 40
8.0
 40
8.0
 10
104.1452184541452
 20
-140.3245930204746
 10
104.1452184541452
 20
-140.3538735760224
 10
104.1566131760767
 20
-140.3835069093486
 10
104.177603453319
 20
-140.4048499648987
 10
104.1986290083382
 20
-140.4255227426714
 10
104.2282623409155
 20
-140.4375877426684
 10
104.2578956734928
 20
-140.4375877426684
 10
104.2875290060701
 20
-140.4375877426684
 10
104.3168095608787
 20
-140.4255227426714
 10
104.3374823381291
 20
-140.4048499648987
 10
104.3588253931401
 20
-140.3835069093486
 10
104.3705376150635
 20
-140.3538735760224
 10
104.3705376150635
 20
-140.3245930204746
 10
104.3705376150635
 20
-140.2949596871484
 10
104.3588253931401
 20
-140.2653263538229
 10
104.3374823381291
 20
-140.2450063538279
 10
104.3168095608787
 20
-140.224016076055
 10
104.2875290060701
 20
-140.2115982982802
 10
104.2578956734928
 20
-140.2115982982802
 10
104.2282623409155
 20
-140.2115982982802
 10
104.1986290083382
 20
-140.224016076055
 10
104.177603453319
 20
-140.2450063538279
 10
104.1566131760767
 20
-140.2653263538229
 10
104.1452184541452
 20
-140.2949596871484
 10
104.1452184541452
 20
-140.3245930204746
 97
        0
 97
        0
 75
     2
 76
     1
 98
        0
  0
SPLINE
  5
189
330
1F
100
AcDbEntity
  8
_U+30EC_U+30A4_U+30E4_U+30FC 1
370
     0
100
AcDbSpline
210
0.0
220
0.0
230
1.0
 70
    11
 71
     3
 72
    29
 73
    25
 74
     0
 42
0.0000000001
 43
0.0000000001
 12
1.0
 22
0.0
 32
0.0
 13
1.0
 23
0.0
 33
0.0
 40
0.0
 40
0.0
 40
0.0
 40
0.0
 40
1.0
 40
1.0
 40
1.0
 40
2.0
 40
2.0
 40
2.0
 40
3.0
 40
3.0
 40
3.0
 40
4.0
 40
4.0
 40
4.0
 40
5.0
 40
5.0
 40
5.0
 40
6.0
 40
6.0
 40
6.0
 40
7.0
 40
7.0
 40
7.0
 40
8.0
 40
8.0
 40
8.0
 40
8.0
 10
107.6392353094499
 20
-140.3245930204746
 30
0.0
 10
107.6392353094499
 20
-140.3538735760224
 30
0.0
 10
107.6509475313733
 20
-140.3835069093486
 30
0.0
 10
107.6723258641612
 20
-140.4048499648987
 30
0.0
 10
107.6929986414116
 20
-140.4255227426714
 30
0.0
 10
107.7226319739889
 20
-140.4375877426684
 30
0.0
 10
107.7522653065662
 20
-140.4375877426684
 30
0.0
 10
107.7818633613667
 20
-140.4375877426684
 30
0.0
 10
107.8108264161833
 20
-140.4255227426714
 30
0.0
 10
107.8318194174868
 20
-140.4048499648987
 30
0.0
 10
107.8531950262135
 20
-140.3835069093486
 30
0.0
 10
107.8652600259057
 20
-140.3538735760224
 30
0.0
 10
107.8652600259057
 20
-140.3245930204746
 30
0.0
 10
107.8652600259057
 20
-140.2949596871484
 30
0.0
 10
107.8531950262135
 20
-140.2653263538229
 30
0.0
 10
107.8318194174868
 20
-140.2443360760499
 30
0.0
 10
107.8108264161833
 20
-140.224016076055
 30
0.0
 10
107.7818633613667
 20
-140.2115982982802
 30
0.0
 10
107.7522653065662
 20
-140.2115982982802
 30
0.0
 10
107.7226319739889
 20
-140.2115982982802
 30
0.0
 10
107.6929986414116
 20
-140.224016076055
 30
0.0
 10
107.6723258641612
 20
-140.2443360760499
 30
0.0
 10
107.6509475313733
 20
-140.2653263538229
 30
0.0
 10
107.6392353094499
 20
-140.2949596871484
 30
0.0
 10
107.6392353094499
 20
-140.3245930204746
 30
0.0
  0
HATCH
  5
18A
330
1F
100
AcDbEntity
  8
_U+30EC_U+30A4_U+30E4_U+30FC 1
 62
     7
420
 16777215
100
AcDbHatch
 10
0.0
 20
0.0
 30
0.0
210
0.0
220
0.0
230
1.0
  2
SOLID
 70
     1
 71
     0
 91
        1
 92
        1
 93
        1
 72
     4
 94
        3
 73
     0
 74
     1
 95
       29
 96
       25
 40
0.0
 40
0.0
 40
0.0
 40
0.0
 40
1.0
 40
1.0
 40
1.0
 40
2.0
 40
2.0
 40
2.0
 40
3.0
 40
3.0
 40
3.0
 40
4.0
 40
4.0
 40
4.0
 40
5.0
 40
5.0
 40
5.0
 40
6.0
 40
6.0
 40
6.0
 40
7.0
 40
7.0
 40
7.0
 40
8.0
 40
8.0
 40
8.0
 40
8.0
 10
107.6392353094499
 20
-140.3245930204746
 10
107.6392353094499
 20
-140.3538735760224
 10
107.6509475313733
 20
-140.3835069093486
 10
107.6723258641612
 20
-140.4048499648987
 10
107.6929986414116
 20
-140.4255227426714
 10
107.7226319739889
 20
-140.4375877426684
 10
107.7522653065662
 20
-140.4375877426684
 10
107.7818633613667
 20
-140.4375877426684
 10
107.8108264161833
 20
-140.4255227426714
 10
107.8318194174868
 20
-140.4048499648987
 10
107.8531950262135
 20
-140.3835069093486
 10
107.8652600259057
 20
-140.3538735760224
 10
107.8652600259057
 20
-140.3245930204746
 10
107.8652600259057
 20
-140.2949596871484
 10
107.8531950262135
 20
-140.2653263538229
 10
107.8318194174868
 20
-140.2443360760499
 10
107.8108264161833
 20
-140.224016076055
 10
107.7818633613667
 20
-140.2115982982802
 10
107.7522653065662
 20
-140.2115982982802
 10
107.7226319739889
 20
-140.2115982982802
 10
107.6929986414116
 20
-140.224016076055
 10
107.6723258641612
 20
-140.2443360760499
 10
107.6509475313733
 20
-140.2653263538229
 10
107.6392353094499
 20
-140.2949596871484
 10
107.6392353094499
 20
-140.3245930204746
 97
        0
 97
        0
 75
     2
 76
     1
 98
        0
  0
SPLINE
  5
18B
330
1F
100
AcDbEntity
  8
_U+30EC_U+30A4_U+30E4_U+30FC 1
370
     0
100
AcDbSpline
210
0.0
220
0.0
230
1.0
 70
    11
 71
     3
 72
    29
 73
    25
 74
     0
 42
0.0000000001
 43
0.0000000001
 12
1.0
 22
0.0
 32
0.0
 13
1.0
 23
0.0
 33
0.0
 40
0.0
 40
0.0
 40
0.0
 40
0.0
 40
1.0
 40
1.0
 40
1.0
 40
2.0
 40
2.0
 40
2.0
 40
3.0
 40
3.0
 40
3.0
 40
4.0
 40
4.0
 40
4.0
 40
5.0
 40
5.0
 40
5.0
 40
6.0
 40
6.0
 40
6.0
 40
7.0
 40
7.0
 40
7.0
 40
8.0
 40
8.0
 40
8.0
 40
8.0
 10
100.9244305303241
 20
-147.5031269075686
 30
0.0
 10
100.9244305303241
 20
-147.5327602408948
 30
0.0
 10
100.9371632582118
 20
-147.5627463519981
 30
0.0
 10
100.9581888132309
 20
-147.5837719075486
 30
0.0
 10
100.9788615904813
 20
-147.6037391297658
 30
0.0
 10
101.0081421452898
 20
-147.6161569075406
 30
0.0
 10
101.0377754778672
 20
-147.6161569075406
 30
0.0
 10
101.0670560326757
 20
-147.6161569075406
 30
0.0
 10
101.0970068652449
 20
-147.6037391297658
 30
0.0
 10
101.1176796424953
 20
-147.5837719075486
 30
0.0
 10
101.1390579752832
 20
-147.5627463519981
 30
0.0
 10
101.1507701972066
 20
-147.5327602408948
 30
0.0
 10
101.1507701972066
 20
-147.5031269075686
 30
0.0
 10
101.1507701972066
 20
-147.4738463520202
 30
0.0
 10
101.1390579752832
 20
-147.4442130186947
 30
0.0
 10
101.1176796424953
 20
-147.4228699631446
 30
0.0
 10
101.0970068652449
 20
-147.4021971853719
 30
0.0
 10
101.0670560326757
 20
-147.3901321853749
 30
0.0
 10
101.0377754778672
 20
-147.3901321853749
 30
0.0
 10
101.0081421452898
 20
-147.3901321853749
 30
0.0
 10
100.9788615904813
 20
-147.4021971853719
 30
0.0
 10
100.9581888132309
 20
-147.4228699631446
 30
0.0
 10
100.9371632582118
 20
-147.4442130186947
 30
0.0
 10
100.9244305303241
 20
-147.4738463520202
 30
0.0
 10
100.9244305303241
 20
-147.5031269075686
 30
0.0
  0
HATCH
  5
18C
330
1F
100
AcDbEntity
  8
_U+30EC_U+30A4_U+30E4_U+30FC 1
 62
     7
420
 16777215
100
AcDbHatch
 10
0.0
 20
0.0
 30
0.0
210
0.0
220
0.0
230
1.0
  2
SOLID
 70
     1
 71
     0
 91
        1
 92
        1
 93
        1
 72
     4
 94
        3
 73
     0
 74
     1
 95
       29
 96
       25
 40
0.0
 40
0.0
 40
0.0
 40
0.0
 40
1.0
 40
1.0
 40
1.0
 40
2.0
 40
2.0
 40
2.0
 40
3.0
 40
3.0
 40
3.0
 40
4.0
 40
4.0
 40
4.0
 40
5.0
 40
5.0
 40
5.0
 40
6.0
 40
6.0
 40
6.0
 40
7.0
 40
7.0
 40
7.0
 40
8.0
 40
8.0
 40
8.0
 40
8.0
 10
100.9244305303241
 20
-147.5031269075686
 10
100.9244305303241
 20
-147.5327602408948
 10
100.9371632582118
 20
-147.5627463519981
 10
100.9581888132309
 20
-147.5837719075486
 10
100.9788615904813
 20
-147.6037391297658
 10
101.0081421452898
 20
-147.6161569075406
 10
101.0377754778672
 20
-147.6161569075406
 10
101.0670560326757
 20
-147.6161569075406
 10
101.0970068652449
 20
-147.6037391297658
 10
101.1176796424953
 20
-147.5837719075486
 10
101.1390579752832
 20
-147.5627463519981
 10
101.1507701972066
 20
-147.5327602408948
 10
101.1507701972066
 20
-147.5031269075686
 10
101.1507701972066
 20
-147.4738463520202
 10
101.1390579752832
 20
-147.4442130186947
 10
101.1176796424953
 20
-147.4228699631446
 10
101.0970068652449
 20
-147.4021971853719
 10
101.0670560326757
 20
-147.3901321853749
 10
101.0377754778672
 20
-147.3901321853749
 10
101.0081421452898
 20
-147.3901321853749
 10
100.9788615904813
 20
-147.4021971853719
 10
100.9581888132309
 20
-147.4228699631446
 10
100.9371632582118
 20
-147.4442130186947
 10
100.9244305303241
 20
-147.4738463520202
 10
100.9244305303241
 20
-147.5031269075686
 97
        0
 97
        0
 75
     2
 76
     1
 98
        0
  0
SPLINE
  5
18D
330
1F
100
AcDbEntity
  8
_U+30EC_U+30A4_U+30E4_U+30FC 1
370
     0
100
AcDbSpline
210
0.0
220
0.0
230
1.0
 70
    11
 71
     3
 72
    29
 73
    25
 74
     0
 42
0.0000000001
 43
0.0000000001
 12
1.0
 22
0.0
 32
0.0
 13
1.0
 23
0.0
 33
0.0
 40
0.0
 40
0.0
 40
0.0
 40
0.0
 40
1.0
 40
1.0
 40
1.0
 40
2.0
 40
2.0
 40
2.0
 40
3.0
 40
3.0
 40
3.0
 40
4.0
 40
4.0
 40
4.0
 40
5.0
 40
5.0
 40
5.0
 40
6.0
 40
6.0
 40
6.0
 40
7.0
 40
7.0
 40
7.0
 40
8.0
 40
8.0
 40
8.0
 40
8.0
 10
89.76229243219535
 20
-110.8790080278359
 30
0.0
 10
89.76229243219535
 20
-110.9086413611617
 30
0.0
 10
89.77435743188755
 20
-110.9376044167099
 30
0.0
 10
89.7953829869067
 20
-110.9582419167048
 30
0.0
 10
89.81654965303336
 20
-110.979620250033
 30
0.0
 10
89.8460065967263
 20
-110.9920027500296
 30
0.0
 10
89.87546354041923
 20
-110.9920027500296
 30
0.0
 10
89.90492048411217
 20
-110.9920027500296
 30
0.0
 10
89.93420103892072
 20
-110.979620250033
 30
0.0
 10
89.95540298282425
 20
-110.9582419167048
 30
0.0
 10
89.9764285378434
 20
-110.9376044167099
 30
0.0
 10
89.9888110375275
 20
-110.9086413611617
 30
0.0
 10
89.9888110375275
 20
-110.8790080278359
 30
0.0
 10
89.9888110375275
 20
-110.8490571945101
 30
0.0
 10
89.9764285378434
 20
-110.8197766389617
 30
0.0
 10
89.95540298282425
 20
-110.7991038611893
 30
0.0
 10
89.93420103892072
 20
-110.7784310834165
 30
0.0
 10
89.90492048411217
 20
-110.765660527864
 30
0.0
 10
89.87546354041923
 20
-110.765660527864
 30
0.0
 10
89.8460065967263
 20
-110.765660527864
 30
0.0
 10
89.81654965303336
 20
-110.7784310834165
 30
0.0
 10
89.7953829869067
 20
-110.7991038611893
 30
0.0
 10
89.77435743188755
 20
-110.8197766389617
 30
0.0
 10
89.76229243219535
 20
-110.8490571945101
 30
0.0
 10
89.76229243219535
 20
-110.8790080278359
 30
0.0
  0
HATCH
  5
18E
330
1F
100
AcDbEntity
  8
_U+30EC_U+30A4_U+30E4_U+30FC 1
 62
     7
420
 16777215
100
AcDbHatch
 10
0.0
 20
0.0
 30
0.0
210
0.0
220
0.0
230
1.0
  2
SOLID
 70
     1
 71
     0
 91
        1
 92
        1
 93
        1
 72
     4
 94
        3
 73
     0
 74
     1
 95
       29
 96
       25
 40
0.0
 40
0.0
 40
0.0
 40
0.0
 40
1.0
 40
1.0
 40
1.0
 40
2.0
 40
2.0
 40
2.0
 40
3.0
 40
3.0
 40
3.0
 40
4.0
 40
4.0
 40
4.0
 40
5.0
 40
5.0
 40
5.0
 40
6.0
 40
6.0
 40
6.0
 40
7.0
 40
7.0
 40
7.0
 40
8.0
 40
8.0
 40
8.0
 40
8.0
 10
89.76229243219535
 20
-110.8790080278359
 10
89.76229243219535
 20
-110.9086413611617
 10
89.77435743188755
 20
-110.9376044167099
 10
89.7953829869067
 20
-110.9582419167048
 10
89.81654965303336
 20
-110.979620250033
 10
89.8460065967263
 20
-110.9920027500296
 10
89.87546354041923
 20
-110.9920027500296
 10
89.90492048411217
 20
-110.9920027500296
 10
89.93420103892072
 20
-110.979620250033
 10
89.95540298282425
 20
-110.9582419167048
 10
89.9764285378434
 20
-110.9376044167099
 10
89.9888110375275
 20
-110.9086413611617
 10
89.9888110375275
 20
-110.8790080278359
 10
89.9888110375275
 20
-110.8490571945101
 10
89.9764285378434
 20
-110.8197766389617
 10
89.95540298282425
 20
-110.7991038611893
 10
89.93420103892072
 20
-110.7784310834165
 10
89.90492048411217
 20
-110.765660527864
 10
89.87546354041923
 20
-110.765660527864
 10
89.8460065967263
 20
-110.765660527864
 10
89.81654965303336
 20
-110.7784310834165
 10
89.7953829869067
 20
-110.7991038611893
 10
89.77435743188755
 20
-110.8197766389617
 10
89.76229243219535
 20
-110.8490571945101
 10
89.76229243219535
 20
-110.8790080278359
 97
        0
 97
        0
 75
     2
 76
     1
 98
        0
  0
SPLINE
  5
18F
330
1F
100
AcDbEntity
  8
_U+30EC_U+30A4_U+30E4_U+30FC 1
370
     0
100
AcDbSpline
210
0.0
220
0.0
230
1.0
 70
    11
 71
     3
 72
    41
 73
    37
 74
     0
 42
0.0000000001
 43
0.0000000001
 12
1.0
 22
0.0
 32
0.0
 13
1.0
 23
0.0
 33
0.0
 40
0.0
 40
0.0
 40
0.0
 40
0.0
 40
1.0
 40
1.0
 40
1.0
 40
2.0
 40
2.0
 40
2.0
 40
3.0
 40
3.0
 40
3.0
 40
4.0
 40
4.0
 40
4.0
 40
5.0
 40
5.0
 40
5.0
 40
6.0
 40
6.0
 40
6.0
 40
7.0
 40
7.0
 40
7.0
 40
8.0
 40
8.0
 40
8.0
 40
9.0
 40
9.0
 40
9.0
 40
10.0
 40
10.0
 40
10.0
 40
11.0
 40
11.0
 40
11.0
 40
12.0
 40
12.0
 40
12.0
 40
12.0
 10
75.07947002900758
 20
-139.0847202430066
 30
0.0
 10
75.07947002900758
 20
-139.0847202430066
 30
0.0
 10
75.07947002900758
 20
-139.0847202430066
 30
0.0
 10
75.07947002900758
 20
-139.0847202430066
 30
0.0
 10
75.07947002900758
 20
-139.0847202430066
 30
0.0
 10
75.07947002900758
 20
-139.0847202430066
 30
0.0
 10
75.07947002900758
 20
-139.0847202430066
 30
0.0
 10
75.07947002900758
 20
-139.1140007985551
 30
0.0
 10
75.09171141758418
 20
-139.1436341318806
 30
0.0
 10
75.11256058371893
 20
-139.1649771874307
 30
0.0
 10
75.1339055367721
 20
-139.1860027429812
 30
0.0
 10
75.16336058242291
 20
-139.1977149652004
 30
0.0
 10
75.19264113723146
 20
-139.1977149652004
 30
0.0
 10
75.2220999811945
 20
-139.1977149652004
 30
0.0
 10
75.2513805367426
 20
-139.1860027429812
 30
0.0
 10
75.2724041907521
 20
-139.1649771874307
 30
0.0
 10
75.29378252354002
 20
-139.1436341318806
 30
0.0
 10
75.30563585657094
 20
-139.1140007985551
 30
0.0
 10
75.30563585657094
 20
-139.0847202430066
 30
0.0
 10
75.30563585657094
 20
-139.0847202430066
 30
0.0
 10
75.30563585657094
 20
-139.0847202430066
 30
0.0
 10
75.30563585657094
 20
-139.0847202430066
 30
0.0
 10
75.30563585657094
 20
-139.0847202430066
 30
0.0
 10
75.30563585657094
 20
-139.0847202430066
 30
0.0
 10
75.30563585657094
 20
-139.0847202430066
 30
0.0
 10
75.30563585657094
 20
-139.0550869096805
 30
0.0
 10
75.29378252354002
 20
-139.0254535763549
 30
0.0
 10
75.2724041907521
 20
-139.0044280208044
 30
0.0
 10
75.2513805367426
 20
-138.9834377430321
 30
0.0
 10
75.22227446980878
 20
-138.9716902430347
 30
0.0
 10
75.19264113723146
 20
-138.9716902430347
 30
0.0
 10
75.16336058242291
 20
-138.9716902430347
 30
0.0
 10
75.1339055367721
 20
-138.9834377430321
 30
0.0
 10
75.11256058371893
 20
-139.0044280208044
 30
0.0
 10
75.09171141758418
 20
-139.0254535763549
 30
0.0
 10
75.07947002900758
 20
-139.0550869096805
 30
0.0
 10
75.07947002900758
 20
-139.0847202430066
 30
0.0
  0
HATCH
  5
190
330
1F
100
AcDbEntity
  8
_U+30EC_U+30A4_U+30E4_U+30FC 1
 62
     7
420
 16777215
100
AcDbHatch
 10
0.0
 20
0.0
 30
0.0
210
0.0
220
0.0
230
1.0
  2
SOLID
 70
     1
 71
     0
 91
        1
 92
        1
 93
        1
 72
     4
 94
        3
 73
     0
 74
     1
 95
       41
 96
       37
 40
0.0
 40
0.0
 40
0.0
 40
0.0
 40
1.0
 40
1.0
 40
1.0
 40
2.0
 40
2.0
 40
2.0
 40
3.0
 40
3.0
 40
3.0
 40
4.0
 40
4.0
 40
4.0
 40
5.0
 40
5.0
 40
5.0
 40
6.0
 40
6.0
 40
6.0
 40
7.0
 40
7.0
 40
7.0
 40
8.0
 40
8.0
 40
8.0
 40
9.0
 40
9.0
 40
9.0
 40
10.0
 40
10.0
 40
10.0
 40
11.0
 40
11.0
 40
11.0
 40
12.0
 40
12.0
 40
12.0
 40
12.0
 10
75.07947002900758
 20
-139.0847202430066
 10
75.07947002900758
 20
-139.0847202430066
 10
75.07947002900758
 20
-139.0847202430066
 10
75.07947002900758
 20
-139.0847202430066
 10
75.07947002900758
 20
-139.0847202430066
 10
75.07947002900758
 20
-139.0847202430066
 10
75.07947002900758
 20
-139.0847202430066
 10
75.07947002900758
 20
-139.1140007985551
 10
75.09171141758418
 20
-139.1436341318806
 10
75.11256058371893
 20
-139.1649771874307
 10
75.1339055367721
 20
-139.1860027429812
 10
75.16336058242291
 20
-139.1977149652004
 10
75.19264113723146
 20
-139.1977149652004
 10
75.2220999811945
 20
-139.1977149652004
 10
75.2513805367426
 20
-139.1860027429812
 10
75.2724041907521
 20
-139.1649771874307
 10
75.29378252354002
 20
-139.1436341318806
 10
75.30563585657094
 20
-139.1140007985551
 10
75.30563585657094
 20
-139.0847202430066
 10
75.30563585657094
 20
-139.0847202430066
 10
75.30563585657094
 20
-139.0847202430066
 10
75.30563585657094
 20
-139.0847202430066
 10
75.30563585657094
 20
-139.0847202430066
 10
75.30563585657094
 20
-139.0847202430066
 10
75.30563585657094
 20
-139.0847202430066
 10
75.30563585657094
 20
-139.0550869096805
 10
75.29378252354002
 20
-139.0254535763549
 10
75.2724041907521
 20
-139.0044280208044
 10
75.2513805367426
 20
-138.9834377430321
 10
75.22227446980878
 20
-138.9716902430347
 10
75.19264113723146
 20
-138.9716902430347
 10
75.16336058242291
 20
-138.9716902430347
 10
75.1339055367721
 20
-138.9834377430321
 10
75.11256058371893
 20
-139.0044280208044
 10
75.09171141758418
 20
-139.0254535763549
 10
75.07947002900758
 20
-139.0550869096805
 10
75.07947002900758
 20
-139.0847202430066
 97
        0
 97
        0
 75
     2
 76
     1
 98
        0
  0
SPLINE
  5
191
330
1F
100
AcDbEntity
  8
_U+30EC_U+30A4_U+30E4_U+30FC 1
370
     0
100
AcDbSpline
210
0.0
220
0.0
230
1.0
 70
    11
 71
     3
 72
    29
 73
    25
 74
     0
 42
0.0000000001
 43
0.0000000001
 12
1.0
 22
0.0
 32
0.0
 13
1.0
 23
0.0
 33
0.0
 40
0.0
 40
0.0
 40
0.0
 40
0.0
 40
1.0
 40
1.0
 40
1.0
 40
2.0
 40
2.0
 40
2.0
 40
3.0
 40
3.0
 40
3.0
 40
4.0
 40
4.0
 40
4.0
 40
5.0
 40
5.0
 40
5.0
 40
6.0
 40
6.0
 40
6.0
 40
7.0
 40
7.0
 40
7.0
 40
8.0
 40
8.0
 40
8.0
 40
8.0
 10
75.30549474546343
 20
-129.1621396899316
 30
0.0
 10
75.30549474546343
 20
-129.132506356606
 30
0.0
 10
75.29342974577125
 20
-129.1035785788354
 30
0.0
 10
75.2722278018677
 20
-129.0825530232849
 30
0.0
 10
75.25106113574104
 20
-129.0615627455126
 30
0.0
 10
75.2217805809325
 20
-129.0491449677378
 30
0.0
 10
75.19232363723957
 20
-129.0491449677378
 30
0.0
 10
75.16269030466223
 20
-129.0491449677378
 30
0.0
 10
75.1334097498537
 20
-129.0615627455126
 30
0.0
 10
75.11220780595015
 20
-129.0825530232849
 30
0.0
 10
75.09118225093101
 20
-129.1035785788354
 30
0.0
 10
75.0792936401232
 20
-129.132506356606
 30
0.0
 10
75.0792936401232
 20
-129.1621396899316
 30
0.0
 10
75.0792936401232
 20
-129.1924433010351
 30
0.0
 10
75.09118225093101
 20
-129.2210535788056
 30
0.0
 10
75.11220780595015
 20
-129.2423966343563
 30
0.0
 10
75.1334097498537
 20
-129.2634221899061
 30
0.0
 10
75.16269030466223
 20
-129.2758399676809
 30
0.0
 10
75.19232363723957
 20
-129.2758399676809
 30
0.0
 10
75.2217805809325
 20
-129.2758399676809
 30
0.0
 10
75.25106113574104
 20
-129.2634221899061
 30
0.0
 10
75.2722278018677
 20
-129.2423966343563
 30
0.0
 10
75.29342974577125
 20
-129.2210535788056
 30
0.0
 10
75.30549474546343
 20
-129.1924433010351
 30
0.0
 10
75.30549474546343
 20
-129.1621396899316
 30
0.0
  0
HATCH
  5
192
330
1F
100
AcDbEntity
  8
_U+30EC_U+30A4_U+30E4_U+30FC 1
 62
     7
420
 16777215
100
AcDbHatch
 10
0.0
 20
0.0
 30
0.0
210
0.0
220
0.0
230
1.0
  2
SOLID
 70
     1
 71
     0
 91
        1
 92
        1
 93
        1
 72
     4
 94
        3
 73
     0
 74
     1
 95
       29
 96
       25
 40
0.0
 40
0.0
 40
0.0
 40
0.0
 40
1.0
 40
1.0
 40
1.0
 40
2.0
 40
2.0
 40
2.0
 40
3.0
 40
3.0
 40
3.0
 40
4.0
 40
4.0
 40
4.0
 40
5.0
 40
5.0
 40
5.0
 40
6.0
 40
6.0
 40
6.0
 40
7.0
 40
7.0
 40
7.0
 40
8.0
 40
8.0
 40
8.0
 40
8.0
 10
75.30549474546343
 20
-129.1621396899316
 10
75.30549474546343
 20
-129.132506356606
 10
75.29342974577125
 20
-129.1035785788354
 10
75.2722278018677
 20
-129.0825530232849
 10
75.25106113574104
 20
-129.0615627455126
 10
75.2217805809325
 20
-129.0491449677378
 10
75.19232363723957
 20
-129.0491449677378
 10
75.16269030466223
 20
-129.0491449677378
 10
75.1334097498537
 20
-129.0615627455126
 10
75.11220780595015
 20
-129.0825530232849
 10
75.09118225093101
 20
-129.1035785788354
 10
75.0792936401232
 20
-129.132506356606
 10
75.0792936401232
 20
-129.1621396899316
 10
75.0792936401232
 20
-129.1924433010351
 10
75.09118225093101
 20
-129.2210535788056
 10
75.11220780595015
 20
-129.2423966343563
 10
75.1334097498537
 20
-129.2634221899061
 10
75.16269030466223
 20
-129.2758399676809
 10
75.19232363723957
 20
-129.2758399676809
 10
75.2217805809325
 20
-129.2758399676809
 10
75.25106113574104
 20
-129.2634221899061
 10
75.2722278018677
 20
-129.2423966343563
 10
75.29342974577125
 20
-129.2210535788056
 10
75.30549474546343
 20
-129.1924433010351
 10
75.30549474546343
 20
-129.1621396899316
 97
        0
 97
        0
 75
     2
 76
     1
 98
        0
  0
SPLINE
  5
193
330
1F
100
AcDbEntity
  8
_U+30EC_U+30A4_U+30E4_U+30FC 1
370
     0
100
AcDbSpline
210
0.0
220
0.0
230
1.0
 70
    11
 71
     3
 72
    29
 73
    25
 74
     0
 42
0.0000000001
 43
0.0000000001
 12
1.0
 22
0.0
 32
0.0
 13
1.0
 23
0.0
 33
0.0
 40
0.0
 40
0.0
 40
0.0
 40
0.0
 40
1.0
 40
1.0
 40
1.0
 40
2.0
 40
2.0
 40
2.0
 40
3.0
 40
3.0
 40
3.0
 40
4.0
 40
4.0
 40
4.0
 40
5.0
 40
5.0
 40
5.0
 40
6.0
 40
6.0
 40
6.0
 40
7.0
 40
7.0
 40
7.0
 40
8.0
 40
8.0
 40
8.0
 40
8.0
 10
75.0792936401232
 20
-140.3245930204746
 30
0.0
 10
75.0792936401232
 20
-140.3545791315779
 30
0.0
 10
75.0913586398154
 20
-140.3835069093486
 30
0.0
 10
75.11238609233315
 20
-140.4048499648987
 30
0.0
 10
75.1334097498537
 20
-140.4255227426714
 30
0.0
 10
75.16300780465414
 20
-140.4382932982239
 30
0.0
 10
75.19232363723957
 20
-140.4382932982239
 30
0.0
 10
75.2220999811945
 20
-140.4382932982239
 30
0.0
 10
75.25120224684855
 20
-140.4255227426714
 30
0.0
 10
75.2724041907521
 20
-140.4048499648987
 30
0.0
 10
75.29342974577125
 20
-140.3835069093486
 30
0.0
 10
75.30549474546343
 20
-140.3545791315779
 30
0.0
 10
75.30549474546343
 20
-140.3245930204746
 30
0.0
 10
75.30549474546343
 20
-140.2949596871484
 30
0.0
 10
75.29342974577125
 20
-140.2660319093777
 30
0.0
 10
75.2724041907521
 20
-140.2450063538279
 30
0.0
 10
75.25120224684855
 20
-140.224016076055
 30
0.0
 10
75.2220999811945
 20
-140.2115982982802
 30
0.0
 10
75.19232363723957
 20
-140.2115982982802
 30
0.0
 10
75.16300780465414
 20
-140.2115982982802
 30
0.0
 10
75.1334097498537
 20
-140.224016076055
 30
0.0
 10
75.11238609233315
 20
-140.2450063538279
 30
0.0
 10
75.0913586398154
 20
-140.2660319093777
 30
0.0
 10
75.0792936401232
 20
-140.2949596871484
 30
0.0
 10
75.0792936401232
 20
-140.3245930204746
 30
0.0
  0
HATCH
  5
194
330
1F
100
AcDbEntity
  8
_U+30EC_U+30A4_U+30E4_U+30FC 1
 62
     7
420
 16777215
100
AcDbHatch
 10
0.0
 20
0.0
 30
0.0
210
0.0
220
0.0
230
1.0
  2
SOLID
 70
     1
 71
     0
 91
        1
 92
        1
 93
        1
 72
     4
 94
        3
 73
     0
 74
     1
 95
       29
 96
       25
 40
0.0
 40
0.0
 40
0.0
 40
0.0
 40
1.0
 40
1.0
 40
1.0
 40
2.0
 40
2.0
 40
2.0
 40
3.0
 40
3.0
 40
3.0
 40
4.0
 40
4.0
 40
4.0
 40
5.0
 40
5.0
 40
5.0
 40
6.0
 40
6.0
 40
6.0
 40
7.0
 40
7.0
 40
7.0
 40
8.0
 40
8.0
 40
8.0
 40
8.0
 10
75.0792936401232
 20
-140.3245930204746
 10
75.0792936401232
 20
-140.3545791315779
 10
75.0913586398154
 20
-140.3835069093486
 10
75.11238609233315
 20
-140.4048499648987
 10
75.1334097498537
 20
-140.4255227426714
 10
75.16300780465414
 20
-140.4382932982239
 10
75.19232363723957
 20
-140.4382932982239
 10
75.2220999811945
 20
-140.4382932982239
 10
75.25120224684855
 20
-140.4255227426714
 10
75.2724041907521
 20
-140.4048499648987
 10
75.29342974577125
 20
-140.3835069093486
 10
75.30549474546343
 20
-140.3545791315779
 10
75.30549474546343
 20
-140.3245930204746
 10
75.30549474546343
 20
-140.2949596871484
 10
75.29342974577125
 20
-140.2660319093777
 10
75.2724041907521
 20
-140.2450063538279
 10
75.25120224684855
 20
-140.224016076055
 10
75.2220999811945
 20
-140.2115982982802
 10
75.19232363723957
 20
-140.2115982982802
 10
75.16300780465414
 20
-140.2115982982802
 10
75.1334097498537
 20
-140.224016076055
 10
75.11238609233315
 20
-140.2450063538279
 10
75.0913586398154
 20
-140.2660319093777
 10
75.0792936401232
 20
-140.2949596871484
 10
75.0792936401232
 20
-140.3245930204746
 97
        0
 97
        0
 75
     2
 76
     1
 98
        0
  0
SPLINE
  5
195
330
1F
100
AcDbEntity
  8
_U+30EC_U+30A4_U+30E4_U+30FC 1
370
     0
100
AcDbSpline
210
0.0
220
0.0
230
1.0
 70
    11
 71
     3
 72
    29
 73
    25
 74
     0
 42
0.0000000001
 43
0.0000000001
 12
1.0
 22
0.0
 32
0.0
 13
1.0
 23
0.0
 33
0.0
 40
0.0
 40
0.0
 40
0.0
 40
0.0
 40
1.0
 40
1.0
 40
1.0
 40
2.0
 40
2.0
 40
2.0
 40
3.0
 40
3.0
 40
3.0
 40
4.0
 40
4.0
 40
4.0
 40
5.0
 40
5.0
 40
5.0
 40
6.0
 40
6.0
 40
6.0
 40
7.0
 40
7.0
 40
7.0
 40
8.0
 40
8.0
 40
8.0
 40
8.0
 10
86.45500084990474
 20
-143.2136666308629
 30
0.0
 10
86.45500084990474
 20
-143.2432646864116
 30
0.0
 10
86.46724442282773
 20
-143.2728980197372
 30
0.0
 10
86.48809140461607
 20
-143.2932180197321
 30
0.0
 10
86.50911695963522
 20
-143.3142435752826
 30
0.0
 10
86.53839751444377
 20
-143.3266613530573
 30
0.0
 10
86.56799556924422
 20
-143.3266613530573
 30
0.0
 10
86.59762890182154
 20
-143.3266613530573
 30
0.0
 10
86.62708584551447
 20
-143.3142435752826
 30
0.0
 10
86.64793501164924
 20
-143.2932180197321
 30
0.0
 10
86.66896056666839
 20
-143.2728980197372
 30
0.0
 10
86.68102775610754
 20
-143.2432646864116
 30
0.0
 10
86.68102775610754
 20
-143.2136666308629
 30
0.0
 10
86.68102775610754
 20
-143.1843860753152
 30
0.0
 10
86.66896056666839
 20
-143.154752741989
 30
0.0
 10
86.64793501164924
 20
-143.1333744086614
 30
0.0
 10
86.62708584551447
 20
-143.1127016308887
 30
0.0
 10
86.59762890182154
 20
-143.1009894086694
 30
0.0
 10
86.56799556924422
 20
-143.1009894086694
 30
0.0
 10
86.53839751444377
 20
-143.1009894086694
 30
0.0
 10
86.50911695963522
 20
-143.1127016308887
 30
0.0
 10
86.48809140461607
 20
-143.1333744086614
 30
0.0
 10
86.46724442282773
 20
-143.154752741989
 30
0.0
 10
86.45500084990474
 20
-143.1843860753152
 30
0.0
 10
86.45500084990474
 20
-143.2136666308629
 30
0.0
  0
HATCH
  5
196
330
1F
100
AcDbEntity
  8
_U+30EC_U+30A4_U+30E4_U+30FC 1
 62
     7
420
 16777215
100
AcDbHatch
 10
0.0
 20
0.0
 30
0.0
210
0.0
220
0.0
230
1.0
  2
SOLID
 70
     1
 71
     0
 91
        1
 92
        1
 93
        1
 72
     4
 94
        3
 73
     0
 74
     1
 95
       29
 96
       25
 40
0.0
 40
0.0
 40
0.0
 40
0.0
 40
1.0
 40
1.0
 40
1.0
 40
2.0
 40
2.0
 40
2.0
 40
3.0
 40
3.0
 40
3.0
 40
4.0
 40
4.0
 40
4.0
 40
5.0
 40
5.0
 40
5.0
 40
6.0
 40
6.0
 40
6.0
 40
7.0
 40
7.0
 40
7.0
 40
8.0
 40
8.0
 40
8.0
 40
8.0
 10
86.45500084990474
 20
-143.2136666308629
 10
86.45500084990474
 20
-143.2432646864116
 10
86.46724442282773
 20
-143.2728980197372
 10
86.48809140461607
 20
-143.2932180197321
 10
86.50911695963522
 20
-143.3142435752826
 10
86.53839751444377
 20
-143.3266613530573
 10
86.56799556924422
 20
-143.3266613530573
 10
86.59762890182154
 20
-143.3266613530573
 10
86.62708584551447
 20
-143.3142435752826
 10
86.64793501164924
 20
-143.2932180197321
 10
86.66896056666839
 20
-143.2728980197372
 10
86.68102775610754
 20
-143.2432646864116
 10
86.68102775610754
 20
-143.2136666308629
 10
86.68102775610754
 20
-143.1843860753152
 10
86.66896056666839
 20
-143.154752741989
 10
86.64793501164924
 20
-143.1333744086614
 10
86.62708584551447
 20
-143.1127016308887
 10
86.59762890182154
 20
-143.1009894086694
 10
86.56799556924422
 20
-143.1009894086694
 10
86.53839751444377
 20
-143.1009894086694
 10
86.50911695963522
 20
-143.1127016308887
 10
86.48809140461607
 20
-143.1333744086614
 10
86.46724442282773
 20
-143.154752741989
 10
86.45500084990474
 20
-143.1843860753152
 10
86.45500084990474
 20
-143.2136666308629
 97
        0
 97
        0
 75
     2
 76
     1
 98
        0
  0
SPLINE
  5
197
330
1F
100
AcDbEntity
  8
_U+30EC_U+30A4_U+30E4_U+30FC 1
370
     0
100
AcDbSpline
210
0.0
220
0.0
230
1.0
 70
    11
 71
     3
 72
    29
 73
    25
 74
     0
 42
0.0000000001
 43
0.0000000001
 12
1.0
 22
0.0
 32
0.0
 13
1.0
 23
0.0
 33
0.0
 40
0.0
 40
0.0
 40
0.0
 40
0.0
 40
1.0
 40
1.0
 40
1.0
 40
2.0
 40
2.0
 40
2.0
 40
3.0
 40
3.0
 40
3.0
 40
4.0
 40
4.0
 40
4.0
 40
5.0
 40
5.0
 40
5.0
 40
6.0
 40
6.0
 40
6.0
 40
7.0
 40
7.0
 40
7.0
 40
8.0
 40
8.0
 40
8.0
 40
8.0
 10
76.119213869859
 20
-147.5041852409019
 30
0.0
 10
76.119213869859
 20
-147.5338185742275
 30
0.0
 10
76.13110055773382
 20
-147.5627463519981
 30
0.0
 10
76.15212611275297
 20
-147.5837719075486
 30
0.0
 10
76.17311638999523
 20
-147.6044446853213
 30
0.0
 10
76.20239694480378
 20
-147.6168271853179
 30
0.0
 10
76.2322066662655
 20
-147.6168271853179
 30
0.0
 10
76.26166360995843
 20
-147.6168271853179
 30
0.0
 10
76.29094416476697
 20
-147.6044446853213
 30
0.0
 10
76.31214610867052
 20
-147.5837719075486
 30
0.0
 10
76.33299720313912
 20
-147.5627463519981
 30
0.0
 10
76.34537777448936
 20
-147.5338185742275
 30
0.0
 10
76.34537777448936
 20
-147.5041852409019
 30
0.0
 10
76.34537777448936
 20
-147.4738463520202
 30
0.0
 10
76.33299720313912
 20
-147.4449185742502
 30
0.0
 10
76.31214610867052
 20
-147.4238930186997
 30
0.0
 10
76.29094416476697
 20
-147.4029027409267
 30
0.0
 10
76.26166360995843
 20
-147.3901321853749
 30
0.0
 10
76.2322066662655
 20
-147.3901321853749
 30
0.0
 10
76.20239694480378
 20
-147.3901321853749
 30
0.0
 10
76.17311638999523
 20
-147.4029027409267
 30
0.0
 10
76.15212611275297
 20
-147.4238930186997
 30
0.0
 10
76.13110055773382
 20
-147.4449185742502
 30
0.0
 10
76.119213869859
 20
-147.4738463520202
 30
0.0
 10
76.119213869859
 20
-147.5041852409019
 30
0.0
  0
HATCH
  5
198
330
1F
100
AcDbEntity
  8
_U+30EC_U+30A4_U+30E4_U+30FC 1
 62
     7
420
 16777215
100
AcDbHatch
 10
0.0
 20
0.0
 30
0.0
210
0.0
220
0.0
230
1.0
  2
SOLID
 70
     1
 71
     0
 91
        1
 92
        1
 93
        1
 72
     4
 94
        3
 73
     0
 74
     1
 95
       29
 96
       25
 40
0.0
 40
0.0
 40
0.0
 40
0.0
 40
1.0
 40
1.0
 40
1.0
 40
2.0
 40
2.0
 40
2.0
 40
3.0
 40
3.0
 40
3.0
 40
4.0
 40
4.0
 40
4.0
 40
5.0
 40
5.0
 40
5.0
 40
6.0
 40
6.0
 40
6.0
 40
7.0
 40
7.0
 40
7.0
 40
8.0
 40
8.0
 40
8.0
 40
8.0
 10
76.119213869859
 20
-147.5041852409019
 10
76.119213869859
 20
-147.5338185742275
 10
76.13110055773382
 20
-147.5627463519981
 10
76.15212611275297
 20
-147.5837719075486
 10
76.17311638999523
 20
-147.6044446853213
 10
76.20239694480378
 20
-147.6168271853179
 10
76.2322066662655
 20
-147.6168271853179
 10
76.26166360995843
 20
-147.6168271853179
 10
76.29094416476697
 20
-147.6044446853213
 10
76.31214610867052
 20
-147.5837719075486
 10
76.33299720313912
 20
-147.5627463519981
 10
76.34537777448936
 20
-147.5338185742275
 10
76.34537777448936
 20
-147.5041852409019
 10
76.34537777448936
 20
-147.4738463520202
 10
76.33299720313912
 20
-147.4449185742502
 10
76.31214610867052
 20
-147.4238930186997
 10
76.29094416476697
 20
-147.4029027409267
 10
76.26166360995843
 20
-147.3901321853749
 10
76.2322066662655
 20
-147.3901321853749
 10
76.20239694480378
 20
-147.3901321853749
 10
76.17311638999523
 20
-147.4029027409267
 10
76.15212611275297
 20
-147.4238930186997
 10
76.13110055773382
 20
-147.4449185742502
 10
76.119213869859
 20
-147.4738463520202
 10
76.119213869859
 20
-147.5041852409019
 97
        0
 97
        0
 75
     2
 76
     1
 98
        0
  0
ENDSEC
  0
SECTION
  2
OBJECTS
  0
DICTIONARY
  5
C
330
0
100
AcDbDictionary
281
     1
  3
ACAD_GROUP
350
D
  3
ACAD_LAYOUT
350
1A
  3
ACAD_MATERIAL
350
3B
  3
ACAD_MLEADERSTYLE
350
19A
  3
ACAD_MLINESTYLE
350
17
  3
ACAD_PLOTSETTINGS
350
19
  3
ACAD_PLOTSTYLENAME
350
E
  3
ACAD_TABLESTYLE
350
199
  3
ACAD_VISUALSTYLE
350
2A
  0
SUN
  5
3F
330
29
100
AcDbSun
 90
        1
290
     0
 63
     7
421
 16777215
 40
1.0
291
     1
 91
  2455826
 92
 54000000
292
     0
 70
     2
 71
   256
280
     1
  0
DICTIONARY
  5
D
102
{ACAD_REACTORS
330
C
102
}
330
C
100
AcDbDictionary
281
     1
  0
DICTIONARY
  5
1A
102
{ACAD_REACTORS
330
C
102
}
330
C
100
AcDbDictionary
281
     1
  3
Layout1
350
1E
  3
Layout2
350
26
  3
Model
350
22
  0
DICTIONARY
  5
3B
102
{ACAD_REACTORS
330
C
102
}
330
C
100
AcDbDictionary
281
     1
  3
ByBlock
350
3D
  3
ByLayer
350
3C
  3
Global
350
3E
  0
DICTIONARY
  5
19A
102
{ACAD_REACTORS
330
C
102
}
330
C
100
AcDbDictionary
281
     1
  0
DICTIONARY
  5
17
102
{ACAD_REACTORS
330
C
102
}
330
C
100
AcDbDictionary
281
     1
  3
Standard
350
18
  0
DICTIONARY
  5
19
102
{ACAD_REACTORS
330
C
102
}
330
C
100
AcDbDictionary
281
     1
  0
ACDBDICTIONARYWDFLT
  5
E
102
{ACAD_REACTORS
330
C
102
}
330
C
100
AcDbDictionary
281
     1
  3
Normal
350
F
100
AcDbDictionaryWithDefault
340
F
  0
DICTIONARY
  5
199
102
{ACAD_REACTORS
330
C
102
}
330
C
100
AcDbDictionary
281
     1
  0
DICTIONARY
  5
2A
102
{ACAD_REACTORS
330
C
102
}
330
C
100
AcDbDictionary
281
     1
  3
2dWireframe
350
2F
  3
3D Hidden
350
31
  3
3dWireframe
350
30
  3
Basic
350
32
  3
Brighten
350
36
  3
ColorChange
350
3A
  3
Conceptual
350
34
  3
Dim
350
35
  3
Facepattern
350
39
  3
Flat
350
2B
  3
FlatWithEdges
350
2C
  3
Gouraud
350
2D
  3
GouraudWithEdges
350
2E
  3
Linepattern
350
38
  3
Realistic
350
33
  3
Thicken
350
37
  0
LAYOUT
  5
1E
102
{ACAD_REACTORS
330
1A
102
}
330
1A
100
AcDbPlotSettings
  1

  2
none_device
  4

  6

 40
0.0
 41
0.0
 42
0.0
 43
0.0
 44
0.0
 45
0.0
 46
0.0
 47
0.0
 48
0.0
 49
0.0
140
0.0
141
0.0
142
1.0
143
1.0
 70
   688
 72
     0
 73
     0
 74
     5
  7

 75
    16
 76
     0
 77
     2
 78
   300
147
1.0
148
0.0
149
0.0
100
AcDbLayout
  1
Layout1
 70
     1
 71
     1
 10
0.0
 20
0.0
 11
12.0
 21
9.0
 12
0.0
 22
0.0
 32
0.0
 14
1.000000000000000E+20
 24
1.000000000000000E+20
 34
1.000000000000000E+20
 15
-1.000000000000000E+20
 25
-1.000000000000000E+20
 35
-1.000000000000000E+20
146
0.0
 13
0.0
 23
0.0
 33
0.0
 16
1.0
 26
0.0
 36
0.0
 17
0.0
 27
1.0
 37
0.0
 76
     0
330
1B
  0
LAYOUT
  5
26
102
{ACAD_REACTORS
330
1A
102
}
330
1A
100
AcDbPlotSettings
  1

  2
none_device
  4

  6

 40
0.0
 41
0.0
 42
0.0
 43
0.0
 44
0.0
 45
0.0
 46
0.0
 47
0.0
 48
0.0
 49
0.0
140
0.0
141
0.0
142
1.0
143
1.0
 70
   688
 72
     0
 73
     0
 74
     5
  7

 75
    16
 76
     0
 77
     2
 78
   300
147
1.0
148
0.0
149
0.0
100
AcDbLayout
  1
Layout2
 70
     1
 71
     2
 10
0.0
 20
0.0
 11
0.0
 21
0.0
 12
0.0
 22
0.0
 32
0.0
 14
0.0
 24
0.0
 34
0.0
 15
0.0
 25
0.0
 35
0.0
146
0.0
 13
0.0
 23
0.0
 33
0.0
 16
1.0
 26
0.0
 36
0.0
 17
0.0
 27
1.0
 37
0.0
 76
     0
330
23
  0
LAYOUT
  5
22
102
{ACAD_REACTORS
330
1A
102
}
330
1A
100
AcDbPlotSettings
  1

  2
none_device
  4

  6

 40
0.0
 41
0.0
 42
0.0
 43
0.0
 44
0.0
 45
0.0
 46
0.0
 47
0.0
 48
0.0
 49
0.0
140
0.0
141
0.0
142
1.0
143
1.0
 70
  1712
 72
     0
 73
     0
 74
     0
  7

 75
     0
 76
     0
 77
     2
 78
   300
147
1.0
148
0.0
149
0.0
100
AcDbLayout
  1
Model
 70
     1
 71
     0
 10
0.0
 20
0.0
 11
12.0
 21
9.0
 12
0.0
 22
0.0
 32
0.0
 14
1.000000000000000E+20
 24
1.000000000000000E+20
 34
1.000000000000000E+20
 15
-1.000000000000000E+20
 25
-1.000000000000000E+20
 35
-1.000000000000000E+20
146
0.0
 13
0.0
 23
0.0
 33
0.0
 16
1.0
 26
0.0
 36
0.0
 17
0.0
 27
1.0
 37
0.0
 76
     0
330
1F
331
29
  0
MATERIAL
  5
3D
102
{ACAD_REACTORS
330
3B
102
}
330
3B
100
AcDbMaterial
  1
ByBlock
 72
     1
 94
      127
  0
MATERIAL
  5
3C
102
{ACAD_REACTORS
330
3B
102
}
330
3B
100
AcDbMaterial
  1
ByLayer
 72
     1
 94
      127
  0
MATERIAL
  5
3E
102
{ACAD_REACTORS
330
3B
102
}
330
3B
100
AcDbMaterial
  1
Global
 72
     1
 94
      127
  0
MLINESTYLE
  5
18
102
{ACAD_REACTORS
330
17
102
}
330
17
100
AcDbMlineStyle
  2
Standard
 70
     0
  3

 62
   256
 51
90.0
 52
90.0
 71
     2
 49
0.5
 62
   256
  6
BYLAYER
 49
-0.5
 62
   256
  6
BYLAYER
  0
ACDBPLACEHOLDER
  5
F
102
{ACAD_REACTORS
330
E
102
}
330
E
  0
VISUALSTYLE
  5
2F
102
{ACAD_REACTORS
330
2A
102
}
330
2A
100
AcDbVisualStyle
  2
2dWireframe
 70
     4
177
     2
291
     0
 71
     0
176
     1
 72
     2
176
     1
 73
     0
176
     1
 90
        0
176
     1
 40
-0.6
176
     1
 41
-30.0
176
     1
 62
     5
 63
     7
421
 16777215
176
     1
 74
     1
176
     1
 91
        4
176
     1
 64
     7
176
     1
 65
   257
176
     1
 75
     1
176
     1
175
     1
176
     1
 42
1.0
176
     1
 92
        0
176
     1
 66
   257
176
     1
 43
1.0
176
     1
 76
     1
176
     1
 77
     6
176
     1
 78
     2
176
     1
 67
     7
176
     1
 79
     5
176
     1
170
     0
176
     1
171
     0
176
     1
290
     0
176
     1
 93
        1
176
     1
 44
0.0
176
     1
173
     0
176
     1
  0
VISUALSTYLE
  5
31
102
{ACAD_REACTORS
330
2A
102
}
330
2A
100
AcDbVisualStyle
  2
3D Hidden
 70
     6
177
     2
291
     0
 71
     1
176
     1
 72
     2
176
     1
 73
     2
176
     1
 90
        0
176
     1
 40
-0.6
176
     1
 41
-30.0
176
     1
 62
     5
 63
     7
421
 16777215
176
     1
 74
     2
176
     1
 91
        2
176
     1
 64
     7
176
     1
 65
   257
176
     1
 75
     2
176
     1
175
     1
176
     1
 42
40.0
176
     1
 92
        0
176
     1
 66
   257
176
     1
 43
1.0
176
     1
 76
     1
176
     1
 77
     6
176
     1
 78
     2
176
     1
 67
     7
176
     1
 79
     3
176
     1
170
     0
176
     1
171
     0
176
     1
290
     0
176
     1
 93
        1
176
     1
 44
0.0
176
     1
173
     0
176
     1
  0
VISUALSTYLE
  5
30
102
{ACAD_REACTORS
330
2A
102
}
330
2A
100
AcDbVisualStyle
  2
3dWireframe
 70
     5
177
     2
291
     0
 71
     0
176
     1
 72
     2
176
     1
 73
     0
176
     1
 90
        0
176
     1
 40
-0.6
176
     1
 41
-30.0
176
     1
 62
     5
 63
     7
421
 16777215
176
     1
 74
     1
176
     1
 91
        4
176
     1
 64
     7
176
     1
 65
   257
176
     1
 75
     1
176
     1
175
     1
176
     1
 42
1.0
176
     1
 92
        0
176
     1
 66
   257
176
     1
 43
1.0
176
     1
 76
     1
176
     1
 77
     6
176
     1
 78
     2
176
     1
 67
     7
176
     1
 79
     5
176
     1
170
     0
176
     1
171
     0
176
     1
290
     0
176
     1
 93
        1
176
     1
 44
0.0
176
     1
173
     0
176
     1
  0
VISUALSTYLE
  5
32
102
{ACAD_REACTORS
330
2A
102
}
330
2A
100
AcDbVisualStyle
  2
Basic
 70
     7
177
     2
291
     1
 71
     1
176
     1
 72
     0
176
     1
 73
     1
176
     1
 90
        0
176
     1
 40
-0.6
176
     1
 41
-30.0
176
     1
 62
     5
 63
     7
421
 16777215
176
     1
 74
     0
176
     1
 91
        4
176
     1
 64
     7
176
     1
 65
   257
176
     1
 75
     1
176
     1
175
     1
176
     1
 42
1.0
176
     1
 92
        8
176
     1
 66
     7
176
     1
 43
1.0
176
     1
 76
     1
176
     1
 77
     6
176
     1
 78
     2
176
     1
 67
     7
176
     1
 79
     5
176
     1
170
     0
176
     1
171
     0
176
     1
290
     0
176
     1
 93
        1
176
     1
 44
0.0
176
     1
173
     0
176
     1
  0
VISUALSTYLE
  5
36
102
{ACAD_REACTORS
330
2A
102
}
330
2A
100
AcDbVisualStyle
  2
Brighten
 70
    12
177
     2
291
     1
 71
     2
176
     1
 72
     2
176
     1
 73
     0
176
     1
 90
        0
176
     1
 40
-0.6
176
     1
 41
-30.0
176
     1
 62
     5
 63
     7
421
 16777215
176
     1
 74
     1
176
     1
 91
        4
176
     1
 64
     7
176
     1
 65
   257
176
     1
 75
     1
176
     1
175
     1
176
     1
 42
1.0
176
     1
 92
        8
176
     1
 66
     7
176
     1
 43
1.0
176
     1
 76
     1
176
     1
 77
     6
176
     1
 78
     2
176
     1
 67
     7
176
     1
 79
     5
176
     1
170
     0
176
     1
171
     0
176
     1
290
     0
176
     1
 93
        1
176
     1
 44
50.0
176
     1
173
     0
176
     1
  0
VISUALSTYLE
  5
3A
102
{ACAD_REACTORS
330
2A
102
}
330
2A
100
AcDbVisualStyle
  2
ColorChange
 70
    16
177
     2
291
     1
 71
     2
176
     1
 72
     2
176
     1
 73
     3
176
     1
 90
        0
176
     1
 40
-0.6
176
     1
 41
-30.0
176
     1
 62
     5
 63
     8
421
  8421504
176
     1
 74
     1
176
     1
 91
        4
176
     1
 64
     7
176
     1
 65
   257
176
     1
 75
     1
176
     1
175
     1
176
     1
 42
1.0
176
     1
 92
        8
176
     1
 66
     8
424
  8421504
176
     1
 43
1.0
176
     1
 76
     1
176
     1
 77
     6
176
     1
 78
     2
176
     1
 67
     7
176
     1
 79
     5
176
     1
170
     0
176
     1
171
     0
176
     1
290
     0
176
     1
 93
        1
176
     1
 44
0.0
176
     1
173
     0
176
     1
  0
VISUALSTYLE
  5
34
102
{ACAD_REACTORS
330
2A
102
}
330
2A
100
AcDbVisualStyle
  2
Conceptual
 70
     9
177
     2
291
     0
 71
     3
176
     1
 72
     2
176
     1
 73
     0
176
     1
 90
        0
176
     1
 40
-0.6
176
     1
 41
-30.0
176
     1
 62
     5
 63
     7
421
 16777215
176
     1
 74
     2
176
     1
 91
        2
176
     1
 64
     7
176
     1
 65
   257
176
     1
 75
     1
176
     1
175
     1
176
     1
 42
40.0
176
     1
 92
        8
176
     1
 66
     7
176
     1
 43
1.0
176
     1
 76
     1
176
     1
 77
     6
176
     1
 78
     2
176
     1
 67
     7
176
     1
 79
     3
176
     1
170
     0
176
     1
171
     0
176
     1
290
     0
176
     1
 93
        1
176
     1
 44
0.0
176
     1
173
     0
176
     1
  0
VISUALSTYLE
  5
35
102
{ACAD_REACTORS
330
2A
102
}
330
2A
100
AcDbVisualStyle
  2
Dim
 70
    11
177
     2
291
     1
 71
     2
176
     1
 72
     2
176
     1
 73
     0
176
     1
 90
        0
176
     1
 40
-0.6
176
     1
 41
-30.0
176
     1
 62
     5
 63
     7
421
 16777215
176
     1
 74
     1
176
     1
 91
        4
176
     1
 64
     7
176
     1
 65
   257
176
     1
 75
     1
176
     1
175
     1
176
     1
 42
1.0
176
     1
 92
        8
176
     1
 66
     7
176
     1
 43
1.0
176
     1
 76
     1
176
     1
 77
     6
176
     1
 78
     2
176
     1
 67
     7
176
     1
 79
     5
176
     1
170
     0
176
     1
171
     0
176
     1
290
     0
176
     1
 93
        1
176
     1
 44
-50.0
176
     1
173
     0
176
     1
  0
VISUALSTYLE
  5
39
102
{ACAD_REACTORS
330
2A
102
}
330
2A
100
AcDbVisualStyle
  2
Facepattern
 70
    15
177
     2
291
     1
 71
     2
176
     1
 72
     2
176
     1
 73
     0
176
     1
 90
        0
176
     1
 40
-0.6
176
     1
 41
-30.0
176
     1
 62
     5
 63
     7
421
 16777215
176
     1
 74
     1
176
     1
 91
        4
176
     1
 64
     7
176
     1
 65
   257
176
     1
 75
     1
176
     1
175
     1
176
     1
 42
1.0
176
     1
 92
        8
176
     1
 66
     7
176
     1
 43
1.0
176
     1
 76
     1
176
     1
 77
     6
176
     1
 78
     2
176
     1
 67
     7
176
     1
 79
     5
176
     1
170
     0
176
     1
171
     0
176
     1
290
     0
176
     1
 93
        1
176
     1
 44
0.0
176
     1
173
     0
176
     1
  0
VISUALSTYLE
  5
2B
102
{ACAD_REACTORS
330
2A
102
}
330
2A
100
AcDbVisualStyle
  2
Flat
 70
     0
177
     2
291
     1
 71
     2
176
     1
 72
     1
176
     1
 73
     1
176
     1
 90
        2
176
     1
 40
-0.6
176
     1
 41
30.0
176
     1
 62
     5
 63
     7
421
 16777215
176
     1
 74
     0
176
     1
 91
        4
176
     1
 64
     7
176
     1
 65
   257
176
     1
 75
     1
176
     1
175
     1
176
     1
 42
1.0
176
     1
 92
        8
176
     1
 66
     7
176
     1
 43
1.0
176
     1
 76
     1
176
     1
 77
     6
176
     1
 78
     2
176
     1
 67
     7
176
     1
 79
     5
176
     1
170
     0
176
     1
171
     0
176
     1
290
     0
176
     1
 93
       13
176
     1
 44
0.0
176
     1
173
     0
176
     1
  0
VISUALSTYLE
  5
2C
102
{ACAD_REACTORS
330
2A
102
}
330
2A
100
AcDbVisualStyle
  2
FlatWithEdges
 70
     1
177
     2
291
     1
 71
     2
176
     1
 72
     1
176
     1
 73
     1
176
     1
 90
        2
176
     1
 40
-0.6
176
     1
 41
30.0
176
     1
 62
     5
 63
     7
421
 16777215
176
     1
 74
     1
176
     1
 91
        4
176
     1
 64
     7
176
     1
 65
   257
176
     1
 75
     1
176
     1
175
     1
176
     1
 42
1.0
176
     1
 92
        0
176
     1
 66
   257
176
     1
 43
1.0
176
     1
 76
     1
176
     1
 77
     6
176
     1
 78
     2
176
     1
 67
     7
176
     1
 79
     5
176
     1
170
     0
176
     1
171
     0
176
     1
290
     0
176
     1
 93
       13
176
     1
 44
0.0
176
     1
173
     0
176
     1
  0
VISUALSTYLE
  5
2D
102
{ACAD_REACTORS
330
2A
102
}
330
2A
100
AcDbVisualStyle
  2
Gouraud
 70
     2
177
     2
291
     1
 71
     2
176
     1
 72
     2
176
     1
 73
     1
176
     1
 90
        2
176
     1
 40
-0.6
176
     1
 41
30.0
176
     1
 62
     5
 63
     7
421
 16777215
176
     1
 74
     0
176
     1
 91
        4
176
     1
 64
     7
176
     1
 65
   257
176
     1
 75
     1
176
     1
175
     1
176
     1
 42
1.0
176
     1
 92
        0
176
     1
 66
     7
176
     1
 43
1.0
176
     1
 76
     1
176
     1
 77
     6
176
     1
 78
     2
176
     1
 67
     7
176
     1
 79
     5
176
     1
170
     0
176
     1
171
     0
176
     1
290
     0
176
     1
 93
       13
176
     1
 44
0.0
176
     1
173
     0
176
     1
  0
VISUALSTYLE
  5
2E
102
{ACAD_REACTORS
330
2A
102
}
330
2A
100
AcDbVisualStyle
  2
GouraudWithEdges
 70
     3
177
     2
291
     1
 71
     2
176
     1
 72
     2
176
     1
 73
     1
176
     1
 90
        2
176
     1
 40
-0.6
176
     1
 41
30.0
176
     1
 62
     5
 63
     7
421
 16777215
176
     1
 74
     1
176
     1
 91
        4
176
     1
 64
     7
176
     1
 65
   257
176
     1
 75
     1
176
     1
175
     1
176
     1
 42
1.0
176
     1
 92
        0
176
     1
 66
   257
176
     1
 43
1.0
176
     1
 76
     1
176
     1
 77
     6
176
     1
 78
     2
176
     1
 67
     7
176
     1
 79
     5
176
     1
170
     0
176
     1
171
     0
176
     1
290
     0
176
     1
 93
       13
176
     1
 44
0.0
176
     1
173
     0
176
     1
  0
VISUALSTYLE
  5
38
102
{ACAD_REACTORS
330
2A
102
}
330
2A
100
AcDbVisualStyle
  2
Linepattern
 70
    14
177
     2
291
     1
 71
     2
176
     1
 72
     2
176
     1
 73
     0
176
     1
 90
        0
176
     1
 40
-0.6
176
     1
 41
-30.0
176
     1
 62
     5
 63
     7
421
 16777215
176
     1
 74
     1
176
     1
 91
        4
176
     1
 64
     7
176
     1
 65
   257
176
     1
 75
     7
176
     1
175
     7
176
     1
 42
1.0
176
     1
 92
        8
176
     1
 66
     7
176
     1
 43
1.0
176
     1
 76
     1
176
     1
 77
     6
176
     1
 78
     2
176
     1
 67
     7
176
     1
 79
     5
176
     1
170
     0
176
     1
171
     0
176
     1
290
     0
176
     1
 93
        1
176
     1
 44
0.0
176
     1
173
     0
176
     1
  0
VISUALSTYLE
  5
33
102
{ACAD_REACTORS
330
2A
102
}
330
2A
100
AcDbVisualStyle
  2
Realistic
 70
     8
177
     2
291
     0
 71
     2
176
     1
 72
     2
176
     1
 73
     0
176
     1
 90
        0
176
     1
 40
-0.6
176
     1
 41
-30.0
176
     1
 62
     5
 63
     7
421
 16777215
176
     1
 74
     1
176
     1
 91
        0
176
     1
 64
     7
176
     1
 65
   257
176
     1
 75
     1
176
     1
175
     1
176
     1
 42
1.0
176
     1
 92
        8
176
     1
 66
     8
424
  7895160
176
     1
 43
1.0
176
     1
 76
     1
176
     1
 77
     6
176
     1
 78
     2
176
     1
 67
     7
176
     1
 79
     5
176
     1
170
     0
176
     1
171
     0
176
     1
290
     0
176
     1
 93
       13
176
     1
 44
0.0
176
     1
173
     0
176
     1
  0
VISUALSTYLE
  5
37
102
{ACAD_REACTORS
330
2A
102
}
330
2A
100
AcDbVisualStyle
  2
Thicken
 70
    13
177
     2
291
     1
 71
     2
176
     1
 72
     2
176
     1
 73
     0
176
     1
 90
        0
176
     1
 40
-0.6
176
     1
 41
-30.0
176
     1
 62
     5
 63
     7
421
 16777215
176
     1
 74
     1
176
     1
 91
        4
176
     1
 64
     7
176
     1
 65
   257
176
     1
 75
     1
176
     1
175
     1
176
     1
 42
1.0
176
     1
 92
       12
176
     1
 66
     7
176
     1
 43
1.0
176
     1
 76
     1
176
     1
 77
     6
176
     1
 78
     2
176
     1
 67
     7
176
     1
 79
     5
176
     1
170
     0
176
     1
171
     0
176
     1
290
     0
176
     1
 93
        1
176
     1
 44
0.0
176
     1
173
     0
176
     1
  0
ENDSEC
  0
EOF
