  0
SECTION
  2
HEADER
  9
$ACADVER
  1
AC1024
  9
$ACADMAINTVER
 70
     6
  9
$DWGCODEPAGE
  3
UNDEFINED
  9
$INSBASE
 10
0.0
 20
0.0
 30
0.0
  9
$EXTMIN
 10
1.000000000000000E+20
 20
1.000000000000000E+20
 30
1.000000000000000E+20
  9
$EXTMAX
 10
-1.000000000000000E+20
 20
-1.000000000000000E+20
 30
-1.000000000000000E+20
  9
$LIMMIN
 10
0.0
 20
0.0
  9
$LIMMAX
 10
12.0
 20
9.0
  9
$ORTHOMODE
 70
     0
  9
$REGENMODE
 70
     1
  9
$FILLMODE
 70
     1
  9
$QTEXTMODE
 70
     0
  9
$MIRRTEXT
 70
     1
  9
$LTSCALE
 40
1.0
  9
$ATTMODE
 70
     1
  9
$TEXTSIZE
 40
0.2
  9
$TRACEWID
 40
0.05
  9
$TEXTSTYLE
  7
Standard
  9
$CLAYER
  8
0
  9
$CELTYPE
  6
ByLayer
  9
$CECOLOR
 62
   256
  9
$CELTSCALE
 40
1.0
  9
$DISPSILH
 70
     0
  9
$DIMSCALE
 40
1.0
  9
$DIMASZ
 40
0.18
  9
$DIMEXO
 40
0.0625
  9
$DIMDLI
 40
0.38
  9
$DIMRND
 40
0.0
  9
$DIMDLE
 40
0.0
  9
$DIMEXE
 40
0.18
  9
$DIMTP
 40
0.0
  9
$DIMTM
 40
0.0
  9
$DIMTXT
 40
0.18
  9
$DIMCEN
 40
0.09
  9
$DIMTSZ
 40
0.0
  9
$DIMTOL
 70
     0
  9
$DIMLIM
 70
     0
  9
$DIMTIH
 70
     1
  9
$DIMTOH
 70
     1
  9
$DIMSE1
 70
     0
  9
$DIMSE2
 70
     0
  9
$DIMTAD
 70
     0
  9
$DIMZIN
 70
     0
  9
$DIMBLK
  1

  9
$DIMASO
 70
     1
  9
$DIMSHO
 70
     1
  9
$DIMPOST
  1

  9
$DIMAPOST
  1

  9
$DIMALT
 70
     0
  9
$DIMALTD
 70
     2
  9
$DIMALTF
 40
25.4
  9
$DIMLFAC
 40
1.0
  9
$DIMTOFL
 70
     0
  9
$DIMTVP
 40
0.0
  9
$DIMTIX
 70
     0
  9
$DIMSOXD
 70
     0
  9
$DIMSAH
 70
     0
  9
$DIMBLK1
  1

  9
$DIMBLK2
  1

  9
$DIMSTYLE
  2
Standard
  9
$DIMCLRD
 70
     0
  9
$DIMCLRE
 70
     0
  9
$DIMCLRT
 70
     0
  9
$DIMTFAC
 40
1.0
  9
$DIMGAP
 40
0.09
  9
$DIMJUST
 70
     0
  9
$DIMSD1
 70
     0
  9
$DIMSD2
 70
     0
  9
$DIMTOLJ
 70
     1
  9
$DIMTZIN
 70
     0
  9
$DIMALTZ
 70
     0
  9
$DIMALTTZ
 70
     0
  9
$DIMUPT
 70
     0
  9
$DIMDEC
 70
     4
  9
$DIMTDEC
 70
     4
  9
$DIMALTU
 70
     2
  9
$DIMALTTD
 70
     2
  9
$DIMTXSTY
  7
Standard
  9
$DIMAUNIT
 70
     0
  9
$DIMADEC
 70
     0
  9
$DIMALTRND
 40
0.0
  9
$DIMAZIN
 70
     0
  9
$DIMDSEP
 70
    46
  9
$DIMATFIT
 70
     3
  9
$DIMFRAC
 70
     0
  9
$DIMLDRBLK
  1

  9
$DIMLUNIT
 70
     2
  9
$DIMLWD
 70
    -2
  9
$DIMLWE
 70
    -2
  9
$DIMTMOVE
 70
     0
  9
$DIMFXL
 40
1.0
  9
$DIMFXLON
 70
     0
  9
$DIMJOGANG
 40
0.7853981633974483
  9
$DIMTFILL
 70
     0
  9
$DIMTFILLCLR
 70
     0
  9
$DIMARCSYM
 70
     0
  9
$DIMLTYPE
  6

  9
$DIMLTEX1
  6

  9
$DIMLTEX2
  6

  9
$DIMTXTDIRECTION
 70
     0
  9
$LUNITS
 70
     2
  9
$LUPREC
 70
     4
  9
$SKETCHINC
 40
0.1
  9
$FILLETRAD
 40
0.5
  9
$AUNITS
 70
     0
  9
$AUPREC
 70
     0
  9
$MENU
  1
.
  9
$ELEVATION
 40
0.0
  9
$PELEVATION
 40
0.0
  9
$THICKNESS
 40
0.0
  9
$LIMCHECK
 70
     0
  9
$CHAMFERA
 40
0.5
  9
$CHAMFERB
 40
0.5
  9
$CHAMFERC
 40
1.0
  9
$CHAMFERD
 40
0.0
  9
$SKPOLY
 70
     0
  9
$TDCREATE
 40
2457917.627627315
  9
$TDUCREATE
 40
2457917.252627315
  9
$TDUPDATE
 40
2457917.627627315
  9
$TDUUPDATE
 40
2457917.252627315
  9
$TDINDWG
 40
0.0000000116
  9
$TDUSRTIMER
 40
0.0000000116
  9
$USRTIMER
 70
     1
  9
$ANGBASE
 50
0.0
  9
$ANGDIR
 70
     0
  9
$PDMODE
 70
     0
  9
$PDSIZE
 40
0.0
  9
$PLINEWID
 40
0.0
  9
$SPLFRAME
 70
     0
  9
$SPLINETYPE
 70
     6
  9
$SPLINESEGS
 70
     8
  9
$HANDSEED
  5
11B
  9
$SURFTAB1
 70
     6
  9
$SURFTAB2
 70
     6
  9
$SURFTYPE
 70
     6
  9
$SURFU
 70
     6
  9
$SURFV
 70
     6
  9
$UCSBASE
  2

  9
$UCSNAME
  2

  9
$UCSORG
 10
0.0
 20
0.0
 30
0.0
  9
$UCSXDIR
 10
1.0
 20
0.0
 30
0.0
  9
$UCSYDIR
 10
0.0
 20
1.0
 30
0.0
  9
$UCSORTHOREF
  2

  9
$UCSORTHOVIEW
 70
     0
  9
$UCSORGTOP
 10
0.0
 20
0.0
 30
0.0
  9
$UCSORGBOTTOM
 10
0.0
 20
0.0
 30
0.0
  9
$UCSORGLEFT
 10
0.0
 20
0.0
 30
0.0
  9
$UCSORGRIGHT
 10
0.0
 20
0.0
 30
0.0
  9
$UCSORGFRONT
 10
0.0
 20
0.0
 30
0.0
  9
$UCSORGBACK
 10
0.0
 20
0.0
 30
0.0
  9
$PUCSBASE
  2

  9
$PUCSNAME
  2

  9
$PUCSORG
 10
0.0
 20
0.0
 30
0.0
  9
$PUCSXDIR
 10
1.0
 20
0.0
 30
0.0
  9
$PUCSYDIR
 10
0.0
 20
1.0
 30
0.0
  9
$PUCSORTHOREF
  2

  9
$PUCSORTHOVIEW
 70
     0
  9
$PUCSORGTOP
 10
0.0
 20
0.0
 30
0.0
  9
$PUCSORGBOTTOM
 10
0.0
 20
0.0
 30
0.0
  9
$PUCSORGLEFT
 10
0.0
 20
0.0
 30
0.0
  9
$PUCSORGRIGHT
 10
0.0
 20
0.0
 30
0.0
  9
$PUCSORGFRONT
 10
0.0
 20
0.0
 30
0.0
  9
$PUCSORGBACK
 10
0.0
 20
0.0
 30
0.0
  9
$USERI1
 70
     0
  9
$USERI2
 70
     0
  9
$USERI3
 70
     0
  9
$USERI4
 70
     0
  9
$USERI5
 70
     0
  9
$USERR1
 40
0.0
  9
$USERR2
 40
0.0
  9
$USERR3
 40
0.0
  9
$USERR4
 40
0.0
  9
$USERR5
 40
0.0
  9
$WORLDVIEW
 70
     1
  9
$SHADEDGE
 70
     3
  9
$SHADEDIF
 70
    70
  9
$TILEMODE
 70
     1
  9
$MAXACTVP
 70
    64
  9
$PINSBASE
 10
0.0
 20
0.0
 30
0.0
  9
$PLIMCHECK
 70
     0
  9
$PEXTMIN
 10
1.000000000000000E+20
 20
1.000000000000000E+20
 30
1.000000000000000E+20
  9
$PEXTMAX
 10
-1.000000000000000E+20
 20
-1.000000000000000E+20
 30
-1.000000000000000E+20
  9
$PLIMMIN
 10
0.0
 20
0.0
  9
$PLIMMAX
 10
12.0
 20
9.0
  9
$UNITMODE
 70
     0
  9
$VISRETAIN
 70
     1
  9
$PLINEGEN
 70
     0
  9
$PSLTSCALE
 70
     1
  9
$TREEDEPTH
 70
  3020
  9
$CMLSTYLE
  2
Standard
  9
$CMLJUST
 70
     0
  9
$CMLSCALE
 40
1.0
  9
$PROXYGRAPHICS
 70
     1
  9
$MEASUREMENT
 70
     0
  9
$CELWEIGHT
370
    -1
  9
$ENDCAPS
280
     0
  9
$JOINSTYLE
280
     0
  9
$LWDISPLAY
290
     1
  9
$INSUNITS
 70
     1
  9
$HYPERLINKBASE
  1

  9
$STYLESHEET
  1

  9
$XEDIT
290
     1
  9
$CEPSNTYPE
380
     0
  9
$PSTYLEMODE
290
     1
  9
$FINGERPRINTGUID
  2
{F2D465F9-C9E2-D09F-8933-B432BB1DC441}
  9
$VERSIONGUID
  2
{FAEB1C32-E019-11D5-929B-00C0DF256EC4}
  9
$EXTNAMES
290
     1
  9
$PSVPSCALE
 40
0.0
  9
$OLESTARTUP
290
     0
  9
$SORTENTS
280
   127
  9
$INDEXCTL
280
     0
  9
$HIDETEXT
280
     1
  9
$XCLIPFRAME
280
     2
  9
$HALOGAP
280
     0
  9
$OBSCOLOR
 70
   257
  9
$OBSLTYPE
280
     0
  9
$INTERSECTIONDISPLAY
280
     0
  9
$INTERSECTIONCOLOR
 70
   257
  9
$DIMASSOC
280
     2
  9
$PROJECTNAME
  1

  9
$CAMERADISPLAY
290
     0
  9
$LENSLENGTH
 40
50.0
  9
$CAMERAHEIGHT
 40
0.0
  9
$STEPSPERSEC
 40
2.0
  9
$STEPSIZE
 40
6.0
  9
$3DDWFPREC
 40
2.0
  9
$PSOLWIDTH
 40
0.25
  9
$PSOLHEIGHT
 40
4.0
  9
$LOFTANG1
 40
1.570796326794897
  9
$LOFTANG2
 40
1.570796326794897
  9
$LOFTMAG1
 40
0.0
  9
$LOFTMAG2
 40
0.0
  9
$LOFTPARAM
 70
     7
  9
$LOFTNORMALS
280
     1
  9
$LATITUDE
 40
37.795
  9
$LONGITUDE
 40
-122.394
  9
$NORTHDIRECTION
 40
0.0
  9
$TIMEZONE
 70
 -8000
  9
$LIGHTGLYPHDISPLAY
280
     1
  9
$TILEMODELIGHTSYNCH
280
     1
  9
$CMATERIAL
347
3C
  9
$SOLIDHIST
280
     1
  9
$SHOWHIST
280
     1
  9
$DWFFRAME
280
     2
  9
$DGNFRAME
280
     2
  9
$REALWORLDSCALE
290
     1
  9
$INTERFERECOLOR
 62
   256
  9
$CSHADOW
280
     0
  9
$SHADOWPLANELOCATION
 40
0.0
  0
ENDSEC
  0
SECTION
  2
CLASSES
  0
CLASS
  1
ACDBDICTIONARYWDFLT
  2
AcDbDictionaryWithDefault
  3
ObjectDBX Classes
 90
        0
 91
        4
280
     0
281
     0
  0
CLASS
  1
VISUALSTYLE
  2
AcDbVisualStyle
  3
ObjectDBX Classes
 90
     4095
 91
        4
280
     0
281
     0
  0
CLASS
  1
MATERIAL
  2
AcDbMaterial
  3
ObjectDBX Classes
 90
     1153
 91
        4
280
     0
281
     0
  0
CLASS
  1
SUN
  2
AcDbSun
  3
SCENEOE
 90
     1024
 91
        4
280
     0
281
     0
  0
ENDSEC
  0
SECTION
  2
TABLES
  0
TABLE
  2
VPORT
  5
8
330
0
100
AcDbSymbolTable
 70
     1
  0
VPORT
  5
29
330
8
100
AcDbSymbolTableRecord
100
AcDbViewportTableRecord
  2
*Active
 70
     0
 10
0.0
 20
0.0
 11
1.0
 21
1.0
 12
0.0
 22
0.0
 13
0.0
 23
0.0
 14
0.5
 24
0.5
 15
0.5
 25
0.5
 16
0.0
 26
0.0
 36
1.0
 17
91.00082462281999
 27
-128.4993055234307
 37
0.0
 40
256.9986110468615
 41
0.7081814508812795
 42
50.0
 43
0.0
 44
0.0
 50
0.0
 51
0.0
 71
     0
 72
   100
 73
     1
 74
     3
 75
     0
 76
     0
 77
     0
 78
     0
281
     0
 65
     1
110
0.0
120
0.0
130
0.0
111
1.0
121
0.0
131
0.0
112
0.0
122
1.0
132
0.0
 79
     0
146
0.0
 60
     3
 61
     5
292
     1
282
     1
141
0.0
142
0.0
 63
   250
361
3F
  0
ENDTAB
  0
TABLE
  2
LTYPE
  5
5
330
0
100
AcDbSymbolTable
 70
     1
  0
LTYPE
  5
14
330
5
100
AcDbSymbolTableRecord
100
AcDbLinetypeTableRecord
  2
ByBlock
 70
     0
  3

 72
    65
 73
     0
 40
0.0
  0
LTYPE
  5
15
330
5
100
AcDbSymbolTableRecord
100
AcDbLinetypeTableRecord
  2
ByLayer
 70
     0
  3

 72
    65
 73
     0
 40
0.0
  0
LTYPE
  5
16
330
5
100
AcDbSymbolTableRecord
100
AcDbLinetypeTableRecord
  2
Continuous
 70
     0
  3
Solid line
 72
    65
 73
     0
 40
0.0
  0
ENDTAB
  0
TABLE
  2
LAYER
  5
2
330
0
100
AcDbSymbolTable
 70
     2
  0
LAYER
  5
10
330
2
100
AcDbSymbolTableRecord
100
AcDbLayerTableRecord
  2
0
 70
     0
 62
     7
  6
Continuous
370
    -3
390
F
347
3E
  0
LAYER
  5
40
330
2
100
AcDbSymbolTableRecord
100
AcDbLayerTableRecord
  2
_U+30EC_U+30A4_U+30E4_U+30FC 1
 70
     0
 62
     7
  6
Continuous
370
    -3
390
F
347
3E
  0
ENDTAB
  0
TABLE
  2
STYLE
  5
3
330
0
100
AcDbSymbolTable
 70
     1
  0
STYLE
  5
11
330
3
100
AcDbSymbolTableRecord
100
AcDbTextStyleTableRecord
  2
Standard
 70
     0
 40
0.0
 41
1.0
 50
0.0
 71
     0
 42
0.2
  3
txt
  4

  0
ENDTAB
  0
TABLE
  2
VIEW
  5
6
330
0
100
AcDbSymbolTable
 70
     0
  0
ENDTAB
  0
TABLE
  2
UCS
  5
7
330
0
100
AcDbSymbolTable
 70
     0
  0
ENDTAB
  0
TABLE
  2
APPID
  5
9
330
0
100
AcDbSymbolTable
 70
     1
  0
APPID
  5
12
330
9
100
AcDbSymbolTableRecord
100
AcDbRegAppTableRecord
  2
ACAD
 70
     0
  0
ENDTAB
  0
TABLE
  2
DIMSTYLE
  5
A
330
0
100
AcDbSymbolTable
 70
     1
100
AcDbDimStyleTable
  0
DIMSTYLE
105
27
330
A
100
AcDbSymbolTableRecord
100
AcDbDimStyleTableRecord
  2
Standard
 70
     0
178
     0
340
11
  0
ENDTAB
  0
TABLE
  2
BLOCK_RECORD
  5
1
330
0
100
AcDbSymbolTable
 70
     5
  0
BLOCK_RECORD
  5
1F
330
1
100
AcDbSymbolTableRecord
100
AcDbBlockTableRecord
  2
*Model_Space
340
22
 70
     0
280
     1
281
     0
  0
BLOCK_RECORD
  5
1B
330
1
100
AcDbSymbolTableRecord
100
AcDbBlockTableRecord
  2
*Paper_Space
340
1E
 70
     0
280
     1
281
     0
  0
BLOCK_RECORD
  5
23
330
1
100
AcDbSymbolTableRecord
100
AcDbBlockTableRecord
  2
*Paper_Space0
340
26
 70
     0
280
     1
281
     0
  0
BLOCK_RECORD
  5
AD
330
1
100
AcDbSymbolTableRecord
100
AcDbBlockTableRecord
  2
block 2
340
0
102
{BLKREFS
331
AE
102
}
 70
     0
280
     1
281
     0
  0
BLOCK_RECORD
  5
C8
330
1
100
AcDbSymbolTableRecord
100
AcDbBlockTableRecord
  2
block 3
340
0
102
{BLKREFS
331
C9
102
}
 70
     0
280
     1
281
     0
  0
BLOCK_RECORD
  5
CE
330
1
100
AcDbSymbolTableRecord
100
AcDbBlockTableRecord
  2
block 4
340
0
102
{BLKREFS
331
CF
102
}
 70
     0
280
     1
281
     0
  0
BLOCK_RECORD
  5
D7
330
1
100
AcDbSymbolTableRecord
100
AcDbBlockTableRecord
  2
block 5
340
0
102
{BLKREFS
331
D8
102
}
 70
     0
280
     1
281
     0
  0
ENDTAB
  0
ENDSEC
  0
SECTION
  2
BLOCKS
  0
BLOCK
  5
20
330
1F
100
AcDbEntity
  8
0
100
AcDbBlockBegin
  2
*Model_Space
 70
     0
 10
0.0
 20
0.0
 30
0.0
  3
*Model_Space
  1

  0
ENDBLK
  5
21
330
1F
100
AcDbEntity
  8
0
100
AcDbBlockEnd
  0
BLOCK
  5
1C
330
1B
100
AcDbEntity
 67
     1
  8
0
100
AcDbBlockBegin
  2
*Paper_Space
 70
     0
 10
0.0
 20
0.0
 30
0.0
  3
*Paper_Space
  1

  0
ENDBLK
  5
1D
330
1B
100
AcDbEntity
 67
     1
  8
0
100
AcDbBlockEnd
  0
BLOCK
  5
24
330
23
100
AcDbEntity
  8
0
100
AcDbBlockBegin
  2
*Paper_Space0
 70
     0
 10
0.0
 20
0.0
 30
0.0
  3
*Paper_Space0
  1

  0
ENDBLK
  5
25
330
23
100
AcDbEntity
  8
0
100
AcDbBlockEnd
  0
BLOCK
  5
AF
330
AD
100
AcDbEntity
  8
0
100
AcDbBlockBegin
  2
block 2
 70
     0
 10
0.0
 20
0.0
 30
0.0
  3
block 2
  1

  0
SPLINE
  5
B1
330
AD
100
AcDbEntity
  8
_U+30EC_U+30A4_U+30E4_U+30FC 1
370
     0
100
AcDbSpline
210
0.0
220
0.0
230
1.0
 70
    11
 71
     3
 72
    44
 73
    40
 74
     0
 42
0.0000000001
 43
0.0000000001
 12
1.0
 22
0.0
 32
0.0
 13
1.0
 23
0.0
 33
0.0
 40
0.0
 40
0.0
 40
0.0
 40
0.0
 40
1.0
 40
1.0
 40
1.0
 40
2.0
 40
2.0
 40
2.0
 40
3.0
 40
3.0
 40
3.0
 40
4.0
 40
4.0
 40
4.0
 40
5.0
 40
5.0
 40
5.0
 40
6.0
 40
6.0
 40
6.0
 40
7.0
 40
7.0
 40
7.0
 40
8.0
 40
8.0
 40
8.0
 40
9.0
 40
9.0
 40
9.0
 40
10.0
 40
10.0
 40
10.0
 40
11.0
 40
11.0
 40
11.0
 40
12.0
 40
12.0
 40
12.0
 40
13.0
 40
13.0
 40
13.0
 40
13.0
 10
104.8252983678909
 20
-128.5330674591862
 30
0.0
 10
104.9841172697609
 20
-128.750797493854
 30
0.0
 10
105.0581868226938
 20
-128.8438150719557
 30
0.0
 10
105.2018473044287
 20
-128.8927354278463
 30
0.0
 10
105.2018473044287
 20
-128.8927354278463
 30
0.0
 10
105.2018473044287
 20
-128.1141438481798
 30
0.0
 10
105.2018473044287
 20
-128.1141438481798
 30
0.0
 10
105.2018473044287
 20
-128.1141438481798
 30
0.0
 10
105.4071749953496
 20
-128.1141438481798
 30
0.0
 10
105.4071749953496
 20
-128.1141438481798
 30
0.0
 10
105.4071749953496
 20
-128.1141438481798
 30
0.0
 10
105.4071749953496
 20
-129.1421603409784
 30
0.0
 10
105.4071749953496
 20
-129.1421603409784
 30
0.0
 10
105.0495740839807
 20
-129.110465462514
 30
0.0
 10
104.9713704164655
 20
-129.0450086482943
 30
0.0
 10
104.6730251474429
 20
-128.6598469730434
 30
0.0
 10
104.4742431379439
 20
-128.4038763784893
 30
0.0
 10
104.4063747568845
 20
-128.3384195642696
 30
0.0
 10
104.268915447023
 20
-128.3384195642696
 30
0.0
 10
104.1504041623305
 20
-128.3384195642696
 30
0.0
 10
104.019490533891
 20
-128.4104220599113
 30
0.0
 10
104.019490533891
 20
-128.6071370121191
 30
0.0
 10
104.019490533891
 20
-128.8672417212554
 30
0.0
 10
104.2499674218542
 20
-128.8758544599685
 30
0.0
 10
104.3664116492556
 20
-128.8799885745509
 30
0.0
 10
104.3664116492556
 20
-128.8799885745509
 30
0.0
 10
104.3664116492556
 20
-129.1042642906406
 30
0.0
 10
104.3664116492556
 20
-129.1042642906406
 30
0.0
 10
104.2392876258499
 20
-129.0956515519275
 30
0.0
 10
104.1273220225793
 20
-129.0849717559232
 30
0.0
 10
104.0088107378867
 20
-129.0047010311169
 30
0.0
 10
103.8479247787255
 20
-128.8948024851374
 30
0.0
 10
103.8141628429701
 20
-128.7084228193854
 30
0.0
 10
103.8141628429701
 20
-128.5923231015325
 30
0.0
 10
103.8141628429701
 20
-128.3149929149699
 30
0.0
 10
103.9981309418824
 20
-128.1075981667578
 30
0.0
 10
104.2709825043142
 20
-128.1075981667578
 30
0.0
 10
104.4997368445348
 20
-128.1075981667578
 30
0.0
 10
104.59895559451
 20
-128.2240423941593
 30
0.0
 10
104.8252983678909
 20
-128.5330674591862
 30
0.0
  0
HATCH
  5
B2
330
AD
100
AcDbEntity
  8
_U+30EC_U+30A4_U+30E4_U+30FC 1
 62
   179
420
  2234388
100
AcDbHatch
 10
0.0
 20
0.0
 30
0.0
210
0.0
220
0.0
230
1.0
  2
SOLID
 70
     1
 71
     0
 91
        1
 92
        1
 93
        1
 72
     4
 94
        3
 73
     0
 74
     1
 95
       44
 96
       40
 40
0.0
 40
0.0
 40
0.0
 40
0.0
 40
1.0
 40
1.0
 40
1.0
 40
2.0
 40
2.0
 40
2.0
 40
3.0
 40
3.0
 40
3.0
 40
4.0
 40
4.0
 40
4.0
 40
5.0
 40
5.0
 40
5.0
 40
6.0
 40
6.0
 40
6.0
 40
7.0
 40
7.0
 40
7.0
 40
8.0
 40
8.0
 40
8.0
 40
9.0
 40
9.0
 40
9.0
 40
10.0
 40
10.0
 40
10.0
 40
11.0
 40
11.0
 40
11.0
 40
12.0
 40
12.0
 40
12.0
 40
13.0
 40
13.0
 40
13.0
 40
13.0
 10
104.8252983678909
 20
-128.5330674591862
 10
104.9841172697609
 20
-128.750797493854
 10
105.0581868226938
 20
-128.8438150719557
 10
105.2018473044287
 20
-128.8927354278463
 10
105.2018473044287
 20
-128.8927354278463
 10
105.2018473044287
 20
-128.1141438481798
 10
105.2018473044287
 20
-128.1141438481798
 10
105.2018473044287
 20
-128.1141438481798
 10
105.4071749953496
 20
-128.1141438481798
 10
105.4071749953496
 20
-128.1141438481798
 10
105.4071749953496
 20
-128.1141438481798
 10
105.4071749953496
 20
-129.1421603409784
 10
105.4071749953496
 20
-129.1421603409784
 10
105.0495740839807
 20
-129.110465462514
 10
104.9713704164655
 20
-129.0450086482943
 10
104.6730251474429
 20
-128.6598469730434
 10
104.4742431379439
 20
-128.4038763784893
 10
104.4063747568845
 20
-128.3384195642696
 10
104.268915447023
 20
-128.3384195642696
 10
104.1504041623305
 20
-128.3384195642696
 10
104.019490533891
 20
-128.4104220599113
 10
104.019490533891
 20
-128.6071370121191
 10
104.019490533891
 20
-128.8672417212554
 10
104.2499674218542
 20
-128.8758544599685
 10
104.3664116492556
 20
-128.8799885745509
 10
104.3664116492556
 20
-128.8799885745509
 10
104.3664116492556
 20
-129.1042642906406
 10
104.3664116492556
 20
-129.1042642906406
 10
104.2392876258499
 20
-129.0956515519275
 10
104.1273220225793
 20
-129.0849717559232
 10
104.0088107378867
 20
-129.0047010311169
 10
103.8479247787255
 20
-128.8948024851374
 10
103.8141628429701
 20
-128.7084228193854
 10
103.8141628429701
 20
-128.5923231015325
 10
103.8141628429701
 20
-128.3149929149699
 10
103.9981309418824
 20
-128.1075981667578
 10
104.2709825043142
 20
-128.1075981667578
 10
104.4997368445348
 20
-128.1075981667578
 10
104.59895559451
 20
-128.2240423941593
 10
104.8252983678909
 20
-128.5330674591862
 97
        0
 97
        0
 75
     2
 76
     1
 98
        0
  0
POLYLINE
  5
B3
330
AD
100
AcDbEntity
  8
_U+30EC_U+30A4_U+30E4_U+30FC 1
370
     0
100
AcDb2dPolyline
 66
     1
 10
0.0
 20
0.0
 30
0.0
  0
VERTEX
  5
B4
330
B3
100
AcDbEntity
  8
_U+30EC_U+30A4_U+30E4_U+30FC 1
370
     0
100
AcDbVertex
100
AcDb2dVertex
 10
105.0602538799849
 20
-127.1171332147485
 30
0.0
  0
VERTEX
  5
B5
330
B3
100
AcDbEntity
  8
_U+30EC_U+30A4_U+30E4_U+30FC 1
370
     0
100
AcDbVertex
100
AcDb2dVertex
 10
105.4071749953496
 20
-127.1171332147485
 30
0.0
  0
VERTEX
  5
B6
330
B3
100
AcDbEntity
  8
_U+30EC_U+30A4_U+30E4_U+30FC 1
370
     0
100
AcDbVertex
100
AcDb2dVertex
 10
105.4071749953496
 20
-127.3348632494163
 30
0.0
  0
VERTEX
  5
B7
330
B3
100
AcDbEntity
  8
_U+30EC_U+30A4_U+30E4_U+30FC 1
370
     0
100
AcDbVertex
100
AcDb2dVertex
 10
105.0602538799849
 20
-127.3348632494163
 30
0.0
  0
VERTEX
  5
B8
330
B3
100
AcDbEntity
  8
_U+30EC_U+30A4_U+30E4_U+30FC 1
370
     0
100
AcDbVertex
100
AcDb2dVertex
 10
105.0602538799849
 20
-127.9908094298079
 30
0.0
  0
VERTEX
  5
B9
330
B3
100
AcDbEntity
  8
_U+30EC_U+30A4_U+30E4_U+30FC 1
370
     0
100
AcDbVertex
100
AcDb2dVertex
 10
104.8359781638952
 20
-127.9908094298079
 30
0.0
  0
VERTEX
  5
BA
330
B3
100
AcDbEntity
  8
_U+30EC_U+30A4_U+30E4_U+30FC 1
370
     0
100
AcDbVertex
100
AcDb2dVertex
 10
103.8627386893121
 20
-127.3117811096651
 30
0.0
  0
VERTEX
  5
BB
330
B3
100
AcDbEntity
  8
_U+30EC_U+30A4_U+30E4_U+30FC 1
370
     0
100
AcDbVertex
100
AcDb2dVertex
 10
103.8627386893121
 20
-127.1171332147485
 30
0.0
  0
VERTEX
  5
BC
330
B3
100
AcDbEntity
  8
_U+30EC_U+30A4_U+30E4_U+30FC 1
370
     0
100
AcDbVertex
100
AcDb2dVertex
 10
104.861471870486
 20
-127.1171332147485
 30
0.0
  0
VERTEX
  5
BD
330
B3
100
AcDbEntity
  8
_U+30EC_U+30A4_U+30E4_U+30FC 1
370
     0
100
AcDbVertex
100
AcDb2dVertex
 10
104.861471870486
 20
-126.9097384665365
 30
0.0
  0
VERTEX
  5
BE
330
B3
100
AcDbEntity
  8
_U+30EC_U+30A4_U+30E4_U+30FC 1
370
     0
100
AcDbVertex
100
AcDb2dVertex
 10
105.0602538799849
 20
-126.9097384665365
 30
0.0
  0
VERTEX
  5
BF
330
B3
100
AcDbEntity
  8
_U+30EC_U+30A4_U+30E4_U+30FC 1
370
     0
100
AcDbVertex
100
AcDb2dVertex
 10
105.0602538799849
 20
-127.1171332147485
 30
0.0
  0
SEQEND
  5
C0
330
B3
100
AcDbEntity
  8
_U+30EC_U+30A4_U+30E4_U+30FC 1
370
     0
  0
POLYLINE
  5
C1
330
AD
100
AcDbEntity
  8
_U+30EC_U+30A4_U+30E4_U+30FC 1
370
     0
100
AcDb2dPolyline
 66
     1
 10
0.0
 20
0.0
 30
0.0
  0
VERTEX
  5
C2
330
C1
100
AcDbEntity
  8
_U+30EC_U+30A4_U+30E4_U+30FC 1
370
     0
100
AcDbVertex
100
AcDb2dVertex
 10
104.2055256900945
 20
-127.3348632494163
 30
0.0
  0
VERTEX
  5
C3
330
C1
100
AcDbEntity
  8
_U+30EC_U+30A4_U+30E4_U+30FC 1
370
     0
100
AcDbVertex
100
AcDb2dVertex
 10
104.861471870486
 20
-127.7920274203089
 30
0.0
  0
VERTEX
  5
C4
330
C1
100
AcDbEntity
  8
_U+30EC_U+30A4_U+30E4_U+30FC 1
370
     0
100
AcDbVertex
100
AcDb2dVertex
 10
104.861471870486
 20
-127.3348632494163
 30
0.0
  0
VERTEX
  5
C5
330
C1
100
AcDbEntity
  8
_U+30EC_U+30A4_U+30E4_U+30FC 1
370
     0
100
AcDbVertex
100
AcDb2dVertex
 10
104.2055256900945
 20
-127.3348632494163
 30
0.0
  0
SEQEND
  5
C6
330
C1
100
AcDbEntity
  8
_U+30EC_U+30A4_U+30E4_U+30FC 1
370
     0
  0
HATCH
  5
C7
330
AD
100
AcDbEntity
  8
_U+30EC_U+30A4_U+30E4_U+30FC 1
 62
   179
420
  2234388
100
AcDbHatch
 10
0.0
 20
0.0
 30
0.0
210
0.0
220
0.0
230
1.0
  2
SOLID
 70
     1
 71
     0
 91
        2
 92
        1
 93
       11
 72
     1
 10
105.0602538799849
 20
-127.1171332147485
 11
105.4071749953496
 21
-127.1171332147485
 72
     1
 10
105.4071749953496
 20
-127.1171332147485
 11
105.4071749953496
 21
-127.3348632494163
 72
     1
 10
105.4071749953496
 20
-127.3348632494163
 11
105.0602538799849
 21
-127.3348632494163
 72
     1
 10
105.0602538799849
 20
-127.3348632494163
 11
105.0602538799849
 21
-127.9908094298079
 72
     1
 10
105.0602538799849
 20
-127.9908094298079
 11
104.8359781638952
 21
-127.9908094298079
 72
     1
 10
104.8359781638952
 20
-127.9908094298079
 11
103.8627386893121
 21
-127.3117811096651
 72
     1
 10
103.8627386893121
 20
-127.3117811096651
 11
103.8627386893121
 21
-127.1171332147485
 72
     1
 10
103.8627386893121
 20
-127.1171332147485
 11
104.861471870486
 21
-127.1171332147485
 72
     1
 10
104.861471870486
 20
-127.1171332147485
 11
104.861471870486
 21
-126.9097384665365
 72
     1
 10
104.861471870486
 20
-126.9097384665365
 11
105.0602538799849
 21
-126.9097384665365
 72
     1
 10
105.0602538799849
 20
-126.9097384665365
 11
105.0602538799849
 21
-127.1171332147485
 97
        0
 92
        1
 93
        3
 72
     1
 10
104.2055256900945
 20
-127.3348632494163
 11
104.861471870486
 21
-127.7920274203089
 72
     1
 10
104.861471870486
 20
-127.7920274203089
 11
104.861471870486
 21
-127.3348632494163
 72
     1
 10
104.861471870486
 20
-127.3348632494163
 11
104.2055256900945
 21
-127.3348632494163
 97
        0
 75
     2
 76
     1
 98
        0
  0
ENDBLK
  5
B0
330
AD
100
AcDbEntity
  8
0
100
AcDbBlockEnd
  0
BLOCK
  5
CA
330
C8
100
AcDbEntity
  8
0
100
AcDbBlockBegin
  2
block 3
 70
     0
 10
0.0
 20
0.0
 30
0.0
  3
block 3
  1

  0
SPLINE
  5
CC
330
C8
100
AcDbEntity
  8
_U+30EC_U+30A4_U+30E4_U+30FC 1
370
     0
100
AcDbSpline
210
0.0
220
0.0
230
1.0
 70
    11
 71
     3
 72
    62
 73
    58
 74
     0
 42
0.0000000001
 43
0.0000000001
 12
1.0
 22
0.0
 32
0.0
 13
1.0
 23
0.0
 33
0.0
 40
0.0
 40
0.0
 40
0.0
 40
0.0
 40
1.0
 40
1.0
 40
1.0
 40
2.0
 40
2.0
 40
2.0
 40
3.0
 40
3.0
 40
3.0
 40
4.0
 40
4.0
 40
4.0
 40
5.0
 40
5.0
 40
5.0
 40
6.0
 40
6.0
 40
6.0
 40
7.0
 40
7.0
 40
7.0
 40
8.0
 40
8.0
 40
8.0
 40
9.0
 40
9.0
 40
9.0
 40
10.0
 40
10.0
 40
10.0
 40
11.0
 40
11.0
 40
11.0
 40
12.0
 40
12.0
 40
12.0
 40
13.0
 40
13.0
 40
13.0
 40
14.0
 40
14.0
 40
14.0
 40
15.0
 40
15.0
 40
15.0
 40
16.0
 40
16.0
 40
16.0
 40
17.0
 40
17.0
 40
17.0
 40
18.0
 40
18.0
 40
18.0
 40
19.0
 40
19.0
 40
19.0
 40
19.0
 10
105.4578178989828
 20
-137.8575628995634
 30
0.0
 10
105.4578178989828
 20
-137.9529920445048
 30
0.0
 10
105.4368028165227
 20
-138.1707220791726
 30
0.0
 10
105.2507676603193
 20
-138.2957790452872
 30
0.0
 10
105.1384575475001
 20
-138.36984859822
 30
0.0
 10
105.0392387975249
 20
-138.3739827128023
 30
0.0
 10
104.9544894485878
 20
-138.3781168273846
 30
0.0
 10
104.9544894485878
 20
-138.3781168273846
 30
0.0
 10
104.9544894485878
 20
-138.1579752258772
 30
0.0
 10
104.9544894485878
 20
-138.1579752258772
 30
0.0
 10
105.0285590015206
 20
-138.155908168586
 30
0.0
 10
105.2631700040662
 20
-138.1455728821303
 30
0.0
 10
105.2631700040662
 20
-137.8620415236942
 30
0.0
 10
105.2631700040662
 20
-137.7245822138327
 30
0.0
 10
105.1935790752641
 20
-137.5719644838362
 30
0.0
 10
104.965169244592
 20
-137.5719644838362
 30
0.0
 10
104.8487250171906
 20
-137.5719644838362
 30
0.0
 10
104.8001491708486
 20
-137.6102050437225
 30
0.0
 10
104.7684542923843
 20
-137.6418999221868
 30
0.0
 10
104.6943847394514
 20
-137.7159694751196
 30
0.0
 10
104.681637886156
 20
-137.8324137025211
 30
0.0
 10
104.681637886156
 20
-137.8871907207366
 30
0.0
 10
104.681637886156
 20
-137.9064832554539
 30
0.0
 10
104.6837049434471
 20
-137.9423122485005
 30
0.0
 10
104.6878390580294
 20
-137.9698730123825
 30
0.0
 10
104.6878390580294
 20
-137.9698730123825
 30
0.0
 10
104.4931911631128
 20
-137.9698730123825
 30
0.0
 10
104.4931911631128
 20
-137.9698730123825
 30
0.0
 10
104.4997368445348
 20
-137.9316324524963
 30
0.0
 10
104.5018039018259
 20
-137.8896022875762
 30
0.0
 10
104.5018039018259
 20
-137.8830566061542
 30
0.0
 10
104.5018039018259
 20
-137.8175997919345
 30
0.0
 10
104.4804443098174
 20
-137.6188177824356
 30
0.0
 10
104.2437662499807
 20
-137.6188177824356
 30
0.0
 10
104.0659993229418
 20
-137.6188177824356
 30
0.0
 10
104.0108777951778
 20
-137.7497314108751
 30
0.0
 10
104.0108777951778
 20
-137.8599744664031
 30
0.0
 10
104.0108777951778
 20
-138.1242132901217
 30
0.0
 10
104.2437662499807
 20
-138.1328260288348
 30
0.0
 10
104.3154242360739
 20
-138.1369601434172
 30
0.0
 10
104.3154242360739
 20
-138.1369601434172
 30
0.0
 10
104.3154242360739
 20
-138.3402207770469
 30
0.0
 10
104.3154242360739
 20
-138.3402207770469
 30
0.0
 10
104.1907117795079
 20
-138.3316080383338
 30
0.0
 10
103.8141628429701
 20
-138.3040472744518
 30
0.0
 10
103.8141628429701
 20
-137.8472276131076
 30
0.0
 10
103.8141628429701
 20
-137.6229518970179
 30
0.0
 10
103.9412868663758
 20
-137.3817952130504
 30
0.0
 10
104.2372205685588
 20
-137.3817952130504
 30
0.0
 10
104.4236002343108
 20
-137.3817952130504
 30
0.0
 10
104.5059380164082
 20
-137.4768798484433
 30
0.0
 10
104.5672607160457
 20
-137.576443107967
 30
0.0
 10
104.5948214799277
 20
-137.5151204083296
 30
0.0
 10
104.675092204734
 20
-137.3332193667084
 30
0.0
 10
104.9524223912966
 20
-137.3332193667084
 30
0.0
 10
105.2907307679482
 20
-137.3332193667084
 30
0.0
 10
105.4578178989828
 20
-137.5805772225493
 30
0.0
 10
105.4578178989828
 20
-137.8575628995634
 30
0.0
  0
HATCH
  5
CD
330
C8
100
AcDbEntity
  8
_U+30EC_U+30A4_U+30E4_U+30FC 1
 62
   179
420
  2234388
100
AcDbHatch
 10
0.0
 20
0.0
 30
0.0
210
0.0
220
0.0
230
1.0
  2
SOLID
 70
     1
 71
     0
 91
        1
 92
        1
 93
        1
 72
     4
 94
        3
 73
     0
 74
     1
 95
       62
 96
       58
 40
0.0
 40
0.0
 40
0.0
 40
0.0
 40
1.0
 40
1.0
 40
1.0
 40
2.0
 40
2.0
 40
2.0
 40
3.0
 40
3.0
 40
3.0
 40
4.0
 40
4.0
 40
4.0
 40
5.0
 40
5.0
 40
5.0
 40
6.0
 40
6.0
 40
6.0
 40
7.0
 40
7.0
 40
7.0
 40
8.0
 40
8.0
 40
8.0
 40
9.0
 40
9.0
 40
9.0
 40
10.0
 40
10.0
 40
10.0
 40
11.0
 40
11.0
 40
11.0
 40
12.0
 40
12.0
 40
12.0
 40
13.0
 40
13.0
 40
13.0
 40
14.0
 40
14.0
 40
14.0
 40
15.0
 40
15.0
 40
15.0
 40
16.0
 40
16.0
 40
16.0
 40
17.0
 40
17.0
 40
17.0
 40
18.0
 40
18.0
 40
18.0
 40
19.0
 40
19.0
 40
19.0
 40
19.0
 10
105.4578178989828
 20
-137.8575628995634
 10
105.4578178989828
 20
-137.9529920445048
 10
105.4368028165227
 20
-138.1707220791726
 10
105.2507676603193
 20
-138.2957790452872
 10
105.1384575475001
 20
-138.36984859822
 10
105.0392387975249
 20
-138.3739827128023
 10
104.9544894485878
 20
-138.3781168273846
 10
104.9544894485878
 20
-138.3781168273846
 10
104.9544894485878
 20
-138.1579752258772
 10
104.9544894485878
 20
-138.1579752258772
 10
105.0285590015206
 20
-138.155908168586
 10
105.2631700040662
 20
-138.1455728821303
 10
105.2631700040662
 20
-137.8620415236942
 10
105.2631700040662
 20
-137.7245822138327
 10
105.1935790752641
 20
-137.5719644838362
 10
104.965169244592
 20
-137.5719644838362
 10
104.8487250171906
 20
-137.5719644838362
 10
104.8001491708486
 20
-137.6102050437225
 10
104.7684542923843
 20
-137.6418999221868
 10
104.6943847394514
 20
-137.7159694751196
 10
104.681637886156
 20
-137.8324137025211
 10
104.681637886156
 20
-137.8871907207366
 10
104.681637886156
 20
-137.9064832554539
 10
104.6837049434471
 20
-137.9423122485005
 10
104.6878390580294
 20
-137.9698730123825
 10
104.6878390580294
 20
-137.9698730123825
 10
104.4931911631128
 20
-137.9698730123825
 10
104.4931911631128
 20
-137.9698730123825
 10
104.4997368445348
 20
-137.9316324524963
 10
104.5018039018259
 20
-137.8896022875762
 10
104.5018039018259
 20
-137.8830566061542
 10
104.5018039018259
 20
-137.8175997919345
 10
104.4804443098174
 20
-137.6188177824356
 10
104.2437662499807
 20
-137.6188177824356
 10
104.0659993229418
 20
-137.6188177824356
 10
104.0108777951778
 20
-137.7497314108751
 10
104.0108777951778
 20
-137.8599744664031
 10
104.0108777951778
 20
-138.1242132901217
 10
104.2437662499807
 20
-138.1328260288348
 10
104.3154242360739
 20
-138.1369601434172
 10
104.3154242360739
 20
-138.1369601434172
 10
104.3154242360739
 20
-138.3402207770469
 10
104.3154242360739
 20
-138.3402207770469
 10
104.1907117795079
 20
-138.3316080383338
 10
103.8141628429701
 20
-138.3040472744518
 10
103.8141628429701
 20
-137.8472276131076
 10
103.8141628429701
 20
-137.6229518970179
 10
103.9412868663758
 20
-137.3817952130504
 10
104.2372205685588
 20
-137.3817952130504
 10
104.4236002343108
 20
-137.3817952130504
 10
104.5059380164082
 20
-137.4768798484433
 10
104.5672607160457
 20
-137.576443107967
 10
104.5948214799277
 20
-137.5151204083296
 10
104.675092204734
 20
-137.3332193667084
 10
104.9524223912966
 20
-137.3332193667084
 10
105.2907307679482
 20
-137.3332193667084
 10
105.4578178989828
 20
-137.5805772225493
 10
105.4578178989828
 20
-137.8575628995634
 97
        0
 97
        0
 75
     2
 76
     1
 98
        0
  0
ENDBLK
  5
CB
330
C8
100
AcDbEntity
  8
0
100
AcDbBlockEnd
  0
BLOCK
  5
D0
330
CE
100
AcDbEntity
  8
0
100
AcDbBlockBegin
  2
block 4
 70
     0
 10
0.0
 20
0.0
 30
0.0
  3
block 4
  1

  0
SPLINE
  5
D2
330
CE
100
AcDbEntity
  8
_U+30EC_U+30A4_U+30E4_U+30FC 1
370
     0
100
AcDbSpline
210
0.0
220
0.0
230
1.0
 70
    11
 71
     3
 72
    44
 73
    40
 74
     0
 42
0.0000000001
 43
0.0000000001
 12
1.0
 22
0.0
 32
0.0
 13
1.0
 23
0.0
 33
0.0
 40
0.0
 40
0.0
 40
0.0
 40
0.0
 40
1.0
 40
1.0
 40
1.0
 40
2.0
 40
2.0
 40
2.0
 40
3.0
 40
3.0
 40
3.0
 40
4.0
 40
4.0
 40
4.0
 40
5.0
 40
5.0
 40
5.0
 40
6.0
 40
6.0
 40
6.0
 40
7.0
 40
7.0
 40
7.0
 40
8.0
 40
8.0
 40
8.0
 40
9.0
 40
9.0
 40
9.0
 40
10.0
 40
10.0
 40
10.0
 40
11.0
 40
11.0
 40
11.0
 40
12.0
 40
12.0
 40
12.0
 40
13.0
 40
13.0
 40
13.0
 40
13.0
 10
88.97544756890197
 20
-141.4962727510843
 30
0.0
 10
88.75771753423419
 20
-141.6550916529543
 30
0.0
 10
88.66469995613244
 20
-141.7291612058872
 30
0.0
 10
88.6157796002419
 20
-141.8728216876221
 30
0.0
 10
88.6157796002419
 20
-141.8728216876221
 30
0.0
 10
89.39437117990836
 20
-141.8728216876221
 30
0.0
 10
89.39437117990836
 20
-141.8728216876221
 30
0.0
 10
89.39437117990836
 20
-141.8728216876221
 30
0.0
 10
89.39437117990836
 20
-142.078149378543
 30
0.0
 10
89.39437117990836
 20
-142.078149378543
 30
0.0
 10
89.39437117990836
 20
-142.078149378543
 30
0.0
 10
88.3663546871098
 20
-142.078149378543
 30
0.0
 10
88.3663546871098
 20
-142.078149378543
 30
0.0
 10
88.3980495655741
 20
-141.720548467174
 30
0.0
 10
88.46350637979386
 20
-141.6423447996589
 30
0.0
 10
88.84866805504478
 20
-141.3439995306362
 30
0.0
 10
89.10463864959884
 20
-141.1452175211373
 30
0.0
 10
89.1700954638186
 20
-141.0773491400779
 30
0.0
 10
89.1700954638186
 20
-140.9398898302164
 30
0.0
 10
89.1700954638186
 20
-140.8213785455238
 30
0.0
 10
89.09809296817687
 20
-140.6904649170843
 30
0.0
 10
88.9013780159691
 20
-140.6904649170843
 30
0.0
 10
88.64127330683274
 20
-140.6904649170843
 30
0.0
 10
88.63266056811962
 20
-140.9209418050476
 30
0.0
 10
88.62852645353732
 20
-141.037386032449
 30
0.0
 10
88.62852645353732
 20
-141.037386032449
 30
0.0
 10
88.40425073744755
 20
-141.037386032449
 30
0.0
 10
88.40425073744755
 20
-141.037386032449
 30
0.0
 10
88.41286347616068
 20
-140.9102620090433
 30
0.0
 10
88.42354327216495
 20
-140.7982964057726
 30
0.0
 10
88.50381399697127
 20
-140.6797851210801
 30
0.0
 10
88.61371254295074
 20
-140.5188991619189
 30
0.0
 10
88.80009220870276
 20
-140.4851372261634
 30
0.0
 10
88.91619192655568
 20
-140.4851372261634
 30
0.0
 10
89.19352211311829
 20
-140.4851372261634
 30
0.0
 10
89.40091686133033
 20
-140.6691053250758
 30
0.0
 10
89.40091686133033
 20
-140.9419568875076
 30
0.0
 10
89.40091686133033
 20
-141.1707112277282
 30
0.0
 10
89.28447263392889
 20
-141.2699299777034
 30
0.0
 10
88.97544756890197
 20
-141.4962727510843
 30
0.0
  0
HATCH
  5
D3
330
CE
100
AcDbEntity
  8
_U+30EC_U+30A4_U+30E4_U+30FC 1
 62
   179
420
  2234388
100
AcDbHatch
 10
0.0
 20
0.0
 30
0.0
210
0.0
220
0.0
230
1.0
  2
SOLID
 70
     1
 71
     0
 91
        1
 92
        1
 93
        1
 72
     4
 94
        3
 73
     0
 74
     1
 95
       44
 96
       40
 40
0.0
 40
0.0
 40
0.0
 40
0.0
 40
1.0
 40
1.0
 40
1.0
 40
2.0
 40
2.0
 40
2.0
 40
3.0
 40
3.0
 40
3.0
 40
4.0
 40
4.0
 40
4.0
 40
5.0
 40
5.0
 40
5.0
 40
6.0
 40
6.0
 40
6.0
 40
7.0
 40
7.0
 40
7.0
 40
8.0
 40
8.0
 40
8.0
 40
9.0
 40
9.0
 40
9.0
 40
10.0
 40
10.0
 40
10.0
 40
11.0
 40
11.0
 40
11.0
 40
12.0
 40
12.0
 40
12.0
 40
13.0
 40
13.0
 40
13.0
 40
13.0
 10
88.97544756890197
 20
-141.4962727510843
 10
88.75771753423419
 20
-141.6550916529543
 10
88.66469995613244
 20
-141.7291612058872
 10
88.6157796002419
 20
-141.8728216876221
 10
88.6157796002419
 20
-141.8728216876221
 10
89.39437117990836
 20
-141.8728216876221
 10
89.39437117990836
 20
-141.8728216876221
 10
89.39437117990836
 20
-141.8728216876221
 10
89.39437117990836
 20
-142.078149378543
 10
89.39437117990836
 20
-142.078149378543
 10
89.39437117990836
 20
-142.078149378543
 10
88.3663546871098
 20
-142.078149378543
 10
88.3663546871098
 20
-142.078149378543
 10
88.3980495655741
 20
-141.720548467174
 10
88.46350637979386
 20
-141.6423447996589
 10
88.84866805504478
 20
-141.3439995306362
 10
89.10463864959884
 20
-141.1452175211373
 10
89.1700954638186
 20
-141.0773491400779
 10
89.1700954638186
 20
-140.9398898302164
 10
89.1700954638186
 20
-140.8213785455238
 10
89.09809296817687
 20
-140.6904649170843
 10
88.9013780159691
 20
-140.6904649170843
 10
88.64127330683274
 20
-140.6904649170843
 10
88.63266056811962
 20
-140.9209418050476
 10
88.62852645353732
 20
-141.037386032449
 10
88.62852645353732
 20
-141.037386032449
 10
88.40425073744755
 20
-141.037386032449
 10
88.40425073744755
 20
-141.037386032449
 10
88.41286347616068
 20
-140.9102620090433
 10
88.42354327216495
 20
-140.7982964057726
 10
88.50381399697127
 20
-140.6797851210801
 10
88.61371254295074
 20
-140.5188991619189
 10
88.80009220870276
 20
-140.4851372261634
 10
88.91619192655568
 20
-140.4851372261634
 10
89.19352211311829
 20
-140.4851372261634
 10
89.40091686133033
 20
-140.6691053250758
 10
89.40091686133033
 20
-140.9419568875076
 10
89.40091686133033
 20
-141.1707112277282
 10
89.28447263392889
 20
-141.2699299777034
 10
88.97544756890197
 20
-141.4962727510843
 97
        0
 97
        0
 75
     2
 76
     1
 98
        0
  0
SPLINE
  5
D4
330
CE
100
AcDbEntity
  8
_U+30EC_U+30A4_U+30E4_U+30FC 1
370
     0
100
AcDbSpline
210
0.0
220
0.0
230
1.0
 70
    11
 71
     3
 72
    29
 73
    25
 74
     0
 42
0.0000000001
 43
0.0000000001
 12
1.0
 22
0.0
 32
0.0
 13
1.0
 23
0.0
 33
0.0
 40
0.0
 40
0.0
 40
0.0
 40
0.0
 40
1.0
 40
1.0
 40
1.0
 40
2.0
 40
2.0
 40
2.0
 40
3.0
 40
3.0
 40
3.0
 40
4.0
 40
4.0
 40
4.0
 40
5.0
 40
5.0
 40
5.0
 40
6.0
 40
6.0
 40
6.0
 40
7.0
 40
7.0
 40
7.0
 40
8.0
 40
8.0
 40
8.0
 40
8.0
 10
90.45718313710793
 20
-141.9003824515041
 30
0.0
 10
90.34900713887109
 20
-142.1098442570073
 30
0.0
 10
90.17571883596302
 20
-142.1287922821761
 30
0.0
 10
90.05927460856158
 20
-142.1287922821761
 30
0.0
 10
89.8983886494004
 20
-142.1287922821761
 30
0.0
 10
89.75679522495663
 20
-142.0822834931253
 30
0.0
 10
89.66171058956374
 20
-141.9003824515041
 30
0.0
 10
89.55801321545772
 20
-141.7057345565875
 30
0.0
 10
89.53872068074033
 20
-141.4690564967508
 30
0.0
 10
89.53872068074033
 20
-141.3061034802985
 30
0.0
 10
89.53872068074033
 20
-141.1620984890151
 30
0.0
 10
89.55594615816658
 20
-140.9102620090433
 30
0.0
 10
89.66171058956374
 20
-140.7114799995444
 30
0.0
 10
89.76954207825206
 20
-140.5085638754632
 30
0.0
 10
89.93042803741324
 20
-140.4851372261634
 30
0.0
 10
90.05927460856158
 20
-140.4851372261634
 30
0.0
 10
90.21809351043159
 20
-140.4851372261634
 30
0.0
 10
90.36175399216651
 20
-140.5295789579232
 30
0.0
 10
90.45718313710793
 20
-140.7114799995444
 30
0.0
 10
90.55640188708313
 20
-140.9040608371698
 30
0.0
 10
90.57982853638282
 20
-141.1324706678419
 30
0.0
 10
90.57982853638282
 20
-141.3061034802985
 30
0.0
 10
90.57982853638282
 20
-141.4773247259154
 30
0.0
 10
90.55846894437427
 20
-141.7078016138786
 30
0.0
 10
90.45718313710793
 20
-141.9003824515041
 30
0.0
  0
SPLINE
  5
D5
330
CE
100
AcDbEntity
  8
_U+30EC_U+30A4_U+30E4_U+30FC 1
370
     0
100
AcDbSpline
210
0.0
220
0.0
230
1.0
 70
    11
 71
     3
 72
    17
 73
    13
 74
     0
 42
0.0000000001
 43
0.0000000001
 12
1.0
 22
0.0
 32
0.0
 13
1.0
 23
0.0
 33
0.0
 40
0.0
 40
0.0
 40
0.0
 40
0.0
 40
1.0
 40
1.0
 40
1.0
 40
2.0
 40
2.0
 40
2.0
 40
3.0
 40
3.0
 40
3.0
 40
4.0
 40
4.0
 40
4.0
 40
4.0
 10
90.05927460856158
 20
-140.6777180637889
 30
0.0
 10
89.80950518588097
 20
-140.6777180637889
 30
0.0
 10
89.76299639683009
 20
-140.961249422225
 30
0.0
 10
89.76299639683009
 20
-141.3061034802985
 30
0.0
 10
89.76299639683009
 20
-141.6254638317811
 30
0.0
 10
89.79916989942521
 20
-141.9341443872595
 30
0.0
 10
90.05927460856158
 20
-141.9341443872595
 30
0.0
 10
90.30697697395104
 20
-141.9341443872595
 30
0.0
 10
90.35555282029306
 20
-141.6530245956631
 30
0.0
 10
90.35555282029306
 20
-141.3061034802985
 30
0.0
 10
90.35555282029306
 20
-140.9863986192673
 30
0.0
 10
90.3173122604068
 20
-140.6777180637889
 30
0.0
 10
90.05927460856158
 20
-140.6777180637889
 30
0.0
  0
HATCH
  5
D6
330
CE
100
AcDbEntity
  8
_U+30EC_U+30A4_U+30E4_U+30FC 1
 62
   179
420
  2234388
100
AcDbHatch
 10
0.0
 20
0.0
 30
0.0
210
0.0
220
0.0
230
1.0
  2
SOLID
 70
     1
 71
     0
 91
        2
 92
        1
 93
        1
 72
     4
 94
        3
 73
     0
 74
     1
 95
       29
 96
       25
 40
0.0
 40
0.0
 40
0.0
 40
0.0
 40
1.0
 40
1.0
 40
1.0
 40
2.0
 40
2.0
 40
2.0
 40
3.0
 40
3.0
 40
3.0
 40
4.0
 40
4.0
 40
4.0
 40
5.0
 40
5.0
 40
5.0
 40
6.0
 40
6.0
 40
6.0
 40
7.0
 40
7.0
 40
7.0
 40
8.0
 40
8.0
 40
8.0
 40
8.0
 10
90.45718313710793
 20
-141.9003824515041
 10
90.34900713887109
 20
-142.1098442570073
 10
90.17571883596302
 20
-142.1287922821761
 10
90.05927460856158
 20
-142.1287922821761
 10
89.8983886494004
 20
-142.1287922821761
 10
89.75679522495663
 20
-142.0822834931253
 10
89.66171058956374
 20
-141.9003824515041
 10
89.55801321545772
 20
-141.7057345565875
 10
89.53872068074033
 20
-141.4690564967508
 10
89.53872068074033
 20
-141.3061034802985
 10
89.53872068074033
 20
-141.1620984890151
 10
89.55594615816658
 20
-140.9102620090433
 10
89.66171058956374
 20
-140.7114799995444
 10
89.76954207825206
 20
-140.5085638754632
 10
89.93042803741324
 20
-140.4851372261634
 10
90.05927460856158
 20
-140.4851372261634
 10
90.21809351043159
 20
-140.4851372261634
 10
90.36175399216651
 20
-140.5295789579232
 10
90.45718313710793
 20
-140.7114799995444
 10
90.55640188708313
 20
-140.9040608371698
 10
90.57982853638282
 20
-141.1324706678419
 10
90.57982853638282
 20
-141.3061034802985
 10
90.57982853638282
 20
-141.4773247259154
 10
90.55846894437427
 20
-141.7078016138786
 10
90.45718313710793
 20
-141.9003824515041
 97
        0
 97
        0
 92
        1
 93
        1
 72
     4
 94
        3
 73
     0
 74
     1
 95
       17
 96
       13
 40
0.0
 40
0.0
 40
0.0
 40
0.0
 40
1.0
 40
1.0
 40
1.0
 40
2.0
 40
2.0
 40
2.0
 40
3.0
 40
3.0
 40
3.0
 40
4.0
 40
4.0
 40
4.0
 40
4.0
 10
90.05927460856158
 20
-140.6777180637889
 10
89.80950518588097
 20
-140.6777180637889
 10
89.76299639683009
 20
-140.961249422225
 10
89.76299639683009
 20
-141.3061034802985
 10
89.76299639683009
 20
-141.6254638317811
 10
89.79916989942521
 20
-141.9341443872595
 10
90.05927460856158
 20
-141.9341443872595
 10
90.30697697395104
 20
-141.9341443872595
 10
90.35555282029306
 20
-141.6530245956631
 10
90.35555282029306
 20
-141.3061034802985
 10
90.35555282029306
 20
-140.9863986192673
 10
90.3173122604068
 20
-140.6777180637889
 10
90.05927460856158
 20
-140.6777180637889
 97
        0
 97
        0
 75
     2
 76
     1
 98
        0
  0
ENDBLK
  5
D1
330
CE
100
AcDbEntity
  8
0
100
AcDbBlockEnd
  0
BLOCK
  5
D9
330
D7
100
AcDbEntity
  8
0
100
AcDbBlockBegin
  2
block 5
 70
     0
 10
0.0
 20
0.0
 30
0.0
  3
block 5
  1

  0
POLYLINE
  5
DB
330
D7
100
AcDbEntity
  8
_U+30EC_U+30A4_U+30E4_U+30FC 1
370
     0
100
AcDb2dPolyline
 66
     1
 10
0.0
 20
0.0
 30
0.0
  0
VERTEX
  5
DC
330
DB
100
AcDbEntity
  8
_U+30EC_U+30A4_U+30E4_U+30FC 1
370
     0
100
AcDbVertex
100
AcDb2dVertex
 10
89.21522621467537
 20
-115.0906493852898
 30
0.0
  0
VERTEX
  5
DD
330
DB
100
AcDbEntity
  8
_U+30EC_U+30A4_U+30E4_U+30FC 1
370
     0
100
AcDbVertex
100
AcDb2dVertex
 10
89.21522621467537
 20
-115.4375705006545
 30
0.0
  0
VERTEX
  5
DE
330
DB
100
AcDbEntity
  8
_U+30EC_U+30A4_U+30E4_U+30FC 1
370
     0
100
AcDbVertex
100
AcDb2dVertex
 10
88.99749618000757
 20
-115.4375705006545
 30
0.0
  0
VERTEX
  5
DF
330
DB
100
AcDbEntity
  8
_U+30EC_U+30A4_U+30E4_U+30FC 1
370
     0
100
AcDbVertex
100
AcDb2dVertex
 10
88.99749618000757
 20
-115.0906493852898
 30
0.0
  0
VERTEX
  5
E0
330
DB
100
AcDbEntity
  8
_U+30EC_U+30A4_U+30E4_U+30FC 1
370
     0
100
AcDbVertex
100
AcDb2dVertex
 10
88.341549999616
 20
-115.0906493852898
 30
0.0
  0
VERTEX
  5
E1
330
DB
100
AcDbEntity
  8
_U+30EC_U+30A4_U+30E4_U+30FC 1
370
     0
100
AcDbVertex
100
AcDb2dVertex
 10
88.341549999616
 20
-114.8663736692001
 30
0.0
  0
VERTEX
  5
E2
330
DB
100
AcDbEntity
  8
_U+30EC_U+30A4_U+30E4_U+30FC 1
370
     0
100
AcDbVertex
100
AcDb2dVertex
 10
89.02057831975876
 20
-113.893134194617
 30
0.0
  0
VERTEX
  5
E3
330
DB
100
AcDbEntity
  8
_U+30EC_U+30A4_U+30E4_U+30FC 1
370
     0
100
AcDbVertex
100
AcDb2dVertex
 10
89.21522621467537
 20
-113.893134194617
 30
0.0
  0
VERTEX
  5
E4
330
DB
100
AcDbEntity
  8
_U+30EC_U+30A4_U+30E4_U+30FC 1
370
     0
100
AcDbVertex
100
AcDb2dVertex
 10
89.21522621467537
 20
-114.8918673757909
 30
0.0
  0
VERTEX
  5
E5
330
DB
100
AcDbEntity
  8
_U+30EC_U+30A4_U+30E4_U+30FC 1
370
     0
100
AcDbVertex
100
AcDb2dVertex
 10
89.42262096288741
 20
-114.8918673757909
 30
0.0
  0
VERTEX
  5
E6
330
DB
100
AcDbEntity
  8
_U+30EC_U+30A4_U+30E4_U+30FC 1
370
     0
100
AcDbVertex
100
AcDb2dVertex
 10
89.42262096288741
 20
-115.0906493852898
 30
0.0
  0
VERTEX
  5
E7
330
DB
100
AcDbEntity
  8
_U+30EC_U+30A4_U+30E4_U+30FC 1
370
     0
100
AcDbVertex
100
AcDb2dVertex
 10
89.21522621467537
 20
-115.0906493852898
 30
0.0
  0
SEQEND
  5
E8
330
DB
100
AcDbEntity
  8
_U+30EC_U+30A4_U+30E4_U+30FC 1
370
     0
  0
POLYLINE
  5
E9
330
D7
100
AcDbEntity
  8
_U+30EC_U+30A4_U+30E4_U+30FC 1
370
     0
100
AcDb2dPolyline
 66
     1
 10
0.0
 20
0.0
 30
0.0
  0
VERTEX
  5
EA
330
E9
100
AcDbEntity
  8
_U+30EC_U+30A4_U+30E4_U+30FC 1
370
     0
100
AcDbVertex
100
AcDb2dVertex
 10
88.99749618000757
 20
-114.2359211953994
 30
0.0
  0
VERTEX
  5
EB
330
E9
100
AcDbEntity
  8
_U+30EC_U+30A4_U+30E4_U+30FC 1
370
     0
100
AcDbVertex
100
AcDb2dVertex
 10
88.54033200911492
 20
-114.8918673757909
 30
0.0
  0
VERTEX
  5
EC
330
E9
100
AcDbEntity
  8
_U+30EC_U+30A4_U+30E4_U+30FC 1
370
     0
100
AcDbVertex
100
AcDb2dVertex
 10
88.99749618000757
 20
-114.8918673757909
 30
0.0
  0
VERTEX
  5
ED
330
E9
100
AcDbEntity
  8
_U+30EC_U+30A4_U+30E4_U+30FC 1
370
     0
100
AcDbVertex
100
AcDb2dVertex
 10
88.99749618000757
 20
-114.2359211953994
 30
0.0
  0
SEQEND
  5
EE
330
E9
100
AcDbEntity
  8
_U+30EC_U+30A4_U+30E4_U+30FC 1
370
     0
  0
HATCH
  5
EF
330
D7
100
AcDbEntity
  8
_U+30EC_U+30A4_U+30E4_U+30FC 1
 62
   179
420
  2234388
100
AcDbHatch
 10
0.0
 20
0.0
 30
0.0
210
0.0
220
0.0
230
1.0
  2
SOLID
 70
     1
 71
     0
 91
        2
 92
        1
 93
       11
 72
     1
 10
89.21522621467537
 20
-115.0906493852898
 11
89.21522621467537
 21
-115.4375705006545
 72
     1
 10
89.21522621467537
 20
-115.4375705006545
 11
88.99749618000757
 21
-115.4375705006545
 72
     1
 10
88.99749618000757
 20
-115.4375705006545
 11
88.99749618000757
 21
-115.0906493852898
 72
     1
 10
88.99749618000757
 20
-115.0906493852898
 11
88.341549999616
 21
-115.0906493852898
 72
     1
 10
88.341549999616
 20
-115.0906493852898
 11
88.341549999616
 21
-114.8663736692001
 72
     1
 10
88.341549999616
 20
-114.8663736692001
 11
89.02057831975876
 21
-113.893134194617
 72
     1
 10
89.02057831975876
 20
-113.893134194617
 11
89.21522621467537
 21
-113.893134194617
 72
     1
 10
89.21522621467537
 20
-113.893134194617
 11
89.21522621467537
 21
-114.8918673757909
 72
     1
 10
89.21522621467537
 20
-114.8918673757909
 11
89.42262096288741
 21
-114.8918673757909
 72
     1
 10
89.42262096288741
 20
-114.8918673757909
 11
89.42262096288741
 21
-115.0906493852898
 72
     1
 10
89.42262096288741
 20
-115.0906493852898
 11
89.21522621467537
 21
-115.0906493852898
 97
        0
 92
        1
 93
        3
 72
     1
 10
88.99749618000757
 20
-114.2359211953994
 11
88.54033200911492
 21
-114.8918673757909
 72
     1
 10
88.54033200911492
 20
-114.8918673757909
 11
88.99749618000757
 21
-114.8918673757909
 72
     1
 10
88.99749618000757
 20
-114.8918673757909
 11
88.99749618000757
 21
-114.2359211953994
 97
        0
 75
     2
 76
     1
 98
        0
  0
SPLINE
  5
F0
330
D7
100
AcDbEntity
  8
_U+30EC_U+30A4_U+30E4_U+30FC 1
370
     0
100
AcDbSpline
210
0.0
220
0.0
230
1.0
 70
    11
 71
     3
 72
    29
 73
    25
 74
     0
 42
0.0000000001
 43
0.0000000001
 12
1.0
 22
0.0
 32
0.0
 13
1.0
 23
0.0
 33
0.0
 40
0.0
 40
0.0
 40
0.0
 40
0.0
 40
1.0
 40
1.0
 40
1.0
 40
2.0
 40
2.0
 40
2.0
 40
3.0
 40
3.0
 40
3.0
 40
4.0
 40
4.0
 40
4.0
 40
5.0
 40
5.0
 40
5.0
 40
6.0
 40
6.0
 40
6.0
 40
7.0
 40
7.0
 40
7.0
 40
8.0
 40
8.0
 40
8.0
 40
8.0
 10
90.45787215620499
 20
-115.2598035736156
 30
0.0
 10
90.34969615796814
 20
-115.4692653791188
 30
0.0
 10
90.17640785506006
 20
-115.4882134042877
 30
0.0
 10
90.05996362765862
 20
-115.4882134042877
 30
0.0
 10
89.89907766849745
 20
-115.4882134042877
 30
0.0
 10
89.75748424405369
 20
-115.4417046152368
 30
0.0
 10
89.66239960866079
 20
-115.2598035736156
 30
0.0
 10
89.55870223455477
 20
-115.065155678699
 30
0.0
 10
89.53940969983738
 20
-114.8281331093138
 30
0.0
 10
89.53940969983738
 20
-114.66552460241
 30
0.0
 10
89.53940969983738
 20
-114.5215196111266
 30
0.0
 10
89.55663517726363
 20
-114.2696831311548
 30
0.0
 10
89.66239960866079
 20
-114.0709011216559
 30
0.0
 10
89.77023109734911
 20
-113.8679849975747
 30
0.0
 10
89.93111705651027
 20
-113.844558348275
 30
0.0
 10
90.05996362765862
 20
-113.844558348275
 30
0.0
 10
90.21878252952864
 20
-113.844558348275
 30
0.0
 10
90.36244301126357
 20
-113.8890000800347
 30
0.0
 10
90.45787215620499
 20
-114.0709011216559
 30
0.0
 10
90.55709090618018
 20
-114.2634819592813
 30
0.0
 10
90.58051755547987
 20
-114.4918917899534
 30
0.0
 10
90.58051755547987
 20
-114.66552460241
 30
0.0
 10
90.58051755547987
 20
-114.8367458480269
 30
0.0
 10
90.55915796347132
 20
-115.0672227359901
 30
0.0
 10
90.45787215620499
 20
-115.2598035736156
 30
0.0
  0
SPLINE
  5
F1
330
D7
100
AcDbEntity
  8
_U+30EC_U+30A4_U+30E4_U+30FC 1
370
     0
100
AcDbSpline
210
0.0
220
0.0
230
1.0
 70
    11
 71
     3
 72
    17
 73
    13
 74
     0
 42
0.0000000001
 43
0.0000000001
 12
1.0
 22
0.0
 32
0.0
 13
1.0
 23
0.0
 33
0.0
 40
0.0
 40
0.0
 40
0.0
 40
0.0
 40
1.0
 40
1.0
 40
1.0
 40
2.0
 40
2.0
 40
2.0
 40
3.0
 40
3.0
 40
3.0
 40
4.0
 40
4.0
 40
4.0
 40
4.0
 10
90.05996362765862
 20
-114.0371391859004
 30
0.0
 10
89.81019420497802
 20
-114.0371391859004
 30
0.0
 10
89.76368541592714
 20
-114.3206705443365
 30
0.0
 10
89.76368541592714
 20
-114.66552460241
 30
0.0
 10
89.76368541592714
 20
-114.9848849538927
 30
0.0
 10
89.79985891852226
 20
-115.2935655093711
 30
0.0
 10
90.05996362765862
 20
-115.2935655093711
 30
0.0
 10
90.30766599304809
 20
-115.2935655093711
 30
0.0
 10
90.35624183939011
 20
-115.0124457177747
 30
0.0
 10
90.35624183939011
 20
-114.66552460241
 30
0.0
 10
90.35624183939011
 20
-114.3458197413788
 30
0.0
 10
90.31800127950383
 20
-114.0371391859004
 30
0.0
 10
90.05996362765862
 20
-114.0371391859004
 30
0.0
  0
HATCH
  5
F2
330
D7
100
AcDbEntity
  8
_U+30EC_U+30A4_U+30E4_U+30FC 1
 62
   179
420
  2234388
100
AcDbHatch
 10
0.0
 20
0.0
 30
0.0
210
0.0
220
0.0
230
1.0
  2
SOLID
 70
     1
 71
     0
 91
        2
 92
        1
 93
        1
 72
     4
 94
        3
 73
     0
 74
     1
 95
       29
 96
       25
 40
0.0
 40
0.0
 40
0.0
 40
0.0
 40
1.0
 40
1.0
 40
1.0
 40
2.0
 40
2.0
 40
2.0
 40
3.0
 40
3.0
 40
3.0
 40
4.0
 40
4.0
 40
4.0
 40
5.0
 40
5.0
 40
5.0
 40
6.0
 40
6.0
 40
6.0
 40
7.0
 40
7.0
 40
7.0
 40
8.0
 40
8.0
 40
8.0
 40
8.0
 10
90.45787215620499
 20
-115.2598035736156
 10
90.34969615796814
 20
-115.4692653791188
 10
90.17640785506006
 20
-115.4882134042877
 10
90.05996362765862
 20
-115.4882134042877
 10
89.89907766849745
 20
-115.4882134042877
 10
89.75748424405369
 20
-115.4417046152368
 10
89.66239960866079
 20
-115.2598035736156
 10
89.55870223455477
 20
-115.065155678699
 10
89.53940969983738
 20
-114.8281331093138
 10
89.53940969983738
 20
-114.66552460241
 10
89.53940969983738
 20
-114.5215196111266
 10
89.55663517726363
 20
-114.2696831311548
 10
89.66239960866079
 20
-114.0709011216559
 10
89.77023109734911
 20
-113.8679849975747
 10
89.93111705651027
 20
-113.844558348275
 10
90.05996362765862
 20
-113.844558348275
 10
90.21878252952864
 20
-113.844558348275
 10
90.36244301126357
 20
-113.8890000800347
 10
90.45787215620499
 20
-114.0709011216559
 10
90.55709090618018
 20
-114.2634819592813
 10
90.58051755547987
 20
-114.4918917899534
 10
90.58051755547987
 20
-114.66552460241
 10
90.58051755547987
 20
-114.8367458480269
 10
90.55915796347132
 20
-115.0672227359901
 10
90.45787215620499
 20
-115.2598035736156
 97
        0
 97
        0
 92
        1
 93
        1
 72
     4
 94
        3
 73
     0
 74
     1
 95
       17
 96
       13
 40
0.0
 40
0.0
 40
0.0
 40
0.0
 40
1.0
 40
1.0
 40
1.0
 40
2.0
 40
2.0
 40
2.0
 40
3.0
 40
3.0
 40
3.0
 40
4.0
 40
4.0
 40
4.0
 40
4.0
 10
90.05996362765862
 20
-114.0371391859004
 10
89.81019420497802
 20
-114.0371391859004
 10
89.76368541592714
 20
-114.3206705443365
 10
89.76368541592714
 20
-114.66552460241
 10
89.76368541592714
 20
-114.9848849538927
 10
89.79985891852226
 20
-115.2935655093711
 10
90.05996362765862
 20
-115.2935655093711
 10
90.30766599304809
 20
-115.2935655093711
 10
90.35624183939011
 20
-115.0124457177747
 10
90.35624183939011
 20
-114.66552460241
 10
90.35624183939011
 20
-114.3458197413788
 10
90.31800127950383
 20
-114.0371391859004
 10
90.05996362765862
 20
-114.0371391859004
 97
        0
 97
        0
 75
     2
 76
     1
 98
        0
  0
ENDBLK
  5
DA
330
D7
100
AcDbEntity
  8
0
100
AcDbBlockEnd
  0
ENDSEC
  0
SECTION
  2
ENTITIES
  0
POLYLINE
  5
41
330
1F
100
AcDbEntity
  8
_U+30EC_U+30A4_U+30E4_U+30FC 1
370
     0
100
AcDb2dPolyline
 66
     1
 10
0.0
 20
0.0
 30
0.0
  0
VERTEX
  5
42
330
41
100
AcDbEntity
  8
_U+30EC_U+30A4_U+30E4_U+30FC 1
370
     0
100
AcDbVertex
100
AcDb2dVertex
 10
96.72069281022733
 20
-138.9355305208219
 30
0.0
  0
VERTEX
  5
43
330
41
100
AcDbEntity
  8
_U+30EC_U+30A4_U+30E4_U+30FC 1
370
     0
100
AcDbVertex
100
AcDb2dVertex
 10
96.72069281022733
 20
-136.7606555213653
 30
0.0
  0
VERTEX
  5
44
330
41
100
AcDbEntity
  8
_U+30EC_U+30A4_U+30E4_U+30FC 1
370
     0
100
AcDbVertex
100
AcDb2dVertex
 10
95.84393422148419
 20
-136.7606555213653
 30
0.0
  0
VERTEX
  5
45
330
41
100
AcDbEntity
  8
_U+30EC_U+30A4_U+30E4_U+30FC 1
370
     0
100
AcDbVertex
100
AcDb2dVertex
 10
95.84393422148419
 20
-138.0649455210394
 30
0.0
  0
VERTEX
  5
46
330
41
100
AcDbEntity
  8
_U+30EC_U+30A4_U+30E4_U+30FC 1
370
     0
100
AcDbVertex
100
AcDb2dVertex
 10
89.90629631741041
 20
-138.0649455210394
 30
0.0
  0
VERTEX
  5
47
330
41
100
AcDbEntity
  8
_U+30EC_U+30A4_U+30E4_U+30FC 1
370
     0
100
AcDbVertex
100
AcDb2dVertex
 10
89.90629631741041
 20
-119.3618671923819
 30
0.0
  0
VERTEX
  5
48
330
41
100
AcDbEntity
  8
_U+30EC_U+30A4_U+30E4_U+30FC 1
370
     0
100
AcDbVertex
100
AcDb2dVertex
 10
103.9702406808315
 20
-119.3618671923819
 30
0.0
  0
VERTEX
  5
49
330
41
100
AcDbEntity
  8
_U+30EC_U+30A4_U+30E4_U+30FC 1
370
     0
100
AcDbVertex
100
AcDb2dVertex
 10
103.9702406808315
 20
-118.4909646925994
 30
0.0
  0
VERTEX
  5
4A
330
41
100
AcDbEntity
  8
_U+30EC_U+30A4_U+30E4_U+30FC 1
370
     0
100
AcDbVertex
100
AcDb2dVertex
 10
74.97183753175352
 20
-118.4909646925994
 30
0.0
  0
VERTEX
  5
4B
330
41
100
AcDbEntity
  8
_U+30EC_U+30A4_U+30E4_U+30FC 1
370
     0
100
AcDbVertex
100
AcDb2dVertex
 10
74.97183753175352
 20
-119.3618671923819
 30
0.0
  0
VERTEX
  5
4C
330
41
100
AcDbEntity
  8
_U+30EC_U+30A4_U+30E4_U+30FC 1
370
     0
100
AcDbVertex
100
AcDb2dVertex
 10
89.03641689515842
 20
-119.3618671923819
 30
0.0
  0
VERTEX
  5
4D
330
41
100
AcDbEntity
  8
_U+30EC_U+30A4_U+30E4_U+30FC 1
370
     0
100
AcDbVertex
100
AcDb2dVertex
 10
89.03641689515842
 20
-138.0649455210394
 30
0.0
  0
VERTEX
  5
4E
330
41
100
AcDbEntity
  8
_U+30EC_U+30A4_U+30E4_U+30FC 1
370
     0
100
AcDbVertex
100
AcDb2dVertex
 10
83.09189982459347
 20
-138.0649455210394
 30
0.0
  0
VERTEX
  5
4F
330
41
100
AcDbEntity
  8
_U+30EC_U+30A4_U+30E4_U+30FC 1
370
     0
100
AcDbVertex
100
AcDb2dVertex
 10
83.09189982459347
 20
-136.7606555213653
 30
0.0
  0
VERTEX
  5
50
330
41
100
AcDbEntity
  8
_U+30EC_U+30A4_U+30E4_U+30FC 1
370
     0
100
AcDbVertex
100
AcDb2dVertex
 10
82.22135012458082
 20
-136.7606555213653
 30
0.0
  0
VERTEX
  5
51
330
41
100
AcDbEntity
  8
_U+30EC_U+30A4_U+30E4_U+30FC 1
370
     0
100
AcDbVertex
100
AcDb2dVertex
 10
82.22135012458082
 20
-138.9355305208219
 30
0.0
  0
VERTEX
  5
52
330
41
100
AcDbEntity
  8
_U+30EC_U+30A4_U+30E4_U+30FC 1
370
     0
100
AcDbVertex
100
AcDb2dVertex
 10
96.72069281022733
 20
-138.9355305208219
 30
0.0
  0
SEQEND
  5
54
330
41
100
AcDbEntity
  8
_U+30EC_U+30A4_U+30E4_U+30FC 1
370
     0
  0
HATCH
  5
53
330
1F
100
AcDbEntity
  8
_U+30EC_U+30A4_U+30E4_U+30FC 1
 62
   253
420
 10066329
100
AcDbHatch
 10
0.0
 20
0.0
 30
0.0
210
0.0
220
0.0
230
1.0
  2
SOLID
 70
     1
 71
     0
 91
        1
 92
        1
 93
       16
 72
     1
 10
96.72069281022733
 20
-138.9355305208219
 11
96.72069281022733
 21
-136.7606555213653
 72
     1
 10
96.72069281022733
 20
-136.7606555213653
 11
95.8439342214842
 21
-136.7606555213653
 72
     1
 10
95.84393422148419
 20
-136.7606555213653
 11
95.84393422148419
 21
-138.0649455210394
 72
     1
 10
95.84393422148419
 20
-138.0649455210394
 11
89.9062963174104
 21
-138.0649455210394
 72
     1
 10
89.90629631741041
 20
-138.0649455210394
 11
89.90629631741041
 21
-119.3618671923819
 72
     1
 10
89.90629631741041
 20
-119.3618671923819
 11
103.9702406808315
 21
-119.3618671923819
 72
     1
 10
103.9702406808315
 20
-119.3618671923819
 11
103.9702406808315
 21
-118.4909646925994
 72
     1
 10
103.9702406808315
 20
-118.4909646925994
 11
74.97183753175352
 21
-118.4909646925994
 72
     1
 10
74.97183753175352
 20
-118.4909646925994
 11
74.97183753175352
 21
-119.3618671923819
 72
     1
 10
74.97183753175352
 20
-119.3618671923819
 11
89.03641689515842
 21
-119.3618671923819
 72
     1
 10
89.03641689515842
 20
-119.3618671923819
 11
89.03641689515842
 21
-138.0649455210394
 72
     1
 10
89.03641689515842
 20
-138.0649455210394
 11
83.09189982459347
 21
-138.0649455210394
 72
     1
 10
83.09189982459347
 20
-138.0649455210394
 11
83.09189982459347
 21
-136.7606555213653
 72
     1
 10
83.09189982459347
 20
-136.7606555213653
 11
82.22135012458082
 21
-136.7606555213653
 72
     1
 10
82.22135012458082
 20
-136.7606555213653
 11
82.22135012458082
 21
-138.9355305208219
 72
     1
 10
82.22135012458082
 20
-138.9355305208219
 11
96.72069281022733
 21
-138.9355305208219
 97
        0
 75
     2
 76
     1
 98
        0
  0
POLYLINE
  5
55
330
1F
100
AcDbEntity
  8
_U+30EC_U+30A4_U+30E4_U+30FC 1
 62
   179
420
  2234388
370
    25
100
AcDb2dPolyline
 66
     1
 10
0.0
 20
0.0
 30
0.0
  0
VERTEX
  5
56
330
55
100
AcDbEntity
  8
_U+30EC_U+30A4_U+30E4_U+30FC 1
 62
   179
420
  2234388
370
    25
100
AcDbVertex
100
AcDb2dVertex
 10
82.22135012458082
 20
-136.7606555213653
 30
0.0
  0
VERTEX
  5
57
330
55
100
AcDbEntity
  8
_U+30EC_U+30A4_U+30E4_U+30FC 1
 62
   179
420
  2234388
370
    25
100
AcDbVertex
100
AcDb2dVertex
 10
83.09189982459347
 20
-136.7606555213653
 30
0.0
  0
SEQEND
  5
58
330
55
100
AcDbEntity
  8
_U+30EC_U+30A4_U+30E4_U+30FC 1
 62
   179
420
  2234388
370
    25
  0
POLYLINE
  5
59
330
1F
100
AcDbEntity
  8
_U+30EC_U+30A4_U+30E4_U+30FC 1
 62
   179
420
  2234388
370
    25
100
AcDb2dPolyline
 66
     1
 10
0.0
 20
0.0
 30
0.0
  0
VERTEX
  5
5A
330
59
100
AcDbEntity
  8
_U+30EC_U+30A4_U+30E4_U+30FC 1
 62
   179
420
  2234388
370
    25
100
AcDbVertex
100
AcDb2dVertex
 10
95.84393422148419
 20
-136.7606555213653
 30
0.0
  0
VERTEX
  5
5B
330
59
100
AcDbEntity
  8
_U+30EC_U+30A4_U+30E4_U+30FC 1
 62
   179
420
  2234388
370
    25
100
AcDbVertex
100
AcDb2dVertex
 10
95.84393422148419
 20
-138.0649455210394
 30
0.0
  0
SEQEND
  5
5C
330
59
100
AcDbEntity
  8
_U+30EC_U+30A4_U+30E4_U+30FC 1
 62
   179
420
  2234388
370
    25
  0
POLYLINE
  5
5D
330
1F
100
AcDbEntity
  8
_U+30EC_U+30A4_U+30E4_U+30FC 1
 62
   179
420
  2234388
370
    25
100
AcDb2dPolyline
 66
     1
 10
0.0
 20
0.0
 30
0.0
  0
VERTEX
  5
5E
330
5D
100
AcDbEntity
  8
_U+30EC_U+30A4_U+30E4_U+30FC 1
 62
   179
420
  2234388
370
    25
100
AcDbVertex
100
AcDb2dVertex
 10
83.09189982459347
 20
-136.7606555213653
 30
0.0
  0
VERTEX
  5
5F
330
5D
100
AcDbEntity
  8
_U+30EC_U+30A4_U+30E4_U+30FC 1
 62
   179
420
  2234388
370
    25
100
AcDbVertex
100
AcDb2dVertex
 10
83.09189982459347
 20
-138.0649455210394
 30
0.0
  0
SEQEND
  5
60
330
5D
100
AcDbEntity
  8
_U+30EC_U+30A4_U+30E4_U+30FC 1
 62
   179
420
  2234388
370
    25
  0
POLYLINE
  5
61
330
1F
100
AcDbEntity
  8
_U+30EC_U+30A4_U+30E4_U+30FC 1
 62
   179
420
  2234388
370
    25
100
AcDb2dPolyline
 66
     1
 10
0.0
 20
0.0
 30
0.0
  0
VERTEX
  5
62
330
61
100
AcDbEntity
  8
_U+30EC_U+30A4_U+30E4_U+30FC 1
 62
   179
420
  2234388
370
    25
100
AcDbVertex
100
AcDb2dVertex
 10
89.90629631741041
 20
-138.0649455210394
 30
0.0
  0
VERTEX
  5
63
330
61
100
AcDbEntity
  8
_U+30EC_U+30A4_U+30E4_U+30FC 1
 62
   179
420
  2234388
370
    25
100
AcDbVertex
100
AcDb2dVertex
 10
95.84393422148419
 20
-138.0649455210394
 30
0.0
  0
SEQEND
  5
64
330
61
100
AcDbEntity
  8
_U+30EC_U+30A4_U+30E4_U+30FC 1
 62
   179
420
  2234388
370
    25
  0
POLYLINE
  5
65
330
1F
100
AcDbEntity
  8
_U+30EC_U+30A4_U+30E4_U+30FC 1
 62
   179
420
  2234388
370
    25
100
AcDb2dPolyline
 66
     1
 10
0.0
 20
0.0
 30
0.0
  0
VERTEX
  5
66
330
65
100
AcDbEntity
  8
_U+30EC_U+30A4_U+30E4_U+30FC 1
 62
   179
420
  2234388
370
    25
100
AcDbVertex
100
AcDb2dVertex
 10
83.09189982459347
 20
-138.0649455210394
 30
0.0
  0
VERTEX
  5
67
330
65
100
AcDbEntity
  8
_U+30EC_U+30A4_U+30E4_U+30FC 1
 62
   179
420
  2234388
370
    25
100
AcDbVertex
100
AcDb2dVertex
 10
89.03641689515842
 20
-138.0649455210394
 30
0.0
  0
SEQEND
  5
68
330
65
100
AcDbEntity
  8
_U+30EC_U+30A4_U+30E4_U+30FC 1
 62
   179
420
  2234388
370
    25
  0
POLYLINE
  5
69
330
1F
100
AcDbEntity
  8
_U+30EC_U+30A4_U+30E4_U+30FC 1
 62
   179
420
  2234388
370
    25
100
AcDb2dPolyline
 66
     1
 10
0.0
 20
0.0
 30
0.0
  0
VERTEX
  5
6A
330
69
100
AcDbEntity
  8
_U+30EC_U+30A4_U+30E4_U+30FC 1
 62
   179
420
  2234388
370
    25
100
AcDbVertex
100
AcDb2dVertex
 10
89.90629631741041
 20
-119.3608441368264
 30
0.0
  0
VERTEX
  5
6B
330
69
100
AcDbEntity
  8
_U+30EC_U+30A4_U+30E4_U+30FC 1
 62
   179
420
  2234388
370
    25
100
AcDbVertex
100
AcDb2dVertex
 10
103.9709109585922
 20
-119.3608441368264
 30
0.0
  0
SEQEND
  5
6C
330
69
100
AcDbEntity
  8
_U+30EC_U+30A4_U+30E4_U+30FC 1
 62
   179
420
  2234388
370
    25
  0
POLYLINE
  5
6D
330
1F
100
AcDbEntity
  8
_U+30EC_U+30A4_U+30E4_U+30FC 1
 62
   179
420
  2234388
370
    25
100
AcDb2dPolyline
 66
     1
 10
0.0
 20
0.0
 30
0.0
  0
VERTEX
  5
6E
330
6D
100
AcDbEntity
  8
_U+30EC_U+30A4_U+30E4_U+30FC 1
 62
   179
420
  2234388
370
    25
100
AcDbVertex
100
AcDb2dVertex
 10
74.9725078095142
 20
-119.3608441368264
 30
0.0
  0
VERTEX
  5
6F
330
6D
100
AcDbEntity
  8
_U+30EC_U+30A4_U+30E4_U+30FC 1
 62
   179
420
  2234388
370
    25
100
AcDbVertex
100
AcDb2dVertex
 10
89.03641689515842
 20
-119.3608441368264
 30
0.0
  0
SEQEND
  5
70
330
6D
100
AcDbEntity
  8
_U+30EC_U+30A4_U+30E4_U+30FC 1
 62
   179
420
  2234388
370
    25
  0
POLYLINE
  5
71
330
1F
100
AcDbEntity
  8
_U+30EC_U+30A4_U+30E4_U+30FC 1
 62
   179
420
  2234388
370
    25
100
AcDb2dPolyline
 66
     1
 10
0.0
 20
0.0
 30
0.0
  0
VERTEX
  5
72
330
71
100
AcDbEntity
  8
_U+30EC_U+30A4_U+30E4_U+30FC 1
 62
   179
420
  2234388
370
    25
100
AcDbVertex
100
AcDb2dVertex
 10
82.22237318011028
 20
-136.7599499658098
 30
0.0
  0
VERTEX
  5
73
330
71
100
AcDbEntity
  8
_U+30EC_U+30A4_U+30E4_U+30FC 1
 62
   179
420
  2234388
370
    25
100
AcDbVertex
100
AcDb2dVertex
 10
82.22237318011028
 20
-138.9348602430439
 30
0.0
  0
SEQEND
  5
74
330
71
100
AcDbEntity
  8
_U+30EC_U+30A4_U+30E4_U+30FC 1
 62
   179
420
  2234388
370
    25
  0
POLYLINE
  5
75
330
1F
100
AcDbEntity
  8
_U+30EC_U+30A4_U+30E4_U+30FC 1
 62
   179
420
  2234388
370
    25
100
AcDb2dPolyline
 66
     1
 10
0.0
 20
0.0
 30
0.0
  0
VERTEX
  5
76
330
75
100
AcDbEntity
  8
_U+30EC_U+30A4_U+30E4_U+30FC 1
 62
   179
420
  2234388
370
    25
100
AcDbVertex
100
AcDb2dVertex
 10
96.72139836576488
 20
-136.7599499658098
 30
0.0
  0
VERTEX
  5
77
330
75
100
AcDbEntity
  8
_U+30EC_U+30A4_U+30E4_U+30FC 1
 62
   179
420
  2234388
370
    25
100
AcDbVertex
100
AcDb2dVertex
 10
96.72139836576488
 20
-138.9348602430439
 30
0.0
  0
SEQEND
  5
78
330
75
100
AcDbEntity
  8
_U+30EC_U+30A4_U+30E4_U+30FC 1
 62
   179
420
  2234388
370
    25
  0
POLYLINE
  5
79
330
1F
100
AcDbEntity
  8
_U+30EC_U+30A4_U+30E4_U+30FC 1
 62
   179
420
  2234388
370
    25
100
AcDb2dPolyline
 66
     1
 10
0.0
 20
0.0
 30
0.0
  0
VERTEX
  5
7A
330
79
100
AcDbEntity
  8
_U+30EC_U+30A4_U+30E4_U+30FC 1
 62
   179
420
  2234388
370
    25
100
AcDbVertex
100
AcDb2dVertex
 10
103.9709109585922
 20
-118.4909646925994
 30
0.0
  0
VERTEX
  5
7B
330
79
100
AcDbEntity
  8
_U+30EC_U+30A4_U+30E4_U+30FC 1
 62
   179
420
  2234388
370
    25
100
AcDbVertex
100
AcDb2dVertex
 10
103.9709109585922
 20
-119.3608441368264
 30
0.0
  0
SEQEND
  5
7C
330
79
100
AcDbEntity
  8
_U+30EC_U+30A4_U+30E4_U+30FC 1
 62
   179
420
  2234388
370
    25
  0
POLYLINE
  5
7D
330
1F
100
AcDbEntity
  8
_U+30EC_U+30A4_U+30E4_U+30FC 1
 62
   179
420
  2234388
370
    25
100
AcDb2dPolyline
 66
     1
 10
0.0
 20
0.0
 30
0.0
  0
VERTEX
  5
7E
330
7D
100
AcDbEntity
  8
_U+30EC_U+30A4_U+30E4_U+30FC 1
 62
   179
420
  2234388
370
    25
100
AcDbVertex
100
AcDb2dVertex
 10
74.9725078095142
 20
-118.4909646925994
 30
0.0
  0
VERTEX
  5
7F
330
7D
100
AcDbEntity
  8
_U+30EC_U+30A4_U+30E4_U+30FC 1
 62
   179
420
  2234388
370
    25
100
AcDbVertex
100
AcDb2dVertex
 10
74.9725078095142
 20
-119.3608441368264
 30
0.0
  0
SEQEND
  5
80
330
7D
100
AcDbEntity
  8
_U+30EC_U+30A4_U+30E4_U+30FC 1
 62
   179
420
  2234388
370
    25
  0
POLYLINE
  5
81
330
1F
100
AcDbEntity
  8
_U+30EC_U+30A4_U+30E4_U+30FC 1
 62
   179
420
  2234388
370
    25
100
AcDb2dPolyline
 66
     1
 10
0.0
 20
0.0
 30
0.0
  0
VERTEX
  5
82
330
81
100
AcDbEntity
  8
_U+30EC_U+30A4_U+30E4_U+30FC 1
 62
   179
420
  2234388
370
    25
100
AcDbVertex
100
AcDb2dVertex
 10
89.90629631741041
 20
-119.3608441368264
 30
0.0
  0
VERTEX
  5
83
330
81
100
AcDbEntity
  8
_U+30EC_U+30A4_U+30E4_U+30FC 1
 62
   179
420
  2234388
370
    25
100
AcDbVertex
100
AcDb2dVertex
 10
89.90629631741041
 20
-138.0649455210394
 30
0.0
  0
SEQEND
  5
84
330
81
100
AcDbEntity
  8
_U+30EC_U+30A4_U+30E4_U+30FC 1
 62
   179
420
  2234388
370
    25
  0
POLYLINE
  5
85
330
1F
100
AcDbEntity
  8
_U+30EC_U+30A4_U+30E4_U+30FC 1
 62
   179
420
  2234388
370
    25
100
AcDb2dPolyline
 66
     1
 10
0.0
 20
0.0
 30
0.0
  0
VERTEX
  5
86
330
85
100
AcDbEntity
  8
_U+30EC_U+30A4_U+30E4_U+30FC 1
 62
   179
420
  2234388
370
    25
100
AcDbVertex
100
AcDb2dVertex
 10
89.03641689515842
 20
-119.3608441368264
 30
0.0
  0
VERTEX
  5
87
330
85
100
AcDbEntity
  8
_U+30EC_U+30A4_U+30E4_U+30FC 1
 62
   179
420
  2234388
370
    25
100
AcDbVertex
100
AcDb2dVertex
 10
89.03641689515842
 20
-138.0649455210394
 30
0.0
  0
SEQEND
  5
88
330
85
100
AcDbEntity
  8
_U+30EC_U+30A4_U+30E4_U+30FC 1
 62
   179
420
  2234388
370
    25
  0
POLYLINE
  5
89
330
1F
100
AcDbEntity
  8
_U+30EC_U+30A4_U+30E4_U+30FC 1
 62
   179
420
  2234388
370
    25
100
AcDb2dPolyline
 66
     1
 10
0.0
 20
0.0
 30
0.0
  0
VERTEX
  5
8A
330
89
100
AcDbEntity
  8
_U+30EC_U+30A4_U+30E4_U+30FC 1
 62
   179
420
  2234388
370
    25
100
AcDbVertex
100
AcDb2dVertex
 10
82.22237318011028
 20
-138.9348602430439
 30
0.0
  0
VERTEX
  5
8B
330
89
100
AcDbEntity
  8
_U+30EC_U+30A4_U+30E4_U+30FC 1
 62
   179
420
  2234388
370
    25
100
AcDbVertex
100
AcDb2dVertex
 10
96.72139836576488
 20
-138.9348602430439
 30
0.0
  0
SEQEND
  5
8C
330
89
100
AcDbEntity
  8
_U+30EC_U+30A4_U+30E4_U+30FC 1
 62
   179
420
  2234388
370
    25
  0
POLYLINE
  5
8D
330
1F
100
AcDbEntity
  8
_U+30EC_U+30A4_U+30E4_U+30FC 1
 62
   179
420
  2234388
370
    25
100
AcDb2dPolyline
 66
     1
 10
0.0
 20
0.0
 30
0.0
  0
VERTEX
  5
8E
330
8D
100
AcDbEntity
  8
_U+30EC_U+30A4_U+30E4_U+30FC 1
 62
   179
420
  2234388
370
    25
100
AcDbVertex
100
AcDb2dVertex
 10
74.9725078095142
 20
-118.4909646925994
 30
0.0
  0
VERTEX
  5
8F
330
8D
100
AcDbEntity
  8
_U+30EC_U+30A4_U+30E4_U+30FC 1
 62
   179
420
  2234388
370
    25
100
AcDbVertex
100
AcDb2dVertex
 10
103.9709109585922
 20
-118.4909646925994
 30
0.0
  0
SEQEND
  5
90
330
8D
100
AcDbEntity
  8
_U+30EC_U+30A4_U+30E4_U+30FC 1
 62
   179
420
  2234388
370
    25
  0
POLYLINE
  5
91
330
1F
100
AcDbEntity
  8
_U+30EC_U+30A4_U+30E4_U+30FC 1
 62
   179
420
  2234388
370
    25
100
AcDb2dPolyline
 66
     1
 10
0.0
 20
0.0
 30
0.0
  0
VERTEX
  5
92
330
91
100
AcDbEntity
  8
_U+30EC_U+30A4_U+30E4_U+30FC 1
 62
   179
420
  2234388
370
    25
100
AcDbVertex
100
AcDb2dVertex
 10
95.84393422148419
 20
-136.7599499658098
 30
0.0
  0
VERTEX
  5
93
330
91
100
AcDbEntity
  8
_U+30EC_U+30A4_U+30E4_U+30FC 1
 62
   179
420
  2234388
370
    25
100
AcDbVertex
100
AcDb2dVertex
 10
96.72139836576488
 20
-136.7599499658098
 30
0.0
  0
SEQEND
  5
94
330
91
100
AcDbEntity
  8
_U+30EC_U+30A4_U+30E4_U+30FC 1
 62
   179
420
  2234388
370
    25
  0
POLYLINE
  5
95
330
1F
100
AcDbEntity
  8
_U+30EC_U+30A4_U+30E4_U+30FC 1
 62
   179
420
  2234388
370
     9
100
AcDb2dPolyline
 66
     1
 10
0.0
 20
0.0
 30
0.0
  0
VERTEX
  5
96
330
95
100
AcDbEntity
  8
_U+30EC_U+30A4_U+30E4_U+30FC 1
 62
   179
420
  2234388
370
     9
100
AcDbVertex
100
AcDb2dVertex
 10
74.9725078095142
 20
-117.3309960817784
 30
0.0
  0
VERTEX
  5
97
330
95
100
AcDbEntity
  8
_U+30EC_U+30A4_U+30E4_U+30FC 1
 62
   179
420
  2234388
370
     9
100
AcDbVertex
100
AcDb2dVertex
 10
74.9725078095142
 20
-114.9363052490438
 30
0.0
  0
SEQEND
  5
98
330
95
100
AcDbEntity
  8
_U+30EC_U+30A4_U+30E4_U+30FC 1
 62
   179
420
  2234388
370
     9
  0
POLYLINE
  5
99
330
1F
100
AcDbEntity
  8
_U+30EC_U+30A4_U+30E4_U+30FC 1
 62
   179
420
  2234388
370
     9
100
AcDb2dPolyline
 66
     1
 10
0.0
 20
0.0
 30
0.0
  0
VERTEX
  5
9A
330
99
100
AcDbEntity
  8
_U+30EC_U+30A4_U+30E4_U+30FC 1
 62
   179
420
  2234388
370
     9
100
AcDbVertex
100
AcDb2dVertex
 10
97.26711029628706
 20
-138.9348602430439
 30
0.0
  0
VERTEX
  5
9B
330
99
100
AcDbEntity
  8
_U+30EC_U+30A4_U+30E4_U+30FC 1
 62
   179
420
  2234388
370
     9
100
AcDbVertex
100
AcDb2dVertex
 10
106.9230258832775
 20
-138.9348602430439
 30
0.0
  0
SEQEND
  5
9C
330
99
100
AcDbEntity
  8
_U+30EC_U+30A4_U+30E4_U+30FC 1
 62
   179
420
  2234388
370
     9
  0
POLYLINE
  5
9D
330
1F
100
AcDbEntity
  8
_U+30EC_U+30A4_U+30E4_U+30FC 1
 62
   179
420
  2234388
370
     9
100
AcDb2dPolyline
 66
     1
 10
0.0
 20
0.0
 30
0.0
  0
VERTEX
  5
9E
330
9D
100
AcDbEntity
  8
_U+30EC_U+30A4_U+30E4_U+30FC 1
 62
   179
420
  2234388
370
     9
100
AcDbVertex
100
AcDb2dVertex
 10
104.5744784431939
 20
-119.3132896923939
 30
0.0
  0
VERTEX
  5
9F
330
9D
100
AcDbEntity
  8
_U+30EC_U+30A4_U+30E4_U+30FC 1
 62
   179
420
  2234388
370
     9
100
AcDbVertex
100
AcDb2dVertex
 10
106.9230258832775
 20
-119.3132896923939
 30
0.0
  0
SEQEND
  5
A0
330
9D
100
AcDbEntity
  8
_U+30EC_U+30A4_U+30E4_U+30FC 1
 62
   179
420
  2234388
370
     9
  0
POLYLINE
  5
A1
330
1F
100
AcDbEntity
  8
_U+30EC_U+30A4_U+30E4_U+30FC 1
 62
   179
420
  2234388
370
     9
100
AcDb2dPolyline
 66
     1
 10
0.0
 20
0.0
 30
0.0
  0
VERTEX
  5
A2
330
A1
100
AcDbEntity
  8
_U+30EC_U+30A4_U+30E4_U+30FC 1
 62
   179
420
  2234388
370
     9
100
AcDbVertex
100
AcDb2dVertex
 10
106.0190328507847
 20
-136.7606555213653
 30
0.0
  0
VERTEX
  5
A3
330
A1
100
AcDbEntity
  8
_U+30EC_U+30A4_U+30E4_U+30FC 1
 62
   179
420
  2234388
370
     9
100
AcDbVertex
100
AcDb2dVertex
 10
106.0190328507847
 20
-138.9348602430439
 30
0.0
  0
SEQEND
  5
A4
330
A1
100
AcDbEntity
  8
_U+30EC_U+30A4_U+30E4_U+30FC 1
 62
   179
420
  2234388
370
     9
  0
POLYLINE
  5
A5
330
1F
100
AcDbEntity
  8
_U+30EC_U+30A4_U+30E4_U+30FC 1
 62
   179
420
  2234388
370
     9
100
AcDb2dPolyline
 66
     1
 10
0.0
 20
0.0
 30
0.0
  0
VERTEX
  5
A6
330
A5
100
AcDbEntity
  8
_U+30EC_U+30A4_U+30E4_U+30FC 1
 62
   179
420
  2234388
370
     9
100
AcDbVertex
100
AcDb2dVertex
 10
97.26711029628706
 20
-136.7606555213653
 30
0.0
  0
VERTEX
  5
A7
330
A5
100
AcDbEntity
  8
_U+30EC_U+30A4_U+30E4_U+30FC 1
 62
   179
420
  2234388
370
     9
100
AcDbVertex
100
AcDb2dVertex
 10
106.9230258832775
 20
-136.7606555213653
 30
0.0
  0
SEQEND
  5
A8
330
A5
100
AcDbEntity
  8
_U+30EC_U+30A4_U+30E4_U+30FC 1
 62
   179
420
  2234388
370
     9
  0
POLYLINE
  5
A9
330
1F
100
AcDbEntity
  8
_U+30EC_U+30A4_U+30E4_U+30FC 1
 62
   179
420
  2234388
370
     9
100
AcDb2dPolyline
 66
     1
 10
0.0
 20
0.0
 30
0.0
  0
VERTEX
  5
AA
330
A9
100
AcDbEntity
  8
_U+30EC_U+30A4_U+30E4_U+30FC 1
 62
   179
420
  2234388
370
     9
100
AcDbVertex
100
AcDb2dVertex
 10
97.26711029628706
 20
-136.7606555213653
 30
0.0
  0
VERTEX
  5
AB
330
A9
100
AcDbEntity
  8
_U+30EC_U+30A4_U+30E4_U+30FC 1
 62
   179
420
  2234388
370
     9
100
AcDbVertex
100
AcDb2dVertex
 10
106.9230258832775
 20
-136.7606555213653
 30
0.0
  0
SEQEND
  5
AC
330
A9
100
AcDbEntity
  8
_U+30EC_U+30A4_U+30E4_U+30FC 1
 62
   179
420
  2234388
370
     9
  0
INSERT
  5
AE
330
1F
100
AcDbEntity
  8
_U+30EC_U+30A4_U+30E4_U+30FC 1
100
AcDbBlockReference
  2
block 2
 10
0.0
 20
0.0
 30
0.0
  0
INSERT
  5
C9
330
1F
100
AcDbEntity
  8
_U+30EC_U+30A4_U+30E4_U+30FC 1
100
AcDbBlockReference
  2
block 3
 10
0.0
 20
0.0
 30
0.0
  0
INSERT
  5
CF
330
1F
100
AcDbEntity
  8
_U+30EC_U+30A4_U+30E4_U+30FC 1
100
AcDbBlockReference
  2
block 4
 10
0.0
 20
0.0
 30
0.0
  0
INSERT
  5
D8
330
1F
100
AcDbEntity
  8
_U+30EC_U+30A4_U+30E4_U+30FC 1
100
AcDbBlockReference
  2
block 5
 10
0.0
 20
0.0
 30
0.0
  0
POLYLINE
  5
F3
330
1F
100
AcDbEntity
  8
_U+30EC_U+30A4_U+30E4_U+30FC 1
 62
   179
420
  2234388
370
     9
100
AcDb2dPolyline
 66
     1
 10
0.0
 20
0.0
 30
0.0
  0
VERTEX
  5
F4
330
F3
100
AcDbEntity
  8
_U+30EC_U+30A4_U+30E4_U+30FC 1
 62
   179
420
  2234388
370
     9
100
AcDbVertex
100
AcDb2dVertex
 10
106.0190328507847
 20
-119.3618671923819
 30
0.0
  0
VERTEX
  5
F5
330
F3
100
AcDbEntity
  8
_U+30EC_U+30A4_U+30E4_U+30FC 1
 62
   179
420
  2234388
370
     9
100
AcDbVertex
100
AcDb2dVertex
 10
106.0190328507847
 20
-136.7606555213653
 30
0.0
  0
SEQEND
  5
F6
330
F3
100
AcDbEntity
  8
_U+30EC_U+30A4_U+30E4_U+30FC 1
 62
   179
420
  2234388
370
     9
  0
POLYLINE
  5
F7
330
1F
100
AcDbEntity
  8
_U+30EC_U+30A4_U+30E4_U+30FC 1
 62
   179
420
  2234388
370
     9
100
AcDb2dPolyline
 66
     1
 10
0.0
 20
0.0
 30
0.0
  0
VERTEX
  5
F8
330
F7
100
AcDbEntity
  8
_U+30EC_U+30A4_U+30E4_U+30FC 1
 62
   179
420
  2234388
370
     9
100
AcDbVertex
100
AcDb2dVertex
 10
96.72069281022733
 20
-140.5013346870972
 30
0.0
  0
VERTEX
  5
F9
330
F7
100
AcDbEntity
  8
_U+30EC_U+30A4_U+30E4_U+30FC 1
 62
   179
420
  2234388
370
     9
100
AcDbVertex
100
AcDb2dVertex
 10
96.72069281022733
 20
-143.5209713530085
 30
0.0
  0
SEQEND
  5
FA
330
F7
100
AcDbEntity
  8
_U+30EC_U+30A4_U+30E4_U+30FC 1
 62
   179
420
  2234388
370
     9
  0
POLYLINE
  5
FB
330
1F
100
AcDbEntity
  8
_U+30EC_U+30A4_U+30E4_U+30FC 1
 62
   179
420
  2234388
370
     9
100
AcDb2dPolyline
 66
     1
 10
0.0
 20
0.0
 30
0.0
  0
VERTEX
  5
FC
330
FB
100
AcDbEntity
  8
_U+30EC_U+30A4_U+30E4_U+30FC 1
 62
   179
420
  2234388
370
     9
100
AcDbVertex
100
AcDb2dVertex
 10
82.22135012458082
 20
-142.5852635754649
 30
0.0
  0
VERTEX
  5
FD
330
FB
100
AcDbEntity
  8
_U+30EC_U+30A4_U+30E4_U+30FC 1
 62
   179
420
  2234388
370
     9
100
AcDbVertex
100
AcDb2dVertex
 10
96.72069281022733
 20
-142.5852635754649
 30
0.0
  0
SEQEND
  5
FE
330
FB
100
AcDbEntity
  8
_U+30EC_U+30A4_U+30E4_U+30FC 1
 62
   179
420
  2234388
370
     9
  0
POLYLINE
  5
FF
330
1F
100
AcDbEntity
  8
_U+30EC_U+30A4_U+30E4_U+30FC 1
 62
   179
420
  2234388
370
     9
100
AcDb2dPolyline
 66
     1
 10
0.0
 20
0.0
 30
0.0
  0
VERTEX
  5
100
330
FF
100
AcDbEntity
  8
_U+30EC_U+30A4_U+30E4_U+30FC 1
 62
   179
420
  2234388
370
     9
100
AcDbVertex
100
AcDb2dVertex
 10
82.22135012458082
 20
-140.5013346870972
 30
0.0
  0
VERTEX
  5
101
330
FF
100
AcDbEntity
  8
_U+30EC_U+30A4_U+30E4_U+30FC 1
 62
   179
420
  2234388
370
     9
100
AcDbVertex
100
AcDb2dVertex
 10
82.22135012458082
 20
-143.5209713530085
 30
0.0
  0
SEQEND
  5
102
330
FF
100
AcDbEntity
  8
_U+30EC_U+30A4_U+30E4_U+30FC 1
 62
   179
420
  2234388
370
     9
  0
POLYLINE
  5
103
330
1F
100
AcDbEntity
  8
_U+30EC_U+30A4_U+30E4_U+30FC 1
 62
   179
420
  2234388
370
     9
100
AcDb2dPolyline
 66
     1
 10
0.0
 20
0.0
 30
0.0
  0
VERTEX
  5
104
330
103
100
AcDbEntity
  8
_U+30EC_U+30A4_U+30E4_U+30FC 1
 62
   179
420
  2234388
370
     9
100
AcDbVertex
100
AcDb2dVertex
 10
103.9709109585922
 20
-117.3317016373336
 30
0.0
  0
VERTEX
  5
105
330
103
100
AcDbEntity
  8
_U+30EC_U+30A4_U+30E4_U+30FC 1
 62
   179
420
  2234388
370
     9
100
AcDbVertex
100
AcDb2dVertex
 10
103.9709109585922
 20
-114.9363052490438
 30
0.0
  0
SEQEND
  5
106
330
103
100
AcDbEntity
  8
_U+30EC_U+30A4_U+30E4_U+30FC 1
 62
   179
420
  2234388
370
     9
  0
POLYLINE
  5
107
330
1F
100
AcDbEntity
  8
_U+30EC_U+30A4_U+30E4_U+30FC 1
 62
   179
420
  2234388
370
     9
100
AcDb2dPolyline
 66
     1
 10
0.0
 20
0.0
 30
0.0
  0
VERTEX
  5
108
330
107
100
AcDbEntity
  8
_U+30EC_U+30A4_U+30E4_U+30FC 1
 62
   179
420
  2234388
370
     9
100
AcDbVertex
100
AcDb2dVertex
 10
74.9725078095142
 20
-115.9060913599124
 30
0.0
  0
VERTEX
  5
109
330
107
100
AcDbEntity
  8
_U+30EC_U+30A4_U+30E4_U+30FC 1
 62
   179
420
  2234388
370
     9
100
AcDbVertex
100
AcDb2dVertex
 10
103.9709109585922
 20
-115.9060913599124
 30
0.0
  0
SEQEND
  5
10A
330
107
100
AcDbEntity
  8
_U+30EC_U+30A4_U+30E4_U+30FC 1
 62
   179
420
  2234388
370
     9
  0
SPLINE
  5
10B
330
1F
100
AcDbEntity
  8
_U+30EC_U+30A4_U+30E4_U+30FC 1
370
     0
100
AcDbSpline
210
0.0
220
0.0
230
1.0
 70
    11
 71
     3
 72
    29
 73
    25
 74
     0
 42
0.0000000001
 43
0.0000000001
 12
1.0
 22
0.0
 32
0.0
 13
1.0
 23
0.0
 33
0.0
 40
0.0
 40
0.0
 40
0.0
 40
0.0
 40
1.0
 40
1.0
 40
1.0
 40
2.0
 40
2.0
 40
2.0
 40
3.0
 40
3.0
 40
3.0
 40
4.0
 40
4.0
 40
4.0
 40
5.0
 40
5.0
 40
5.0
 40
6.0
 40
6.0
 40
6.0
 40
7.0
 40
7.0
 40
7.0
 40
8.0
 40
8.0
 40
8.0
 40
8.0
 10
74.7885360924139
 20
-115.9054210821348
 30
0.0
 10
74.7885360924139
 20
-115.9353719154605
 30
0.0
 10
74.80095198055761
 20
-115.9657108043419
 30
0.0
 10
74.82264781333744
 20
-115.9863835821146
 30
0.0
 10
74.84402614612537
 20
-116.0077266376647
 30
0.0
 10
74.8739769786946
 20
-116.0201444154395
 30
0.0
 10
74.90325753350314
 20
-116.0201444154395
 30
0.0
 10
74.93359642161802
 20
-116.0201444154395
 30
0.0
 10
74.96354725418725
 20
-116.0077266376647
 30
0.0
 10
74.98524308696707
 20
-115.987053859892
 30
0.0
 10
75.00662141975499
 20
-115.9657108043419
 30
0.0
 10
75.0190039194391
 20
-115.9353719154605
 30
0.0
 10
75.0190039194391
 20
-115.9054210821348
 30
0.0
 10
75.0190039194391
 20
-115.8754349710311
 30
0.0
 10
75.00662141975499
 20
-115.8451313599276
 30
0.0
 10
74.98524308696707
 20
-115.8244585821549
 30
0.0
 10
74.96354725418725
 20
-115.8030802488269
 30
0.0
 10
74.93359642161802
 20
-115.7903449710523
 30
0.0
 10
74.90325753350314
 20
-115.7903449710523
 30
0.0
 10
74.8739769786946
 20
-115.7903449710523
 30
0.0
 10
74.84402614612537
 20
-115.8024099710493
 30
0.0
 10
74.82264781333744
 20
-115.8237530265997
 30
0.0
 10
74.80095198055761
 20
-115.8451313599276
 30
0.0
 10
74.7885360924139
 20
-115.8754349710311
 30
0.0
 10
74.7885360924139
 20
-115.9054210821348
 30
0.0
  0
HATCH
  5
10C
330
1F
100
AcDbEntity
  8
_U+30EC_U+30A4_U+30E4_U+30FC 1
 62
     7
420
 16777215
100
AcDbHatch
 10
0.0
 20
0.0
 30
0.0
210
0.0
220
0.0
230
1.0
  2
SOLID
 70
     1
 71
     0
 91
        1
 92
        1
 93
        1
 72
     4
 94
        3
 73
     0
 74
     1
 95
       29
 96
       25
 40
0.0
 40
0.0
 40
0.0
 40
0.0
 40
1.0
 40
1.0
 40
1.0
 40
2.0
 40
2.0
 40
2.0
 40
3.0
 40
3.0
 40
3.0
 40
4.0
 40
4.0
 40
4.0
 40
5.0
 40
5.0
 40
5.0
 40
6.0
 40
6.0
 40
6.0
 40
7.0
 40
7.0
 40
7.0
 40
8.0
 40
8.0
 40
8.0
 40
8.0
 10
74.7885360924139
 20
-115.9054210821348
 10
74.7885360924139
 20
-115.9353719154605
 10
74.80095198055761
 20
-115.9657108043419
 10
74.82264781333744
 20
-115.9863835821146
 10
74.84402614612537
 20
-116.0077266376647
 10
74.8739769786946
 20
-116.0201444154395
 10
74.90325753350314
 20
-116.0201444154395
 10
74.93359642161802
 20
-116.0201444154395
 10
74.96354725418725
 20
-116.0077266376647
 10
74.98524308696707
 20
-115.987053859892
 10
75.00662141975499
 20
-115.9657108043419
 10
75.0190039194391
 20
-115.9353719154605
 10
75.0190039194391
 20
-115.9054210821348
 10
75.0190039194391
 20
-115.8754349710311
 10
75.00662141975499
 20
-115.8451313599276
 10
74.98524308696707
 20
-115.8244585821549
 10
74.96354725418725
 20
-115.8030802488269
 10
74.93359642161802
 20
-115.7903449710523
 10
74.90325753350314
 20
-115.7903449710523
 10
74.8739769786946
 20
-115.7903449710523
 10
74.84402614612537
 20
-115.8024099710493
 10
74.82264781333744
 20
-115.8237530265997
 10
74.80095198055761
 20
-115.8451313599276
 10
74.7885360924139
 20
-115.8754349710311
 10
74.7885360924139
 20
-115.9054210821348
 97
        0
 97
        0
 75
     2
 76
     1
 98
        0
  0
SPLINE
  5
10D
330
1F
100
AcDbEntity
  8
_U+30EC_U+30A4_U+30E4_U+30FC 1
370
     0
100
AcDbSpline
210
0.0
220
0.0
230
1.0
 70
    11
 71
     3
 72
    35
 73
    31
 74
     0
 42
0.0000000001
 43
0.0000000001
 12
1.0
 22
0.0
 32
0.0
 13
1.0
 23
0.0
 33
0.0
 40
0.0
 40
0.0
 40
0.0
 40
0.0
 40
1.0
 40
1.0
 40
1.0
 40
2.0
 40
2.0
 40
2.0
 40
3.0
 40
3.0
 40
3.0
 40
4.0
 40
4.0
 40
4.0
 40
5.0
 40
5.0
 40
5.0
 40
6.0
 40
6.0
 40
6.0
 40
7.0
 40
7.0
 40
7.0
 40
8.0
 40
8.0
 40
8.0
 40
9.0
 40
9.0
 40
9.0
 40
10.0
 40
10.0
 40
10.0
 40
10.0
 10
103.8541062393499
 20
-115.8237530265997
 30
0.0
 10
103.8331159621076
 20
-115.846154415483
 30
0.0
 10
103.8210509624154
 20
-115.8754349710311
 30
0.0
 10
103.8210509624154
 20
-115.9054210821348
 30
0.0
 10
103.8210509624154
 20
-115.9353719154605
 30
0.0
 10
103.8331159621076
 20
-115.9657108043419
 30
0.0
 10
103.8541062393499
 20
-115.987053859892
 30
0.0
 10
103.8758373499066
 20
-116.0084321932202
 30
0.0
 10
103.9057881824758
 20
-116.0211674709946
 30
0.0
 10
103.9357742928219
 20
-116.0211674709946
 30
0.0
 10
103.9357742928219
 20
-116.0211674709946
 30
0.0
 10
103.9357742928219
 20
-116.0201444154395
 30
0.0
 10
103.9357742928219
 20
-116.0201444154395
 30
0.0
 10
103.9664333073419
 20
-116.0201444154395
 30
0.0
 10
103.9964194184452
 20
-116.0084321932202
 30
0.0
 10
104.0167367907564
 20
-115.987053859892
 30
0.0
 10
104.0384326235362
 20
-115.9657108043419
 30
0.0
 10
104.0511679009891
 20
-115.9353719154605
 30
0.0
 10
104.0511679009891
 20
-115.9054210821348
 30
0.0
 10
104.0511679009891
 20
-115.8754349710311
 30
0.0
 10
104.0384326235362
 20
-115.846154415483
 30
0.0
 10
104.0167367907564
 20
-115.8237530265997
 30
0.0
 10
103.9964194184452
 20
-115.8030802488269
 30
0.0
 10
103.9664333073419
 20
-115.7903449710523
 30
0.0
 10
103.9357742928219
 20
-115.7903449710523
 30
0.0
 10
103.9357742928219
 20
-115.7903449710523
 30
0.0
 10
103.9357742928219
 20
-115.7903449710523
 30
0.0
 10
103.9357742928219
 20
-115.7903449710523
 30
0.0
 10
103.9057881824758
 20
-115.7903449710523
 30
0.0
 10
103.8758373499066
 20
-115.8030802488269
 30
0.0
 10
103.8541062393499
 20
-115.8237530265997
 30
0.0
  0
HATCH
  5
10E
330
1F
100
AcDbEntity
  8
_U+30EC_U+30A4_U+30E4_U+30FC 1
 62
     7
420
 16777215
100
AcDbHatch
 10
0.0
 20
0.0
 30
0.0
210
0.0
220
0.0
230
1.0
  2
SOLID
 70
     1
 71
     0
 91
        1
 92
        1
 93
        1
 72
     4
 94
        3
 73
     0
 74
     1
 95
       35
 96
       31
 40
0.0
 40
0.0
 40
0.0
 40
0.0
 40
1.0
 40
1.0
 40
1.0
 40
2.0
 40
2.0
 40
2.0
 40
3.0
 40
3.0
 40
3.0
 40
4.0
 40
4.0
 40
4.0
 40
5.0
 40
5.0
 40
5.0
 40
6.0
 40
6.0
 40
6.0
 40
7.0
 40
7.0
 40
7.0
 40
8.0
 40
8.0
 40
8.0
 40
9.0
 40
9.0
 40
9.0
 40
10.0
 40
10.0
 40
10.0
 40
10.0
 10
103.8541062393499
 20
-115.8237530265997
 10
103.8331159621076
 20
-115.846154415483
 10
103.8210509624154
 20
-115.8754349710311
 10
103.8210509624154
 20
-115.9054210821348
 10
103.8210509624154
 20
-115.9353719154605
 10
103.8331159621076
 20
-115.9657108043419
 10
103.8541062393499
 20
-115.987053859892
 10
103.8758373499066
 20
-116.0084321932202
 10
103.9057881824758
 20
-116.0211674709946
 10
103.9357742928219
 20
-116.0211674709946
 10
103.9357742928219
 20
-116.0211674709946
 10
103.9357742928219
 20
-116.0201444154395
 10
103.9357742928219
 20
-116.0201444154395
 10
103.9664333073419
 20
-116.0201444154395
 10
103.9964194184452
 20
-116.0084321932202
 10
104.0167367907564
 20
-115.987053859892
 10
104.0384326235362
 20
-115.9657108043419
 10
104.0511679009891
 20
-115.9353719154605
 10
104.0511679009891
 20
-115.9054210821348
 10
104.0511679009891
 20
-115.8754349710311
 10
104.0384326235362
 20
-115.846154415483
 10
104.0167367907564
 20
-115.8237530265997
 10
103.9964194184452
 20
-115.8030802488269
 10
103.9664333073419
 20
-115.7903449710523
 10
103.9357742928219
 20
-115.7903449710523
 10
103.9357742928219
 20
-115.7903449710523
 10
103.9357742928219
 20
-115.7903449710523
 10
103.9357742928219
 20
-115.7903449710523
 10
103.9057881824758
 20
-115.7903449710523
 10
103.8758373499066
 20
-115.8030802488269
 10
103.8541062393499
 20
-115.8237530265997
 97
        0
 97
        0
 75
     2
 76
     1
 98
        0
  0
SPLINE
  5
10F
330
1F
100
AcDbEntity
  8
_U+30EC_U+30A4_U+30E4_U+30FC 1
370
     0
100
AcDbSpline
210
0.0
220
0.0
230
1.0
 70
    11
 71
     3
 72
    29
 73
    25
 74
     0
 42
0.0000000001
 43
0.0000000001
 12
1.0
 22
0.0
 32
0.0
 13
1.0
 23
0.0
 33
0.0
 40
0.0
 40
0.0
 40
0.0
 40
0.0
 40
1.0
 40
1.0
 40
1.0
 40
2.0
 40
2.0
 40
2.0
 40
3.0
 40
3.0
 40
3.0
 40
4.0
 40
4.0
 40
4.0
 40
5.0
 40
5.0
 40
5.0
 40
6.0
 40
6.0
 40
6.0
 40
7.0
 40
7.0
 40
7.0
 40
8.0
 40
8.0
 40
8.0
 40
8.0
 10
106.1148120150078
 20
-119.3618671923819
 30
0.0
 10
106.1148120150078
 20
-119.3315635812783
 30
0.0
 10
106.1023942375469
 20
-119.3012599701748
 30
0.0
 10
106.0810159047589
 20
-119.2802344146243
 30
0.0
 10
106.0600256275167
 20
-119.2585385812964
 30
0.0
 10
106.0293692394099
 20
-119.2457680257442
 30
0.0
 10
106.0000886846013
 20
-119.2457680257442
 30
0.0
 10
105.9697497964865
 20
-119.2457680257442
 30
0.0
 10
105.9397989639172
 20
-119.2585385812964
 30
0.0
 10
105.9184206311293
 20
-119.2802344146243
 30
0.0
 10
105.8977478538789
 20
-119.3012599701748
 30
0.0
 10
105.885012576426
 20
-119.3305405257229
 30
0.0
 10
105.885012576426
 20
-119.3618671923819
 30
0.0
 10
105.885012576426
 20
-119.39114774793
 30
0.0
 10
105.8977478538789
 20
-119.4211338590336
 30
0.0
 10
105.9184206311293
 20
-119.4428296923614
 30
0.0
 10
105.9397989639172
 20
-119.4638552479119
 30
0.0
 10
105.9697497964865
 20
-119.4765905256866
 30
0.0
 10
106.0000886846013
 20
-119.4765905256866
 30
0.0
 10
106.0293692394099
 20
-119.4765905256866
 30
0.0
 10
106.0600256275167
 20
-119.4638552479119
 30
0.0
 10
106.0810159047589
 20
-119.4428296923614
 30
0.0
 10
106.1023942375469
 20
-119.4211338590336
 30
0.0
 10
106.1148120150078
 20
-119.39114774793
 30
0.0
 10
106.1148120150078
 20
-119.3618671923819
 30
0.0
  0
HATCH
  5
110
330
1F
100
AcDbEntity
  8
_U+30EC_U+30A4_U+30E4_U+30FC 1
 62
     7
420
 16777215
100
AcDbHatch
 10
0.0
 20
0.0
 30
0.0
210
0.0
220
0.0
230
1.0
  2
SOLID
 70
     1
 71
     0
 91
        1
 92
        1
 93
        1
 72
     4
 94
        3
 73
     0
 74
     1
 95
       29
 96
       25
 40
0.0
 40
0.0
 40
0.0
 40
0.0
 40
1.0
 40
1.0
 40
1.0
 40
2.0
 40
2.0
 40
2.0
 40
3.0
 40
3.0
 40
3.0
 40
4.0
 40
4.0
 40
4.0
 40
5.0
 40
5.0
 40
5.0
 40
6.0
 40
6.0
 40
6.0
 40
7.0
 40
7.0
 40
7.0
 40
8.0
 40
8.0
 40
8.0
 40
8.0
 10
106.1148120150078
 20
-119.3618671923819
 10
106.1148120150078
 20
-119.3315635812783
 10
106.1023942375469
 20
-119.3012599701748
 10
106.0810159047589
 20
-119.2802344146243
 10
106.0600256275167
 20
-119.2585385812964
 10
106.0293692394099
 20
-119.2457680257442
 10
106.0000886846013
 20
-119.2457680257442
 10
105.9697497964865
 20
-119.2457680257442
 10
105.9397989639172
 20
-119.2585385812964
 10
105.9184206311293
 20
-119.2802344146243
 10
105.8977478538789
 20
-119.3012599701748
 10
105.885012576426
 20
-119.3305405257229
 10
105.885012576426
 20
-119.3618671923819
 10
105.885012576426
 20
-119.39114774793
 10
105.8977478538789
 20
-119.4211338590336
 10
105.9184206311293
 20
-119.4428296923614
 10
105.9397989639172
 20
-119.4638552479119
 10
105.9697497964865
 20
-119.4765905256866
 10
106.0000886846013
 20
-119.4765905256866
 10
106.0293692394099
 20
-119.4765905256866
 10
106.0600256275167
 20
-119.4638552479119
 10
106.0810159047589
 20
-119.4428296923614
 10
106.1023942375469
 20
-119.4211338590336
 10
106.1148120150078
 20
-119.39114774793
 10
106.1148120150078
 20
-119.3618671923819
 97
        0
 97
        0
 75
     2
 76
     1
 98
        0
  0
SPLINE
  5
111
330
1F
100
AcDbEntity
  8
_U+30EC_U+30A4_U+30E4_U+30FC 1
370
     0
100
AcDbSpline
210
0.0
220
0.0
230
1.0
 70
    11
 71
     3
 72
    32
 73
    28
 74
     0
 42
0.0000000001
 43
0.0000000001
 12
1.0
 22
0.0
 32
0.0
 13
1.0
 23
0.0
 33
0.0
 40
0.0
 40
0.0
 40
0.0
 40
0.0
 40
1.0
 40
1.0
 40
1.0
 40
2.0
 40
2.0
 40
2.0
 40
3.0
 40
3.0
 40
3.0
 40
4.0
 40
4.0
 40
4.0
 40
5.0
 40
5.0
 40
5.0
 40
6.0
 40
6.0
 40
6.0
 40
7.0
 40
7.0
 40
7.0
 40
8.0
 40
8.0
 40
8.0
 40
9.0
 40
9.0
 40
9.0
 40
9.0
 10
106.0930809044511
 20
-136.8036944102438
 30
0.0
 10
106.0930809044511
 20
-136.7730380213625
 30
0.0
 10
106.0799928492295
 20
-136.7430871880367
 30
0.0
 10
106.0586497942184
 20
-136.7227319102636
 30
0.0
 10
106.045208961228
 20
-136.7082680213786
 30
0.0
 10
106.0276406283429
 20
-136.7003657991584
 30
0.0
 10
106.0086964621595
 20
-136.6948271880487
 30
0.0
 10
105.999030351295
 20
-136.6906996880494
 30
0.0
 10
105.9883764626779
 20
-136.6883007991614
 30
0.0
 10
105.9776872962839
 20
-136.6883007991614
 30
0.0
 10
105.9477011859378
 20
-136.6883007991614
 30
0.0
 10
105.9173975755998
 20
-136.7003657991584
 30
0.0
 10
105.8960192428119
 20
-136.7217088547085
 30
0.0
 10
105.8756992433303
 20
-136.7430871880367
 30
0.0
 10
105.8629666402012
 20
-136.7730380213625
 30
0.0
 10
105.8629666402012
 20
-136.8036944102438
 30
0.0
 10
105.8629666402012
 20
-136.8336805213471
 30
0.0
 10
105.8756992433303
 20
-136.8636666324504
 30
0.0
 10
105.8960192428119
 20
-136.8843394102232
 30
0.0
 10
105.9173975755998
 20
-136.9056824657739
 30
0.0
 10
105.9477011859378
 20
-136.9184177435482
 30
0.0
 10
105.9776872962839
 20
-136.9184177435482
 30
0.0
 10
106.0076381288532
 20
-136.9184177435482
 30
0.0
 10
106.0383297947368
 20
-136.9056824657739
 30
0.0
 10
106.0586497942184
 20
-136.8853624657789
 30
0.0
 10
106.0799928492295
 20
-136.8636666324504
 30
0.0
 10
106.0930809044511
 20
-136.8336805213471
 30
0.0
 10
106.0930809044511
 20
-136.8036944102438
 30
0.0
  0
HATCH
  5
112
330
1F
100
AcDbEntity
  8
_U+30EC_U+30A4_U+30E4_U+30FC 1
 62
     7
420
 16777215
100
AcDbHatch
 10
0.0
 20
0.0
 30
0.0
210
0.0
220
0.0
230
1.0
  2
SOLID
 70
     1
 71
     0
 91
        1
 92
        1
 93
        1
 72
     4
 94
        3
 73
     0
 74
     1
 95
       32
 96
       28
 40
0.0
 40
0.0
 40
0.0
 40
0.0
 40
1.0
 40
1.0
 40
1.0
 40
2.0
 40
2.0
 40
2.0
 40
3.0
 40
3.0
 40
3.0
 40
4.0
 40
4.0
 40
4.0
 40
5.0
 40
5.0
 40
5.0
 40
6.0
 40
6.0
 40
6.0
 40
7.0
 40
7.0
 40
7.0
 40
8.0
 40
8.0
 40
8.0
 40
9.0
 40
9.0
 40
9.0
 40
9.0
 10
106.0930809044511
 20
-136.8036944102438
 10
106.0930809044511
 20
-136.7730380213625
 10
106.0799928492295
 20
-136.7430871880367
 10
106.0586497942184
 20
-136.7227319102636
 10
106.045208961228
 20
-136.7082680213786
 10
106.0276406283429
 20
-136.7003657991584
 10
106.0086964621595
 20
-136.6948271880487
 10
105.999030351295
 20
-136.6906996880494
 10
105.9883764626779
 20
-136.6883007991614
 10
105.9776872962839
 20
-136.6883007991614
 10
105.9477011859378
 20
-136.6883007991614
 10
105.9173975755998
 20
-136.7003657991584
 10
105.8960192428119
 20
-136.7217088547085
 10
105.8756992433303
 20
-136.7430871880367
 10
105.8629666402012
 20
-136.7730380213625
 10
105.8629666402012
 20
-136.8036944102438
 10
105.8629666402012
 20
-136.8336805213471
 10
105.8756992433303
 20
-136.8636666324504
 10
105.8960192428119
 20
-136.8843394102232
 10
105.9173975755998
 20
-136.9056824657739
 10
105.9477011859378
 20
-136.9184177435482
 10
105.9776872962839
 20
-136.9184177435482
 10
106.0076381288532
 20
-136.9184177435482
 10
106.0383297947368
 20
-136.9056824657739
 10
106.0586497942184
 20
-136.8853624657789
 10
106.0799928492295
 20
-136.8636666324504
 10
106.0930809044511
 20
-136.8336805213471
 10
106.0930809044511
 20
-136.8036944102438
 97
        0
 97
        0
 75
     2
 76
     1
 98
        0
  0
SPLINE
  5
113
330
1F
100
AcDbEntity
  8
_U+30EC_U+30A4_U+30E4_U+30FC 1
370
     0
100
AcDbSpline
210
0.0
220
0.0
230
1.0
 70
    11
 71
     3
 72
    29
 73
    25
 74
     0
 42
0.0000000001
 43
0.0000000001
 12
1.0
 22
0.0
 32
0.0
 13
1.0
 23
0.0
 33
0.0
 40
0.0
 40
0.0
 40
0.0
 40
0.0
 40
1.0
 40
1.0
 40
1.0
 40
2.0
 40
2.0
 40
2.0
 40
3.0
 40
3.0
 40
3.0
 40
4.0
 40
4.0
 40
4.0
 40
5.0
 40
5.0
 40
5.0
 40
6.0
 40
6.0
 40
6.0
 40
7.0
 40
7.0
 40
7.0
 40
8.0
 40
8.0
 40
8.0
 40
8.0
 10
105.9335900751867
 20
-138.8680088541722
 30
0.0
 10
105.9122117423988
 20
-138.8893519097223
 30
0.0
 10
105.8991236871772
 20
-138.9186677430482
 30
0.0
 10
105.8991236871772
 20
-138.9489713541518
 30
0.0
 10
105.8991236871772
 20
-138.9789574652551
 30
0.0
 10
105.9122117423988
 20
-139.0092610763586
 30
0.0
 10
105.9335900751867
 20
-139.0306041319093
 30
0.0
 10
105.9546156302059
 20
-139.0519824652369
 30
0.0
 10
105.9852720183127
 20
-139.065070520789
 30
0.0
 10
106.0145525731212
 20
-139.065070520789
 30
0.0
 10
106.0445034056904
 20
-139.065070520789
 30
0.0
 10
106.0744895160365
 20
-139.0519824652369
 30
0.0
 10
106.0961853488164
 20
-139.0306041319093
 30
0.0
 10
106.1172109038355
 20
-139.0092610763586
 30
0.0
 10
106.1299461812884
 20
-138.9789574652551
 30
0.0
 10
106.1299461812884
 20
-138.9489713541518
 30
0.0
 10
106.1299461812884
 20
-138.9196907986033
 30
0.0
 10
106.1172109038355
 20
-138.8893519097223
 30
0.0
 10
106.0961853488164
 20
-138.8680088541722
 30
0.0
 10
106.0744895160365
 20
-138.8469832986217
 30
0.0
 10
106.0445034056904
 20
-138.8338952430696
 30
0.0
 10
106.0145525731212
 20
-138.8338952430696
 30
0.0
 10
105.9852720183127
 20
-138.8338952430696
 30
0.0
 10
105.9546156302059
 20
-138.8469832986217
 30
0.0
 10
105.9335900751867
 20
-138.8680088541722
 30
0.0
  0
HATCH
  5
114
330
1F
100
AcDbEntity
  8
_U+30EC_U+30A4_U+30E4_U+30FC 1
 62
     7
420
 16777215
100
AcDbHatch
 10
0.0
 20
0.0
 30
0.0
210
0.0
220
0.0
230
1.0
  2
SOLID
 70
     1
 71
     0
 91
        1
 92
        1
 93
        1
 72
     4
 94
        3
 73
     0
 74
     1
 95
       29
 96
       25
 40
0.0
 40
0.0
 40
0.0
 40
0.0
 40
1.0
 40
1.0
 40
1.0
 40
2.0
 40
2.0
 40
2.0
 40
3.0
 40
3.0
 40
3.0
 40
4.0
 40
4.0
 40
4.0
 40
5.0
 40
5.0
 40
5.0
 40
6.0
 40
6.0
 40
6.0
 40
7.0
 40
7.0
 40
7.0
 40
8.0
 40
8.0
 40
8.0
 40
8.0
 10
105.9335900751867
 20
-138.8680088541722
 10
105.9122117423988
 20
-138.8893519097223
 10
105.8991236871772
 20
-138.9186677430482
 10
105.8991236871772
 20
-138.9489713541518
 10
105.8991236871772
 20
-138.9789574652551
 10
105.9122117423988
 20
-139.0092610763586
 10
105.9335900751867
 20
-139.0306041319093
 10
105.9546156302059
 20
-139.0519824652369
 10
105.9852720183127
 20
-139.065070520789
 10
106.0145525731212
 20
-139.065070520789
 10
106.0445034056904
 20
-139.065070520789
 10
106.0744895160365
 20
-139.0519824652369
 10
106.0961853488164
 20
-139.0306041319093
 10
106.1172109038355
 20
-139.0092610763586
 10
106.1299461812884
 20
-138.9789574652551
 10
106.1299461812884
 20
-138.9489713541518
 10
106.1299461812884
 20
-138.9196907986033
 10
106.1172109038355
 20
-138.8893519097223
 10
106.0961853488164
 20
-138.8680088541722
 10
106.0744895160365
 20
-138.8469832986217
 10
106.0445034056904
 20
-138.8338952430696
 10
106.0145525731212
 20
-138.8338952430696
 10
105.9852720183127
 20
-138.8338952430696
 10
105.9546156302059
 20
-138.8469832986217
 10
105.9335900751867
 20
-138.8680088541722
 97
        0
 97
        0
 75
     2
 76
     1
 98
        0
  0
SPLINE
  5
115
330
1F
100
AcDbEntity
  8
_U+30EC_U+30A4_U+30E4_U+30FC 1
370
     0
100
AcDbSpline
210
0.0
220
0.0
230
1.0
 70
    11
 71
     3
 72
    29
 73
    25
 74
     0
 42
0.0000000001
 43
0.0000000001
 12
1.0
 22
0.0
 32
0.0
 13
1.0
 23
0.0
 33
0.0
 40
0.0
 40
0.0
 40
0.0
 40
0.0
 40
1.0
 40
1.0
 40
1.0
 40
2.0
 40
2.0
 40
2.0
 40
3.0
 40
3.0
 40
3.0
 40
4.0
 40
4.0
 40
4.0
 40
5.0
 40
5.0
 40
5.0
 40
6.0
 40
6.0
 40
6.0
 40
7.0
 40
7.0
 40
7.0
 40
8.0
 40
8.0
 40
8.0
 40
8.0
 10
96.54603253690551
 20
-142.616272742124
 30
0.0
 10
96.54603253690551
 20
-142.6455532976718
 30
0.0
 10
96.55880553141554
 20
-142.6758569087753
 30
0.0
 10
96.57912309161685
 20
-142.6972352421036
 30
0.0
 10
96.60081892439668
 20
-142.7185782976537
 30
0.0
 10
96.63080503474278
 20
-142.7313488532062
 30
0.0
 10
96.66111108694584
 20
-142.7313488532062
 30
0.0
 10
96.69141225541878
 20
-142.7313488532062
 30
0.0
 10
96.72139836576488
 20
-142.7185782976537
 30
0.0
 10
96.74309419854471
 20
-142.6972352421036
 30
0.0
 10
96.764122198031
 20
-142.6758569087753
 30
0.0
 10
96.77618475325606
 20
-142.6455532976718
 30
0.0
 10
96.77618475325606
 20
-142.6155671865685
 30
0.0
 10
96.77618475325606
 20
-142.5852635754649
 30
0.0
 10
96.764122198031
 20
-142.5559830199165
 30
0.0
 10
96.74309419854471
 20
-142.5346399643664
 30
0.0
 10
96.72139836576488
 20
-142.5132616310382
 30
0.0
 10
96.69141225541878
 20
-142.5005263532638
 30
0.0
 10
96.66111108694584
 20
-142.5005263532638
 30
0.0
 10
96.63080503474278
 20
-142.5005263532638
 30
0.0
 10
96.60081892439668
 20
-142.5132616310382
 30
0.0
 10
96.57912309161685
 20
-142.5346399643664
 30
0.0
 10
96.55880553141554
 20
-142.5559830199165
 30
0.0
 10
96.54603253690551
 20
-142.5852635754649
 30
0.0
 10
96.54603253690551
 20
-142.616272742124
 30
0.0
  0
HATCH
  5
116
330
1F
100
AcDbEntity
  8
_U+30EC_U+30A4_U+30E4_U+30FC 1
 62
     7
420
 16777215
100
AcDbHatch
 10
0.0
 20
0.0
 30
0.0
210
0.0
220
0.0
230
1.0
  2
SOLID
 70
     1
 71
     0
 91
        1
 92
        1
 93
        1
 72
     4
 94
        3
 73
     0
 74
     1
 95
       29
 96
       25
 40
0.0
 40
0.0
 40
0.0
 40
0.0
 40
1.0
 40
1.0
 40
1.0
 40
2.0
 40
2.0
 40
2.0
 40
3.0
 40
3.0
 40
3.0
 40
4.0
 40
4.0
 40
4.0
 40
5.0
 40
5.0
 40
5.0
 40
6.0
 40
6.0
 40
6.0
 40
7.0
 40
7.0
 40
7.0
 40
8.0
 40
8.0
 40
8.0
 40
8.0
 10
96.54603253690551
 20
-142.616272742124
 10
96.54603253690551
 20
-142.6455532976718
 10
96.55880553141554
 20
-142.6758569087753
 10
96.57912309161685
 20
-142.6972352421036
 10
96.60081892439668
 20
-142.7185782976537
 10
96.63080503474278
 20
-142.7313488532062
 10
96.66111108694584
 20
-142.7313488532062
 10
96.69141225541878
 20
-142.7313488532062
 10
96.72139836576488
 20
-142.7185782976537
 10
96.74309419854471
 20
-142.6972352421036
 10
96.764122198031
 20
-142.6758569087753
 10
96.77618475325606
 20
-142.6455532976718
 10
96.77618475325606
 20
-142.6155671865685
 10
96.77618475325606
 20
-142.5852635754649
 10
96.764122198031
 20
-142.5559830199165
 10
96.74309419854471
 20
-142.5346399643664
 10
96.72139836576488
 20
-142.5132616310382
 10
96.69141225541878
 20
-142.5005263532638
 10
96.66111108694584
 20
-142.5005263532638
 10
96.63080503474278
 20
-142.5005263532638
 10
96.60081892439668
 20
-142.5132616310382
 10
96.57912309161685
 20
-142.5346399643664
 10
96.55880553141554
 20
-142.5559830199165
 10
96.54603253690551
 20
-142.5852635754649
 10
96.54603253690551
 20
-142.616272742124
 97
        0
 97
        0
 75
     2
 76
     1
 98
        0
  0
SPLINE
  5
117
330
1F
100
AcDbEntity
  8
_U+30EC_U+30A4_U+30E4_U+30FC 1
370
     0
100
AcDbSpline
210
0.0
220
0.0
230
1.0
 70
    11
 71
     3
 72
    35
 73
    31
 74
     0
 42
0.0000000001
 43
0.0000000001
 12
1.0
 22
0.0
 32
0.0
 13
1.0
 23
0.0
 33
0.0
 40
0.0
 40
0.0
 40
0.0
 40
0.0
 40
1.0
 40
1.0
 40
1.0
 40
2.0
 40
2.0
 40
2.0
 40
3.0
 40
3.0
 40
3.0
 40
4.0
 40
4.0
 40
4.0
 40
5.0
 40
5.0
 40
5.0
 40
6.0
 40
6.0
 40
6.0
 40
7.0
 40
7.0
 40
7.0
 40
8.0
 40
8.0
 40
8.0
 40
9.0
 40
9.0
 40
9.0
 40
10.0
 40
10.0
 40
10.0
 40
10.0
 10
82.15312497946172
 20
-142.5415191310315
 30
0.0
 10
82.1314270713194
 20
-142.5632149643593
 30
0.0
 10
82.11900929385843
 20
-142.5932010754626
 30
0.0
 10
82.11900929385843
 20
-142.6235046865662
 30
0.0
 10
82.11900929385843
 20
-142.6534907976701
 30
0.0
 10
82.1314270713194
 20
-142.6834416309959
 30
0.0
 10
82.15312497946172
 20
-142.7041144087686
 30
0.0
 10
82.17446595911028
 20
-142.7258102420965
 30
0.0
 10
82.20480484722515
 20
-142.7382280198713
 30
0.0
 10
82.2340854020337
 20
-142.7382280198713
 30
0.0
 10
82.2340854020337
 20
-142.7382280198713
 30
0.0
 10
82.2340854020337
 20
-142.7382280198713
 30
0.0
 10
82.2340854020337
 20
-142.7382280198713
 30
0.0
 10
82.2640715123798
 20
-142.7382280198713
 30
0.0
 10
82.29402234494903
 20
-142.7258102420965
 30
0.0
 10
82.31571817772885
 20
-142.7041144087686
 30
0.0
 10
82.33709651051677
 20
-142.6834416309959
 30
0.0
 10
82.34947901020087
 20
-142.6527852421146
 30
0.0
 10
82.34947901020087
 20
-142.6235046865662
 30
0.0
 10
82.34947901020087
 20
-142.5932010754626
 30
0.0
 10
82.33709651051677
 20
-142.5632149643593
 30
0.0
 10
82.31571817772885
 20
-142.5415191310315
 30
0.0
 10
82.29402234494903
 20
-142.5201407977033
 30
0.0
 10
82.2640715123798
 20
-142.508428575484
 30
0.0
 10
82.2340854020337
 20
-142.508428575484
 30
0.0
 10
82.2340854020337
 20
-142.508428575484
 30
0.0
 10
82.2340854020337
 20
-142.508428575484
 30
0.0
 10
82.2340854020337
 20
-142.508428575484
 30
0.0
 10
82.20480484722515
 20
-142.508428575484
 30
0.0
 10
82.17446595911028
 20
-142.5201407977033
 30
0.0
 10
82.15312497946172
 20
-142.5415191310315
 30
0.0
  0
HATCH
  5
118
330
1F
100
AcDbEntity
  8
_U+30EC_U+30A4_U+30E4_U+30FC 1
 62
     7
420
 16777215
100
AcDbHatch
 10
0.0
 20
0.0
 30
0.0
210
0.0
220
0.0
230
1.0
  2
SOLID
 70
     1
 71
     0
 91
        1
 92
        1
 93
        1
 72
     4
 94
        3
 73
     0
 74
     1
 95
       35
 96
       31
 40
0.0
 40
0.0
 40
0.0
 40
0.0
 40
1.0
 40
1.0
 40
1.0
 40
2.0
 40
2.0
 40
2.0
 40
3.0
 40
3.0
 40
3.0
 40
4.0
 40
4.0
 40
4.0
 40
5.0
 40
5.0
 40
5.0
 40
6.0
 40
6.0
 40
6.0
 40
7.0
 40
7.0
 40
7.0
 40
8.0
 40
8.0
 40
8.0
 40
9.0
 40
9.0
 40
9.0
 40
10.0
 40
10.0
 40
10.0
 40
10.0
 10
82.15312497946172
 20
-142.5415191310315
 10
82.1314270713194
 20
-142.5632149643593
 10
82.11900929385843
 20
-142.5932010754626
 10
82.11900929385843
 20
-142.6235046865662
 10
82.11900929385843
 20
-142.6534907976701
 10
82.1314270713194
 20
-142.6834416309959
 10
82.15312497946172
 20
-142.7041144087686
 10
82.17446595911028
 20
-142.7258102420965
 10
82.20480484722515
 20
-142.7382280198713
 10
82.2340854020337
 20
-142.7382280198713
 10
82.2340854020337
 20
-142.7382280198713
 10
82.2340854020337
 20
-142.7382280198713
 10
82.2340854020337
 20
-142.7382280198713
 10
82.2640715123798
 20
-142.7382280198713
 10
82.29402234494903
 20
-142.7258102420965
 10
82.31571817772885
 20
-142.7041144087686
 10
82.33709651051677
 20
-142.6834416309959
 10
82.34947901020087
 20
-142.6527852421146
 10
82.34947901020087
 20
-142.6235046865662
 10
82.34947901020087
 20
-142.5932010754626
 10
82.33709651051677
 20
-142.5632149643593
 10
82.31571817772885
 20
-142.5415191310315
 10
82.29402234494903
 20
-142.5201407977033
 10
82.2640715123798
 20
-142.508428575484
 10
82.2340854020337
 20
-142.508428575484
 10
82.2340854020337
 20
-142.508428575484
 10
82.2340854020337
 20
-142.508428575484
 10
82.2340854020337
 20
-142.508428575484
 10
82.20480484722515
 20
-142.508428575484
 10
82.17446595911028
 20
-142.5201407977033
 10
82.15312497946172
 20
-142.5415191310315
 97
        0
 97
        0
 75
     2
 76
     1
 98
        0
  0
ENDSEC
  0
SECTION
  2
OBJECTS
  0
DICTIONARY
  5
C
330
0
100
AcDbDictionary
281
     1
  3
ACAD_GROUP
350
D
  3
ACAD_LAYOUT
350
1A
  3
ACAD_MATERIAL
350
3B
  3
ACAD_MLEADERSTYLE
350
11A
  3
ACAD_MLINESTYLE
350
17
  3
ACAD_PLOTSETTINGS
350
19
  3
ACAD_PLOTSTYLENAME
350
E
  3
ACAD_TABLESTYLE
350
119
  3
ACAD_VISUALSTYLE
350
2A
  0
SUN
  5
3F
330
29
100
AcDbSun
 90
        1
290
     0
 63
     7
421
 16777215
 40
1.0
291
     1
 91
  2455826
 92
 54000000
292
     0
 70
     2
 71
   256
280
     1
  0
DICTIONARY
  5
D
102
{ACAD_REACTORS
330
C
102
}
330
C
100
AcDbDictionary
281
     1
  0
DICTIONARY
  5
1A
102
{ACAD_REACTORS
330
C
102
}
330
C
100
AcDbDictionary
281
     1
  3
Layout1
350
1E
  3
Layout2
350
26
  3
Model
350
22
  0
DICTIONARY
  5
3B
102
{ACAD_REACTORS
330
C
102
}
330
C
100
AcDbDictionary
281
     1
  3
ByBlock
350
3D
  3
ByLayer
350
3C
  3
Global
350
3E
  0
DICTIONARY
  5
11A
102
{ACAD_REACTORS
330
C
102
}
330
C
100
AcDbDictionary
281
     1
  0
DICTIONARY
  5
17
102
{ACAD_REACTORS
330
C
102
}
330
C
100
AcDbDictionary
281
     1
  3
Standard
350
18
  0
DICTIONARY
  5
19
102
{ACAD_REACTORS
330
C
102
}
330
C
100
AcDbDictionary
281
     1
  0
ACDBDICTIONARYWDFLT
  5
E
102
{ACAD_REACTORS
330
C
102
}
330
C
100
AcDbDictionary
281
     1
  3
Normal
350
F
100
AcDbDictionaryWithDefault
340
F
  0
DICTIONARY
  5
119
102
{ACAD_REACTORS
330
C
102
}
330
C
100
AcDbDictionary
281
     1
  0
DICTIONARY
  5
2A
102
{ACAD_REACTORS
330
C
102
}
330
C
100
AcDbDictionary
281
     1
  3
2dWireframe
350
2F
  3
3D Hidden
350
31
  3
3dWireframe
350
30
  3
Basic
350
32
  3
Brighten
350
36
  3
ColorChange
350
3A
  3
Conceptual
350
34
  3
Dim
350
35
  3
Facepattern
350
39
  3
Flat
350
2B
  3
FlatWithEdges
350
2C
  3
Gouraud
350
2D
  3
GouraudWithEdges
350
2E
  3
Linepattern
350
38
  3
Realistic
350
33
  3
Thicken
350
37
  0
LAYOUT
  5
1E
102
{ACAD_REACTORS
330
1A
102
}
330
1A
100
AcDbPlotSettings
  1

  2
none_device
  4

  6

 40
0.0
 41
0.0
 42
0.0
 43
0.0
 44
0.0
 45
0.0
 46
0.0
 47
0.0
 48
0.0
 49
0.0
140
0.0
141
0.0
142
1.0
143
1.0
 70
   688
 72
     0
 73
     0
 74
     5
  7

 75
    16
 76
     0
 77
     2
 78
   300
147
1.0
148
0.0
149
0.0
100
AcDbLayout
  1
Layout1
 70
     1
 71
     1
 10
0.0
 20
0.0
 11
12.0
 21
9.0
 12
0.0
 22
0.0
 32
0.0
 14
1.000000000000000E+20
 24
1.000000000000000E+20
 34
1.000000000000000E+20
 15
-1.000000000000000E+20
 25
-1.000000000000000E+20
 35
-1.000000000000000E+20
146
0.0
 13
0.0
 23
0.0
 33
0.0
 16
1.0
 26
0.0
 36
0.0
 17
0.0
 27
1.0
 37
0.0
 76
     0
330
1B
  0
LAYOUT
  5
26
102
{ACAD_REACTORS
330
1A
102
}
330
1A
100
AcDbPlotSettings
  1

  2
none_device
  4

  6

 40
0.0
 41
0.0
 42
0.0
 43
0.0
 44
0.0
 45
0.0
 46
0.0
 47
0.0
 48
0.0
 49
0.0
140
0.0
141
0.0
142
1.0
143
1.0
 70
   688
 72
     0
 73
     0
 74
     5
  7

 75
    16
 76
     0
 77
     2
 78
   300
147
1.0
148
0.0
149
0.0
100
AcDbLayout
  1
Layout2
 70
     1
 71
     2
 10
0.0
 20
0.0
 11
0.0
 21
0.0
 12
0.0
 22
0.0
 32
0.0
 14
0.0
 24
0.0
 34
0.0
 15
0.0
 25
0.0
 35
0.0
146
0.0
 13
0.0
 23
0.0
 33
0.0
 16
1.0
 26
0.0
 36
0.0
 17
0.0
 27
1.0
 37
0.0
 76
     0
330
23
  0
LAYOUT
  5
22
102
{ACAD_REACTORS
330
1A
102
}
330
1A
100
AcDbPlotSettings
  1

  2
none_device
  4

  6

 40
0.0
 41
0.0
 42
0.0
 43
0.0
 44
0.0
 45
0.0
 46
0.0
 47
0.0
 48
0.0
 49
0.0
140
0.0
141
0.0
142
1.0
143
1.0
 70
  1712
 72
     0
 73
     0
 74
     0
  7

 75
     0
 76
     0
 77
     2
 78
   300
147
1.0
148
0.0
149
0.0
100
AcDbLayout
  1
Model
 70
     1
 71
     0
 10
0.0
 20
0.0
 11
12.0
 21
9.0
 12
0.0
 22
0.0
 32
0.0
 14
1.000000000000000E+20
 24
1.000000000000000E+20
 34
1.000000000000000E+20
 15
-1.000000000000000E+20
 25
-1.000000000000000E+20
 35
-1.000000000000000E+20
146
0.0
 13
0.0
 23
0.0
 33
0.0
 16
1.0
 26
0.0
 36
0.0
 17
0.0
 27
1.0
 37
0.0
 76
     0
330
1F
331
29
  0
MATERIAL
  5
3D
102
{ACAD_REACTORS
330
3B
102
}
330
3B
100
AcDbMaterial
  1
ByBlock
 72
     1
 94
      127
  0
MATERIAL
  5
3C
102
{ACAD_REACTORS
330
3B
102
}
330
3B
100
AcDbMaterial
  1
ByLayer
 72
     1
 94
      127
  0
MATERIAL
  5
3E
102
{ACAD_REACTORS
330
3B
102
}
330
3B
100
AcDbMaterial
  1
Global
 72
     1
 94
      127
  0
MLINESTYLE
  5
18
102
{ACAD_REACTORS
330
17
102
}
330
17
100
AcDbMlineStyle
  2
Standard
 70
     0
  3

 62
   256
 51
90.0
 52
90.0
 71
     2
 49
0.5
 62
   256
  6
BYLAYER
 49
-0.5
 62
   256
  6
BYLAYER
  0
ACDBPLACEHOLDER
  5
F
102
{ACAD_REACTORS
330
E
102
}
330
E
  0
VISUALSTYLE
  5
2F
102
{ACAD_REACTORS
330
2A
102
}
330
2A
100
AcDbVisualStyle
  2
2dWireframe
 70
     4
177
     2
291
     0
 71
     0
176
     1
 72
     2
176
     1
 73
     0
176
     1
 90
        0
176
     1
 40
-0.6
176
     1
 41
-30.0
176
     1
 62
     5
 63
     7
421
 16777215
176
     1
 74
     1
176
     1
 91
        4
176
     1
 64
     7
176
     1
 65
   257
176
     1
 75
     1
176
     1
175
     1
176
     1
 42
1.0
176
     1
 92
        0
176
     1
 66
   257
176
     1
 43
1.0
176
     1
 76
     1
176
     1
 77
     6
176
     1
 78
     2
176
     1
 67
     7
176
     1
 79
     5
176
     1
170
     0
176
     1
171
     0
176
     1
290
     0
176
     1
 93
        1
176
     1
 44
0.0
176
     1
173
     0
176
     1
  0
VISUALSTYLE
  5
31
102
{ACAD_REACTORS
330
2A
102
}
330
2A
100
AcDbVisualStyle
  2
3D Hidden
 70
     6
177
     2
291
     0
 71
     1
176
     1
 72
     2
176
     1
 73
     2
176
     1
 90
        0
176
     1
 40
-0.6
176
     1
 41
-30.0
176
     1
 62
     5
 63
     7
421
 16777215
176
     1
 74
     2
176
     1
 91
        2
176
     1
 64
     7
176
     1
 65
   257
176
     1
 75
     2
176
     1
175
     1
176
     1
 42
40.0
176
     1
 92
        0
176
     1
 66
   257
176
     1
 43
1.0
176
     1
 76
     1
176
     1
 77
     6
176
     1
 78
     2
176
     1
 67
     7
176
     1
 79
     3
176
     1
170
     0
176
     1
171
     0
176
     1
290
     0
176
     1
 93
        1
176
     1
 44
0.0
176
     1
173
     0
176
     1
  0
VISUALSTYLE
  5
30
102
{ACAD_REACTORS
330
2A
102
}
330
2A
100
AcDbVisualStyle
  2
3dWireframe
 70
     5
177
     2
291
     0
 71
     0
176
     1
 72
     2
176
     1
 73
     0
176
     1
 90
        0
176
     1
 40
-0.6
176
     1
 41
-30.0
176
     1
 62
     5
 63
     7
421
 16777215
176
     1
 74
     1
176
     1
 91
        4
176
     1
 64
     7
176
     1
 65
   257
176
     1
 75
     1
176
     1
175
     1
176
     1
 42
1.0
176
     1
 92
        0
176
     1
 66
   257
176
     1
 43
1.0
176
     1
 76
     1
176
     1
 77
     6
176
     1
 78
     2
176
     1
 67
     7
176
     1
 79
     5
176
     1
170
     0
176
     1
171
     0
176
     1
290
     0
176
     1
 93
        1
176
     1
 44
0.0
176
     1
173
     0
176
     1
  0
VISUALSTYLE
  5
32
102
{ACAD_REACTORS
330
2A
102
}
330
2A
100
AcDbVisualStyle
  2
Basic
 70
     7
177
     2
291
     1
 71
     1
176
     1
 72
     0
176
     1
 73
     1
176
     1
 90
        0
176
     1
 40
-0.6
176
     1
 41
-30.0
176
     1
 62
     5
 63
     7
421
 16777215
176
     1
 74
     0
176
     1
 91
        4
176
     1
 64
     7
176
     1
 65
   257
176
     1
 75
     1
176
     1
175
     1
176
     1
 42
1.0
176
     1
 92
        8
176
     1
 66
     7
176
     1
 43
1.0
176
     1
 76
     1
176
     1
 77
     6
176
     1
 78
     2
176
     1
 67
     7
176
     1
 79
     5
176
     1
170
     0
176
     1
171
     0
176
     1
290
     0
176
     1
 93
        1
176
     1
 44
0.0
176
     1
173
     0
176
     1
  0
VISUALSTYLE
  5
36
102
{ACAD_REACTORS
330
2A
102
}
330
2A
100
AcDbVisualStyle
  2
Brighten
 70
    12
177
     2
291
     1
 71
     2
176
     1
 72
     2
176
     1
 73
     0
176
     1
 90
        0
176
     1
 40
-0.6
176
     1
 41
-30.0
176
     1
 62
     5
 63
     7
421
 16777215
176
     1
 74
     1
176
     1
 91
        4
176
     1
 64
     7
176
     1
 65
   257
176
     1
 75
     1
176
     1
175
     1
176
     1
 42
1.0
176
     1
 92
        8
176
     1
 66
     7
176
     1
 43
1.0
176
     1
 76
     1
176
     1
 77
     6
176
     1
 78
     2
176
     1
 67
     7
176
     1
 79
     5
176
     1
170
     0
176
     1
171
     0
176
     1
290
     0
176
     1
 93
        1
176
     1
 44
50.0
176
     1
173
     0
176
     1
  0
VISUALSTYLE
  5
3A
102
{ACAD_REACTORS
330
2A
102
}
330
2A
100
AcDbVisualStyle
  2
ColorChange
 70
    16
177
     2
291
     1
 71
     2
176
     1
 72
     2
176
     1
 73
     3
176
     1
 90
        0
176
     1
 40
-0.6
176
     1
 41
-30.0
176
     1
 62
     5
 63
     8
421
  8421504
176
     1
 74
     1
176
     1
 91
        4
176
     1
 64
     7
176
     1
 65
   257
176
     1
 75
     1
176
     1
175
     1
176
     1
 42
1.0
176
     1
 92
        8
176
     1
 66
     8
424
  8421504
176
     1
 43
1.0
176
     1
 76
     1
176
     1
 77
     6
176
     1
 78
     2
176
     1
 67
     7
176
     1
 79
     5
176
     1
170
     0
176
     1
171
     0
176
     1
290
     0
176
     1
 93
        1
176
     1
 44
0.0
176
     1
173
     0
176
     1
  0
VISUALSTYLE
  5
34
102
{ACAD_REACTORS
330
2A
102
}
330
2A
100
AcDbVisualStyle
  2
Conceptual
 70
     9
177
     2
291
     0
 71
     3
176
     1
 72
     2
176
     1
 73
     0
176
     1
 90
        0
176
     1
 40
-0.6
176
     1
 41
-30.0
176
     1
 62
     5
 63
     7
421
 16777215
176
     1
 74
     2
176
     1
 91
        2
176
     1
 64
     7
176
     1
 65
   257
176
     1
 75
     1
176
     1
175
     1
176
     1
 42
40.0
176
     1
 92
        8
176
     1
 66
     7
176
     1
 43
1.0
176
     1
 76
     1
176
     1
 77
     6
176
     1
 78
     2
176
     1
 67
     7
176
     1
 79
     3
176
     1
170
     0
176
     1
171
     0
176
     1
290
     0
176
     1
 93
        1
176
     1
 44
0.0
176
     1
173
     0
176
     1
  0
VISUALSTYLE
  5
35
102
{ACAD_REACTORS
330
2A
102
}
330
2A
100
AcDbVisualStyle
  2
Dim
 70
    11
177
     2
291
     1
 71
     2
176
     1
 72
     2
176
     1
 73
     0
176
     1
 90
        0
176
     1
 40
-0.6
176
     1
 41
-30.0
176
     1
 62
     5
 63
     7
421
 16777215
176
     1
 74
     1
176
     1
 91
        4
176
     1
 64
     7
176
     1
 65
   257
176
     1
 75
     1
176
     1
175
     1
176
     1
 42
1.0
176
     1
 92
        8
176
     1
 66
     7
176
     1
 43
1.0
176
     1
 76
     1
176
     1
 77
     6
176
     1
 78
     2
176
     1
 67
     7
176
     1
 79
     5
176
     1
170
     0
176
     1
171
     0
176
     1
290
     0
176
     1
 93
        1
176
     1
 44
-50.0
176
     1
173
     0
176
     1
  0
VISUALSTYLE
  5
39
102
{ACAD_REACTORS
330
2A
102
}
330
2A
100
AcDbVisualStyle
  2
Facepattern
 70
    15
177
     2
291
     1
 71
     2
176
     1
 72
     2
176
     1
 73
     0
176
     1
 90
        0
176
     1
 40
-0.6
176
     1
 41
-30.0
176
     1
 62
     5
 63
     7
421
 16777215
176
     1
 74
     1
176
     1
 91
        4
176
     1
 64
     7
176
     1
 65
   257
176
     1
 75
     1
176
     1
175
     1
176
     1
 42
1.0
176
     1
 92
        8
176
     1
 66
     7
176
     1
 43
1.0
176
     1
 76
     1
176
     1
 77
     6
176
     1
 78
     2
176
     1
 67
     7
176
     1
 79
     5
176
     1
170
     0
176
     1
171
     0
176
     1
290
     0
176
     1
 93
        1
176
     1
 44
0.0
176
     1
173
     0
176
     1
  0
VISUALSTYLE
  5
2B
102
{ACAD_REACTORS
330
2A
102
}
330
2A
100
AcDbVisualStyle
  2
Flat
 70
     0
177
     2
291
     1
 71
     2
176
     1
 72
     1
176
     1
 73
     1
176
     1
 90
        2
176
     1
 40
-0.6
176
     1
 41
30.0
176
     1
 62
     5
 63
     7
421
 16777215
176
     1
 74
     0
176
     1
 91
        4
176
     1
 64
     7
176
     1
 65
   257
176
     1
 75
     1
176
     1
175
     1
176
     1
 42
1.0
176
     1
 92
        8
176
     1
 66
     7
176
     1
 43
1.0
176
     1
 76
     1
176
     1
 77
     6
176
     1
 78
     2
176
     1
 67
     7
176
     1
 79
     5
176
     1
170
     0
176
     1
171
     0
176
     1
290
     0
176
     1
 93
       13
176
     1
 44
0.0
176
     1
173
     0
176
     1
  0
VISUALSTYLE
  5
2C
102
{ACAD_REACTORS
330
2A
102
}
330
2A
100
AcDbVisualStyle
  2
FlatWithEdges
 70
     1
177
     2
291
     1
 71
     2
176
     1
 72
     1
176
     1
 73
     1
176
     1
 90
        2
176
     1
 40
-0.6
176
     1
 41
30.0
176
     1
 62
     5
 63
     7
421
 16777215
176
     1
 74
     1
176
     1
 91
        4
176
     1
 64
     7
176
     1
 65
   257
176
     1
 75
     1
176
     1
175
     1
176
     1
 42
1.0
176
     1
 92
        0
176
     1
 66
   257
176
     1
 43
1.0
176
     1
 76
     1
176
     1
 77
     6
176
     1
 78
     2
176
     1
 67
     7
176
     1
 79
     5
176
     1
170
     0
176
     1
171
     0
176
     1
290
     0
176
     1
 93
       13
176
     1
 44
0.0
176
     1
173
     0
176
     1
  0
VISUALSTYLE
  5
2D
102
{ACAD_REACTORS
330
2A
102
}
330
2A
100
AcDbVisualStyle
  2
Gouraud
 70
     2
177
     2
291
     1
 71
     2
176
     1
 72
     2
176
     1
 73
     1
176
     1
 90
        2
176
     1
 40
-0.6
176
     1
 41
30.0
176
     1
 62
     5
 63
     7
421
 16777215
176
     1
 74
     0
176
     1
 91
        4
176
     1
 64
     7
176
     1
 65
   257
176
     1
 75
     1
176
     1
175
     1
176
     1
 42
1.0
176
     1
 92
        0
176
     1
 66
     7
176
     1
 43
1.0
176
     1
 76
     1
176
     1
 77
     6
176
     1
 78
     2
176
     1
 67
     7
176
     1
 79
     5
176
     1
170
     0
176
     1
171
     0
176
     1
290
     0
176
     1
 93
       13
176
     1
 44
0.0
176
     1
173
     0
176
     1
  0
VISUALSTYLE
  5
2E
102
{ACAD_REACTORS
330
2A
102
}
330
2A
100
AcDbVisualStyle
  2
GouraudWithEdges
 70
     3
177
     2
291
     1
 71
     2
176
     1
 72
     2
176
     1
 73
     1
176
     1
 90
        2
176
     1
 40
-0.6
176
     1
 41
30.0
176
     1
 62
     5
 63
     7
421
 16777215
176
     1
 74
     1
176
     1
 91
        4
176
     1
 64
     7
176
     1
 65
   257
176
     1
 75
     1
176
     1
175
     1
176
     1
 42
1.0
176
     1
 92
        0
176
     1
 66
   257
176
     1
 43
1.0
176
     1
 76
     1
176
     1
 77
     6
176
     1
 78
     2
176
     1
 67
     7
176
     1
 79
     5
176
     1
170
     0
176
     1
171
     0
176
     1
290
     0
176
     1
 93
       13
176
     1
 44
0.0
176
     1
173
     0
176
     1
  0
VISUALSTYLE
  5
38
102
{ACAD_REACTORS
330
2A
102
}
330
2A
100
AcDbVisualStyle
  2
Linepattern
 70
    14
177
     2
291
     1
 71
     2
176
     1
 72
     2
176
     1
 73
     0
176
     1
 90
        0
176
     1
 40
-0.6
176
     1
 41
-30.0
176
     1
 62
     5
 63
     7
421
 16777215
176
     1
 74
     1
176
     1
 91
        4
176
     1
 64
     7
176
     1
 65
   257
176
     1
 75
     7
176
     1
175
     7
176
     1
 42
1.0
176
     1
 92
        8
176
     1
 66
     7
176
     1
 43
1.0
176
     1
 76
     1
176
     1
 77
     6
176
     1
 78
     2
176
     1
 67
     7
176
     1
 79
     5
176
     1
170
     0
176
     1
171
     0
176
     1
290
     0
176
     1
 93
        1
176
     1
 44
0.0
176
     1
173
     0
176
     1
  0
VISUALSTYLE
  5
33
102
{ACAD_REACTORS
330
2A
102
}
330
2A
100
AcDbVisualStyle
  2
Realistic
 70
     8
177
     2
291
     0
 71
     2
176
     1
 72
     2
176
     1
 73
     0
176
     1
 90
        0
176
     1
 40
-0.6
176
     1
 41
-30.0
176
     1
 62
     5
 63
     7
421
 16777215
176
     1
 74
     1
176
     1
 91
        0
176
     1
 64
     7
176
     1
 65
   257
176
     1
 75
     1
176
     1
175
     1
176
     1
 42
1.0
176
     1
 92
        8
176
     1
 66
     8
424
  7895160
176
     1
 43
1.0
176
     1
 76
     1
176
     1
 77
     6
176
     1
 78
     2
176
     1
 67
     7
176
     1
 79
     5
176
     1
170
     0
176
     1
171
     0
176
     1
290
     0
176
     1
 93
       13
176
     1
 44
0.0
176
     1
173
     0
176
     1
  0
VISUALSTYLE
  5
37
102
{ACAD_REACTORS
330
2A
102
}
330
2A
100
AcDbVisualStyle
  2
Thicken
 70
    13
177
     2
291
     1
 71
     2
176
     1
 72
     2
176
     1
 73
     0
176
     1
 90
        0
176
     1
 40
-0.6
176
     1
 41
-30.0
176
     1
 62
     5
 63
     7
421
 16777215
176
     1
 74
     1
176
     1
 91
        4
176
     1
 64
     7
176
     1
 65
   257
176
     1
 75
     1
176
     1
175
     1
176
     1
 42
1.0
176
     1
 92
       12
176
     1
 66
     7
176
     1
 43
1.0
176
     1
 76
     1
176
     1
 77
     6
176
     1
 78
     2
176
     1
 67
     7
176
     1
 79
     5
176
     1
170
     0
176
     1
171
     0
176
     1
290
     0
176
     1
 93
        1
176
     1
 44
0.0
176
     1
173
     0
176
     1
  0
ENDSEC
  0
EOF
