  0
SECTION
  2
HEADER
  9
$ACADVER
  1
AC1024
  9
$ACADMAINTVER
 70
     6
  9
$DWGCODEPAGE
  3
UNDEFINED
  9
$INSBASE
 10
0.0
 20
0.0
 30
0.0
  9
$EXTMIN
 10
1.000000000000000E+20
 20
1.000000000000000E+20
 30
1.000000000000000E+20
  9
$EXTMAX
 10
-1.000000000000000E+20
 20
-1.000000000000000E+20
 30
-1.000000000000000E+20
  9
$LIMMIN
 10
0.0
 20
0.0
  9
$LIMMAX
 10
12.0
 20
9.0
  9
$ORTHOMODE
 70
     0
  9
$REGENMODE
 70
     1
  9
$FILLMODE
 70
     1
  9
$QTEXTMODE
 70
     0
  9
$MIRRTEXT
 70
     1
  9
$LTSCALE
 40
1.0
  9
$ATTMODE
 70
     1
  9
$TEXTSIZE
 40
0.2
  9
$TRACEWID
 40
0.05
  9
$TEXTSTYLE
  7
Standard
  9
$CLAYER
  8
0
  9
$CELTYPE
  6
ByLayer
  9
$CECOLOR
 62
   256
  9
$CELTSCALE
 40
1.0
  9
$DISPSILH
 70
     0
  9
$DIMSCALE
 40
1.0
  9
$DIMASZ
 40
0.18
  9
$DIMEXO
 40
0.0625
  9
$DIMDLI
 40
0.38
  9
$DIMRND
 40
0.0
  9
$DIMDLE
 40
0.0
  9
$DIMEXE
 40
0.18
  9
$DIMTP
 40
0.0
  9
$DIMTM
 40
0.0
  9
$DIMTXT
 40
0.18
  9
$DIMCEN
 40
0.09
  9
$DIMTSZ
 40
0.0
  9
$DIMTOL
 70
     0
  9
$DIMLIM
 70
     0
  9
$DIMTIH
 70
     1
  9
$DIMTOH
 70
     1
  9
$DIMSE1
 70
     0
  9
$DIMSE2
 70
     0
  9
$DIMTAD
 70
     0
  9
$DIMZIN
 70
     0
  9
$DIMBLK
  1

  9
$DIMASO
 70
     1
  9
$DIMSHO
 70
     1
  9
$DIMPOST
  1

  9
$DIMAPOST
  1

  9
$DIMALT
 70
     0
  9
$DIMALTD
 70
     2
  9
$DIMALTF
 40
25.4
  9
$DIMLFAC
 40
1.0
  9
$DIMTOFL
 70
     0
  9
$DIMTVP
 40
0.0
  9
$DIMTIX
 70
     0
  9
$DIMSOXD
 70
     0
  9
$DIMSAH
 70
     0
  9
$DIMBLK1
  1

  9
$DIMBLK2
  1

  9
$DIMSTYLE
  2
Standard
  9
$DIMCLRD
 70
     0
  9
$DIMCLRE
 70
     0
  9
$DIMCLRT
 70
     0
  9
$DIMTFAC
 40
1.0
  9
$DIMGAP
 40
0.09
  9
$DIMJUST
 70
     0
  9
$DIMSD1
 70
     0
  9
$DIMSD2
 70
     0
  9
$DIMTOLJ
 70
     1
  9
$DIMTZIN
 70
     0
  9
$DIMALTZ
 70
     0
  9
$DIMALTTZ
 70
     0
  9
$DIMUPT
 70
     0
  9
$DIMDEC
 70
     4
  9
$DIMTDEC
 70
     4
  9
$DIMALTU
 70
     2
  9
$DIMALTTD
 70
     2
  9
$DIMTXSTY
  7
Standard
  9
$DIMAUNIT
 70
     0
  9
$DIMADEC
 70
     0
  9
$DIMALTRND
 40
0.0
  9
$DIMAZIN
 70
     0
  9
$DIMDSEP
 70
    46
  9
$DIMATFIT
 70
     3
  9
$DIMFRAC
 70
     0
  9
$DIMLDRBLK
  1

  9
$DIMLUNIT
 70
     2
  9
$DIMLWD
 70
    -2
  9
$DIMLWE
 70
    -2
  9
$DIMTMOVE
 70
     0
  9
$DIMFXL
 40
1.0
  9
$DIMFXLON
 70
     0
  9
$DIMJOGANG
 40
0.7853981633974483
  9
$DIMTFILL
 70
     0
  9
$DIMTFILLCLR
 70
     0
  9
$DIMARCSYM
 70
     0
  9
$DIMLTYPE
  6

  9
$DIMLTEX1
  6

  9
$DIMLTEX2
  6

  9
$DIMTXTDIRECTION
 70
     0
  9
$LUNITS
 70
     2
  9
$LUPREC
 70
     4
  9
$SKETCHINC
 40
0.1
  9
$FILLETRAD
 40
0.5
  9
$AUNITS
 70
     0
  9
$AUPREC
 70
     0
  9
$MENU
  1
.
  9
$ELEVATION
 40
0.0
  9
$PELEVATION
 40
0.0
  9
$THICKNESS
 40
0.0
  9
$LIMCHECK
 70
     0
  9
$CHAMFERA
 40
0.5
  9
$CHAMFERB
 40
0.5
  9
$CHAMFERC
 40
1.0
  9
$CHAMFERD
 40
0.0
  9
$SKPOLY
 70
     0
  9
$TDCREATE
 40
2457917.627604155
  9
$TDUCREATE
 40
2457917.252604167
  9
$TDUPDATE
 40
2457917.627604155
  9
$TDUUPDATE
 40
2457917.252604167
  9
$TDINDWG
 40
0.0000000116
  9
$TDUSRTIMER
 40
0.0000000116
  9
$USRTIMER
 70
     1
  9
$ANGBASE
 50
0.0
  9
$ANGDIR
 70
     0
  9
$PDMODE
 70
     0
  9
$PDSIZE
 40
0.0
  9
$PLINEWID
 40
0.0
  9
$SPLFRAME
 70
     0
  9
$SPLINETYPE
 70
     6
  9
$SPLINESEGS
 70
     8
  9
$HANDSEED
  5
10C
  9
$SURFTAB1
 70
     6
  9
$SURFTAB2
 70
     6
  9
$SURFTYPE
 70
     6
  9
$SURFU
 70
     6
  9
$SURFV
 70
     6
  9
$UCSBASE
  2

  9
$UCSNAME
  2

  9
$UCSORG
 10
0.0
 20
0.0
 30
0.0
  9
$UCSXDIR
 10
1.0
 20
0.0
 30
0.0
  9
$UCSYDIR
 10
0.0
 20
1.0
 30
0.0
  9
$UCSORTHOREF
  2

  9
$UCSORTHOVIEW
 70
     0
  9
$UCSORGTOP
 10
0.0
 20
0.0
 30
0.0
  9
$UCSORGBOTTOM
 10
0.0
 20
0.0
 30
0.0
  9
$UCSORGLEFT
 10
0.0
 20
0.0
 30
0.0
  9
$UCSORGRIGHT
 10
0.0
 20
0.0
 30
0.0
  9
$UCSORGFRONT
 10
0.0
 20
0.0
 30
0.0
  9
$UCSORGBACK
 10
0.0
 20
0.0
 30
0.0
  9
$PUCSBASE
  2

  9
$PUCSNAME
  2

  9
$PUCSORG
 10
0.0
 20
0.0
 30
0.0
  9
$PUCSXDIR
 10
1.0
 20
0.0
 30
0.0
  9
$PUCSYDIR
 10
0.0
 20
1.0
 30
0.0
  9
$PUCSORTHOREF
  2

  9
$PUCSORTHOVIEW
 70
     0
  9
$PUCSORGTOP
 10
0.0
 20
0.0
 30
0.0
  9
$PUCSORGBOTTOM
 10
0.0
 20
0.0
 30
0.0
  9
$PUCSORGLEFT
 10
0.0
 20
0.0
 30
0.0
  9
$PUCSORGRIGHT
 10
0.0
 20
0.0
 30
0.0
  9
$PUCSORGFRONT
 10
0.0
 20
0.0
 30
0.0
  9
$PUCSORGBACK
 10
0.0
 20
0.0
 30
0.0
  9
$USERI1
 70
     0
  9
$USERI2
 70
     0
  9
$USERI3
 70
     0
  9
$USERI4
 70
     0
  9
$USERI5
 70
     0
  9
$USERR1
 40
0.0
  9
$USERR2
 40
0.0
  9
$USERR3
 40
0.0
  9
$USERR4
 40
0.0
  9
$USERR5
 40
0.0
  9
$WORLDVIEW
 70
     1
  9
$SHADEDGE
 70
     3
  9
$SHADEDIF
 70
    70
  9
$TILEMODE
 70
     1
  9
$MAXACTVP
 70
    64
  9
$PINSBASE
 10
0.0
 20
0.0
 30
0.0
  9
$PLIMCHECK
 70
     0
  9
$PEXTMIN
 10
1.000000000000000E+20
 20
1.000000000000000E+20
 30
1.000000000000000E+20
  9
$PEXTMAX
 10
-1.000000000000000E+20
 20
-1.000000000000000E+20
 30
-1.000000000000000E+20
  9
$PLIMMIN
 10
0.0
 20
0.0
  9
$PLIMMAX
 10
12.0
 20
9.0
  9
$UNITMODE
 70
     0
  9
$VISRETAIN
 70
     1
  9
$PLINEGEN
 70
     0
  9
$PSLTSCALE
 70
     1
  9
$TREEDEPTH
 70
  3020
  9
$CMLSTYLE
  2
Standard
  9
$CMLJUST
 70
     0
  9
$CMLSCALE
 40
1.0
  9
$PROXYGRAPHICS
 70
     1
  9
$MEASUREMENT
 70
     0
  9
$CELWEIGHT
370
    -1
  9
$ENDCAPS
280
     0
  9
$JOINSTYLE
280
     0
  9
$LWDISPLAY
290
     1
  9
$INSUNITS
 70
     1
  9
$HYPERLINKBASE
  1

  9
$STYLESHEET
  1

  9
$XEDIT
290
     1
  9
$CEPSNTYPE
380
     0
  9
$PSTYLEMODE
290
     1
  9
$FINGERPRINTGUID
  2
{A9693A0A-2066-BA50-DE50-5DC75E423EB6}
  9
$VERSIONGUID
  2
{FAEB1C32-E019-11D5-929B-00C0DF256EC4}
  9
$EXTNAMES
290
     1
  9
$PSVPSCALE
 40
0.0
  9
$OLESTARTUP
290
     0
  9
$SORTENTS
280
   127
  9
$INDEXCTL
280
     0
  9
$HIDETEXT
280
     1
  9
$XCLIPFRAME
280
     2
  9
$HALOGAP
280
     0
  9
$OBSCOLOR
 70
   257
  9
$OBSLTYPE
280
     0
  9
$INTERSECTIONDISPLAY
280
     0
  9
$INTERSECTIONCOLOR
 70
   257
  9
$DIMASSOC
280
     2
  9
$PROJECTNAME
  1

  9
$CAMERADISPLAY
290
     0
  9
$LENSLENGTH
 40
50.0
  9
$CAMERAHEIGHT
 40
0.0
  9
$STEPSPERSEC
 40
2.0
  9
$STEPSIZE
 40
6.0
  9
$3DDWFPREC
 40
2.0
  9
$PSOLWIDTH
 40
0.25
  9
$PSOLHEIGHT
 40
4.0
  9
$LOFTANG1
 40
1.570796326794897
  9
$LOFTANG2
 40
1.570796326794897
  9
$LOFTMAG1
 40
0.0
  9
$LOFTMAG2
 40
0.0
  9
$LOFTPARAM
 70
     7
  9
$LOFTNORMALS
280
     1
  9
$LATITUDE
 40
37.795
  9
$LONGITUDE
 40
-122.394
  9
$NORTHDIRECTION
 40
0.0
  9
$TIMEZONE
 70
 -8000
  9
$LIGHTGLYPHDISPLAY
280
     1
  9
$TILEMODELIGHTSYNCH
280
     1
  9
$CMATERIAL
347
3C
  9
$SOLIDHIST
280
     1
  9
$SHOWHIST
280
     1
  9
$DWFFRAME
280
     2
  9
$DGNFRAME
280
     2
  9
$REALWORLDSCALE
290
     1
  9
$INTERFERECOLOR
 62
   256
  9
$CSHADOW
280
     0
  9
$SHADOWPLANELOCATION
 40
0.0
  0
ENDSEC
  0
SECTION
  2
CLASSES
  0
CLASS
  1
ACDBDICTIONARYWDFLT
  2
AcDbDictionaryWithDefault
  3
ObjectDBX Classes
 90
        0
 91
        4
280
     0
281
     0
  0
CLASS
  1
VISUALSTYLE
  2
AcDbVisualStyle
  3
ObjectDBX Classes
 90
     4095
 91
        4
280
     0
281
     0
  0
CLASS
  1
MATERIAL
  2
AcDbMaterial
  3
ObjectDBX Classes
 90
     1153
 91
        4
280
     0
281
     0
  0
CLASS
  1
SUN
  2
AcDbSun
  3
SCENEOE
 90
     1024
 91
        4
280
     0
281
     0
  0
ENDSEC
  0
SECTION
  2
TABLES
  0
TABLE
  2
VPORT
  5
8
330
0
100
AcDbSymbolTable
 70
     1
  0
VPORT
  5
29
330
8
100
AcDbSymbolTableRecord
100
AcDbViewportTableRecord
  2
*Active
 70
     0
 10
0.0
 20
0.0
 11
1.0
 21
1.0
 12
0.0
 22
0.0
 13
0.0
 23
0.0
 14
0.5
 24
0.5
 15
0.5
 25
0.5
 16
0.0
 26
0.0
 36
1.0
 17
91.00082462281999
 27
-128.4993055234307
 37
0.0
 40
256.9986110468615
 41
0.7081814508812795
 42
50.0
 43
0.0
 44
0.0
 50
0.0
 51
0.0
 71
     0
 72
   100
 73
     1
 74
     3
 75
     0
 76
     0
 77
     0
 78
     0
281
     0
 65
     1
110
0.0
120
0.0
130
0.0
111
1.0
121
0.0
131
0.0
112
0.0
122
1.0
132
0.0
 79
     0
146
0.0
 60
     3
 61
     5
292
     1
282
     1
141
0.0
142
0.0
 63
   250
361
3F
  0
ENDTAB
  0
TABLE
  2
LTYPE
  5
5
330
0
100
AcDbSymbolTable
 70
     1
  0
LTYPE
  5
14
330
5
100
AcDbSymbolTableRecord
100
AcDbLinetypeTableRecord
  2
ByBlock
 70
     0
  3

 72
    65
 73
     0
 40
0.0
  0
LTYPE
  5
15
330
5
100
AcDbSymbolTableRecord
100
AcDbLinetypeTableRecord
  2
ByLayer
 70
     0
  3

 72
    65
 73
     0
 40
0.0
  0
LTYPE
  5
16
330
5
100
AcDbSymbolTableRecord
100
AcDbLinetypeTableRecord
  2
Continuous
 70
     0
  3
Solid line
 72
    65
 73
     0
 40
0.0
  0
ENDTAB
  0
TABLE
  2
LAYER
  5
2
330
0
100
AcDbSymbolTable
 70
     2
  0
LAYER
  5
10
330
2
100
AcDbSymbolTableRecord
100
AcDbLayerTableRecord
  2
0
 70
     0
 62
     7
  6
Continuous
370
    -3
390
F
347
3E
  0
LAYER
  5
40
330
2
100
AcDbSymbolTableRecord
100
AcDbLayerTableRecord
  2
_U+30EC_U+30A4_U+30E4_U+30FC 1
 70
     0
 62
     7
  6
Continuous
370
    -3
390
F
347
3E
  0
ENDTAB
  0
TABLE
  2
STYLE
  5
3
330
0
100
AcDbSymbolTable
 70
     1
  0
STYLE
  5
11
330
3
100
AcDbSymbolTableRecord
100
AcDbTextStyleTableRecord
  2
Standard
 70
     0
 40
0.0
 41
1.0
 50
0.0
 71
     0
 42
0.2
  3
txt
  4

  0
ENDTAB
  0
TABLE
  2
VIEW
  5
6
330
0
100
AcDbSymbolTable
 70
     0
  0
ENDTAB
  0
TABLE
  2
UCS
  5
7
330
0
100
AcDbSymbolTable
 70
     0
  0
ENDTAB
  0
TABLE
  2
APPID
  5
9
330
0
100
AcDbSymbolTable
 70
     1
  0
APPID
  5
12
330
9
100
AcDbSymbolTableRecord
100
AcDbRegAppTableRecord
  2
ACAD
 70
     0
  0
ENDTAB
  0
TABLE
  2
DIMSTYLE
  5
A
330
0
100
AcDbSymbolTable
 70
     1
100
AcDbDimStyleTable
  0
DIMSTYLE
105
27
330
A
100
AcDbSymbolTableRecord
100
AcDbDimStyleTableRecord
  2
Standard
 70
     0
178
     0
340
11
  0
ENDTAB
  0
TABLE
  2
BLOCK_RECORD
  5
1
330
0
100
AcDbSymbolTable
 70
     6
  0
BLOCK_RECORD
  5
1F
330
1
100
AcDbSymbolTableRecord
100
AcDbBlockTableRecord
  2
*Model_Space
340
22
 70
     0
280
     1
281
     0
  0
BLOCK_RECORD
  5
1B
330
1
100
AcDbSymbolTableRecord
100
AcDbBlockTableRecord
  2
*Paper_Space
340
1E
 70
     0
280
     1
281
     0
  0
BLOCK_RECORD
  5
23
330
1
100
AcDbSymbolTableRecord
100
AcDbBlockTableRecord
  2
*Paper_Space0
340
26
 70
     0
280
     1
281
     0
  0
BLOCK_RECORD
  5
9C
330
1
100
AcDbSymbolTableRecord
100
AcDbBlockTableRecord
  2
block 2
340
0
102
{BLKREFS
331
9D
102
}
 70
     0
280
     1
281
     0
  0
BLOCK_RECORD
  5
B7
330
1
100
AcDbSymbolTableRecord
100
AcDbBlockTableRecord
  2
block 3
340
0
102
{BLKREFS
331
B8
102
}
 70
     0
280
     1
281
     0
  0
BLOCK_RECORD
  5
BD
330
1
100
AcDbSymbolTableRecord
100
AcDbBlockTableRecord
  2
block 4
340
0
102
{BLKREFS
331
BE
102
}
 70
     0
280
     1
281
     0
  0
BLOCK_RECORD
  5
C6
330
1
100
AcDbSymbolTableRecord
100
AcDbBlockTableRecord
  2
block 5
340
0
102
{BLKREFS
331
C7
102
}
 70
     0
280
     1
281
     0
  0
BLOCK_RECORD
  5
E6
330
1
100
AcDbSymbolTableRecord
100
AcDbBlockTableRecord
  2
block 6
340
0
102
{BLKREFS
331
E7
102
}
 70
     0
280
     1
281
     0
  0
ENDTAB
  0
ENDSEC
  0
SECTION
  2
BLOCKS
  0
BLOCK
  5
20
330
1F
100
AcDbEntity
  8
0
100
AcDbBlockBegin
  2
*Model_Space
 70
     0
 10
0.0
 20
0.0
 30
0.0
  3
*Model_Space
  1

  0
ENDBLK
  5
21
330
1F
100
AcDbEntity
  8
0
100
AcDbBlockEnd
  0
BLOCK
  5
1C
330
1B
100
AcDbEntity
 67
     1
  8
0
100
AcDbBlockBegin
  2
*Paper_Space
 70
     0
 10
0.0
 20
0.0
 30
0.0
  3
*Paper_Space
  1

  0
ENDBLK
  5
1D
330
1B
100
AcDbEntity
 67
     1
  8
0
100
AcDbBlockEnd
  0
BLOCK
  5
24
330
23
100
AcDbEntity
  8
0
100
AcDbBlockBegin
  2
*Paper_Space0
 70
     0
 10
0.0
 20
0.0
 30
0.0
  3
*Paper_Space0
  1

  0
ENDBLK
  5
25
330
23
100
AcDbEntity
  8
0
100
AcDbBlockEnd
  0
BLOCK
  5
9E
330
9C
100
AcDbEntity
  8
0
100
AcDbBlockBegin
  2
block 2
 70
     0
 10
0.0
 20
0.0
 30
0.0
  3
block 2
  1

  0
SPLINE
  5
A0
330
9C
100
AcDbEntity
  8
_U+30EC_U+30A4_U+30E4_U+30FC 1
370
     0
100
AcDbSpline
210
0.0
220
0.0
230
1.0
 70
    11
 71
     3
 72
    44
 73
    40
 74
     0
 42
0.0000000001
 43
0.0000000001
 12
1.0
 22
0.0
 32
0.0
 13
1.0
 23
0.0
 33
0.0
 40
0.0
 40
0.0
 40
0.0
 40
0.0
 40
1.0
 40
1.0
 40
1.0
 40
2.0
 40
2.0
 40
2.0
 40
3.0
 40
3.0
 40
3.0
 40
4.0
 40
4.0
 40
4.0
 40
5.0
 40
5.0
 40
5.0
 40
6.0
 40
6.0
 40
6.0
 40
7.0
 40
7.0
 40
7.0
 40
8.0
 40
8.0
 40
8.0
 40
9.0
 40
9.0
 40
9.0
 40
10.0
 40
10.0
 40
10.0
 40
11.0
 40
11.0
 40
11.0
 40
12.0
 40
12.0
 40
12.0
 40
13.0
 40
13.0
 40
13.0
 40
13.0
 10
107.5937770998377
 20
-123.7271592572627
 30
0.0
 10
107.7525960017077
 20
-123.9448892919305
 30
0.0
 10
107.8266655546406
 20
-124.0379068700322
 30
0.0
 10
107.9703260363755
 20
-124.0868272259227
 30
0.0
 10
107.9703260363755
 20
-124.0868272259227
 30
0.0
 10
107.9703260363755
 20
-123.3082356462563
 30
0.0
 10
107.9703260363755
 20
-123.3082356462563
 30
0.0
 10
107.9703260363755
 20
-123.3082356462563
 30
0.0
 10
108.1756537272964
 20
-123.3082356462563
 30
0.0
 10
108.1756537272964
 20
-123.3082356462563
 30
0.0
 10
108.1756537272964
 20
-123.3082356462563
 30
0.0
 10
108.1756537272964
 20
-124.3362521390548
 30
0.0
 10
108.1756537272964
 20
-124.3362521390548
 30
0.0
 10
107.8180528159274
 20
-124.3045572605905
 30
0.0
 10
107.7398491484123
 20
-124.2391004463708
 30
0.0
 10
107.4415038793896
 20
-123.8539387711199
 30
0.0
 10
107.2427218698907
 20
-123.5979681765658
 30
0.0
 10
107.1748534888313
 20
-123.532511362346
 30
0.0
 10
107.0373941789698
 20
-123.532511362346
 30
0.0
 10
106.9188828942772
 20
-123.532511362346
 30
0.0
 10
106.7879692658377
 20
-123.6045138579878
 30
0.0
 10
106.7879692658377
 20
-123.8012288101955
 30
0.0
 10
106.7879692658377
 20
-124.0613335193319
 30
0.0
 10
107.018446153801
 20
-124.0696017484965
 30
0.0
 10
107.1348903812024
 20
-124.0740803726273
 30
0.0
 10
107.1348903812024
 20
-124.0740803726273
 30
0.0
 10
107.1348903812024
 20
-124.2983560887171
 30
0.0
 10
107.1348903812024
 20
-124.2983560887171
 30
0.0
 10
107.0077663577967
 20
-124.289743350004
 30
0.0
 10
106.8958007545261
 20
-124.2790635539997
 30
0.0
 10
106.7772894698335
 20
-124.1987928291934
 30
0.0
 10
106.6164035106723
 20
-124.0888942832139
 30
0.0
 10
106.5826415749168
 20
-123.9025146174619
 30
0.0
 10
106.5826415749168
 20
-123.786414899609
 30
0.0
 10
106.5826415749168
 20
-123.5090847130463
 30
0.0
 10
106.7666096738292
 20
-123.3016899648343
 30
0.0
 10
107.039461236261
 20
-123.3016899648343
 30
0.0
 10
107.2682155764816
 20
-123.3016899648343
 30
0.0
 10
107.3674343264568
 20
-123.4181341922358
 30
0.0
 10
107.5937770998377
 20
-123.7271592572627
 30
0.0
  0
HATCH
  5
A1
330
9C
100
AcDbEntity
  8
_U+30EC_U+30A4_U+30E4_U+30FC 1
 62
   179
420
  2234388
100
AcDbHatch
 10
0.0
 20
0.0
 30
0.0
210
0.0
220
0.0
230
1.0
  2
SOLID
 70
     1
 71
     0
 91
        1
 92
        1
 93
        1
 72
     4
 94
        3
 73
     0
 74
     1
 95
       44
 96
       40
 40
0.0
 40
0.0
 40
0.0
 40
0.0
 40
1.0
 40
1.0
 40
1.0
 40
2.0
 40
2.0
 40
2.0
 40
3.0
 40
3.0
 40
3.0
 40
4.0
 40
4.0
 40
4.0
 40
5.0
 40
5.0
 40
5.0
 40
6.0
 40
6.0
 40
6.0
 40
7.0
 40
7.0
 40
7.0
 40
8.0
 40
8.0
 40
8.0
 40
9.0
 40
9.0
 40
9.0
 40
10.0
 40
10.0
 40
10.0
 40
11.0
 40
11.0
 40
11.0
 40
12.0
 40
12.0
 40
12.0
 40
13.0
 40
13.0
 40
13.0
 40
13.0
 10
107.5937770998377
 20
-123.7271592572627
 10
107.7525960017077
 20
-123.9448892919305
 10
107.8266655546406
 20
-124.0379068700322
 10
107.9703260363755
 20
-124.0868272259227
 10
107.9703260363755
 20
-124.0868272259227
 10
107.9703260363755
 20
-123.3082356462563
 10
107.9703260363755
 20
-123.3082356462563
 10
107.9703260363755
 20
-123.3082356462563
 10
108.1756537272964
 20
-123.3082356462563
 10
108.1756537272964
 20
-123.3082356462563
 10
108.1756537272964
 20
-123.3082356462563
 10
108.1756537272964
 20
-124.3362521390548
 10
108.1756537272964
 20
-124.3362521390548
 10
107.8180528159274
 20
-124.3045572605905
 10
107.7398491484123
 20
-124.2391004463708
 10
107.4415038793896
 20
-123.8539387711199
 10
107.2427218698907
 20
-123.5979681765658
 10
107.1748534888313
 20
-123.532511362346
 10
107.0373941789698
 20
-123.532511362346
 10
106.9188828942772
 20
-123.532511362346
 10
106.7879692658377
 20
-123.6045138579878
 10
106.7879692658377
 20
-123.8012288101955
 10
106.7879692658377
 20
-124.0613335193319
 10
107.018446153801
 20
-124.0696017484965
 10
107.1348903812024
 20
-124.0740803726273
 10
107.1348903812024
 20
-124.0740803726273
 10
107.1348903812024
 20
-124.2983560887171
 10
107.1348903812024
 20
-124.2983560887171
 10
107.0077663577967
 20
-124.289743350004
 10
106.8958007545261
 20
-124.2790635539997
 10
106.7772894698335
 20
-124.1987928291934
 10
106.6164035106723
 20
-124.0888942832139
 10
106.5826415749168
 20
-123.9025146174619
 10
106.5826415749168
 20
-123.786414899609
 10
106.5826415749168
 20
-123.5090847130463
 10
106.7666096738292
 20
-123.3016899648343
 10
107.039461236261
 20
-123.3016899648343
 10
107.2682155764816
 20
-123.3016899648343
 10
107.3674343264568
 20
-123.4181341922358
 10
107.5937770998377
 20
-123.7271592572627
 97
        0
 97
        0
 75
     2
 76
     1
 98
        0
  0
POLYLINE
  5
A2
330
9C
100
AcDbEntity
  8
_U+30EC_U+30A4_U+30E4_U+30FC 1
370
     0
100
AcDb2dPolyline
 66
     1
 10
0.0
 20
0.0
 30
0.0
  0
VERTEX
  5
A3
330
A2
100
AcDbEntity
  8
_U+30EC_U+30A4_U+30E4_U+30FC 1
370
     0
100
AcDbVertex
100
AcDb2dVertex
 10
107.8287326119317
 20
-122.311225012825
 30
0.0
  0
VERTEX
  5
A4
330
A2
100
AcDbEntity
  8
_U+30EC_U+30A4_U+30E4_U+30FC 1
370
     0
100
AcDbVertex
100
AcDb2dVertex
 10
108.1756537272964
 20
-122.311225012825
 30
0.0
  0
VERTEX
  5
A5
330
A2
100
AcDbEntity
  8
_U+30EC_U+30A4_U+30E4_U+30FC 1
370
     0
100
AcDbVertex
100
AcDb2dVertex
 10
108.1756537272964
 20
-122.5289550474928
 30
0.0
  0
VERTEX
  5
A6
330
A2
100
AcDbEntity
  8
_U+30EC_U+30A4_U+30E4_U+30FC 1
370
     0
100
AcDbVertex
100
AcDb2dVertex
 10
107.8287326119317
 20
-122.5289550474928
 30
0.0
  0
VERTEX
  5
A7
330
A2
100
AcDbEntity
  8
_U+30EC_U+30A4_U+30E4_U+30FC 1
370
     0
100
AcDbVertex
100
AcDb2dVertex
 10
107.8287326119317
 20
-123.1849012278843
 30
0.0
  0
VERTEX
  5
A8
330
A2
100
AcDbEntity
  8
_U+30EC_U+30A4_U+30E4_U+30FC 1
370
     0
100
AcDbVertex
100
AcDb2dVertex
 10
107.6044568958419
 20
-123.1849012278843
 30
0.0
  0
VERTEX
  5
A9
330
A2
100
AcDbEntity
  8
_U+30EC_U+30A4_U+30E4_U+30FC 1
370
     0
100
AcDbVertex
100
AcDb2dVertex
 10
106.6312174212589
 20
-122.5058729077416
 30
0.0
  0
VERTEX
  5
AA
330
A2
100
AcDbEntity
  8
_U+30EC_U+30A4_U+30E4_U+30FC 1
370
     0
100
AcDbVertex
100
AcDb2dVertex
 10
106.6312174212589
 20
-122.311225012825
 30
0.0
  0
VERTEX
  5
AB
330
A2
100
AcDbEntity
  8
_U+30EC_U+30A4_U+30E4_U+30FC 1
370
     0
100
AcDbVertex
100
AcDb2dVertex
 10
107.6299506024328
 20
-122.311225012825
 30
0.0
  0
VERTEX
  5
AC
330
A2
100
AcDbEntity
  8
_U+30EC_U+30A4_U+30E4_U+30FC 1
370
     0
100
AcDbVertex
100
AcDb2dVertex
 10
107.6299506024328
 20
-122.1038302646129
 30
0.0
  0
VERTEX
  5
AD
330
A2
100
AcDbEntity
  8
_U+30EC_U+30A4_U+30E4_U+30FC 1
370
     0
100
AcDbVertex
100
AcDb2dVertex
 10
107.8287326119317
 20
-122.1038302646129
 30
0.0
  0
VERTEX
  5
AE
330
A2
100
AcDbEntity
  8
_U+30EC_U+30A4_U+30E4_U+30FC 1
370
     0
100
AcDbVertex
100
AcDb2dVertex
 10
107.8287326119317
 20
-122.311225012825
 30
0.0
  0
SEQEND
  5
AF
330
A2
100
AcDbEntity
  8
_U+30EC_U+30A4_U+30E4_U+30FC 1
370
     0
  0
POLYLINE
  5
B0
330
9C
100
AcDbEntity
  8
_U+30EC_U+30A4_U+30E4_U+30FC 1
370
     0
100
AcDb2dPolyline
 66
     1
 10
0.0
 20
0.0
 30
0.0
  0
VERTEX
  5
B1
330
B0
100
AcDbEntity
  8
_U+30EC_U+30A4_U+30E4_U+30FC 1
370
     0
100
AcDbVertex
100
AcDb2dVertex
 10
106.9740044220412
 20
-122.5289550474928
 30
0.0
  0
VERTEX
  5
B2
330
B0
100
AcDbEntity
  8
_U+30EC_U+30A4_U+30E4_U+30FC 1
370
     0
100
AcDbVertex
100
AcDb2dVertex
 10
107.6299506024328
 20
-122.9861192183854
 30
0.0
  0
VERTEX
  5
B3
330
B0
100
AcDbEntity
  8
_U+30EC_U+30A4_U+30E4_U+30FC 1
370
     0
100
AcDbVertex
100
AcDb2dVertex
 10
107.6299506024328
 20
-122.5289550474928
 30
0.0
  0
VERTEX
  5
B4
330
B0
100
AcDbEntity
  8
_U+30EC_U+30A4_U+30E4_U+30FC 1
370
     0
100
AcDbVertex
100
AcDb2dVertex
 10
106.9740044220412
 20
-122.5289550474928
 30
0.0
  0
SEQEND
  5
B5
330
B0
100
AcDbEntity
  8
_U+30EC_U+30A4_U+30E4_U+30FC 1
370
     0
  0
HATCH
  5
B6
330
9C
100
AcDbEntity
  8
_U+30EC_U+30A4_U+30E4_U+30FC 1
 62
   179
420
  2234388
100
AcDbHatch
 10
0.0
 20
0.0
 30
0.0
210
0.0
220
0.0
230
1.0
  2
SOLID
 70
     1
 71
     0
 91
        2
 92
        1
 93
       11
 72
     1
 10
107.8287326119317
 20
-122.311225012825
 11
108.1756537272964
 21
-122.311225012825
 72
     1
 10
108.1756537272964
 20
-122.311225012825
 11
108.1756537272964
 21
-122.5289550474928
 72
     1
 10
108.1756537272964
 20
-122.5289550474928
 11
107.8287326119317
 21
-122.5289550474928
 72
     1
 10
107.8287326119317
 20
-122.5289550474928
 11
107.8287326119317
 21
-123.1849012278843
 72
     1
 10
107.8287326119317
 20
-123.1849012278843
 11
107.6044568958419
 21
-123.1849012278843
 72
     1
 10
107.6044568958419
 20
-123.1849012278843
 11
106.6312174212589
 21
-122.5058729077416
 72
     1
 10
106.6312174212589
 20
-122.5058729077416
 11
106.6312174212589
 21
-122.311225012825
 72
     1
 10
106.6312174212589
 20
-122.311225012825
 11
107.6299506024328
 21
-122.311225012825
 72
     1
 10
107.6299506024328
 20
-122.311225012825
 11
107.6299506024328
 21
-122.1038302646129
 72
     1
 10
107.6299506024328
 20
-122.1038302646129
 11
107.8287326119317
 21
-122.1038302646129
 72
     1
 10
107.8287326119317
 20
-122.1038302646129
 11
107.8287326119317
 21
-122.311225012825
 97
        0
 92
        1
 93
        3
 72
     1
 10
106.9740044220412
 20
-122.5289550474928
 11
107.6299506024328
 21
-122.9861192183854
 72
     1
 10
107.6299506024328
 20
-122.9861192183854
 11
107.6299506024328
 21
-122.5289550474928
 72
     1
 10
107.6299506024328
 20
-122.5289550474928
 11
106.9740044220412
 21
-122.5289550474928
 97
        0
 75
     2
 76
     1
 98
        0
  0
ENDBLK
  5
9F
330
9C
100
AcDbEntity
  8
0
100
AcDbBlockEnd
  0
BLOCK
  5
B9
330
B7
100
AcDbEntity
  8
0
100
AcDbBlockBegin
  2
block 3
 70
     0
 10
0.0
 20
0.0
 30
0.0
  3
block 3
  1

  0
SPLINE
  5
BB
330
B7
100
AcDbEntity
  8
_U+30EC_U+30A4_U+30E4_U+30FC 1
370
     0
100
AcDbSpline
210
0.0
220
0.0
230
1.0
 70
    11
 71
     3
 72
    53
 73
    49
 74
     0
 42
0.0000000001
 43
0.0000000001
 12
1.0
 22
0.0
 32
0.0
 13
1.0
 23
0.0
 33
0.0
 40
0.0
 40
0.0
 40
0.0
 40
0.0
 40
1.0
 40
1.0
 40
1.0
 40
2.0
 40
2.0
 40
2.0
 40
3.0
 40
3.0
 40
3.0
 40
4.0
 40
4.0
 40
4.0
 40
5.0
 40
5.0
 40
5.0
 40
6.0
 40
6.0
 40
6.0
 40
7.0
 40
7.0
 40
7.0
 40
8.0
 40
8.0
 40
8.0
 40
9.0
 40
9.0
 40
9.0
 40
10.0
 40
10.0
 40
10.0
 40
11.0
 40
11.0
 40
11.0
 40
12.0
 40
12.0
 40
12.0
 40
13.0
 40
13.0
 40
13.0
 40
14.0
 40
14.0
 40
14.0
 40
15.0
 40
15.0
 40
15.0
 40
16.0
 40
16.0
 40
16.0
 40
16.0
 10
108.2262966309295
 20
-132.9603596672808
 30
0.0
 10
108.2262966309295
 20
-133.0385633347959
 30
0.0
 10
108.2094156630518
 20
-133.1401936516108
 30
0.0
 10
108.1460259061232
 20
-133.2418239684256
 30
0.0
 10
108.0361273601438
 20
-133.4151122713337
 30
0.0
 10
107.9048692221557
 20
-133.4364718633423
 30
0.0
 10
107.7970377334674
 20
-133.4554198885112
 30
0.0
 10
107.7970377334674
 20
-133.4554198885112
 30
0.0
 10
107.7970377334674
 20
-133.2332112297125
 30
0.0
 10
107.7970377334674
 20
-133.2332112297125
 30
0.0
 10
107.9958197429663
 20
-133.1784342114971
 30
0.0
 10
108.0254475641395
 20
-133.0513101880913
 30
0.0
 10
108.0254475641395
 20
-132.9582926099896
 30
0.0
 10
108.0254475641395
 20
-132.818766242837
 30
0.0
 10
107.9258843046157
 20
-132.6664930223889
 30
0.0
 10
107.6933403593614
 20
-132.6664930223889
 30
0.0
 10
107.4373697648073
 20
-132.6664930223889
 30
0.0
 10
107.3674343264568
 20
-132.846327006719
 30
0.0
 10
107.3674343264568
 20
-132.9669053487027
 30
0.0
 10
107.3674343264568
 20
-132.998600227167
 30
0.0
 10
107.3674343264568
 20
-133.1401936516108
 30
0.0
 10
107.4966254071536
 20
-133.2290771151302
 30
0.0
 10
107.4966254071536
 20
-133.2290771151302
 30
0.0
 10
107.4776773819847
 20
-133.404776984878
 30
0.0
 10
107.4776773819847
 20
-133.404776984878
 30
0.0
 10
107.4776773819847
 20
-133.404776984878
 30
0.0
 10
106.6312174212589
 20
-133.2841986428942
 30
0.0
 10
106.6312174212589
 20
-133.2841986428942
 30
0.0
 10
106.6312174212589
 20
-133.2841986428942
 30
0.0
 10
106.6312174212589
 20
-132.5056070632278
 30
0.0
 10
106.6312174212589
 20
-132.5056070632278
 30
0.0
 10
106.6312174212589
 20
-132.5056070632278
 30
0.0
 10
106.8258653161755
 20
-132.5056070632278
 30
0.0
 10
106.8258653161755
 20
-132.5056070632278
 30
0.0
 10
106.8258653161755
 20
-132.5056070632278
 30
0.0
 10
106.8258653161755
 20
-133.1212456264419
 30
0.0
 10
106.8258653161755
 20
-133.1212456264419
 30
0.0
 10
106.8258653161755
 20
-133.1212456264419
 30
0.0
 10
107.2489230417642
 20
-133.1867024406617
 30
0.0
 10
107.2489230417642
 20
-133.1867024406617
 30
0.0
 10
107.2151611060087
 20
-133.1253797410242
 30
0.0
 10
107.1748534888313
 20
-133.0430419589268
 30
0.0
 10
107.1748534888313
 20
-132.9245306742341
 30
0.0
 10
107.1748534888313
 20
-132.6706271369712
 30
0.0
 10
107.3612331545833
 20
-132.4336045675861
 30
0.0
 10
107.6743923341925
 20
-132.4336045675861
 30
0.0
 10
107.991685628384
 20
-132.4336045675861
 30
0.0
 10
108.2262966309295
 20
-132.6578802836758
 30
0.0
 10
108.2262966309295
 20
-132.9603596672808
 30
0.0
  0
HATCH
  5
BC
330
B7
100
AcDbEntity
  8
_U+30EC_U+30A4_U+30E4_U+30FC 1
 62
   179
420
  2234388
100
AcDbHatch
 10
0.0
 20
0.0
 30
0.0
210
0.0
220
0.0
230
1.0
  2
SOLID
 70
     1
 71
     0
 91
        1
 92
        1
 93
        1
 72
     4
 94
        3
 73
     0
 74
     1
 95
       53
 96
       49
 40
0.0
 40
0.0
 40
0.0
 40
0.0
 40
1.0
 40
1.0
 40
1.0
 40
2.0
 40
2.0
 40
2.0
 40
3.0
 40
3.0
 40
3.0
 40
4.0
 40
4.0
 40
4.0
 40
5.0
 40
5.0
 40
5.0
 40
6.0
 40
6.0
 40
6.0
 40
7.0
 40
7.0
 40
7.0
 40
8.0
 40
8.0
 40
8.0
 40
9.0
 40
9.0
 40
9.0
 40
10.0
 40
10.0
 40
10.0
 40
11.0
 40
11.0
 40
11.0
 40
12.0
 40
12.0
 40
12.0
 40
13.0
 40
13.0
 40
13.0
 40
14.0
 40
14.0
 40
14.0
 40
15.0
 40
15.0
 40
15.0
 40
16.0
 40
16.0
 40
16.0
 40
16.0
 10
108.2262966309295
 20
-132.9603596672808
 10
108.2262966309295
 20
-133.0385633347959
 10
108.2094156630518
 20
-133.1401936516108
 10
108.1460259061232
 20
-133.2418239684256
 10
108.0361273601438
 20
-133.4151122713337
 10
107.9048692221557
 20
-133.4364718633423
 10
107.7970377334674
 20
-133.4554198885112
 10
107.7970377334674
 20
-133.4554198885112
 10
107.7970377334674
 20
-133.2332112297125
 10
107.7970377334674
 20
-133.2332112297125
 10
107.9958197429663
 20
-133.1784342114971
 10
108.0254475641395
 20
-133.0513101880913
 10
108.0254475641395
 20
-132.9582926099896
 10
108.0254475641395
 20
-132.818766242837
 10
107.9258843046157
 20
-132.6664930223889
 10
107.6933403593614
 20
-132.6664930223889
 10
107.4373697648073
 20
-132.6664930223889
 10
107.3674343264568
 20
-132.846327006719
 10
107.3674343264568
 20
-132.9669053487027
 10
107.3674343264568
 20
-132.998600227167
 10
107.3674343264568
 20
-133.1401936516108
 10
107.4966254071536
 20
-133.2290771151302
 10
107.4966254071536
 20
-133.2290771151302
 10
107.4776773819847
 20
-133.404776984878
 10
107.4776773819847
 20
-133.404776984878
 10
107.4776773819847
 20
-133.404776984878
 10
106.6312174212589
 20
-133.2841986428942
 10
106.6312174212589
 20
-133.2841986428942
 10
106.6312174212589
 20
-133.2841986428942
 10
106.6312174212589
 20
-132.5056070632278
 10
106.6312174212589
 20
-132.5056070632278
 10
106.6312174212589
 20
-132.5056070632278
 10
106.8258653161755
 20
-132.5056070632278
 10
106.8258653161755
 20
-132.5056070632278
 10
106.8258653161755
 20
-132.5056070632278
 10
106.8258653161755
 20
-133.1212456264419
 10
106.8258653161755
 20
-133.1212456264419
 10
106.8258653161755
 20
-133.1212456264419
 10
107.2489230417642
 20
-133.1867024406617
 10
107.2489230417642
 20
-133.1867024406617
 10
107.2151611060087
 20
-133.1253797410242
 10
107.1748534888313
 20
-133.0430419589268
 10
107.1748534888313
 20
-132.9245306742341
 10
107.1748534888313
 20
-132.6706271369712
 10
107.3612331545833
 20
-132.4336045675861
 10
107.6743923341925
 20
-132.4336045675861
 10
107.991685628384
 20
-132.4336045675861
 10
108.2262966309295
 20
-132.6578802836758
 10
108.2262966309295
 20
-132.9603596672808
 97
        0
 97
        0
 75
     2
 76
     1
 98
        0
  0
ENDBLK
  5
BA
330
B7
100
AcDbEntity
  8
0
100
AcDbBlockEnd
  0
BLOCK
  5
BF
330
BD
100
AcDbEntity
  8
0
100
AcDbBlockBegin
  2
block 4
 70
     0
 10
0.0
 20
0.0
 30
0.0
  3
block 4
  1

  0
SPLINE
  5
C1
330
BD
100
AcDbEntity
  8
_U+30EC_U+30A4_U+30E4_U+30FC 1
370
     0
100
AcDbSpline
210
0.0
220
0.0
230
1.0
 70
    11
 71
     3
 72
    53
 73
    49
 74
     0
 42
0.0000000001
 43
0.0000000001
 12
1.0
 22
0.0
 32
0.0
 13
1.0
 23
0.0
 33
0.0
 40
0.0
 40
0.0
 40
0.0
 40
0.0
 40
1.0
 40
1.0
 40
1.0
 40
2.0
 40
2.0
 40
2.0
 40
3.0
 40
3.0
 40
3.0
 40
4.0
 40
4.0
 40
4.0
 40
5.0
 40
5.0
 40
5.0
 40
6.0
 40
6.0
 40
6.0
 40
7.0
 40
7.0
 40
7.0
 40
8.0
 40
8.0
 40
8.0
 40
9.0
 40
9.0
 40
9.0
 40
10.0
 40
10.0
 40
10.0
 40
11.0
 40
11.0
 40
11.0
 40
12.0
 40
12.0
 40
12.0
 40
13.0
 40
13.0
 40
13.0
 40
14.0
 40
14.0
 40
14.0
 40
15.0
 40
15.0
 40
15.0
 40
16.0
 40
16.0
 40
16.0
 40
16.0
 10
87.95156519068573
 20
-141.319539352691
 30
0.0
 10
87.87318926839629
 20
-141.319539352691
 30
0.0
 10
87.77173120635568
 20
-141.3026583848132
 30
0.0
 10
87.6701008895408
 20
-141.2392686278846
 30
0.0
 10
87.49664033185849
 20
-141.1293700819052
 30
0.0
 10
87.47545299462419
 20
-140.9981119439171
 30
0.0
 10
87.45650496945532
 20
-140.8902804552288
 30
0.0
 10
87.45650496945532
 20
-140.8902804552288
 30
0.0
 10
87.67854137347967
 20
-140.8902804552288
 30
0.0
 10
87.67854137347967
 20
-140.8902804552288
 30
0.0
 10
87.73366290124368
 20
-141.0890624647277
 30
0.0
 10
87.86061466987513
 20
-141.1186902859009
 30
0.0
 10
87.95363224797687
 20
-141.1186902859009
 30
0.0
 10
88.0931586151295
 20
-141.1186902859009
 30
0.0
 10
88.2456040903518
 20
-141.0191270263772
 30
0.0
 10
88.2456040903518
 20
-140.7865830811228
 30
0.0
 10
88.2456040903518
 20
-140.5306124865687
 30
0.0
 10
88.06577010602176
 20
-140.4606770482182
 30
0.0
 10
87.94519176403801
 20
-140.4606770482182
 30
0.0
 10
87.91349688557371
 20
-140.4606770482182
 30
0.0
 10
87.77173120635568
 20
-140.4606770482182
 30
0.0
 10
87.68284774283623
 20
-140.589868128915
 30
0.0
 10
87.68284774283623
 20
-140.589868128915
 30
0.0
 10
87.50732012786276
 20
-140.5709201037462
 30
0.0
 10
87.50732012786276
 20
-140.5709201037462
 30
0.0
 10
87.50732012786276
 20
-140.5709201037462
 30
0.0
 10
87.6278984698465
 20
-139.7244601430203
 30
0.0
 10
87.6278984698465
 20
-139.7244601430203
 30
0.0
 10
87.6278984698465
 20
-139.7244601430203
 30
0.0
 10
88.4063177947387
 20
-139.7244601430203
 30
0.0
 10
88.4063177947387
 20
-139.7244601430203
 30
0.0
 10
88.4063177947387
 20
-139.7244601430203
 30
0.0
 10
88.4063177947387
 20
-139.9191080379369
 30
0.0
 10
88.4063177947387
 20
-139.9191080379369
 30
0.0
 10
88.4063177947387
 20
-139.9191080379369
 30
0.0
 10
87.79067923152455
 20
-139.9191080379369
 30
0.0
 10
87.79067923152455
 20
-139.9191080379369
 30
0.0
 10
87.79067923152455
 20
-139.9191080379369
 30
0.0
 10
87.7252224173048
 20
-140.3421657635256
 30
0.0
 10
87.7252224173048
 20
-140.3421657635256
 30
0.0
 10
87.78654511694225
 20
-140.3084038277701
 30
0.0
 10
87.86905515381399
 20
-140.2680962105927
 30
0.0
 10
87.98739418373232
 20
-140.2680962105927
 30
0.0
 10
88.24129772099523
 20
-140.2680962105927
 30
0.0
 10
88.47832029038042
 20
-140.4544758763447
 30
0.0
 10
88.47832029038042
 20
-140.7676350559539
 30
0.0
 10
88.47832029038042
 20
-141.0849283501454
 30
0.0
 10
88.25404457429066
 20
-141.319539352691
 30
0.0
 10
87.95156519068573
 20
-141.319539352691
 30
0.0
  0
HATCH
  5
C2
330
BD
100
AcDbEntity
  8
_U+30EC_U+30A4_U+30E4_U+30FC 1
 62
   179
420
  2234388
100
AcDbHatch
 10
0.0
 20
0.0
 30
0.0
210
0.0
220
0.0
230
1.0
  2
SOLID
 70
     1
 71
     0
 91
        1
 92
        1
 93
        1
 72
     4
 94
        3
 73
     0
 74
     1
 95
       53
 96
       49
 40
0.0
 40
0.0
 40
0.0
 40
0.0
 40
1.0
 40
1.0
 40
1.0
 40
2.0
 40
2.0
 40
2.0
 40
3.0
 40
3.0
 40
3.0
 40
4.0
 40
4.0
 40
4.0
 40
5.0
 40
5.0
 40
5.0
 40
6.0
 40
6.0
 40
6.0
 40
7.0
 40
7.0
 40
7.0
 40
8.0
 40
8.0
 40
8.0
 40
9.0
 40
9.0
 40
9.0
 40
10.0
 40
10.0
 40
10.0
 40
11.0
 40
11.0
 40
11.0
 40
12.0
 40
12.0
 40
12.0
 40
13.0
 40
13.0
 40
13.0
 40
14.0
 40
14.0
 40
14.0
 40
15.0
 40
15.0
 40
15.0
 40
16.0
 40
16.0
 40
16.0
 40
16.0
 10
87.95156519068573
 20
-141.319539352691
 10
87.87318926839629
 20
-141.319539352691
 10
87.77173120635568
 20
-141.3026583848132
 10
87.6701008895408
 20
-141.2392686278846
 10
87.49664033185849
 20
-141.1293700819052
 10
87.47545299462419
 20
-140.9981119439171
 10
87.45650496945532
 20
-140.8902804552288
 10
87.45650496945532
 20
-140.8902804552288
 10
87.67854137347967
 20
-140.8902804552288
 10
87.67854137347967
 20
-140.8902804552288
 10
87.73366290124368
 20
-141.0890624647277
 10
87.86061466987513
 20
-141.1186902859009
 10
87.95363224797687
 20
-141.1186902859009
 10
88.0931586151295
 20
-141.1186902859009
 10
88.2456040903518
 20
-141.0191270263772
 10
88.2456040903518
 20
-140.7865830811228
 10
88.2456040903518
 20
-140.5306124865687
 10
88.06577010602176
 20
-140.4606770482182
 10
87.94519176403801
 20
-140.4606770482182
 10
87.91349688557371
 20
-140.4606770482182
 10
87.77173120635568
 20
-140.4606770482182
 10
87.68284774283623
 20
-140.589868128915
 10
87.68284774283623
 20
-140.589868128915
 10
87.50732012786276
 20
-140.5709201037462
 10
87.50732012786276
 20
-140.5709201037462
 10
87.50732012786276
 20
-140.5709201037462
 10
87.6278984698465
 20
-139.7244601430203
 10
87.6278984698465
 20
-139.7244601430203
 10
87.6278984698465
 20
-139.7244601430203
 10
88.4063177947387
 20
-139.7244601430203
 10
88.4063177947387
 20
-139.7244601430203
 10
88.4063177947387
 20
-139.7244601430203
 10
88.4063177947387
 20
-139.9191080379369
 10
88.4063177947387
 20
-139.9191080379369
 10
88.4063177947387
 20
-139.9191080379369
 10
87.79067923152455
 20
-139.9191080379369
 10
87.79067923152455
 20
-139.9191080379369
 10
87.79067923152455
 20
-139.9191080379369
 10
87.7252224173048
 20
-140.3421657635256
 10
87.7252224173048
 20
-140.3421657635256
 10
87.78654511694225
 20
-140.3084038277701
 10
87.86905515381399
 20
-140.2680962105927
 10
87.98739418373232
 20
-140.2680962105927
 10
88.24129772099523
 20
-140.2680962105927
 10
88.47832029038042
 20
-140.4544758763447
 10
88.47832029038042
 20
-140.7676350559539
 10
88.47832029038042
 20
-141.0849283501454
 10
88.25404457429066
 20
-141.319539352691
 10
87.95156519068573
 20
-141.319539352691
 97
        0
 97
        0
 75
     2
 76
     1
 98
        0
  0
SPLINE
  5
C3
330
BD
100
AcDbEntity
  8
_U+30EC_U+30A4_U+30E4_U+30FC 1
370
     0
100
AcDbSpline
210
0.0
220
0.0
230
1.0
 70
    11
 71
     3
 72
    29
 73
    25
 74
     0
 42
0.0000000001
 43
0.0000000001
 12
1.0
 22
0.0
 32
0.0
 13
1.0
 23
0.0
 33
0.0
 40
0.0
 40
0.0
 40
0.0
 40
0.0
 40
1.0
 40
1.0
 40
1.0
 40
2.0
 40
2.0
 40
2.0
 40
3.0
 40
3.0
 40
3.0
 40
4.0
 40
4.0
 40
4.0
 40
5.0
 40
5.0
 40
5.0
 40
6.0
 40
6.0
 40
6.0
 40
7.0
 40
7.0
 40
7.0
 40
8.0
 40
8.0
 40
8.0
 40
8.0
 10
89.54509410738804
 20
-141.0911295220189
 30
0.0
 10
89.43726261869972
 20
-141.3005913275221
 30
0.0
 10
89.26380206101739
 20
-141.319539352691
 30
0.0
 10
89.14735783361594
 20
-141.319539352691
 30
0.0
 10
88.98664412922903
 20
-141.319539352691
 30
0.0
 10
88.84487845001101
 20
-141.2730305636401
 30
0.0
 10
88.74962155984385
 20
-141.0911295220189
 30
0.0
 10
88.6460964405121
 20
-140.8964816271023
 30
0.0
 10
88.62697616056896
 20
-140.6598035672656
 30
0.0
 10
88.62697616056896
 20
-140.4968505508133
 30
0.0
 10
88.62697616056896
 20
-140.3528455595298
 30
0.0
 10
88.64385712844668
 20
-140.1010090795581
 30
0.0
 10
88.74962155984385
 20
-139.9022270700592
 30
0.0
 10
88.85762530330643
 20
-139.699310945978
 30
0.0
 10
89.01833900769334
 20
-139.6758842966782
 30
0.0
 10
89.14735783361594
 20
-139.6758842966782
 30
0.0
 10
89.30600448071169
 20
-139.6758842966782
 30
0.0
 10
89.44983721722087
 20
-139.720326028438
 30
0.0
 10
89.54509410738804
 20
-139.9022270700592
 30
0.0
 10
89.64448511213749
 20
-140.0948079076846
 30
0.0
 10
89.66773950666293
 20
-140.3232177383567
 30
0.0
 10
89.66773950666293
 20
-140.4968505508133
 30
0.0
 10
89.66773950666293
 20
-140.6680717964302
 30
0.0
 10
89.6467244242029
 20
-140.8985486843934
 30
0.0
 10
89.54509410738804
 20
-141.0911295220189
 30
0.0
  0
SPLINE
  5
C4
330
BD
100
AcDbEntity
  8
_U+30EC_U+30A4_U+30E4_U+30FC 1
370
     0
100
AcDbSpline
210
0.0
220
0.0
230
1.0
 70
    11
 71
     3
 72
    17
 73
    13
 74
     0
 42
0.0000000001
 43
0.0000000001
 12
1.0
 22
0.0
 32
0.0
 13
1.0
 23
0.0
 33
0.0
 40
0.0
 40
0.0
 40
0.0
 40
0.0
 40
1.0
 40
1.0
 40
1.0
 40
2.0
 40
2.0
 40
2.0
 40
3.0
 40
3.0
 40
3.0
 40
4.0
 40
4.0
 40
4.0
 40
4.0
 10
89.14735783361594
 20
-139.8684651343037
 30
0.0
 10
88.8977606657096
 20
-139.8684651343037
 30
0.0
 10
88.85125187665872
 20
-140.1519964927398
 30
0.0
 10
88.85125187665872
 20
-140.4968505508133
 30
0.0
 10
88.85125187665872
 20
-140.8162109022959
 30
0.0
 10
88.88725312447959
 20
-141.1248914577743
 30
0.0
 10
89.14735783361594
 20
-141.1248914577743
 30
0.0
 10
89.39488794423114
 20
-141.1248914577743
 30
0.0
 10
89.44363604534743
 20
-140.843771666178
 30
0.0
 10
89.44363604534743
 20
-140.4968505508133
 30
0.0
 10
89.44363604534743
 20
-140.1771456897821
 30
0.0
 10
89.40539548546116
 20
-139.8684651343037
 30
0.0
 10
89.14735783361594
 20
-139.8684651343037
 30
0.0
  0
HATCH
  5
C5
330
BD
100
AcDbEntity
  8
_U+30EC_U+30A4_U+30E4_U+30FC 1
 62
   179
420
  2234388
100
AcDbHatch
 10
0.0
 20
0.0
 30
0.0
210
0.0
220
0.0
230
1.0
  2
SOLID
 70
     1
 71
     0
 91
        2
 92
        1
 93
        1
 72
     4
 94
        3
 73
     0
 74
     1
 95
       29
 96
       25
 40
0.0
 40
0.0
 40
0.0
 40
0.0
 40
1.0
 40
1.0
 40
1.0
 40
2.0
 40
2.0
 40
2.0
 40
3.0
 40
3.0
 40
3.0
 40
4.0
 40
4.0
 40
4.0
 40
5.0
 40
5.0
 40
5.0
 40
6.0
 40
6.0
 40
6.0
 40
7.0
 40
7.0
 40
7.0
 40
8.0
 40
8.0
 40
8.0
 40
8.0
 10
89.54509410738804
 20
-141.0911295220189
 10
89.43726261869972
 20
-141.3005913275221
 10
89.26380206101739
 20
-141.319539352691
 10
89.14735783361594
 20
-141.319539352691
 10
88.98664412922903
 20
-141.319539352691
 10
88.84487845001101
 20
-141.2730305636401
 10
88.74962155984385
 20
-141.0911295220189
 10
88.6460964405121
 20
-140.8964816271023
 10
88.62697616056896
 20
-140.6598035672656
 10
88.62697616056896
 20
-140.4968505508133
 10
88.62697616056896
 20
-140.3528455595298
 10
88.64385712844668
 20
-140.1010090795581
 10
88.74962155984385
 20
-139.9022270700592
 10
88.85762530330643
 20
-139.699310945978
 10
89.01833900769334
 20
-139.6758842966782
 10
89.14735783361594
 20
-139.6758842966782
 10
89.30600448071169
 20
-139.6758842966782
 10
89.44983721722087
 20
-139.720326028438
 10
89.54509410738804
 20
-139.9022270700592
 10
89.64448511213749
 20
-140.0948079076846
 10
89.66773950666293
 20
-140.3232177383567
 10
89.66773950666293
 20
-140.4968505508133
 10
89.66773950666293
 20
-140.6680717964302
 10
89.6467244242029
 20
-140.8985486843934
 10
89.54509410738804
 20
-141.0911295220189
 97
        0
 97
        0
 92
        1
 93
        1
 72
     4
 94
        3
 73
     0
 74
     1
 95
       17
 96
       13
 40
0.0
 40
0.0
 40
0.0
 40
0.0
 40
1.0
 40
1.0
 40
1.0
 40
2.0
 40
2.0
 40
2.0
 40
3.0
 40
3.0
 40
3.0
 40
4.0
 40
4.0
 40
4.0
 40
4.0
 10
89.14735783361594
 20
-139.8684651343037
 10
88.8977606657096
 20
-139.8684651343037
 10
88.85125187665872
 20
-140.1519964927398
 10
88.85125187665872
 20
-140.4968505508133
 10
88.85125187665872
 20
-140.8162109022959
 10
88.88725312447959
 20
-141.1248914577743
 10
89.14735783361594
 20
-141.1248914577743
 10
89.39488794423114
 20
-141.1248914577743
 10
89.44363604534743
 20
-140.843771666178
 10
89.44363604534743
 20
-140.4968505508133
 10
89.44363604534743
 20
-140.1771456897821
 10
89.40539548546116
 20
-139.8684651343037
 10
89.14735783361594
 20
-139.8684651343037
 97
        0
 97
        0
 75
     2
 76
     1
 98
        0
  0
ENDBLK
  5
C0
330
BD
100
AcDbEntity
  8
0
100
AcDbBlockEnd
  0
BLOCK
  5
C8
330
C6
100
AcDbEntity
  8
0
100
AcDbBlockBegin
  2
block 5
 70
     0
 10
0.0
 20
0.0
 30
0.0
  3
block 5
  1

  0
SPLINE
  5
CA
330
C6
100
AcDbEntity
  8
_U+30EC_U+30A4_U+30E4_U+30FC 1
370
     0
100
AcDbSpline
210
0.0
220
0.0
230
1.0
 70
    11
 71
     3
 72
    26
 73
    22
 74
     0
 42
0.0000000001
 43
0.0000000001
 12
1.0
 22
0.0
 32
0.0
 13
1.0
 23
0.0
 33
0.0
 40
0.0
 40
0.0
 40
0.0
 40
0.0
 40
1.0
 40
1.0
 40
1.0
 40
2.0
 40
2.0
 40
2.0
 40
3.0
 40
3.0
 40
3.0
 40
4.0
 40
4.0
 40
4.0
 40
5.0
 40
5.0
 40
5.0
 40
6.0
 40
6.0
 40
6.0
 40
7.0
 40
7.0
 40
7.0
 40
7.0
 10
86.23659665812835
 20
-137.5547390064099
 30
0.0
 10
86.23659665812835
 20
-137.5547390064099
 30
0.0
 10
86.23659665812835
 20
-136.4505859033873
 30
0.0
 10
86.23659665812835
 20
-136.4505859033873
 30
0.0
 10
86.23659665812835
 20
-136.4505859033873
 30
0.0
 10
85.90655651064142
 20
-136.4505859033873
 30
0.0
 10
85.90655651064142
 20
-136.4505859033873
 30
0.0
 10
85.90655651064142
 20
-136.4505859033873
 30
0.0
 10
85.90655651064142
 20
-136.3024467975216
 30
0.0
 10
85.90655651064142
 20
-136.3024467975216
 30
0.0
 10
86.2386637154195
 20
-136.287632886935
 30
0.0
 10
86.28517250447038
 20
-136.1246798704827
 30
0.0
 10
86.31480032564353
 20
-136.0103027003724
 30
0.0
 10
86.31480032564353
 20
-136.0103027003724
 30
0.0
 10
86.46087237421811
 20
-136.0103027003724
 30
0.0
 10
86.46087237421811
 20
-136.0103027003724
 30
0.0
 10
86.46087237421811
 20
-136.0103027003724
 30
0.0
 10
86.46087237421811
 20
-137.5547390064099
 30
0.0
 10
86.46087237421811
 20
-137.5547390064099
 30
0.0
 10
86.46087237421811
 20
-137.5547390064099
 30
0.0
 10
86.23659665812835
 20
-137.5547390064099
 30
0.0
 10
86.23659665812835
 20
-137.5547390064099
 30
0.0
  0
HATCH
  5
CB
330
C6
100
AcDbEntity
  8
_U+30EC_U+30A4_U+30E4_U+30FC 1
 62
   179
420
  2234388
100
AcDbHatch
 10
0.0
 20
0.0
 30
0.0
210
0.0
220
0.0
230
1.0
  2
SOLID
 70
     1
 71
     0
 91
        1
 92
        1
 93
        1
 72
     4
 94
        3
 73
     0
 74
     1
 95
       26
 96
       22
 40
0.0
 40
0.0
 40
0.0
 40
0.0
 40
1.0
 40
1.0
 40
1.0
 40
2.0
 40
2.0
 40
2.0
 40
3.0
 40
3.0
 40
3.0
 40
4.0
 40
4.0
 40
4.0
 40
5.0
 40
5.0
 40
5.0
 40
6.0
 40
6.0
 40
6.0
 40
7.0
 40
7.0
 40
7.0
 40
7.0
 10
86.23659665812835
 20
-137.5547390064099
 10
86.23659665812835
 20
-137.5547390064099
 10
86.23659665812835
 20
-136.4505859033873
 10
86.23659665812835
 20
-136.4505859033873
 10
86.23659665812835
 20
-136.4505859033873
 10
85.90655651064142
 20
-136.4505859033873
 10
85.90655651064142
 20
-136.4505859033873
 10
85.90655651064142
 20
-136.4505859033873
 10
85.90655651064142
 20
-136.3024467975216
 10
85.90655651064142
 20
-136.3024467975216
 10
86.2386637154195
 20
-136.287632886935
 10
86.28517250447038
 20
-136.1246798704827
 10
86.31480032564353
 20
-136.0103027003724
 10
86.31480032564353
 20
-136.0103027003724
 10
86.46087237421811
 20
-136.0103027003724
 10
86.46087237421811
 20
-136.0103027003724
 10
86.46087237421811
 20
-136.0103027003724
 10
86.46087237421811
 20
-137.5547390064099
 10
86.46087237421811
 20
-137.5547390064099
 10
86.46087237421811
 20
-137.5547390064099
 10
86.23659665812835
 20
-137.5547390064099
 10
86.23659665812835
 20
-137.5547390064099
 97
        0
 97
        0
 75
     2
 76
     1
 98
        0
  0
SPLINE
  5
CC
330
C6
100
AcDbEntity
  8
_U+30EC_U+30A4_U+30E4_U+30FC 1
370
     0
100
AcDbSpline
210
0.0
220
0.0
230
1.0
 70
    11
 71
     3
 72
    53
 73
    49
 74
     0
 42
0.0000000001
 43
0.0000000001
 12
1.0
 22
0.0
 32
0.0
 13
1.0
 23
0.0
 33
0.0
 40
0.0
 40
0.0
 40
0.0
 40
0.0
 40
1.0
 40
1.0
 40
1.0
 40
2.0
 40
2.0
 40
2.0
 40
3.0
 40
3.0
 40
3.0
 40
4.0
 40
4.0
 40
4.0
 40
5.0
 40
5.0
 40
5.0
 40
6.0
 40
6.0
 40
6.0
 40
7.0
 40
7.0
 40
7.0
 40
8.0
 40
8.0
 40
8.0
 40
9.0
 40
9.0
 40
9.0
 40
10.0
 40
10.0
 40
10.0
 40
11.0
 40
11.0
 40
11.0
 40
12.0
 40
12.0
 40
12.0
 40
13.0
 40
13.0
 40
13.0
 40
14.0
 40
14.0
 40
14.0
 40
15.0
 40
15.0
 40
15.0
 40
16.0
 40
16.0
 40
16.0
 40
16.0
 10
87.44306909706285
 20
-137.6053819100431
 30
0.0
 10
87.36469317477341
 20
-137.6053819100431
 30
0.0
 10
87.2632351127328
 20
-137.5885009421654
 30
0.0
 10
87.16160479591794
 20
-137.5251111852368
 30
0.0
 10
86.9881442382356
 20
-137.4152126392573
 30
0.0
 10
86.96695690100132
 20
-137.2839545012693
 30
0.0
 10
86.94800887583244
 20
-137.176123012581
 30
0.0
 10
86.94800887583244
 20
-137.176123012581
 30
0.0
 10
87.1700452798568
 20
-137.176123012581
 30
0.0
 10
87.1700452798568
 20
-137.176123012581
 30
0.0
 10
87.2251668076208
 20
-137.3749050220799
 30
0.0
 10
87.35211857625225
 20
-137.404532843253
 30
0.0
 10
87.445136154354
 20
-137.404532843253
 30
0.0
 10
87.58466252150662
 20
-137.404532843253
 30
0.0
 10
87.73710799672892
 20
-137.3049695837293
 30
0.0
 10
87.73710799672892
 20
-137.072425638475
 30
0.0
 10
87.73710799672892
 20
-136.8164550439209
 30
0.0
 10
87.55727401239888
 20
-136.7465196055703
 30
0.0
 10
87.43669567041513
 20
-136.7465196055703
 30
0.0
 10
87.40500079195084
 20
-136.7465196055703
 30
0.0
 10
87.2632351127328
 20
-136.7465196055703
 30
0.0
 10
87.17435164921336
 20
-136.8757106862672
 30
0.0
 10
87.17435164921336
 20
-136.8757106862672
 30
0.0
 10
86.99882403423989
 20
-136.8567626610983
 30
0.0
 10
86.99882403423989
 20
-136.8567626610983
 30
0.0
 10
86.99882403423989
 20
-136.8567626610983
 30
0.0
 10
87.11940237622363
 20
-136.0103027003724
 30
0.0
 10
87.11940237622363
 20
-136.0103027003724
 30
0.0
 10
87.11940237622363
 20
-136.0103027003724
 30
0.0
 10
87.89782170111583
 20
-136.0103027003724
 30
0.0
 10
87.89782170111583
 20
-136.0103027003724
 30
0.0
 10
87.89782170111583
 20
-136.0103027003724
 30
0.0
 10
87.89782170111583
 20
-136.204950595289
 30
0.0
 10
87.89782170111583
 20
-136.204950595289
 30
0.0
 10
87.89782170111583
 20
-136.204950595289
 30
0.0
 10
87.28218313790168
 20
-136.204950595289
 30
0.0
 10
87.28218313790168
 20
-136.204950595289
 30
0.0
 10
87.28218313790168
 20
-136.204950595289
 30
0.0
 10
87.21672632368194
 20
-136.6280083208777
 30
0.0
 10
87.21672632368194
 20
-136.6280083208777
 30
0.0
 10
87.27804902331938
 20
-136.5942463851223
 30
0.0
 10
87.36055906019111
 20
-136.5539387679449
 30
0.0
 10
87.47889809010944
 20
-136.5539387679449
 30
0.0
 10
87.73280162737235
 20
-136.5539387679449
 30
0.0
 10
87.96982419675754
 20
-136.7403184336969
 30
0.0
 10
87.96982419675754
 20
-137.0534776133061
 30
0.0
 10
87.96982419675754
 20
-137.3707709074976
 30
0.0
 10
87.74554848066778
 20
-137.6053819100431
 30
0.0
 10
87.44306909706285
 20
-137.6053819100431
 30
0.0
  0
HATCH
  5
CD
330
C6
100
AcDbEntity
  8
_U+30EC_U+30A4_U+30E4_U+30FC 1
 62
   179
420
  2234388
100
AcDbHatch
 10
0.0
 20
0.0
 30
0.0
210
0.0
220
0.0
230
1.0
  2
SOLID
 70
     1
 71
     0
 91
        1
 92
        1
 93
        1
 72
     4
 94
        3
 73
     0
 74
     1
 95
       53
 96
       49
 40
0.0
 40
0.0
 40
0.0
 40
0.0
 40
1.0
 40
1.0
 40
1.0
 40
2.0
 40
2.0
 40
2.0
 40
3.0
 40
3.0
 40
3.0
 40
4.0
 40
4.0
 40
4.0
 40
5.0
 40
5.0
 40
5.0
 40
6.0
 40
6.0
 40
6.0
 40
7.0
 40
7.0
 40
7.0
 40
8.0
 40
8.0
 40
8.0
 40
9.0
 40
9.0
 40
9.0
 40
10.0
 40
10.0
 40
10.0
 40
11.0
 40
11.0
 40
11.0
 40
12.0
 40
12.0
 40
12.0
 40
13.0
 40
13.0
 40
13.0
 40
14.0
 40
14.0
 40
14.0
 40
15.0
 40
15.0
 40
15.0
 40
16.0
 40
16.0
 40
16.0
 40
16.0
 10
87.44306909706285
 20
-137.6053819100431
 10
87.36469317477341
 20
-137.6053819100431
 10
87.2632351127328
 20
-137.5885009421654
 10
87.16160479591794
 20
-137.5251111852368
 10
86.9881442382356
 20
-137.4152126392573
 10
86.96695690100132
 20
-137.2839545012693
 10
86.94800887583244
 20
-137.176123012581
 10
86.94800887583244
 20
-137.176123012581
 10
87.1700452798568
 20
-137.176123012581
 10
87.1700452798568
 20
-137.176123012581
 10
87.2251668076208
 20
-137.3749050220799
 10
87.35211857625225
 20
-137.404532843253
 10
87.445136154354
 20
-137.404532843253
 10
87.58466252150662
 20
-137.404532843253
 10
87.73710799672892
 20
-137.3049695837293
 10
87.73710799672892
 20
-137.072425638475
 10
87.73710799672892
 20
-136.8164550439209
 10
87.55727401239888
 20
-136.7465196055703
 10
87.43669567041513
 20
-136.7465196055703
 10
87.40500079195084
 20
-136.7465196055703
 10
87.2632351127328
 20
-136.7465196055703
 10
87.17435164921336
 20
-136.8757106862672
 10
87.17435164921336
 20
-136.8757106862672
 10
86.99882403423989
 20
-136.8567626610983
 10
86.99882403423989
 20
-136.8567626610983
 10
86.99882403423989
 20
-136.8567626610983
 10
87.11940237622363
 20
-136.0103027003724
 10
87.11940237622363
 20
-136.0103027003724
 10
87.11940237622363
 20
-136.0103027003724
 10
87.89782170111583
 20
-136.0103027003724
 10
87.89782170111583
 20
-136.0103027003724
 10
87.89782170111583
 20
-136.0103027003724
 10
87.89782170111583
 20
-136.204950595289
 10
87.89782170111583
 20
-136.204950595289
 10
87.89782170111583
 20
-136.204950595289
 10
87.28218313790168
 20
-136.204950595289
 10
87.28218313790168
 20
-136.204950595289
 10
87.28218313790168
 20
-136.204950595289
 10
87.21672632368194
 20
-136.6280083208777
 10
87.21672632368194
 20
-136.6280083208777
 10
87.27804902331938
 20
-136.5942463851223
 10
87.36055906019111
 20
-136.5539387679449
 10
87.47889809010944
 20
-136.5539387679449
 10
87.73280162737235
 20
-136.5539387679449
 10
87.96982419675754
 20
-136.7403184336969
 10
87.96982419675754
 20
-137.0534776133061
 10
87.96982419675754
 20
-137.3707709074976
 10
87.74554848066778
 20
-137.6053819100431
 10
87.44306909706285
 20
-137.6053819100431
 97
        0
 97
        0
 75
     2
 76
     1
 98
        0
  0
ENDBLK
  5
C9
330
C6
100
AcDbEntity
  8
0
100
AcDbBlockEnd
  0
BLOCK
  5
E8
330
E6
100
AcDbEntity
  8
0
100
AcDbBlockBegin
  2
block 6
 70
     0
 10
0.0
 20
0.0
 30
0.0
  3
block 6
  1

  0
SPLINE
  5
EA
330
E6
100
AcDbEntity
  8
_U+30EC_U+30A4_U+30E4_U+30FC 1
370
     0
100
AcDbSpline
210
0.0
220
0.0
230
1.0
 70
    11
 71
     3
 72
    26
 73
    22
 74
     0
 42
0.0000000001
 43
0.0000000001
 12
1.0
 22
0.0
 32
0.0
 13
1.0
 23
0.0
 33
0.0
 40
0.0
 40
0.0
 40
0.0
 40
0.0
 40
1.0
 40
1.0
 40
1.0
 40
2.0
 40
2.0
 40
2.0
 40
3.0
 40
3.0
 40
3.0
 40
4.0
 40
4.0
 40
4.0
 40
5.0
 40
5.0
 40
5.0
 40
6.0
 40
6.0
 40
6.0
 40
7.0
 40
7.0
 40
7.0
 40
7.0
 10
76.12162405866057
 20
-137.4382947790085
 30
0.0
 10
76.12162405866057
 20
-137.4382947790085
 30
0.0
 10
76.12162405866057
 20
-136.3341416759859
 30
0.0
 10
76.12162405866057
 20
-136.3341416759859
 30
0.0
 10
76.12162405866057
 20
-136.3341416759859
 30
0.0
 10
75.79158391117363
 20
-136.3341416759859
 30
0.0
 10
75.79158391117363
 20
-136.3341416759859
 30
0.0
 10
75.79158391117363
 20
-136.3341416759859
 30
0.0
 10
75.79158391117363
 20
-136.1860025701202
 30
0.0
 10
75.79158391117363
 20
-136.1860025701202
 30
0.0
 10
76.12369111595171
 20
-136.1711886595336
 30
0.0
 10
76.17019990500259
 20
-136.0082356430813
 30
0.0
 10
76.19982772617574
 20
-135.893858472971
 30
0.0
 10
76.19982772617574
 20
-135.893858472971
 30
0.0
 10
76.34589977475034
 20
-135.893858472971
 30
0.0
 10
76.34589977475034
 20
-135.893858472971
 30
0.0
 10
76.34589977475034
 20
-135.893858472971
 30
0.0
 10
76.34589977475034
 20
-137.4382947790085
 30
0.0
 10
76.34589977475034
 20
-137.4382947790085
 30
0.0
 10
76.34589977475034
 20
-137.4382947790085
 30
0.0
 10
76.12162405866057
 20
-137.4382947790085
 30
0.0
 10
76.12162405866057
 20
-137.4382947790085
 30
0.0
  0
HATCH
  5
EB
330
E6
100
AcDbEntity
  8
_U+30EC_U+30A4_U+30E4_U+30FC 1
 62
   179
420
  2234388
100
AcDbHatch
 10
0.0
 20
0.0
 30
0.0
210
0.0
220
0.0
230
1.0
  2
SOLID
 70
     1
 71
     0
 91
        1
 92
        1
 93
        1
 72
     4
 94
        3
 73
     0
 74
     1
 95
       26
 96
       22
 40
0.0
 40
0.0
 40
0.0
 40
0.0
 40
1.0
 40
1.0
 40
1.0
 40
2.0
 40
2.0
 40
2.0
 40
3.0
 40
3.0
 40
3.0
 40
4.0
 40
4.0
 40
4.0
 40
5.0
 40
5.0
 40
5.0
 40
6.0
 40
6.0
 40
6.0
 40
7.0
 40
7.0
 40
7.0
 40
7.0
 10
76.12162405866057
 20
-137.4382947790085
 10
76.12162405866057
 20
-137.4382947790085
 10
76.12162405866057
 20
-136.3341416759859
 10
76.12162405866057
 20
-136.3341416759859
 10
76.12162405866057
 20
-136.3341416759859
 10
75.79158391117363
 20
-136.3341416759859
 10
75.79158391117363
 20
-136.3341416759859
 10
75.79158391117363
 20
-136.3341416759859
 10
75.79158391117363
 20
-136.1860025701202
 10
75.79158391117363
 20
-136.1860025701202
 10
76.12369111595171
 20
-136.1711886595336
 10
76.17019990500259
 20
-136.0082356430813
 10
76.19982772617574
 20
-135.893858472971
 10
76.19982772617574
 20
-135.893858472971
 10
76.34589977475034
 20
-135.893858472971
 10
76.34589977475034
 20
-135.893858472971
 10
76.34589977475034
 20
-135.893858472971
 10
76.34589977475034
 20
-137.4382947790085
 10
76.34589977475034
 20
-137.4382947790085
 10
76.34589977475034
 20
-137.4382947790085
 10
76.12162405866057
 20
-137.4382947790085
 10
76.12162405866057
 20
-137.4382947790085
 97
        0
 97
        0
 75
     2
 76
     1
 98
        0
  0
SPLINE
  5
EC
330
E6
100
AcDbEntity
  8
_U+30EC_U+30A4_U+30E4_U+30FC 1
370
     0
100
AcDbSpline
210
0.0
220
0.0
230
1.0
 70
    11
 71
     3
 72
    53
 73
    49
 74
     0
 42
0.0000000001
 43
0.0000000001
 12
1.0
 22
0.0
 32
0.0
 13
1.0
 23
0.0
 33
0.0
 40
0.0
 40
0.0
 40
0.0
 40
0.0
 40
1.0
 40
1.0
 40
1.0
 40
2.0
 40
2.0
 40
2.0
 40
3.0
 40
3.0
 40
3.0
 40
4.0
 40
4.0
 40
4.0
 40
5.0
 40
5.0
 40
5.0
 40
6.0
 40
6.0
 40
6.0
 40
7.0
 40
7.0
 40
7.0
 40
8.0
 40
8.0
 40
8.0
 40
9.0
 40
9.0
 40
9.0
 40
10.0
 40
10.0
 40
10.0
 40
11.0
 40
11.0
 40
11.0
 40
12.0
 40
12.0
 40
12.0
 40
13.0
 40
13.0
 40
13.0
 40
14.0
 40
14.0
 40
14.0
 40
15.0
 40
15.0
 40
15.0
 40
16.0
 40
16.0
 40
16.0
 40
16.0
 10
77.32809649759507
 20
-137.4889376826416
 30
0.0
 10
77.24972057530563
 20
-137.4889376826416
 30
0.0
 10
77.14826251326502
 20
-137.4720567147639
 30
0.0
 10
77.04663219645015
 20
-137.4086669578354
 30
0.0
 10
76.87317163876781
 20
-137.2987684118559
 30
0.0
 10
76.85198430153353
 20
-137.1675102738679
 30
0.0
 10
76.83303627636467
 20
-137.0596787851795
 30
0.0
 10
76.83303627636467
 20
-137.0596787851795
 30
0.0
 10
77.05507268038902
 20
-137.0596787851795
 30
0.0
 10
77.05507268038902
 20
-137.0596787851795
 30
0.0
 10
77.110194208153
 20
-137.2584607946785
 30
0.0
 10
77.23714597678446
 20
-137.2880886158516
 30
0.0
 10
77.33016355488621
 20
-137.2880886158516
 30
0.0
 10
77.46968992203882
 20
-137.2880886158516
 30
0.0
 10
77.62213539726113
 20
-137.1885253563279
 30
0.0
 10
77.62213539726113
 20
-136.9559814110735
 30
0.0
 10
77.62213539726113
 20
-136.7000108165194
 30
0.0
 10
77.4423014129311
 20
-136.6300753781689
 30
0.0
 10
77.32172307094736
 20
-136.6300753781689
 30
0.0
 10
77.29002819248305
 20
-136.6300753781689
 30
0.0
 10
77.14826251326502
 20
-136.6300753781689
 30
0.0
 10
77.05937904974557
 20
-136.7592664588657
 30
0.0
 10
77.05937904974557
 20
-136.7592664588657
 30
0.0
 10
76.8838514347721
 20
-136.7403184336969
 30
0.0
 10
76.8838514347721
 20
-136.7403184336969
 30
0.0
 10
76.8838514347721
 20
-136.7403184336969
 30
0.0
 10
77.00442977675584
 20
-135.893858472971
 30
0.0
 10
77.00442977675584
 20
-135.893858472971
 30
0.0
 10
77.00442977675584
 20
-135.893858472971
 30
0.0
 10
77.78284910164804
 20
-135.893858472971
 30
0.0
 10
77.78284910164804
 20
-135.893858472971
 30
0.0
 10
77.78284910164804
 20
-135.893858472971
 30
0.0
 10
77.78284910164804
 20
-136.0885063678876
 30
0.0
 10
77.78284910164804
 20
-136.0885063678876
 30
0.0
 10
77.78284910164804
 20
-136.0885063678876
 30
0.0
 10
77.16721053843389
 20
-136.0885063678876
 30
0.0
 10
77.16721053843389
 20
-136.0885063678876
 30
0.0
 10
77.16721053843389
 20
-136.0885063678876
 30
0.0
 10
77.10175372421415
 20
-136.5115640934763
 30
0.0
 10
77.10175372421415
 20
-136.5115640934763
 30
0.0
 10
77.16307642385159
 20
-136.4778021577208
 30
0.0
 10
77.24558646072333
 20
-136.4374945405434
 30
0.0
 10
77.36392549064166
 20
-136.4374945405434
 30
0.0
 10
77.61782902790458
 20
-136.4374945405434
 30
0.0
 10
77.85485159728977
 20
-136.6238742062954
 30
0.0
 10
77.85485159728977
 20
-136.9370333859046
 30
0.0
 10
77.85485159728977
 20
-137.2543266800961
 30
0.0
 10
77.6305758812
 20
-137.4889376826416
 30
0.0
 10
77.32809649759507
 20
-137.4889376826416
 30
0.0
  0
HATCH
  5
ED
330
E6
100
AcDbEntity
  8
_U+30EC_U+30A4_U+30E4_U+30FC 1
 62
   179
420
  2234388
100
AcDbHatch
 10
0.0
 20
0.0
 30
0.0
210
0.0
220
0.0
230
1.0
  2
SOLID
 70
     1
 71
     0
 91
        1
 92
        1
 93
        1
 72
     4
 94
        3
 73
     0
 74
     1
 95
       53
 96
       49
 40
0.0
 40
0.0
 40
0.0
 40
0.0
 40
1.0
 40
1.0
 40
1.0
 40
2.0
 40
2.0
 40
2.0
 40
3.0
 40
3.0
 40
3.0
 40
4.0
 40
4.0
 40
4.0
 40
5.0
 40
5.0
 40
5.0
 40
6.0
 40
6.0
 40
6.0
 40
7.0
 40
7.0
 40
7.0
 40
8.0
 40
8.0
 40
8.0
 40
9.0
 40
9.0
 40
9.0
 40
10.0
 40
10.0
 40
10.0
 40
11.0
 40
11.0
 40
11.0
 40
12.0
 40
12.0
 40
12.0
 40
13.0
 40
13.0
 40
13.0
 40
14.0
 40
14.0
 40
14.0
 40
15.0
 40
15.0
 40
15.0
 40
16.0
 40
16.0
 40
16.0
 40
16.0
 10
77.32809649759507
 20
-137.4889376826416
 10
77.24972057530563
 20
-137.4889376826416
 10
77.14826251326502
 20
-137.4720567147639
 10
77.04663219645015
 20
-137.4086669578354
 10
76.87317163876781
 20
-137.2987684118559
 10
76.85198430153353
 20
-137.1675102738679
 10
76.83303627636467
 20
-137.0596787851795
 10
76.83303627636467
 20
-137.0596787851795
 10
77.05507268038902
 20
-137.0596787851795
 10
77.05507268038902
 20
-137.0596787851795
 10
77.110194208153
 20
-137.2584607946785
 10
77.23714597678446
 20
-137.2880886158516
 10
77.33016355488621
 20
-137.2880886158516
 10
77.46968992203882
 20
-137.2880886158516
 10
77.62213539726113
 20
-137.1885253563279
 10
77.62213539726113
 20
-136.9559814110735
 10
77.62213539726113
 20
-136.7000108165194
 10
77.4423014129311
 20
-136.6300753781689
 10
77.32172307094736
 20
-136.6300753781689
 10
77.29002819248305
 20
-136.6300753781689
 10
77.14826251326502
 20
-136.6300753781689
 10
77.05937904974557
 20
-136.7592664588657
 10
77.05937904974557
 20
-136.7592664588657
 10
76.8838514347721
 20
-136.7403184336969
 10
76.8838514347721
 20
-136.7403184336969
 10
76.8838514347721
 20
-136.7403184336969
 10
77.00442977675584
 20
-135.893858472971
 10
77.00442977675584
 20
-135.893858472971
 10
77.00442977675584
 20
-135.893858472971
 10
77.78284910164804
 20
-135.893858472971
 10
77.78284910164804
 20
-135.893858472971
 10
77.78284910164804
 20
-135.893858472971
 10
77.78284910164804
 20
-136.0885063678876
 10
77.78284910164804
 20
-136.0885063678876
 10
77.78284910164804
 20
-136.0885063678876
 10
77.16721053843389
 20
-136.0885063678876
 10
77.16721053843389
 20
-136.0885063678876
 10
77.16721053843389
 20
-136.0885063678876
 10
77.10175372421415
 20
-136.5115640934763
 10
77.10175372421415
 20
-136.5115640934763
 10
77.16307642385159
 20
-136.4778021577208
 10
77.24558646072333
 20
-136.4374945405434
 10
77.36392549064166
 20
-136.4374945405434
 10
77.61782902790458
 20
-136.4374945405434
 10
77.85485159728977
 20
-136.6238742062954
 10
77.85485159728977
 20
-136.9370333859046
 10
77.85485159728977
 20
-137.2543266800961
 10
77.6305758812
 20
-137.4889376826416
 10
77.32809649759507
 20
-137.4889376826416
 97
        0
 97
        0
 75
     2
 76
     1
 98
        0
  0
ENDBLK
  5
E9
330
E6
100
AcDbEntity
  8
0
100
AcDbBlockEnd
  0
ENDSEC
  0
SECTION
  2
ENTITIES
  0
POLYLINE
  5
41
330
1F
100
AcDbEntity
  8
_U+30EC_U+30A4_U+30E4_U+30FC 1
370
     0
100
AcDb2dPolyline
 66
     1
 10
0.0
 20
0.0
 30
0.0
  0
VERTEX
  5
42
330
41
100
AcDbEntity
  8
_U+30EC_U+30A4_U+30E4_U+30FC 1
370
     0
100
AcDbVertex
100
AcDb2dVertex
 10
91.93099376575607
 20
-134.6284666330095
 30
0.0
  0
VERTEX
  5
43
330
41
100
AcDbEntity
  8
_U+30EC_U+30A4_U+30E4_U+30FC 1
370
     0
100
AcDbVertex
100
AcDb2dVertex
 10
91.93099376575607
 20
-131.2564049671857
 30
0.0
  0
VERTEX
  5
44
330
41
100
AcDbEntity
  8
_U+30EC_U+30A4_U+30E4_U+30FC 1
370
     0
100
AcDbVertex
100
AcDb2dVertex
 10
91.12175684195698
 20
-131.2564049671857
 30
0.0
  0
VERTEX
  5
45
330
41
100
AcDbEntity
  8
_U+30EC_U+30A4_U+30E4_U+30FC 1
370
     0
100
AcDbVertex
100
AcDb2dVertex
 10
91.12175684195698
 20
-133.81887691099
 30
0.0
  0
VERTEX
  5
46
330
41
100
AcDbEntity
  8
_U+30EC_U+30A4_U+30E4_U+30FC 1
370
     0
100
AcDbVertex
100
AcDb2dVertex
 10
82.62528066983126
 20
-133.81887691099
 30
0.0
  0
VERTEX
  5
47
330
41
100
AcDbEntity
  8
_U+30EC_U+30A4_U+30E4_U+30FC 1
370
     0
100
AcDbVertex
100
AcDb2dVertex
 10
82.62528066983126
 20
-115.0730771934539
 30
0.0
  0
VERTEX
  5
48
330
41
100
AcDbEntity
  8
_U+30EC_U+30A4_U+30E4_U+30FC 1
370
     0
100
AcDbVertex
100
AcDb2dVertex
 10
105.4175114772419
 20
-115.0730771934539
 30
0.0
  0
VERTEX
  5
49
330
41
100
AcDbEntity
  8
_U+30EC_U+30A4_U+30E4_U+30FC 1
370
     0
100
AcDbVertex
100
AcDb2dVertex
 10
105.4175114772419
 20
-114.2634874714341
 30
0.0
  0
VERTEX
  5
4A
330
41
100
AcDbEntity
  8
_U+30EC_U+30A4_U+30E4_U+30FC 1
370
     0
100
AcDbVertex
100
AcDb2dVertex
 10
81.81636124602406
 20
-114.2634874714341
 30
0.0
  0
VERTEX
  5
4B
330
41
100
AcDbEntity
  8
_U+30EC_U+30A4_U+30E4_U+30FC 1
370
     0
100
AcDbVertex
100
AcDb2dVertex
 10
81.81636124602406
 20
-127.0757766348976
 30
0.0
  0
VERTEX
  5
4C
330
41
100
AcDbEntity
  8
_U+30EC_U+30A4_U+30E4_U+30FC 1
370
     0
100
AcDbVertex
100
AcDb2dVertex
 10
71.70173053763006
 20
-127.0757766348976
 30
0.0
  0
VERTEX
  5
4D
330
41
100
AcDbEntity
  8
_U+30EC_U+30A4_U+30E4_U+30FC 1
370
     0
100
AcDbVertex
100
AcDb2dVertex
 10
71.70173053763006
 20
-127.8850488569175
 30
0.0
  0
VERTEX
  5
4E
330
41
100
AcDbEntity
  8
_U+30EC_U+30A4_U+30E4_U+30FC 1
370
     0
100
AcDbVertex
100
AcDb2dVertex
 10
81.81636124602406
 20
-127.8850488569175
 30
0.0
  0
VERTEX
  5
4F
330
41
100
AcDbEntity
  8
_U+30EC_U+30A4_U+30E4_U+30FC 1
370
     0
100
AcDbVertex
100
AcDb2dVertex
 10
81.81636124602406
 20
-134.6284666330095
 30
0.0
  0
VERTEX
  5
50
330
41
100
AcDbEntity
  8
_U+30EC_U+30A4_U+30E4_U+30FC 1
370
     0
100
AcDbVertex
100
AcDb2dVertex
 10
91.93099376575607
 20
-134.6284666330095
 30
0.0
  0
SEQEND
  5
52
330
41
100
AcDbEntity
  8
_U+30EC_U+30A4_U+30E4_U+30FC 1
370
     0
  0
HATCH
  5
51
330
1F
100
AcDbEntity
  8
_U+30EC_U+30A4_U+30E4_U+30FC 1
 62
   253
420
 10066329
100
AcDbHatch
 10
0.0
 20
0.0
 30
0.0
210
0.0
220
0.0
230
1.0
  2
SOLID
 70
     1
 71
     0
 91
        1
 92
        1
 93
       14
 72
     1
 10
91.93099376575607
 20
-134.6284666330095
 11
91.93099376575607
 21
-131.2564049671857
 72
     1
 10
91.93099376575607
 20
-131.2564049671857
 11
91.12175684195698
 21
-131.2564049671857
 72
     1
 10
91.12175684195698
 20
-131.2564049671857
 11
91.12175684195698
 21
-133.81887691099
 72
     1
 10
91.12175684195698
 20
-133.81887691099
 11
82.62528066983126
 21
-133.81887691099
 72
     1
 10
82.62528066983126
 20
-133.81887691099
 11
82.62528066983126
 21
-115.0730771934538
 72
     1
 10
82.62528066983126
 20
-115.0730771934539
 11
105.4175114772419
 21
-115.0730771934539
 72
     1
 10
105.4175114772419
 20
-115.0730771934539
 11
105.4175114772419
 21
-114.2634874714341
 72
     1
 10
105.4175114772419
 20
-114.2634874714341
 11
81.81636124602406
 21
-114.2634874714341
 72
     1
 10
81.81636124602406
 20
-114.2634874714341
 11
81.81636124602406
 21
-127.0757766348976
 72
     1
 10
81.81636124602406
 20
-127.0757766348976
 11
71.70173053763006
 21
-127.0757766348976
 72
     1
 10
71.70173053763006
 20
-127.0757766348976
 11
71.70173053763006
 21
-127.8850488569175
 72
     1
 10
71.70173053763006
 20
-127.8850488569175
 11
81.81636124602406
 21
-127.8850488569175
 72
     1
 10
81.81636124602406
 20
-127.8850488569175
 11
81.81636124602406
 21
-134.6284666330095
 72
     1
 10
81.81636124602406
 20
-134.6284666330095
 11
91.93099376575606
 21
-134.6284666330095
 97
        0
 75
     2
 76
     1
 98
        0
  0
POLYLINE
  5
53
330
1F
100
AcDbEntity
  8
_U+30EC_U+30A4_U+30E4_U+30FC 1
 62
   179
420
  2234388
370
    25
100
AcDb2dPolyline
 66
     1
 10
0.0
 20
0.0
 30
0.0
  0
VERTEX
  5
54
330
53
100
AcDbEntity
  8
_U+30EC_U+30A4_U+30E4_U+30FC 1
 62
   179
420
  2234388
370
    25
100
AcDbVertex
100
AcDb2dVertex
 10
82.62528066983126
 20
-133.81887691099
 30
0.0
  0
VERTEX
  5
55
330
53
100
AcDbEntity
  8
_U+30EC_U+30A4_U+30E4_U+30FC 1
 62
   179
420
  2234388
370
    25
100
AcDbVertex
100
AcDb2dVertex
 10
82.62528066983126
 20
-115.0730771934539
 30
0.0
  0
SEQEND
  5
56
330
53
100
AcDbEntity
  8
_U+30EC_U+30A4_U+30E4_U+30FC 1
 62
   179
420
  2234388
370
    25
  0
POLYLINE
  5
57
330
1F
100
AcDbEntity
  8
_U+30EC_U+30A4_U+30E4_U+30FC 1
 62
   179
420
  2234388
370
    25
100
AcDb2dPolyline
 66
     1
 10
0.0
 20
0.0
 30
0.0
  0
VERTEX
  5
58
330
57
100
AcDbEntity
  8
_U+30EC_U+30A4_U+30E4_U+30FC 1
 62
   179
420
  2234388
370
    25
100
AcDbVertex
100
AcDb2dVertex
 10
91.12175684195698
 20
-131.2564049671857
 30
0.0
  0
VERTEX
  5
59
330
57
100
AcDbEntity
  8
_U+30EC_U+30A4_U+30E4_U+30FC 1
 62
   179
420
  2234388
370
    25
100
AcDbVertex
100
AcDb2dVertex
 10
91.12175684195698
 20
-133.81887691099
 30
0.0
  0
SEQEND
  5
5A
330
57
100
AcDbEntity
  8
_U+30EC_U+30A4_U+30E4_U+30FC 1
 62
   179
420
  2234388
370
    25
  0
POLYLINE
  5
5B
330
1F
100
AcDbEntity
  8
_U+30EC_U+30A4_U+30E4_U+30FC 1
 62
   179
420
  2234388
370
    25
100
AcDb2dPolyline
 66
     1
 10
0.0
 20
0.0
 30
0.0
  0
VERTEX
  5
5C
330
5B
100
AcDbEntity
  8
_U+30EC_U+30A4_U+30E4_U+30FC 1
 62
   179
420
  2234388
370
    25
100
AcDbVertex
100
AcDb2dVertex
 10
81.81636124602406
 20
-114.2634874714341
 30
0.0
  0
VERTEX
  5
5D
330
5B
100
AcDbEntity
  8
_U+30EC_U+30A4_U+30E4_U+30FC 1
 62
   179
420
  2234388
370
    25
100
AcDbVertex
100
AcDb2dVertex
 10
81.81636124602406
 20
-127.0757766348976
 30
0.0
  0
SEQEND
  5
5E
330
5B
100
AcDbEntity
  8
_U+30EC_U+30A4_U+30E4_U+30FC 1
 62
   179
420
  2234388
370
    25
  0
POLYLINE
  5
5F
330
1F
100
AcDbEntity
  8
_U+30EC_U+30A4_U+30E4_U+30FC 1
 62
   179
420
  2234388
370
    25
100
AcDb2dPolyline
 66
     1
 10
0.0
 20
0.0
 30
0.0
  0
VERTEX
  5
60
330
5F
100
AcDbEntity
  8
_U+30EC_U+30A4_U+30E4_U+30FC 1
 62
   179
420
  2234388
370
    25
100
AcDbVertex
100
AcDb2dVertex
 10
81.81636124602406
 20
-127.8850488569175
 30
0.0
  0
VERTEX
  5
61
330
5F
100
AcDbEntity
  8
_U+30EC_U+30A4_U+30E4_U+30FC 1
 62
   179
420
  2234388
370
    25
100
AcDbVertex
100
AcDb2dVertex
 10
81.81636124602406
 20
-134.6284666330095
 30
0.0
  0
SEQEND
  5
62
330
5F
100
AcDbEntity
  8
_U+30EC_U+30A4_U+30E4_U+30FC 1
 62
   179
420
  2234388
370
    25
  0
POLYLINE
  5
63
330
1F
100
AcDbEntity
  8
_U+30EC_U+30A4_U+30E4_U+30FC 1
 62
   179
420
  2234388
370
    25
100
AcDb2dPolyline
 66
     1
 10
0.0
 20
0.0
 30
0.0
  0
VERTEX
  5
64
330
63
100
AcDbEntity
  8
_U+30EC_U+30A4_U+30E4_U+30FC 1
 62
   179
420
  2234388
370
    25
100
AcDbVertex
100
AcDb2dVertex
 10
91.12175684195698
 20
-131.2564049671857
 30
0.0
  0
VERTEX
  5
65
330
63
100
AcDbEntity
  8
_U+30EC_U+30A4_U+30E4_U+30FC 1
 62
   179
420
  2234388
370
    25
100
AcDbVertex
100
AcDb2dVertex
 10
91.93099376575607
 20
-131.2564049671857
 30
0.0
  0
SEQEND
  5
66
330
63
100
AcDbEntity
  8
_U+30EC_U+30A4_U+30E4_U+30FC 1
 62
   179
420
  2234388
370
    25
  0
POLYLINE
  5
67
330
1F
100
AcDbEntity
  8
_U+30EC_U+30A4_U+30E4_U+30FC 1
 62
   179
420
  2234388
370
    25
100
AcDb2dPolyline
 66
     1
 10
0.0
 20
0.0
 30
0.0
  0
VERTEX
  5
68
330
67
100
AcDbEntity
  8
_U+30EC_U+30A4_U+30E4_U+30FC 1
 62
   179
420
  2234388
370
    25
100
AcDbVertex
100
AcDb2dVertex
 10
105.4175114772419
 20
-114.2634874714341
 30
0.0
  0
VERTEX
  5
69
330
67
100
AcDbEntity
  8
_U+30EC_U+30A4_U+30E4_U+30FC 1
 62
   179
420
  2234388
370
    25
100
AcDbVertex
100
AcDb2dVertex
 10
105.4175114772419
 20
-115.0730771934539
 30
0.0
  0
SEQEND
  5
6A
330
67
100
AcDbEntity
  8
_U+30EC_U+30A4_U+30E4_U+30FC 1
 62
   179
420
  2234388
370
    25
  0
POLYLINE
  5
6B
330
1F
100
AcDbEntity
  8
_U+30EC_U+30A4_U+30E4_U+30FC 1
 62
   179
420
  2234388
370
    25
100
AcDb2dPolyline
 66
     1
 10
0.0
 20
0.0
 30
0.0
  0
VERTEX
  5
6C
330
6B
100
AcDbEntity
  8
_U+30EC_U+30A4_U+30E4_U+30FC 1
 62
   179
420
  2234388
370
    25
100
AcDbVertex
100
AcDb2dVertex
 10
82.62528066983126
 20
-133.81887691099
 30
0.0
  0
VERTEX
  5
6D
330
6B
100
AcDbEntity
  8
_U+30EC_U+30A4_U+30E4_U+30FC 1
 62
   179
420
  2234388
370
    25
100
AcDbVertex
100
AcDb2dVertex
 10
91.12175684195698
 20
-133.81887691099
 30
0.0
  0
SEQEND
  5
6E
330
6B
100
AcDbEntity
  8
_U+30EC_U+30A4_U+30E4_U+30FC 1
 62
   179
420
  2234388
370
    25
  0
POLYLINE
  5
6F
330
1F
100
AcDbEntity
  8
_U+30EC_U+30A4_U+30E4_U+30FC 1
 62
   179
420
  2234388
370
    25
100
AcDb2dPolyline
 66
     1
 10
0.0
 20
0.0
 30
0.0
  0
VERTEX
  5
70
330
6F
100
AcDbEntity
  8
_U+30EC_U+30A4_U+30E4_U+30FC 1
 62
   179
420
  2234388
370
    25
100
AcDbVertex
100
AcDb2dVertex
 10
105.4175114772419
 20
-115.0730771934539
 30
0.0
  0
VERTEX
  5
71
330
6F
100
AcDbEntity
  8
_U+30EC_U+30A4_U+30E4_U+30FC 1
 62
   179
420
  2234388
370
    25
100
AcDbVertex
100
AcDb2dVertex
 10
82.62528066983126
 20
-115.0730771934539
 30
0.0
  0
SEQEND
  5
72
330
6F
100
AcDbEntity
  8
_U+30EC_U+30A4_U+30E4_U+30FC 1
 62
   179
420
  2234388
370
    25
  0
POLYLINE
  5
73
330
1F
100
AcDbEntity
  8
_U+30EC_U+30A4_U+30E4_U+30FC 1
 62
   179
420
  2234388
370
    25
100
AcDb2dPolyline
 66
     1
 10
0.0
 20
0.0
 30
0.0
  0
VERTEX
  5
74
330
73
100
AcDbEntity
  8
_U+30EC_U+30A4_U+30E4_U+30FC 1
 62
   179
420
  2234388
370
    25
100
AcDbVertex
100
AcDb2dVertex
 10
91.93099376575607
 20
-134.6284666330095
 30
0.0
  0
VERTEX
  5
75
330
73
100
AcDbEntity
  8
_U+30EC_U+30A4_U+30E4_U+30FC 1
 62
   179
420
  2234388
370
    25
100
AcDbVertex
100
AcDb2dVertex
 10
91.93099376575607
 20
-131.2564049671857
 30
0.0
  0
SEQEND
  5
76
330
73
100
AcDbEntity
  8
_U+30EC_U+30A4_U+30E4_U+30FC 1
 62
   179
420
  2234388
370
    25
  0
POLYLINE
  5
77
330
1F
100
AcDbEntity
  8
_U+30EC_U+30A4_U+30E4_U+30FC 1
 62
   179
420
  2234388
370
    25
100
AcDb2dPolyline
 66
     1
 10
0.0
 20
0.0
 30
0.0
  0
VERTEX
  5
78
330
77
100
AcDbEntity
  8
_U+30EC_U+30A4_U+30E4_U+30FC 1
 62
   179
420
  2234388
370
    25
100
AcDbVertex
100
AcDb2dVertex
 10
81.81636124602406
 20
-134.6284666330095
 30
0.0
  0
VERTEX
  5
79
330
77
100
AcDbEntity
  8
_U+30EC_U+30A4_U+30E4_U+30FC 1
 62
   179
420
  2234388
370
    25
100
AcDbVertex
100
AcDb2dVertex
 10
91.93099376575607
 20
-134.6284666330095
 30
0.0
  0
SEQEND
  5
7A
330
77
100
AcDbEntity
  8
_U+30EC_U+30A4_U+30E4_U+30FC 1
 62
   179
420
  2234388
370
    25
  0
POLYLINE
  5
7B
330
1F
100
AcDbEntity
  8
_U+30EC_U+30A4_U+30E4_U+30FC 1
 62
   179
420
  2234388
370
    25
100
AcDb2dPolyline
 66
     1
 10
0.0
 20
0.0
 30
0.0
  0
VERTEX
  5
7C
330
7B
100
AcDbEntity
  8
_U+30EC_U+30A4_U+30E4_U+30FC 1
 62
   179
420
  2234388
370
    25
100
AcDbVertex
100
AcDb2dVertex
 10
81.81636124602406
 20
-114.2634874714341
 30
0.0
  0
VERTEX
  5
7D
330
7B
100
AcDbEntity
  8
_U+30EC_U+30A4_U+30E4_U+30FC 1
 62
   179
420
  2234388
370
    25
100
AcDbVertex
100
AcDb2dVertex
 10
105.4175114772419
 20
-114.2634874714341
 30
0.0
  0
SEQEND
  5
7E
330
7B
100
AcDbEntity
  8
_U+30EC_U+30A4_U+30E4_U+30FC 1
 62
   179
420
  2234388
370
    25
  0
POLYLINE
  5
7F
330
1F
100
AcDbEntity
  8
_U+30EC_U+30A4_U+30E4_U+30FC 1
 62
   179
420
  2234388
370
    25
100
AcDb2dPolyline
 66
     1
 10
0.0
 20
0.0
 30
0.0
  0
VERTEX
  5
80
330
7F
100
AcDbEntity
  8
_U+30EC_U+30A4_U+30E4_U+30FC 1
 62
   179
420
  2234388
370
    25
100
AcDbVertex
100
AcDb2dVertex
 10
71.70137775985229
 20
-127.8843433013623
 30
0.0
  0
VERTEX
  5
81
330
7F
100
AcDbEntity
  8
_U+30EC_U+30A4_U+30E4_U+30FC 1
 62
   179
420
  2234388
370
    25
100
AcDbVertex
100
AcDb2dVertex
 10
71.70137775985229
 20
-127.0757766348976
 30
0.0
  0
VERTEX
  5
82
330
7F
100
AcDbEntity
  8
_U+30EC_U+30A4_U+30E4_U+30FC 1
 62
   179
420
  2234388
370
    25
100
AcDbVertex
100
AcDb2dVertex
 10
81.81636124602406
 20
-127.0757766348976
 30
0.0
  0
SEQEND
  5
83
330
7F
100
AcDbEntity
  8
_U+30EC_U+30A4_U+30E4_U+30FC 1
 62
   179
420
  2234388
370
    25
  0
POLYLINE
  5
84
330
1F
100
AcDbEntity
  8
_U+30EC_U+30A4_U+30E4_U+30FC 1
 62
   179
420
  2234388
370
    25
100
AcDb2dPolyline
 66
     1
 10
0.0
 20
0.0
 30
0.0
  0
VERTEX
  5
85
330
84
100
AcDbEntity
  8
_U+30EC_U+30A4_U+30E4_U+30FC 1
 62
   179
420
  2234388
370
    25
100
AcDbVertex
100
AcDb2dVertex
 10
81.81636124602406
 20
-127.8843433013623
 30
0.0
  0
VERTEX
  5
86
330
84
100
AcDbEntity
  8
_U+30EC_U+30A4_U+30E4_U+30FC 1
 62
   179
420
  2234388
370
    25
100
AcDbVertex
100
AcDb2dVertex
 10
71.70137775985229
 20
-127.8843433013623
 30
0.0
  0
SEQEND
  5
87
330
84
100
AcDbEntity
  8
_U+30EC_U+30A4_U+30E4_U+30FC 1
 62
   179
420
  2234388
370
    25
  0
POLYLINE
  5
88
330
1F
100
AcDbEntity
  8
_U+30EC_U+30A4_U+30E4_U+30FC 1
 62
   179
420
  2234388
370
     9
100
AcDb2dPolyline
 66
     1
 10
0.0
 20
0.0
 30
0.0
  0
VERTEX
  5
89
330
88
100
AcDbEntity
  8
_U+30EC_U+30A4_U+30E4_U+30FC 1
 62
   179
420
  2234388
370
     9
100
AcDbVertex
100
AcDb2dVertex
 10
93.00964707157067
 20
-131.2564049671857
 30
0.0
  0
VERTEX
  5
8A
330
88
100
AcDbEntity
  8
_U+30EC_U+30A4_U+30E4_U+30FC 1
 62
   179
420
  2234388
370
     9
100
AcDbVertex
100
AcDb2dVertex
 10
109.7793263659627
 20
-131.2564049671857
 30
0.0
  0
SEQEND
  5
8B
330
88
100
AcDbEntity
  8
_U+30EC_U+30A4_U+30E4_U+30FC 1
 62
   179
420
  2234388
370
     9
  0
POLYLINE
  5
8C
330
1F
100
AcDbEntity
  8
_U+30EC_U+30A4_U+30E4_U+30FC 1
 62
   179
420
  2234388
370
     9
100
AcDb2dPolyline
 66
     1
 10
0.0
 20
0.0
 30
0.0
  0
VERTEX
  5
8D
330
8C
100
AcDbEntity
  8
_U+30EC_U+30A4_U+30E4_U+30FC 1
 62
   179
420
  2234388
370
     9
100
AcDbVertex
100
AcDb2dVertex
 10
93.00964707157067
 20
-131.2564049671857
 30
0.0
  0
VERTEX
  5
8E
330
8C
100
AcDbEntity
  8
_U+30EC_U+30A4_U+30E4_U+30FC 1
 62
   179
420
  2234388
370
     9
100
AcDbVertex
100
AcDb2dVertex
 10
109.7793263659627
 20
-131.2564049671857
 30
0.0
  0
SEQEND
  5
8F
330
8C
100
AcDbEntity
  8
_U+30EC_U+30A4_U+30E4_U+30FC 1
 62
   179
420
  2234388
370
     9
  0
POLYLINE
  5
90
330
1F
100
AcDbEntity
  8
_U+30EC_U+30A4_U+30E4_U+30FC 1
 62
   179
420
  2234388
370
     9
100
AcDb2dPolyline
 66
     1
 10
0.0
 20
0.0
 30
0.0
  0
VERTEX
  5
91
330
90
100
AcDbEntity
  8
_U+30EC_U+30A4_U+30E4_U+30FC 1
 62
   179
420
  2234388
370
     9
100
AcDbVertex
100
AcDb2dVertex
 10
108.8536375006901
 20
-115.0730771934539
 30
0.0
  0
VERTEX
  5
92
330
90
100
AcDbEntity
  8
_U+30EC_U+30A4_U+30E4_U+30FC 1
 62
   179
420
  2234388
370
     9
100
AcDbVertex
100
AcDb2dVertex
 10
108.8536375006901
 20
-131.2564049671857
 30
0.0
  0
SEQEND
  5
93
330
90
100
AcDbEntity
  8
_U+30EC_U+30A4_U+30E4_U+30FC 1
 62
   179
420
  2234388
370
     9
  0
POLYLINE
  5
94
330
1F
100
AcDbEntity
  8
_U+30EC_U+30A4_U+30E4_U+30FC 1
 62
   179
420
  2234388
370
     9
100
AcDb2dPolyline
 66
     1
 10
0.0
 20
0.0
 30
0.0
  0
VERTEX
  5
95
330
94
100
AcDbEntity
  8
_U+30EC_U+30A4_U+30E4_U+30FC 1
 62
   179
420
  2234388
370
     9
100
AcDbVertex
100
AcDb2dVertex
 10
81.81583207937089
 20
-136.9935241324185
 30
0.0
  0
VERTEX
  5
96
330
94
100
AcDbEntity
  8
_U+30EC_U+30A4_U+30E4_U+30FC 1
 62
   179
420
  2234388
370
     9
100
AcDbVertex
100
AcDb2dVertex
 10
81.81583207937089
 20
-138.9982191319174
 30
0.0
  0
SEQEND
  5
97
330
94
100
AcDbEntity
  8
_U+30EC_U+30A4_U+30E4_U+30FC 1
 62
   179
420
  2234388
370
     9
  0
POLYLINE
  5
98
330
1F
100
AcDbEntity
  8
_U+30EC_U+30A4_U+30E4_U+30FC 1
 62
   179
420
  2234388
370
     9
100
AcDb2dPolyline
 66
     1
 10
0.0
 20
0.0
 30
0.0
  0
VERTEX
  5
99
330
98
100
AcDbEntity
  8
_U+30EC_U+30A4_U+30E4_U+30FC 1
 62
   179
420
  2234388
370
     9
100
AcDbVertex
100
AcDb2dVertex
 10
105.4168059217043
 20
-116.1524360820731
 30
0.0
  0
VERTEX
  5
9A
330
98
100
AcDbEntity
  8
_U+30EC_U+30A4_U+30E4_U+30FC 1
 62
   179
420
  2234388
370
     9
100
AcDbVertex
100
AcDb2dVertex
 10
105.4168059217043
 20
-142.8536569087312
 30
0.0
  0
SEQEND
  5
9B
330
98
100
AcDbEntity
  8
_U+30EC_U+30A4_U+30E4_U+30FC 1
 62
   179
420
  2234388
370
     9
  0
INSERT
  5
9D
330
1F
100
AcDbEntity
  8
_U+30EC_U+30A4_U+30E4_U+30FC 1
100
AcDbBlockReference
  2
block 2
 10
0.0
 20
0.0
 30
0.0
  0
INSERT
  5
B8
330
1F
100
AcDbEntity
  8
_U+30EC_U+30A4_U+30E4_U+30FC 1
100
AcDbBlockReference
  2
block 3
 10
0.0
 20
0.0
 30
0.0
  0
INSERT
  5
BE
330
1F
100
AcDbEntity
  8
_U+30EC_U+30A4_U+30E4_U+30FC 1
100
AcDbBlockReference
  2
block 4
 10
0.0
 20
0.0
 30
0.0
  0
INSERT
  5
C7
330
1F
100
AcDbEntity
  8
_U+30EC_U+30A4_U+30E4_U+30FC 1
100
AcDbBlockReference
  2
block 5
 10
0.0
 20
0.0
 30
0.0
  0
POLYLINE
  5
CE
330
1F
100
AcDbEntity
  8
_U+30EC_U+30A4_U+30E4_U+30FC 1
 62
   179
420
  2234388
370
     9
100
AcDb2dPolyline
 66
     1
 10
0.0
 20
0.0
 30
0.0
  0
VERTEX
  5
CF
330
CE
100
AcDbEntity
  8
_U+30EC_U+30A4_U+30E4_U+30FC 1
 62
   179
420
  2234388
370
     9
100
AcDbVertex
100
AcDb2dVertex
 10
91.93099376575607
 20
-136.9935241324185
 30
0.0
  0
VERTEX
  5
D0
330
CE
100
AcDbEntity
  8
_U+30EC_U+30A4_U+30E4_U+30FC 1
 62
   179
420
  2234388
370
     9
100
AcDbVertex
100
AcDb2dVertex
 10
91.93099376575607
 20
-138.9982191319174
 30
0.0
  0
SEQEND
  5
D1
330
CE
100
AcDbEntity
  8
_U+30EC_U+30A4_U+30E4_U+30FC 1
 62
   179
420
  2234388
370
     9
  0
POLYLINE
  5
D2
330
1F
100
AcDbEntity
  8
_U+30EC_U+30A4_U+30E4_U+30FC 1
 62
   179
420
  2234388
370
     9
100
AcDb2dPolyline
 66
     1
 10
0.0
 20
0.0
 30
0.0
  0
VERTEX
  5
D3
330
D2
100
AcDbEntity
  8
_U+30EC_U+30A4_U+30E4_U+30FC 1
 62
   179
420
  2234388
370
     9
100
AcDbVertex
100
AcDb2dVertex
 10
81.81636124602406
 20
-138.1076669099177
 30
0.0
  0
VERTEX
  5
D4
330
D2
100
AcDbEntity
  8
_U+30EC_U+30A4_U+30E4_U+30FC 1
 62
   179
420
  2234388
370
     9
100
AcDbVertex
100
AcDb2dVertex
 10
91.93099376575607
 20
-138.1076669099177
 30
0.0
  0
SEQEND
  5
D5
330
D2
100
AcDbEntity
  8
_U+30EC_U+30A4_U+30E4_U+30FC 1
 62
   179
420
  2234388
370
     9
  0
POLYLINE
  5
D6
330
1F
100
AcDbEntity
  8
_U+30EC_U+30A4_U+30E4_U+30FC 1
 62
   179
420
  2234388
370
     9
100
AcDb2dPolyline
 66
     1
 10
0.0
 20
0.0
 30
0.0
  0
VERTEX
  5
D7
330
D6
100
AcDbEntity
  8
_U+30EC_U+30A4_U+30E4_U+30FC 1
 62
   179
420
  2234388
370
     9
100
AcDbVertex
100
AcDb2dVertex
 10
81.81636124602406
 20
-135.7071199660732
 30
0.0
  0
VERTEX
  5
D8
330
D6
100
AcDbEntity
  8
_U+30EC_U+30A4_U+30E4_U+30FC 1
 62
   179
420
  2234388
370
     9
100
AcDbVertex
100
AcDb2dVertex
 10
81.81636124602406
 20
-138.9982191319174
 30
0.0
  0
SEQEND
  5
D9
330
D6
100
AcDbEntity
  8
_U+30EC_U+30A4_U+30E4_U+30FC 1
 62
   179
420
  2234388
370
     9
  0
POLYLINE
  5
DA
330
1F
100
AcDbEntity
  8
_U+30EC_U+30A4_U+30E4_U+30FC 1
 62
   179
420
  2234388
370
     9
100
AcDb2dPolyline
 66
     1
 10
0.0
 20
0.0
 30
0.0
  0
VERTEX
  5
DB
330
DA
100
AcDbEntity
  8
_U+30EC_U+30A4_U+30E4_U+30FC 1
 62
   179
420
  2234388
370
     9
100
AcDbVertex
100
AcDb2dVertex
 10
93.00964707157067
 20
-134.6284666330095
 30
0.0
  0
VERTEX
  5
DC
330
DA
100
AcDbEntity
  8
_U+30EC_U+30A4_U+30E4_U+30FC 1
 62
   179
420
  2234388
370
     9
100
AcDbVertex
100
AcDb2dVertex
 10
109.7793263659627
 20
-134.6284666330095
 30
0.0
  0
SEQEND
  5
DD
330
DA
100
AcDbEntity
  8
_U+30EC_U+30A4_U+30E4_U+30FC 1
 62
   179
420
  2234388
370
     9
  0
POLYLINE
  5
DE
330
1F
100
AcDbEntity
  8
_U+30EC_U+30A4_U+30E4_U+30FC 1
 62
   179
420
  2234388
370
     9
100
AcDb2dPolyline
 66
     1
 10
0.0
 20
0.0
 30
0.0
  0
VERTEX
  5
DF
330
DE
100
AcDbEntity
  8
_U+30EC_U+30A4_U+30E4_U+30FC 1
 62
   179
420
  2234388
370
     9
100
AcDbVertex
100
AcDb2dVertex
 10
108.8536375006901
 20
-131.2564049671857
 30
0.0
  0
VERTEX
  5
E0
330
DE
100
AcDbEntity
  8
_U+30EC_U+30A4_U+30E4_U+30FC 1
 62
   179
420
  2234388
370
     9
100
AcDbVertex
100
AcDb2dVertex
 10
108.8536375006901
 20
-134.6284666330095
 30
0.0
  0
SEQEND
  5
E1
330
DE
100
AcDbEntity
  8
_U+30EC_U+30A4_U+30E4_U+30FC 1
 62
   179
420
  2234388
370
     9
  0
POLYLINE
  5
E2
330
1F
100
AcDbEntity
  8
_U+30EC_U+30A4_U+30E4_U+30FC 1
 62
   179
420
  2234388
370
     9
100
AcDb2dPolyline
 66
     1
 10
0.0
 20
0.0
 30
0.0
  0
VERTEX
  5
E3
330
E2
100
AcDbEntity
  8
_U+30EC_U+30A4_U+30E4_U+30FC 1
 62
   179
420
  2234388
370
     9
100
AcDbVertex
100
AcDb2dVertex
 10
71.70173053763006
 20
-128.9637021899812
 30
0.0
  0
VERTEX
  5
E4
330
E2
100
AcDbEntity
  8
_U+30EC_U+30A4_U+30E4_U+30FC 1
 62
   179
420
  2234388
370
     9
100
AcDbVertex
100
AcDb2dVertex
 10
71.70173053763006
 20
-142.8536569087312
 30
0.0
  0
SEQEND
  5
E5
330
E2
100
AcDbEntity
  8
_U+30EC_U+30A4_U+30E4_U+30FC 1
 62
   179
420
  2234388
370
     9
  0
INSERT
  5
E7
330
1F
100
AcDbEntity
  8
_U+30EC_U+30A4_U+30E4_U+30FC 1
100
AcDbBlockReference
  2
block 6
 10
0.0
 20
0.0
 30
0.0
  0
POLYLINE
  5
EE
330
1F
100
AcDbEntity
  8
_U+30EC_U+30A4_U+30E4_U+30FC 1
 62
   179
420
  2234388
370
     9
100
AcDb2dPolyline
 66
     1
 10
0.0
 20
0.0
 30
0.0
  0
VERTEX
  5
EF
330
EE
100
AcDbEntity
  8
_U+30EC_U+30A4_U+30E4_U+30FC 1
 62
   179
420
  2234388
370
     9
100
AcDbVertex
100
AcDb2dVertex
 10
71.70173053763006
 20
-141.9162205200764
 30
0.0
  0
VERTEX
  5
F0
330
EE
100
AcDbEntity
  8
_U+30EC_U+30A4_U+30E4_U+30FC 1
 62
   179
420
  2234388
370
     9
100
AcDbVertex
100
AcDb2dVertex
 10
105.4175114772419
 20
-141.9162205200764
 30
0.0
  0
SEQEND
  5
F1
330
EE
100
AcDbEntity
  8
_U+30EC_U+30A4_U+30E4_U+30FC 1
 62
   179
420
  2234388
370
     9
  0
POLYLINE
  5
F2
330
1F
100
AcDbEntity
  8
_U+30EC_U+30A4_U+30E4_U+30FC 1
 62
   179
420
  2234388
370
     9
100
AcDb2dPolyline
 66
     1
 10
0.0
 20
0.0
 30
0.0
  0
VERTEX
  5
F3
330
F2
100
AcDbEntity
  8
_U+30EC_U+30A4_U+30E4_U+30FC 1
 62
   179
420
  2234388
370
     9
100
AcDbVertex
100
AcDb2dVertex
 10
71.70173053763006
 20
-138.1076669099177
 30
0.0
  0
VERTEX
  5
F4
330
F2
100
AcDbEntity
  8
_U+30EC_U+30A4_U+30E4_U+30FC 1
 62
   179
420
  2234388
370
     9
100
AcDbVertex
100
AcDb2dVertex
 10
81.81636124602406
 20
-138.1076669099177
 30
0.0
  0
SEQEND
  5
F5
330
F2
100
AcDbEntity
  8
_U+30EC_U+30A4_U+30E4_U+30FC 1
 62
   179
420
  2234388
370
     9
  0
POLYLINE
  5
F6
330
1F
100
AcDbEntity
  8
_U+30EC_U+30A4_U+30E4_U+30FC 1
 62
   179
420
  2234388
370
     9
100
AcDb2dPolyline
 66
     1
 10
0.0
 20
0.0
 30
0.0
  0
VERTEX
  5
F7
330
F6
100
AcDbEntity
  8
_U+30EC_U+30A4_U+30E4_U+30FC 1
 62
   179
420
  2234388
370
     9
100
AcDbVertex
100
AcDb2dVertex
 10
105.7527209131344
 20
-115.2070974711981
 30
0.0
  0
VERTEX
  5
F8
330
F6
100
AcDbEntity
  8
_U+30EC_U+30A4_U+30E4_U+30FC 1
 62
   179
420
  2234388
370
     9
100
AcDbVertex
100
AcDb2dVertex
 10
109.7462710890283
 20
-115.2070974711981
 30
0.0
  0
SEQEND
  5
F9
330
F6
100
AcDbEntity
  8
_U+30EC_U+30A4_U+30E4_U+30FC 1
 62
   179
420
  2234388
370
     9
  0
SPLINE
  5
FA
330
1F
100
AcDbEntity
  8
_U+30EC_U+30A4_U+30E4_U+30FC 1
370
     0
100
AcDbSpline
210
0.0
220
0.0
230
1.0
 70
    11
 71
     3
 72
    29
 73
    25
 74
     0
 42
0.0000000001
 43
0.0000000001
 12
1.0
 22
0.0
 32
0.0
 13
1.0
 23
0.0
 33
0.0
 40
0.0
 40
0.0
 40
0.0
 40
0.0
 40
1.0
 40
1.0
 40
1.0
 40
2.0
 40
2.0
 40
2.0
 40
3.0
 40
3.0
 40
3.0
 40
4.0
 40
4.0
 40
4.0
 40
5.0
 40
5.0
 40
5.0
 40
6.0
 40
6.0
 40
6.0
 40
7.0
 40
7.0
 40
7.0
 40
8.0
 40
8.0
 40
8.0
 40
8.0
 10
71.57134206295183
 20
-138.1455905210194
 30
0.0
 10
71.57134206295183
 20
-138.1793513543442
 30
0.0
 10
71.58562956258733
 20
-138.2131121876691
 30
0.0
 10
71.60923039531855
 20
-138.2372069098849
 30
0.0
 10
71.63300761693417
 20
-138.2613369098789
 30
0.0
 10
71.66694483829058
 20
-138.2754480209868
 30
0.0
 10
71.70088205964699
 20
-138.2754480209868
 30
0.0
 10
71.7348192810034
 20
-138.2754480209868
 30
0.0
 10
71.76875831539125
 20
-138.2613369098789
 30
0.0
 10
71.79285122396733
 20
-138.2372069098849
 30
0.0
 10
71.81698122335172
 20
-138.2131121876691
 30
0.0
 10
71.83042205634216
 20
-138.1793513543442
 30
0.0
 10
71.83042205634216
 20
-138.1455905210194
 30
0.0
 10
71.83042205634216
 20
-138.111124132139
 30
0.0
 10
71.81698122335172
 20
-138.0780335765915
 30
0.0
 10
71.79285122396733
 20
-138.0539388543757
 30
0.0
 10
71.76875831539125
 20
-138.0298088543817
 30
0.0
 10
71.7348192810034
 20
-138.015344965496
 30
0.0
 10
71.70088205964699
 20
-138.015344965496
 30
0.0
 10
71.66694483829058
 20
-138.015344965496
 30
0.0
 10
71.63300761693417
 20
-138.0298088543817
 30
0.0
 10
71.60923039531855
 20
-138.0539388543757
 30
0.0
 10
71.58562956258733
 20
-138.0780335765915
 30
0.0
 10
71.57134206295183
 20
-138.111124132139
 30
0.0
 10
71.57134206295183
 20
-138.1455905210194
 30
0.0
  0
HATCH
  5
FB
330
1F
100
AcDbEntity
  8
_U+30EC_U+30A4_U+30E4_U+30FC 1
 62
     7
420
 16777215
100
AcDbHatch
 10
0.0
 20
0.0
 30
0.0
210
0.0
220
0.0
230
1.0
  2
SOLID
 70
     1
 71
     0
 91
        1
 92
        1
 93
        1
 72
     4
 94
        3
 73
     0
 74
     1
 95
       29
 96
       25
 40
0.0
 40
0.0
 40
0.0
 40
0.0
 40
1.0
 40
1.0
 40
1.0
 40
2.0
 40
2.0
 40
2.0
 40
3.0
 40
3.0
 40
3.0
 40
4.0
 40
4.0
 40
4.0
 40
5.0
 40
5.0
 40
5.0
 40
6.0
 40
6.0
 40
6.0
 40
7.0
 40
7.0
 40
7.0
 40
8.0
 40
8.0
 40
8.0
 40
8.0
 10
71.57134206295183
 20
-138.1455905210194
 10
71.57134206295183
 20
-138.1793513543442
 10
71.58562956258733
 20
-138.2131121876691
 10
71.60923039531855
 20
-138.2372069098849
 10
71.63300761693417
 20
-138.2613369098789
 10
71.66694483829058
 20
-138.2754480209868
 10
71.70088205964699
 20
-138.2754480209868
 10
71.7348192810034
 20
-138.2754480209868
 10
71.76875831539125
 20
-138.2613369098789
 10
71.79285122396733
 20
-138.2372069098849
 10
71.81698122335172
 20
-138.2131121876691
 10
71.83042205634216
 20
-138.1793513543442
 10
71.83042205634216
 20
-138.1455905210194
 10
71.83042205634216
 20
-138.111124132139
 10
71.81698122335172
 20
-138.0780335765915
 10
71.79285122396733
 20
-138.0539388543757
 10
71.76875831539125
 20
-138.0298088543817
 10
71.7348192810034
 20
-138.015344965496
 10
71.70088205964699
 20
-138.015344965496
 10
71.66694483829058
 20
-138.015344965496
 10
71.63300761693417
 20
-138.0298088543817
 10
71.60923039531855
 20
-138.0539388543757
 10
71.58562956258733
 20
-138.0780335765915
 10
71.57134206295183
 20
-138.111124132139
 10
71.57134206295183
 20
-138.1455905210194
 97
        0
 97
        0
 75
     2
 76
     1
 98
        0
  0
SPLINE
  5
FC
330
1F
100
AcDbEntity
  8
_U+30EC_U+30A4_U+30E4_U+30FC 1
370
     0
100
AcDbSpline
210
0.0
220
0.0
230
1.0
 70
    11
 71
     3
 72
    29
 73
    25
 74
     0
 42
0.0000000001
 43
0.0000000001
 12
1.0
 22
0.0
 32
0.0
 13
1.0
 23
0.0
 33
0.0
 40
0.0
 40
0.0
 40
0.0
 40
0.0
 40
1.0
 40
1.0
 40
1.0
 40
2.0
 40
2.0
 40
2.0
 40
3.0
 40
3.0
 40
3.0
 40
4.0
 40
4.0
 40
4.0
 40
5.0
 40
5.0
 40
5.0
 40
6.0
 40
6.0
 40
6.0
 40
7.0
 40
7.0
 40
7.0
 40
8.0
 40
8.0
 40
8.0
 40
8.0
 10
81.74263069234954
 20
-138.1190616321367
 30
0.0
 10
81.74263069234954
 20
-138.1531399654618
 30
0.0
 10
81.75607152533996
 20
-138.1869007987866
 30
0.0
 10
81.78020152472435
 20
-138.2106780210029
 30
0.0
 10
81.80429624633187
 20
-138.2348080209969
 30
0.0
 10
81.83823346768828
 20
-138.248566354327
 30
0.0
 10
81.8721706890447
 20
-138.248566354327
 30
0.0
 10
81.9061079104011
 20
-138.248566354327
 30
0.0
 10
81.94004720173712
 20
-138.2348080209969
 30
0.0
 10
81.96382235337313
 20
-138.2106780210029
 30
0.0
 10
81.98791707498064
 20
-138.1869007987866
 30
0.0
 10
82.00171068573985
 20
-138.1531399654618
 30
0.0
 10
82.00171068573985
 20
-138.1190616321367
 30
0.0
 10
82.00171068573985
 20
-138.0853007988119
 30
0.0
 10
81.98791707498064
 20
-138.0511871877093
 30
0.0
 10
81.96382235337313
 20
-138.0270571877153
 30
0.0
 10
81.94004720173712
 20
-138.0029624654994
 30
0.0
 10
81.9061079104011
 20
-137.9895216321695
 30
0.0
 10
81.8721706890447
 20
-137.9895216321695
 30
0.0
 10
81.83823346768828
 20
-137.9895216321695
 30
0.0
 10
81.80429624633187
 20
-138.0029624654994
 30
0.0
 10
81.78020152472435
 20
-138.0270571877153
 30
0.0
 10
81.75607152533996
 20
-138.0511871877093
 30
0.0
 10
81.74263069234954
 20
-138.0853007988119
 30
0.0
 10
81.74263069234954
 20
-138.1190616321367
 30
0.0
  0
HATCH
  5
FD
330
1F
100
AcDbEntity
  8
_U+30EC_U+30A4_U+30E4_U+30FC 1
 62
     7
420
 16777215
100
AcDbHatch
 10
0.0
 20
0.0
 30
0.0
210
0.0
220
0.0
230
1.0
  2
SOLID
 70
     1
 71
     0
 91
        1
 92
        1
 93
        1
 72
     4
 94
        3
 73
     0
 74
     1
 95
       29
 96
       25
 40
0.0
 40
0.0
 40
0.0
 40
0.0
 40
1.0
 40
1.0
 40
1.0
 40
2.0
 40
2.0
 40
2.0
 40
3.0
 40
3.0
 40
3.0
 40
4.0
 40
4.0
 40
4.0
 40
5.0
 40
5.0
 40
5.0
 40
6.0
 40
6.0
 40
6.0
 40
7.0
 40
7.0
 40
7.0
 40
8.0
 40
8.0
 40
8.0
 40
8.0
 10
81.74263069234954
 20
-138.1190616321367
 10
81.74263069234954
 20
-138.1531399654618
 10
81.75607152533996
 20
-138.1869007987866
 10
81.78020152472435
 20
-138.2106780210029
 10
81.80429624633187
 20
-138.2348080209969
 10
81.83823346768828
 20
-138.248566354327
 10
81.8721706890447
 20
-138.248566354327
 10
81.9061079104011
 20
-138.248566354327
 10
81.94004720173712
 20
-138.2348080209969
 10
81.96382235337313
 20
-138.2106780210029
 10
81.98791707498064
 20
-138.1869007987866
 10
82.00171068573985
 20
-138.1531399654618
 10
82.00171068573985
 20
-138.1190616321367
 10
82.00171068573985
 20
-138.0853007988119
 10
81.98791707498064
 20
-138.0511871877093
 10
81.96382235337313
 20
-138.0270571877153
 10
81.94004720173712
 20
-138.0029624654994
 10
81.9061079104011
 20
-137.9895216321695
 10
81.8721706890447
 20
-137.9895216321695
 10
81.83823346768828
 20
-137.9895216321695
 10
81.80429624633187
 20
-138.0029624654994
 10
81.78020152472435
 20
-138.0270571877153
 10
81.75607152533996
 20
-138.0511871877093
 10
81.74263069234954
 20
-138.0853007988119
 10
81.74263069234954
 20
-138.1190616321367
 97
        0
 97
        0
 75
     2
 76
     1
 98
        0
  0
SPLINE
  5
FE
330
1F
100
AcDbEntity
  8
_U+30EC_U+30A4_U+30E4_U+30FC 1
370
     0
100
AcDbSpline
210
0.0
220
0.0
230
1.0
 70
    11
 71
     3
 72
    29
 73
    25
 74
     0
 42
0.0000000001
 43
0.0000000001
 12
1.0
 22
0.0
 32
0.0
 13
1.0
 23
0.0
 33
0.0
 40
0.0
 40
0.0
 40
0.0
 40
0.0
 40
1.0
 40
1.0
 40
1.0
 40
2.0
 40
2.0
 40
2.0
 40
3.0
 40
3.0
 40
3.0
 40
4.0
 40
4.0
 40
4.0
 40
5.0
 40
5.0
 40
5.0
 40
6.0
 40
6.0
 40
6.0
 40
7.0
 40
7.0
 40
7.0
 40
8.0
 40
8.0
 40
8.0
 40
8.0
 10
91.81387154652188
 20
-138.1076669099177
 30
0.0
 10
91.81387154652188
 20
-138.1414277432426
 30
0.0
 10
91.82833543504177
 20
-138.1755413543451
 30
0.0
 10
91.8517598788886
 20
-138.1996713543392
 30
0.0
 10
91.87553710050422
 20
-138.2230957987776
 30
0.0
 10
91.90965071074501
 20
-138.2372069098849
 30
0.0
 10
91.94341386590318
 20
-138.2372069098849
 30
0.0
 10
91.97717237568907
 20
-138.2372069098849
 30
0.0
 10
92.01125070815299
 20
-138.2230957987776
 30
0.0
 10
92.03538070753739
 20
-138.1996713543392
 30
0.0
 10
92.05951070692177
 20
-138.1755413543451
 30
0.0
 10
92.07291626213532
 20
-138.1414277432426
 30
0.0
 10
92.07291626213532
 20
-138.1076669099177
 30
0.0
 10
92.07291626213532
 20
-138.0735532988151
 30
0.0
 10
92.05951070692177
 20
-138.03947496549
 30
0.0
 10
92.03538070753739
 20
-138.015344965496
 30
0.0
 10
92.01125070815299
 20
-137.9919205210575
 30
0.0
 10
91.97717237568907
 20
-137.9781269099499
 30
0.0
 10
91.94341386590318
 20
-137.9781269099499
 30
0.0
 10
91.90965071074501
 20
-137.9781269099499
 30
0.0
 10
91.87553710050422
 20
-137.9919205210575
 30
0.0
 10
91.8517598788886
 20
-138.015344965496
 30
0.0
 10
91.82833543504177
 20
-138.03947496549
 30
0.0
 10
91.81387154652188
 20
-138.0735532988151
 30
0.0
 10
91.81387154652188
 20
-138.1076669099177
 30
0.0
  0
HATCH
  5
FF
330
1F
100
AcDbEntity
  8
_U+30EC_U+30A4_U+30E4_U+30FC 1
 62
     7
420
 16777215
100
AcDbHatch
 10
0.0
 20
0.0
 30
0.0
210
0.0
220
0.0
230
1.0
  2
SOLID
 70
     1
 71
     0
 91
        1
 92
        1
 93
        1
 72
     4
 94
        3
 73
     0
 74
     1
 95
       29
 96
       25
 40
0.0
 40
0.0
 40
0.0
 40
0.0
 40
1.0
 40
1.0
 40
1.0
 40
2.0
 40
2.0
 40
2.0
 40
3.0
 40
3.0
 40
3.0
 40
4.0
 40
4.0
 40
4.0
 40
5.0
 40
5.0
 40
5.0
 40
6.0
 40
6.0
 40
6.0
 40
7.0
 40
7.0
 40
7.0
 40
8.0
 40
8.0
 40
8.0
 40
8.0
 10
91.81387154652188
 20
-138.1076669099177
 10
91.81387154652188
 20
-138.1414277432426
 10
91.82833543504177
 20
-138.1755413543451
 10
91.8517598788886
 20
-138.1996713543392
 10
91.87553710050422
 20
-138.2230957987776
 10
91.90965071074501
 20
-138.2372069098849
 10
91.94341386590318
 20
-138.2372069098849
 10
91.97717237568907
 20
-138.2372069098849
 10
92.01125070815299
 20
-138.2230957987776
 10
92.03538070753739
 20
-138.1996713543392
 10
92.05951070692177
 20
-138.1755413543451
 10
92.07291626213532
 20
-138.1414277432426
 10
92.07291626213532
 20
-138.1076669099177
 10
92.07291626213532
 20
-138.0735532988151
 10
92.05951070692177
 20
-138.03947496549
 10
92.03538070753739
 20
-138.015344965496
 10
92.01125070815299
 20
-137.9919205210575
 10
91.97717237568907
 20
-137.9781269099499
 10
91.94341386590318
 20
-137.9781269099499
 10
91.90965071074501
 20
-137.9781269099499
 10
91.87553710050422
 20
-137.9919205210575
 10
91.8517598788886
 20
-138.015344965496
 10
91.82833543504177
 20
-138.03947496549
 10
91.81387154652188
 20
-138.0735532988151
 10
91.81387154652188
 20
-138.1076669099177
 97
        0
 97
        0
 75
     2
 76
     1
 98
        0
  0
SPLINE
  5
100
330
1F
100
AcDbEntity
  8
_U+30EC_U+30A4_U+30E4_U+30FC 1
370
     0
100
AcDbSpline
210
0.0
220
0.0
230
1.0
 70
    11
 71
     3
 72
    29
 73
    25
 74
     0
 42
0.0000000001
 43
0.0000000001
 12
1.0
 22
0.0
 32
0.0
 13
1.0
 23
0.0
 33
0.0
 40
0.0
 40
0.0
 40
0.0
 40
0.0
 40
1.0
 40
1.0
 40
1.0
 40
2.0
 40
2.0
 40
2.0
 40
3.0
 40
3.0
 40
3.0
 40
4.0
 40
4.0
 40
4.0
 40
5.0
 40
5.0
 40
5.0
 40
6.0
 40
6.0
 40
6.0
 40
7.0
 40
7.0
 40
7.0
 40
8.0
 40
8.0
 40
8.0
 40
8.0
 10
71.57134206295183
 20
-141.9386219089597
 30
0.0
 10
71.57134206295183
 20
-141.9727355200623
 30
0.0
 10
71.58562956258733
 20
-142.0064963533872
 30
0.0
 10
71.60923039531855
 20
-142.0305910756037
 30
0.0
 10
71.63300761693417
 20
-142.0543682978199
 30
0.0
 10
71.66694483829058
 20
-142.0681619089276
 30
0.0
 10
71.70088205964699
 20
-142.0681619089276
 30
0.0
 10
71.7348192810034
 20
-142.0681619089276
 30
0.0
 10
71.76875831539125
 20
-142.0543682978199
 30
0.0
 10
71.79285122396733
 20
-142.0305910756037
 30
0.0
 10
71.81698122335172
 20
-142.0064963533872
 30
0.0
 10
71.83042205634216
 20
-141.9727355200623
 30
0.0
 10
71.83042205634216
 20
-141.9386219089597
 30
0.0
 10
71.83042205634216
 20
-141.9048610756349
 30
0.0
 10
71.81698122335172
 20
-141.8707474645323
 30
0.0
 10
71.79285122396733
 20
-141.8466527423158
 30
0.0
 10
71.76875831539125
 20
-141.8228755200996
 30
0.0
 10
71.7348192810034
 20
-141.8090819089919
 30
0.0
 10
71.70088205964699
 20
-141.8090819089919
 30
0.0
 10
71.66694483829058
 20
-141.8090819089919
 30
0.0
 10
71.63300761693417
 20
-141.8228755200996
 30
0.0
 10
71.60923039531855
 20
-141.8466527423158
 30
0.0
 10
71.58562956258733
 20
-141.8707474645323
 30
0.0
 10
71.57134206295183
 20
-141.9048610756349
 30
0.0
 10
71.57134206295183
 20
-141.9386219089597
 30
0.0
  0
HATCH
  5
101
330
1F
100
AcDbEntity
  8
_U+30EC_U+30A4_U+30E4_U+30FC 1
 62
     7
420
 16777215
100
AcDbHatch
 10
0.0
 20
0.0
 30
0.0
210
0.0
220
0.0
230
1.0
  2
SOLID
 70
     1
 71
     0
 91
        1
 92
        1
 93
        1
 72
     4
 94
        3
 73
     0
 74
     1
 95
       29
 96
       25
 40
0.0
 40
0.0
 40
0.0
 40
0.0
 40
1.0
 40
1.0
 40
1.0
 40
2.0
 40
2.0
 40
2.0
 40
3.0
 40
3.0
 40
3.0
 40
4.0
 40
4.0
 40
4.0
 40
5.0
 40
5.0
 40
5.0
 40
6.0
 40
6.0
 40
6.0
 40
7.0
 40
7.0
 40
7.0
 40
8.0
 40
8.0
 40
8.0
 40
8.0
 10
71.57134206295183
 20
-141.9386219089597
 10
71.57134206295183
 20
-141.9727355200623
 10
71.58562956258733
 20
-142.0064963533872
 10
71.60923039531855
 20
-142.0305910756037
 10
71.63300761693417
 20
-142.0543682978199
 10
71.66694483829058
 20
-142.0681619089276
 10
71.70088205964699
 20
-142.0681619089276
 10
71.7348192810034
 20
-142.0681619089276
 10
71.76875831539125
 20
-142.0543682978199
 10
71.79285122396733
 20
-142.0305910756037
 10
71.81698122335172
 20
-142.0064963533872
 10
71.83042205634216
 20
-141.9727355200623
 10
71.83042205634216
 20
-141.9386219089597
 10
71.83042205634216
 20
-141.9048610756349
 10
71.81698122335172
 20
-141.8707474645323
 10
71.79285122396733
 20
-141.8466527423158
 10
71.76875831539125
 20
-141.8228755200996
 10
71.7348192810034
 20
-141.8090819089919
 10
71.70088205964699
 20
-141.8090819089919
 10
71.66694483829058
 20
-141.8090819089919
 10
71.63300761693417
 20
-141.8228755200996
 10
71.60923039531855
 20
-141.8466527423158
 10
71.58562956258733
 20
-141.8707474645323
 10
71.57134206295183
 20
-141.9048610756349
 10
71.57134206295183
 20
-141.9386219089597
 97
        0
 97
        0
 75
     2
 76
     1
 98
        0
  0
SPLINE
  5
102
330
1F
100
AcDbEntity
  8
_U+30EC_U+30A4_U+30E4_U+30FC 1
370
     0
100
AcDbSpline
210
0.0
220
0.0
230
1.0
 70
    11
 71
     3
 72
    29
 73
    25
 74
     0
 42
0.0000000001
 43
0.0000000001
 12
1.0
 22
0.0
 32
0.0
 13
1.0
 23
0.0
 33
0.0
 40
0.0
 40
0.0
 40
0.0
 40
0.0
 40
1.0
 40
1.0
 40
1.0
 40
2.0
 40
2.0
 40
2.0
 40
3.0
 40
3.0
 40
3.0
 40
4.0
 40
4.0
 40
4.0
 40
5.0
 40
5.0
 40
5.0
 40
6.0
 40
6.0
 40
6.0
 40
7.0
 40
7.0
 40
7.0
 40
8.0
 40
8.0
 40
8.0
 40
8.0
 10
105.2514589814782
 20
-141.9596474645102
 30
0.0
 10
105.2514589814782
 20
-141.9937610756128
 30
0.0
 10
105.2655700922294
 20
-142.0275219089377
 30
0.0
 10
105.2897027514556
 20
-142.0512638533764
 30
0.0
 10
105.3131245354606
 20
-142.0753938533697
 30
0.0
 10
105.3472381457014
 20
-142.0898577422554
 30
0.0
 10
105.3809989781734
 20
-142.0898577422554
 30
0.0
 10
105.4151125884142
 20
-142.0898577422554
 30
0.0
 10
105.4491909208781
 20
-142.0753938533697
 30
0.0
 10
105.4733209202625
 20
-142.0512638533764
 30
0.0
 10
105.4974509196469
 20
-142.0275219089377
 30
0.0
 10
105.5108564748605
 20
-141.9937610756128
 30
0.0
 10
105.5108564748605
 20
-141.9603177422876
 30
0.0
 10
105.5108564748605
 20
-141.9258866311854
 30
0.0
 10
105.4974509196469
 20
-141.8921257978605
 30
0.0
 10
105.4733209202625
 20
-141.8679957978665
 30
0.0
 10
105.4491909208781
 20
-141.8438657978725
 30
0.0
 10
105.4151125884142
 20
-141.8301074645424
 30
0.0
 10
105.3809989781734
 20
-141.8301074645424
 30
0.0
 10
105.3472381457014
 20
-141.8301074645424
 30
0.0
 10
105.3131245354606
 20
-141.8438657978725
 30
0.0
 10
105.2897027514556
 20
-141.8679957978665
 30
0.0
 10
105.2655700922294
 20
-141.8921257978605
 30
0.0
 10
105.2514589814782
 20
-141.9258866311854
 30
0.0
 10
105.2514589814782
 20
-141.9596474645102
 30
0.0
  0
HATCH
  5
103
330
1F
100
AcDbEntity
  8
_U+30EC_U+30A4_U+30E4_U+30FC 1
 62
     7
420
 16777215
100
AcDbHatch
 10
0.0
 20
0.0
 30
0.0
210
0.0
220
0.0
230
1.0
  2
SOLID
 70
     1
 71
     0
 91
        1
 92
        1
 93
        1
 72
     4
 94
        3
 73
     0
 74
     1
 95
       29
 96
       25
 40
0.0
 40
0.0
 40
0.0
 40
0.0
 40
1.0
 40
1.0
 40
1.0
 40
2.0
 40
2.0
 40
2.0
 40
3.0
 40
3.0
 40
3.0
 40
4.0
 40
4.0
 40
4.0
 40
5.0
 40
5.0
 40
5.0
 40
6.0
 40
6.0
 40
6.0
 40
7.0
 40
7.0
 40
7.0
 40
8.0
 40
8.0
 40
8.0
 40
8.0
 10
105.2514589814782
 20
-141.9596474645102
 10
105.2514589814782
 20
-141.9937610756128
 10
105.2655700922294
 20
-142.0275219089377
 10
105.2897027514556
 20
-142.0512638533764
 10
105.3131245354606
 20
-142.0753938533697
 10
105.3472381457014
 20
-142.0898577422554
 10
105.3809989781734
 20
-142.0898577422554
 10
105.4151125884142
 20
-142.0898577422554
 10
105.4491909208781
 20
-142.0753938533697
 10
105.4733209202625
 20
-142.0512638533764
 10
105.4974509196469
 20
-142.0275219089377
 10
105.5108564748605
 20
-141.9937610756128
 10
105.5108564748605
 20
-141.9603177422876
 10
105.5108564748605
 20
-141.9258866311854
 10
105.4974509196469
 20
-141.8921257978605
 10
105.4733209202625
 20
-141.8679957978665
 10
105.4491909208781
 20
-141.8438657978725
 10
105.4151125884142
 20
-141.8301074645424
 10
105.3809989781734
 20
-141.8301074645424
 10
105.3472381457014
 20
-141.8301074645424
 10
105.3131245354606
 20
-141.8438657978725
 10
105.2897027514556
 20
-141.8679957978665
 10
105.2655700922294
 20
-141.8921257978605
 10
105.2514589814782
 20
-141.9258866311854
 10
105.2514589814782
 20
-141.9596474645102
 97
        0
 97
        0
 75
     2
 76
     1
 98
        0
  0
SPLINE
  5
104
330
1F
100
AcDbEntity
  8
_U+30EC_U+30A4_U+30E4_U+30FC 1
370
     0
100
AcDbSpline
210
0.0
220
0.0
230
1.0
 70
    11
 71
     3
 72
    29
 73
    25
 74
     0
 42
0.0000000001
 43
0.0000000001
 12
1.0
 22
0.0
 32
0.0
 13
1.0
 23
0.0
 33
0.0
 40
0.0
 40
0.0
 40
0.0
 40
0.0
 40
1.0
 40
1.0
 40
1.0
 40
2.0
 40
2.0
 40
2.0
 40
3.0
 40
3.0
 40
3.0
 40
4.0
 40
4.0
 40
4.0
 40
5.0
 40
5.0
 40
5.0
 40
6.0
 40
6.0
 40
6.0
 40
7.0
 40
7.0
 40
7.0
 40
8.0
 40
8.0
 40
8.0
 40
8.0
 10
108.6803530606665
 20
-134.6002091330168
 30
0.0
 10
108.6803530606665
 20
-134.6336524663414
 30
0.0
 10
108.6941466714257
 20
-134.667766077444
 30
0.0
 10
108.7179238930414
 20
-134.6918607996605
 30
0.0
 10
108.7420186146489
 20
-134.7159907996545
 30
0.0
 10
108.7757794471209
 20
-134.7301019107618
 30
0.0
 10
108.8098930573617
 20
-134.7301019107618
 30
0.0
 10
108.8436538898337
 20
-134.7301019107618
 30
0.0
 10
108.8777675000745
 20
-134.7159907996545
 30
0.0
 10
108.901862221682
 20
-134.6918607996605
 30
0.0
 10
108.9259922210664
 20
-134.667766077444
 30
0.0
 10
108.9394330540568
 20
-134.6336524663414
 30
0.0
 10
108.9394330540568
 20
-134.6002091330168
 30
0.0
 10
108.9394330540568
 20
-134.565778021914
 30
0.0
 10
108.9259922210664
 20
-134.5326874663672
 30
0.0
 10
108.901862221682
 20
-134.5085927441507
 30
0.0
 10
108.8777675000745
 20
-134.4844627441566
 30
0.0
 10
108.8436538898337
 20
-134.4703516330494
 30
0.0
 10
108.8098930573617
 20
-134.4703516330494
 30
0.0
 10
108.7757794471209
 20
-134.4703516330494
 30
0.0
 10
108.7420186146489
 20
-134.4844627441566
 30
0.0
 10
108.7179238930414
 20
-134.5085927441507
 30
0.0
 10
108.6941466714257
 20
-134.5326874663672
 30
0.0
 10
108.6803530606665
 20
-134.565778021914
 30
0.0
 10
108.6803530606665
 20
-134.6002091330168
 30
0.0
  0
HATCH
  5
105
330
1F
100
AcDbEntity
  8
_U+30EC_U+30A4_U+30E4_U+30FC 1
 62
     7
420
 16777215
100
AcDbHatch
 10
0.0
 20
0.0
 30
0.0
210
0.0
220
0.0
230
1.0
  2
SOLID
 70
     1
 71
     0
 91
        1
 92
        1
 93
        1
 72
     4
 94
        3
 73
     0
 74
     1
 95
       29
 96
       25
 40
0.0
 40
0.0
 40
0.0
 40
0.0
 40
1.0
 40
1.0
 40
1.0
 40
2.0
 40
2.0
 40
2.0
 40
3.0
 40
3.0
 40
3.0
 40
4.0
 40
4.0
 40
4.0
 40
5.0
 40
5.0
 40
5.0
 40
6.0
 40
6.0
 40
6.0
 40
7.0
 40
7.0
 40
7.0
 40
8.0
 40
8.0
 40
8.0
 40
8.0
 10
108.6803530606665
 20
-134.6002091330168
 10
108.6803530606665
 20
-134.6336524663414
 10
108.6941466714257
 20
-134.667766077444
 10
108.7179238930414
 20
-134.6918607996605
 10
108.7420186146489
 20
-134.7159907996545
 10
108.7757794471209
 20
-134.7301019107618
 10
108.8098930573617
 20
-134.7301019107618
 10
108.8436538898337
 20
-134.7301019107618
 10
108.8777675000745
 20
-134.7159907996545
 10
108.901862221682
 20
-134.6918607996605
 10
108.9259922210664
 20
-134.667766077444
 10
108.9394330540568
 20
-134.6336524663414
 10
108.9394330540568
 20
-134.6002091330168
 10
108.9394330540568
 20
-134.565778021914
 10
108.9259922210664
 20
-134.5326874663672
 10
108.901862221682
 20
-134.5085927441507
 10
108.8777675000745
 20
-134.4844627441566
 10
108.8436538898337
 20
-134.4703516330494
 10
108.8098930573617
 20
-134.4703516330494
 10
108.7757794471209
 20
-134.4703516330494
 10
108.7420186146489
 20
-134.4844627441566
 10
108.7179238930414
 20
-134.5085927441507
 10
108.6941466714257
 20
-134.5326874663672
 10
108.6803530606665
 20
-134.565778021914
 10
108.6803530606665
 20
-134.6002091330168
 97
        0
 97
        0
 75
     2
 76
     1
 98
        0
  0
SPLINE
  5
106
330
1F
100
AcDbEntity
  8
_U+30EC_U+30A4_U+30E4_U+30FC 1
370
     0
100
AcDbSpline
210
0.0
220
0.0
230
1.0
 70
    11
 71
     3
 72
    35
 73
    31
 74
     0
 42
0.0000000001
 43
0.0000000001
 12
1.0
 22
0.0
 32
0.0
 13
1.0
 23
0.0
 33
0.0
 40
0.0
 40
0.0
 40
0.0
 40
0.0
 40
1.0
 40
1.0
 40
1.0
 40
2.0
 40
2.0
 40
2.0
 40
3.0
 40
3.0
 40
3.0
 40
4.0
 40
4.0
 40
4.0
 40
5.0
 40
5.0
 40
5.0
 40
6.0
 40
6.0
 40
6.0
 40
7.0
 40
7.0
 40
7.0
 40
8.0
 40
8.0
 40
8.0
 40
9.0
 40
9.0
 40
9.0
 40
10.0
 40
10.0
 40
10.0
 40
10.0
 10
108.7034247267446
 20
-131.2384838560794
 30
0.0
 10
108.7034247267446
 20
-131.271927189404
 30
0.0
 10
108.7179238930414
 20
-131.3060408005066
 30
0.0
 10
108.7420186146489
 20
-131.3301355227231
 30
0.0
 10
108.7654430584957
 20
-131.3539127449394
 30
0.0
 10
108.7995566687365
 20
-131.3680238560466
 30
0.0
 10
108.8329647234398
 20
-131.3680238560466
 30
0.0
 10
108.8329647234398
 20
-131.3680238560466
 30
0.0
 10
108.8329647234398
 20
-131.3680238560466
 30
0.0
 10
108.8329647234398
 20
-131.3680238560466
 30
0.0
 10
108.8674311114493
 20
-131.3680238560466
 30
0.0
 10
108.9008391661526
 20
-131.3542655227171
 30
0.0
 10
108.924969165537
 20
-131.3304883005009
 30
0.0
 10
108.9490666394295
 20
-131.3063583005069
 30
0.0
 10
108.9632102756725
 20
-131.272597467182
 30
0.0
 10
108.9632102756725
 20
-131.2384838560794
 30
0.0
 10
108.9632102756725
 20
-131.2047230227546
 30
0.0
 10
108.9490666394295
 20
-131.1706446894295
 30
0.0
 10
108.924969165537
 20
-131.1465146894355
 30
0.0
 10
108.9008391661526
 20
-131.1227374672193
 30
0.0
 10
108.8674311114493
 20
-131.1089791338891
 30
0.0
 10
108.8329647234398
 20
-131.1089791338891
 30
0.0
 10
108.8329647234398
 20
-131.1089791338891
 30
0.0
 10
108.8329647234398
 20
-131.108626356112
 30
0.0
 10
108.8329647234398
 20
-131.108626356112
 30
0.0
 10
108.7995566687365
 20
-131.108626356112
 30
0.0
 10
108.7654430584957
 20
-131.1223846894415
 30
0.0
 10
108.7420186146489
 20
-131.1465146894355
 30
0.0
 10
108.7179238930414
 20
-131.1706446894295
 30
0.0
 10
108.7034247267446
 20
-131.2040527449766
 30
0.0
 10
108.7034247267446
 20
-131.2384838560794
 30
0.0
  0
HATCH
  5
107
330
1F
100
AcDbEntity
  8
_U+30EC_U+30A4_U+30E4_U+30FC 1
 62
     7
420
 16777215
100
AcDbHatch
 10
0.0
 20
0.0
 30
0.0
210
0.0
220
0.0
230
1.0
  2
SOLID
 70
     1
 71
     0
 91
        1
 92
        1
 93
        1
 72
     4
 94
        3
 73
     0
 74
     1
 95
       35
 96
       31
 40
0.0
 40
0.0
 40
0.0
 40
0.0
 40
1.0
 40
1.0
 40
1.0
 40
2.0
 40
2.0
 40
2.0
 40
3.0
 40
3.0
 40
3.0
 40
4.0
 40
4.0
 40
4.0
 40
5.0
 40
5.0
 40
5.0
 40
6.0
 40
6.0
 40
6.0
 40
7.0
 40
7.0
 40
7.0
 40
8.0
 40
8.0
 40
8.0
 40
9.0
 40
9.0
 40
9.0
 40
10.0
 40
10.0
 40
10.0
 40
10.0
 10
108.7034247267446
 20
-131.2384838560794
 10
108.7034247267446
 20
-131.271927189404
 10
108.7179238930414
 20
-131.3060408005066
 10
108.7420186146489
 20
-131.3301355227231
 10
108.7654430584957
 20
-131.3539127449394
 10
108.7995566687365
 20
-131.3680238560466
 10
108.8329647234398
 20
-131.3680238560466
 10
108.8329647234398
 20
-131.3680238560466
 10
108.8329647234398
 20
-131.3680238560466
 10
108.8329647234398
 20
-131.3680238560466
 10
108.8674311114493
 20
-131.3680238560466
 10
108.9008391661526
 20
-131.3542655227171
 10
108.924969165537
 20
-131.3304883005009
 10
108.9490666394295
 20
-131.3063583005069
 10
108.9632102756725
 20
-131.272597467182
 10
108.9632102756725
 20
-131.2384838560794
 10
108.9632102756725
 20
-131.2047230227546
 10
108.9490666394295
 20
-131.1706446894295
 10
108.924969165537
 20
-131.1465146894355
 10
108.9008391661526
 20
-131.1227374672193
 10
108.8674311114493
 20
-131.1089791338891
 10
108.8329647234398
 20
-131.1089791338891
 10
108.8329647234398
 20
-131.1089791338891
 10
108.8329647234398
 20
-131.108626356112
 10
108.8329647234398
 20
-131.108626356112
 10
108.7995566687365
 20
-131.108626356112
 10
108.7654430584957
 20
-131.1223846894415
 10
108.7420186146489
 20
-131.1465146894355
 10
108.7179238930414
 20
-131.1706446894295
 10
108.7034247267446
 20
-131.2040527449766
 10
108.7034247267446
 20
-131.2384838560794
 97
        0
 97
        0
 75
     2
 76
     1
 98
        0
  0
SPLINE
  5
108
330
1F
100
AcDbEntity
  8
_U+30EC_U+30A4_U+30E4_U+30FC 1
370
     0
100
AcDbSpline
210
0.0
220
0.0
230
1.0
 70
    11
 71
     3
 72
    29
 73
    25
 74
     0
 42
0.0000000001
 43
0.0000000001
 12
1.0
 22
0.0
 32
0.0
 13
1.0
 23
0.0
 33
0.0
 40
0.0
 40
0.0
 40
0.0
 40
0.0
 40
1.0
 40
1.0
 40
1.0
 40
2.0
 40
2.0
 40
2.0
 40
3.0
 40
3.0
 40
3.0
 40
4.0
 40
4.0
 40
4.0
 40
5.0
 40
5.0
 40
5.0
 40
6.0
 40
6.0
 40
6.0
 40
7.0
 40
7.0
 40
7.0
 40
8.0
 40
8.0
 40
8.0
 40
8.0
 10
108.7123852820716
 20
-115.2070974711981
 30
0.0
 10
108.7123852820716
 20
-115.2408583045233
 30
0.0
 10
108.7268491705914
 20
-115.2749719156259
 30
0.0
 10
108.7509791699758
 20
-115.299066637842
 30
0.0
 10
108.7744036138227
 20
-115.323196637836
 30
0.0
 10
108.8085172240635
 20
-115.3369902489437
 30
0.0
 10
108.8419252787667
 20
-115.3369902489437
 30
0.0
 10
108.8763944172254
 20
-115.3369902489437
 30
0.0
 10
108.9097997214795
 20
-115.323196637836
 30
0.0
 10
108.9339297208639
 20
-115.299066637842
 30
0.0
 10
108.9580244424714
 20
-115.2749719156259
 30
0.0
 10
108.9721708309994
 20
-115.2408583045233
 30
0.0
 10
108.9721708309994
 20
-115.2070974711981
 30
0.0
 10
108.9721708309994
 20
-115.1729838600955
 30
0.0
 10
108.9580244424714
 20
-115.1395758045484
 30
0.0
 10
108.9339297208639
 20
-115.1157985823322
 30
0.0
 10
108.9097997214795
 20
-115.0916685823382
 30
0.0
 10
108.8763944172254
 20
-115.0775574712306
 30
0.0
 10
108.8419252787667
 20
-115.0775574712306
 30
0.0
 10
108.8085172240635
 20
-115.0775574712306
 30
0.0
 10
108.7744036138227
 20
-115.0916685823382
 30
0.0
 10
108.7509791699758
 20
-115.1157985823322
 30
0.0
 10
108.7268491705914
 20
-115.1395758045484
 30
0.0
 10
108.7123852820716
 20
-115.1729838600955
 30
0.0
 10
108.7123852820716
 20
-115.2070974711981
 30
0.0
  0
HATCH
  5
109
330
1F
100
AcDbEntity
  8
_U+30EC_U+30A4_U+30E4_U+30FC 1
 62
     7
420
 16777215
100
AcDbHatch
 10
0.0
 20
0.0
 30
0.0
210
0.0
220
0.0
230
1.0
  2
SOLID
 70
     1
 71
     0
 91
        1
 92
        1
 93
        1
 72
     4
 94
        3
 73
     0
 74
     1
 95
       29
 96
       25
 40
0.0
 40
0.0
 40
0.0
 40
0.0
 40
1.0
 40
1.0
 40
1.0
 40
2.0
 40
2.0
 40
2.0
 40
3.0
 40
3.0
 40
3.0
 40
4.0
 40
4.0
 40
4.0
 40
5.0
 40
5.0
 40
5.0
 40
6.0
 40
6.0
 40
6.0
 40
7.0
 40
7.0
 40
7.0
 40
8.0
 40
8.0
 40
8.0
 40
8.0
 10
108.7123852820716
 20
-115.2070974711981
 10
108.7123852820716
 20
-115.2408583045233
 10
108.7268491705914
 20
-115.2749719156259
 10
108.7509791699758
 20
-115.299066637842
 10
108.7744036138227
 20
-115.323196637836
 10
108.8085172240635
 20
-115.3369902489437
 10
108.8419252787667
 20
-115.3369902489437
 10
108.8763944172254
 20
-115.3369902489437
 10
108.9097997214795
 20
-115.323196637836
 10
108.9339297208639
 20
-115.299066637842
 10
108.9580244424714
 20
-115.2749719156259
 10
108.9721708309994
 20
-115.2408583045233
 10
108.9721708309994
 20
-115.2070974711981
 10
108.9721708309994
 20
-115.1729838600955
 10
108.9580244424714
 20
-115.1395758045484
 10
108.9339297208639
 20
-115.1157985823322
 10
108.9097997214795
 20
-115.0916685823382
 10
108.8763944172254
 20
-115.0775574712306
 10
108.8419252787667
 20
-115.0775574712306
 10
108.8085172240635
 20
-115.0775574712306
 10
108.7744036138227
 20
-115.0916685823382
 10
108.7509791699758
 20
-115.1157985823322
 10
108.7268491705914
 20
-115.1395758045484
 10
108.7123852820716
 20
-115.1729838600955
 10
108.7123852820716
 20
-115.2070974711981
 97
        0
 97
        0
 75
     2
 76
     1
 98
        0
  0
ENDSEC
  0
SECTION
  2
OBJECTS
  0
DICTIONARY
  5
C
330
0
100
AcDbDictionary
281
     1
  3
ACAD_GROUP
350
D
  3
ACAD_LAYOUT
350
1A
  3
ACAD_MATERIAL
350
3B
  3
ACAD_MLEADERSTYLE
350
10B
  3
ACAD_MLINESTYLE
350
17
  3
ACAD_PLOTSETTINGS
350
19
  3
ACAD_PLOTSTYLENAME
350
E
  3
ACAD_TABLESTYLE
350
10A
  3
ACAD_VISUALSTYLE
350
2A
  0
SUN
  5
3F
330
29
100
AcDbSun
 90
        1
290
     0
 63
     7
421
 16777215
 40
1.0
291
     1
 91
  2455826
 92
 54000000
292
     0
 70
     2
 71
   256
280
     1
  0
DICTIONARY
  5
D
102
{ACAD_REACTORS
330
C
102
}
330
C
100
AcDbDictionary
281
     1
  0
DICTIONARY
  5
1A
102
{ACAD_REACTORS
330
C
102
}
330
C
100
AcDbDictionary
281
     1
  3
Layout1
350
1E
  3
Layout2
350
26
  3
Model
350
22
  0
DICTIONARY
  5
3B
102
{ACAD_REACTORS
330
C
102
}
330
C
100
AcDbDictionary
281
     1
  3
ByBlock
350
3D
  3
ByLayer
350
3C
  3
Global
350
3E
  0
DICTIONARY
  5
10B
102
{ACAD_REACTORS
330
C
102
}
330
C
100
AcDbDictionary
281
     1
  0
DICTIONARY
  5
17
102
{ACAD_REACTORS
330
C
102
}
330
C
100
AcDbDictionary
281
     1
  3
Standard
350
18
  0
DICTIONARY
  5
19
102
{ACAD_REACTORS
330
C
102
}
330
C
100
AcDbDictionary
281
     1
  0
ACDBDICTIONARYWDFLT
  5
E
102
{ACAD_REACTORS
330
C
102
}
330
C
100
AcDbDictionary
281
     1
  3
Normal
350
F
100
AcDbDictionaryWithDefault
340
F
  0
DICTIONARY
  5
10A
102
{ACAD_REACTORS
330
C
102
}
330
C
100
AcDbDictionary
281
     1
  0
DICTIONARY
  5
2A
102
{ACAD_REACTORS
330
C
102
}
330
C
100
AcDbDictionary
281
     1
  3
2dWireframe
350
2F
  3
3D Hidden
350
31
  3
3dWireframe
350
30
  3
Basic
350
32
  3
Brighten
350
36
  3
ColorChange
350
3A
  3
Conceptual
350
34
  3
Dim
350
35
  3
Facepattern
350
39
  3
Flat
350
2B
  3
FlatWithEdges
350
2C
  3
Gouraud
350
2D
  3
GouraudWithEdges
350
2E
  3
Linepattern
350
38
  3
Realistic
350
33
  3
Thicken
350
37
  0
LAYOUT
  5
1E
102
{ACAD_REACTORS
330
1A
102
}
330
1A
100
AcDbPlotSettings
  1

  2
none_device
  4

  6

 40
0.0
 41
0.0
 42
0.0
 43
0.0
 44
0.0
 45
0.0
 46
0.0
 47
0.0
 48
0.0
 49
0.0
140
0.0
141
0.0
142
1.0
143
1.0
 70
   688
 72
     0
 73
     0
 74
     5
  7

 75
    16
 76
     0
 77
     2
 78
   300
147
1.0
148
0.0
149
0.0
100
AcDbLayout
  1
Layout1
 70
     1
 71
     1
 10
0.0
 20
0.0
 11
12.0
 21
9.0
 12
0.0
 22
0.0
 32
0.0
 14
1.000000000000000E+20
 24
1.000000000000000E+20
 34
1.000000000000000E+20
 15
-1.000000000000000E+20
 25
-1.000000000000000E+20
 35
-1.000000000000000E+20
146
0.0
 13
0.0
 23
0.0
 33
0.0
 16
1.0
 26
0.0
 36
0.0
 17
0.0
 27
1.0
 37
0.0
 76
     0
330
1B
  0
LAYOUT
  5
26
102
{ACAD_REACTORS
330
1A
102
}
330
1A
100
AcDbPlotSettings
  1

  2
none_device
  4

  6

 40
0.0
 41
0.0
 42
0.0
 43
0.0
 44
0.0
 45
0.0
 46
0.0
 47
0.0
 48
0.0
 49
0.0
140
0.0
141
0.0
142
1.0
143
1.0
 70
   688
 72
     0
 73
     0
 74
     5
  7

 75
    16
 76
     0
 77
     2
 78
   300
147
1.0
148
0.0
149
0.0
100
AcDbLayout
  1
Layout2
 70
     1
 71
     2
 10
0.0
 20
0.0
 11
0.0
 21
0.0
 12
0.0
 22
0.0
 32
0.0
 14
0.0
 24
0.0
 34
0.0
 15
0.0
 25
0.0
 35
0.0
146
0.0
 13
0.0
 23
0.0
 33
0.0
 16
1.0
 26
0.0
 36
0.0
 17
0.0
 27
1.0
 37
0.0
 76
     0
330
23
  0
LAYOUT
  5
22
102
{ACAD_REACTORS
330
1A
102
}
330
1A
100
AcDbPlotSettings
  1

  2
none_device
  4

  6

 40
0.0
 41
0.0
 42
0.0
 43
0.0
 44
0.0
 45
0.0
 46
0.0
 47
0.0
 48
0.0
 49
0.0
140
0.0
141
0.0
142
1.0
143
1.0
 70
  1712
 72
     0
 73
     0
 74
     0
  7

 75
     0
 76
     0
 77
     2
 78
   300
147
1.0
148
0.0
149
0.0
100
AcDbLayout
  1
Model
 70
     1
 71
     0
 10
0.0
 20
0.0
 11
12.0
 21
9.0
 12
0.0
 22
0.0
 32
0.0
 14
1.000000000000000E+20
 24
1.000000000000000E+20
 34
1.000000000000000E+20
 15
-1.000000000000000E+20
 25
-1.000000000000000E+20
 35
-1.000000000000000E+20
146
0.0
 13
0.0
 23
0.0
 33
0.0
 16
1.0
 26
0.0
 36
0.0
 17
0.0
 27
1.0
 37
0.0
 76
     0
330
1F
331
29
  0
MATERIAL
  5
3D
102
{ACAD_REACTORS
330
3B
102
}
330
3B
100
AcDbMaterial
  1
ByBlock
 72
     1
 94
      127
  0
MATERIAL
  5
3C
102
{ACAD_REACTORS
330
3B
102
}
330
3B
100
AcDbMaterial
  1
ByLayer
 72
     1
 94
      127
  0
MATERIAL
  5
3E
102
{ACAD_REACTORS
330
3B
102
}
330
3B
100
AcDbMaterial
  1
Global
 72
     1
 94
      127
  0
MLINESTYLE
  5
18
102
{ACAD_REACTORS
330
17
102
}
330
17
100
AcDbMlineStyle
  2
Standard
 70
     0
  3

 62
   256
 51
90.0
 52
90.0
 71
     2
 49
0.5
 62
   256
  6
BYLAYER
 49
-0.5
 62
   256
  6
BYLAYER
  0
ACDBPLACEHOLDER
  5
F
102
{ACAD_REACTORS
330
E
102
}
330
E
  0
VISUALSTYLE
  5
2F
102
{ACAD_REACTORS
330
2A
102
}
330
2A
100
AcDbVisualStyle
  2
2dWireframe
 70
     4
177
     2
291
     0
 71
     0
176
     1
 72
     2
176
     1
 73
     0
176
     1
 90
        0
176
     1
 40
-0.6
176
     1
 41
-30.0
176
     1
 62
     5
 63
     7
421
 16777215
176
     1
 74
     1
176
     1
 91
        4
176
     1
 64
     7
176
     1
 65
   257
176
     1
 75
     1
176
     1
175
     1
176
     1
 42
1.0
176
     1
 92
        0
176
     1
 66
   257
176
     1
 43
1.0
176
     1
 76
     1
176
     1
 77
     6
176
     1
 78
     2
176
     1
 67
     7
176
     1
 79
     5
176
     1
170
     0
176
     1
171
     0
176
     1
290
     0
176
     1
 93
        1
176
     1
 44
0.0
176
     1
173
     0
176
     1
  0
VISUALSTYLE
  5
31
102
{ACAD_REACTORS
330
2A
102
}
330
2A
100
AcDbVisualStyle
  2
3D Hidden
 70
     6
177
     2
291
     0
 71
     1
176
     1
 72
     2
176
     1
 73
     2
176
     1
 90
        0
176
     1
 40
-0.6
176
     1
 41
-30.0
176
     1
 62
     5
 63
     7
421
 16777215
176
     1
 74
     2
176
     1
 91
        2
176
     1
 64
     7
176
     1
 65
   257
176
     1
 75
     2
176
     1
175
     1
176
     1
 42
40.0
176
     1
 92
        0
176
     1
 66
   257
176
     1
 43
1.0
176
     1
 76
     1
176
     1
 77
     6
176
     1
 78
     2
176
     1
 67
     7
176
     1
 79
     3
176
     1
170
     0
176
     1
171
     0
176
     1
290
     0
176
     1
 93
        1
176
     1
 44
0.0
176
     1
173
     0
176
     1
  0
VISUALSTYLE
  5
30
102
{ACAD_REACTORS
330
2A
102
}
330
2A
100
AcDbVisualStyle
  2
3dWireframe
 70
     5
177
     2
291
     0
 71
     0
176
     1
 72
     2
176
     1
 73
     0
176
     1
 90
        0
176
     1
 40
-0.6
176
     1
 41
-30.0
176
     1
 62
     5
 63
     7
421
 16777215
176
     1
 74
     1
176
     1
 91
        4
176
     1
 64
     7
176
     1
 65
   257
176
     1
 75
     1
176
     1
175
     1
176
     1
 42
1.0
176
     1
 92
        0
176
     1
 66
   257
176
     1
 43
1.0
176
     1
 76
     1
176
     1
 77
     6
176
     1
 78
     2
176
     1
 67
     7
176
     1
 79
     5
176
     1
170
     0
176
     1
171
     0
176
     1
290
     0
176
     1
 93
        1
176
     1
 44
0.0
176
     1
173
     0
176
     1
  0
VISUALSTYLE
  5
32
102
{ACAD_REACTORS
330
2A
102
}
330
2A
100
AcDbVisualStyle
  2
Basic
 70
     7
177
     2
291
     1
 71
     1
176
     1
 72
     0
176
     1
 73
     1
176
     1
 90
        0
176
     1
 40
-0.6
176
     1
 41
-30.0
176
     1
 62
     5
 63
     7
421
 16777215
176
     1
 74
     0
176
     1
 91
        4
176
     1
 64
     7
176
     1
 65
   257
176
     1
 75
     1
176
     1
175
     1
176
     1
 42
1.0
176
     1
 92
        8
176
     1
 66
     7
176
     1
 43
1.0
176
     1
 76
     1
176
     1
 77
     6
176
     1
 78
     2
176
     1
 67
     7
176
     1
 79
     5
176
     1
170
     0
176
     1
171
     0
176
     1
290
     0
176
     1
 93
        1
176
     1
 44
0.0
176
     1
173
     0
176
     1
  0
VISUALSTYLE
  5
36
102
{ACAD_REACTORS
330
2A
102
}
330
2A
100
AcDbVisualStyle
  2
Brighten
 70
    12
177
     2
291
     1
 71
     2
176
     1
 72
     2
176
     1
 73
     0
176
     1
 90
        0
176
     1
 40
-0.6
176
     1
 41
-30.0
176
     1
 62
     5
 63
     7
421
 16777215
176
     1
 74
     1
176
     1
 91
        4
176
     1
 64
     7
176
     1
 65
   257
176
     1
 75
     1
176
     1
175
     1
176
     1
 42
1.0
176
     1
 92
        8
176
     1
 66
     7
176
     1
 43
1.0
176
     1
 76
     1
176
     1
 77
     6
176
     1
 78
     2
176
     1
 67
     7
176
     1
 79
     5
176
     1
170
     0
176
     1
171
     0
176
     1
290
     0
176
     1
 93
        1
176
     1
 44
50.0
176
     1
173
     0
176
     1
  0
VISUALSTYLE
  5
3A
102
{ACAD_REACTORS
330
2A
102
}
330
2A
100
AcDbVisualStyle
  2
ColorChange
 70
    16
177
     2
291
     1
 71
     2
176
     1
 72
     2
176
     1
 73
     3
176
     1
 90
        0
176
     1
 40
-0.6
176
     1
 41
-30.0
176
     1
 62
     5
 63
     8
421
  8421504
176
     1
 74
     1
176
     1
 91
        4
176
     1
 64
     7
176
     1
 65
   257
176
     1
 75
     1
176
     1
175
     1
176
     1
 42
1.0
176
     1
 92
        8
176
     1
 66
     8
424
  8421504
176
     1
 43
1.0
176
     1
 76
     1
176
     1
 77
     6
176
     1
 78
     2
176
     1
 67
     7
176
     1
 79
     5
176
     1
170
     0
176
     1
171
     0
176
     1
290
     0
176
     1
 93
        1
176
     1
 44
0.0
176
     1
173
     0
176
     1
  0
VISUALSTYLE
  5
34
102
{ACAD_REACTORS
330
2A
102
}
330
2A
100
AcDbVisualStyle
  2
Conceptual
 70
     9
177
     2
291
     0
 71
     3
176
     1
 72
     2
176
     1
 73
     0
176
     1
 90
        0
176
     1
 40
-0.6
176
     1
 41
-30.0
176
     1
 62
     5
 63
     7
421
 16777215
176
     1
 74
     2
176
     1
 91
        2
176
     1
 64
     7
176
     1
 65
   257
176
     1
 75
     1
176
     1
175
     1
176
     1
 42
40.0
176
     1
 92
        8
176
     1
 66
     7
176
     1
 43
1.0
176
     1
 76
     1
176
     1
 77
     6
176
     1
 78
     2
176
     1
 67
     7
176
     1
 79
     3
176
     1
170
     0
176
     1
171
     0
176
     1
290
     0
176
     1
 93
        1
176
     1
 44
0.0
176
     1
173
     0
176
     1
  0
VISUALSTYLE
  5
35
102
{ACAD_REACTORS
330
2A
102
}
330
2A
100
AcDbVisualStyle
  2
Dim
 70
    11
177
     2
291
     1
 71
     2
176
     1
 72
     2
176
     1
 73
     0
176
     1
 90
        0
176
     1
 40
-0.6
176
     1
 41
-30.0
176
     1
 62
     5
 63
     7
421
 16777215
176
     1
 74
     1
176
     1
 91
        4
176
     1
 64
     7
176
     1
 65
   257
176
     1
 75
     1
176
     1
175
     1
176
     1
 42
1.0
176
     1
 92
        8
176
     1
 66
     7
176
     1
 43
1.0
176
     1
 76
     1
176
     1
 77
     6
176
     1
 78
     2
176
     1
 67
     7
176
     1
 79
     5
176
     1
170
     0
176
     1
171
     0
176
     1
290
     0
176
     1
 93
        1
176
     1
 44
-50.0
176
     1
173
     0
176
     1
  0
VISUALSTYLE
  5
39
102
{ACAD_REACTORS
330
2A
102
}
330
2A
100
AcDbVisualStyle
  2
Facepattern
 70
    15
177
     2
291
     1
 71
     2
176
     1
 72
     2
176
     1
 73
     0
176
     1
 90
        0
176
     1
 40
-0.6
176
     1
 41
-30.0
176
     1
 62
     5
 63
     7
421
 16777215
176
     1
 74
     1
176
     1
 91
        4
176
     1
 64
     7
176
     1
 65
   257
176
     1
 75
     1
176
     1
175
     1
176
     1
 42
1.0
176
     1
 92
        8
176
     1
 66
     7
176
     1
 43
1.0
176
     1
 76
     1
176
     1
 77
     6
176
     1
 78
     2
176
     1
 67
     7
176
     1
 79
     5
176
     1
170
     0
176
     1
171
     0
176
     1
290
     0
176
     1
 93
        1
176
     1
 44
0.0
176
     1
173
     0
176
     1
  0
VISUALSTYLE
  5
2B
102
{ACAD_REACTORS
330
2A
102
}
330
2A
100
AcDbVisualStyle
  2
Flat
 70
     0
177
     2
291
     1
 71
     2
176
     1
 72
     1
176
     1
 73
     1
176
     1
 90
        2
176
     1
 40
-0.6
176
     1
 41
30.0
176
     1
 62
     5
 63
     7
421
 16777215
176
     1
 74
     0
176
     1
 91
        4
176
     1
 64
     7
176
     1
 65
   257
176
     1
 75
     1
176
     1
175
     1
176
     1
 42
1.0
176
     1
 92
        8
176
     1
 66
     7
176
     1
 43
1.0
176
     1
 76
     1
176
     1
 77
     6
176
     1
 78
     2
176
     1
 67
     7
176
     1
 79
     5
176
     1
170
     0
176
     1
171
     0
176
     1
290
     0
176
     1
 93
       13
176
     1
 44
0.0
176
     1
173
     0
176
     1
  0
VISUALSTYLE
  5
2C
102
{ACAD_REACTORS
330
2A
102
}
330
2A
100
AcDbVisualStyle
  2
FlatWithEdges
 70
     1
177
     2
291
     1
 71
     2
176
     1
 72
     1
176
     1
 73
     1
176
     1
 90
        2
176
     1
 40
-0.6
176
     1
 41
30.0
176
     1
 62
     5
 63
     7
421
 16777215
176
     1
 74
     1
176
     1
 91
        4
176
     1
 64
     7
176
     1
 65
   257
176
     1
 75
     1
176
     1
175
     1
176
     1
 42
1.0
176
     1
 92
        0
176
     1
 66
   257
176
     1
 43
1.0
176
     1
 76
     1
176
     1
 77
     6
176
     1
 78
     2
176
     1
 67
     7
176
     1
 79
     5
176
     1
170
     0
176
     1
171
     0
176
     1
290
     0
176
     1
 93
       13
176
     1
 44
0.0
176
     1
173
     0
176
     1
  0
VISUALSTYLE
  5
2D
102
{ACAD_REACTORS
330
2A
102
}
330
2A
100
AcDbVisualStyle
  2
Gouraud
 70
     2
177
     2
291
     1
 71
     2
176
     1
 72
     2
176
     1
 73
     1
176
     1
 90
        2
176
     1
 40
-0.6
176
     1
 41
30.0
176
     1
 62
     5
 63
     7
421
 16777215
176
     1
 74
     0
176
     1
 91
        4
176
     1
 64
     7
176
     1
 65
   257
176
     1
 75
     1
176
     1
175
     1
176
     1
 42
1.0
176
     1
 92
        0
176
     1
 66
     7
176
     1
 43
1.0
176
     1
 76
     1
176
     1
 77
     6
176
     1
 78
     2
176
     1
 67
     7
176
     1
 79
     5
176
     1
170
     0
176
     1
171
     0
176
     1
290
     0
176
     1
 93
       13
176
     1
 44
0.0
176
     1
173
     0
176
     1
  0
VISUALSTYLE
  5
2E
102
{ACAD_REACTORS
330
2A
102
}
330
2A
100
AcDbVisualStyle
  2
GouraudWithEdges
 70
     3
177
     2
291
     1
 71
     2
176
     1
 72
     2
176
     1
 73
     1
176
     1
 90
        2
176
     1
 40
-0.6
176
     1
 41
30.0
176
     1
 62
     5
 63
     7
421
 16777215
176
     1
 74
     1
176
     1
 91
        4
176
     1
 64
     7
176
     1
 65
   257
176
     1
 75
     1
176
     1
175
     1
176
     1
 42
1.0
176
     1
 92
        0
176
     1
 66
   257
176
     1
 43
1.0
176
     1
 76
     1
176
     1
 77
     6
176
     1
 78
     2
176
     1
 67
     7
176
     1
 79
     5
176
     1
170
     0
176
     1
171
     0
176
     1
290
     0
176
     1
 93
       13
176
     1
 44
0.0
176
     1
173
     0
176
     1
  0
VISUALSTYLE
  5
38
102
{ACAD_REACTORS
330
2A
102
}
330
2A
100
AcDbVisualStyle
  2
Linepattern
 70
    14
177
     2
291
     1
 71
     2
176
     1
 72
     2
176
     1
 73
     0
176
     1
 90
        0
176
     1
 40
-0.6
176
     1
 41
-30.0
176
     1
 62
     5
 63
     7
421
 16777215
176
     1
 74
     1
176
     1
 91
        4
176
     1
 64
     7
176
     1
 65
   257
176
     1
 75
     7
176
     1
175
     7
176
     1
 42
1.0
176
     1
 92
        8
176
     1
 66
     7
176
     1
 43
1.0
176
     1
 76
     1
176
     1
 77
     6
176
     1
 78
     2
176
     1
 67
     7
176
     1
 79
     5
176
     1
170
     0
176
     1
171
     0
176
     1
290
     0
176
     1
 93
        1
176
     1
 44
0.0
176
     1
173
     0
176
     1
  0
VISUALSTYLE
  5
33
102
{ACAD_REACTORS
330
2A
102
}
330
2A
100
AcDbVisualStyle
  2
Realistic
 70
     8
177
     2
291
     0
 71
     2
176
     1
 72
     2
176
     1
 73
     0
176
     1
 90
        0
176
     1
 40
-0.6
176
     1
 41
-30.0
176
     1
 62
     5
 63
     7
421
 16777215
176
     1
 74
     1
176
     1
 91
        0
176
     1
 64
     7
176
     1
 65
   257
176
     1
 75
     1
176
     1
175
     1
176
     1
 42
1.0
176
     1
 92
        8
176
     1
 66
     8
424
  7895160
176
     1
 43
1.0
176
     1
 76
     1
176
     1
 77
     6
176
     1
 78
     2
176
     1
 67
     7
176
     1
 79
     5
176
     1
170
     0
176
     1
171
     0
176
     1
290
     0
176
     1
 93
       13
176
     1
 44
0.0
176
     1
173
     0
176
     1
  0
VISUALSTYLE
  5
37
102
{ACAD_REACTORS
330
2A
102
}
330
2A
100
AcDbVisualStyle
  2
Thicken
 70
    13
177
     2
291
     1
 71
     2
176
     1
 72
     2
176
     1
 73
     0
176
     1
 90
        0
176
     1
 40
-0.6
176
     1
 41
-30.0
176
     1
 62
     5
 63
     7
421
 16777215
176
     1
 74
     1
176
     1
 91
        4
176
     1
 64
     7
176
     1
 65
   257
176
     1
 75
     1
176
     1
175
     1
176
     1
 42
1.0
176
     1
 92
       12
176
     1
 66
     7
176
     1
 43
1.0
176
     1
 76
     1
176
     1
 77
     6
176
     1
 78
     2
176
     1
 67
     7
176
     1
 79
     5
176
     1
170
     0
176
     1
171
     0
176
     1
290
     0
176
     1
 93
        1
176
     1
 44
0.0
176
     1
173
     0
176
     1
  0
ENDSEC
  0
EOF
