  0
SECTION
  2
HEADER
  9
$ACADVER
  1
AC1024
  9
$ACADMAINTVER
 70
     6
  9
$DWGCODEPAGE
  3
UNDEFINED
  9
$INSBASE
 10
0.0
 20
0.0
 30
0.0
  9
$EXTMIN
 10
1.000000000000000E+20
 20
1.000000000000000E+20
 30
1.000000000000000E+20
  9
$EXTMAX
 10
-1.000000000000000E+20
 20
-1.000000000000000E+20
 30
-1.000000000000000E+20
  9
$LIMMIN
 10
0.0
 20
0.0
  9
$LIMMAX
 10
12.0
 20
9.0
  9
$ORTHOMODE
 70
     0
  9
$REGENMODE
 70
     1
  9
$FILLMODE
 70
     1
  9
$QTEXTMODE
 70
     0
  9
$MIRRTEXT
 70
     1
  9
$LTSCALE
 40
1.0
  9
$ATTMODE
 70
     1
  9
$TEXTSIZE
 40
0.2
  9
$TRACEWID
 40
0.05
  9
$TEXTSTYLE
  7
Standard
  9
$CLAYER
  8
0
  9
$CELTYPE
  6
ByLayer
  9
$CECOLOR
 62
   256
  9
$CELTSCALE
 40
1.0
  9
$DISPSILH
 70
     0
  9
$DIMSCALE
 40
1.0
  9
$DIMASZ
 40
0.18
  9
$DIMEXO
 40
0.0625
  9
$DIMDLI
 40
0.38
  9
$DIMRND
 40
0.0
  9
$DIMDLE
 40
0.0
  9
$DIMEXE
 40
0.18
  9
$DIMTP
 40
0.0
  9
$DIMTM
 40
0.0
  9
$DIMTXT
 40
0.18
  9
$DIMCEN
 40
0.09
  9
$DIMTSZ
 40
0.0
  9
$DIMTOL
 70
     0
  9
$DIMLIM
 70
     0
  9
$DIMTIH
 70
     1
  9
$DIMTOH
 70
     1
  9
$DIMSE1
 70
     0
  9
$DIMSE2
 70
     0
  9
$DIMTAD
 70
     0
  9
$DIMZIN
 70
     0
  9
$DIMBLK
  1

  9
$DIMASO
 70
     1
  9
$DIMSHO
 70
     1
  9
$DIMPOST
  1

  9
$DIMAPOST
  1

  9
$DIMALT
 70
     0
  9
$DIMALTD
 70
     2
  9
$DIMALTF
 40
25.4
  9
$DIMLFAC
 40
1.0
  9
$DIMTOFL
 70
     0
  9
$DIMTVP
 40
0.0
  9
$DIMTIX
 70
     0
  9
$DIMSOXD
 70
     0
  9
$DIMSAH
 70
     0
  9
$DIMBLK1
  1

  9
$DIMBLK2
  1

  9
$DIMSTYLE
  2
Standard
  9
$DIMCLRD
 70
     0
  9
$DIMCLRE
 70
     0
  9
$DIMCLRT
 70
     0
  9
$DIMTFAC
 40
1.0
  9
$DIMGAP
 40
0.09
  9
$DIMJUST
 70
     0
  9
$DIMSD1
 70
     0
  9
$DIMSD2
 70
     0
  9
$DIMTOLJ
 70
     1
  9
$DIMTZIN
 70
     0
  9
$DIMALTZ
 70
     0
  9
$DIMALTTZ
 70
     0
  9
$DIMUPT
 70
     0
  9
$DIMDEC
 70
     4
  9
$DIMTDEC
 70
     4
  9
$DIMALTU
 70
     2
  9
$DIMALTTD
 70
     2
  9
$DIMTXSTY
  7
Standard
  9
$DIMAUNIT
 70
     0
  9
$DIMADEC
 70
     0
  9
$DIMALTRND
 40
0.0
  9
$DIMAZIN
 70
     0
  9
$DIMDSEP
 70
    46
  9
$DIMATFIT
 70
     3
  9
$DIMFRAC
 70
     0
  9
$DIMLDRBLK
  1

  9
$DIMLUNIT
 70
     2
  9
$DIMLWD
 70
    -2
  9
$DIMLWE
 70
    -2
  9
$DIMTMOVE
 70
     0
  9
$DIMFXL
 40
1.0
  9
$DIMFXLON
 70
     0
  9
$DIMJOGANG
 40
0.7853981633974483
  9
$DIMTFILL
 70
     0
  9
$DIMTFILLCLR
 70
     0
  9
$DIMARCSYM
 70
     0
  9
$DIMLTYPE
  6

  9
$DIMLTEX1
  6

  9
$DIMLTEX2
  6

  9
$DIMTXTDIRECTION
 70
     0
  9
$LUNITS
 70
     2
  9
$LUPREC
 70
     4
  9
$SKETCHINC
 40
0.1
  9
$FILLETRAD
 40
0.5
  9
$AUNITS
 70
     0
  9
$AUPREC
 70
     0
  9
$MENU
  1
.
  9
$ELEVATION
 40
0.0
  9
$PELEVATION
 40
0.0
  9
$THICKNESS
 40
0.0
  9
$LIMCHECK
 70
     0
  9
$CHAMFERA
 40
0.5
  9
$CHAMFERB
 40
0.5
  9
$CHAMFERC
 40
1.0
  9
$CHAMFERD
 40
0.0
  9
$SKPOLY
 70
     0
  9
$TDCREATE
 40
2457917.62755787
  9
$TDUCREATE
 40
2457917.25255787
  9
$TDUPDATE
 40
2457917.62755787
  9
$TDUUPDATE
 40
2457917.25255787
  9
$TDINDWG
 40
0.0000000116
  9
$TDUSRTIMER
 40
0.0000000116
  9
$USRTIMER
 70
     1
  9
$ANGBASE
 50
0.0
  9
$ANGDIR
 70
     0
  9
$PDMODE
 70
     0
  9
$PDSIZE
 40
0.0
  9
$PLINEWID
 40
0.0
  9
$SPLFRAME
 70
     0
  9
$SPLINETYPE
 70
     6
  9
$SPLINESEGS
 70
     8
  9
$HANDSEED
  5
1AC
  9
$SURFTAB1
 70
     6
  9
$SURFTAB2
 70
     6
  9
$SURFTYPE
 70
     6
  9
$SURFU
 70
     6
  9
$SURFV
 70
     6
  9
$UCSBASE
  2

  9
$UCSNAME
  2

  9
$UCSORG
 10
0.0
 20
0.0
 30
0.0
  9
$UCSXDIR
 10
1.0
 20
0.0
 30
0.0
  9
$UCSYDIR
 10
0.0
 20
1.0
 30
0.0
  9
$UCSORTHOREF
  2

  9
$UCSORTHOVIEW
 70
     0
  9
$UCSORGTOP
 10
0.0
 20
0.0
 30
0.0
  9
$UCSORGBOTTOM
 10
0.0
 20
0.0
 30
0.0
  9
$UCSORGLEFT
 10
0.0
 20
0.0
 30
0.0
  9
$UCSORGRIGHT
 10
0.0
 20
0.0
 30
0.0
  9
$UCSORGFRONT
 10
0.0
 20
0.0
 30
0.0
  9
$UCSORGBACK
 10
0.0
 20
0.0
 30
0.0
  9
$PUCSBASE
  2

  9
$PUCSNAME
  2

  9
$PUCSORG
 10
0.0
 20
0.0
 30
0.0
  9
$PUCSXDIR
 10
1.0
 20
0.0
 30
0.0
  9
$PUCSYDIR
 10
0.0
 20
1.0
 30
0.0
  9
$PUCSORTHOREF
  2

  9
$PUCSORTHOVIEW
 70
     0
  9
$PUCSORGTOP
 10
0.0
 20
0.0
 30
0.0
  9
$PUCSORGBOTTOM
 10
0.0
 20
0.0
 30
0.0
  9
$PUCSORGLEFT
 10
0.0
 20
0.0
 30
0.0
  9
$PUCSORGRIGHT
 10
0.0
 20
0.0
 30
0.0
  9
$PUCSORGFRONT
 10
0.0
 20
0.0
 30
0.0
  9
$PUCSORGBACK
 10
0.0
 20
0.0
 30
0.0
  9
$USERI1
 70
     0
  9
$USERI2
 70
     0
  9
$USERI3
 70
     0
  9
$USERI4
 70
     0
  9
$USERI5
 70
     0
  9
$USERR1
 40
0.0
  9
$USERR2
 40
0.0
  9
$USERR3
 40
0.0
  9
$USERR4
 40
0.0
  9
$USERR5
 40
0.0
  9
$WORLDVIEW
 70
     1
  9
$SHADEDGE
 70
     3
  9
$SHADEDIF
 70
    70
  9
$TILEMODE
 70
     1
  9
$MAXACTVP
 70
    64
  9
$PINSBASE
 10
0.0
 20
0.0
 30
0.0
  9
$PLIMCHECK
 70
     0
  9
$PEXTMIN
 10
1.000000000000000E+20
 20
1.000000000000000E+20
 30
1.000000000000000E+20
  9
$PEXTMAX
 10
-1.000000000000000E+20
 20
-1.000000000000000E+20
 30
-1.000000000000000E+20
  9
$PLIMMIN
 10
0.0
 20
0.0
  9
$PLIMMAX
 10
12.0
 20
9.0
  9
$UNITMODE
 70
     0
  9
$VISRETAIN
 70
     1
  9
$PLINEGEN
 70
     0
  9
$PSLTSCALE
 70
     1
  9
$TREEDEPTH
 70
  3020
  9
$CMLSTYLE
  2
Standard
  9
$CMLJUST
 70
     0
  9
$CMLSCALE
 40
1.0
  9
$PROXYGRAPHICS
 70
     1
  9
$MEASUREMENT
 70
     0
  9
$CELWEIGHT
370
    -1
  9
$ENDCAPS
280
     0
  9
$JOINSTYLE
280
     0
  9
$LWDISPLAY
290
     1
  9
$INSUNITS
 70
     1
  9
$HYPERLINKBASE
  1

  9
$STYLESHEET
  1

  9
$XEDIT
290
     1
  9
$CEPSNTYPE
380
     0
  9
$PSTYLEMODE
290
     1
  9
$FINGERPRINTGUID
  2
{D723258E-8EB0-0862-A159-E96A6D451525}
  9
$VERSIONGUID
  2
{FAEB1C32-E019-11D5-929B-00C0DF256EC4}
  9
$EXTNAMES
290
     1
  9
$PSVPSCALE
 40
0.0
  9
$OLESTARTUP
290
     0
  9
$SORTENTS
280
   127
  9
$INDEXCTL
280
     0
  9
$HIDETEXT
280
     1
  9
$XCLIPFRAME
280
     2
  9
$HALOGAP
280
     0
  9
$OBSCOLOR
 70
   257
  9
$OBSLTYPE
280
     0
  9
$INTERSECTIONDISPLAY
280
     0
  9
$INTERSECTIONCOLOR
 70
   257
  9
$DIMASSOC
280
     2
  9
$PROJECTNAME
  1

  9
$CAMERADISPLAY
290
     0
  9
$LENSLENGTH
 40
50.0
  9
$CAMERAHEIGHT
 40
0.0
  9
$STEPSPERSEC
 40
2.0
  9
$STEPSIZE
 40
6.0
  9
$3DDWFPREC
 40
2.0
  9
$PSOLWIDTH
 40
0.25
  9
$PSOLHEIGHT
 40
4.0
  9
$LOFTANG1
 40
1.570796326794897
  9
$LOFTANG2
 40
1.570796326794897
  9
$LOFTMAG1
 40
0.0
  9
$LOFTMAG2
 40
0.0
  9
$LOFTPARAM
 70
     7
  9
$LOFTNORMALS
280
     1
  9
$LATITUDE
 40
37.795
  9
$LONGITUDE
 40
-122.394
  9
$NORTHDIRECTION
 40
0.0
  9
$TIMEZONE
 70
 -8000
  9
$LIGHTGLYPHDISPLAY
280
     1
  9
$TILEMODELIGHTSYNCH
280
     1
  9
$CMATERIAL
347
3C
  9
$SOLIDHIST
280
     1
  9
$SHOWHIST
280
     1
  9
$DWFFRAME
280
     2
  9
$DGNFRAME
280
     2
  9
$REALWORLDSCALE
290
     1
  9
$INTERFERECOLOR
 62
   256
  9
$CSHADOW
280
     0
  9
$SHADOWPLANELOCATION
 40
0.0
  0
ENDSEC
  0
SECTION
  2
CLASSES
  0
CLASS
  1
ACDBDICTIONARYWDFLT
  2
AcDbDictionaryWithDefault
  3
ObjectDBX Classes
 90
        0
 91
        4
280
     0
281
     0
  0
CLASS
  1
VISUALSTYLE
  2
AcDbVisualStyle
  3
ObjectDBX Classes
 90
     4095
 91
        4
280
     0
281
     0
  0
CLASS
  1
MATERIAL
  2
AcDbMaterial
  3
ObjectDBX Classes
 90
     1153
 91
        4
280
     0
281
     0
  0
CLASS
  1
SUN
  2
AcDbSun
  3
SCENEOE
 90
     1024
 91
        4
280
     0
281
     0
  0
ENDSEC
  0
SECTION
  2
TABLES
  0
TABLE
  2
VPORT
  5
8
330
0
100
AcDbSymbolTable
 70
     1
  0
VPORT
  5
29
330
8
100
AcDbSymbolTableRecord
100
AcDbViewportTableRecord
  2
*Active
 70
     0
 10
0.0
 20
0.0
 11
1.0
 21
1.0
 12
0.0
 22
0.0
 13
0.0
 23
0.0
 14
0.5
 24
0.5
 15
0.5
 25
0.5
 16
0.0
 26
0.0
 36
1.0
 17
91.00082462281999
 27
-128.4993055234307
 37
0.0
 40
256.9986110468615
 41
0.7081814508812795
 42
50.0
 43
0.0
 44
0.0
 50
0.0
 51
0.0
 71
     0
 72
   100
 73
     1
 74
     3
 75
     0
 76
     0
 77
     0
 78
     0
281
     0
 65
     1
110
0.0
120
0.0
130
0.0
111
1.0
121
0.0
131
0.0
112
0.0
122
1.0
132
0.0
 79
     0
146
0.0
 60
     3
 61
     5
292
     1
282
     1
141
0.0
142
0.0
 63
   250
361
3F
  0
ENDTAB
  0
TABLE
  2
LTYPE
  5
5
330
0
100
AcDbSymbolTable
 70
     1
  0
LTYPE
  5
14
330
5
100
AcDbSymbolTableRecord
100
AcDbLinetypeTableRecord
  2
ByBlock
 70
     0
  3

 72
    65
 73
     0
 40
0.0
  0
LTYPE
  5
15
330
5
100
AcDbSymbolTableRecord
100
AcDbLinetypeTableRecord
  2
ByLayer
 70
     0
  3

 72
    65
 73
     0
 40
0.0
  0
LTYPE
  5
16
330
5
100
AcDbSymbolTableRecord
100
AcDbLinetypeTableRecord
  2
Continuous
 70
     0
  3
Solid line
 72
    65
 73
     0
 40
0.0
  0
ENDTAB
  0
TABLE
  2
LAYER
  5
2
330
0
100
AcDbSymbolTable
 70
     2
  0
LAYER
  5
10
330
2
100
AcDbSymbolTableRecord
100
AcDbLayerTableRecord
  2
0
 70
     0
 62
     7
  6
Continuous
370
    -3
390
F
347
3E
  0
LAYER
  5
40
330
2
100
AcDbSymbolTableRecord
100
AcDbLayerTableRecord
  2
_U+30EC_U+30A4_U+30E4_U+30FC 1
 70
     0
 62
     7
  6
Continuous
370
    -3
390
F
347
3E
  0
ENDTAB
  0
TABLE
  2
STYLE
  5
3
330
0
100
AcDbSymbolTable
 70
     1
  0
STYLE
  5
11
330
3
100
AcDbSymbolTableRecord
100
AcDbTextStyleTableRecord
  2
Standard
 70
     0
 40
0.0
 41
1.0
 50
0.0
 71
     0
 42
0.2
  3
txt
  4

  0
ENDTAB
  0
TABLE
  2
VIEW
  5
6
330
0
100
AcDbSymbolTable
 70
     0
  0
ENDTAB
  0
TABLE
  2
UCS
  5
7
330
0
100
AcDbSymbolTable
 70
     0
  0
ENDTAB
  0
TABLE
  2
APPID
  5
9
330
0
100
AcDbSymbolTable
 70
     1
  0
APPID
  5
12
330
9
100
AcDbSymbolTableRecord
100
AcDbRegAppTableRecord
  2
ACAD
 70
     0
  0
ENDTAB
  0
TABLE
  2
DIMSTYLE
  5
A
330
0
100
AcDbSymbolTable
 70
     1
100
AcDbDimStyleTable
  0
DIMSTYLE
105
27
330
A
100
AcDbSymbolTableRecord
100
AcDbDimStyleTableRecord
  2
Standard
 70
     0
178
     0
340
11
  0
ENDTAB
  0
TABLE
  2
BLOCK_RECORD
  5
1
330
0
100
AcDbSymbolTable
 70
    10
  0
BLOCK_RECORD
  5
1F
330
1
100
AcDbSymbolTableRecord
100
AcDbBlockTableRecord
  2
*Model_Space
340
22
 70
     0
280
     1
281
     0
  0
BLOCK_RECORD
  5
1B
330
1
100
AcDbSymbolTableRecord
100
AcDbBlockTableRecord
  2
*Paper_Space
340
1E
 70
     0
280
     1
281
     0
  0
BLOCK_RECORD
  5
23
330
1
100
AcDbSymbolTableRecord
100
AcDbBlockTableRecord
  2
*Paper_Space0
340
26
 70
     0
280
     1
281
     0
  0
BLOCK_RECORD
  5
58
330
1
100
AcDbSymbolTableRecord
100
AcDbBlockTableRecord
  2
block 2
340
0
102
{BLKREFS
331
59
102
}
 70
     0
280
     1
281
     0
  0
BLOCK_RECORD
  5
7E
330
1
100
AcDbSymbolTableRecord
100
AcDbBlockTableRecord
  2
block 3
340
0
102
{BLKREFS
331
7F
102
}
 70
     0
280
     1
281
     0
  0
BLOCK_RECORD
  5
84
330
1
100
AcDbSymbolTableRecord
100
AcDbBlockTableRecord
  2
block 4
340
0
102
{BLKREFS
331
85
102
}
 70
     0
280
     1
281
     0
  0
BLOCK_RECORD
  5
B3
330
1
100
AcDbSymbolTableRecord
100
AcDbBlockTableRecord
  2
block 5
340
0
102
{BLKREFS
331
B4
102
}
 70
     0
280
     1
281
     0
  0
BLOCK_RECORD
  5
BB
330
1
100
AcDbSymbolTableRecord
100
AcDbBlockTableRecord
  2
block 6
340
0
102
{BLKREFS
331
BC
102
}
 70
     0
280
     1
281
     0
  0
BLOCK_RECORD
  5
DE
330
1
100
AcDbSymbolTableRecord
100
AcDbBlockTableRecord
  2
block 7
340
0
102
{BLKREFS
331
DF
102
}
 70
     0
280
     1
281
     0
  0
BLOCK_RECORD
  5
150
330
1
100
AcDbSymbolTableRecord
100
AcDbBlockTableRecord
  2
block 8
340
0
102
{BLKREFS
331
151
102
}
 70
     0
280
     1
281
     0
  0
BLOCK_RECORD
  5
16B
330
1
100
AcDbSymbolTableRecord
100
AcDbBlockTableRecord
  2
block 9
340
0
102
{BLKREFS
331
16C
102
}
 70
     0
280
     1
281
     0
  0
BLOCK_RECORD
  5
171
330
1
100
AcDbSymbolTableRecord
100
AcDbBlockTableRecord
  2
block 10
340
0
102
{BLKREFS
331
172
102
}
 70
     0
280
     1
281
     0
  0
ENDTAB
  0
ENDSEC
  0
SECTION
  2
BLOCKS
  0
BLOCK
  5
20
330
1F
100
AcDbEntity
  8
0
100
AcDbBlockBegin
  2
*Model_Space
 70
     0
 10
0.0
 20
0.0
 30
0.0
  3
*Model_Space
  1

  0
ENDBLK
  5
21
330
1F
100
AcDbEntity
  8
0
100
AcDbBlockEnd
  0
BLOCK
  5
1C
330
1B
100
AcDbEntity
 67
     1
  8
0
100
AcDbBlockBegin
  2
*Paper_Space
 70
     0
 10
0.0
 20
0.0
 30
0.0
  3
*Paper_Space
  1

  0
ENDBLK
  5
1D
330
1B
100
AcDbEntity
 67
     1
  8
0
100
AcDbBlockEnd
  0
BLOCK
  5
24
330
23
100
AcDbEntity
  8
0
100
AcDbBlockBegin
  2
*Paper_Space0
 70
     0
 10
0.0
 20
0.0
 30
0.0
  3
*Paper_Space0
  1

  0
ENDBLK
  5
25
330
23
100
AcDbEntity
  8
0
100
AcDbBlockEnd
  0
BLOCK
  5
5A
330
58
100
AcDbEntity
  8
0
100
AcDbBlockBegin
  2
block 2
 70
     0
 10
0.0
 20
0.0
 30
0.0
  3
block 2
  1

  0
SPLINE
  5
5C
330
58
100
AcDbEntity
  8
_U+30EC_U+30A4_U+30E4_U+30FC 1
370
     0
100
AcDbSpline
210
0.0
220
0.0
230
1.0
 70
    11
 71
     3
 72
    32
 73
    28
 74
     0
 42
0.0000000001
 43
0.0000000001
 12
1.0
 22
0.0
 32
0.0
 13
1.0
 23
0.0
 33
0.0
 40
0.0
 40
0.0
 40
0.0
 40
0.0
 40
1.0
 40
1.0
 40
1.0
 40
2.0
 40
2.0
 40
2.0
 40
3.0
 40
3.0
 40
3.0
 40
4.0
 40
4.0
 40
4.0
 40
5.0
 40
5.0
 40
5.0
 40
6.0
 40
6.0
 40
6.0
 40
7.0
 40
7.0
 40
7.0
 40
8.0
 40
8.0
 40
8.0
 40
9.0
 40
9.0
 40
9.0
 40
9.0
 10
82.54155949542364
 20
-124.7393283108291
 30
0.0
 10
82.54155949542364
 20
-125.2554036145195
 30
0.0
 10
81.98724363184694
 20
-125.2636718436841
 30
0.0
 10
81.77364771176146
 20
-125.2636718436841
 30
0.0
 10
81.54299856902398
 20
-125.2636718436841
 30
0.0
 10
80.89566512734554
 20
-125.2447238185152
 30
0.0
 10
80.89566512734554
 20
-124.7010877509428
 30
0.0
 10
80.89566512734554
 20
-124.5277994480347
 30
0.0
 10
80.96542831092184
 20
-124.2821641399364
 30
0.0
 10
81.29753551569992
 20
-124.2442680895987
 30
0.0
 10
81.29753551569992
 20
-124.2442680895987
 30
0.0
 10
81.29753551569992
 20
-124.4578640096841
 30
0.0
 10
81.29753551569992
 20
-124.4578640096841
 30
0.0
 10
81.24051918541905
 20
-124.4685438056884
 30
0.0
 10
81.0923800795533
 20
-124.5002386841527
 30
0.0
 10
81.0923800795533
 20
-124.7031548082339
 30
0.0
 10
81.0923800795533
 20
-124.9952989053831
 30
0.0
 10
81.42035316974908
 20
-125.035262013012
 30
0.0
 10
81.6255086058957
 20
-125.0480088663074
 30
0.0
 10
81.54730493838053
 20
-124.9549912882057
 30
0.0
 10
81.48804929603425
 20
-124.8871229071463
 30
0.0
 10
81.48804929603425
 20
-124.7052218655251
 30
0.0
 10
81.48804929603425
 20
-124.525387881195
 30
0.0
 10
81.59588078472257
 20
-124.2229084975901
 30
0.0
 10
82.00205754243352
 20
-124.2229084975901
 30
0.0
 10
82.32141789391618
 20
-124.2229084975901
 30
0.0
 10
82.54155949542364
 20
-124.4220350166376
 30
0.0
 10
82.54155949542364
 20
-124.7393283108291
 30
0.0
  0
SPLINE
  5
5D
330
58
100
AcDbEntity
  8
_U+30EC_U+30A4_U+30E4_U+30FC 1
370
     0
100
AcDbSpline
210
0.0
220
0.0
230
1.0
 70
    11
 71
     3
 72
    17
 73
    13
 74
     0
 42
0.0000000001
 43
0.0000000001
 12
1.0
 22
0.0
 32
0.0
 13
1.0
 23
0.0
 33
0.0
 40
0.0
 40
0.0
 40
0.0
 40
0.0
 40
1.0
 40
1.0
 40
1.0
 40
2.0
 40
2.0
 40
2.0
 40
3.0
 40
3.0
 40
3.0
 40
4.0
 40
4.0
 40
4.0
 40
4.0
 10
81.68269719095086
 20
-124.7221028334028
 30
0.0
 10
81.68269719095086
 20
-124.9846191093789
 30
0.0
 10
81.8942260537452
 20
-125.0225151597166
 30
0.0
 10
82.01049802637237
 20
-125.0225151597166
 30
0.0
 10
82.18602564134586
 20
-125.0225151597166
 30
0.0
 10
82.34897865779817
 20
-124.9274305243237
 30
0.0
 10
82.34897865779817
 20
-124.7434624254114
 30
0.0
 10
82.34897865779817
 20
-124.6228840834276
 30
0.0
 10
82.28972301545188
 20
-124.4471842136799
 30
0.0
 10
82.00412459972466
 20
-124.4471842136799
 30
0.0
 10
81.7798488836349
 20
-124.4471842136799
 30
0.0
 10
81.68269719095086
 20
-124.587055090381
 30
0.0
 10
81.68269719095086
 20
-124.7221028334028
 30
0.0
  0
HATCH
  5
5E
330
58
100
AcDbEntity
  8
_U+30EC_U+30A4_U+30E4_U+30FC 1
 62
   179
420
  2234388
100
AcDbHatch
 10
0.0
 20
0.0
 30
0.0
210
0.0
220
0.0
230
1.0
  2
SOLID
 70
     1
 71
     0
 91
        2
 92
        1
 93
        1
 72
     4
 94
        3
 73
     0
 74
     1
 95
       32
 96
       28
 40
0.0
 40
0.0
 40
0.0
 40
0.0
 40
1.0
 40
1.0
 40
1.0
 40
2.0
 40
2.0
 40
2.0
 40
3.0
 40
3.0
 40
3.0
 40
4.0
 40
4.0
 40
4.0
 40
5.0
 40
5.0
 40
5.0
 40
6.0
 40
6.0
 40
6.0
 40
7.0
 40
7.0
 40
7.0
 40
8.0
 40
8.0
 40
8.0
 40
9.0
 40
9.0
 40
9.0
 40
9.0
 10
82.54155949542364
 20
-124.7393283108291
 10
82.54155949542364
 20
-125.2554036145195
 10
81.98724363184694
 20
-125.2636718436841
 10
81.77364771176146
 20
-125.2636718436841
 10
81.54299856902398
 20
-125.2636718436841
 10
80.89566512734554
 20
-125.2447238185152
 10
80.89566512734554
 20
-124.7010877509428
 10
80.89566512734554
 20
-124.5277994480347
 10
80.96542831092184
 20
-124.2821641399364
 10
81.29753551569992
 20
-124.2442680895987
 10
81.29753551569992
 20
-124.2442680895987
 10
81.29753551569992
 20
-124.4578640096841
 10
81.29753551569992
 20
-124.4578640096841
 10
81.24051918541905
 20
-124.4685438056884
 10
81.0923800795533
 20
-124.5002386841527
 10
81.0923800795533
 20
-124.7031548082339
 10
81.0923800795533
 20
-124.9952989053831
 10
81.42035316974908
 20
-125.035262013012
 10
81.6255086058957
 20
-125.0480088663074
 10
81.54730493838053
 20
-124.9549912882057
 10
81.48804929603425
 20
-124.8871229071463
 10
81.48804929603425
 20
-124.7052218655251
 10
81.48804929603425
 20
-124.525387881195
 10
81.59588078472257
 20
-124.2229084975901
 10
82.00205754243352
 20
-124.2229084975901
 10
82.32141789391618
 20
-124.2229084975901
 10
82.54155949542364
 20
-124.4220350166376
 10
82.54155949542364
 20
-124.7393283108291
 97
        0
 97
        0
 92
        1
 93
        1
 72
     4
 94
        3
 73
     0
 74
     1
 95
       17
 96
       13
 40
0.0
 40
0.0
 40
0.0
 40
0.0
 40
1.0
 40
1.0
 40
1.0
 40
2.0
 40
2.0
 40
2.0
 40
3.0
 40
3.0
 40
3.0
 40
4.0
 40
4.0
 40
4.0
 40
4.0
 10
81.68269719095086
 20
-124.7221028334028
 10
81.68269719095086
 20
-124.9846191093789
 10
81.8942260537452
 20
-125.0225151597166
 10
82.01049802637237
 20
-125.0225151597166
 10
82.18602564134586
 20
-125.0225151597166
 10
82.34897865779817
 20
-124.9274305243237
 10
82.34897865779817
 20
-124.7434624254114
 10
82.34897865779817
 20
-124.6228840834276
 10
82.28972301545188
 20
-124.4471842136799
 10
82.00412459972466
 20
-124.4471842136799
 10
81.7798488836349
 20
-124.4471842136799
 10
81.68269719095086
 20
-124.587055090381
 10
81.68269719095086
 20
-124.7221028334028
 97
        0
 97
        0
 75
     2
 76
     1
 98
        0
  0
SPLINE
  5
5F
330
58
100
AcDbEntity
  8
_U+30EC_U+30A4_U+30E4_U+30FC 1
370
     0
100
AcDbSpline
210
0.0
220
0.0
230
1.0
 70
    11
 71
     3
 72
    29
 73
    25
 74
     0
 42
0.0000000001
 43
0.0000000001
 12
1.0
 22
0.0
 32
0.0
 13
1.0
 23
0.0
 33
0.0
 40
0.0
 40
0.0
 40
0.0
 40
0.0
 40
1.0
 40
1.0
 40
1.0
 40
2.0
 40
2.0
 40
2.0
 40
3.0
 40
3.0
 40
3.0
 40
4.0
 40
4.0
 40
4.0
 40
5.0
 40
5.0
 40
5.0
 40
6.0
 40
6.0
 40
6.0
 40
7.0
 40
7.0
 40
7.0
 40
8.0
 40
8.0
 40
8.0
 40
8.0
 10
82.31297740997732
 20
-123.1687092791037
 30
0.0
 10
82.5224392154805
 20
-123.2768852773405
 30
0.0
 10
82.54155949542364
 20
-123.4501735802486
 30
0.0
 10
82.54155949542364
 20
-123.56661780765
 30
0.0
 10
82.54155949542364
 20
-123.7275037668112
 30
0.0
 10
82.49505070637277
 20
-123.869097191255
 30
0.0
 10
82.31297740997732
 20
-123.9641818266478
 30
0.0
 10
82.11850176983496
 20
-124.0678792007539
 30
0.0
 10
81.88147920044977
 20
-124.0868272259227
 30
0.0
 10
81.71852618399745
 20
-124.0868272259227
 30
0.0
 10
81.57469344748827
 20
-124.0868272259227
 30
0.0
 10
81.32302922229077
 20
-124.069946258045
 30
0.0
 10
81.1240749580176
 20
-123.9641818266478
 30
0.0
 10
80.92098657916212
 20
-123.8563503379595
 30
0.0
 10
80.89773218463668
 20
-123.6954643787984
 30
0.0
 10
80.89773218463668
 20
-123.56661780765
 30
0.0
 10
80.89773218463668
 20
-123.40779890578
 30
0.0
 10
80.9421739163964
 20
-123.2641384240451
 30
0.0
 10
81.1240749580176
 20
-123.1687092791037
 30
0.0
 10
81.31665579564306
 20
-123.0694905291285
 30
0.0
 10
81.54506562631512
 20
-123.0460638798288
 30
0.0
 10
81.71852618399745
 20
-123.0460638798288
 30
0.0
 10
81.88991968438863
 20
-123.0460638798288
 30
0.0
 10
82.1205688271261
 20
-123.0674234718373
 30
0.0
 10
82.31297740997732
 20
-123.1687092791037
 30
0.0
  0
SPLINE
  5
60
330
58
100
AcDbEntity
  8
_U+30EC_U+30A4_U+30E4_U+30FC 1
370
     0
100
AcDbSpline
210
0.0
220
0.0
230
1.0
 70
    11
 71
     3
 72
    17
 73
    13
 74
     0
 42
0.0000000001
 43
0.0000000001
 12
1.0
 22
0.0
 32
0.0
 13
1.0
 23
0.0
 33
0.0
 40
0.0
 40
0.0
 40
0.0
 40
0.0
 40
1.0
 40
1.0
 40
1.0
 40
2.0
 40
2.0
 40
2.0
 40
3.0
 40
3.0
 40
3.0
 40
4.0
 40
4.0
 40
4.0
 40
4.0
 10
81.09031302226215
 20
-123.56661780765
 30
0.0
 10
81.09031302226215
 20
-123.8160427207821
 30
0.0
 10
81.37367212592395
 20
-123.8628960193815
 30
0.0
 10
81.71852618399745
 20
-123.8628960193815
 30
0.0
 10
82.03805879025438
 20
-123.8628960193815
 30
0.0
 10
82.34691160050703
 20
-123.8267225167864
 30
0.0
 10
82.34691160050703
 20
-123.56661780765
 30
0.0
 10
82.34691160050703
 20
-123.3189154422606
 30
0.0
 10
82.06544729936212
 20
-123.2703395959185
 30
0.0
 10
81.71852618399745
 20
-123.2703395959185
 30
0.0
 10
81.3991658325148
 20
-123.2703395959185
 30
0.0
 10
81.09031302226215
 20
-123.3085801558048
 30
0.0
 10
81.09031302226215
 20
-123.56661780765
 30
0.0
  0
HATCH
  5
61
330
58
100
AcDbEntity
  8
_U+30EC_U+30A4_U+30E4_U+30FC 1
 62
   179
420
  2234388
100
AcDbHatch
 10
0.0
 20
0.0
 30
0.0
210
0.0
220
0.0
230
1.0
  2
SOLID
 70
     1
 71
     0
 91
        2
 92
        1
 93
        1
 72
     4
 94
        3
 73
     0
 74
     1
 95
       29
 96
       25
 40
0.0
 40
0.0
 40
0.0
 40
0.0
 40
1.0
 40
1.0
 40
1.0
 40
2.0
 40
2.0
 40
2.0
 40
3.0
 40
3.0
 40
3.0
 40
4.0
 40
4.0
 40
4.0
 40
5.0
 40
5.0
 40
5.0
 40
6.0
 40
6.0
 40
6.0
 40
7.0
 40
7.0
 40
7.0
 40
8.0
 40
8.0
 40
8.0
 40
8.0
 10
82.31297740997732
 20
-123.1687092791037
 10
82.5224392154805
 20
-123.2768852773405
 10
82.54155949542364
 20
-123.4501735802486
 10
82.54155949542364
 20
-123.56661780765
 10
82.54155949542364
 20
-123.7275037668112
 10
82.49505070637277
 20
-123.869097191255
 10
82.31297740997732
 20
-123.9641818266478
 10
82.11850176983496
 20
-124.0678792007539
 10
81.88147920044977
 20
-124.0868272259227
 10
81.71852618399745
 20
-124.0868272259227
 10
81.57469344748827
 20
-124.0868272259227
 10
81.32302922229077
 20
-124.069946258045
 10
81.1240749580176
 20
-123.9641818266478
 10
80.92098657916212
 20
-123.8563503379595
 10
80.89773218463668
 20
-123.6954643787984
 10
80.89773218463668
 20
-123.56661780765
 10
80.89773218463668
 20
-123.40779890578
 10
80.9421739163964
 20
-123.2641384240451
 10
81.1240749580176
 20
-123.1687092791037
 10
81.31665579564306
 20
-123.0694905291285
 10
81.54506562631512
 20
-123.0460638798288
 10
81.71852618399745
 20
-123.0460638798288
 10
81.88991968438863
 20
-123.0460638798288
 10
82.1205688271261
 20
-123.0674234718373
 10
82.31297740997732
 20
-123.1687092791037
 97
        0
 97
        0
 92
        1
 93
        1
 72
     4
 94
        3
 73
     0
 74
     1
 95
       17
 96
       13
 40
0.0
 40
0.0
 40
0.0
 40
0.0
 40
1.0
 40
1.0
 40
1.0
 40
2.0
 40
2.0
 40
2.0
 40
3.0
 40
3.0
 40
3.0
 40
4.0
 40
4.0
 40
4.0
 40
4.0
 10
81.09031302226215
 20
-123.56661780765
 10
81.09031302226215
 20
-123.8160427207821
 10
81.37367212592395
 20
-123.8628960193815
 10
81.71852618399745
 20
-123.8628960193815
 10
82.03805879025438
 20
-123.8628960193815
 10
82.34691160050703
 20
-123.8267225167864
 10
82.34691160050703
 20
-123.56661780765
 10
82.34691160050703
 20
-123.3189154422606
 10
82.06544729936212
 20
-123.2703395959185
 10
81.71852618399745
 20
-123.2703395959185
 10
81.3991658325148
 20
-123.2703395959185
 10
81.09031302226215
 20
-123.3085801558048
 10
81.09031302226215
 20
-123.56661780765
 97
        0
 97
        0
 75
     2
 76
     1
 98
        0
  0
ENDBLK
  5
5B
330
58
100
AcDbEntity
  8
0
100
AcDbBlockEnd
  0
BLOCK
  5
80
330
7E
100
AcDbEntity
  8
0
100
AcDbBlockBegin
  2
block 3
 70
     0
 10
0.0
 20
0.0
 30
0.0
  3
block 3
  1

  0
SPLINE
  5
82
330
7E
100
AcDbEntity
  8
_U+30EC_U+30A4_U+30E4_U+30FC 1
370
     0
100
AcDbSpline
210
0.0
220
0.0
230
1.0
 70
    11
 71
     3
 72
    53
 73
    49
 74
     0
 42
0.0000000001
 43
0.0000000001
 12
1.0
 22
0.0
 32
0.0
 13
1.0
 23
0.0
 33
0.0
 40
0.0
 40
0.0
 40
0.0
 40
0.0
 40
1.0
 40
1.0
 40
1.0
 40
2.0
 40
2.0
 40
2.0
 40
3.0
 40
3.0
 40
3.0
 40
4.0
 40
4.0
 40
4.0
 40
5.0
 40
5.0
 40
5.0
 40
6.0
 40
6.0
 40
6.0
 40
7.0
 40
7.0
 40
7.0
 40
8.0
 40
8.0
 40
8.0
 40
9.0
 40
9.0
 40
9.0
 40
10.0
 40
10.0
 40
10.0
 40
11.0
 40
11.0
 40
11.0
 40
12.0
 40
12.0
 40
12.0
 40
13.0
 40
13.0
 40
13.0
 40
14.0
 40
14.0
 40
14.0
 40
15.0
 40
15.0
 40
15.0
 40
16.0
 40
16.0
 40
16.0
 40
16.0
 10
96.14572480235246
 20
-111.080558240459
 30
0.0
 10
96.06717662528877
 20
-111.080558240459
 30
0.0
 10
95.96589081802242
 20
-111.0636772725813
 30
0.0
 10
95.86391599165903
 20
-111.0001152608784
 30
0.0
 10
95.69097219829948
 20
-110.8900444601247
 30
0.0
 10
95.66961260629094
 20
-110.758958576911
 30
0.0
 10
95.65032007157353
 20
-110.6511270882226
 30
0.0
 10
95.65032007157353
 20
-110.6511270882226
 30
0.0
 10
95.87287323992068
 20
-110.6511270882226
 30
0.0
 10
95.87287323992068
 20
-110.6511270882226
 30
0.0
 10
95.92730574858763
 20
-110.8499090977216
 30
0.0
 10
96.05477428154187
 20
-110.8795369188947
 30
0.0
 10
96.14779185964362
 20
-110.8795369188947
 30
0.0
 10
96.2869737172477
 20
-110.8795369188947
 30
0.0
 10
96.43924693769574
 20
-110.7801459141453
 30
0.0
 10
96.43924693769574
 20
-110.5474297141166
 30
0.0
 10
96.43924693769574
 20
-110.2914591195626
 30
0.0
 10
96.25941295336571
 20
-110.2216959359862
 30
0.0
 10
96.13883461138197
 20
-110.2216959359862
 30
0.0
 10
96.10713973291766
 20
-110.2216959359862
 30
0.0
 10
95.96589081802242
 20
-110.2216959359862
 30
0.0
 10
95.87700735450298
 20
-110.3507147619088
 30
0.0
 10
95.87700735450298
 20
-110.3507147619088
 30
0.0
 10
95.70130748475523
 20
-110.3315944819657
 30
0.0
 10
95.70130748475523
 20
-110.3315944819657
 30
0.0
 10
95.70130748475523
 20
-110.3315944819657
 30
0.0
 10
95.82188582673898
 20
-109.4854790307884
 30
0.0
 10
95.82188582673898
 20
-109.4854790307884
 30
0.0
 10
95.82188582673898
 20
-109.4854790307884
 30
0.0
 10
96.60047740640545
 20
-109.4854790307884
 30
0.0
 10
96.60047740640545
 20
-109.4854790307884
 30
0.0
 10
96.60047740640545
 20
-109.4854790307884
 30
0.0
 10
96.60047740640545
 20
-109.680126925705
 30
0.0
 10
96.60047740640545
 20
-109.680126925705
 30
0.0
 10
96.60047740640545
 20
-109.680126925705
 30
0.0
 10
95.98449433364277
 20
-109.680126925705
 30
0.0
 10
95.98449433364277
 20
-109.680126925705
 30
0.0
 10
95.98449433364277
 20
-109.680126925705
 30
0.0
 10
95.91903751942303
 20
-110.1031846512937
 30
0.0
 10
95.91903751942303
 20
-110.1031846512937
 30
0.0
 10
95.98036021906047
 20
-110.0692504607639
 30
0.0
 10
96.06304251070647
 20
-110.0291150983608
 30
0.0
 10
96.18155379539905
 20
-110.0291150983608
 30
0.0
 10
96.43511282311344
 20
-110.0291150983608
 30
0.0
 10
96.67213539249863
 20
-110.2153225093385
 30
0.0
 10
96.67213539249863
 20
-110.5283094341735
 30
0.0
 10
96.67213539249863
 20
-110.8457749831393
 30
0.0
 10
96.4482041859574
 20
-111.080558240459
 30
0.0
 10
96.14572480235246
 20
-111.080558240459
 30
0.0
  0
HATCH
  5
83
330
7E
100
AcDbEntity
  8
_U+30EC_U+30A4_U+30E4_U+30FC 1
 62
   179
420
  2234388
100
AcDbHatch
 10
0.0
 20
0.0
 30
0.0
210
0.0
220
0.0
230
1.0
  2
SOLID
 70
     1
 71
     0
 91
        1
 92
        1
 93
        1
 72
     4
 94
        3
 73
     0
 74
     1
 95
       53
 96
       49
 40
0.0
 40
0.0
 40
0.0
 40
0.0
 40
1.0
 40
1.0
 40
1.0
 40
2.0
 40
2.0
 40
2.0
 40
3.0
 40
3.0
 40
3.0
 40
4.0
 40
4.0
 40
4.0
 40
5.0
 40
5.0
 40
5.0
 40
6.0
 40
6.0
 40
6.0
 40
7.0
 40
7.0
 40
7.0
 40
8.0
 40
8.0
 40
8.0
 40
9.0
 40
9.0
 40
9.0
 40
10.0
 40
10.0
 40
10.0
 40
11.0
 40
11.0
 40
11.0
 40
12.0
 40
12.0
 40
12.0
 40
13.0
 40
13.0
 40
13.0
 40
14.0
 40
14.0
 40
14.0
 40
15.0
 40
15.0
 40
15.0
 40
16.0
 40
16.0
 40
16.0
 40
16.0
 10
96.14572480235246
 20
-111.080558240459
 10
96.06717662528877
 20
-111.080558240459
 10
95.96589081802242
 20
-111.0636772725813
 10
95.86391599165903
 20
-111.0001152608784
 10
95.69097219829948
 20
-110.8900444601247
 10
95.66961260629094
 20
-110.758958576911
 10
95.65032007157353
 20
-110.6511270882226
 10
95.65032007157353
 20
-110.6511270882226
 10
95.87287323992068
 20
-110.6511270882226
 10
95.87287323992068
 20
-110.6511270882226
 10
95.92730574858763
 20
-110.8499090977216
 10
96.05477428154187
 20
-110.8795369188947
 10
96.14779185964362
 20
-110.8795369188947
 10
96.2869737172477
 20
-110.8795369188947
 10
96.43924693769574
 20
-110.7801459141453
 10
96.43924693769574
 20
-110.5474297141166
 10
96.43924693769574
 20
-110.2914591195626
 10
96.25941295336571
 20
-110.2216959359862
 10
96.13883461138197
 20
-110.2216959359862
 10
96.10713973291766
 20
-110.2216959359862
 10
95.96589081802242
 20
-110.2216959359862
 10
95.87700735450298
 20
-110.3507147619088
 10
95.87700735450298
 20
-110.3507147619088
 10
95.70130748475523
 20
-110.3315944819657
 10
95.70130748475523
 20
-110.3315944819657
 10
95.70130748475523
 20
-110.3315944819657
 10
95.82188582673898
 20
-109.4854790307884
 10
95.82188582673898
 20
-109.4854790307884
 10
95.82188582673898
 20
-109.4854790307884
 10
96.60047740640545
 20
-109.4854790307884
 10
96.60047740640545
 20
-109.4854790307884
 10
96.60047740640545
 20
-109.4854790307884
 10
96.60047740640545
 20
-109.680126925705
 10
96.60047740640545
 20
-109.680126925705
 10
96.60047740640545
 20
-109.680126925705
 10
95.98449433364277
 20
-109.680126925705
 10
95.98449433364277
 20
-109.680126925705
 10
95.98449433364277
 20
-109.680126925705
 10
95.91903751942303
 20
-110.1031846512937
 10
95.91903751942303
 20
-110.1031846512937
 10
95.98036021906047
 20
-110.0692504607639
 10
96.06304251070647
 20
-110.0291150983608
 10
96.18155379539905
 20
-110.0291150983608
 10
96.43511282311344
 20
-110.0291150983608
 10
96.67213539249863
 20
-110.2153225093385
 10
96.67213539249863
 20
-110.5283094341735
 10
96.67213539249863
 20
-110.8457749831393
 10
96.4482041859574
 20
-111.080558240459
 10
96.14572480235246
 20
-111.080558240459
 97
        0
 97
        0
 75
     2
 76
     1
 98
        0
  0
ENDBLK
  5
81
330
7E
100
AcDbEntity
  8
0
100
AcDbBlockEnd
  0
BLOCK
  5
86
330
84
100
AcDbEntity
  8
0
100
AcDbBlockBegin
  2
block 4
 70
     0
 10
0.0
 20
0.0
 30
0.0
  3
block 4
  1

  0
SPLINE
  5
88
330
84
100
AcDbEntity
  8
_U+30EC_U+30A4_U+30E4_U+30FC 1
370
     0
100
AcDbSpline
210
0.0
220
0.0
230
1.0
 70
    11
 71
     3
 72
    26
 73
    22
 74
     0
 42
0.0000000001
 43
0.0000000001
 12
1.0
 22
0.0
 32
0.0
 13
1.0
 23
0.0
 33
0.0
 40
0.0
 40
0.0
 40
0.0
 40
0.0
 40
1.0
 40
1.0
 40
1.0
 40
2.0
 40
2.0
 40
2.0
 40
3.0
 40
3.0
 40
3.0
 40
4.0
 40
4.0
 40
4.0
 40
5.0
 40
5.0
 40
5.0
 40
6.0
 40
6.0
 40
6.0
 40
7.0
 40
7.0
 40
7.0
 40
7.0
 10
91.87931855341907
 20
-111.0297430820516
 30
0.0
 10
91.87931855341907
 20
-111.0297430820516
 30
0.0
 10
91.87931855341907
 20
-109.9254177242548
 30
0.0
 10
91.87931855341907
 20
-109.9254177242548
 30
0.0
 10
91.87931855341907
 20
-109.9254177242548
 30
0.0
 10
91.54927840593213
 20
-109.9254177242548
 30
0.0
 10
91.54927840593213
 20
-109.9254177242548
 30
0.0
 10
91.54927840593213
 20
-109.9254177242548
 30
0.0
 10
91.54927840593213
 20
-109.777278618389
 30
0.0
 10
91.54927840593213
 20
-109.777278618389
 30
0.0
 10
91.88138561071021
 20
-109.7626369625767
 30
0.0
 10
91.92789439976109
 20
-109.5996839461244
 30
0.0
 10
91.95752222093424
 20
-109.4854790307884
 30
0.0
 10
91.95752222093424
 20
-109.4854790307884
 30
0.0
 10
92.10359426950883
 20
-109.4854790307884
 30
0.0
 10
92.10359426950883
 20
-109.4854790307884
 30
0.0
 10
92.10359426950883
 20
-109.4854790307884
 30
0.0
 10
92.10359426950883
 20
-111.0297430820516
 30
0.0
 10
92.10359426950883
 20
-111.0297430820516
 30
0.0
 10
92.10359426950883
 20
-111.0297430820516
 30
0.0
 10
91.87931855341907
 20
-111.0297430820516
 30
0.0
 10
91.87931855341907
 20
-111.0297430820516
 30
0.0
  0
HATCH
  5
89
330
84
100
AcDbEntity
  8
_U+30EC_U+30A4_U+30E4_U+30FC 1
 62
   179
420
  2234388
100
AcDbHatch
 10
0.0
 20
0.0
 30
0.0
210
0.0
220
0.0
230
1.0
  2
SOLID
 70
     1
 71
     0
 91
        1
 92
        1
 93
        1
 72
     4
 94
        3
 73
     0
 74
     1
 95
       26
 96
       22
 40
0.0
 40
0.0
 40
0.0
 40
0.0
 40
1.0
 40
1.0
 40
1.0
 40
2.0
 40
2.0
 40
2.0
 40
3.0
 40
3.0
 40
3.0
 40
4.0
 40
4.0
 40
4.0
 40
5.0
 40
5.0
 40
5.0
 40
6.0
 40
6.0
 40
6.0
 40
7.0
 40
7.0
 40
7.0
 40
7.0
 10
91.87931855341907
 20
-111.0297430820516
 10
91.87931855341907
 20
-111.0297430820516
 10
91.87931855341907
 20
-109.9254177242548
 10
91.87931855341907
 20
-109.9254177242548
 10
91.87931855341907
 20
-109.9254177242548
 10
91.54927840593213
 20
-109.9254177242548
 10
91.54927840593213
 20
-109.9254177242548
 10
91.54927840593213
 20
-109.9254177242548
 10
91.54927840593213
 20
-109.777278618389
 10
91.54927840593213
 20
-109.777278618389
 10
91.88138561071021
 20
-109.7626369625767
 10
91.92789439976109
 20
-109.5996839461244
 10
91.95752222093424
 20
-109.4854790307884
 10
91.95752222093424
 20
-109.4854790307884
 10
92.10359426950883
 20
-109.4854790307884
 10
92.10359426950883
 20
-109.4854790307884
 10
92.10359426950883
 20
-109.4854790307884
 10
92.10359426950883
 20
-111.0297430820516
 10
92.10359426950883
 20
-111.0297430820516
 10
92.10359426950883
 20
-111.0297430820516
 10
91.87931855341907
 20
-111.0297430820516
 10
91.87931855341907
 20
-111.0297430820516
 97
        0
 97
        0
 75
     2
 76
     1
 98
        0
  0
POLYLINE
  5
8A
330
84
100
AcDbEntity
  8
_U+30EC_U+30A4_U+30E4_U+30FC 1
370
     0
100
AcDb2dPolyline
 66
     1
 10
0.0
 20
0.0
 30
0.0
  0
VERTEX
  5
8B
330
8A
100
AcDbEntity
  8
_U+30EC_U+30A4_U+30E4_U+30FC 1
370
     0
100
AcDbVertex
100
AcDb2dVertex
 10
93.43684622230052
 20
-110.6828219666869
 30
0.0
  0
VERTEX
  5
8C
330
8A
100
AcDbEntity
  8
_U+30EC_U+30A4_U+30E4_U+30FC 1
370
     0
100
AcDbVertex
100
AcDb2dVertex
 10
93.43684622230052
 20
-111.0297430820516
 30
0.0
  0
VERTEX
  5
8D
330
8A
100
AcDbEntity
  8
_U+30EC_U+30A4_U+30E4_U+30FC 1
370
     0
100
AcDbVertex
100
AcDb2dVertex
 10
93.21911618763272
 20
-111.0297430820516
 30
0.0
  0
VERTEX
  5
8E
330
8A
100
AcDbEntity
  8
_U+30EC_U+30A4_U+30E4_U+30FC 1
370
     0
100
AcDbVertex
100
AcDb2dVertex
 10
93.21911618763272
 20
-110.6828219666869
 30
0.0
  0
VERTEX
  5
8F
330
8A
100
AcDbEntity
  8
_U+30EC_U+30A4_U+30E4_U+30FC 1
370
     0
100
AcDbVertex
100
AcDb2dVertex
 10
92.56317000724115
 20
-110.6828219666869
 30
0.0
  0
VERTEX
  5
90
330
8A
100
AcDbEntity
  8
_U+30EC_U+30A4_U+30E4_U+30FC 1
370
     0
100
AcDbVertex
100
AcDb2dVertex
 10
92.56317000724115
 20
-110.4585462505972
 30
0.0
  0
VERTEX
  5
91
330
8A
100
AcDbEntity
  8
_U+30EC_U+30A4_U+30E4_U+30FC 1
370
     0
100
AcDbVertex
100
AcDb2dVertex
 10
93.2421983273839
 20
-109.4854790307884
 30
0.0
  0
VERTEX
  5
92
330
8A
100
AcDbEntity
  8
_U+30EC_U+30A4_U+30E4_U+30FC 1
370
     0
100
AcDbVertex
100
AcDb2dVertex
 10
93.43684622230052
 20
-109.4854790307884
 30
0.0
  0
VERTEX
  5
93
330
8A
100
AcDbEntity
  8
_U+30EC_U+30A4_U+30E4_U+30FC 1
370
     0
100
AcDbVertex
100
AcDb2dVertex
 10
93.43684622230052
 20
-110.4838677024138
 30
0.0
  0
VERTEX
  5
94
330
8A
100
AcDbEntity
  8
_U+30EC_U+30A4_U+30E4_U+30FC 1
370
     0
100
AcDbVertex
100
AcDb2dVertex
 10
93.64424097051256
 20
-110.4838677024138
 30
0.0
  0
VERTEX
  5
95
330
8A
100
AcDbEntity
  8
_U+30EC_U+30A4_U+30E4_U+30FC 1
370
     0
100
AcDbVertex
100
AcDb2dVertex
 10
93.64424097051256
 20
-110.6828219666869
 30
0.0
  0
VERTEX
  5
96
330
8A
100
AcDbEntity
  8
_U+30EC_U+30A4_U+30E4_U+30FC 1
370
     0
100
AcDbVertex
100
AcDb2dVertex
 10
93.43684622230052
 20
-110.6828219666869
 30
0.0
  0
SEQEND
  5
97
330
8A
100
AcDbEntity
  8
_U+30EC_U+30A4_U+30E4_U+30FC 1
370
     0
  0
POLYLINE
  5
98
330
84
100
AcDbEntity
  8
_U+30EC_U+30A4_U+30E4_U+30FC 1
370
     0
100
AcDb2dPolyline
 66
     1
 10
0.0
 20
0.0
 30
0.0
  0
VERTEX
  5
99
330
98
100
AcDbEntity
  8
_U+30EC_U+30A4_U+30E4_U+30FC 1
370
     0
100
AcDbVertex
100
AcDb2dVertex
 10
93.21911618763272
 20
-109.8280937767965
 30
0.0
  0
VERTEX
  5
9A
330
98
100
AcDbEntity
  8
_U+30EC_U+30A4_U+30E4_U+30FC 1
370
     0
100
AcDbVertex
100
AcDb2dVertex
 10
92.76195201674007
 20
-110.4838677024138
 30
0.0
  0
VERTEX
  5
9B
330
98
100
AcDbEntity
  8
_U+30EC_U+30A4_U+30E4_U+30FC 1
370
     0
100
AcDbVertex
100
AcDb2dVertex
 10
93.21911618763272
 20
-110.4838677024138
 30
0.0
  0
VERTEX
  5
9C
330
98
100
AcDbEntity
  8
_U+30EC_U+30A4_U+30E4_U+30FC 1
370
     0
100
AcDbVertex
100
AcDb2dVertex
 10
93.21911618763272
 20
-109.8280937767965
 30
0.0
  0
SEQEND
  5
9D
330
98
100
AcDbEntity
  8
_U+30EC_U+30A4_U+30E4_U+30FC 1
370
     0
  0
HATCH
  5
9E
330
84
100
AcDbEntity
  8
_U+30EC_U+30A4_U+30E4_U+30FC 1
 62
   179
420
  2234388
100
AcDbHatch
 10
0.0
 20
0.0
 30
0.0
210
0.0
220
0.0
230
1.0
  2
SOLID
 70
     1
 71
     0
 91
        2
 92
        1
 93
       11
 72
     1
 10
93.43684622230052
 20
-110.6828219666869
 11
93.43684622230052
 21
-111.0297430820516
 72
     1
 10
93.43684622230052
 20
-111.0297430820516
 11
93.21911618763272
 21
-111.0297430820516
 72
     1
 10
93.21911618763272
 20
-111.0297430820516
 11
93.21911618763272
 21
-110.6828219666869
 72
     1
 10
93.21911618763272
 20
-110.6828219666869
 11
92.56317000724115
 21
-110.6828219666869
 72
     1
 10
92.56317000724115
 20
-110.6828219666869
 11
92.56317000724115
 21
-110.4585462505972
 72
     1
 10
92.56317000724115
 20
-110.4585462505972
 11
93.2421983273839
 21
-109.4854790307884
 72
     1
 10
93.2421983273839
 20
-109.4854790307884
 11
93.43684622230052
 21
-109.4854790307884
 72
     1
 10
93.43684622230052
 20
-109.4854790307884
 11
93.43684622230052
 21
-110.4838677024138
 72
     1
 10
93.43684622230052
 20
-110.4838677024138
 11
93.64424097051256
 21
-110.4838677024138
 72
     1
 10
93.64424097051256
 20
-110.4838677024138
 11
93.64424097051256
 21
-110.6828219666869
 72
     1
 10
93.64424097051256
 20
-110.6828219666869
 11
93.43684622230052
 21
-110.6828219666869
 97
        0
 92
        1
 93
        3
 72
     1
 10
93.21911618763272
 20
-109.8280937767965
 11
92.76195201674007
 21
-110.4838677024138
 72
     1
 10
92.76195201674007
 20
-110.4838677024138
 11
93.21911618763272
 21
-110.4838677024138
 72
     1
 10
93.21911618763272
 20
-110.4838677024138
 11
93.21911618763272
 21
-109.8280937767965
 97
        0
 75
     2
 76
     1
 98
        0
  0
ENDBLK
  5
87
330
84
100
AcDbEntity
  8
0
100
AcDbBlockEnd
  0
BLOCK
  5
B5
330
B3
100
AcDbEntity
  8
0
100
AcDbBlockBegin
  2
block 5
 70
     0
 10
0.0
 20
0.0
 30
0.0
  3
block 5
  1

  0
SPLINE
  5
B7
330
B3
100
AcDbEntity
  8
_U+30EC_U+30A4_U+30E4_U+30FC 1
370
     0
100
AcDbSpline
210
0.0
220
0.0
230
1.0
 70
    11
 71
     3
 72
    44
 73
    40
 74
     0
 42
0.0000000001
 43
0.0000000001
 12
1.0
 22
0.0
 32
0.0
 13
1.0
 23
0.0
 33
0.0
 40
0.0
 40
0.0
 40
0.0
 40
0.0
 40
1.0
 40
1.0
 40
1.0
 40
2.0
 40
2.0
 40
2.0
 40
3.0
 40
3.0
 40
3.0
 40
4.0
 40
4.0
 40
4.0
 40
5.0
 40
5.0
 40
5.0
 40
6.0
 40
6.0
 40
6.0
 40
7.0
 40
7.0
 40
7.0
 40
8.0
 40
8.0
 40
8.0
 40
9.0
 40
9.0
 40
9.0
 40
10.0
 40
10.0
 40
10.0
 40
11.0
 40
11.0
 40
11.0
 40
12.0
 40
12.0
 40
12.0
 40
13.0
 40
13.0
 40
13.0
 40
13.0
 10
102.3648111723255
 20
-138.6664713195001
 30
0.0
 10
102.523285564647
 20
-138.8842013541679
 30
0.0
 10
102.5976996271284
 20
-138.9772189322696
 30
0.0
 10
102.7413601088633
 20
-139.0261392881602
 30
0.0
 10
102.7413601088633
 20
-139.0261392881602
 30
0.0
 10
102.7413601088633
 20
-138.2475477084937
 30
0.0
 10
102.7413601088633
 20
-138.2475477084937
 30
0.0
 10
102.7413601088633
 20
-138.2475477084937
 30
0.0
 10
102.9463432902356
 20
-138.2475477084937
 30
0.0
 10
102.9463432902356
 20
-138.2475477084937
 30
0.0
 10
102.9463432902356
 20
-138.2475477084937
 30
0.0
 10
102.9463432902356
 20
-139.2755642012922
 30
0.0
 10
102.9463432902356
 20
-139.2755642012922
 30
0.0
 10
102.5887423788667
 20
-139.2438693228279
 30
0.0
 10
102.5108832209001
 20
-139.1784125086082
 30
0.0
 10
102.2125379518774
 20
-138.7932508333573
 30
0.0
 10
102.01341143283
 20
-138.5372802388032
 30
0.0
 10
101.9458875613191
 20
-138.4718234245834
 30
0.0
 10
101.8084282514576
 20
-138.4718234245834
 30
0.0
 10
101.689916966765
 20
-138.4718234245834
 30
0.0
 10
101.558658828777
 20
-138.5438259202252
 30
0.0
 10
101.558658828777
 20
-138.7405408724329
 30
0.0
 10
101.558658828777
 20
-139.0006455815693
 30
0.0
 10
101.7894802262887
 20
-139.0089138107339
 30
0.0
 10
101.9059244536902
 20
-139.0133924348647
 30
0.0
 10
101.9059244536902
 20
-139.0133924348647
 30
0.0
 10
101.9059244536902
 20
-139.2376681509545
 30
0.0
 10
101.9059244536902
 20
-139.2376681509545
 30
0.0
 10
101.7788004302845
 20
-139.2290554122414
 30
0.0
 10
101.6668348270139
 20
-139.2183756162371
 30
0.0
 10
101.5483235423213
 20
-139.1381048914308
 30
0.0
 10
101.3874375831601
 20
-139.0282063454513
 30
0.0
 10
101.3533311378561
 20
-138.8418266796993
 30
0.0
 10
101.3533311378561
 20
-138.7257269618464
 30
0.0
 10
101.3533311378561
 20
-138.4483967752838
 30
0.0
 10
101.537643746317
 20
-138.2410020270717
 30
0.0
 10
101.8104953087488
 20
-138.2410020270717
 30
0.0
 10
102.0389051394208
 20
-138.2410020270717
 30
0.0
 10
102.1384683989446
 20
-138.3574462544731
 30
0.0
 10
102.3648111723255
 20
-138.6664713195001
 30
0.0
  0
HATCH
  5
B8
330
B3
100
AcDbEntity
  8
_U+30EC_U+30A4_U+30E4_U+30FC 1
 62
   179
420
  2234388
100
AcDbHatch
 10
0.0
 20
0.0
 30
0.0
210
0.0
220
0.0
230
1.0
  2
SOLID
 70
     1
 71
     0
 91
        1
 92
        1
 93
        1
 72
     4
 94
        3
 73
     0
 74
     1
 95
       44
 96
       40
 40
0.0
 40
0.0
 40
0.0
 40
0.0
 40
1.0
 40
1.0
 40
1.0
 40
2.0
 40
2.0
 40
2.0
 40
3.0
 40
3.0
 40
3.0
 40
4.0
 40
4.0
 40
4.0
 40
5.0
 40
5.0
 40
5.0
 40
6.0
 40
6.0
 40
6.0
 40
7.0
 40
7.0
 40
7.0
 40
8.0
 40
8.0
 40
8.0
 40
9.0
 40
9.0
 40
9.0
 40
10.0
 40
10.0
 40
10.0
 40
11.0
 40
11.0
 40
11.0
 40
12.0
 40
12.0
 40
12.0
 40
13.0
 40
13.0
 40
13.0
 40
13.0
 10
102.3648111723255
 20
-138.6664713195001
 10
102.523285564647
 20
-138.8842013541679
 10
102.5976996271284
 20
-138.9772189322696
 10
102.7413601088633
 20
-139.0261392881602
 10
102.7413601088633
 20
-139.0261392881602
 10
102.7413601088633
 20
-138.2475477084937
 10
102.7413601088633
 20
-138.2475477084937
 10
102.7413601088633
 20
-138.2475477084937
 10
102.9463432902356
 20
-138.2475477084937
 10
102.9463432902356
 20
-138.2475477084937
 10
102.9463432902356
 20
-138.2475477084937
 10
102.9463432902356
 20
-139.2755642012922
 10
102.9463432902356
 20
-139.2755642012922
 10
102.5887423788667
 20
-139.2438693228279
 10
102.5108832209001
 20
-139.1784125086082
 10
102.2125379518774
 20
-138.7932508333573
 10
102.01341143283
 20
-138.5372802388032
 10
101.9458875613191
 20
-138.4718234245834
 10
101.8084282514576
 20
-138.4718234245834
 10
101.689916966765
 20
-138.4718234245834
 10
101.558658828777
 20
-138.5438259202252
 10
101.558658828777
 20
-138.7405408724329
 10
101.558658828777
 20
-139.0006455815693
 10
101.7894802262887
 20
-139.0089138107339
 10
101.9059244536902
 20
-139.0133924348647
 10
101.9059244536902
 20
-139.0133924348647
 10
101.9059244536902
 20
-139.2376681509545
 10
101.9059244536902
 20
-139.2376681509545
 10
101.7788004302845
 20
-139.2290554122414
 10
101.6668348270139
 20
-139.2183756162371
 10
101.5483235423213
 20
-139.1381048914308
 10
101.3874375831601
 20
-139.0282063454513
 10
101.3533311378561
 20
-138.8418266796993
 10
101.3533311378561
 20
-138.7257269618464
 10
101.3533311378561
 20
-138.4483967752838
 10
101.537643746317
 20
-138.2410020270717
 10
101.8104953087488
 20
-138.2410020270717
 10
102.0389051394208
 20
-138.2410020270717
 10
102.1384683989446
 20
-138.3574462544731
 10
102.3648111723255
 20
-138.6664713195001
 97
        0
 97
        0
 75
     2
 76
     1
 98
        0
  0
SPLINE
  5
B9
330
B3
100
AcDbEntity
  8
_U+30EC_U+30A4_U+30E4_U+30FC 1
370
     0
100
AcDbSpline
210
0.0
220
0.0
230
1.0
 70
    11
 71
     3
 72
    53
 73
    49
 74
     0
 42
0.0000000001
 43
0.0000000001
 12
1.0
 22
0.0
 32
0.0
 13
1.0
 23
0.0
 33
0.0
 40
0.0
 40
0.0
 40
0.0
 40
0.0
 40
1.0
 40
1.0
 40
1.0
 40
2.0
 40
2.0
 40
2.0
 40
3.0
 40
3.0
 40
3.0
 40
4.0
 40
4.0
 40
4.0
 40
5.0
 40
5.0
 40
5.0
 40
6.0
 40
6.0
 40
6.0
 40
7.0
 40
7.0
 40
7.0
 40
8.0
 40
8.0
 40
8.0
 40
9.0
 40
9.0
 40
9.0
 40
10.0
 40
10.0
 40
10.0
 40
11.0
 40
11.0
 40
11.0
 40
12.0
 40
12.0
 40
12.0
 40
13.0
 40
13.0
 40
13.0
 40
14.0
 40
14.0
 40
14.0
 40
15.0
 40
15.0
 40
15.0
 40
16.0
 40
16.0
 40
16.0
 40
16.0
 10
102.9973307034173
 20
-137.6015923050093
 30
0.0
 10
102.9973307034173
 20
-137.6797959725245
 30
0.0
 10
102.9804497355396
 20
-137.7814262893394
 30
0.0
 10
102.9167154690625
 20
-137.8830566061542
 30
0.0
 10
102.806816923083
 20
-138.0563449090623
 30
0.0
 10
102.675558785095
 20
-138.0777045010709
 30
0.0
 10
102.5680718059552
 20
-138.0966525262397
 30
0.0
 10
102.5680718059552
 20
-138.0966525262397
 30
0.0
 10
102.5680718059552
 20
-137.8744438674411
 30
0.0
 10
102.5680718059552
 20
-137.8744438674411
 30
0.0
 10
102.7665093059056
 20
-137.8196668492257
 30
0.0
 10
102.7961371270788
 20
-137.6925428258199
 30
0.0
 10
102.7961371270788
 20
-137.5995252477182
 30
0.0
 10
102.7961371270788
 20
-137.4599988805656
 30
0.0
 10
102.6969183771036
 20
-137.3077256601175
 30
0.0
 10
102.4640299223007
 20
-137.3077256601175
 30
0.0
 10
102.2084038372951
 20
-137.3077256601175
 30
0.0
 10
102.1384683989446
 20
-137.4875596444476
 30
0.0
 10
102.1384683989446
 20
-137.6081379864313
 30
0.0
 10
102.1384683989446
 20
-137.6398328648956
 30
0.0
 10
102.1384683989446
 20
-137.7814262893394
 30
0.0
 10
102.2676594796414
 20
-137.8703097528588
 30
0.0
 10
102.2676594796414
 20
-137.8703097528588
 30
0.0
 10
102.248366944924
 20
-138.0460096226066
 30
0.0
 10
102.248366944924
 20
-138.0460096226066
 30
0.0
 10
102.248366944924
 20
-138.0460096226066
 30
0.0
 10
101.4022514937467
 20
-137.9254312806228
 30
0.0
 10
101.4022514937467
 20
-137.9254312806228
 30
0.0
 10
101.4022514937467
 20
-137.9254312806228
 30
0.0
 10
101.4022514937467
 20
-137.1468397009563
 30
0.0
 10
101.4022514937467
 20
-137.1468397009563
 30
0.0
 10
101.4022514937467
 20
-137.1468397009563
 30
0.0
 10
101.5968993886633
 20
-137.1468397009563
 30
0.0
 10
101.5968993886633
 20
-137.1468397009563
 30
0.0
 10
101.5968993886633
 20
-137.1468397009563
 30
0.0
 10
101.5968993886633
 20
-137.7624782641705
 30
0.0
 10
101.5968993886633
 20
-137.7624782641705
 30
0.0
 10
101.5968993886633
 20
-137.7624782641705
 30
0.0
 10
102.019957114252
 20
-137.8279350783903
 30
0.0
 10
102.019957114252
 20
-137.8279350783903
 30
0.0
 10
101.985850668948
 20
-137.7666123787528
 30
0.0
 10
101.9458875613191
 20
-137.6842745966553
 30
0.0
 10
101.9458875613191
 20
-137.5657633119627
 30
0.0
 10
101.9458875613191
 20
-137.3118597746998
 30
0.0
 10
102.1319227175226
 20
-137.0748372053146
 30
0.0
 10
102.4450818971318
 20
-137.0748372053146
 30
0.0
 10
102.7623751913233
 20
-137.0748372053146
 30
0.0
 10
102.9973307034173
 20
-137.2991129214044
 30
0.0
 10
102.9973307034173
 20
-137.6015923050093
 30
0.0
  0
HATCH
  5
BA
330
B3
100
AcDbEntity
  8
_U+30EC_U+30A4_U+30E4_U+30FC 1
 62
   179
420
  2234388
100
AcDbHatch
 10
0.0
 20
0.0
 30
0.0
210
0.0
220
0.0
230
1.0
  2
SOLID
 70
     1
 71
     0
 91
        1
 92
        1
 93
        1
 72
     4
 94
        3
 73
     0
 74
     1
 95
       53
 96
       49
 40
0.0
 40
0.0
 40
0.0
 40
0.0
 40
1.0
 40
1.0
 40
1.0
 40
2.0
 40
2.0
 40
2.0
 40
3.0
 40
3.0
 40
3.0
 40
4.0
 40
4.0
 40
4.0
 40
5.0
 40
5.0
 40
5.0
 40
6.0
 40
6.0
 40
6.0
 40
7.0
 40
7.0
 40
7.0
 40
8.0
 40
8.0
 40
8.0
 40
9.0
 40
9.0
 40
9.0
 40
10.0
 40
10.0
 40
10.0
 40
11.0
 40
11.0
 40
11.0
 40
12.0
 40
12.0
 40
12.0
 40
13.0
 40
13.0
 40
13.0
 40
14.0
 40
14.0
 40
14.0
 40
15.0
 40
15.0
 40
15.0
 40
16.0
 40
16.0
 40
16.0
 40
16.0
 10
102.9973307034173
 20
-137.6015923050093
 10
102.9973307034173
 20
-137.6797959725245
 10
102.9804497355396
 20
-137.7814262893394
 10
102.9167154690625
 20
-137.8830566061542
 10
102.806816923083
 20
-138.0563449090623
 10
102.675558785095
 20
-138.0777045010709
 10
102.5680718059552
 20
-138.0966525262397
 10
102.5680718059552
 20
-138.0966525262397
 10
102.5680718059552
 20
-137.8744438674411
 10
102.5680718059552
 20
-137.8744438674411
 10
102.7665093059056
 20
-137.8196668492257
 10
102.7961371270788
 20
-137.6925428258199
 10
102.7961371270788
 20
-137.5995252477182
 10
102.7961371270788
 20
-137.4599988805656
 10
102.6969183771036
 20
-137.3077256601175
 10
102.4640299223007
 20
-137.3077256601175
 10
102.2084038372951
 20
-137.3077256601175
 10
102.1384683989446
 20
-137.4875596444476
 10
102.1384683989446
 20
-137.6081379864313
 10
102.1384683989446
 20
-137.6398328648956
 10
102.1384683989446
 20
-137.7814262893394
 10
102.2676594796414
 20
-137.8703097528588
 10
102.2676594796414
 20
-137.8703097528588
 10
102.248366944924
 20
-138.0460096226066
 10
102.248366944924
 20
-138.0460096226066
 10
102.248366944924
 20
-138.0460096226066
 10
101.4022514937467
 20
-137.9254312806228
 10
101.4022514937467
 20
-137.9254312806228
 10
101.4022514937467
 20
-137.9254312806228
 10
101.4022514937467
 20
-137.1468397009563
 10
101.4022514937467
 20
-137.1468397009563
 10
101.4022514937467
 20
-137.1468397009563
 10
101.5968993886633
 20
-137.1468397009563
 10
101.5968993886633
 20
-137.1468397009563
 10
101.5968993886633
 20
-137.1468397009563
 10
101.5968993886633
 20
-137.7624782641705
 10
101.5968993886633
 20
-137.7624782641705
 10
101.5968993886633
 20
-137.7624782641705
 10
102.019957114252
 20
-137.8279350783903
 10
102.019957114252
 20
-137.8279350783903
 10
101.985850668948
 20
-137.7666123787528
 10
101.9458875613191
 20
-137.6842745966553
 10
101.9458875613191
 20
-137.5657633119627
 10
101.9458875613191
 20
-137.3118597746998
 10
102.1319227175226
 20
-137.0748372053146
 10
102.4450818971318
 20
-137.0748372053146
 10
102.7623751913233
 20
-137.0748372053146
 10
102.9973307034173
 20
-137.2991129214044
 10
102.9973307034173
 20
-137.6015923050093
 97
        0
 97
        0
 75
     2
 76
     1
 98
        0
  0
ENDBLK
  5
B6
330
B3
100
AcDbEntity
  8
0
100
AcDbBlockEnd
  0
BLOCK
  5
BD
330
BB
100
AcDbEntity
  8
0
100
AcDbBlockBegin
  2
block 6
 70
     0
 10
0.0
 20
0.0
 30
0.0
  3
block 6
  1

  0
POLYLINE
  5
BF
330
BB
100
AcDbEntity
  8
_U+30EC_U+30A4_U+30E4_U+30FC 1
370
     0
100
AcDb2dPolyline
 66
     1
 10
0.0
 20
0.0
 30
0.0
  0
VERTEX
  5
C0
330
BF
100
AcDbEntity
  8
_U+30EC_U+30A4_U+30E4_U+30FC 1
370
     0
100
AcDbVertex
100
AcDb2dVertex
 10
99.64800887265744
 20
-137.8007188240568
 30
0.0
  0
VERTEX
  5
C1
330
BF
100
AcDbEntity
  8
_U+30EC_U+30A4_U+30E4_U+30FC 1
370
     0
100
AcDbVertex
100
AcDb2dVertex
 10
99.99492998802211
 20
-137.8007188240568
 30
0.0
  0
VERTEX
  5
C2
330
BF
100
AcDbEntity
  8
_U+30EC_U+30A4_U+30E4_U+30FC 1
370
     0
100
AcDbVertex
100
AcDb2dVertex
 10
99.99492998802211
 20
-138.0184488587246
 30
0.0
  0
VERTEX
  5
C3
330
BF
100
AcDbEntity
  8
_U+30EC_U+30A4_U+30E4_U+30FC 1
370
     0
100
AcDbVertex
100
AcDb2dVertex
 10
99.64800887265744
 20
-138.0184488587246
 30
0.0
  0
VERTEX
  5
C4
330
BF
100
AcDbEntity
  8
_U+30EC_U+30A4_U+30E4_U+30FC 1
370
     0
100
AcDbVertex
100
AcDb2dVertex
 10
99.64800887265744
 20
-138.6743950391161
 30
0.0
  0
VERTEX
  5
C5
330
BF
100
AcDbEntity
  8
_U+30EC_U+30A4_U+30E4_U+30FC 1
370
     0
100
AcDbVertex
100
AcDb2dVertex
 10
99.42373315656768
 20
-138.6743950391161
 30
0.0
  0
VERTEX
  5
C6
330
BF
100
AcDbEntity
  8
_U+30EC_U+30A4_U+30E4_U+30FC 1
370
     0
100
AcDbVertex
100
AcDb2dVertex
 10
98.45083819153312
 20
-137.9953667189734
 30
0.0
  0
VERTEX
  5
C7
330
BF
100
AcDbEntity
  8
_U+30EC_U+30A4_U+30E4_U+30FC 1
370
     0
100
AcDbVertex
100
AcDb2dVertex
 10
98.45083819153312
 20
-137.8007188240568
 30
0.0
  0
VERTEX
  5
C8
330
BF
100
AcDbEntity
  8
_U+30EC_U+30A4_U+30E4_U+30FC 1
370
     0
100
AcDbVertex
100
AcDb2dVertex
 10
99.44922686315853
 20
-137.8007188240568
 30
0.0
  0
VERTEX
  5
C9
330
BF
100
AcDbEntity
  8
_U+30EC_U+30A4_U+30E4_U+30FC 1
370
     0
100
AcDbVertex
100
AcDb2dVertex
 10
99.44922686315853
 20
-137.5933240758447
 30
0.0
  0
VERTEX
  5
CA
330
BF
100
AcDbEntity
  8
_U+30EC_U+30A4_U+30E4_U+30FC 1
370
     0
100
AcDbVertex
100
AcDb2dVertex
 10
99.64800887265744
 20
-137.5933240758447
 30
0.0
  0
VERTEX
  5
CB
330
BF
100
AcDbEntity
  8
_U+30EC_U+30A4_U+30E4_U+30FC 1
370
     0
100
AcDbVertex
100
AcDb2dVertex
 10
99.64800887265744
 20
-137.8007188240568
 30
0.0
  0
SEQEND
  5
CC
330
BF
100
AcDbEntity
  8
_U+30EC_U+30A4_U+30E4_U+30FC 1
370
     0
  0
POLYLINE
  5
CD
330
BB
100
AcDbEntity
  8
_U+30EC_U+30A4_U+30E4_U+30FC 1
370
     0
100
AcDb2dPolyline
 66
     1
 10
0.0
 20
0.0
 30
0.0
  0
VERTEX
  5
CE
330
CD
100
AcDbEntity
  8
_U+30EC_U+30A4_U+30E4_U+30FC 1
370
     0
100
AcDbVertex
100
AcDb2dVertex
 10
98.79328068276696
 20
-138.0184488587246
 30
0.0
  0
VERTEX
  5
CF
330
CD
100
AcDbEntity
  8
_U+30EC_U+30A4_U+30E4_U+30FC 1
370
     0
100
AcDbVertex
100
AcDb2dVertex
 10
99.44922686315853
 20
-138.4756130296172
 30
0.0
  0
VERTEX
  5
D0
330
CD
100
AcDbEntity
  8
_U+30EC_U+30A4_U+30E4_U+30FC 1
370
     0
100
AcDbVertex
100
AcDb2dVertex
 10
99.44922686315853
 20
-138.0184488587246
 30
0.0
  0
VERTEX
  5
D1
330
CD
100
AcDbEntity
  8
_U+30EC_U+30A4_U+30E4_U+30FC 1
370
     0
100
AcDbVertex
100
AcDb2dVertex
 10
98.79328068276696
 20
-138.0184488587246
 30
0.0
  0
SEQEND
  5
D2
330
CD
100
AcDbEntity
  8
_U+30EC_U+30A4_U+30E4_U+30FC 1
370
     0
  0
HATCH
  5
D3
330
BB
100
AcDbEntity
  8
_U+30EC_U+30A4_U+30E4_U+30FC 1
 62
   179
420
  2234388
100
AcDbHatch
 10
0.0
 20
0.0
 30
0.0
210
0.0
220
0.0
230
1.0
  2
SOLID
 70
     1
 71
     0
 91
        2
 92
        1
 93
       11
 72
     1
 10
99.64800887265744
 20
-137.8007188240568
 11
99.99492998802211
 21
-137.8007188240568
 72
     1
 10
99.99492998802211
 20
-137.8007188240568
 11
99.99492998802211
 21
-138.0184488587246
 72
     1
 10
99.99492998802211
 20
-138.0184488587246
 11
99.64800887265744
 21
-138.0184488587246
 72
     1
 10
99.64800887265744
 20
-138.0184488587246
 11
99.64800887265744
 21
-138.6743950391161
 72
     1
 10
99.64800887265744
 20
-138.6743950391161
 11
99.42373315656768
 21
-138.6743950391161
 72
     1
 10
99.42373315656768
 20
-138.6743950391161
 11
98.45083819153312
 21
-137.9953667189734
 72
     1
 10
98.45083819153312
 20
-137.9953667189734
 11
98.45083819153312
 21
-137.8007188240568
 72
     1
 10
98.45083819153312
 20
-137.8007188240568
 11
99.44922686315853
 21
-137.8007188240568
 72
     1
 10
99.44922686315853
 20
-137.8007188240568
 11
99.44922686315853
 21
-137.5933240758447
 72
     1
 10
99.44922686315853
 20
-137.5933240758447
 11
99.64800887265744
 21
-137.5933240758447
 72
     1
 10
99.64800887265744
 20
-137.5933240758447
 11
99.64800887265744
 21
-137.8007188240568
 97
        0
 92
        1
 93
        3
 72
     1
 10
98.79328068276696
 20
-138.0184488587246
 11
99.44922686315853
 21
-138.4756130296172
 72
     1
 10
99.44922686315853
 20
-138.4756130296172
 11
99.44922686315853
 21
-138.0184488587246
 72
     1
 10
99.44922686315853
 20
-138.0184488587246
 11
98.79328068276696
 21
-138.0184488587246
 97
        0
 75
     2
 76
     1
 98
        0
  0
POLYLINE
  5
D4
330
BB
100
AcDbEntity
  8
_U+30EC_U+30A4_U+30E4_U+30FC 1
370
     0
100
AcDb2dPolyline
 66
     1
 10
0.0
 20
0.0
 30
0.0
  0
VERTEX
  5
D5
330
D4
100
AcDbEntity
  8
_U+30EC_U+30A4_U+30E4_U+30FC 1
370
     0
100
AcDbVertex
100
AcDb2dVertex
 10
99.99492998802211
 20
-137.3959201045399
 30
0.0
  0
VERTEX
  5
D6
330
D4
100
AcDbEntity
  8
_U+30EC_U+30A4_U+30E4_U+30FC 1
370
     0
100
AcDbVertex
100
AcDb2dVertex
 10
99.74343801759886
 20
-137.3959201045399
 30
0.0
  0
VERTEX
  5
D7
330
D4
100
AcDbEntity
  8
_U+30EC_U+30A4_U+30E4_U+30FC 1
370
     0
100
AcDbVertex
100
AcDb2dVertex
 10
99.74343801759886
 20
-137.1440836245681
 30
0.0
  0
VERTEX
  5
D8
330
D4
100
AcDbEntity
  8
_U+30EC_U+30A4_U+30E4_U+30FC 1
370
     0
100
AcDbVertex
100
AcDb2dVertex
 10
99.99492998802211
 20
-137.1440836245681
 30
0.0
  0
VERTEX
  5
D9
330
D4
100
AcDbEntity
  8
_U+30EC_U+30A4_U+30E4_U+30FC 1
370
     0
100
AcDbVertex
100
AcDb2dVertex
 10
99.99492998802211
 20
-137.3959201045399
 30
0.0
  0
SEQEND
  5
DA
330
D4
100
AcDbEntity
  8
_U+30EC_U+30A4_U+30E4_U+30FC 1
370
     0
  0
HATCH
  5
DB
330
BB
100
AcDbEntity
  8
_U+30EC_U+30A4_U+30E4_U+30FC 1
 62
   179
420
  2234388
100
AcDbHatch
 10
0.0
 20
0.0
 30
0.0
210
0.0
220
0.0
230
1.0
  2
SOLID
 70
     1
 71
     0
 91
        1
 92
        1
 93
        4
 72
     1
 10
99.99492998802211
 20
-137.3959201045399
 11
99.74343801759886
 21
-137.3959201045399
 72
     1
 10
99.74343801759886
 20
-137.3959201045399
 11
99.74343801759886
 21
-137.1440836245681
 72
     1
 10
99.74343801759886
 20
-137.1440836245681
 11
99.99492998802211
 21
-137.1440836245681
 72
     1
 10
99.99492998802211
 20
-137.1440836245681
 11
99.99492998802211
 21
-137.3959201045399
 97
        0
 75
     2
 76
     1
 98
        0
  0
SPLINE
  5
DC
330
BB
100
AcDbEntity
  8
_U+30EC_U+30A4_U+30E4_U+30FC 1
370
     0
100
AcDbSpline
210
0.0
220
0.0
230
1.0
 70
    11
 71
     3
 72
    26
 73
    22
 74
     0
 42
0.0000000001
 43
0.0000000001
 12
1.0
 22
0.0
 32
0.0
 13
1.0
 23
0.0
 33
0.0
 40
0.0
 40
0.0
 40
0.0
 40
0.0
 40
1.0
 40
1.0
 40
1.0
 40
2.0
 40
2.0
 40
2.0
 40
3.0
 40
3.0
 40
3.0
 40
4.0
 40
4.0
 40
4.0
 40
5.0
 40
5.0
 40
5.0
 40
6.0
 40
6.0
 40
6.0
 40
7.0
 40
7.0
 40
7.0
 40
7.0
 10
99.99492998802211
 20
-136.4967501828897
 30
0.0
 10
99.99492998802211
 20
-136.4967501828897
 30
0.0
 10
99.99492998802211
 20
-136.7337727522749
 30
0.0
 10
99.99492998802211
 20
-136.7337727522749
 30
0.0
 10
99.68624943254372
 20
-136.708279045684
 30
0.0
 10
99.16776256201362
 20
-136.5156982080586
 30
0.0
 10
98.66236705432746
 20
-136.1095214503476
 30
0.0
 10
98.66236705432746
 20
-136.1095214503476
 30
0.0
 10
98.66236705432746
 20
-136.9473686723604
 30
0.0
 10
98.66236705432746
 20
-136.9473686723604
 30
0.0
 10
98.66236705432746
 20
-136.9473686723604
 30
0.0
 10
98.45083819153312
 20
-136.9473686723604
 30
0.0
 10
98.45083819153312
 20
-136.9473686723604
 30
0.0
 10
98.45083819153312
 20
-136.9473686723604
 30
0.0
 10
98.45083819153312
 20
-135.8724988809624
 30
0.0
 10
98.45083819153312
 20
-135.8724988809624
 30
0.0
 10
98.45083819153312
 20
-135.8724988809624
 30
0.0
 10
98.66236705432746
 20
-135.8724988809624
 30
0.0
 10
98.66236705432746
 20
-135.8724988809624
 30
0.0
 10
98.95209958463698
 20
-136.1963378565759
 30
0.0
 10
99.54431149855142
 20
-136.4629882471343
 30
0.0
 10
99.99492998802211
 20
-136.4967501828897
 30
0.0
  0
HATCH
  5
DD
330
BB
100
AcDbEntity
  8
_U+30EC_U+30A4_U+30E4_U+30FC 1
 62
   179
420
  2234388
100
AcDbHatch
 10
0.0
 20
0.0
 30
0.0
210
0.0
220
0.0
230
1.0
  2
SOLID
 70
     1
 71
     0
 91
        1
 92
        1
 93
        1
 72
     4
 94
        3
 73
     0
 74
     1
 95
       26
 96
       22
 40
0.0
 40
0.0
 40
0.0
 40
0.0
 40
1.0
 40
1.0
 40
1.0
 40
2.0
 40
2.0
 40
2.0
 40
3.0
 40
3.0
 40
3.0
 40
4.0
 40
4.0
 40
4.0
 40
5.0
 40
5.0
 40
5.0
 40
6.0
 40
6.0
 40
6.0
 40
7.0
 40
7.0
 40
7.0
 40
7.0
 10
99.99492998802211
 20
-136.4967501828897
 10
99.99492998802211
 20
-136.4967501828897
 10
99.99492998802211
 20
-136.7337727522749
 10
99.99492998802211
 20
-136.7337727522749
 10
99.68624943254372
 20
-136.708279045684
 10
99.16776256201362
 20
-136.5156982080586
 10
98.66236705432746
 20
-136.1095214503476
 10
98.66236705432746
 20
-136.1095214503476
 10
98.66236705432746
 20
-136.9473686723604
 10
98.66236705432746
 20
-136.9473686723604
 10
98.66236705432746
 20
-136.9473686723604
 10
98.45083819153312
 20
-136.9473686723604
 10
98.45083819153312
 20
-136.9473686723604
 10
98.45083819153312
 20
-136.9473686723604
 10
98.45083819153312
 20
-135.8724988809624
 10
98.45083819153312
 20
-135.8724988809624
 10
98.45083819153312
 20
-135.8724988809624
 10
98.66236705432746
 20
-135.8724988809624
 10
98.66236705432746
 20
-135.8724988809624
 10
98.95209958463698
 20
-136.1963378565759
 10
99.54431149855142
 20
-136.4629882471343
 10
99.99492998802211
 20
-136.4967501828897
 97
        0
 97
        0
 75
     2
 76
     1
 98
        0
  0
ENDBLK
  5
BE
330
BB
100
AcDbEntity
  8
0
100
AcDbBlockEnd
  0
BLOCK
  5
E0
330
DE
100
AcDbEntity
  8
0
100
AcDbBlockBegin
  2
block 7
 70
     0
 10
0.0
 20
0.0
 30
0.0
  3
block 7
  1

  0
SPLINE
  5
E2
330
DE
100
AcDbEntity
  8
_U+30EC_U+30A4_U+30E4_U+30FC 1
370
     0
100
AcDbSpline
210
0.0
220
0.0
230
1.0
 70
    11
 71
     3
 72
    44
 73
    40
 74
     0
 42
0.0000000001
 43
0.0000000001
 12
1.0
 22
0.0
 32
0.0
 13
1.0
 23
0.0
 33
0.0
 40
0.0
 40
0.0
 40
0.0
 40
0.0
 40
1.0
 40
1.0
 40
1.0
 40
2.0
 40
2.0
 40
2.0
 40
3.0
 40
3.0
 40
3.0
 40
4.0
 40
4.0
 40
4.0
 40
5.0
 40
5.0
 40
5.0
 40
6.0
 40
6.0
 40
6.0
 40
7.0
 40
7.0
 40
7.0
 40
8.0
 40
8.0
 40
8.0
 40
9.0
 40
9.0
 40
9.0
 40
10.0
 40
10.0
 40
10.0
 40
11.0
 40
11.0
 40
11.0
 40
12.0
 40
12.0
 40
12.0
 40
13.0
 40
13.0
 40
13.0
 40
13.0
 10
91.44454750318053
 20
-145.7737033055705
 30
0.0
 10
91.226989723287
 20
-145.932177697892
 30
0.0
 10
91.13397214518527
 20
-146.0062472508248
 30
0.0
 10
91.08505178929471
 20
-146.1499077325597
 30
0.0
 10
91.08505178929471
 20
-146.1499077325597
 30
0.0
 10
91.86347111418691
 20
-146.1499077325597
 30
0.0
 10
91.86347111418691
 20
-146.1499077325597
 30
0.0
 10
91.86347111418691
 20
-146.1499077325597
 30
0.0
 10
91.86347111418691
 20
-146.3552354234807
 30
0.0
 10
91.86347111418691
 20
-146.3552354234807
 30
0.0
 10
91.86347111418691
 20
-146.3552354234807
 30
0.0
 10
90.83562687616262
 20
-146.3552354234807
 30
0.0
 10
90.83562687616262
 20
-146.3552354234807
 30
0.0
 10
90.86732175462693
 20
-145.9976345121117
 30
0.0
 10
90.93277856884667
 20
-145.9194308445965
 30
0.0
 10
91.3179402440976
 20
-145.6210855755739
 30
0.0
 10
91.57408309342593
 20
-145.422303566075
 30
0.0
 10
91.63953990764567
 20
-145.3547796945641
 30
0.0
 10
91.63953990764567
 20
-145.2173203847026
 30
0.0
 10
91.63953990764567
 20
-145.09880910001
 30
0.0
 10
91.56719290245543
 20
-144.967550962022
 30
0.0
 10
91.37082245979619
 20
-144.967550962022
 30
0.0
 10
91.11054549588556
 20
-144.967550962022
 30
0.0
 10
91.10193275717243
 20
-145.1980278499852
 30
0.0
 10
91.09779864259013
 20
-145.3144720773867
 30
0.0
 10
91.09779864259013
 20
-145.3144720773867
 30
0.0
 10
90.87352292650037
 20
-145.3144720773867
 30
0.0
 10
90.87352292650037
 20
-145.3144720773867
 30
0.0
 10
90.8821356652135
 20
-145.1876925635295
 30
0.0
 10
90.89281546121778
 20
-145.0753824507103
 30
0.0
 10
90.97308618602409
 20
-144.9568711660177
 30
0.0
 10
91.08298473200357
 20
-144.7963297164051
 30
0.0
 10
91.26936439775558
 20
-144.7622232711011
 30
0.0
 10
91.38529186083424
 20
-144.7622232711011
 30
0.0
 10
91.66296655694538
 20
-144.7622232711011
 30
0.0
 10
91.87036130515742
 20
-144.946535879562
 30
0.0
 10
91.87036130515742
 20
-145.2193874419938
 30
0.0
 10
91.87036130515742
 20
-145.4477972726658
 30
0.0
 10
91.75391707775597
 20
-145.5473605321895
 30
0.0
 10
91.44454750318053
 20
-145.7737033055705
 30
0.0
  0
HATCH
  5
E3
330
DE
100
AcDbEntity
  8
_U+30EC_U+30A4_U+30E4_U+30FC 1
 62
   179
420
  2234388
100
AcDbHatch
 10
0.0
 20
0.0
 30
0.0
210
0.0
220
0.0
230
1.0
  2
SOLID
 70
     1
 71
     0
 91
        1
 92
        1
 93
        1
 72
     4
 94
        3
 73
     0
 74
     1
 95
       44
 96
       40
 40
0.0
 40
0.0
 40
0.0
 40
0.0
 40
1.0
 40
1.0
 40
1.0
 40
2.0
 40
2.0
 40
2.0
 40
3.0
 40
3.0
 40
3.0
 40
4.0
 40
4.0
 40
4.0
 40
5.0
 40
5.0
 40
5.0
 40
6.0
 40
6.0
 40
6.0
 40
7.0
 40
7.0
 40
7.0
 40
8.0
 40
8.0
 40
8.0
 40
9.0
 40
9.0
 40
9.0
 40
10.0
 40
10.0
 40
10.0
 40
11.0
 40
11.0
 40
11.0
 40
12.0
 40
12.0
 40
12.0
 40
13.0
 40
13.0
 40
13.0
 40
13.0
 10
91.44454750318053
 20
-145.7737033055705
 10
91.226989723287
 20
-145.932177697892
 10
91.13397214518527
 20
-146.0062472508248
 10
91.08505178929471
 20
-146.1499077325597
 10
91.08505178929471
 20
-146.1499077325597
 10
91.86347111418691
 20
-146.1499077325597
 10
91.86347111418691
 20
-146.1499077325597
 10
91.86347111418691
 20
-146.1499077325597
 10
91.86347111418691
 20
-146.3552354234807
 10
91.86347111418691
 20
-146.3552354234807
 10
91.86347111418691
 20
-146.3552354234807
 10
90.83562687616262
 20
-146.3552354234807
 10
90.83562687616262
 20
-146.3552354234807
 10
90.86732175462693
 20
-145.9976345121117
 10
90.93277856884667
 20
-145.9194308445965
 10
91.3179402440976
 20
-145.6210855755739
 10
91.57408309342593
 20
-145.422303566075
 10
91.63953990764567
 20
-145.3547796945641
 10
91.63953990764567
 20
-145.2173203847026
 10
91.63953990764567
 20
-145.09880910001
 10
91.56719290245543
 20
-144.967550962022
 10
91.37082245979619
 20
-144.967550962022
 10
91.11054549588556
 20
-144.967550962022
 10
91.10193275717243
 20
-145.1980278499852
 10
91.09779864259013
 20
-145.3144720773867
 10
91.09779864259013
 20
-145.3144720773867
 10
90.87352292650037
 20
-145.3144720773867
 10
90.87352292650037
 20
-145.3144720773867
 10
90.8821356652135
 20
-145.1876925635295
 10
90.89281546121778
 20
-145.0753824507103
 10
90.97308618602409
 20
-144.9568711660177
 10
91.08298473200357
 20
-144.7963297164051
 10
91.26936439775558
 20
-144.7622232711011
 10
91.38529186083424
 20
-144.7622232711011
 10
91.66296655694538
 20
-144.7622232711011
 10
91.87036130515742
 20
-144.946535879562
 10
91.87036130515742
 20
-145.2193874419938
 10
91.87036130515742
 20
-145.4477972726658
 10
91.75391707775597
 20
-145.5473605321895
 10
91.44454750318053
 20
-145.7737033055705
 97
        0
 97
        0
 75
     2
 76
     1
 98
        0
  0
SPLINE
  5
E4
330
DE
100
AcDbEntity
  8
_U+30EC_U+30A4_U+30E4_U+30FC 1
370
     0
100
AcDbSpline
210
0.0
220
0.0
230
1.0
 70
    11
 71
     3
 72
    26
 73
    22
 74
     0
 42
0.0000000001
 43
0.0000000001
 12
1.0
 22
0.0
 32
0.0
 13
1.0
 23
0.0
 33
0.0
 40
0.0
 40
0.0
 40
0.0
 40
0.0
 40
1.0
 40
1.0
 40
1.0
 40
2.0
 40
2.0
 40
2.0
 40
3.0
 40
3.0
 40
3.0
 40
4.0
 40
4.0
 40
4.0
 40
5.0
 40
5.0
 40
5.0
 40
6.0
 40
6.0
 40
6.0
 40
7.0
 40
7.0
 40
7.0
 40
7.0
 10
92.43949107932069
 20
-146.3552354234807
 30
0.0
 10
92.43949107932069
 20
-146.3552354234807
 30
0.0
 10
92.2024685099355
 20
-146.3552354234807
 30
0.0
 10
92.2024685099355
 20
-146.3552354234807
 30
0.0
 10
92.22796221652635
 20
-146.0462103584537
 30
0.0
 10
92.42088756370033
 20
-145.5280679974722
 30
0.0
 10
92.82671981186277
 20
-145.022672489786
 30
0.0
 10
92.82671981186277
 20
-145.022672489786
 30
0.0
 10
91.98887258985
 20
-145.022672489786
 30
0.0
 10
91.98887258985
 20
-145.022672489786
 30
0.0
 10
91.98887258985
 20
-145.022672489786
 30
0.0
 10
91.98887258985
 20
-144.8111436269917
 30
0.0
 10
91.98887258985
 20
-144.8111436269917
 30
0.0
 10
91.98887258985
 20
-144.8111436269917
 30
0.0
 10
93.06374238124796
 20
-144.8111436269917
 30
0.0
 10
93.06374238124796
 20
-144.8111436269917
 30
0.0
 10
93.06374238124796
 20
-144.8111436269917
 30
0.0
 10
93.06374238124796
 20
-145.022672489786
 30
0.0
 10
93.06374238124796
 20
-145.022672489786
 30
0.0
 10
92.73990340563448
 20
-145.3124050200955
 30
0.0
 10
92.47325301507614
 20
-145.90461693401
 30
0.0
 10
92.43949107932069
 20
-146.3552354234807
 30
0.0
  0
HATCH
  5
E5
330
DE
100
AcDbEntity
  8
_U+30EC_U+30A4_U+30E4_U+30FC 1
 62
   179
420
  2234388
100
AcDbHatch
 10
0.0
 20
0.0
 30
0.0
210
0.0
220
0.0
230
1.0
  2
SOLID
 70
     1
 71
     0
 91
        1
 92
        1
 93
        1
 72
     4
 94
        3
 73
     0
 74
     1
 95
       26
 96
       22
 40
0.0
 40
0.0
 40
0.0
 40
0.0
 40
1.0
 40
1.0
 40
1.0
 40
2.0
 40
2.0
 40
2.0
 40
3.0
 40
3.0
 40
3.0
 40
4.0
 40
4.0
 40
4.0
 40
5.0
 40
5.0
 40
5.0
 40
6.0
 40
6.0
 40
6.0
 40
7.0
 40
7.0
 40
7.0
 40
7.0
 10
92.43949107932069
 20
-146.3552354234807
 10
92.43949107932069
 20
-146.3552354234807
 10
92.2024685099355
 20
-146.3552354234807
 10
92.2024685099355
 20
-146.3552354234807
 10
92.22796221652635
 20
-146.0462103584537
 10
92.42088756370033
 20
-145.5280679974722
 10
92.82671981186277
 20
-145.022672489786
 10
92.82671981186277
 20
-145.022672489786
 10
91.98887258985
 20
-145.022672489786
 10
91.98887258985
 20
-145.022672489786
 10
91.98887258985
 20
-145.022672489786
 10
91.98887258985
 20
-144.8111436269917
 10
91.98887258985
 20
-144.8111436269917
 10
91.98887258985
 20
-144.8111436269917
 10
93.06374238124796
 20
-144.8111436269917
 10
93.06374238124796
 20
-144.8111436269917
 10
93.06374238124796
 20
-144.8111436269917
 10
93.06374238124796
 20
-145.022672489786
 10
93.06374238124796
 20
-145.022672489786
 10
92.73990340563448
 20
-145.3124050200955
 10
92.47325301507614
 20
-145.90461693401
 10
92.43949107932069
 20
-146.3552354234807
 97
        0
 97
        0
 75
     2
 76
     1
 98
        0
  0
ENDBLK
  5
E1
330
DE
100
AcDbEntity
  8
0
100
AcDbBlockEnd
  0
BLOCK
  5
152
330
150
100
AcDbEntity
  8
0
100
AcDbBlockBegin
  2
block 8
 70
     0
 10
0.0
 20
0.0
 30
0.0
  3
block 8
  1

  0
SPLINE
  5
154
330
150
100
AcDbEntity
  8
_U+30EC_U+30A4_U+30E4_U+30FC 1
370
     0
100
AcDbSpline
210
0.0
220
0.0
230
1.0
 70
    11
 71
     3
 72
    26
 73
    22
 74
     0
 42
0.0000000001
 43
0.0000000001
 12
1.0
 22
0.0
 32
0.0
 13
1.0
 23
0.0
 33
0.0
 40
0.0
 40
0.0
 40
0.0
 40
0.0
 40
1.0
 40
1.0
 40
1.0
 40
2.0
 40
2.0
 40
2.0
 40
3.0
 40
3.0
 40
3.0
 40
4.0
 40
4.0
 40
4.0
 40
5.0
 40
5.0
 40
5.0
 40
6.0
 40
6.0
 40
6.0
 40
7.0
 40
7.0
 40
7.0
 40
7.0
 10
82.49074433701621
 20
-138.9996120529237
 30
0.0
 10
82.49074433701621
 20
-138.9996120529237
 30
0.0
 10
81.38641897921937
 20
-138.9996120529237
 30
0.0
 10
81.38641897921937
 20
-138.9996120529237
 30
0.0
 10
81.38641897921937
 20
-138.9996120529237
 30
0.0
 10
81.38641897921937
 20
-139.3296522004106
 30
0.0
 10
81.38641897921937
 20
-139.3296522004106
 30
0.0
 10
81.38641897921937
 20
-139.3296522004106
 30
0.0
 10
81.23827987335363
 20
-139.3296522004106
 30
0.0
 10
81.23827987335363
 20
-139.3296522004106
 30
0.0
 10
81.22363821754132
 20
-138.9975449956326
 30
0.0
 10
81.060685201089
 20
-138.9510362065817
 30
0.0
 10
80.94648028575297
 20
-138.9214083854085
 30
0.0
 10
80.94648028575297
 20
-138.9214083854085
 30
0.0
 10
80.94648028575297
 20
-138.775336336834
 30
0.0
 10
80.94648028575297
 20
-138.775336336834
 30
0.0
 10
80.94648028575297
 20
-138.775336336834
 30
0.0
 10
82.49074433701621
 20
-138.775336336834
 30
0.0
 10
82.49074433701621
 20
-138.775336336834
 30
0.0
 10
82.49074433701621
 20
-138.775336336834
 30
0.0
 10
82.49074433701621
 20
-138.9996120529237
 30
0.0
 10
82.49074433701621
 20
-138.9996120529237
 30
0.0
  0
HATCH
  5
155
330
150
100
AcDbEntity
  8
_U+30EC_U+30A4_U+30E4_U+30FC 1
 62
   179
420
  2234388
100
AcDbHatch
 10
0.0
 20
0.0
 30
0.0
210
0.0
220
0.0
230
1.0
  2
SOLID
 70
     1
 71
     0
 91
        1
 92
        1
 93
        1
 72
     4
 94
        3
 73
     0
 74
     1
 95
       26
 96
       22
 40
0.0
 40
0.0
 40
0.0
 40
0.0
 40
1.0
 40
1.0
 40
1.0
 40
2.0
 40
2.0
 40
2.0
 40
3.0
 40
3.0
 40
3.0
 40
4.0
 40
4.0
 40
4.0
 40
5.0
 40
5.0
 40
5.0
 40
6.0
 40
6.0
 40
6.0
 40
7.0
 40
7.0
 40
7.0
 40
7.0
 10
82.49074433701621
 20
-138.9996120529237
 10
82.49074433701621
 20
-138.9996120529237
 10
81.38641897921937
 20
-138.9996120529237
 10
81.38641897921937
 20
-138.9996120529237
 10
81.38641897921937
 20
-138.9996120529237
 10
81.38641897921937
 20
-139.3296522004106
 10
81.38641897921937
 20
-139.3296522004106
 10
81.38641897921937
 20
-139.3296522004106
 10
81.23827987335363
 20
-139.3296522004106
 10
81.23827987335363
 20
-139.3296522004106
 10
81.22363821754132
 20
-138.9975449956326
 10
81.060685201089
 20
-138.9510362065817
 10
80.94648028575297
 20
-138.9214083854085
 10
80.94648028575297
 20
-138.9214083854085
 10
80.94648028575297
 20
-138.775336336834
 10
80.94648028575297
 20
-138.775336336834
 10
80.94648028575297
 20
-138.775336336834
 10
82.49074433701621
 20
-138.775336336834
 10
82.49074433701621
 20
-138.775336336834
 10
82.49074433701621
 20
-138.775336336834
 10
82.49074433701621
 20
-138.9996120529237
 10
82.49074433701621
 20
-138.9996120529237
 97
        0
 97
        0
 75
     2
 76
     1
 98
        0
  0
POLYLINE
  5
156
330
150
100
AcDbEntity
  8
_U+30EC_U+30A4_U+30E4_U+30FC 1
370
     0
100
AcDb2dPolyline
 66
     1
 10
0.0
 20
0.0
 30
0.0
  0
VERTEX
  5
157
330
156
100
AcDbEntity
  8
_U+30EC_U+30A4_U+30E4_U+30FC 1
370
     0
100
AcDbVertex
100
AcDb2dVertex
 10
82.14382322165154
 20
-137.4420843840423
 30
0.0
  0
VERTEX
  5
158
330
156
100
AcDbEntity
  8
_U+30EC_U+30A4_U+30E4_U+30FC 1
370
     0
100
AcDbVertex
100
AcDb2dVertex
 10
82.49074433701621
 20
-137.4420843840423
 30
0.0
  0
VERTEX
  5
159
330
156
100
AcDbEntity
  8
_U+30EC_U+30A4_U+30E4_U+30FC 1
370
     0
100
AcDbVertex
100
AcDb2dVertex
 10
82.49074433701621
 20
-137.6598144187101
 30
0.0
  0
VERTEX
  5
15A
330
156
100
AcDbEntity
  8
_U+30EC_U+30A4_U+30E4_U+30FC 1
370
     0
100
AcDbVertex
100
AcDb2dVertex
 10
82.14382322165154
 20
-137.6598144187101
 30
0.0
  0
VERTEX
  5
15B
330
156
100
AcDbEntity
  8
_U+30EC_U+30A4_U+30E4_U+30FC 1
370
     0
100
AcDbVertex
100
AcDb2dVertex
 10
82.14382322165154
 20
-138.3157605991016
 30
0.0
  0
VERTEX
  5
15C
330
156
100
AcDbEntity
  8
_U+30EC_U+30A4_U+30E4_U+30FC 1
370
     0
100
AcDbVertex
100
AcDb2dVertex
 10
81.91954750556178
 20
-138.3157605991016
 30
0.0
  0
VERTEX
  5
15D
330
156
100
AcDbEntity
  8
_U+30EC_U+30A4_U+30E4_U+30FC 1
370
     0
100
AcDbVertex
100
AcDb2dVertex
 10
80.94648028575297
 20
-137.6367322789589
 30
0.0
  0
VERTEX
  5
15E
330
156
100
AcDbEntity
  8
_U+30EC_U+30A4_U+30E4_U+30FC 1
370
     0
100
AcDbVertex
100
AcDb2dVertex
 10
80.94648028575297
 20
-137.4420843840423
 30
0.0
  0
VERTEX
  5
15F
330
156
100
AcDbEntity
  8
_U+30EC_U+30A4_U+30E4_U+30FC 1
370
     0
100
AcDbVertex
100
AcDb2dVertex
 10
81.94486895737838
 20
-137.4420843840423
 30
0.0
  0
VERTEX
  5
160
330
156
100
AcDbEntity
  8
_U+30EC_U+30A4_U+30E4_U+30FC 1
370
     0
100
AcDbVertex
100
AcDb2dVertex
 10
81.94486895737838
 20
-137.2346896358302
 30
0.0
  0
VERTEX
  5
161
330
156
100
AcDbEntity
  8
_U+30EC_U+30A4_U+30E4_U+30FC 1
370
     0
100
AcDbVertex
100
AcDb2dVertex
 10
82.14382322165154
 20
-137.2346896358302
 30
0.0
  0
VERTEX
  5
162
330
156
100
AcDbEntity
  8
_U+30EC_U+30A4_U+30E4_U+30FC 1
370
     0
100
AcDbVertex
100
AcDb2dVertex
 10
82.14382322165154
 20
-137.4420843840423
 30
0.0
  0
SEQEND
  5
163
330
156
100
AcDbEntity
  8
_U+30EC_U+30A4_U+30E4_U+30FC 1
370
     0
  0
POLYLINE
  5
164
330
150
100
AcDbEntity
  8
_U+30EC_U+30A4_U+30E4_U+30FC 1
370
     0
100
AcDb2dPolyline
 66
     1
 10
0.0
 20
0.0
 30
0.0
  0
VERTEX
  5
165
330
164
100
AcDbEntity
  8
_U+30EC_U+30A4_U+30E4_U+30FC 1
370
     0
100
AcDbVertex
100
AcDb2dVertex
 10
81.28909503176106
 20
-137.6598144187101
 30
0.0
  0
VERTEX
  5
166
330
164
100
AcDbEntity
  8
_U+30EC_U+30A4_U+30E4_U+30FC 1
370
     0
100
AcDbVertex
100
AcDb2dVertex
 10
81.94486895737838
 20
-138.1169785896027
 30
0.0
  0
VERTEX
  5
167
330
164
100
AcDbEntity
  8
_U+30EC_U+30A4_U+30E4_U+30FC 1
370
     0
100
AcDbVertex
100
AcDb2dVertex
 10
81.94486895737838
 20
-137.6598144187101
 30
0.0
  0
VERTEX
  5
168
330
164
100
AcDbEntity
  8
_U+30EC_U+30A4_U+30E4_U+30FC 1
370
     0
100
AcDbVertex
100
AcDb2dVertex
 10
81.28909503176106
 20
-137.6598144187101
 30
0.0
  0
SEQEND
  5
169
330
164
100
AcDbEntity
  8
_U+30EC_U+30A4_U+30E4_U+30FC 1
370
     0
  0
HATCH
  5
16A
330
150
100
AcDbEntity
  8
_U+30EC_U+30A4_U+30E4_U+30FC 1
 62
   179
420
  2234388
100
AcDbHatch
 10
0.0
 20
0.0
 30
0.0
210
0.0
220
0.0
230
1.0
  2
SOLID
 70
     1
 71
     0
 91
        2
 92
        1
 93
       11
 72
     1
 10
82.14382322165154
 20
-137.4420843840423
 11
82.49074433701621
 21
-137.4420843840423
 72
     1
 10
82.49074433701621
 20
-137.4420843840423
 11
82.49074433701621
 21
-137.6598144187101
 72
     1
 10
82.49074433701621
 20
-137.6598144187101
 11
82.14382322165154
 21
-137.6598144187101
 72
     1
 10
82.14382322165154
 20
-137.6598144187101
 11
82.14382322165154
 21
-138.3157605991016
 72
     1
 10
82.14382322165154
 20
-138.3157605991016
 11
81.91954750556178
 21
-138.3157605991016
 72
     1
 10
81.91954750556178
 20
-138.3157605991016
 11
80.94648028575297
 21
-137.6367322789589
 72
     1
 10
80.94648028575297
 20
-137.6367322789589
 11
80.94648028575297
 21
-137.4420843840423
 72
     1
 10
80.94648028575297
 20
-137.4420843840423
 11
81.94486895737838
 21
-137.4420843840423
 72
     1
 10
81.94486895737838
 20
-137.4420843840423
 11
81.94486895737838
 21
-137.2346896358302
 72
     1
 10
81.94486895737838
 20
-137.2346896358302
 11
82.14382322165154
 21
-137.2346896358302
 72
     1
 10
82.14382322165154
 20
-137.2346896358302
 11
82.14382322165154
 21
-137.4420843840423
 97
        0
 92
        1
 93
        3
 72
     1
 10
81.28909503176106
 20
-137.6598144187101
 11
81.94486895737838
 21
-138.1169785896027
 72
     1
 10
81.94486895737838
 20
-138.1169785896027
 11
81.94486895737838
 21
-137.6598144187101
 72
     1
 10
81.94486895737838
 20
-137.6598144187101
 11
81.28909503176106
 21
-137.6598144187101
 97
        0
 75
     2
 76
     1
 98
        0
  0
ENDBLK
  5
153
330
150
100
AcDbEntity
  8
0
100
AcDbBlockEnd
  0
BLOCK
  5
16D
330
16B
100
AcDbEntity
  8
0
100
AcDbBlockBegin
  2
block 9
 70
     0
 10
0.0
 20
0.0
 30
0.0
  3
block 9
  1

  0
SPLINE
  5
16F
330
16B
100
AcDbEntity
  8
_U+30EC_U+30A4_U+30E4_U+30FC 1
370
     0
100
AcDbSpline
210
0.0
220
0.0
230
1.0
 70
    11
 71
     3
 72
    53
 73
    49
 74
     0
 42
0.0000000001
 43
0.0000000001
 12
1.0
 22
0.0
 32
0.0
 13
1.0
 23
0.0
 33
0.0
 40
0.0
 40
0.0
 40
0.0
 40
0.0
 40
1.0
 40
1.0
 40
1.0
 40
2.0
 40
2.0
 40
2.0
 40
3.0
 40
3.0
 40
3.0
 40
4.0
 40
4.0
 40
4.0
 40
5.0
 40
5.0
 40
5.0
 40
6.0
 40
6.0
 40
6.0
 40
7.0
 40
7.0
 40
7.0
 40
8.0
 40
8.0
 40
8.0
 40
9.0
 40
9.0
 40
9.0
 40
10.0
 40
10.0
 40
10.0
 40
11.0
 40
11.0
 40
11.0
 40
12.0
 40
12.0
 40
12.0
 40
13.0
 40
13.0
 40
13.0
 40
14.0
 40
14.0
 40
14.0
 40
15.0
 40
15.0
 40
15.0
 40
16.0
 40
16.0
 40
16.0
 40
16.0
 10
82.54155949542364
 20
-142.0292290226524
 30
0.0
 10
82.54155949542364
 20
-142.1074326901676
 30
0.0
 10
82.52450627277166
 20
-142.2090630069825
 30
0.0
 10
82.46111651584306
 20
-142.3106933237973
 30
0.0
 10
82.35104571508933
 20
-142.4839816267054
 30
0.0
 10
82.21995983187557
 20
-142.5053412187139
 30
0.0
 10
82.11212834318725
 20
-142.5242892438828
 30
0.0
 10
82.11212834318725
 20
-142.5242892438828
 30
0.0
 10
82.11212834318725
 20
-142.3020805850842
 30
0.0
 10
82.11212834318725
 20
-142.3020805850842
 30
0.0
 10
82.31091035268616
 20
-142.2473035668687
 30
0.0
 10
82.34053817385931
 20
-142.120179543463
 30
0.0
 10
82.34053817385931
 20
-142.0271619653613
 30
0.0
 10
82.34053817385931
 20
-141.8876355982086
 30
0.0
 10
82.24114716910985
 20
-141.7353623777606
 30
0.0
 10
82.00843096908123
 20
-141.7353623777606
 30
0.0
 10
81.75246037452716
 20
-141.7353623777606
 30
0.0
 10
81.68269719095086
 20
-141.9151963620907
 30
0.0
 10
81.68269719095086
 20
-142.0357747040744
 30
0.0
 10
81.68269719095086
 20
-142.0674695825387
 30
0.0
 10
81.68269719095086
 20
-142.2090630069825
 30
0.0
 10
81.81171601687346
 20
-142.2979464705019
 30
0.0
 10
81.81171601687346
 20
-142.2979464705019
 30
0.0
 10
81.79259573693032
 20
-142.4736463402496
 30
0.0
 10
81.79259573693032
 20
-142.4736463402496
 30
0.0
 10
81.79259573693032
 20
-142.4736463402496
 30
0.0
 10
80.94648028575297
 20
-142.3530679982659
 30
0.0
 10
80.94648028575297
 20
-142.3530679982659
 30
0.0
 10
80.94648028575297
 20
-142.3530679982659
 30
0.0
 10
80.94648028575297
 20
-141.5744764185994
 30
0.0
 10
80.94648028575297
 20
-141.5744764185994
 30
0.0
 10
80.94648028575297
 20
-141.5744764185994
 30
0.0
 10
81.14112818066958
 20
-141.5744764185994
 30
0.0
 10
81.14112818066958
 20
-141.5744764185994
 30
0.0
 10
81.14112818066958
 20
-141.5744764185994
 30
0.0
 10
81.14112818066958
 20
-142.1901149818136
 30
0.0
 10
81.14112818066958
 20
-142.1901149818136
 30
0.0
 10
81.14112818066958
 20
-142.1901149818136
 30
0.0
 10
81.56418590625826
 20
-142.2555717960333
 30
0.0
 10
81.56418590625826
 20
-142.2555717960333
 30
0.0
 10
81.53025171572855
 20
-142.1942490963959
 30
0.0
 10
81.49011635332539
 20
-142.1119113142984
 30
0.0
 10
81.49011635332539
 20
-141.9934000296058
 30
0.0
 10
81.49011635332539
 20
-141.7394964923429
 30
0.0
 10
81.67632376430315
 20
-141.5024739229577
 30
0.0
 10
81.9893106891381
 20
-141.5024739229577
 30
0.0
 10
82.30677623810386
 20
-141.5024739229577
 30
0.0
 10
82.54155949542364
 20
-141.7267496390475
 30
0.0
 10
82.54155949542364
 20
-142.0292290226524
 30
0.0
  0
HATCH
  5
170
330
16B
100
AcDbEntity
  8
_U+30EC_U+30A4_U+30E4_U+30FC 1
 62
   179
420
  2234388
100
AcDbHatch
 10
0.0
 20
0.0
 30
0.0
210
0.0
220
0.0
230
1.0
  2
SOLID
 70
     1
 71
     0
 91
        1
 92
        1
 93
        1
 72
     4
 94
        3
 73
     0
 74
     1
 95
       53
 96
       49
 40
0.0
 40
0.0
 40
0.0
 40
0.0
 40
1.0
 40
1.0
 40
1.0
 40
2.0
 40
2.0
 40
2.0
 40
3.0
 40
3.0
 40
3.0
 40
4.0
 40
4.0
 40
4.0
 40
5.0
 40
5.0
 40
5.0
 40
6.0
 40
6.0
 40
6.0
 40
7.0
 40
7.0
 40
7.0
 40
8.0
 40
8.0
 40
8.0
 40
9.0
 40
9.0
 40
9.0
 40
10.0
 40
10.0
 40
10.0
 40
11.0
 40
11.0
 40
11.0
 40
12.0
 40
12.0
 40
12.0
 40
13.0
 40
13.0
 40
13.0
 40
14.0
 40
14.0
 40
14.0
 40
15.0
 40
15.0
 40
15.0
 40
16.0
 40
16.0
 40
16.0
 40
16.0
 10
82.54155949542364
 20
-142.0292290226524
 10
82.54155949542364
 20
-142.1074326901676
 10
82.52450627277166
 20
-142.2090630069825
 10
82.46111651584306
 20
-142.3106933237973
 10
82.35104571508933
 20
-142.4839816267054
 10
82.21995983187557
 20
-142.5053412187139
 10
82.11212834318725
 20
-142.5242892438828
 10
82.11212834318725
 20
-142.5242892438828
 10
82.11212834318725
 20
-142.3020805850842
 10
82.11212834318725
 20
-142.3020805850842
 10
82.31091035268616
 20
-142.2473035668687
 10
82.34053817385931
 20
-142.120179543463
 10
82.34053817385931
 20
-142.0271619653613
 10
82.34053817385931
 20
-141.8876355982086
 10
82.24114716910985
 20
-141.7353623777606
 10
82.00843096908123
 20
-141.7353623777606
 10
81.75246037452716
 20
-141.7353623777606
 10
81.68269719095086
 20
-141.9151963620907
 10
81.68269719095086
 20
-142.0357747040744
 10
81.68269719095086
 20
-142.0674695825387
 10
81.68269719095086
 20
-142.2090630069825
 10
81.81171601687346
 20
-142.2979464705019
 10
81.81171601687346
 20
-142.2979464705019
 10
81.79259573693032
 20
-142.4736463402496
 10
81.79259573693032
 20
-142.4736463402496
 10
81.79259573693032
 20
-142.4736463402496
 10
80.94648028575297
 20
-142.3530679982659
 10
80.94648028575297
 20
-142.3530679982659
 10
80.94648028575297
 20
-142.3530679982659
 10
80.94648028575297
 20
-141.5744764185994
 10
80.94648028575297
 20
-141.5744764185994
 10
80.94648028575297
 20
-141.5744764185994
 10
81.14112818066958
 20
-141.5744764185994
 10
81.14112818066958
 20
-141.5744764185994
 10
81.14112818066958
 20
-141.5744764185994
 10
81.14112818066958
 20
-142.1901149818136
 10
81.14112818066958
 20
-142.1901149818136
 10
81.14112818066958
 20
-142.1901149818136
 10
81.56418590625826
 20
-142.2555717960333
 10
81.56418590625826
 20
-142.2555717960333
 10
81.53025171572855
 20
-142.1942490963959
 10
81.49011635332539
 20
-142.1119113142984
 10
81.49011635332539
 20
-141.9934000296058
 10
81.49011635332539
 20
-141.7394964923429
 10
81.67632376430315
 20
-141.5024739229577
 10
81.9893106891381
 20
-141.5024739229577
 10
82.30677623810386
 20
-141.5024739229577
 10
82.54155949542364
 20
-141.7267496390475
 10
82.54155949542364
 20
-142.0292290226524
 97
        0
 97
        0
 75
     2
 76
     1
 98
        0
  0
ENDBLK
  5
16E
330
16B
100
AcDbEntity
  8
0
100
AcDbBlockEnd
  0
BLOCK
  5
173
330
171
100
AcDbEntity
  8
0
100
AcDbBlockBegin
  2
block 10
 70
     0
 10
0.0
 20
0.0
 30
0.0
  3
block 10
  1

  0
SPLINE
  5
175
330
171
100
AcDbEntity
  8
_U+30EC_U+30A4_U+30E4_U+30FC 1
370
     0
100
AcDbSpline
210
0.0
220
0.0
230
1.0
 70
    11
 71
     3
 72
    26
 73
    22
 74
     0
 42
0.0000000001
 43
0.0000000001
 12
1.0
 22
0.0
 32
0.0
 13
1.0
 23
0.0
 33
0.0
 40
0.0
 40
0.0
 40
0.0
 40
0.0
 40
1.0
 40
1.0
 40
1.0
 40
2.0
 40
2.0
 40
2.0
 40
3.0
 40
3.0
 40
3.0
 40
4.0
 40
4.0
 40
4.0
 40
5.0
 40
5.0
 40
5.0
 40
6.0
 40
6.0
 40
6.0
 40
7.0
 40
7.0
 40
7.0
 40
7.0
 10
79.51039223272657
 20
-128.4796684791648
 30
0.0
 10
79.51039223272657
 20
-128.4796684791648
 30
0.0
 10
79.51039223272657
 20
-128.71669104855
 30
0.0
 10
79.51039223272657
 20
-128.71669104855
 30
0.0
 10
79.20153942247393
 20
-128.6911973419591
 30
0.0
 10
78.68322480671809
 20
-128.4986165043337
 30
0.0
 10
78.17765704425767
 20
-128.0924397466227
 30
0.0
 10
78.17765704425767
 20
-128.0924397466227
 30
0.0
 10
78.17765704425767
 20
-128.9302869686355
 30
0.0
 10
78.17765704425767
 20
-128.9302869686355
 30
0.0
 10
78.17765704425767
 20
-128.9302869686355
 30
0.0
 10
77.96612818146333
 20
-128.9302869686355
 30
0.0
 10
77.96612818146333
 20
-128.9302869686355
 30
0.0
 10
77.96612818146333
 20
-128.9302869686355
 30
0.0
 10
77.96612818146333
 20
-127.8554171772375
 30
0.0
 10
77.96612818146333
 20
-127.8554171772375
 30
0.0
 10
77.96612818146333
 20
-127.8554171772375
 30
0.0
 10
78.17765704425767
 20
-127.8554171772375
 30
0.0
 10
78.17765704425767
 20
-127.8554171772375
 30
0.0
 10
78.46738957456718
 20
-128.179256152851
 30
0.0
 10
79.05977374325589
 20
-128.4459065434094
 30
0.0
 10
79.51039223272657
 20
-128.4796684791648
 30
0.0
  0
HATCH
  5
176
330
171
100
AcDbEntity
  8
_U+30EC_U+30A4_U+30E4_U+30FC 1
 62
   179
420
  2234388
100
AcDbHatch
 10
0.0
 20
0.0
 30
0.0
210
0.0
220
0.0
230
1.0
  2
SOLID
 70
     1
 71
     0
 91
        1
 92
        1
 93
        1
 72
     4
 94
        3
 73
     0
 74
     1
 95
       26
 96
       22
 40
0.0
 40
0.0
 40
0.0
 40
0.0
 40
1.0
 40
1.0
 40
1.0
 40
2.0
 40
2.0
 40
2.0
 40
3.0
 40
3.0
 40
3.0
 40
4.0
 40
4.0
 40
4.0
 40
5.0
 40
5.0
 40
5.0
 40
6.0
 40
6.0
 40
6.0
 40
7.0
 40
7.0
 40
7.0
 40
7.0
 10
79.51039223272657
 20
-128.4796684791648
 10
79.51039223272657
 20
-128.4796684791648
 10
79.51039223272657
 20
-128.71669104855
 10
79.51039223272657
 20
-128.71669104855
 10
79.20153942247393
 20
-128.6911973419591
 10
78.68322480671809
 20
-128.4986165043337
 10
78.17765704425767
 20
-128.0924397466227
 10
78.17765704425767
 20
-128.0924397466227
 10
78.17765704425767
 20
-128.9302869686355
 10
78.17765704425767
 20
-128.9302869686355
 10
78.17765704425767
 20
-128.9302869686355
 10
77.96612818146333
 20
-128.9302869686355
 10
77.96612818146333
 20
-128.9302869686355
 10
77.96612818146333
 20
-128.9302869686355
 10
77.96612818146333
 20
-127.8554171772375
 10
77.96612818146333
 20
-127.8554171772375
 10
77.96612818146333
 20
-127.8554171772375
 10
78.17765704425767
 20
-127.8554171772375
 10
78.17765704425767
 20
-127.8554171772375
 10
78.46738957456718
 20
-128.179256152851
 10
79.05977374325589
 20
-128.4459065434094
 10
79.51039223272657
 20
-128.4796684791648
 97
        0
 97
        0
 75
     2
 76
     1
 98
        0
  0
SPLINE
  5
177
330
171
100
AcDbEntity
  8
_U+30EC_U+30A4_U+30E4_U+30FC 1
370
     0
100
AcDbSpline
210
0.0
220
0.0
230
1.0
 70
    11
 71
     3
 72
    32
 73
    28
 74
     0
 42
0.0000000001
 43
0.0000000001
 12
1.0
 22
0.0
 32
0.0
 13
1.0
 23
0.0
 33
0.0
 40
0.0
 40
0.0
 40
0.0
 40
0.0
 40
1.0
 40
1.0
 40
1.0
 40
2.0
 40
2.0
 40
2.0
 40
3.0
 40
3.0
 40
3.0
 40
4.0
 40
4.0
 40
4.0
 40
5.0
 40
5.0
 40
5.0
 40
6.0
 40
6.0
 40
6.0
 40
7.0
 40
7.0
 40
7.0
 40
8.0
 40
8.0
 40
8.0
 40
9.0
 40
9.0
 40
9.0
 40
9.0
 10
79.561207391134
 20
-127.2563150723526
 30
0.0
 10
79.561207391134
 20
-127.4296033752607
 30
0.0
 10
79.49127195278344
 20
-127.675238683359
 30
0.0
 10
79.15916474800535
 20
-127.7131347336967
 30
0.0
 10
79.15916474800535
 20
-127.7131347336967
 30
0.0
 10
79.15916474800535
 20
-127.4995388136112
 30
0.0
 10
79.15916474800535
 20
-127.4995388136112
 30
0.0
 10
79.21842039035165
 20
-127.488859017607
 30
0.0
 10
79.36655949621739
 20
-127.4571641391427
 30
0.0
 10
79.36655949621739
 20
-127.2542480150614
 30
0.0
 10
79.36655949621739
 20
-126.9621039179123
 30
0.0
 10
79.03651934873045
 20
-126.9242078675745
 30
0.0
 10
78.83136391258383
 20
-126.9114610142791
 30
0.0
 10
78.91163463739015
 20
-127.0024115350897
 30
0.0
 10
78.9688232224453
 20
-127.0699354066006
 30
0.0
 10
78.9688232224453
 20
-127.2518364482218
 30
0.0
 10
78.9688232224453
 20
-127.4316704325518
 30
0.0
 10
78.86305879104813
 20
-127.7344943257053
 30
0.0
 10
78.45688203333717
 20
-127.7344943257053
 30
0.0
 10
78.13734942708025
 20
-127.7344943257053
 30
0.0
 10
77.91738008034704
 20
-127.5353678066578
 30
0.0
 10
77.91738008034704
 20
-127.2180745124663
 30
0.0
 10
77.91738008034704
 20
-126.704066266067
 30
0.0
 10
78.47169594392375
 20
-126.6933864700628
 30
0.0
 10
78.68529186400923
 20
-126.6933864700628
 30
0.0
 10
78.9159410067467
 20
-126.6933864700628
 30
0.0
 10
79.561207391134
 20
-126.7126790047802
 30
0.0
 10
79.561207391134
 20
-127.2563150723526
 30
0.0
  0
SPLINE
  5
178
330
171
100
AcDbEntity
  8
_U+30EC_U+30A4_U+30E4_U+30FC 1
370
     0
100
AcDbSpline
210
0.0
220
0.0
230
1.0
 70
    11
 71
     3
 72
    17
 73
    13
 74
     0
 42
0.0000000001
 43
0.0000000001
 12
1.0
 22
0.0
 32
0.0
 13
1.0
 23
0.0
 33
0.0
 40
0.0
 40
0.0
 40
0.0
 40
0.0
 40
1.0
 40
1.0
 40
1.0
 40
2.0
 40
2.0
 40
2.0
 40
3.0
 40
3.0
 40
3.0
 40
4.0
 40
4.0
 40
4.0
 40
4.0
 10
78.10996091797251
 20
-127.2160074551752
 30
0.0
 10
78.10996091797251
 20
-127.3345187398678
 30
0.0
 10
78.1669772482534
 20
-127.5102186096155
 30
0.0
 10
78.45257566398061
 20
-127.5102186096155
 30
0.0
 10
78.67891843736152
 20
-127.5102186096155
 30
0.0
 10
78.77417532752868
 20
-127.3703477329144
 30
0.0
 10
78.77417532752868
 20
-127.234955480344
 30
0.0
 10
78.77417532752868
 20
-126.9727837139165
 30
0.0
 10
78.56471352202549
 20
-126.9345431540303
 30
0.0
 10
78.44844154939831
 20
-126.9345431540303
 30
0.0
 10
78.27274167965057
 20
-126.9345431540303
 30
0.0
 10
78.10996091797251
 20
-127.0299722989717
 30
0.0
 10
78.10996091797251
 20
-127.2160074551752
 30
0.0
  0
HATCH
  5
179
330
171
100
AcDbEntity
  8
_U+30EC_U+30A4_U+30E4_U+30FC 1
 62
   179
420
  2234388
100
AcDbHatch
 10
0.0
 20
0.0
 30
0.0
210
0.0
220
0.0
230
1.0
  2
SOLID
 70
     1
 71
     0
 91
        2
 92
        1
 93
        1
 72
     4
 94
        3
 73
     0
 74
     1
 95
       32
 96
       28
 40
0.0
 40
0.0
 40
0.0
 40
0.0
 40
1.0
 40
1.0
 40
1.0
 40
2.0
 40
2.0
 40
2.0
 40
3.0
 40
3.0
 40
3.0
 40
4.0
 40
4.0
 40
4.0
 40
5.0
 40
5.0
 40
5.0
 40
6.0
 40
6.0
 40
6.0
 40
7.0
 40
7.0
 40
7.0
 40
8.0
 40
8.0
 40
8.0
 40
9.0
 40
9.0
 40
9.0
 40
9.0
 10
79.561207391134
 20
-127.2563150723526
 10
79.561207391134
 20
-127.4296033752607
 10
79.49127195278344
 20
-127.675238683359
 10
79.15916474800535
 20
-127.7131347336967
 10
79.15916474800535
 20
-127.7131347336967
 10
79.15916474800535
 20
-127.4995388136112
 10
79.15916474800535
 20
-127.4995388136112
 10
79.21842039035165
 20
-127.488859017607
 10
79.36655949621739
 20
-127.4571641391427
 10
79.36655949621739
 20
-127.2542480150614
 10
79.36655949621739
 20
-126.9621039179123
 10
79.03651934873045
 20
-126.9242078675745
 10
78.83136391258383
 20
-126.9114610142791
 10
78.91163463739015
 20
-127.0024115350897
 10
78.9688232224453
 20
-127.0699354066006
 10
78.9688232224453
 20
-127.2518364482218
 10
78.9688232224453
 20
-127.4316704325518
 10
78.86305879104813
 20
-127.7344943257053
 10
78.45688203333717
 20
-127.7344943257053
 10
78.13734942708025
 20
-127.7344943257053
 10
77.91738008034704
 20
-127.5353678066578
 10
77.91738008034704
 20
-127.2180745124663
 10
77.91738008034704
 20
-126.704066266067
 10
78.47169594392375
 20
-126.6933864700628
 10
78.68529186400923
 20
-126.6933864700628
 10
78.9159410067467
 20
-126.6933864700628
 10
79.561207391134
 20
-126.7126790047802
 10
79.561207391134
 20
-127.2563150723526
 97
        0
 97
        0
 92
        1
 93
        1
 72
     4
 94
        3
 73
     0
 74
     1
 95
       17
 96
       13
 40
0.0
 40
0.0
 40
0.0
 40
0.0
 40
1.0
 40
1.0
 40
1.0
 40
2.0
 40
2.0
 40
2.0
 40
3.0
 40
3.0
 40
3.0
 40
4.0
 40
4.0
 40
4.0
 40
4.0
 10
78.10996091797251
 20
-127.2160074551752
 10
78.10996091797251
 20
-127.3345187398678
 10
78.1669772482534
 20
-127.5102186096155
 10
78.45257566398061
 20
-127.5102186096155
 10
78.67891843736152
 20
-127.5102186096155
 10
78.77417532752868
 20
-127.3703477329144
 10
78.77417532752868
 20
-127.234955480344
 10
78.77417532752868
 20
-126.9727837139165
 10
78.56471352202549
 20
-126.9345431540303
 10
78.44844154939831
 20
-126.9345431540303
 10
78.27274167965057
 20
-126.9345431540303
 10
78.10996091797251
 20
-127.0299722989717
 10
78.10996091797251
 20
-127.2160074551752
 97
        0
 97
        0
 75
     2
 76
     1
 98
        0
  0
ENDBLK
  5
174
330
171
100
AcDbEntity
  8
0
100
AcDbBlockEnd
  0
ENDSEC
  0
SECTION
  2
ENTITIES
  0
POLYLINE
  5
41
330
1F
100
AcDbEntity
  8
_U+30EC_U+30A4_U+30E4_U+30FC 1
370
     0
100
AcDb2dPolyline
 66
     1
 10
0.0
 20
0.0
 30
0.0
  0
VERTEX
  5
42
330
41
100
AcDbEntity
  8
_U+30EC_U+30A4_U+30E4_U+30FC 1
370
     0
100
AcDbVertex
100
AcDb2dVertex
 10
89.3206499434626
 20
-112.5934727496293
 30
0.0
  0
VERTEX
  5
43
330
41
100
AcDbEntity
  8
_U+30EC_U+30A4_U+30E4_U+30FC 1
370
     0
100
AcDbVertex
100
AcDb2dVertex
 10
89.82053604182055
 20
-112.5934727496293
 30
0.0
  0
VERTEX
  5
44
330
41
100
AcDbEntity
  8
_U+30EC_U+30A4_U+30E4_U+30FC 1
370
     0
100
AcDbVertex
100
AcDb2dVertex
 10
89.82053604182055
 20
-123.9705560801184
 30
0.0
  0
VERTEX
  5
45
330
41
100
AcDbEntity
  8
_U+30EC_U+30A4_U+30E4_U+30FC 1
370
     0
100
AcDbVertex
100
AcDb2dVertex
 10
89.7027082670488
 20
-124.1469449689632
 30
0.0
  0
VERTEX
  5
46
330
41
100
AcDbEntity
  8
_U+30EC_U+30A4_U+30E4_U+30FC 1
370
     0
100
AcDbVertex
100
AcDb2dVertex
 10
89.8498165966291
 20
-124.2940533022598
 30
0.0
  0
VERTEX
  5
47
330
41
100
AcDbEntity
  8
_U+30EC_U+30A4_U+30E4_U+30FC 1
370
     0
100
AcDbVertex
100
AcDb2dVertex
 10
89.8498165966291
 20
-135.1421463551031
 30
0.0
  0
VERTEX
  5
48
330
41
100
AcDbEntity
  8
_U+30EC_U+30A4_U+30E4_U+30FC 1
370
     0
100
AcDbVertex
100
AcDb2dVertex
 10
96.64078864559919
 20
-135.1421463551031
 30
0.0
  0
VERTEX
  5
49
330
41
100
AcDbEntity
  8
_U+30EC_U+30A4_U+30E4_U+30FC 1
370
     0
100
AcDbVertex
100
AcDb2dVertex
 10
96.64078864559919
 20
-133.8192296887671
 30
0.0
  0
VERTEX
  5
4A
330
41
100
AcDbEntity
  8
_U+30EC_U+30A4_U+30E4_U+30FC 1
370
     0
100
AcDbVertex
100
AcDb2dVertex
 10
95.22967757048852
 20
-133.8192296887671
 30
0.0
  0
VERTEX
  5
4B
330
41
100
AcDbEntity
  8
_U+30EC_U+30A4_U+30E4_U+30FC 1
370
     0
100
AcDbVertex
100
AcDb2dVertex
 10
95.22967757048852
 20
-133.3782574666552
 30
0.0
  0
VERTEX
  5
4C
330
41
100
AcDbEntity
  8
_U+30EC_U+30A4_U+30E4_U+30FC 1
370
     0
100
AcDbVertex
100
AcDb2dVertex
 10
97.11104141137982
 20
-133.3782574666552
 30
0.0
  0
VERTEX
  5
4D
330
41
100
AcDbEntity
  8
_U+30EC_U+30A4_U+30E4_U+30FC 1
370
     0
100
AcDbVertex
100
AcDb2dVertex
 10
97.11104141137982
 20
-142.9321852420446
 30
0.0
  0
VERTEX
  5
4E
330
41
100
AcDbEntity
  8
_U+30EC_U+30A4_U+30E4_U+30FC 1
370
     0
100
AcDbVertex
100
AcDb2dVertex
 10
86.73373056501596
 20
-142.9321852420446
 30
0.0
  0
VERTEX
  5
4F
330
41
100
AcDbEntity
  8
_U+30EC_U+30A4_U+30E4_U+30FC 1
370
     0
100
AcDbVertex
100
AcDb2dVertex
 10
86.73373056501596
 20
-141.0511741314036
 30
0.0
  0
VERTEX
  5
50
330
41
100
AcDbEntity
  8
_U+30EC_U+30A4_U+30E4_U+30FC 1
370
     0
100
AcDbVertex
100
AcDb2dVertex
 10
87.20398333079659
 20
-141.0511741314036
 30
0.0
  0
VERTEX
  5
51
330
41
100
AcDbEntity
  8
_U+30EC_U+30A4_U+30E4_U+30FC 1
370
     0
100
AcDbVertex
100
AcDb2dVertex
 10
87.20398333079659
 20
-142.4326519088364
 30
0.0
  0
VERTEX
  5
52
330
41
100
AcDbEntity
  8
_U+30EC_U+30A4_U+30E4_U+30FC 1
370
     0
100
AcDbVertex
100
AcDb2dVertex
 10
96.58187475821332
 20
-142.4326519088364
 30
0.0
  0
VERTEX
  5
53
330
41
100
AcDbEntity
  8
_U+30EC_U+30A4_U+30E4_U+30FC 1
370
     0
100
AcDbVertex
100
AcDb2dVertex
 10
96.58187475821332
 20
-135.7002407994081
 30
0.0
  0
VERTEX
  5
54
330
41
100
AcDbEntity
  8
_U+30EC_U+30A4_U+30E4_U+30FC 1
370
     0
100
AcDbVertex
100
AcDb2dVertex
 10
89.29136938865405
 20
-135.7002407994081
 30
0.0
  0
VERTEX
  5
55
330
41
100
AcDbEntity
  8
_U+30EC_U+30A4_U+30E4_U+30FC 1
370
     0
100
AcDbVertex
100
AcDb2dVertex
 10
89.3206499434626
 20
-112.5934727496293
 30
0.0
  0
SEQEND
  5
57
330
41
100
AcDbEntity
  8
_U+30EC_U+30A4_U+30E4_U+30FC 1
370
     0
  0
HATCH
  5
56
330
1F
100
AcDbEntity
  8
_U+30EC_U+30A4_U+30E4_U+30FC 1
 62
   253
420
 10066329
100
AcDbHatch
 10
0.0
 20
0.0
 30
0.0
210
0.0
220
0.0
230
1.0
  2
SOLID
 70
     1
 71
     0
 91
        1
 92
        1
 93
       19
 72
     1
 10
89.3206499434626
 20
-112.5934727496293
 11
89.82053604182055
 21
-112.5934727496293
 72
     1
 10
89.82053604182055
 20
-112.5934727496293
 11
89.82053604182055
 21
-123.9705560801184
 72
     1
 10
89.82053604182055
 20
-123.9705560801184
 11
89.7027082670488
 21
-124.1469449689632
 72
     1
 10
89.7027082670488
 20
-124.1469449689632
 11
89.8498165966291
 21
-124.2940533022598
 72
     1
 10
89.8498165966291
 20
-124.2940533022598
 11
89.8498165966291
 21
-135.1421463551031
 72
     1
 10
89.8498165966291
 20
-135.1421463551031
 11
96.64078864559919
 21
-135.1421463551031
 72
     1
 10
96.64078864559919
 20
-135.1421463551031
 11
96.64078864559919
 21
-133.8192296887671
 72
     1
 10
96.64078864559919
 20
-133.8192296887671
 11
95.22967757048852
 21
-133.8192296887671
 72
     1
 10
95.22967757048852
 20
-133.8192296887671
 11
95.22967757048852
 21
-133.3782574666552
 72
     1
 10
95.22967757048852
 20
-133.3782574666552
 11
97.11104141137982
 21
-133.3782574666552
 72
     1
 10
97.11104141137982
 20
-133.3782574666552
 11
97.11104141137982
 21
-142.9321852420446
 72
     1
 10
97.11104141137982
 20
-142.9321852420446
 11
86.73373056501596
 21
-142.9321852420446
 72
     1
 10
86.73373056501596
 20
-142.9321852420446
 11
86.73373056501596
 21
-141.0511741314036
 72
     1
 10
86.73373056501596
 20
-141.0511741314036
 11
87.20398333079659
 21
-141.0511741314036
 72
     1
 10
87.20398333079659
 20
-141.0511741314036
 11
87.20398333079659
 21
-142.4326519088364
 72
     1
 10
87.20398333079659
 20
-142.4326519088364
 11
96.58187475821332
 21
-142.4326519088364
 72
     1
 10
96.58187475821332
 20
-142.4326519088364
 11
96.58187475821332
 21
-135.7002407994081
 72
     1
 10
96.58187475821332
 20
-135.7002407994081
 11
89.29136938865405
 21
-135.7002407994081
 72
     1
 10
89.29136938865405
 20
-135.7002407994081
 11
89.3206499434626
 21
-112.5934727496293
 97
        0
 75
     2
 76
     1
 98
        0
  0
INSERT
  5
59
330
1F
100
AcDbEntity
  8
_U+30EC_U+30A4_U+30E4_U+30FC 1
100
AcDbBlockReference
  2
block 2
 10
0.0
 20
0.0
 30
0.0
  0
POLYLINE
  5
62
330
1F
100
AcDbEntity
  8
_U+30EC_U+30A4_U+30E4_U+30FC 1
 62
   179
420
  2234388
370
    25
100
AcDb2dPolyline
 66
     1
 10
0.0
 20
0.0
 30
0.0
  0
VERTEX
  5
63
330
62
100
AcDbEntity
  8
_U+30EC_U+30A4_U+30E4_U+30FC 1
 62
   179
420
  2234388
370
    25
100
AcDbVertex
100
AcDb2dVertex
 10
89.71339743344278
 20
-124.1545296911837
 30
0.0
  0
VERTEX
  5
64
330
62
100
AcDbEntity
  8
_U+30EC_U+30A4_U+30E4_U+30FC 1
 62
   179
420
  2234388
370
    25
100
AcDbVertex
100
AcDb2dVertex
 10
89.82843826384116
 20
-124.2692530244882
 30
0.0
  0
SEQEND
  5
65
330
62
100
AcDbEntity
  8
_U+30EC_U+30A4_U+30E4_U+30FC 1
 62
   179
420
  2234388
370
    25
  0
POLYLINE
  5
66
330
1F
100
AcDbEntity
  8
_U+30EC_U+30A4_U+30E4_U+30FC 1
 62
   179
420
  2234388
370
    25
100
AcDb2dPolyline
 66
     1
 10
0.0
 20
0.0
 30
0.0
  0
VERTEX
  5
67
330
66
100
AcDbEntity
  8
_U+30EC_U+30A4_U+30E4_U+30FC 1
 62
   179
420
  2234388
370
    25
100
AcDbVertex
100
AcDb2dVertex
 10
89.71339743344278
 20
-124.1545296911837
 30
0.0
  0
VERTEX
  5
68
330
66
100
AcDbEntity
  8
_U+30EC_U+30A4_U+30E4_U+30FC 1
 62
   179
420
  2234388
370
    25
100
AcDbVertex
100
AcDb2dVertex
 10
89.82843826384116
 20
-124.0387833023236
 30
0.0
  0
SEQEND
  5
69
330
66
100
AcDbEntity
  8
_U+30EC_U+30A4_U+30E4_U+30FC 1
 62
   179
420
  2234388
370
    25
  0
POLYLINE
  5
6A
330
1F
100
AcDbEntity
  8
_U+30EC_U+30A4_U+30E4_U+30FC 1
 62
   179
420
  2234388
370
    25
100
AcDb2dPolyline
 66
     1
 10
0.0
 20
0.0
 30
0.0
  0
VERTEX
  5
6B
330
6A
100
AcDbEntity
  8
_U+30EC_U+30A4_U+30E4_U+30FC 1
 62
   179
420
  2234388
370
    25
100
AcDbVertex
100
AcDb2dVertex
 10
89.82843826384116
 20
-112.6341127496192
 30
0.0
  0
VERTEX
  5
6C
330
6A
100
AcDbEntity
  8
_U+30EC_U+30A4_U+30E4_U+30FC 1
 62
   179
420
  2234388
370
    25
100
AcDbVertex
100
AcDb2dVertex
 10
89.82843826384116
 20
-124.0394535801012
 30
0.0
  0
SEQEND
  5
6D
330
6A
100
AcDbEntity
  8
_U+30EC_U+30A4_U+30E4_U+30FC 1
 62
   179
420
  2234388
370
    25
  0
POLYLINE
  5
6E
330
1F
100
AcDbEntity
  8
_U+30EC_U+30A4_U+30E4_U+30FC 1
 62
   179
420
  2234388
370
    25
100
AcDb2dPolyline
 66
     1
 10
0.0
 20
0.0
 30
0.0
  0
VERTEX
  5
6F
330
6E
100
AcDbEntity
  8
_U+30EC_U+30A4_U+30E4_U+30FC 1
 62
   179
420
  2234388
370
    25
100
AcDbVertex
100
AcDb2dVertex
 10
89.32925772102077
 20
-112.6341127496192
 30
0.0
  0
VERTEX
  5
70
330
6E
100
AcDbEntity
  8
_U+30EC_U+30A4_U+30E4_U+30FC 1
 62
   179
420
  2234388
370
    25
100
AcDbVertex
100
AcDb2dVertex
 10
89.82843826384116
 20
-112.6341127496192
 30
0.0
  0
SEQEND
  5
71
330
6E
100
AcDbEntity
  8
_U+30EC_U+30A4_U+30E4_U+30FC 1
 62
   179
420
  2234388
370
    25
  0
POLYLINE
  5
72
330
1F
100
AcDbEntity
  8
_U+30EC_U+30A4_U+30E4_U+30FC 1
 62
   179
420
  2234388
370
     9
100
AcDb2dPolyline
 66
     1
 10
0.0
 20
0.0
 30
0.0
  0
VERTEX
  5
73
330
72
100
AcDbEntity
  8
_U+30EC_U+30A4_U+30E4_U+30FC 1
 62
   179
420
  2234388
370
     9
100
AcDbVertex
100
AcDb2dVertex
 10
95.20452451557468
 20
-111.5620210832206
 30
0.0
  0
VERTEX
  5
74
330
72
100
AcDbEntity
  8
_U+30EC_U+30A4_U+30E4_U+30FC 1
 62
   179
420
  2234388
370
     9
100
AcDbVertex
100
AcDb2dVertex
 10
97.12483502213902
 20
-111.5620210832206
 30
0.0
  0
SEQEND
  5
75
330
72
100
AcDbEntity
  8
_U+30EC_U+30A4_U+30E4_U+30FC 1
 62
   179
420
  2234388
370
     9
  0
POLYLINE
  5
76
330
1F
100
AcDbEntity
  8
_U+30EC_U+30A4_U+30E4_U+30FC 1
 62
   179
420
  2234388
370
     9
100
AcDb2dPolyline
 66
     1
 10
0.0
 20
0.0
 30
0.0
  0
VERTEX
  5
77
330
76
100
AcDbEntity
  8
_U+30EC_U+30A4_U+30E4_U+30FC 1
 62
   179
420
  2234388
370
     9
100
AcDbVertex
100
AcDb2dVertex
 10
89.82843826384116
 20
-111.756648583172
 30
0.0
  0
VERTEX
  5
78
330
76
100
AcDbEntity
  8
_U+30EC_U+30A4_U+30E4_U+30FC 1
 62
   179
420
  2234388
370
     9
100
AcDbVertex
100
AcDb2dVertex
 10
89.82843826384116
 20
-110.4647410834948
 30
0.0
  0
SEQEND
  5
79
330
76
100
AcDbEntity
  8
_U+30EC_U+30A4_U+30E4_U+30FC 1
 62
   179
420
  2234388
370
     9
  0
POLYLINE
  5
7A
330
1F
100
AcDbEntity
  8
_U+30EC_U+30A4_U+30E4_U+30FC 1
 62
   179
420
  2234388
370
     9
100
AcDb2dPolyline
 66
     1
 10
0.0
 20
0.0
 30
0.0
  0
VERTEX
  5
7B
330
7A
100
AcDbEntity
  8
_U+30EC_U+30A4_U+30E4_U+30FC 1
 62
   179
420
  2234388
370
     9
100
AcDbVertex
100
AcDb2dVertex
 10
89.82843826384116
 20
-111.5620210832206
 30
0.0
  0
VERTEX
  5
7C
330
7A
100
AcDbEntity
  8
_U+30EC_U+30A4_U+30E4_U+30FC 1
 62
   179
420
  2234388
370
     9
100
AcDbVertex
100
AcDb2dVertex
 10
95.20452451557468
 20
-111.5620210832206
 30
0.0
  0
SEQEND
  5
7D
330
7A
100
AcDbEntity
  8
_U+30EC_U+30A4_U+30E4_U+30FC 1
 62
   179
420
  2234388
370
     9
  0
INSERT
  5
7F
330
1F
100
AcDbEntity
  8
_U+30EC_U+30A4_U+30E4_U+30FC 1
100
AcDbBlockReference
  2
block 3
 10
0.0
 20
0.0
 30
0.0
  0
INSERT
  5
85
330
1F
100
AcDbEntity
  8
_U+30EC_U+30A4_U+30E4_U+30FC 1
100
AcDbBlockReference
  2
block 4
 10
0.0
 20
0.0
 30
0.0
  0
POLYLINE
  5
9F
330
1F
100
AcDbEntity
  8
_U+30EC_U+30A4_U+30E4_U+30FC 1
 62
   179
420
  2234388
370
     9
100
AcDb2dPolyline
 66
     1
 10
0.0
 20
0.0
 30
0.0
  0
VERTEX
  5
A0
330
9F
100
AcDbEntity
  8
_U+30EC_U+30A4_U+30E4_U+30FC 1
 62
   179
420
  2234388
370
     9
100
AcDbVertex
100
AcDb2dVertex
 10
98.00194638865094
 20
-133.3699671888797
 30
0.0
  0
VERTEX
  5
A1
330
9F
100
AcDbEntity
  8
_U+30EC_U+30A4_U+30E4_U+30FC 1
 62
   179
420
  2234388
370
     9
100
AcDbVertex
100
AcDb2dVertex
 10
104.4690684458831
 20
-133.3699671888797
 30
0.0
  0
SEQEND
  5
A2
330
9F
100
AcDbEntity
  8
_U+30EC_U+30A4_U+30E4_U+30FC 1
 62
   179
420
  2234388
370
     9
  0
POLYLINE
  5
A3
330
1F
100
AcDbEntity
  8
_U+30EC_U+30A4_U+30E4_U+30FC 1
 62
   179
420
  2234388
370
     9
100
AcDb2dPolyline
 66
     1
 10
0.0
 20
0.0
 30
0.0
  0
VERTEX
  5
A4
330
A3
100
AcDbEntity
  8
_U+30EC_U+30A4_U+30E4_U+30FC 1
 62
   179
420
  2234388
370
     9
100
AcDbVertex
100
AcDb2dVertex
 10
98.00194638865094
 20
-133.3699671888797
 30
0.0
  0
VERTEX
  5
A5
330
A3
100
AcDbEntity
  8
_U+30EC_U+30A4_U+30E4_U+30FC 1
 62
   179
420
  2234388
370
     9
100
AcDbVertex
100
AcDb2dVertex
 10
101.6120624076603
 20
-133.3699671888797
 30
0.0
  0
SEQEND
  5
A6
330
A3
100
AcDbEntity
  8
_U+30EC_U+30A4_U+30E4_U+30FC 1
 62
   179
420
  2234388
370
     9
  0
POLYLINE
  5
A7
330
1F
100
AcDbEntity
  8
_U+30EC_U+30A4_U+30E4_U+30FC 1
 62
   179
420
  2234388
370
     9
100
AcDb2dPolyline
 66
     1
 10
0.0
 20
0.0
 30
0.0
  0
VERTEX
  5
A8
330
A7
100
AcDbEntity
  8
_U+30EC_U+30A4_U+30E4_U+30FC 1
 62
   179
420
  2234388
370
     9
100
AcDbVertex
100
AcDb2dVertex
 10
100.5147824356543
 20
-133.3699671888797
 30
0.0
  0
VERTEX
  5
A9
330
A7
100
AcDbEntity
  8
_U+30EC_U+30A4_U+30E4_U+30FC 1
 62
   179
420
  2234388
370
     9
100
AcDbVertex
100
AcDb2dVertex
 10
100.5147824356543
 20
-138.6981816319922
 30
0.0
  0
SEQEND
  5
AA
330
A7
100
AcDbEntity
  8
_U+30EC_U+30A4_U+30E4_U+30FC 1
 62
   179
420
  2234388
370
     9
  0
POLYLINE
  5
AB
330
1F
100
AcDbEntity
  8
_U+30EC_U+30A4_U+30E4_U+30FC 1
 62
   179
420
  2234388
370
     9
100
AcDb2dPolyline
 66
     1
 10
0.0
 20
0.0
 30
0.0
  0
VERTEX
  5
AC
330
AB
100
AcDbEntity
  8
_U+30EC_U+30A4_U+30E4_U+30FC 1
 62
   179
420
  2234388
370
     9
100
AcDbVertex
100
AcDb2dVertex
 10
97.50308334582245
 20
-135.174531355095
 30
0.0
  0
VERTEX
  5
AD
330
AB
100
AcDbEntity
  8
_U+30EC_U+30A4_U+30E4_U+30FC 1
 62
   179
420
  2234388
370
     9
100
AcDbVertex
100
AcDb2dVertex
 10
101.6120624076603
 20
-135.174531355095
 30
0.0
  0
SEQEND
  5
AE
330
AB
100
AcDbEntity
  8
_U+30EC_U+30A4_U+30E4_U+30FC 1
 62
   179
420
  2234388
370
     9
  0
POLYLINE
  5
AF
330
1F
100
AcDbEntity
  8
_U+30EC_U+30A4_U+30E4_U+30FC 1
 62
   179
420
  2234388
370
     9
100
AcDb2dPolyline
 66
     1
 10
0.0
 20
0.0
 30
0.0
  0
VERTEX
  5
B0
330
AF
100
AcDbEntity
  8
_U+30EC_U+30A4_U+30E4_U+30FC 1
 62
   179
420
  2234388
370
     9
100
AcDbVertex
100
AcDb2dVertex
 10
86.75613195333335
 20
-143.8478905195934
 30
0.0
  0
VERTEX
  5
B1
330
AF
100
AcDbEntity
  8
_U+30EC_U+30A4_U+30E4_U+30FC 1
 62
   179
420
  2234388
370
     9
100
AcDbVertex
100
AcDb2dVertex
 10
86.75613195333335
 20
-147.9268835741292
 30
0.0
  0
SEQEND
  5
B2
330
AF
100
AcDbEntity
  8
_U+30EC_U+30A4_U+30E4_U+30FC 1
 62
   179
420
  2234388
370
     9
  0
INSERT
  5
B4
330
1F
100
AcDbEntity
  8
_U+30EC_U+30A4_U+30E4_U+30FC 1
100
AcDbBlockReference
  2
block 5
 10
0.0
 20
0.0
 30
0.0
  0
INSERT
  5
BC
330
1F
100
AcDbEntity
  8
_U+30EC_U+30A4_U+30E4_U+30FC 1
100
AcDbBlockReference
  2
block 6
 10
0.0
 20
0.0
 30
0.0
  0
INSERT
  5
DF
330
1F
100
AcDbEntity
  8
_U+30EC_U+30A4_U+30E4_U+30FC 1
100
AcDbBlockReference
  2
block 7
 10
0.0
 20
0.0
 30
0.0
  0
POLYLINE
  5
E6
330
1F
100
AcDbEntity
  8
_U+30EC_U+30A4_U+30E4_U+30FC 1
 62
   179
420
  2234388
370
    25
100
AcDb2dPolyline
 66
     1
 10
0.0
 20
0.0
 30
0.0
  0
VERTEX
  5
E7
330
E6
100
AcDbEntity
  8
_U+30EC_U+30A4_U+30E4_U+30FC 1
 62
   179
420
  2234388
370
    25
100
AcDbVertex
100
AcDb2dVertex
 10
96.62561920154175
 20
-133.869535799866
 30
0.0
  0
VERTEX
  5
E8
330
E6
100
AcDbEntity
  8
_U+30EC_U+30A4_U+30E4_U+30FC 1
 62
   179
420
  2234388
370
    25
100
AcDbVertex
100
AcDb2dVertex
 10
95.20452451557468
 20
-133.869535799866
 30
0.0
  0
SEQEND
  5
E9
330
E6
100
AcDbEntity
  8
_U+30EC_U+30A4_U+30E4_U+30FC 1
 62
   179
420
  2234388
370
    25
  0
POLYLINE
  5
EA
330
1F
100
AcDbEntity
  8
_U+30EC_U+30A4_U+30E4_U+30FC 1
 62
   179
420
  2234388
370
    25
100
AcDb2dPolyline
 66
     1
 10
0.0
 20
0.0
 30
0.0
  0
VERTEX
  5
EB
330
EA
100
AcDbEntity
  8
_U+30EC_U+30A4_U+30E4_U+30FC 1
 62
   179
420
  2234388
370
    25
100
AcDbVertex
100
AcDb2dVertex
 10
87.25566527392252
 20
-142.4712457977154
 30
0.0
  0
VERTEX
  5
EC
330
EA
100
AcDbEntity
  8
_U+30EC_U+30A4_U+30E4_U+30FC 1
 62
   179
420
  2234388
370
    25
100
AcDbVertex
100
AcDb2dVertex
 10
87.25566527392252
 20
-141.0504685758487
 30
0.0
  0
SEQEND
  5
ED
330
EA
100
AcDbEntity
  8
_U+30EC_U+30A4_U+30E4_U+30FC 1
 62
   179
420
  2234388
370
    25
  0
POLYLINE
  5
EE
330
1F
100
AcDbEntity
  8
_U+30EC_U+30A4_U+30E4_U+30FC 1
 62
   179
420
  2234388
370
    25
100
AcDb2dPolyline
 66
     1
 10
0.0
 20
0.0
 30
0.0
  0
VERTEX
  5
EF
330
EE
100
AcDbEntity
  8
_U+30EC_U+30A4_U+30E4_U+30FC 1
 62
   179
420
  2234388
370
    25
100
AcDbVertex
100
AcDb2dVertex
 10
86.75644945332525
 20
-141.0504685758487
 30
0.0
  0
VERTEX
  5
F0
330
EE
100
AcDbEntity
  8
_U+30EC_U+30A4_U+30E4_U+30FC 1
 62
   179
420
  2234388
370
    25
100
AcDbVertex
100
AcDb2dVertex
 10
87.25566527392252
 20
-141.0504685758487
 30
0.0
  0
SEQEND
  5
F1
330
EE
100
AcDbEntity
  8
_U+30EC_U+30A4_U+30E4_U+30FC 1
 62
   179
420
  2234388
370
    25
  0
POLYLINE
  5
F2
330
1F
100
AcDbEntity
  8
_U+30EC_U+30A4_U+30E4_U+30FC 1
 62
   179
420
  2234388
370
    25
100
AcDb2dPolyline
 66
     1
 10
0.0
 20
0.0
 30
0.0
  0
VERTEX
  5
F3
330
F2
100
AcDbEntity
  8
_U+30EC_U+30A4_U+30E4_U+30FC 1
 62
   179
420
  2234388
370
    25
100
AcDbVertex
100
AcDb2dVertex
 10
95.20452451557468
 20
-133.3706727444352
 30
0.0
  0
VERTEX
  5
F4
330
F2
100
AcDbEntity
  8
_U+30EC_U+30A4_U+30E4_U+30FC 1
 62
   179
420
  2234388
370
    25
100
AcDbVertex
100
AcDb2dVertex
 10
95.20452451557468
 20
-133.869535799866
 30
0.0
  0
SEQEND
  5
F5
330
F2
100
AcDbEntity
  8
_U+30EC_U+30A4_U+30E4_U+30FC 1
 62
   179
420
  2234388
370
    25
  0
POLYLINE
  5
F6
330
1F
100
AcDbEntity
  8
_U+30EC_U+30A4_U+30E4_U+30FC 1
 62
   179
420
  2234388
370
    25
100
AcDb2dPolyline
 66
     1
 10
0.0
 20
0.0
 30
0.0
  0
VERTEX
  5
F7
330
F6
100
AcDbEntity
  8
_U+30EC_U+30A4_U+30E4_U+30FC 1
 62
   179
420
  2234388
370
    25
100
AcDbVertex
100
AcDb2dVertex
 10
97.12483502213902
 20
-133.3706727444352
 30
0.0
  0
VERTEX
  5
F8
330
F6
100
AcDbEntity
  8
_U+30EC_U+30A4_U+30E4_U+30FC 1
 62
   179
420
  2234388
370
    25
100
AcDbVertex
100
AcDb2dVertex
 10
95.20452451557468
 20
-133.3706727444352
 30
0.0
  0
SEQEND
  5
F9
330
F6
100
AcDbEntity
  8
_U+30EC_U+30A4_U+30E4_U+30FC 1
 62
   179
420
  2234388
370
    25
  0
POLYLINE
  5
FA
330
1F
100
AcDbEntity
  8
_U+30EC_U+30A4_U+30E4_U+30FC 1
 62
   179
420
  2234388
370
    25
100
AcDb2dPolyline
 66
     1
 10
0.0
 20
0.0
 30
0.0
  0
VERTEX
  5
FB
330
FA
100
AcDbEntity
  8
_U+30EC_U+30A4_U+30E4_U+30FC 1
 62
   179
420
  2234388
370
    25
100
AcDbVertex
100
AcDb2dVertex
 10
86.75644945332525
 20
-142.9707791309242
 30
0.0
  0
VERTEX
  5
FC
330
FA
100
AcDbEntity
  8
_U+30EC_U+30A4_U+30E4_U+30FC 1
 62
   179
420
  2234388
370
    25
100
AcDbVertex
100
AcDb2dVertex
 10
86.75644945332525
 20
-141.0504685758487
 30
0.0
  0
SEQEND
  5
FD
330
FA
100
AcDbEntity
  8
_U+30EC_U+30A4_U+30E4_U+30FC 1
 62
   179
420
  2234388
370
    25
  0
POLYLINE
  5
FE
330
1F
100
AcDbEntity
  8
_U+30EC_U+30A4_U+30E4_U+30FC 1
 62
   179
420
  2234388
370
    25
100
AcDb2dPolyline
 66
     1
 10
0.0
 20
0.0
 30
0.0
  0
VERTEX
  5
FF
330
FE
100
AcDbEntity
  8
_U+30EC_U+30A4_U+30E4_U+30FC 1
 62
   179
420
  2234388
370
    25
100
AcDbVertex
100
AcDb2dVertex
 10
97.12483502213902
 20
-142.9707791309242
 30
0.0
  0
VERTEX
  5
100
330
FE
100
AcDbEntity
  8
_U+30EC_U+30A4_U+30E4_U+30FC 1
 62
   179
420
  2234388
370
    25
100
AcDbVertex
100
AcDb2dVertex
 10
97.12483502213902
 20
-133.3706727444352
 30
0.0
  0
SEQEND
  5
101
330
FE
100
AcDbEntity
  8
_U+30EC_U+30A4_U+30E4_U+30FC 1
 62
   179
420
  2234388
370
    25
  0
POLYLINE
  5
102
330
1F
100
AcDbEntity
  8
_U+30EC_U+30A4_U+30E4_U+30FC 1
 62
   179
420
  2234388
370
    25
100
AcDb2dPolyline
 66
     1
 10
0.0
 20
0.0
 30
0.0
  0
VERTEX
  5
103
330
102
100
AcDbEntity
  8
_U+30EC_U+30A4_U+30E4_U+30FC 1
 62
   179
420
  2234388
370
    25
100
AcDbVertex
100
AcDb2dVertex
 10
96.62561920154175
 20
-142.4712457977154
 30
0.0
  0
VERTEX
  5
104
330
102
100
AcDbEntity
  8
_U+30EC_U+30A4_U+30E4_U+30FC 1
 62
   179
420
  2234388
370
    25
100
AcDbVertex
100
AcDb2dVertex
 10
87.25566527392252
 20
-142.4712457977154
 30
0.0
  0
SEQEND
  5
105
330
102
100
AcDbEntity
  8
_U+30EC_U+30A4_U+30E4_U+30FC 1
 62
   179
420
  2234388
370
    25
  0
POLYLINE
  5
106
330
1F
100
AcDbEntity
  8
_U+30EC_U+30A4_U+30E4_U+30FC 1
 62
   179
420
  2234388
370
    25
100
AcDb2dPolyline
 66
     1
 10
0.0
 20
0.0
 30
0.0
  0
VERTEX
  5
107
330
106
100
AcDbEntity
  8
_U+30EC_U+30A4_U+30E4_U+30FC 1
 62
   179
420
  2234388
370
    25
100
AcDbVertex
100
AcDb2dVertex
 10
96.62561920154175
 20
-133.8702060776434
 30
0.0
  0
VERTEX
  5
108
330
106
100
AcDbEntity
  8
_U+30EC_U+30A4_U+30E4_U+30FC 1
 62
   179
420
  2234388
370
    25
100
AcDbVertex
100
AcDb2dVertex
 10
96.62561920154175
 20
-135.175201632873
 30
0.0
  0
SEQEND
  5
109
330
106
100
AcDbEntity
  8
_U+30EC_U+30A4_U+30E4_U+30FC 1
 62
   179
420
  2234388
370
    25
  0
POLYLINE
  5
10A
330
1F
100
AcDbEntity
  8
_U+30EC_U+30A4_U+30E4_U+30FC 1
 62
   179
420
  2234388
370
    25
100
AcDb2dPolyline
 66
     1
 10
0.0
 20
0.0
 30
0.0
  0
VERTEX
  5
10B
330
10A
100
AcDbEntity
  8
_U+30EC_U+30A4_U+30E4_U+30FC 1
 62
   179
420
  2234388
370
    25
100
AcDbVertex
100
AcDb2dVertex
 10
96.62561920154175
 20
-135.6747349660812
 30
0.0
  0
VERTEX
  5
10C
330
10A
100
AcDbEntity
  8
_U+30EC_U+30A4_U+30E4_U+30FC 1
 62
   179
420
  2234388
370
    25
100
AcDbVertex
100
AcDb2dVertex
 10
96.62561920154175
 20
-142.4719160754934
 30
0.0
  0
SEQEND
  5
10D
330
10A
100
AcDbEntity
  8
_U+30EC_U+30A4_U+30E4_U+30FC 1
 62
   179
420
  2234388
370
    25
  0
POLYLINE
  5
10E
330
1F
100
AcDbEntity
  8
_U+30EC_U+30A4_U+30E4_U+30FC 1
 62
   179
420
  2234388
370
    25
100
AcDb2dPolyline
 66
     1
 10
0.0
 20
0.0
 30
0.0
  0
VERTEX
  5
10F
330
10E
100
AcDbEntity
  8
_U+30EC_U+30A4_U+30E4_U+30FC 1
 62
   179
420
  2234388
370
    25
100
AcDbVertex
100
AcDb2dVertex
 10
96.62561920154175
 20
-135.6747349660812
 30
0.0
  0
VERTEX
  5
110
330
10E
100
AcDbEntity
  8
_U+30EC_U+30A4_U+30E4_U+30FC 1
 62
   179
420
  2234388
370
    25
100
AcDbVertex
100
AcDb2dVertex
 10
89.32925772102077
 20
-135.6747349660812
 30
0.0
  0
SEQEND
  5
111
330
10E
100
AcDbEntity
  8
_U+30EC_U+30A4_U+30E4_U+30FC 1
 62
   179
420
  2234388
370
    25
  0
POLYLINE
  5
112
330
1F
100
AcDbEntity
  8
_U+30EC_U+30A4_U+30E4_U+30FC 1
 62
   179
420
  2234388
370
    25
100
AcDb2dPolyline
 66
     1
 10
0.0
 20
0.0
 30
0.0
  0
VERTEX
  5
113
330
112
100
AcDbEntity
  8
_U+30EC_U+30A4_U+30E4_U+30FC 1
 62
   179
420
  2234388
370
    25
100
AcDbVertex
100
AcDb2dVertex
 10
96.62561920154175
 20
-135.175201632873
 30
0.0
  0
VERTEX
  5
114
330
112
100
AcDbEntity
  8
_U+30EC_U+30A4_U+30E4_U+30FC 1
 62
   179
420
  2234388
370
    25
100
AcDbVertex
100
AcDb2dVertex
 10
89.82843826384116
 20
-135.175201632873
 30
0.0
  0
SEQEND
  5
115
330
112
100
AcDbEntity
  8
_U+30EC_U+30A4_U+30E4_U+30FC 1
 62
   179
420
  2234388
370
    25
  0
POLYLINE
  5
116
330
1F
100
AcDbEntity
  8
_U+30EC_U+30A4_U+30E4_U+30FC 1
 62
   179
420
  2234388
370
    25
100
AcDb2dPolyline
 66
     1
 10
0.0
 20
0.0
 30
0.0
  0
VERTEX
  5
117
330
116
100
AcDbEntity
  8
_U+30EC_U+30A4_U+30E4_U+30FC 1
 62
   179
420
  2234388
370
    25
100
AcDbVertex
100
AcDb2dVertex
 10
97.12483502213902
 20
-142.9707791309242
 30
0.0
  0
VERTEX
  5
118
330
116
100
AcDbEntity
  8
_U+30EC_U+30A4_U+30E4_U+30FC 1
 62
   179
420
  2234388
370
    25
100
AcDbVertex
100
AcDb2dVertex
 10
86.75644945332525
 20
-142.9707791309242
 30
0.0
  0
SEQEND
  5
119
330
116
100
AcDbEntity
  8
_U+30EC_U+30A4_U+30E4_U+30FC 1
 62
   179
420
  2234388
370
    25
  0
POLYLINE
  5
11A
330
1F
100
AcDbEntity
  8
_U+30EC_U+30A4_U+30E4_U+30FC 1
 62
   179
420
  2234388
370
     9
100
AcDb2dPolyline
 66
     1
 10
0.0
 20
0.0
 30
0.0
  0
VERTEX
  5
11B
330
11A
100
AcDbEntity
  8
_U+30EC_U+30A4_U+30E4_U+30FC 1
 62
   179
420
  2234388
370
     9
100
AcDbVertex
100
AcDb2dVertex
 10
86.75644945332525
 20
-146.8299563521814
 30
0.0
  0
VERTEX
  5
11C
330
11A
100
AcDbEntity
  8
_U+30EC_U+30A4_U+30E4_U+30FC 1
 62
   179
420
  2234388
370
     9
100
AcDbVertex
100
AcDb2dVertex
 10
97.12483502213902
 20
-146.8299563521814
 30
0.0
  0
SEQEND
  5
11D
330
11A
100
AcDbEntity
  8
_U+30EC_U+30A4_U+30E4_U+30FC 1
 62
   179
420
  2234388
370
     9
  0
POLYLINE
  5
11E
330
1F
100
AcDbEntity
  8
_U+30EC_U+30A4_U+30E4_U+30FC 1
 62
   179
420
  2234388
370
     9
100
AcDb2dPolyline
 66
     1
 10
0.0
 20
0.0
 30
0.0
  0
VERTEX
  5
11F
330
11E
100
AcDbEntity
  8
_U+30EC_U+30A4_U+30E4_U+30FC 1
 62
   179
420
  2234388
370
     9
100
AcDbVertex
100
AcDb2dVertex
 10
97.12483502213902
 20
-143.8478905195934
 30
0.0
  0
VERTEX
  5
120
330
11E
100
AcDbEntity
  8
_U+30EC_U+30A4_U+30E4_U+30FC 1
 62
   179
420
  2234388
370
     9
100
AcDbVertex
100
AcDb2dVertex
 10
97.12483502213902
 20
-147.9268835741292
 30
0.0
  0
SEQEND
  5
121
330
11E
100
AcDbEntity
  8
_U+30EC_U+30A4_U+30E4_U+30FC 1
 62
   179
420
  2234388
370
     9
  0
POLYLINE
  5
122
330
1F
100
AcDbEntity
  8
_U+30EC_U+30A4_U+30E4_U+30FC 1
 62
   179
420
  2234388
370
     9
100
AcDb2dPolyline
 66
     1
 10
0.0
 20
0.0
 30
0.0
  0
VERTEX
  5
123
330
122
100
AcDbEntity
  8
_U+30EC_U+30A4_U+30E4_U+30FC 1
 62
   179
420
  2234388
370
     9
100
AcDbVertex
100
AcDb2dVertex
 10
98.00261666641161
 20
-142.9707791309242
 30
0.0
  0
VERTEX
  5
124
330
122
100
AcDbEntity
  8
_U+30EC_U+30A4_U+30E4_U+30FC 1
 62
   179
420
  2234388
370
     9
100
AcDbVertex
100
AcDb2dVertex
 10
104.4697740014207
 20
-142.9707791309242
 30
0.0
  0
SEQEND
  5
125
330
122
100
AcDbEntity
  8
_U+30EC_U+30A4_U+30E4_U+30FC 1
 62
   179
420
  2234388
370
     9
  0
POLYLINE
  5
126
330
1F
100
AcDbEntity
  8
_U+30EC_U+30A4_U+30E4_U+30FC 1
 62
   179
420
  2234388
370
     9
100
AcDb2dPolyline
 66
     1
 10
0.0
 20
0.0
 30
0.0
  0
VERTEX
  5
127
330
126
100
AcDbEntity
  8
_U+30EC_U+30A4_U+30E4_U+30FC 1
 62
   179
420
  2234388
370
     9
100
AcDbVertex
100
AcDb2dVertex
 10
103.3724940294146
 20
-142.9707791309242
 30
0.0
  0
VERTEX
  5
128
330
126
100
AcDbEntity
  8
_U+30EC_U+30A4_U+30E4_U+30FC 1
 62
   179
420
  2234388
370
     9
100
AcDbVertex
100
AcDb2dVertex
 10
103.3724940294146
 20
-133.3706727444352
 30
0.0
  0
SEQEND
  5
129
330
126
100
AcDbEntity
  8
_U+30EC_U+30A4_U+30E4_U+30FC 1
 62
   179
420
  2234388
370
     9
  0
POLYLINE
  5
12A
330
1F
100
AcDbEntity
  8
_U+30EC_U+30A4_U+30E4_U+30FC 1
 62
   179
420
  2234388
370
     9
100
AcDb2dPolyline
 66
     1
 10
0.0
 20
0.0
 30
0.0
  0
VERTEX
  5
12B
330
12A
100
AcDbEntity
  8
_U+30EC_U+30A4_U+30E4_U+30FC 1
 62
   179
420
  2234388
370
     9
100
AcDbVertex
100
AcDb2dVertex
 10
83.02818815955223
 20
-135.6740646883039
 30
0.0
  0
VERTEX
  5
12C
330
12A
100
AcDbEntity
  8
_U+30EC_U+30A4_U+30E4_U+30FC 1
 62
   179
420
  2234388
370
     9
100
AcDbVertex
100
AcDb2dVertex
 10
83.02818815955223
 20
-141.0504685758487
 30
0.0
  0
SEQEND
  5
12D
330
12A
100
AcDbEntity
  8
_U+30EC_U+30A4_U+30E4_U+30FC 1
 62
   179
420
  2234388
370
     9
  0
SPLINE
  5
12E
330
1F
100
AcDbEntity
  8
_U+30EC_U+30A4_U+30E4_U+30FC 1
370
     0
100
AcDbSpline
210
0.0
220
0.0
230
1.0
 70
    11
 71
     3
 72
    29
 73
    25
 74
     0
 42
0.0000000001
 43
0.0000000001
 12
1.0
 22
0.0
 32
0.0
 13
1.0
 23
0.0
 33
0.0
 40
0.0
 40
0.0
 40
0.0
 40
0.0
 40
1.0
 40
1.0
 40
1.0
 40
2.0
 40
2.0
 40
2.0
 40
3.0
 40
3.0
 40
3.0
 40
4.0
 40
4.0
 40
4.0
 40
5.0
 40
5.0
 40
5.0
 40
6.0
 40
6.0
 40
6.0
 40
7.0
 40
7.0
 40
7.0
 40
8.0
 40
8.0
 40
8.0
 40
8.0
 10
97.02492835802119
 20
-111.5620210832206
 30
0.0
 10
97.02492835802119
 20
-111.5881971943252
 30
0.0
 10
97.03558224663827
 20
-111.614020527652
 30
0.0
 10
97.05420891282974
 20
-111.6326471943142
 30
0.0
 10
97.07244997573163
 20
-111.6508858054207
 30
0.0
 10
97.09862363391885
 20
-111.6619277498623
 30
0.0
 10
97.12483502213902
 20
-111.6619277498623
 30
0.0
 10
97.15101113258233
 20
-111.6619277498623
 30
0.0
 10
97.17683446525686
 20
-111.6508858054207
 30
0.0
 10
97.19542585367144
 20
-111.6326471943142
 30
0.0
 10
97.2140525198629
 20
-111.614020527652
 30
0.0
 10
97.22474168625686
 20
-111.5881971943252
 30
0.0
 10
97.22474168625686
 20
-111.5620210832206
 30
0.0
 10
97.22474168625686
 20
-111.5354921943383
 30
0.0
 10
97.2140525198629
 20
-111.5096335832337
 30
0.0
 10
97.19542585367144
 20
-111.4910421943493
 30
0.0
 10
97.17683446525686
 20
-111.4727683054653
 30
0.0
 10
97.15101113258233
 20
-111.4617616388012
 30
0.0
 10
97.12483502213902
 20
-111.4617616388012
 30
0.0
 10
97.09862363391885
 20
-111.4617616388012
 30
0.0
 10
97.07244997573163
 20
-111.4727683054653
 30
0.0
 10
97.05420891282974
 20
-111.4910421943493
 30
0.0
 10
97.03558224663827
 20
-111.5096335832337
 30
0.0
 10
97.02492835802119
 20
-111.5354921943383
 30
0.0
 10
97.02492835802119
 20
-111.5620210832206
 30
0.0
  0
HATCH
  5
12F
330
1F
100
AcDbEntity
  8
_U+30EC_U+30A4_U+30E4_U+30FC 1
 62
   179
420
  2234388
100
AcDbHatch
 10
0.0
 20
0.0
 30
0.0
210
0.0
220
0.0
230
1.0
  2
SOLID
 70
     1
 71
     0
 91
        1
 92
        1
 93
        1
 72
     4
 94
        3
 73
     0
 74
     1
 95
       29
 96
       25
 40
0.0
 40
0.0
 40
0.0
 40
0.0
 40
1.0
 40
1.0
 40
1.0
 40
2.0
 40
2.0
 40
2.0
 40
3.0
 40
3.0
 40
3.0
 40
4.0
 40
4.0
 40
4.0
 40
5.0
 40
5.0
 40
5.0
 40
6.0
 40
6.0
 40
6.0
 40
7.0
 40
7.0
 40
7.0
 40
8.0
 40
8.0
 40
8.0
 40
8.0
 10
97.02492835802119
 20
-111.5620210832206
 10
97.02492835802119
 20
-111.5881971943252
 10
97.03558224663827
 20
-111.614020527652
 10
97.05420891282974
 20
-111.6326471943142
 10
97.07244997573163
 20
-111.6508858054207
 10
97.09862363391885
 20
-111.6619277498623
 10
97.12483502213902
 20
-111.6619277498623
 10
97.15101113258233
 20
-111.6619277498623
 10
97.17683446525686
 20
-111.6508858054207
 10
97.19542585367144
 20
-111.6326471943142
 10
97.2140525198629
 20
-111.614020527652
 10
97.22474168625686
 20
-111.5881971943252
 10
97.22474168625686
 20
-111.5620210832206
 10
97.22474168625686
 20
-111.5354921943383
 10
97.2140525198629
 20
-111.5096335832337
 10
97.19542585367144
 20
-111.4910421943493
 10
97.17683446525686
 20
-111.4727683054653
 10
97.15101113258233
 20
-111.4617616388012
 10
97.12483502213902
 20
-111.4617616388012
 10
97.09862363391885
 20
-111.4617616388012
 10
97.07244997573163
 20
-111.4727683054653
 10
97.05420891282974
 20
-111.4910421943493
 10
97.03558224663827
 20
-111.5096335832337
 10
97.02492835802119
 20
-111.5354921943383
 10
97.02492835802119
 20
-111.5620210832206
 97
        0
 97
        0
 75
     2
 76
     1
 98
        0
  0
SPLINE
  5
130
330
1F
100
AcDbEntity
  8
_U+30EC_U+30A4_U+30E4_U+30FC 1
370
     0
100
AcDbSpline
210
0.0
220
0.0
230
1.0
 70
    11
 71
     3
 72
    29
 73
    25
 74
     0
 42
0.0000000001
 43
0.0000000001
 12
1.0
 22
0.0
 32
0.0
 13
1.0
 23
0.0
 33
0.0
 40
0.0
 40
0.0
 40
0.0
 40
0.0
 40
1.0
 40
1.0
 40
1.0
 40
2.0
 40
2.0
 40
2.0
 40
3.0
 40
3.0
 40
3.0
 40
4.0
 40
4.0
 40
4.0
 40
5.0
 40
5.0
 40
5.0
 40
6.0
 40
6.0
 40
6.0
 40
7.0
 40
7.0
 40
7.0
 40
8.0
 40
8.0
 40
8.0
 40
8.0
 10
89.72853159972334
 20
-111.5620210832206
 30
0.0
 10
89.72853159972334
 20
-111.5878444165475
 30
0.0
 10
89.7392207661173
 20
-111.6137030276521
 30
0.0
 10
89.75781215453188
 20
-111.6326471943142
 30
0.0
 10
89.77643882072334
 20
-111.6508858054207
 30
0.0
 10
89.80226215339786
 20
-111.6619277498623
 30
0.0
 10
89.82843826384116
 20
-111.6619277498623
 30
0.0
 10
89.85464965206135
 20
-111.6619277498623
 30
0.0
 10
89.88047298473587
 20
-111.6508858054207
 30
0.0
 10
89.89906664419202
 20
-111.6326471943142
 30
0.0
 10
89.91769103934192
 20
-111.6137030276521
 30
0.0
 10
89.92834719974013
 20
-111.5878444165475
 30
0.0
 10
89.92834719974013
 20
-111.5620210832206
 30
0.0
 10
89.92834719974013
 20
-111.5354921943383
 30
0.0
 10
89.91769103934192
 20
-111.5096335832337
 30
0.0
 10
89.89906664419202
 20
-111.4910421943493
 30
0.0
 10
89.88047298473587
 20
-111.4724508054654
 30
0.0
 10
89.85464965206135
 20
-111.4617616388012
 30
0.0
 10
89.82843826384116
 20
-111.4617616388012
 30
0.0
 10
89.80226215339786
 20
-111.4617616388012
 30
0.0
 10
89.77643882072334
 20
-111.4724508054654
 30
0.0
 10
89.75781215453188
 20
-111.4910421943493
 30
0.0
 10
89.7392207661173
 20
-111.5096335832337
 30
0.0
 10
89.72853159972334
 20
-111.5354921943383
 30
0.0
 10
89.72853159972334
 20
-111.5620210832206
 30
0.0
  0
HATCH
  5
131
330
1F
100
AcDbEntity
  8
_U+30EC_U+30A4_U+30E4_U+30FC 1
 62
   179
420
  2234388
100
AcDbHatch
 10
0.0
 20
0.0
 30
0.0
210
0.0
220
0.0
230
1.0
  2
SOLID
 70
     1
 71
     0
 91
        1
 92
        1
 93
        1
 72
     4
 94
        3
 73
     0
 74
     1
 95
       29
 96
       25
 40
0.0
 40
0.0
 40
0.0
 40
0.0
 40
1.0
 40
1.0
 40
1.0
 40
2.0
 40
2.0
 40
2.0
 40
3.0
 40
3.0
 40
3.0
 40
4.0
 40
4.0
 40
4.0
 40
5.0
 40
5.0
 40
5.0
 40
6.0
 40
6.0
 40
6.0
 40
7.0
 40
7.0
 40
7.0
 40
8.0
 40
8.0
 40
8.0
 40
8.0
 10
89.72853159972334
 20
-111.5620210832206
 10
89.72853159972334
 20
-111.5878444165475
 10
89.7392207661173
 20
-111.6137030276521
 10
89.75781215453188
 20
-111.6326471943142
 10
89.77643882072334
 20
-111.6508858054207
 10
89.80226215339786
 20
-111.6619277498623
 10
89.82843826384116
 20
-111.6619277498623
 10
89.85464965206135
 20
-111.6619277498623
 10
89.88047298473587
 20
-111.6508858054207
 10
89.89906664419202
 20
-111.6326471943142
 10
89.91769103934192
 20
-111.6137030276521
 10
89.92834719974013
 20
-111.5878444165475
 10
89.92834719974013
 20
-111.5620210832206
 10
89.92834719974013
 20
-111.5354921943383
 10
89.91769103934192
 20
-111.5096335832337
 10
89.89906664419202
 20
-111.4910421943493
 10
89.88047298473587
 20
-111.4724508054654
 10
89.85464965206135
 20
-111.4617616388012
 10
89.82843826384116
 20
-111.4617616388012
 10
89.80226215339786
 20
-111.4617616388012
 10
89.77643882072334
 20
-111.4724508054654
 10
89.75781215453188
 20
-111.4910421943493
 10
89.7392207661173
 20
-111.5096335832337
 10
89.72853159972334
 20
-111.5354921943383
 10
89.72853159972334
 20
-111.5620210832206
 97
        0
 97
        0
 75
     2
 76
     1
 98
        0
  0
SPLINE
  5
132
330
1F
100
AcDbEntity
  8
_U+30EC_U+30A4_U+30E4_U+30FC 1
370
     0
100
AcDbSpline
210
0.0
220
0.0
230
1.0
 70
    11
 71
     3
 72
    38
 73
    34
 74
     0
 42
0.0000000001
 43
0.0000000001
 12
1.0
 22
0.0
 32
0.0
 13
1.0
 23
0.0
 33
0.0
 40
0.0
 40
0.0
 40
0.0
 40
0.0
 40
1.0
 40
1.0
 40
1.0
 40
2.0
 40
2.0
 40
2.0
 40
3.0
 40
3.0
 40
3.0
 40
4.0
 40
4.0
 40
4.0
 40
5.0
 40
5.0
 40
5.0
 40
6.0
 40
6.0
 40
6.0
 40
7.0
 40
7.0
 40
7.0
 40
8.0
 40
8.0
 40
8.0
 40
9.0
 40
9.0
 40
9.0
 40
10.0
 40
10.0
 40
10.0
 40
11.0
 40
11.0
 40
11.0
 40
11.0
 10
95.10461785145684
 20
-111.5616683054429
 30
0.0
 10
95.10461785145684
 20
-111.5616683054429
 30
0.0
 10
95.10461785145684
 20
-111.5620210832206
 30
0.0
 10
95.10461785145684
 20
-111.5620210832206
 30
0.0
 10
95.10461785145684
 20
-111.5620210832206
 30
0.0
 10
95.10461785145684
 20
-111.5620210832206
 30
0.0
 10
95.10461785145684
 20
-111.5620210832206
 30
0.0
 10
95.10461785145684
 20
-111.5881971943252
 30
0.0
 10
95.1156245178427
 20
-111.614020527652
 30
0.0
 10
95.13389840626539
 20
-111.6326471943142
 30
0.0
 10
95.15248979467997
 20
-111.6508858054207
 30
0.0
 10
95.17870118290014
 20
-111.6619277498623
 30
0.0
 10
95.20487729334346
 20
-111.6619277498623
 30
0.0
 10
95.23070062601798
 20
-111.6619277498623
 30
0.0
 10
95.25687673646128
 20
-111.6508858054207
 30
0.0
 10
95.27550340265275
 20
-111.6326471943142
 30
0.0
 10
95.29374442062094
 20
-111.614020527652
 30
0.0
 10
95.30443117969251
 20
-111.5881971943252
 30
0.0
 10
95.30443117969251
 20
-111.5620210832206
 30
0.0
 10
95.30443117969251
 20
-111.5358449721161
 30
0.0
 10
95.29374442062094
 20
-111.5096335832337
 30
0.0
 10
95.27550340265275
 20
-111.4910421943493
 30
0.0
 10
95.25687673646128
 20
-111.4727683054653
 30
0.0
 10
95.23070062601798
 20
-111.462114416579
 30
0.0
 10
95.20487729334346
 20
-111.462114416579
 30
0.0
 10
95.20487729334346
 20
-111.462114416579
 30
0.0
 10
95.20487729334346
 20
-111.4617616388012
 30
0.0
 10
95.20487729334346
 20
-111.4617616388012
 30
0.0
 10
95.17870118290014
 20
-111.4617616388012
 30
0.0
 10
95.15248979467997
 20
-111.4724508054654
 30
0.0
 10
95.13389840626539
 20
-111.4910421943493
 30
0.0
 10
95.1156245178427
 20
-111.5096335832337
 30
0.0
 10
95.10461785145684
 20
-111.5354921943383
 30
0.0
 10
95.10461785145684
 20
-111.5616683054429
 30
0.0
  0
HATCH
  5
133
330
1F
100
AcDbEntity
  8
_U+30EC_U+30A4_U+30E4_U+30FC 1
 62
   179
420
  2234388
100
AcDbHatch
 10
0.0
 20
0.0
 30
0.0
210
0.0
220
0.0
230
1.0
  2
SOLID
 70
     1
 71
     0
 91
        1
 92
        1
 93
        1
 72
     4
 94
        3
 73
     0
 74
     1
 95
       38
 96
       34
 40
0.0
 40
0.0
 40
0.0
 40
0.0
 40
1.0
 40
1.0
 40
1.0
 40
2.0
 40
2.0
 40
2.0
 40
3.0
 40
3.0
 40
3.0
 40
4.0
 40
4.0
 40
4.0
 40
5.0
 40
5.0
 40
5.0
 40
6.0
 40
6.0
 40
6.0
 40
7.0
 40
7.0
 40
7.0
 40
8.0
 40
8.0
 40
8.0
 40
9.0
 40
9.0
 40
9.0
 40
10.0
 40
10.0
 40
10.0
 40
11.0
 40
11.0
 40
11.0
 40
11.0
 10
95.10461785145684
 20
-111.5616683054429
 10
95.10461785145684
 20
-111.5616683054429
 10
95.10461785145684
 20
-111.5620210832206
 10
95.10461785145684
 20
-111.5620210832206
 10
95.10461785145684
 20
-111.5620210832206
 10
95.10461785145684
 20
-111.5620210832206
 10
95.10461785145684
 20
-111.5620210832206
 10
95.10461785145684
 20
-111.5881971943252
 10
95.1156245178427
 20
-111.614020527652
 10
95.13389840626539
 20
-111.6326471943142
 10
95.15248979467997
 20
-111.6508858054207
 10
95.17870118290014
 20
-111.6619277498623
 10
95.20487729334346
 20
-111.6619277498623
 10
95.23070062601798
 20
-111.6619277498623
 10
95.25687673646128
 20
-111.6508858054207
 10
95.27550340265275
 20
-111.6326471943142
 10
95.29374442062094
 20
-111.614020527652
 10
95.30443117969251
 20
-111.5881971943252
 10
95.30443117969251
 20
-111.5620210832206
 10
95.30443117969251
 20
-111.5358449721161
 10
95.29374442062094
 20
-111.5096335832337
 10
95.27550340265275
 20
-111.4910421943493
 10
95.25687673646128
 20
-111.4727683054653
 10
95.23070062601798
 20
-111.462114416579
 10
95.20487729334346
 20
-111.462114416579
 10
95.20487729334346
 20
-111.462114416579
 10
95.20487729334346
 20
-111.4617616388012
 10
95.20487729334346
 20
-111.4617616388012
 10
95.17870118290014
 20
-111.4617616388012
 10
95.15248979467997
 20
-111.4724508054654
 10
95.13389840626539
 20
-111.4910421943493
 10
95.1156245178427
 20
-111.5096335832337
 10
95.10461785145684
 20
-111.5354921943383
 10
95.10461785145684
 20
-111.5616683054429
 97
        0
 97
        0
 75
     2
 76
     1
 98
        0
  0
SPLINE
  5
134
330
1F
100
AcDbEntity
  8
_U+30EC_U+30A4_U+30E4_U+30FC 1
370
     0
100
AcDbSpline
210
0.0
220
0.0
230
1.0
 70
    11
 71
     3
 72
    29
 73
    25
 74
     0
 42
0.0000000001
 43
0.0000000001
 12
1.0
 22
0.0
 32
0.0
 13
1.0
 23
0.0
 33
0.0
 40
0.0
 40
0.0
 40
0.0
 40
0.0
 40
1.0
 40
1.0
 40
1.0
 40
2.0
 40
2.0
 40
2.0
 40
3.0
 40
3.0
 40
3.0
 40
4.0
 40
4.0
 40
4.0
 40
5.0
 40
5.0
 40
5.0
 40
6.0
 40
6.0
 40
6.0
 40
7.0
 40
7.0
 40
7.0
 40
8.0
 40
8.0
 40
8.0
 40
8.0
 10
82.92828149543439
 20
-112.6337952496193
 30
0.0
 10
82.92828149543439
 20
-112.6599713607239
 30
0.0
 10
82.93928816182026
 20
-112.6861474718284
 30
0.0
 10
82.95756205024294
 20
-112.7044213607128
 30
0.0
 10
82.97615553481138
 20
-112.7230127495971
 30
0.0
 10
83.00201204910893
 20
-112.7337019162609
 30
0.0
 10
83.02818815955223
 20
-112.7337019162609
 30
0.0
 10
83.05436426999553
 20
-112.7337019162609
 30
0.0
 10
83.08054038043883
 20
-112.7230127495971
 30
0.0
 10
83.09881426886152
 20
-112.7044213607128
 30
0.0
 10
83.1174056572761
 20
-112.6861474718284
 30
0.0
 10
83.12809482367007
 20
-112.6599713607239
 30
0.0
 10
83.12809482367007
 20
-112.6337952496193
 30
0.0
 10
83.12809482367007
 20
-112.6075838607369
 30
0.0
 10
83.1174056572761
 20
-112.5814077496323
 30
0.0
 10
83.09881426886152
 20
-112.5631691385258
 30
0.0
 10
83.08054038043883
 20
-112.5445424718639
 30
0.0
 10
83.05436426999553
 20
-112.5338885829776
 30
0.0
 10
83.02818815955223
 20
-112.5338885829776
 30
0.0
 10
83.00201204910893
 20
-112.5338885829776
 30
0.0
 10
82.97615553481138
 20
-112.5445424718639
 30
0.0
 10
82.95756205024294
 20
-112.5631691385258
 30
0.0
 10
82.93928816182026
 20
-112.5814077496323
 30
0.0
 10
82.92828149543439
 20
-112.6075838607369
 30
0.0
 10
82.92828149543439
 20
-112.6337952496193
 30
0.0
  0
HATCH
  5
135
330
1F
100
AcDbEntity
  8
_U+30EC_U+30A4_U+30E4_U+30FC 1
 62
   179
420
  2234388
100
AcDbHatch
 10
0.0
 20
0.0
 30
0.0
210
0.0
220
0.0
230
1.0
  2
SOLID
 70
     1
 71
     0
 91
        1
 92
        1
 93
        1
 72
     4
 94
        3
 73
     0
 74
     1
 95
       29
 96
       25
 40
0.0
 40
0.0
 40
0.0
 40
0.0
 40
1.0
 40
1.0
 40
1.0
 40
2.0
 40
2.0
 40
2.0
 40
3.0
 40
3.0
 40
3.0
 40
4.0
 40
4.0
 40
4.0
 40
5.0
 40
5.0
 40
5.0
 40
6.0
 40
6.0
 40
6.0
 40
7.0
 40
7.0
 40
7.0
 40
8.0
 40
8.0
 40
8.0
 40
8.0
 10
82.92828149543439
 20
-112.6337952496193
 10
82.92828149543439
 20
-112.6599713607239
 10
82.93928816182026
 20
-112.6861474718284
 10
82.95756205024294
 20
-112.7044213607128
 10
82.97615553481138
 20
-112.7230127495971
 10
83.00201204910893
 20
-112.7337019162609
 10
83.02818815955223
 20
-112.7337019162609
 10
83.05436426999553
 20
-112.7337019162609
 10
83.08054038043883
 20
-112.7230127495971
 10
83.09881426886152
 20
-112.7044213607128
 10
83.1174056572761
 20
-112.6861474718284
 10
83.12809482367007
 20
-112.6599713607239
 10
83.12809482367007
 20
-112.6337952496193
 10
83.12809482367007
 20
-112.6075838607369
 10
83.1174056572761
 20
-112.5814077496323
 10
83.09881426886152
 20
-112.5631691385258
 10
83.08054038043883
 20
-112.5445424718639
 10
83.05436426999553
 20
-112.5338885829776
 10
83.02818815955223
 20
-112.5338885829776
 10
83.00201204910893
 20
-112.5338885829776
 10
82.97615553481138
 20
-112.5445424718639
 10
82.95756205024294
 20
-112.5631691385258
 10
82.93928816182026
 20
-112.5814077496323
 10
82.92828149543439
 20
-112.6075838607369
 10
82.92828149543439
 20
-112.6337952496193
 97
        0
 97
        0
 75
     2
 76
     1
 98
        0
  0
SPLINE
  5
136
330
1F
100
AcDbEntity
  8
_U+30EC_U+30A4_U+30E4_U+30FC 1
370
     0
100
AcDbSpline
210
0.0
220
0.0
230
1.0
 70
    11
 71
     3
 72
    29
 73
    25
 74
     0
 42
0.0000000001
 43
0.0000000001
 12
1.0
 22
0.0
 32
0.0
 13
1.0
 23
0.0
 33
0.0
 40
0.0
 40
0.0
 40
0.0
 40
0.0
 40
1.0
 40
1.0
 40
1.0
 40
2.0
 40
2.0
 40
2.0
 40
3.0
 40
3.0
 40
3.0
 40
4.0
 40
4.0
 40
4.0
 40
5.0
 40
5.0
 40
5.0
 40
6.0
 40
6.0
 40
6.0
 40
7.0
 40
7.0
 40
7.0
 40
8.0
 40
8.0
 40
8.0
 40
8.0
 10
79.90208323930581
 20
-112.6337952496193
 30
0.0
 10
79.90208323930581
 20
-112.6599713607239
 30
0.0
 10
79.91312518346855
 20
-112.6861474718284
 30
0.0
 10
79.93136379411436
 20
-112.7044213607128
 30
0.0
 10
79.94999046030581
 20
-112.7230127495971
 30
0.0
 10
79.97581379298035
 20
-112.7337019162609
 30
0.0
 10
80.00198990342365
 20
-112.7337019162609
 30
0.0
 10
80.02820129164382
 20
-112.7337019162609
 30
0.0
 10
80.05437740208713
 20
-112.7230127495971
 30
0.0
 10
80.07261601273294
 20
-112.7044213607128
 30
0.0
 10
80.09124267892439
 20
-112.6861474718284
 30
0.0
 10
80.10189656754147
 20
-112.6599713607239
 30
0.0
 10
80.10189656754147
 20
-112.6337952496193
 30
0.0
 10
80.10189656754147
 20
-112.6075838607369
 30
0.0
 10
80.09124267892439
 20
-112.5814077496323
 30
0.0
 10
80.07261601273294
 20
-112.5631691385258
 30
0.0
 10
80.05437740208713
 20
-112.5445424718639
 30
0.0
 10
80.02820129164382
 20
-112.5338885829776
 30
0.0
 10
80.00198990342365
 20
-112.5338885829776
 30
0.0
 10
79.97581379298035
 20
-112.5338885829776
 30
0.0
 10
79.94999046030581
 20
-112.5445424718639
 30
0.0
 10
79.93136379411436
 20
-112.5631691385258
 30
0.0
 10
79.91312518346855
 20
-112.5814077496323
 30
0.0
 10
79.90208323930581
 20
-112.6075838607369
 30
0.0
 10
79.90208323930581
 20
-112.6337952496193
 30
0.0
  0
HATCH
  5
137
330
1F
100
AcDbEntity
  8
_U+30EC_U+30A4_U+30E4_U+30FC 1
 62
   179
420
  2234388
100
AcDbHatch
 10
0.0
 20
0.0
 30
0.0
210
0.0
220
0.0
230
1.0
  2
SOLID
 70
     1
 71
     0
 91
        1
 92
        1
 93
        1
 72
     4
 94
        3
 73
     0
 74
     1
 95
       29
 96
       25
 40
0.0
 40
0.0
 40
0.0
 40
0.0
 40
1.0
 40
1.0
 40
1.0
 40
2.0
 40
2.0
 40
2.0
 40
3.0
 40
3.0
 40
3.0
 40
4.0
 40
4.0
 40
4.0
 40
5.0
 40
5.0
 40
5.0
 40
6.0
 40
6.0
 40
6.0
 40
7.0
 40
7.0
 40
7.0
 40
8.0
 40
8.0
 40
8.0
 40
8.0
 10
79.90208323930581
 20
-112.6337952496193
 10
79.90208323930581
 20
-112.6599713607239
 10
79.91312518346855
 20
-112.6861474718284
 10
79.93136379411436
 20
-112.7044213607128
 10
79.94999046030581
 20
-112.7230127495971
 10
79.97581379298035
 20
-112.7337019162609
 10
80.00198990342365
 20
-112.7337019162609
 10
80.02820129164382
 20
-112.7337019162609
 10
80.05437740208713
 20
-112.7230127495971
 10
80.07261601273294
 20
-112.7044213607128
 10
80.09124267892439
 20
-112.6861474718284
 10
80.10189656754147
 20
-112.6599713607239
 10
80.10189656754147
 20
-112.6337952496193
 10
80.10189656754147
 20
-112.6075838607369
 10
80.09124267892439
 20
-112.5814077496323
 10
80.07261601273294
 20
-112.5631691385258
 10
80.05437740208713
 20
-112.5445424718639
 10
80.02820129164382
 20
-112.5338885829776
 10
80.00198990342365
 20
-112.5338885829776
 10
79.97581379298035
 20
-112.5338885829776
 10
79.94999046030581
 20
-112.5445424718639
 10
79.93136379411436
 20
-112.5631691385258
 10
79.91312518346855
 20
-112.5814077496323
 10
79.90208323930581
 20
-112.6075838607369
 10
79.90208323930581
 20
-112.6337952496193
 97
        0
 97
        0
 75
     2
 76
     1
 98
        0
  0
SPLINE
  5
138
330
1F
100
AcDbEntity
  8
_U+30EC_U+30A4_U+30E4_U+30FC 1
370
     0
100
AcDbSpline
210
0.0
220
0.0
230
1.0
 70
    11
 71
     3
 72
    35
 73
    31
 74
     0
 42
0.0000000001
 43
0.0000000001
 12
1.0
 22
0.0
 32
0.0
 13
1.0
 23
0.0
 33
0.0
 40
0.0
 40
0.0
 40
0.0
 40
0.0
 40
1.0
 40
1.0
 40
1.0
 40
2.0
 40
2.0
 40
2.0
 40
3.0
 40
3.0
 40
3.0
 40
4.0
 40
4.0
 40
4.0
 40
5.0
 40
5.0
 40
5.0
 40
6.0
 40
6.0
 40
6.0
 40
7.0
 40
7.0
 40
7.0
 40
8.0
 40
8.0
 40
8.0
 40
9.0
 40
9.0
 40
9.0
 40
10.0
 40
10.0
 40
10.0
 40
10.0
 10
103.4431201387239
 20
-133.4409460777507
 30
0.0
 10
103.4613940271466
 20
-133.4223546888664
 30
0.0
 10
103.4720479157637
 20
-133.3961785777621
 30
0.0
 10
103.4720479157637
 20
-133.3699671888797
 30
0.0
 10
103.4720479157637
 20
-133.3437910777754
 30
0.0
 10
103.4613940271466
 20
-133.3176149666706
 30
0.0
 10
103.4431201387239
 20
-133.2996938555642
 30
0.0
 10
103.4245287503093
 20
-133.28110246668
 30
0.0
 10
103.3986701398579
 20
-133.2700605222381
 30
0.0
 10
103.3724940294146
 20
-133.2700605222381
 30
0.0
 10
103.3724940294146
 20
-133.2700605222381
 30
0.0
 10
103.3724940294146
 20
-133.2700605222381
 30
0.0
 10
103.3724940294146
 20
-133.2700605222381
 30
0.0
 10
103.3463179189713
 20
-133.2700605222381
 30
0.0
 10
103.3204971963923
 20
-133.2803969111244
 30
0.0
 10
103.3018679201053
 20
-133.2990235777862
 30
0.0
 10
103.2832765316908
 20
-133.3176149666706
 30
0.0
 10
103.272234587528
 20
-133.3437910777754
 30
0.0
 10
103.272234587528
 20
-133.3699671888797
 30
0.0
 10
103.272234587528
 20
-133.3961785777621
 30
0.0
 10
103.2832765316908
 20
-133.4223546888664
 30
0.0
 10
103.3018679201053
 20
-133.4409460777507
 30
0.0
 10
103.3201444186145
 20
-133.4588671888576
 30
0.0
 10
103.3459651412026
 20
-133.4698738555213
 30
0.0
 10
103.3721412516459
 20
-133.4698738555213
 30
0.0
 10
103.3721412516459
 20
-133.4698738555213
 30
0.0
 10
103.3721412516459
 20
-133.4698738555213
 30
0.0
 10
103.3721412516459
 20
-133.4698738555213
 30
0.0
 10
103.398352639866
 20
-133.4698738555213
 30
0.0
 10
103.4245287503093
 20
-133.4588671888576
 30
0.0
 10
103.4431201387239
 20
-133.4409460777507
 30
0.0
  0
HATCH
  5
139
330
1F
100
AcDbEntity
  8
_U+30EC_U+30A4_U+30E4_U+30FC 1
 62
   179
420
  2234388
100
AcDbHatch
 10
0.0
 20
0.0
 30
0.0
210
0.0
220
0.0
230
1.0
  2
SOLID
 70
     1
 71
     0
 91
        1
 92
        1
 93
        1
 72
     4
 94
        3
 73
     0
 74
     1
 95
       35
 96
       31
 40
0.0
 40
0.0
 40
0.0
 40
0.0
 40
1.0
 40
1.0
 40
1.0
 40
2.0
 40
2.0
 40
2.0
 40
3.0
 40
3.0
 40
3.0
 40
4.0
 40
4.0
 40
4.0
 40
5.0
 40
5.0
 40
5.0
 40
6.0
 40
6.0
 40
6.0
 40
7.0
 40
7.0
 40
7.0
 40
8.0
 40
8.0
 40
8.0
 40
9.0
 40
9.0
 40
9.0
 40
10.0
 40
10.0
 40
10.0
 40
10.0
 10
103.4431201387239
 20
-133.4409460777507
 10
103.4613940271466
 20
-133.4223546888664
 10
103.4720479157637
 20
-133.3961785777621
 10
103.4720479157637
 20
-133.3699671888797
 10
103.4720479157637
 20
-133.3437910777754
 10
103.4613940271466
 20
-133.3176149666706
 10
103.4431201387239
 20
-133.2996938555642
 10
103.4245287503093
 20
-133.28110246668
 10
103.3986701398579
 20
-133.2700605222381
 10
103.3724940294146
 20
-133.2700605222381
 10
103.3724940294146
 20
-133.2700605222381
 10
103.3724940294146
 20
-133.2700605222381
 10
103.3724940294146
 20
-133.2700605222381
 10
103.3463179189713
 20
-133.2700605222381
 10
103.3204971963923
 20
-133.2803969111244
 10
103.3018679201053
 20
-133.2990235777862
 10
103.2832765316908
 20
-133.3176149666706
 10
103.272234587528
 20
-133.3437910777754
 10
103.272234587528
 20
-133.3699671888797
 10
103.272234587528
 20
-133.3961785777621
 10
103.2832765316908
 20
-133.4223546888664
 10
103.3018679201053
 20
-133.4409460777507
 10
103.3201444186145
 20
-133.4588671888576
 10
103.3459651412026
 20
-133.4698738555213
 10
103.3721412516459
 20
-133.4698738555213
 10
103.3721412516459
 20
-133.4698738555213
 10
103.3721412516459
 20
-133.4698738555213
 10
103.3721412516459
 20
-133.4698738555213
 10
103.398352639866
 20
-133.4698738555213
 10
103.4245287503093
 20
-133.4588671888576
 10
103.4431201387239
 20
-133.4409460777507
 97
        0
 97
        0
 75
     2
 76
     1
 98
        0
  0
SPLINE
  5
13A
330
1F
100
AcDbEntity
  8
_U+30EC_U+30A4_U+30E4_U+30FC 1
370
     0
100
AcDbSpline
210
0.0
220
0.0
230
1.0
 70
    11
 71
     3
 72
    29
 73
    25
 74
     0
 42
0.0000000001
 43
0.0000000001
 12
1.0
 22
0.0
 32
0.0
 13
1.0
 23
0.0
 33
0.0
 40
0.0
 40
0.0
 40
0.0
 40
0.0
 40
1.0
 40
1.0
 40
1.0
 40
2.0
 40
2.0
 40
2.0
 40
3.0
 40
3.0
 40
3.0
 40
4.0
 40
4.0
 40
4.0
 40
5.0
 40
5.0
 40
5.0
 40
6.0
 40
6.0
 40
6.0
 40
7.0
 40
7.0
 40
7.0
 40
8.0
 40
8.0
 40
8.0
 40
8.0
 10
100.4148757715364
 20
-133.3699671888797
 30
0.0
 10
100.4148757715364
 20
-133.3961785777621
 30
0.0
 10
100.4255649379304
 20
-133.4223546888664
 30
0.0
 10
100.444156326345
 20
-133.4409460777507
 30
0.0
 10
100.4627829925364
 20
-133.4588671888576
 30
0.0
 10
100.4889591029797
 20
-133.4698738555213
 30
0.0
 10
100.5147824356543
 20
-133.4698738555213
 30
0.0
 10
100.5409610859757
 20
-133.4698738555213
 30
0.0
 10
100.5671699343177
 20
-133.4588671888576
 30
0.0
 10
100.5857638637425
 20
-133.4409460777507
 30
0.0
 10
100.604035211155
 20
-133.4223546888664
 30
0.0
 10
100.6146916415131
 20
-133.3961785777621
 30
0.0
 10
100.6146916415131
 20
-133.3699671888797
 30
0.0
 10
100.6146916415131
 20
-133.3437910777754
 30
0.0
 10
100.604035211155
 20
-133.3176149666706
 30
0.0
 10
100.5857638637425
 20
-133.2990235777862
 30
0.0
 10
100.5671699343177
 20
-133.2803969111244
 30
0.0
 10
100.5409610859757
 20
-133.2700605222381
 30
0.0
 10
100.5147824356543
 20
-133.2700605222381
 30
0.0
 10
100.4889591029797
 20
-133.2700605222381
 30
0.0
 10
100.4627829925364
 20
-133.2803969111244
 30
0.0
 10
100.444156326345
 20
-133.2990235777862
 30
0.0
 10
100.4255649379304
 20
-133.3176149666706
 30
0.0
 10
100.4148757715364
 20
-133.3437910777754
 30
0.0
 10
100.4148757715364
 20
-133.3699671888797
 30
0.0
  0
HATCH
  5
13B
330
1F
100
AcDbEntity
  8
_U+30EC_U+30A4_U+30E4_U+30FC 1
 62
   179
420
  2234388
100
AcDbHatch
 10
0.0
 20
0.0
 30
0.0
210
0.0
220
0.0
230
1.0
  2
SOLID
 70
     1
 71
     0
 91
        1
 92
        1
 93
        1
 72
     4
 94
        3
 73
     0
 74
     1
 95
       29
 96
       25
 40
0.0
 40
0.0
 40
0.0
 40
0.0
 40
1.0
 40
1.0
 40
1.0
 40
2.0
 40
2.0
 40
2.0
 40
3.0
 40
3.0
 40
3.0
 40
4.0
 40
4.0
 40
4.0
 40
5.0
 40
5.0
 40
5.0
 40
6.0
 40
6.0
 40
6.0
 40
7.0
 40
7.0
 40
7.0
 40
8.0
 40
8.0
 40
8.0
 40
8.0
 10
100.4148757715364
 20
-133.3699671888797
 10
100.4148757715364
 20
-133.3961785777621
 10
100.4255649379304
 20
-133.4223546888664
 10
100.444156326345
 20
-133.4409460777507
 10
100.4627829925364
 20
-133.4588671888576
 10
100.4889591029797
 20
-133.4698738555213
 10
100.5147824356543
 20
-133.4698738555213
 10
100.5409610859757
 20
-133.4698738555213
 10
100.5671699343177
 20
-133.4588671888576
 10
100.5857638637425
 20
-133.4409460777507
 10
100.604035211155
 20
-133.4223546888664
 10
100.6146916415131
 20
-133.3961785777621
 10
100.6146916415131
 20
-133.3699671888797
 10
100.6146916415131
 20
-133.3437910777754
 10
100.604035211155
 20
-133.3176149666706
 10
100.5857638637425
 20
-133.2990235777862
 10
100.5671699343177
 20
-133.2803969111244
 10
100.5409610859757
 20
-133.2700605222381
 10
100.5147824356543
 20
-133.2700605222381
 10
100.4889591029797
 20
-133.2700605222381
 10
100.4627829925364
 20
-133.2803969111244
 10
100.444156326345
 20
-133.2990235777862
 10
100.4255649379304
 20
-133.3176149666706
 10
100.4148757715364
 20
-133.3437910777754
 10
100.4148757715364
 20
-133.3699671888797
 97
        0
 97
        0
 75
     2
 76
     1
 98
        0
  0
SPLINE
  5
13C
330
1F
100
AcDbEntity
  8
_U+30EC_U+30A4_U+30E4_U+30FC 1
370
     0
100
AcDbSpline
210
0.0
220
0.0
230
1.0
 70
    11
 71
     3
 72
    29
 73
    25
 74
     0
 42
0.0000000001
 43
0.0000000001
 12
1.0
 22
0.0
 32
0.0
 13
1.0
 23
0.0
 33
0.0
 40
0.0
 40
0.0
 40
0.0
 40
0.0
 40
1.0
 40
1.0
 40
1.0
 40
2.0
 40
2.0
 40
2.0
 40
3.0
 40
3.0
 40
3.0
 40
4.0
 40
4.0
 40
4.0
 40
5.0
 40
5.0
 40
5.0
 40
6.0
 40
6.0
 40
6.0
 40
7.0
 40
7.0
 40
7.0
 40
8.0
 40
8.0
 40
8.0
 40
8.0
 10
100.4148757715364
 20
-135.174531355095
 30
0.0
 10
100.4148757715364
 20
-135.2007074661999
 30
0.0
 10
100.4259177156992
 20
-135.2268835773042
 30
0.0
 10
100.444156326345
 20
-135.2454749661885
 30
0.0
 10
100.4627829925364
 20
-135.264101632851
 30
0.0
 10
100.488606325211
 20
-135.2744380217367
 30
0.0
 10
100.5147824356543
 20
-135.2744380217367
 30
0.0
 10
100.5413138637535
 20
-135.2744380217367
 30
0.0
 10
100.5671699343177
 20
-135.264101632851
 30
0.0
 10
100.5857638637425
 20
-135.2454749661885
 30
0.0
 10
100.6043527111469
 20
-135.2268835773042
 30
0.0
 10
100.6150444192909
 20
-135.2007074661999
 30
0.0
 10
100.6150444192909
 20
-135.174531355095
 30
0.0
 10
100.6150444192909
 20
-135.1483552439908
 30
0.0
 10
100.6043527111469
 20
-135.1228494106639
 30
0.0
 10
100.5857638637425
 20
-135.1042580217796
 30
0.0
 10
100.5671699343177
 20
-135.0856313551178
 30
0.0
 10
100.5413138637535
 20
-135.0746246884534
 30
0.0
 10
100.5147824356543
 20
-135.0746246884534
 30
0.0
 10
100.488606325211
 20
-135.0746246884534
 30
0.0
 10
100.4627829925364
 20
-135.0856313551178
 30
0.0
 10
100.444156326345
 20
-135.1042580217796
 30
0.0
 10
100.4259177156992
 20
-135.1228494106639
 30
0.0
 10
100.4148757715364
 20
-135.1483552439908
 30
0.0
 10
100.4148757715364
 20
-135.174531355095
 30
0.0
  0
HATCH
  5
13D
330
1F
100
AcDbEntity
  8
_U+30EC_U+30A4_U+30E4_U+30FC 1
 62
   179
420
  2234388
100
AcDbHatch
 10
0.0
 20
0.0
 30
0.0
210
0.0
220
0.0
230
1.0
  2
SOLID
 70
     1
 71
     0
 91
        1
 92
        1
 93
        1
 72
     4
 94
        3
 73
     0
 74
     1
 95
       29
 96
       25
 40
0.0
 40
0.0
 40
0.0
 40
0.0
 40
1.0
 40
1.0
 40
1.0
 40
2.0
 40
2.0
 40
2.0
 40
3.0
 40
3.0
 40
3.0
 40
4.0
 40
4.0
 40
4.0
 40
5.0
 40
5.0
 40
5.0
 40
6.0
 40
6.0
 40
6.0
 40
7.0
 40
7.0
 40
7.0
 40
8.0
 40
8.0
 40
8.0
 40
8.0
 10
100.4148757715364
 20
-135.174531355095
 10
100.4148757715364
 20
-135.2007074661999
 10
100.4259177156992
 20
-135.2268835773042
 10
100.444156326345
 20
-135.2454749661885
 10
100.4627829925364
 20
-135.264101632851
 10
100.488606325211
 20
-135.2744380217367
 10
100.5147824356543
 20
-135.2744380217367
 10
100.5413138637535
 20
-135.2744380217367
 10
100.5671699343177
 20
-135.264101632851
 10
100.5857638637425
 20
-135.2454749661885
 10
100.6043527111469
 20
-135.2268835773042
 10
100.6150444192909
 20
-135.2007074661999
 10
100.6150444192909
 20
-135.174531355095
 10
100.6150444192909
 20
-135.1483552439908
 10
100.6043527111469
 20
-135.1228494106639
 10
100.5857638637425
 20
-135.1042580217796
 10
100.5671699343177
 20
-135.0856313551178
 10
100.5413138637535
 20
-135.0746246884534
 10
100.5147824356543
 20
-135.0746246884534
 10
100.488606325211
 20
-135.0746246884534
 10
100.4627829925364
 20
-135.0856313551178
 10
100.444156326345
 20
-135.1042580217796
 10
100.4259177156992
 20
-135.1228494106639
 10
100.4148757715364
 20
-135.1483552439908
 10
100.4148757715364
 20
-135.174531355095
 97
        0
 97
        0
 75
     2
 76
     1
 98
        0
  0
SPLINE
  5
13E
330
1F
100
AcDbEntity
  8
_U+30EC_U+30A4_U+30E4_U+30FC 1
370
     0
100
AcDbSpline
210
0.0
220
0.0
230
1.0
 70
    11
 71
     3
 72
    29
 73
    25
 74
     0
 42
0.0000000001
 43
0.0000000001
 12
1.0
 22
0.0
 32
0.0
 13
1.0
 23
0.0
 33
0.0
 40
0.0
 40
0.0
 40
0.0
 40
0.0
 40
1.0
 40
1.0
 40
1.0
 40
2.0
 40
2.0
 40
2.0
 40
3.0
 40
3.0
 40
3.0
 40
4.0
 40
4.0
 40
4.0
 40
5.0
 40
5.0
 40
5.0
 40
6.0
 40
6.0
 40
6.0
 40
7.0
 40
7.0
 40
7.0
 40
8.0
 40
8.0
 40
8.0
 40
8.0
 10
86.6565427892074
 20
-146.8299563521814
 30
0.0
 10
86.6565427892074
 20
-146.8561677410638
 30
0.0
 10
86.66758473337015
 20
-146.8816382966132
 30
0.0
 10
86.68582334401596
 20
-146.900264963275
 30
0.0
 10
86.70445001020742
 20
-146.9188563521593
 30
0.0
 10
86.73027334288194
 20
-146.9298630188231
 30
0.0
 10
86.75644945332525
 20
-146.9298630188231
 30
0.0
 10
86.78298053385974
 20
-146.9298630188231
 30
0.0
 10
86.80883695198872
 20
-146.9188563521593
 30
0.0
 10
86.8274305338487
 20
-146.900264963275
 30
0.0
 10
86.845702228826
 20
-146.8816382966132
 30
0.0
 10
86.85671108939681
 20
-146.8561677410638
 30
0.0
 10
86.85671108939681
 20
-146.8299563521814
 30
0.0
 10
86.85671108939681
 20
-146.8037802410765
 30
0.0
 10
86.845702228826
 20
-146.7776041299723
 30
0.0
 10
86.8274305338487
 20
-146.759012741088
 30
0.0
 10
86.80883695198872
 20
-146.7403860744261
 30
0.0
 10
86.78298053385974
 20
-146.7300496855398
 30
0.0
 10
86.75644945332525
 20
-146.7300496855398
 30
0.0
 10
86.73027334288194
 20
-146.7300496855398
 30
0.0
 10
86.70445001020742
 20
-146.7403860744261
 30
0.0
 10
86.68582334401596
 20
-146.759012741088
 30
0.0
 10
86.66758473337015
 20
-146.7776041299723
 30
0.0
 10
86.6565427892074
 20
-146.8037802410765
 30
0.0
 10
86.6565427892074
 20
-146.8299563521814
 30
0.0
  0
HATCH
  5
13F
330
1F
100
AcDbEntity
  8
_U+30EC_U+30A4_U+30E4_U+30FC 1
 62
   179
420
  2234388
100
AcDbHatch
 10
0.0
 20
0.0
 30
0.0
210
0.0
220
0.0
230
1.0
  2
SOLID
 70
     1
 71
     0
 91
        1
 92
        1
 93
        1
 72
     4
 94
        3
 73
     0
 74
     1
 95
       29
 96
       25
 40
0.0
 40
0.0
 40
0.0
 40
0.0
 40
1.0
 40
1.0
 40
1.0
 40
2.0
 40
2.0
 40
2.0
 40
3.0
 40
3.0
 40
3.0
 40
4.0
 40
4.0
 40
4.0
 40
5.0
 40
5.0
 40
5.0
 40
6.0
 40
6.0
 40
6.0
 40
7.0
 40
7.0
 40
7.0
 40
8.0
 40
8.0
 40
8.0
 40
8.0
 10
86.6565427892074
 20
-146.8299563521814
 10
86.6565427892074
 20
-146.8561677410638
 10
86.66758473337015
 20
-146.8816382966132
 10
86.68582334401596
 20
-146.900264963275
 10
86.70445001020742
 20
-146.9188563521593
 10
86.73027334288194
 20
-146.9298630188231
 10
86.75644945332525
 20
-146.9298630188231
 10
86.78298053385974
 20
-146.9298630188231
 10
86.80883695198872
 20
-146.9188563521593
 10
86.8274305338487
 20
-146.900264963275
 10
86.845702228826
 20
-146.8816382966132
 10
86.85671108939681
 20
-146.8561677410638
 10
86.85671108939681
 20
-146.8299563521814
 10
86.85671108939681
 20
-146.8037802410765
 10
86.845702228826
 20
-146.7776041299723
 10
86.8274305338487
 20
-146.759012741088
 10
86.80883695198872
 20
-146.7403860744261
 10
86.78298053385974
 20
-146.7300496855398
 10
86.75644945332525
 20
-146.7300496855398
 10
86.73027334288194
 20
-146.7300496855398
 10
86.70445001020742
 20
-146.7403860744261
 10
86.68582334401596
 20
-146.759012741088
 10
86.66758473337015
 20
-146.7776041299723
 10
86.6565427892074
 20
-146.8037802410765
 10
86.6565427892074
 20
-146.8299563521814
 97
        0
 97
        0
 75
     2
 76
     1
 98
        0
  0
SPLINE
  5
140
330
1F
100
AcDbEntity
  8
_U+30EC_U+30A4_U+30E4_U+30FC 1
370
     0
100
AcDbSpline
210
0.0
220
0.0
230
1.0
 70
    11
 71
     3
 72
    29
 73
    25
 74
     0
 42
0.0000000001
 43
0.0000000001
 12
1.0
 22
0.0
 32
0.0
 13
1.0
 23
0.0
 33
0.0
 40
0.0
 40
0.0
 40
0.0
 40
0.0
 40
1.0
 40
1.0
 40
1.0
 40
2.0
 40
2.0
 40
2.0
 40
3.0
 40
3.0
 40
3.0
 40
4.0
 40
4.0
 40
4.0
 40
5.0
 40
5.0
 40
5.0
 40
6.0
 40
6.0
 40
6.0
 40
7.0
 40
7.0
 40
7.0
 40
8.0
 40
8.0
 40
8.0
 40
8.0
 10
97.02492835802119
 20
-146.8299563521814
 30
0.0
 10
97.02492835802119
 20
-146.8561677410638
 30
0.0
 10
97.03558224663827
 20
-146.8823438521681
 30
0.0
 10
97.05420891282974
 20
-146.900264963275
 30
0.0
 10
97.0728027535094
 20
-146.9188563521593
 30
0.0
 10
97.09862363391885
 20
-146.9298630188231
 30
0.0
 10
97.12483502213902
 20
-146.9298630188231
 30
0.0
 10
97.15101113258233
 20
-146.9298630188231
 30
0.0
 10
97.17718724302563
 20
-146.9188563521593
 30
0.0
 10
97.19542585367144
 20
-146.900264963275
 30
0.0
 10
97.2140525198629
 20
-146.8823438521681
 30
0.0
 10
97.22474168625686
 20
-146.8561677410638
 30
0.0
 10
97.22474168625686
 20
-146.8299563521814
 30
0.0
 10
97.22474168625686
 20
-146.8037802410765
 30
0.0
 10
97.2140525198629
 20
-146.7776041299723
 30
0.0
 10
97.19542585367144
 20
-146.759012741088
 30
0.0
 10
97.17718724302563
 20
-146.7403860744261
 30
0.0
 10
97.15101113258233
 20
-146.7300496855398
 30
0.0
 10
97.12483502213902
 20
-146.7300496855398
 30
0.0
 10
97.09862363391885
 20
-146.7300496855398
 30
0.0
 10
97.0728027535094
 20
-146.7403860744261
 30
0.0
 10
97.05420891282974
 20
-146.759012741088
 30
0.0
 10
97.03558224663827
 20
-146.7776041299723
 30
0.0
 10
97.02492835802119
 20
-146.8037802410765
 30
0.0
 10
97.02492835802119
 20
-146.8299563521814
 30
0.0
  0
HATCH
  5
141
330
1F
100
AcDbEntity
  8
_U+30EC_U+30A4_U+30E4_U+30FC 1
 62
   179
420
  2234388
100
AcDbHatch
 10
0.0
 20
0.0
 30
0.0
210
0.0
220
0.0
230
1.0
  2
SOLID
 70
     1
 71
     0
 91
        1
 92
        1
 93
        1
 72
     4
 94
        3
 73
     0
 74
     1
 95
       29
 96
       25
 40
0.0
 40
0.0
 40
0.0
 40
0.0
 40
1.0
 40
1.0
 40
1.0
 40
2.0
 40
2.0
 40
2.0
 40
3.0
 40
3.0
 40
3.0
 40
4.0
 40
4.0
 40
4.0
 40
5.0
 40
5.0
 40
5.0
 40
6.0
 40
6.0
 40
6.0
 40
7.0
 40
7.0
 40
7.0
 40
8.0
 40
8.0
 40
8.0
 40
8.0
 10
97.02492835802119
 20
-146.8299563521814
 10
97.02492835802119
 20
-146.8561677410638
 10
97.03558224663827
 20
-146.8823438521681
 10
97.05420891282974
 20
-146.900264963275
 10
97.0728027535094
 20
-146.9188563521593
 10
97.09862363391885
 20
-146.9298630188231
 10
97.12483502213902
 20
-146.9298630188231
 10
97.15101113258233
 20
-146.9298630188231
 10
97.17718724302563
 20
-146.9188563521593
 10
97.19542585367144
 20
-146.900264963275
 10
97.2140525198629
 20
-146.8823438521681
 10
97.22474168625686
 20
-146.8561677410638
 10
97.22474168625686
 20
-146.8299563521814
 10
97.22474168625686
 20
-146.8037802410765
 10
97.2140525198629
 20
-146.7776041299723
 10
97.19542585367144
 20
-146.759012741088
 10
97.17718724302563
 20
-146.7403860744261
 10
97.15101113258233
 20
-146.7300496855398
 10
97.12483502213902
 20
-146.7300496855398
 10
97.09862363391885
 20
-146.7300496855398
 10
97.0728027535094
 20
-146.7403860744261
 10
97.05420891282974
 20
-146.759012741088
 10
97.03558224663827
 20
-146.7776041299723
 10
97.02492835802119
 20
-146.8037802410765
 10
97.02492835802119
 20
-146.8299563521814
 97
        0
 97
        0
 75
     2
 76
     1
 98
        0
  0
SPLINE
  5
142
330
1F
100
AcDbEntity
  8
_U+30EC_U+30A4_U+30E4_U+30FC 1
370
     0
100
AcDbSpline
210
0.0
220
0.0
230
1.0
 70
    11
 71
     3
 72
    29
 73
    25
 74
     0
 42
0.0000000001
 43
0.0000000001
 12
1.0
 22
0.0
 32
0.0
 13
1.0
 23
0.0
 33
0.0
 40
0.0
 40
0.0
 40
0.0
 40
0.0
 40
1.0
 40
1.0
 40
1.0
 40
2.0
 40
2.0
 40
2.0
 40
3.0
 40
3.0
 40
3.0
 40
4.0
 40
4.0
 40
4.0
 40
5.0
 40
5.0
 40
5.0
 40
6.0
 40
6.0
 40
6.0
 40
7.0
 40
7.0
 40
7.0
 40
8.0
 40
8.0
 40
8.0
 40
8.0
 10
103.2725873652968
 20
-142.9700735753687
 30
0.0
 10
103.2725873652968
 20
-142.9962849642511
 30
0.0
 10
103.2832765316908
 20
-143.0224610753554
 30
0.0
 10
103.3018679201053
 20
-143.0410524642397
 30
0.0
 10
103.3201444186145
 20
-143.059643853124
 30
0.0
 10
103.3463179189713
 20
-143.0699802420104
 30
0.0
 10
103.3724940294146
 20
-143.0699802420104
 30
0.0
 10
103.3986701398579
 20
-143.0699802420104
 30
0.0
 10
103.4248815280781
 20
-143.059643853124
 30
0.0
 10
103.4431201387239
 20
-143.0410524642397
 30
0.0
 10
103.4617115271385
 20
-143.0224610753554
 30
0.0
 10
103.4724006935325
 20
-142.9962849642511
 30
0.0
 10
103.4724006935325
 20
-142.9700735753687
 30
0.0
 10
103.4724006935325
 20
-142.9438974642638
 30
0.0
 10
103.4617115271385
 20
-142.9183916309369
 30
0.0
 10
103.4431201387239
 20
-142.8998002420526
 30
0.0
 10
103.4248815280781
 20
-142.8812088531683
 30
0.0
 10
103.3986701398579
 20
-142.8701669087271
 30
0.0
 10
103.3724940294146
 20
-142.8701669087271
 30
0.0
 10
103.3463179189713
 20
-142.8701669087271
 30
0.0
 10
103.3201444186145
 20
-142.8812088531683
 30
0.0
 10
103.3018679201053
 20
-142.8998002420526
 30
0.0
 10
103.2832765316908
 20
-142.9183916309369
 30
0.0
 10
103.2725873652968
 20
-142.9438974642638
 30
0.0
 10
103.2725873652968
 20
-142.9700735753687
 30
0.0
  0
HATCH
  5
143
330
1F
100
AcDbEntity
  8
_U+30EC_U+30A4_U+30E4_U+30FC 1
 62
   179
420
  2234388
100
AcDbHatch
 10
0.0
 20
0.0
 30
0.0
210
0.0
220
0.0
230
1.0
  2
SOLID
 70
     1
 71
     0
 91
        1
 92
        1
 93
        1
 72
     4
 94
        3
 73
     0
 74
     1
 95
       29
 96
       25
 40
0.0
 40
0.0
 40
0.0
 40
0.0
 40
1.0
 40
1.0
 40
1.0
 40
2.0
 40
2.0
 40
2.0
 40
3.0
 40
3.0
 40
3.0
 40
4.0
 40
4.0
 40
4.0
 40
5.0
 40
5.0
 40
5.0
 40
6.0
 40
6.0
 40
6.0
 40
7.0
 40
7.0
 40
7.0
 40
8.0
 40
8.0
 40
8.0
 40
8.0
 10
103.2725873652968
 20
-142.9700735753687
 10
103.2725873652968
 20
-142.9962849642511
 10
103.2832765316908
 20
-143.0224610753554
 10
103.3018679201053
 20
-143.0410524642397
 10
103.3201444186145
 20
-143.059643853124
 10
103.3463179189713
 20
-143.0699802420104
 10
103.3724940294146
 20
-143.0699802420104
 10
103.3986701398579
 20
-143.0699802420104
 10
103.4248815280781
 20
-143.059643853124
 10
103.4431201387239
 20
-143.0410524642397
 10
103.4617115271385
 20
-143.0224610753554
 10
103.4724006935325
 20
-142.9962849642511
 10
103.4724006935325
 20
-142.9700735753687
 10
103.4724006935325
 20
-142.9438974642638
 10
103.4617115271385
 20
-142.9183916309369
 10
103.4431201387239
 20
-142.8998002420526
 10
103.4248815280781
 20
-142.8812088531683
 10
103.3986701398579
 20
-142.8701669087271
 10
103.3724940294146
 20
-142.8701669087271
 10
103.3463179189713
 20
-142.8701669087271
 10
103.3201444186145
 20
-142.8812088531683
 10
103.3018679201053
 20
-142.8998002420526
 10
103.2832765316908
 20
-142.9183916309369
 10
103.2725873652968
 20
-142.9438974642638
 10
103.2725873652968
 20
-142.9700735753687
 97
        0
 97
        0
 75
     2
 76
     1
 98
        0
  0
SPLINE
  5
144
330
1F
100
AcDbEntity
  8
_U+30EC_U+30A4_U+30E4_U+30FC 1
370
     0
100
AcDbSpline
210
0.0
220
0.0
230
1.0
 70
    11
 71
     3
 72
    29
 73
    25
 74
     0
 42
0.0000000001
 43
0.0000000001
 12
1.0
 22
0.0
 32
0.0
 13
1.0
 23
0.0
 33
0.0
 40
0.0
 40
0.0
 40
0.0
 40
0.0
 40
1.0
 40
1.0
 40
1.0
 40
2.0
 40
2.0
 40
2.0
 40
3.0
 40
3.0
 40
3.0
 40
4.0
 40
4.0
 40
4.0
 40
5.0
 40
5.0
 40
5.0
 40
6.0
 40
6.0
 40
6.0
 40
7.0
 40
7.0
 40
7.0
 40
8.0
 40
8.0
 40
8.0
 40
8.0
 10
82.92828149543439
 20
-141.0497982980707
 30
0.0
 10
82.92828149543439
 20
-141.076644686953
 30
0.0
 10
82.93893538405148
 20
-141.1021505202799
 30
0.0
 10
82.95756205024294
 20
-141.1207419091642
 30
0.0
 10
82.97615553481138
 20
-141.139368575826
 30
0.0
 10
83.00201204910893
 20
-141.1503752424904
 30
0.0
 10
83.02818815955223
 20
-141.1503752424904
 30
0.0
 10
83.05436426999553
 20
-141.1503752424904
 30
0.0
 10
83.08018760267005
 20
-141.139368575826
 30
0.0
 10
83.09881426886152
 20
-141.1207419091642
 30
0.0
 10
83.1174056572761
 20
-141.1021505202799
 30
0.0
 10
83.12809482367007
 20
-141.076644686953
 30
0.0
 10
83.12809482367007
 20
-141.0497982980707
 30
0.0
 10
83.12809482367007
 20
-141.0236221869665
 30
0.0
 10
83.1174056572761
 20
-140.9981163536396
 30
0.0
 10
83.09881426886152
 20
-140.9795249647553
 30
0.0
 10
83.08018760267005
 20
-140.9608982980928
 30
0.0
 10
83.05436426999553
 20
-140.9498916314291
 30
0.0
 10
83.02818815955223
 20
-140.9498916314291
 30
0.0
 10
83.00201204910893
 20
-140.9498916314291
 30
0.0
 10
82.97615553481138
 20
-140.9608982980928
 30
0.0
 10
82.95756205024294
 20
-140.9795249647553
 30
0.0
 10
82.93893538405148
 20
-140.9981163536396
 30
0.0
 10
82.92828149543439
 20
-141.0236221869665
 30
0.0
 10
82.92828149543439
 20
-141.0497982980707
 30
0.0
  0
HATCH
  5
145
330
1F
100
AcDbEntity
  8
_U+30EC_U+30A4_U+30E4_U+30FC 1
 62
   179
420
  2234388
100
AcDbHatch
 10
0.0
 20
0.0
 30
0.0
210
0.0
220
0.0
230
1.0
  2
SOLID
 70
     1
 71
     0
 91
        1
 92
        1
 93
        1
 72
     4
 94
        3
 73
     0
 74
     1
 95
       29
 96
       25
 40
0.0
 40
0.0
 40
0.0
 40
0.0
 40
1.0
 40
1.0
 40
1.0
 40
2.0
 40
2.0
 40
2.0
 40
3.0
 40
3.0
 40
3.0
 40
4.0
 40
4.0
 40
4.0
 40
5.0
 40
5.0
 40
5.0
 40
6.0
 40
6.0
 40
6.0
 40
7.0
 40
7.0
 40
7.0
 40
8.0
 40
8.0
 40
8.0
 40
8.0
 10
82.92828149543439
 20
-141.0497982980707
 10
82.92828149543439
 20
-141.076644686953
 10
82.93893538405148
 20
-141.1021505202799
 10
82.95756205024294
 20
-141.1207419091642
 10
82.97615553481138
 20
-141.139368575826
 10
83.00201204910893
 20
-141.1503752424904
 10
83.02818815955223
 20
-141.1503752424904
 10
83.05436426999553
 20
-141.1503752424904
 10
83.08018760267005
 20
-141.139368575826
 10
83.09881426886152
 20
-141.1207419091642
 10
83.1174056572761
 20
-141.1021505202799
 10
83.12809482367007
 20
-141.076644686953
 10
83.12809482367007
 20
-141.0497982980707
 10
83.12809482367007
 20
-141.0236221869665
 10
83.1174056572761
 20
-140.9981163536396
 10
83.09881426886152
 20
-140.9795249647553
 10
83.08018760267005
 20
-140.9608982980928
 10
83.05436426999553
 20
-140.9498916314291
 10
83.02818815955223
 20
-140.9498916314291
 10
83.00201204910893
 20
-140.9498916314291
 10
82.97615553481138
 20
-140.9608982980928
 10
82.95756205024294
 20
-140.9795249647553
 10
82.93893538405148
 20
-140.9981163536396
 10
82.92828149543439
 20
-141.0236221869665
 10
82.92828149543439
 20
-141.0497982980707
 97
        0
 97
        0
 75
     2
 76
     1
 98
        0
  0
SPLINE
  5
146
330
1F
100
AcDbEntity
  8
_U+30EC_U+30A4_U+30E4_U+30FC 1
370
     0
100
AcDbSpline
210
0.0
220
0.0
230
1.0
 70
    11
 71
     3
 72
    29
 73
    25
 74
     0
 42
0.0000000001
 43
0.0000000001
 12
1.0
 22
0.0
 32
0.0
 13
1.0
 23
0.0
 33
0.0
 40
0.0
 40
0.0
 40
0.0
 40
0.0
 40
1.0
 40
1.0
 40
1.0
 40
2.0
 40
2.0
 40
2.0
 40
3.0
 40
3.0
 40
3.0
 40
4.0
 40
4.0
 40
4.0
 40
5.0
 40
5.0
 40
5.0
 40
6.0
 40
6.0
 40
6.0
 40
7.0
 40
7.0
 40
7.0
 40
8.0
 40
8.0
 40
8.0
 40
8.0
 10
82.92828149543439
 20
-142.9700735753687
 30
0.0
 10
82.92828149543439
 20
-142.9962849642511
 30
0.0
 10
82.93893538405148
 20
-143.0224610753554
 30
0.0
 10
82.95756205024294
 20
-143.0410524642397
 30
0.0
 10
82.97580275703395
 20
-143.059643853124
 30
0.0
 10
83.00201204910893
 20
-143.0699802420104
 30
0.0
 10
83.02818815955223
 20
-143.0699802420104
 30
0.0
 10
83.05436426999553
 20
-143.0699802420104
 30
0.0
 10
83.08054038043883
 20
-143.059643853124
 30
0.0
 10
83.09881426886152
 20
-143.0410524642397
 30
0.0
 10
83.1174056572761
 20
-143.0224610753554
 30
0.0
 10
83.12809482367007
 20
-142.9962849642511
 30
0.0
 10
83.12809482367007
 20
-142.9700735753687
 30
0.0
 10
83.12809482367007
 20
-142.9438974642638
 30
0.0
 10
83.1174056572761
 20
-142.9177213531596
 30
0.0
 10
83.09881426886152
 20
-142.8998002420526
 30
0.0
 10
83.08054038043883
 20
-142.8812088531683
 30
0.0
 10
83.05436426999553
 20
-142.8701669087271
 30
0.0
 10
83.02818815955223
 20
-142.8701669087271
 30
0.0
 10
83.00201204910893
 20
-142.8701669087271
 30
0.0
 10
82.97580275703395
 20
-142.8812088531683
 30
0.0
 10
82.95756205024294
 20
-142.8998002420526
 30
0.0
 10
82.93893538405148
 20
-142.9177213531596
 30
0.0
 10
82.92828149543439
 20
-142.9438974642638
 30
0.0
 10
82.92828149543439
 20
-142.9700735753687
 30
0.0
  0
HATCH
  5
147
330
1F
100
AcDbEntity
  8
_U+30EC_U+30A4_U+30E4_U+30FC 1
 62
   179
420
  2234388
100
AcDbHatch
 10
0.0
 20
0.0
 30
0.0
210
0.0
220
0.0
230
1.0
  2
SOLID
 70
     1
 71
     0
 91
        1
 92
        1
 93
        1
 72
     4
 94
        3
 73
     0
 74
     1
 95
       29
 96
       25
 40
0.0
 40
0.0
 40
0.0
 40
0.0
 40
1.0
 40
1.0
 40
1.0
 40
2.0
 40
2.0
 40
2.0
 40
3.0
 40
3.0
 40
3.0
 40
4.0
 40
4.0
 40
4.0
 40
5.0
 40
5.0
 40
5.0
 40
6.0
 40
6.0
 40
6.0
 40
7.0
 40
7.0
 40
7.0
 40
8.0
 40
8.0
 40
8.0
 40
8.0
 10
82.92828149543439
 20
-142.9700735753687
 10
82.92828149543439
 20
-142.9962849642511
 10
82.93893538405148
 20
-143.0224610753554
 10
82.95756205024294
 20
-143.0410524642397
 10
82.97580275703395
 20
-143.059643853124
 10
83.00201204910893
 20
-143.0699802420104
 10
83.02818815955223
 20
-143.0699802420104
 10
83.05436426999553
 20
-143.0699802420104
 10
83.08054038043883
 20
-143.059643853124
 10
83.09881426886152
 20
-143.0410524642397
 10
83.1174056572761
 20
-143.0224610753554
 10
83.12809482367007
 20
-142.9962849642511
 10
83.12809482367007
 20
-142.9700735753687
 10
83.12809482367007
 20
-142.9438974642638
 10
83.1174056572761
 20
-142.9177213531596
 10
83.09881426886152
 20
-142.8998002420526
 10
83.08054038043883
 20
-142.8812088531683
 10
83.05436426999553
 20
-142.8701669087271
 10
83.02818815955223
 20
-142.8701669087271
 10
83.00201204910893
 20
-142.8701669087271
 10
82.97580275703395
 20
-142.8812088531683
 10
82.95756205024294
 20
-142.8998002420526
 10
82.93893538405148
 20
-142.9177213531596
 10
82.92828149543439
 20
-142.9438974642638
 10
82.92828149543439
 20
-142.9700735753687
 97
        0
 97
        0
 75
     2
 76
     1
 98
        0
  0
SPLINE
  5
148
330
1F
100
AcDbEntity
  8
_U+30EC_U+30A4_U+30E4_U+30FC 1
370
     0
100
AcDbSpline
210
0.0
220
0.0
230
1.0
 70
    11
 71
     3
 72
    29
 73
    25
 74
     0
 42
0.0000000001
 43
0.0000000001
 12
1.0
 22
0.0
 32
0.0
 13
1.0
 23
0.0
 33
0.0
 40
0.0
 40
0.0
 40
0.0
 40
0.0
 40
1.0
 40
1.0
 40
1.0
 40
2.0
 40
2.0
 40
2.0
 40
3.0
 40
3.0
 40
3.0
 40
4.0
 40
4.0
 40
4.0
 40
5.0
 40
5.0
 40
5.0
 40
6.0
 40
6.0
 40
6.0
 40
7.0
 40
7.0
 40
7.0
 40
8.0
 40
8.0
 40
8.0
 40
8.0
 10
79.90208323930581
 20
-142.9700735753687
 30
0.0
 10
79.90208323930581
 20
-142.9962849642511
 30
0.0
 10
79.91277240569977
 20
-143.0224610753554
 30
0.0
 10
79.93136379411436
 20
-143.0410524642397
 30
0.0
 10
79.94963768253703
 20
-143.059643853124
 30
0.0
 10
79.97581379298035
 20
-143.0699802420104
 30
0.0
 10
80.00198990342365
 20
-143.0699802420104
 30
0.0
 10
80.02820129164382
 20
-143.0699802420104
 30
0.0
 10
80.05437740208713
 20
-143.059643853124
 30
0.0
 10
80.07261601273294
 20
-143.0410524642397
 30
0.0
 10
80.09124267892439
 20
-143.0224610753554
 30
0.0
 10
80.10189656754147
 20
-142.9962849642511
 30
0.0
 10
80.10189656754147
 20
-142.9700735753687
 30
0.0
 10
80.10189656754147
 20
-142.9438974642638
 30
0.0
 10
80.09124267892439
 20
-142.9177213531596
 30
0.0
 10
80.07261601273294
 20
-142.8998002420526
 30
0.0
 10
80.05437740208713
 20
-142.8812088531683
 30
0.0
 10
80.02820129164382
 20
-142.8701669087271
 30
0.0
 10
80.00198990342365
 20
-142.8701669087271
 30
0.0
 10
79.97581379298035
 20
-142.8701669087271
 30
0.0
 10
79.94963768253703
 20
-142.8812088531683
 30
0.0
 10
79.93136379411436
 20
-142.8998002420526
 30
0.0
 10
79.91277240569977
 20
-142.9177213531596
 30
0.0
 10
79.90208323930581
 20
-142.9438974642638
 30
0.0
 10
79.90208323930581
 20
-142.9700735753687
 30
0.0
  0
HATCH
  5
149
330
1F
100
AcDbEntity
  8
_U+30EC_U+30A4_U+30E4_U+30FC 1
 62
   179
420
  2234388
100
AcDbHatch
 10
0.0
 20
0.0
 30
0.0
210
0.0
220
0.0
230
1.0
  2
SOLID
 70
     1
 71
     0
 91
        1
 92
        1
 93
        1
 72
     4
 94
        3
 73
     0
 74
     1
 95
       29
 96
       25
 40
0.0
 40
0.0
 40
0.0
 40
0.0
 40
1.0
 40
1.0
 40
1.0
 40
2.0
 40
2.0
 40
2.0
 40
3.0
 40
3.0
 40
3.0
 40
4.0
 40
4.0
 40
4.0
 40
5.0
 40
5.0
 40
5.0
 40
6.0
 40
6.0
 40
6.0
 40
7.0
 40
7.0
 40
7.0
 40
8.0
 40
8.0
 40
8.0
 40
8.0
 10
79.90208323930581
 20
-142.9700735753687
 10
79.90208323930581
 20
-142.9962849642511
 10
79.91277240569977
 20
-143.0224610753554
 10
79.93136379411436
 20
-143.0410524642397
 10
79.94963768253703
 20
-143.059643853124
 10
79.97581379298035
 20
-143.0699802420104
 10
80.00198990342365
 20
-143.0699802420104
 10
80.02820129164382
 20
-143.0699802420104
 10
80.05437740208713
 20
-143.059643853124
 10
80.07261601273294
 20
-143.0410524642397
 10
80.09124267892439
 20
-143.0224610753554
 10
80.10189656754147
 20
-142.9962849642511
 10
80.10189656754147
 20
-142.9700735753687
 10
80.10189656754147
 20
-142.9438974642638
 10
80.09124267892439
 20
-142.9177213531596
 10
80.07261601273294
 20
-142.8998002420526
 10
80.05437740208713
 20
-142.8812088531683
 10
80.02820129164382
 20
-142.8701669087271
 10
80.00198990342365
 20
-142.8701669087271
 10
79.97581379298035
 20
-142.8701669087271
 10
79.94963768253703
 20
-142.8812088531683
 10
79.93136379411436
 20
-142.8998002420526
 10
79.91277240569977
 20
-142.9177213531596
 10
79.90208323930581
 20
-142.9438974642638
 10
79.90208323930581
 20
-142.9700735753687
 97
        0
 97
        0
 75
     2
 76
     1
 98
        0
  0
SPLINE
  5
14A
330
1F
100
AcDbEntity
  8
_U+30EC_U+30A4_U+30E4_U+30FC 1
370
     0
100
AcDbSpline
210
0.0
220
0.0
230
1.0
 70
    11
 71
     3
 72
    29
 73
    25
 74
     0
 42
0.0000000001
 43
0.0000000001
 12
1.0
 22
0.0
 32
0.0
 13
1.0
 23
0.0
 33
0.0
 40
0.0
 40
0.0
 40
0.0
 40
0.0
 40
1.0
 40
1.0
 40
1.0
 40
2.0
 40
2.0
 40
2.0
 40
3.0
 40
3.0
 40
3.0
 40
4.0
 40
4.0
 40
4.0
 40
5.0
 40
5.0
 40
5.0
 40
6.0
 40
6.0
 40
6.0
 40
7.0
 40
7.0
 40
7.0
 40
8.0
 40
8.0
 40
8.0
 40
8.0
 10
82.92828149543439
 20
-135.6740646883039
 30
0.0
 10
82.92828149543439
 20
-135.7002407994081
 30
0.0
 10
82.93893538405148
 20
-135.726416910513
 30
0.0
 10
82.95756205024294
 20
-135.7450435771748
 30
0.0
 10
82.97580275703395
 20
-135.7636349660592
 30
0.0
 10
83.00201204910893
 20
-135.7739713549455
 30
0.0
 10
83.02818815955223
 20
-135.7739713549455
 30
0.0
 10
83.05436426999553
 20
-135.7739713549455
 30
0.0
 10
83.08054038043883
 20
-135.7636349660592
 30
0.0
 10
83.09881426886152
 20
-135.7450435771748
 30
0.0
 10
83.1174056572761
 20
-135.726416910513
 30
0.0
 10
83.12809482367007
 20
-135.7002407994081
 30
0.0
 10
83.12809482367007
 20
-135.6740646883039
 30
0.0
 10
83.12809482367007
 20
-135.647888577199
 30
0.0
 10
83.1174056572761
 20
-135.6217124660947
 30
0.0
 10
83.09881426886152
 20
-135.6037913549878
 30
0.0
 10
83.08054038043883
 20
-135.585164688326
 30
0.0
 10
83.05436426999553
 20
-135.5741580216622
 30
0.0
 10
83.02818815955223
 20
-135.5741580216622
 30
0.0
 10
83.00201204910893
 20
-135.5741580216622
 30
0.0
 10
82.97580275703395
 20
-135.585164688326
 30
0.0
 10
82.95756205024294
 20
-135.6037913549878
 30
0.0
 10
82.93893538405148
 20
-135.6217124660947
 30
0.0
 10
82.92828149543439
 20
-135.647888577199
 30
0.0
 10
82.92828149543439
 20
-135.6740646883039
 30
0.0
  0
HATCH
  5
14B
330
1F
100
AcDbEntity
  8
_U+30EC_U+30A4_U+30E4_U+30FC 1
 62
   179
420
  2234388
100
AcDbHatch
 10
0.0
 20
0.0
 30
0.0
210
0.0
220
0.0
230
1.0
  2
SOLID
 70
     1
 71
     0
 91
        1
 92
        1
 93
        1
 72
     4
 94
        3
 73
     0
 74
     1
 95
       29
 96
       25
 40
0.0
 40
0.0
 40
0.0
 40
0.0
 40
1.0
 40
1.0
 40
1.0
 40
2.0
 40
2.0
 40
2.0
 40
3.0
 40
3.0
 40
3.0
 40
4.0
 40
4.0
 40
4.0
 40
5.0
 40
5.0
 40
5.0
 40
6.0
 40
6.0
 40
6.0
 40
7.0
 40
7.0
 40
7.0
 40
8.0
 40
8.0
 40
8.0
 40
8.0
 10
82.92828149543439
 20
-135.6740646883039
 10
82.92828149543439
 20
-135.7002407994081
 10
82.93893538405148
 20
-135.726416910513
 10
82.95756205024294
 20
-135.7450435771748
 10
82.97580275703395
 20
-135.7636349660592
 10
83.00201204910893
 20
-135.7739713549455
 10
83.02818815955223
 20
-135.7739713549455
 10
83.05436426999553
 20
-135.7739713549455
 10
83.08054038043883
 20
-135.7636349660592
 10
83.09881426886152
 20
-135.7450435771748
 10
83.1174056572761
 20
-135.726416910513
 10
83.12809482367007
 20
-135.7002407994081
 10
83.12809482367007
 20
-135.6740646883039
 10
83.12809482367007
 20
-135.647888577199
 10
83.1174056572761
 20
-135.6217124660947
 10
83.09881426886152
 20
-135.6037913549878
 10
83.08054038043883
 20
-135.585164688326
 10
83.05436426999553
 20
-135.5741580216622
 10
83.02818815955223
 20
-135.5741580216622
 10
83.00201204910893
 20
-135.5741580216622
 10
82.97580275703395
 20
-135.585164688326
 10
82.95756205024294
 20
-135.6037913549878
 10
82.93893538405148
 20
-135.6217124660947
 10
82.92828149543439
 20
-135.647888577199
 10
82.92828149543439
 20
-135.6740646883039
 97
        0
 97
        0
 75
     2
 76
     1
 98
        0
  0
POLYLINE
  5
14C
330
1F
100
AcDbEntity
  8
_U+30EC_U+30A4_U+30E4_U+30FC 1
 62
   179
420
  2234388
370
     9
100
AcDb2dPolyline
 66
     1
 10
0.0
 20
0.0
 30
0.0
  0
VERTEX
  5
14D
330
14C
100
AcDbEntity
  8
_U+30EC_U+30A4_U+30E4_U+30FC 1
 62
   179
420
  2234388
370
     9
100
AcDbVertex
100
AcDb2dVertex
 10
83.02818815955223
 20
-141.0504685758487
 30
0.0
  0
VERTEX
  5
14E
330
14C
100
AcDbEntity
  8
_U+30EC_U+30A4_U+30E4_U+30FC 1
 62
   179
420
  2234388
370
     9
100
AcDbVertex
100
AcDb2dVertex
 10
83.02818815955223
 20
-142.9707791309242
 30
0.0
  0
SEQEND
  5
14F
330
14C
100
AcDbEntity
  8
_U+30EC_U+30A4_U+30E4_U+30FC 1
 62
   179
420
  2234388
370
     9
  0
INSERT
  5
151
330
1F
100
AcDbEntity
  8
_U+30EC_U+30A4_U+30E4_U+30FC 1
100
AcDbBlockReference
  2
block 8
 10
0.0
 20
0.0
 30
0.0
  0
INSERT
  5
16C
330
1F
100
AcDbEntity
  8
_U+30EC_U+30A4_U+30E4_U+30FC 1
100
AcDbBlockReference
  2
block 9
 10
0.0
 20
0.0
 30
0.0
  0
INSERT
  5
172
330
1F
100
AcDbEntity
  8
_U+30EC_U+30A4_U+30E4_U+30FC 1
100
AcDbBlockReference
  2
block 10
 10
0.0
 20
0.0
 30
0.0
  0
POLYLINE
  5
17A
330
1F
100
AcDbEntity
  8
_U+30EC_U+30A4_U+30E4_U+30FC 1
 62
   179
420
  2234388
370
     9
100
AcDb2dPolyline
 66
     1
 10
0.0
 20
0.0
 30
0.0
  0
VERTEX
  5
17B
330
17A
100
AcDbEntity
  8
_U+30EC_U+30A4_U+30E4_U+30FC 1
 62
   179
420
  2234388
370
     9
100
AcDbVertex
100
AcDb2dVertex
 10
88.4514407989713
 20
-112.6341127496192
 30
0.0
  0
VERTEX
  5
17C
330
17A
100
AcDbEntity
  8
_U+30EC_U+30A4_U+30E4_U+30FC 1
 62
   179
420
  2234388
370
     9
100
AcDbVertex
100
AcDb2dVertex
 10
81.93090818754617
 20
-112.6341127496192
 30
0.0
  0
SEQEND
  5
17D
330
17A
100
AcDbEntity
  8
_U+30EC_U+30A4_U+30E4_U+30FC 1
 62
   179
420
  2234388
370
     9
  0
POLYLINE
  5
17E
330
1F
100
AcDbEntity
  8
_U+30EC_U+30A4_U+30E4_U+30FC 1
 62
   179
420
  2234388
370
     9
100
AcDb2dPolyline
 66
     1
 10
0.0
 20
0.0
 30
0.0
  0
VERTEX
  5
17F
330
17E
100
AcDbEntity
  8
_U+30EC_U+30A4_U+30E4_U+30FC 1
 62
   179
420
  2234388
370
     9
100
AcDbVertex
100
AcDb2dVertex
 10
88.4514407989713
 20
-112.6341127496192
 30
0.0
  0
VERTEX
  5
180
330
17E
100
AcDbEntity
  8
_U+30EC_U+30A4_U+30E4_U+30FC 1
 62
   179
420
  2234388
370
     9
100
AcDbVertex
100
AcDb2dVertex
 10
78.90474720249617
 20
-112.6341127496192
 30
0.0
  0
SEQEND
  5
181
330
17E
100
AcDbEntity
  8
_U+30EC_U+30A4_U+30E4_U+30FC 1
 62
   179
420
  2234388
370
     9
  0
POLYLINE
  5
182
330
1F
100
AcDbEntity
  8
_U+30EC_U+30A4_U+30E4_U+30FC 1
 62
   179
420
  2234388
370
     9
100
AcDb2dPolyline
 66
     1
 10
0.0
 20
0.0
 30
0.0
  0
VERTEX
  5
183
330
182
100
AcDbEntity
  8
_U+30EC_U+30A4_U+30E4_U+30FC 1
 62
   179
420
  2234388
370
     9
100
AcDbVertex
100
AcDb2dVertex
 10
85.87863253127578
 20
-142.9707791309242
 30
0.0
  0
VERTEX
  5
184
330
182
100
AcDbEntity
  8
_U+30EC_U+30A4_U+30E4_U+30FC 1
 62
   179
420
  2234388
370
     9
100
AcDbVertex
100
AcDb2dVertex
 10
78.90474720249617
 20
-142.9707791309242
 30
0.0
  0
SEQEND
  5
185
330
182
100
AcDbEntity
  8
_U+30EC_U+30A4_U+30E4_U+30FC 1
 62
   179
420
  2234388
370
     9
  0
POLYLINE
  5
186
330
1F
100
AcDbEntity
  8
_U+30EC_U+30A4_U+30E4_U+30FC 1
 62
   179
420
  2234388
370
     9
100
AcDb2dPolyline
 66
     1
 10
0.0
 20
0.0
 30
0.0
  0
VERTEX
  5
187
330
186
100
AcDbEntity
  8
_U+30EC_U+30A4_U+30E4_U+30FC 1
 62
   179
420
  2234388
370
     9
100
AcDbVertex
100
AcDb2dVertex
 10
88.4514407989713
 20
-135.6740646883039
 30
0.0
  0
VERTEX
  5
188
330
186
100
AcDbEntity
  8
_U+30EC_U+30A4_U+30E4_U+30FC 1
 62
   179
420
  2234388
370
     9
100
AcDbVertex
100
AcDb2dVertex
 10
81.93090818754617
 20
-135.6740646883039
 30
0.0
  0
SEQEND
  5
189
330
186
100
AcDbEntity
  8
_U+30EC_U+30A4_U+30E4_U+30FC 1
 62
   179
420
  2234388
370
     9
  0
POLYLINE
  5
18A
330
1F
100
AcDbEntity
  8
_U+30EC_U+30A4_U+30E4_U+30FC 1
 62
   179
420
  2234388
370
     9
100
AcDb2dPolyline
 66
     1
 10
0.0
 20
0.0
 30
0.0
  0
VERTEX
  5
18B
330
18A
100
AcDbEntity
  8
_U+30EC_U+30A4_U+30E4_U+30FC 1
 62
   179
420
  2234388
370
     9
100
AcDbVertex
100
AcDb2dVertex
 10
85.87863253127578
 20
-141.0504685758487
 30
0.0
  0
VERTEX
  5
18C
330
18A
100
AcDbEntity
  8
_U+30EC_U+30A4_U+30E4_U+30FC 1
 62
   179
420
  2234388
370
     9
100
AcDbVertex
100
AcDb2dVertex
 10
81.93090818754617
 20
-141.0504685758487
 30
0.0
  0
SEQEND
  5
18D
330
18A
100
AcDbEntity
  8
_U+30EC_U+30A4_U+30E4_U+30FC 1
 62
   179
420
  2234388
370
     9
  0
POLYLINE
  5
18E
330
1F
100
AcDbEntity
  8
_U+30EC_U+30A4_U+30E4_U+30FC 1
 62
   179
420
  2234388
370
     9
100
AcDb2dPolyline
 66
     1
 10
0.0
 20
0.0
 30
0.0
  0
VERTEX
  5
18F
330
18E
100
AcDbEntity
  8
_U+30EC_U+30A4_U+30E4_U+30FC 1
 62
   179
420
  2234388
370
     9
100
AcDbVertex
100
AcDb2dVertex
 10
85.87863253127578
 20
-142.9707791309242
 30
0.0
  0
VERTEX
  5
190
330
18E
100
AcDbEntity
  8
_U+30EC_U+30A4_U+30E4_U+30FC 1
 62
   179
420
  2234388
370
     9
100
AcDbVertex
100
AcDb2dVertex
 10
81.93090818754617
 20
-142.9707791309242
 30
0.0
  0
SEQEND
  5
191
330
18E
100
AcDbEntity
  8
_U+30EC_U+30A4_U+30E4_U+30FC 1
 62
   179
420
  2234388
370
     9
  0
POLYLINE
  5
192
330
1F
100
AcDbEntity
  8
_U+30EC_U+30A4_U+30E4_U+30FC 1
 62
   179
420
  2234388
370
    25
100
AcDb2dPolyline
 66
     1
 10
0.0
 20
0.0
 30
0.0
  0
VERTEX
  5
193
330
192
100
AcDbEntity
  8
_U+30EC_U+30A4_U+30E4_U+30FC 1
 62
   179
420
  2234388
370
    25
100
AcDbVertex
100
AcDb2dVertex
 10
89.82843826384116
 20
-124.2692530244882
 30
0.0
  0
VERTEX
  5
194
330
192
100
AcDbEntity
  8
_U+30EC_U+30A4_U+30E4_U+30FC 1
 62
   179
420
  2234388
370
    25
100
AcDbVertex
100
AcDb2dVertex
 10
89.82843826384116
 20
-135.175201632873
 30
0.0
  0
SEQEND
  5
195
330
192
100
AcDbEntity
  8
_U+30EC_U+30A4_U+30E4_U+30FC 1
 62
   179
420
  2234388
370
    25
  0
POLYLINE
  5
196
330
1F
100
AcDbEntity
  8
_U+30EC_U+30A4_U+30E4_U+30FC 1
 62
   179
420
  2234388
370
    25
100
AcDb2dPolyline
 66
     1
 10
0.0
 20
0.0
 30
0.0
  0
VERTEX
  5
197
330
196
100
AcDbEntity
  8
_U+30EC_U+30A4_U+30E4_U+30FC 1
 62
   179
420
  2234388
370
    25
100
AcDbVertex
100
AcDb2dVertex
 10
89.32925772102077
 20
-112.6341127496192
 30
0.0
  0
VERTEX
  5
198
330
196
100
AcDbEntity
  8
_U+30EC_U+30A4_U+30E4_U+30FC 1
 62
   179
420
  2234388
370
    25
100
AcDbVertex
100
AcDb2dVertex
 10
89.32925772102077
 20
-135.6740646883039
 30
0.0
  0
SEQEND
  5
199
330
196
100
AcDbEntity
  8
_U+30EC_U+30A4_U+30E4_U+30FC 1
 62
   179
420
  2234388
370
    25
  0
POLYLINE
  5
19A
330
1F
100
AcDbEntity
  8
_U+30EC_U+30A4_U+30E4_U+30FC 1
 62
   179
420
  2234388
370
     9
100
AcDb2dPolyline
 66
     1
 10
0.0
 20
0.0
 30
0.0
  0
VERTEX
  5
19B
330
19A
100
AcDbEntity
  8
_U+30EC_U+30A4_U+30E4_U+30FC 1
 62
   179
420
  2234388
370
     9
100
AcDbVertex
100
AcDb2dVertex
 10
97.12483502213902
 20
-132.4928558002099
 30
0.0
  0
VERTEX
  5
19C
330
19A
100
AcDbEntity
  8
_U+30EC_U+30A4_U+30E4_U+30FC 1
 62
   179
420
  2234388
370
     9
100
AcDbVertex
100
AcDb2dVertex
 10
97.12483502213902
 20
-110.4647410834948
 30
0.0
  0
SEQEND
  5
19D
330
19A
100
AcDbEntity
  8
_U+30EC_U+30A4_U+30E4_U+30FC 1
 62
   179
420
  2234388
370
     9
  0
POLYLINE
  5
19E
330
1F
100
AcDbEntity
  8
_U+30EC_U+30A4_U+30E4_U+30FC 1
 62
   179
420
  2234388
370
     9
100
AcDb2dPolyline
 66
     1
 10
0.0
 20
0.0
 30
0.0
  0
VERTEX
  5
19F
330
19E
100
AcDbEntity
  8
_U+30EC_U+30A4_U+30E4_U+30FC 1
 62
   179
420
  2234388
370
     9
100
AcDbVertex
100
AcDb2dVertex
 10
80.00234268119242
 20
-112.6341127496192
 30
0.0
  0
VERTEX
  5
1A0
330
19E
100
AcDbEntity
  8
_U+30EC_U+30A4_U+30E4_U+30FC 1
 62
   179
420
  2234388
370
     9
100
AcDbVertex
100
AcDb2dVertex
 10
80.00234268119242
 20
-142.9707791309242
 30
0.0
  0
SEQEND
  5
1A1
330
19E
100
AcDbEntity
  8
_U+30EC_U+30A4_U+30E4_U+30FC 1
 62
   179
420
  2234388
370
     9
  0
POLYLINE
  5
1A2
330
1F
100
AcDbEntity
  8
_U+30EC_U+30A4_U+30E4_U+30FC 1
 62
   179
420
  2234388
370
     9
100
AcDb2dPolyline
 66
     1
 10
0.0
 20
0.0
 30
0.0
  0
VERTEX
  5
1A3
330
1A2
100
AcDbEntity
  8
_U+30EC_U+30A4_U+30E4_U+30FC 1
 62
   179
420
  2234388
370
     9
100
AcDbVertex
100
AcDb2dVertex
 10
83.02850565954412
 20
-112.6341127496192
 30
0.0
  0
VERTEX
  5
1A4
330
1A2
100
AcDbEntity
  8
_U+30EC_U+30A4_U+30E4_U+30FC 1
 62
   179
420
  2234388
370
     9
100
AcDbVertex
100
AcDb2dVertex
 10
83.02850565954412
 20
-135.6747349660812
 30
0.0
  0
SEQEND
  5
1A5
330
1A2
100
AcDbEntity
  8
_U+30EC_U+30A4_U+30E4_U+30FC 1
 62
   179
420
  2234388
370
     9
  0
POLYLINE
  5
1A6
330
1F
100
AcDbEntity
  8
_U+30EC_U+30A4_U+30E4_U+30FC 1
 62
   179
420
  2234388
370
     9
100
AcDb2dPolyline
 66
     1
 10
0.0
 20
0.0
 30
0.0
  0
VERTEX
  5
1A7
330
1A6
100
AcDbEntity
  8
_U+30EC_U+30A4_U+30E4_U+30FC 1
 62
   179
420
  2234388
370
     9
100
AcDbVertex
100
AcDb2dVertex
 10
95.20487729334346
 20
-132.4928558002099
 30
0.0
  0
VERTEX
  5
1A8
330
1A6
100
AcDbEntity
  8
_U+30EC_U+30A4_U+30E4_U+30FC 1
 62
   179
420
  2234388
370
     9
100
AcDbVertex
100
AcDb2dVertex
 10
95.20487729334346
 20
-110.4647410834948
 30
0.0
  0
SEQEND
  5
1A9
330
1A6
100
AcDbEntity
  8
_U+30EC_U+30A4_U+30E4_U+30FC 1
 62
   179
420
  2234388
370
     9
  0
ENDSEC
  0
SECTION
  2
OBJECTS
  0
DICTIONARY
  5
C
330
0
100
AcDbDictionary
281
     1
  3
ACAD_GROUP
350
D
  3
ACAD_LAYOUT
350
1A
  3
ACAD_MATERIAL
350
3B
  3
ACAD_MLEADERSTYLE
350
1AB
  3
ACAD_MLINESTYLE
350
17
  3
ACAD_PLOTSETTINGS
350
19
  3
ACAD_PLOTSTYLENAME
350
E
  3
ACAD_TABLESTYLE
350
1AA
  3
ACAD_VISUALSTYLE
350
2A
  0
SUN
  5
3F
330
29
100
AcDbSun
 90
        1
290
     0
 63
     7
421
 16777215
 40
1.0
291
     1
 91
  2455826
 92
 54000000
292
     0
 70
     2
 71
   256
280
     1
  0
DICTIONARY
  5
D
102
{ACAD_REACTORS
330
C
102
}
330
C
100
AcDbDictionary
281
     1
  0
DICTIONARY
  5
1A
102
{ACAD_REACTORS
330
C
102
}
330
C
100
AcDbDictionary
281
     1
  3
Layout1
350
1E
  3
Layout2
350
26
  3
Model
350
22
  0
DICTIONARY
  5
3B
102
{ACAD_REACTORS
330
C
102
}
330
C
100
AcDbDictionary
281
     1
  3
ByBlock
350
3D
  3
ByLayer
350
3C
  3
Global
350
3E
  0
DICTIONARY
  5
1AB
102
{ACAD_REACTORS
330
C
102
}
330
C
100
AcDbDictionary
281
     1
  0
DICTIONARY
  5
17
102
{ACAD_REACTORS
330
C
102
}
330
C
100
AcDbDictionary
281
     1
  3
Standard
350
18
  0
DICTIONARY
  5
19
102
{ACAD_REACTORS
330
C
102
}
330
C
100
AcDbDictionary
281
     1
  0
ACDBDICTIONARYWDFLT
  5
E
102
{ACAD_REACTORS
330
C
102
}
330
C
100
AcDbDictionary
281
     1
  3
Normal
350
F
100
AcDbDictionaryWithDefault
340
F
  0
DICTIONARY
  5
1AA
102
{ACAD_REACTORS
330
C
102
}
330
C
100
AcDbDictionary
281
     1
  0
DICTIONARY
  5
2A
102
{ACAD_REACTORS
330
C
102
}
330
C
100
AcDbDictionary
281
     1
  3
2dWireframe
350
2F
  3
3D Hidden
350
31
  3
3dWireframe
350
30
  3
Basic
350
32
  3
Brighten
350
36
  3
ColorChange
350
3A
  3
Conceptual
350
34
  3
Dim
350
35
  3
Facepattern
350
39
  3
Flat
350
2B
  3
FlatWithEdges
350
2C
  3
Gouraud
350
2D
  3
GouraudWithEdges
350
2E
  3
Linepattern
350
38
  3
Realistic
350
33
  3
Thicken
350
37
  0
LAYOUT
  5
1E
102
{ACAD_REACTORS
330
1A
102
}
330
1A
100
AcDbPlotSettings
  1

  2
none_device
  4

  6

 40
0.0
 41
0.0
 42
0.0
 43
0.0
 44
0.0
 45
0.0
 46
0.0
 47
0.0
 48
0.0
 49
0.0
140
0.0
141
0.0
142
1.0
143
1.0
 70
   688
 72
     0
 73
     0
 74
     5
  7

 75
    16
 76
     0
 77
     2
 78
   300
147
1.0
148
0.0
149
0.0
100
AcDbLayout
  1
Layout1
 70
     1
 71
     1
 10
0.0
 20
0.0
 11
12.0
 21
9.0
 12
0.0
 22
0.0
 32
0.0
 14
1.000000000000000E+20
 24
1.000000000000000E+20
 34
1.000000000000000E+20
 15
-1.000000000000000E+20
 25
-1.000000000000000E+20
 35
-1.000000000000000E+20
146
0.0
 13
0.0
 23
0.0
 33
0.0
 16
1.0
 26
0.0
 36
0.0
 17
0.0
 27
1.0
 37
0.0
 76
     0
330
1B
  0
LAYOUT
  5
26
102
{ACAD_REACTORS
330
1A
102
}
330
1A
100
AcDbPlotSettings
  1

  2
none_device
  4

  6

 40
0.0
 41
0.0
 42
0.0
 43
0.0
 44
0.0
 45
0.0
 46
0.0
 47
0.0
 48
0.0
 49
0.0
140
0.0
141
0.0
142
1.0
143
1.0
 70
   688
 72
     0
 73
     0
 74
     5
  7

 75
    16
 76
     0
 77
     2
 78
   300
147
1.0
148
0.0
149
0.0
100
AcDbLayout
  1
Layout2
 70
     1
 71
     2
 10
0.0
 20
0.0
 11
0.0
 21
0.0
 12
0.0
 22
0.0
 32
0.0
 14
0.0
 24
0.0
 34
0.0
 15
0.0
 25
0.0
 35
0.0
146
0.0
 13
0.0
 23
0.0
 33
0.0
 16
1.0
 26
0.0
 36
0.0
 17
0.0
 27
1.0
 37
0.0
 76
     0
330
23
  0
LAYOUT
  5
22
102
{ACAD_REACTORS
330
1A
102
}
330
1A
100
AcDbPlotSettings
  1

  2
none_device
  4

  6

 40
0.0
 41
0.0
 42
0.0
 43
0.0
 44
0.0
 45
0.0
 46
0.0
 47
0.0
 48
0.0
 49
0.0
140
0.0
141
0.0
142
1.0
143
1.0
 70
  1712
 72
     0
 73
     0
 74
     0
  7

 75
     0
 76
     0
 77
     2
 78
   300
147
1.0
148
0.0
149
0.0
100
AcDbLayout
  1
Model
 70
     1
 71
     0
 10
0.0
 20
0.0
 11
12.0
 21
9.0
 12
0.0
 22
0.0
 32
0.0
 14
1.000000000000000E+20
 24
1.000000000000000E+20
 34
1.000000000000000E+20
 15
-1.000000000000000E+20
 25
-1.000000000000000E+20
 35
-1.000000000000000E+20
146
0.0
 13
0.0
 23
0.0
 33
0.0
 16
1.0
 26
0.0
 36
0.0
 17
0.0
 27
1.0
 37
0.0
 76
     0
330
1F
331
29
  0
MATERIAL
  5
3D
102
{ACAD_REACTORS
330
3B
102
}
330
3B
100
AcDbMaterial
  1
ByBlock
 72
     1
 94
      127
  0
MATERIAL
  5
3C
102
{ACAD_REACTORS
330
3B
102
}
330
3B
100
AcDbMaterial
  1
ByLayer
 72
     1
 94
      127
  0
MATERIAL
  5
3E
102
{ACAD_REACTORS
330
3B
102
}
330
3B
100
AcDbMaterial
  1
Global
 72
     1
 94
      127
  0
MLINESTYLE
  5
18
102
{ACAD_REACTORS
330
17
102
}
330
17
100
AcDbMlineStyle
  2
Standard
 70
     0
  3

 62
   256
 51
90.0
 52
90.0
 71
     2
 49
0.5
 62
   256
  6
BYLAYER
 49
-0.5
 62
   256
  6
BYLAYER
  0
ACDBPLACEHOLDER
  5
F
102
{ACAD_REACTORS
330
E
102
}
330
E
  0
VISUALSTYLE
  5
2F
102
{ACAD_REACTORS
330
2A
102
}
330
2A
100
AcDbVisualStyle
  2
2dWireframe
 70
     4
177
     2
291
     0
 71
     0
176
     1
 72
     2
176
     1
 73
     0
176
     1
 90
        0
176
     1
 40
-0.6
176
     1
 41
-30.0
176
     1
 62
     5
 63
     7
421
 16777215
176
     1
 74
     1
176
     1
 91
        4
176
     1
 64
     7
176
     1
 65
   257
176
     1
 75
     1
176
     1
175
     1
176
     1
 42
1.0
176
     1
 92
        0
176
     1
 66
   257
176
     1
 43
1.0
176
     1
 76
     1
176
     1
 77
     6
176
     1
 78
     2
176
     1
 67
     7
176
     1
 79
     5
176
     1
170
     0
176
     1
171
     0
176
     1
290
     0
176
     1
 93
        1
176
     1
 44
0.0
176
     1
173
     0
176
     1
  0
VISUALSTYLE
  5
31
102
{ACAD_REACTORS
330
2A
102
}
330
2A
100
AcDbVisualStyle
  2
3D Hidden
 70
     6
177
     2
291
     0
 71
     1
176
     1
 72
     2
176
     1
 73
     2
176
     1
 90
        0
176
     1
 40
-0.6
176
     1
 41
-30.0
176
     1
 62
     5
 63
     7
421
 16777215
176
     1
 74
     2
176
     1
 91
        2
176
     1
 64
     7
176
     1
 65
   257
176
     1
 75
     2
176
     1
175
     1
176
     1
 42
40.0
176
     1
 92
        0
176
     1
 66
   257
176
     1
 43
1.0
176
     1
 76
     1
176
     1
 77
     6
176
     1
 78
     2
176
     1
 67
     7
176
     1
 79
     3
176
     1
170
     0
176
     1
171
     0
176
     1
290
     0
176
     1
 93
        1
176
     1
 44
0.0
176
     1
173
     0
176
     1
  0
VISUALSTYLE
  5
30
102
{ACAD_REACTORS
330
2A
102
}
330
2A
100
AcDbVisualStyle
  2
3dWireframe
 70
     5
177
     2
291
     0
 71
     0
176
     1
 72
     2
176
     1
 73
     0
176
     1
 90
        0
176
     1
 40
-0.6
176
     1
 41
-30.0
176
     1
 62
     5
 63
     7
421
 16777215
176
     1
 74
     1
176
     1
 91
        4
176
     1
 64
     7
176
     1
 65
   257
176
     1
 75
     1
176
     1
175
     1
176
     1
 42
1.0
176
     1
 92
        0
176
     1
 66
   257
176
     1
 43
1.0
176
     1
 76
     1
176
     1
 77
     6
176
     1
 78
     2
176
     1
 67
     7
176
     1
 79
     5
176
     1
170
     0
176
     1
171
     0
176
     1
290
     0
176
     1
 93
        1
176
     1
 44
0.0
176
     1
173
     0
176
     1
  0
VISUALSTYLE
  5
32
102
{ACAD_REACTORS
330
2A
102
}
330
2A
100
AcDbVisualStyle
  2
Basic
 70
     7
177
     2
291
     1
 71
     1
176
     1
 72
     0
176
     1
 73
     1
176
     1
 90
        0
176
     1
 40
-0.6
176
     1
 41
-30.0
176
     1
 62
     5
 63
     7
421
 16777215
176
     1
 74
     0
176
     1
 91
        4
176
     1
 64
     7
176
     1
 65
   257
176
     1
 75
     1
176
     1
175
     1
176
     1
 42
1.0
176
     1
 92
        8
176
     1
 66
     7
176
     1
 43
1.0
176
     1
 76
     1
176
     1
 77
     6
176
     1
 78
     2
176
     1
 67
     7
176
     1
 79
     5
176
     1
170
     0
176
     1
171
     0
176
     1
290
     0
176
     1
 93
        1
176
     1
 44
0.0
176
     1
173
     0
176
     1
  0
VISUALSTYLE
  5
36
102
{ACAD_REACTORS
330
2A
102
}
330
2A
100
AcDbVisualStyle
  2
Brighten
 70
    12
177
     2
291
     1
 71
     2
176
     1
 72
     2
176
     1
 73
     0
176
     1
 90
        0
176
     1
 40
-0.6
176
     1
 41
-30.0
176
     1
 62
     5
 63
     7
421
 16777215
176
     1
 74
     1
176
     1
 91
        4
176
     1
 64
     7
176
     1
 65
   257
176
     1
 75
     1
176
     1
175
     1
176
     1
 42
1.0
176
     1
 92
        8
176
     1
 66
     7
176
     1
 43
1.0
176
     1
 76
     1
176
     1
 77
     6
176
     1
 78
     2
176
     1
 67
     7
176
     1
 79
     5
176
     1
170
     0
176
     1
171
     0
176
     1
290
     0
176
     1
 93
        1
176
     1
 44
50.0
176
     1
173
     0
176
     1
  0
VISUALSTYLE
  5
3A
102
{ACAD_REACTORS
330
2A
102
}
330
2A
100
AcDbVisualStyle
  2
ColorChange
 70
    16
177
     2
291
     1
 71
     2
176
     1
 72
     2
176
     1
 73
     3
176
     1
 90
        0
176
     1
 40
-0.6
176
     1
 41
-30.0
176
     1
 62
     5
 63
     8
421
  8421504
176
     1
 74
     1
176
     1
 91
        4
176
     1
 64
     7
176
     1
 65
   257
176
     1
 75
     1
176
     1
175
     1
176
     1
 42
1.0
176
     1
 92
        8
176
     1
 66
     8
424
  8421504
176
     1
 43
1.0
176
     1
 76
     1
176
     1
 77
     6
176
     1
 78
     2
176
     1
 67
     7
176
     1
 79
     5
176
     1
170
     0
176
     1
171
     0
176
     1
290
     0
176
     1
 93
        1
176
     1
 44
0.0
176
     1
173
     0
176
     1
  0
VISUALSTYLE
  5
34
102
{ACAD_REACTORS
330
2A
102
}
330
2A
100
AcDbVisualStyle
  2
Conceptual
 70
     9
177
     2
291
     0
 71
     3
176
     1
 72
     2
176
     1
 73
     0
176
     1
 90
        0
176
     1
 40
-0.6
176
     1
 41
-30.0
176
     1
 62
     5
 63
     7
421
 16777215
176
     1
 74
     2
176
     1
 91
        2
176
     1
 64
     7
176
     1
 65
   257
176
     1
 75
     1
176
     1
175
     1
176
     1
 42
40.0
176
     1
 92
        8
176
     1
 66
     7
176
     1
 43
1.0
176
     1
 76
     1
176
     1
 77
     6
176
     1
 78
     2
176
     1
 67
     7
176
     1
 79
     3
176
     1
170
     0
176
     1
171
     0
176
     1
290
     0
176
     1
 93
        1
176
     1
 44
0.0
176
     1
173
     0
176
     1
  0
VISUALSTYLE
  5
35
102
{ACAD_REACTORS
330
2A
102
}
330
2A
100
AcDbVisualStyle
  2
Dim
 70
    11
177
     2
291
     1
 71
     2
176
     1
 72
     2
176
     1
 73
     0
176
     1
 90
        0
176
     1
 40
-0.6
176
     1
 41
-30.0
176
     1
 62
     5
 63
     7
421
 16777215
176
     1
 74
     1
176
     1
 91
        4
176
     1
 64
     7
176
     1
 65
   257
176
     1
 75
     1
176
     1
175
     1
176
     1
 42
1.0
176
     1
 92
        8
176
     1
 66
     7
176
     1
 43
1.0
176
     1
 76
     1
176
     1
 77
     6
176
     1
 78
     2
176
     1
 67
     7
176
     1
 79
     5
176
     1
170
     0
176
     1
171
     0
176
     1
290
     0
176
     1
 93
        1
176
     1
 44
-50.0
176
     1
173
     0
176
     1
  0
VISUALSTYLE
  5
39
102
{ACAD_REACTORS
330
2A
102
}
330
2A
100
AcDbVisualStyle
  2
Facepattern
 70
    15
177
     2
291
     1
 71
     2
176
     1
 72
     2
176
     1
 73
     0
176
     1
 90
        0
176
     1
 40
-0.6
176
     1
 41
-30.0
176
     1
 62
     5
 63
     7
421
 16777215
176
     1
 74
     1
176
     1
 91
        4
176
     1
 64
     7
176
     1
 65
   257
176
     1
 75
     1
176
     1
175
     1
176
     1
 42
1.0
176
     1
 92
        8
176
     1
 66
     7
176
     1
 43
1.0
176
     1
 76
     1
176
     1
 77
     6
176
     1
 78
     2
176
     1
 67
     7
176
     1
 79
     5
176
     1
170
     0
176
     1
171
     0
176
     1
290
     0
176
     1
 93
        1
176
     1
 44
0.0
176
     1
173
     0
176
     1
  0
VISUALSTYLE
  5
2B
102
{ACAD_REACTORS
330
2A
102
}
330
2A
100
AcDbVisualStyle
  2
Flat
 70
     0
177
     2
291
     1
 71
     2
176
     1
 72
     1
176
     1
 73
     1
176
     1
 90
        2
176
     1
 40
-0.6
176
     1
 41
30.0
176
     1
 62
     5
 63
     7
421
 16777215
176
     1
 74
     0
176
     1
 91
        4
176
     1
 64
     7
176
     1
 65
   257
176
     1
 75
     1
176
     1
175
     1
176
     1
 42
1.0
176
     1
 92
        8
176
     1
 66
     7
176
     1
 43
1.0
176
     1
 76
     1
176
     1
 77
     6
176
     1
 78
     2
176
     1
 67
     7
176
     1
 79
     5
176
     1
170
     0
176
     1
171
     0
176
     1
290
     0
176
     1
 93
       13
176
     1
 44
0.0
176
     1
173
     0
176
     1
  0
VISUALSTYLE
  5
2C
102
{ACAD_REACTORS
330
2A
102
}
330
2A
100
AcDbVisualStyle
  2
FlatWithEdges
 70
     1
177
     2
291
     1
 71
     2
176
     1
 72
     1
176
     1
 73
     1
176
     1
 90
        2
176
     1
 40
-0.6
176
     1
 41
30.0
176
     1
 62
     5
 63
     7
421
 16777215
176
     1
 74
     1
176
     1
 91
        4
176
     1
 64
     7
176
     1
 65
   257
176
     1
 75
     1
176
     1
175
     1
176
     1
 42
1.0
176
     1
 92
        0
176
     1
 66
   257
176
     1
 43
1.0
176
     1
 76
     1
176
     1
 77
     6
176
     1
 78
     2
176
     1
 67
     7
176
     1
 79
     5
176
     1
170
     0
176
     1
171
     0
176
     1
290
     0
176
     1
 93
       13
176
     1
 44
0.0
176
     1
173
     0
176
     1
  0
VISUALSTYLE
  5
2D
102
{ACAD_REACTORS
330
2A
102
}
330
2A
100
AcDbVisualStyle
  2
Gouraud
 70
     2
177
     2
291
     1
 71
     2
176
     1
 72
     2
176
     1
 73
     1
176
     1
 90
        2
176
     1
 40
-0.6
176
     1
 41
30.0
176
     1
 62
     5
 63
     7
421
 16777215
176
     1
 74
     0
176
     1
 91
        4
176
     1
 64
     7
176
     1
 65
   257
176
     1
 75
     1
176
     1
175
     1
176
     1
 42
1.0
176
     1
 92
        0
176
     1
 66
     7
176
     1
 43
1.0
176
     1
 76
     1
176
     1
 77
     6
176
     1
 78
     2
176
     1
 67
     7
176
     1
 79
     5
176
     1
170
     0
176
     1
171
     0
176
     1
290
     0
176
     1
 93
       13
176
     1
 44
0.0
176
     1
173
     0
176
     1
  0
VISUALSTYLE
  5
2E
102
{ACAD_REACTORS
330
2A
102
}
330
2A
100
AcDbVisualStyle
  2
GouraudWithEdges
 70
     3
177
     2
291
     1
 71
     2
176
     1
 72
     2
176
     1
 73
     1
176
     1
 90
        2
176
     1
 40
-0.6
176
     1
 41
30.0
176
     1
 62
     5
 63
     7
421
 16777215
176
     1
 74
     1
176
     1
 91
        4
176
     1
 64
     7
176
     1
 65
   257
176
     1
 75
     1
176
     1
175
     1
176
     1
 42
1.0
176
     1
 92
        0
176
     1
 66
   257
176
     1
 43
1.0
176
     1
 76
     1
176
     1
 77
     6
176
     1
 78
     2
176
     1
 67
     7
176
     1
 79
     5
176
     1
170
     0
176
     1
171
     0
176
     1
290
     0
176
     1
 93
       13
176
     1
 44
0.0
176
     1
173
     0
176
     1
  0
VISUALSTYLE
  5
38
102
{ACAD_REACTORS
330
2A
102
}
330
2A
100
AcDbVisualStyle
  2
Linepattern
 70
    14
177
     2
291
     1
 71
     2
176
     1
 72
     2
176
     1
 73
     0
176
     1
 90
        0
176
     1
 40
-0.6
176
     1
 41
-30.0
176
     1
 62
     5
 63
     7
421
 16777215
176
     1
 74
     1
176
     1
 91
        4
176
     1
 64
     7
176
     1
 65
   257
176
     1
 75
     7
176
     1
175
     7
176
     1
 42
1.0
176
     1
 92
        8
176
     1
 66
     7
176
     1
 43
1.0
176
     1
 76
     1
176
     1
 77
     6
176
     1
 78
     2
176
     1
 67
     7
176
     1
 79
     5
176
     1
170
     0
176
     1
171
     0
176
     1
290
     0
176
     1
 93
        1
176
     1
 44
0.0
176
     1
173
     0
176
     1
  0
VISUALSTYLE
  5
33
102
{ACAD_REACTORS
330
2A
102
}
330
2A
100
AcDbVisualStyle
  2
Realistic
 70
     8
177
     2
291
     0
 71
     2
176
     1
 72
     2
176
     1
 73
     0
176
     1
 90
        0
176
     1
 40
-0.6
176
     1
 41
-30.0
176
     1
 62
     5
 63
     7
421
 16777215
176
     1
 74
     1
176
     1
 91
        0
176
     1
 64
     7
176
     1
 65
   257
176
     1
 75
     1
176
     1
175
     1
176
     1
 42
1.0
176
     1
 92
        8
176
     1
 66
     8
424
  7895160
176
     1
 43
1.0
176
     1
 76
     1
176
     1
 77
     6
176
     1
 78
     2
176
     1
 67
     7
176
     1
 79
     5
176
     1
170
     0
176
     1
171
     0
176
     1
290
     0
176
     1
 93
       13
176
     1
 44
0.0
176
     1
173
     0
176
     1
  0
VISUALSTYLE
  5
37
102
{ACAD_REACTORS
330
2A
102
}
330
2A
100
AcDbVisualStyle
  2
Thicken
 70
    13
177
     2
291
     1
 71
     2
176
     1
 72
     2
176
     1
 73
     0
176
     1
 90
        0
176
     1
 40
-0.6
176
     1
 41
-30.0
176
     1
 62
     5
 63
     7
421
 16777215
176
     1
 74
     1
176
     1
 91
        4
176
     1
 64
     7
176
     1
 65
   257
176
     1
 75
     1
176
     1
175
     1
176
     1
 42
1.0
176
     1
 92
       12
176
     1
 66
     7
176
     1
 43
1.0
176
     1
 76
     1
176
     1
 77
     6
176
     1
 78
     2
176
     1
 67
     7
176
     1
 79
     5
176
     1
170
     0
176
     1
171
     0
176
     1
290
     0
176
     1
 93
        1
176
     1
 44
0.0
176
     1
173
     0
176
     1
  0
ENDSEC
  0
EOF
