  0
SECTION
  2
HEADER
  9
$ACADVER
  1
AC1024
  9
$ACADMAINTVER
 70
     6
  9
$DWGCODEPAGE
  3
UNDEFINED
  9
$INSBASE
 10
0.0
 20
0.0
 30
0.0
  9
$EXTMIN
 10
1.000000000000000E+20
 20
1.000000000000000E+20
 30
1.000000000000000E+20
  9
$EXTMAX
 10
-1.000000000000000E+20
 20
-1.000000000000000E+20
 30
-1.000000000000000E+20
  9
$LIMMIN
 10
0.0
 20
0.0
  9
$LIMMAX
 10
12.0
 20
9.0
  9
$ORTHOMODE
 70
     0
  9
$REGENMODE
 70
     1
  9
$FILLMODE
 70
     1
  9
$QTEXTMODE
 70
     0
  9
$MIRRTEXT
 70
     1
  9
$LTSCALE
 40
1.0
  9
$ATTMODE
 70
     1
  9
$TEXTSIZE
 40
0.2
  9
$TRACEWID
 40
0.05
  9
$TEXTSTYLE
  7
Standard
  9
$CLAYER
  8
0
  9
$CELTYPE
  6
ByLayer
  9
$CECOLOR
 62
   256
  9
$CELTSCALE
 40
1.0
  9
$DISPSILH
 70
     0
  9
$DIMSCALE
 40
1.0
  9
$DIMASZ
 40
0.18
  9
$DIMEXO
 40
0.0625
  9
$DIMDLI
 40
0.38
  9
$DIMRND
 40
0.0
  9
$DIMDLE
 40
0.0
  9
$DIMEXE
 40
0.18
  9
$DIMTP
 40
0.0
  9
$DIMTM
 40
0.0
  9
$DIMTXT
 40
0.18
  9
$DIMCEN
 40
0.09
  9
$DIMTSZ
 40
0.0
  9
$DIMTOL
 70
     0
  9
$DIMLIM
 70
     0
  9
$DIMTIH
 70
     1
  9
$DIMTOH
 70
     1
  9
$DIMSE1
 70
     0
  9
$DIMSE2
 70
     0
  9
$DIMTAD
 70
     0
  9
$DIMZIN
 70
     0
  9
$DIMBLK
  1

  9
$DIMASO
 70
     1
  9
$DIMSHO
 70
     1
  9
$DIMPOST
  1

  9
$DIMAPOST
  1

  9
$DIMALT
 70
     0
  9
$DIMALTD
 70
     2
  9
$DIMALTF
 40
25.4
  9
$DIMLFAC
 40
1.0
  9
$DIMTOFL
 70
     0
  9
$DIMTVP
 40
0.0
  9
$DIMTIX
 70
     0
  9
$DIMSOXD
 70
     0
  9
$DIMSAH
 70
     0
  9
$DIMBLK1
  1

  9
$DIMBLK2
  1

  9
$DIMSTYLE
  2
Standard
  9
$DIMCLRD
 70
     0
  9
$DIMCLRE
 70
     0
  9
$DIMCLRT
 70
     0
  9
$DIMTFAC
 40
1.0
  9
$DIMGAP
 40
0.09
  9
$DIMJUST
 70
     0
  9
$DIMSD1
 70
     0
  9
$DIMSD2
 70
     0
  9
$DIMTOLJ
 70
     1
  9
$DIMTZIN
 70
     0
  9
$DIMALTZ
 70
     0
  9
$DIMALTTZ
 70
     0
  9
$DIMUPT
 70
     0
  9
$DIMDEC
 70
     4
  9
$DIMTDEC
 70
     4
  9
$DIMALTU
 70
     2
  9
$DIMALTTD
 70
     2
  9
$DIMTXSTY
  7
Standard
  9
$DIMAUNIT
 70
     0
  9
$DIMADEC
 70
     0
  9
$DIMALTRND
 40
0.0
  9
$DIMAZIN
 70
     0
  9
$DIMDSEP
 70
    46
  9
$DIMATFIT
 70
     3
  9
$DIMFRAC
 70
     0
  9
$DIMLDRBLK
  1

  9
$DIMLUNIT
 70
     2
  9
$DIMLWD
 70
    -2
  9
$DIMLWE
 70
    -2
  9
$DIMTMOVE
 70
     0
  9
$DIMFXL
 40
1.0
  9
$DIMFXLON
 70
     0
  9
$DIMJOGANG
 40
0.7853981633974483
  9
$DIMTFILL
 70
     0
  9
$DIMTFILLCLR
 70
     0
  9
$DIMARCSYM
 70
     0
  9
$DIMLTYPE
  6

  9
$DIMLTEX1
  6

  9
$DIMLTEX2
  6

  9
$DIMTXTDIRECTION
 70
     0
  9
$LUNITS
 70
     2
  9
$LUPREC
 70
     4
  9
$SKETCHINC
 40
0.1
  9
$FILLETRAD
 40
0.5
  9
$AUNITS
 70
     0
  9
$AUPREC
 70
     0
  9
$MENU
  1
.
  9
$ELEVATION
 40
0.0
  9
$PELEVATION
 40
0.0
  9
$THICKNESS
 40
0.0
  9
$LIMCHECK
 70
     0
  9
$CHAMFERA
 40
0.5
  9
$CHAMFERB
 40
0.5
  9
$CHAMFERC
 40
1.0
  9
$CHAMFERD
 40
0.0
  9
$SKPOLY
 70
     0
  9
$TDCREATE
 40
2457917.627534722
  9
$TDUCREATE
 40
2457917.252534722
  9
$TDUPDATE
 40
2457917.627534722
  9
$TDUUPDATE
 40
2457917.252534722
  9
$TDINDWG
 40
0.0000000116
  9
$TDUSRTIMER
 40
0.0000000116
  9
$USRTIMER
 70
     1
  9
$ANGBASE
 50
0.0
  9
$ANGDIR
 70
     0
  9
$PDMODE
 70
     0
  9
$PDSIZE
 40
0.0
  9
$PLINEWID
 40
0.0
  9
$SPLFRAME
 70
     0
  9
$SPLINETYPE
 70
     6
  9
$SPLINESEGS
 70
     8
  9
$HANDSEED
  5
176
  9
$SURFTAB1
 70
     6
  9
$SURFTAB2
 70
     6
  9
$SURFTYPE
 70
     6
  9
$SURFU
 70
     6
  9
$SURFV
 70
     6
  9
$UCSBASE
  2

  9
$UCSNAME
  2

  9
$UCSORG
 10
0.0
 20
0.0
 30
0.0
  9
$UCSXDIR
 10
1.0
 20
0.0
 30
0.0
  9
$UCSYDIR
 10
0.0
 20
1.0
 30
0.0
  9
$UCSORTHOREF
  2

  9
$UCSORTHOVIEW
 70
     0
  9
$UCSORGTOP
 10
0.0
 20
0.0
 30
0.0
  9
$UCSORGBOTTOM
 10
0.0
 20
0.0
 30
0.0
  9
$UCSORGLEFT
 10
0.0
 20
0.0
 30
0.0
  9
$UCSORGRIGHT
 10
0.0
 20
0.0
 30
0.0
  9
$UCSORGFRONT
 10
0.0
 20
0.0
 30
0.0
  9
$UCSORGBACK
 10
0.0
 20
0.0
 30
0.0
  9
$PUCSBASE
  2

  9
$PUCSNAME
  2

  9
$PUCSORG
 10
0.0
 20
0.0
 30
0.0
  9
$PUCSXDIR
 10
1.0
 20
0.0
 30
0.0
  9
$PUCSYDIR
 10
0.0
 20
1.0
 30
0.0
  9
$PUCSORTHOREF
  2

  9
$PUCSORTHOVIEW
 70
     0
  9
$PUCSORGTOP
 10
0.0
 20
0.0
 30
0.0
  9
$PUCSORGBOTTOM
 10
0.0
 20
0.0
 30
0.0
  9
$PUCSORGLEFT
 10
0.0
 20
0.0
 30
0.0
  9
$PUCSORGRIGHT
 10
0.0
 20
0.0
 30
0.0
  9
$PUCSORGFRONT
 10
0.0
 20
0.0
 30
0.0
  9
$PUCSORGBACK
 10
0.0
 20
0.0
 30
0.0
  9
$USERI1
 70
     0
  9
$USERI2
 70
     0
  9
$USERI3
 70
     0
  9
$USERI4
 70
     0
  9
$USERI5
 70
     0
  9
$USERR1
 40
0.0
  9
$USERR2
 40
0.0
  9
$USERR3
 40
0.0
  9
$USERR4
 40
0.0
  9
$USERR5
 40
0.0
  9
$WORLDVIEW
 70
     1
  9
$SHADEDGE
 70
     3
  9
$SHADEDIF
 70
    70
  9
$TILEMODE
 70
     1
  9
$MAXACTVP
 70
    64
  9
$PINSBASE
 10
0.0
 20
0.0
 30
0.0
  9
$PLIMCHECK
 70
     0
  9
$PEXTMIN
 10
1.000000000000000E+20
 20
1.000000000000000E+20
 30
1.000000000000000E+20
  9
$PEXTMAX
 10
-1.000000000000000E+20
 20
-1.000000000000000E+20
 30
-1.000000000000000E+20
  9
$PLIMMIN
 10
0.0
 20
0.0
  9
$PLIMMAX
 10
12.0
 20
9.0
  9
$UNITMODE
 70
     0
  9
$VISRETAIN
 70
     1
  9
$PLINEGEN
 70
     0
  9
$PSLTSCALE
 70
     1
  9
$TREEDEPTH
 70
  3020
  9
$CMLSTYLE
  2
Standard
  9
$CMLJUST
 70
     0
  9
$CMLSCALE
 40
1.0
  9
$PROXYGRAPHICS
 70
     1
  9
$MEASUREMENT
 70
     0
  9
$CELWEIGHT
370
    -1
  9
$ENDCAPS
280
     0
  9
$JOINSTYLE
280
     0
  9
$LWDISPLAY
290
     1
  9
$INSUNITS
 70
     1
  9
$HYPERLINKBASE
  1

  9
$STYLESHEET
  1

  9
$XEDIT
290
     1
  9
$CEPSNTYPE
380
     0
  9
$PSTYLEMODE
290
     1
  9
$FINGERPRINTGUID
  2
{2C76714F-827E-EF4F-CB4F-C7518BBB381B}
  9
$VERSIONGUID
  2
{FAEB1C32-E019-11D5-929B-00C0DF256EC4}
  9
$EXTNAMES
290
     1
  9
$PSVPSCALE
 40
0.0
  9
$OLESTARTUP
290
     0
  9
$SORTENTS
280
   127
  9
$INDEXCTL
280
     0
  9
$HIDETEXT
280
     1
  9
$XCLIPFRAME
280
     2
  9
$HALOGAP
280
     0
  9
$OBSCOLOR
 70
   257
  9
$OBSLTYPE
280
     0
  9
$INTERSECTIONDISPLAY
280
     0
  9
$INTERSECTIONCOLOR
 70
   257
  9
$DIMASSOC
280
     2
  9
$PROJECTNAME
  1

  9
$CAMERADISPLAY
290
     0
  9
$LENSLENGTH
 40
50.0
  9
$CAMERAHEIGHT
 40
0.0
  9
$STEPSPERSEC
 40
2.0
  9
$STEPSIZE
 40
6.0
  9
$3DDWFPREC
 40
2.0
  9
$PSOLWIDTH
 40
0.25
  9
$PSOLHEIGHT
 40
4.0
  9
$LOFTANG1
 40
1.570796326794897
  9
$LOFTANG2
 40
1.570796326794897
  9
$LOFTMAG1
 40
0.0
  9
$LOFTMAG2
 40
0.0
  9
$LOFTPARAM
 70
     7
  9
$LOFTNORMALS
280
     1
  9
$LATITUDE
 40
37.795
  9
$LONGITUDE
 40
-122.394
  9
$NORTHDIRECTION
 40
0.0
  9
$TIMEZONE
 70
 -8000
  9
$LIGHTGLYPHDISPLAY
280
     1
  9
$TILEMODELIGHTSYNCH
280
     1
  9
$CMATERIAL
347
3C
  9
$SOLIDHIST
280
     1
  9
$SHOWHIST
280
     1
  9
$DWFFRAME
280
     2
  9
$DGNFRAME
280
     2
  9
$REALWORLDSCALE
290
     1
  9
$INTERFERECOLOR
 62
   256
  9
$CSHADOW
280
     0
  9
$SHADOWPLANELOCATION
 40
0.0
  0
ENDSEC
  0
SECTION
  2
CLASSES
  0
CLASS
  1
ACDBDICTIONARYWDFLT
  2
AcDbDictionaryWithDefault
  3
ObjectDBX Classes
 90
        0
 91
        4
280
     0
281
     0
  0
CLASS
  1
VISUALSTYLE
  2
AcDbVisualStyle
  3
ObjectDBX Classes
 90
     4095
 91
        4
280
     0
281
     0
  0
CLASS
  1
MATERIAL
  2
AcDbMaterial
  3
ObjectDBX Classes
 90
     1153
 91
        4
280
     0
281
     0
  0
CLASS
  1
SUN
  2
AcDbSun
  3
SCENEOE
 90
     1024
 91
        4
280
     0
281
     0
  0
ENDSEC
  0
SECTION
  2
TABLES
  0
TABLE
  2
VPORT
  5
8
330
0
100
AcDbSymbolTable
 70
     1
  0
VPORT
  5
29
330
8
100
AcDbSymbolTableRecord
100
AcDbViewportTableRecord
  2
*Active
 70
     0
 10
0.0
 20
0.0
 11
1.0
 21
1.0
 12
0.0
 22
0.0
 13
0.0
 23
0.0
 14
0.5
 24
0.5
 15
0.5
 25
0.5
 16
0.0
 26
0.0
 36
1.0
 17
91.00082462281999
 27
-128.4993055234307
 37
0.0
 40
256.9986110468615
 41
0.7081814508812795
 42
50.0
 43
0.0
 44
0.0
 50
0.0
 51
0.0
 71
     0
 72
   100
 73
     1
 74
     3
 75
     0
 76
     0
 77
     0
 78
     0
281
     0
 65
     1
110
0.0
120
0.0
130
0.0
111
1.0
121
0.0
131
0.0
112
0.0
122
1.0
132
0.0
 79
     0
146
0.0
 60
     3
 61
     5
292
     1
282
     1
141
0.0
142
0.0
 63
   250
361
3F
  0
ENDTAB
  0
TABLE
  2
LTYPE
  5
5
330
0
100
AcDbSymbolTable
 70
     1
  0
LTYPE
  5
14
330
5
100
AcDbSymbolTableRecord
100
AcDbLinetypeTableRecord
  2
ByBlock
 70
     0
  3

 72
    65
 73
     0
 40
0.0
  0
LTYPE
  5
15
330
5
100
AcDbSymbolTableRecord
100
AcDbLinetypeTableRecord
  2
ByLayer
 70
     0
  3

 72
    65
 73
     0
 40
0.0
  0
LTYPE
  5
16
330
5
100
AcDbSymbolTableRecord
100
AcDbLinetypeTableRecord
  2
Continuous
 70
     0
  3
Solid line
 72
    65
 73
     0
 40
0.0
  0
ENDTAB
  0
TABLE
  2
LAYER
  5
2
330
0
100
AcDbSymbolTable
 70
     2
  0
LAYER
  5
10
330
2
100
AcDbSymbolTableRecord
100
AcDbLayerTableRecord
  2
0
 70
     0
 62
     7
  6
Continuous
370
    -3
390
F
347
3E
  0
LAYER
  5
40
330
2
100
AcDbSymbolTableRecord
100
AcDbLayerTableRecord
  2
_U+30EC_U+30A4_U+30E4_U+30FC 1
 70
     0
 62
     7
  6
Continuous
370
    -3
390
F
347
3E
  0
ENDTAB
  0
TABLE
  2
STYLE
  5
3
330
0
100
AcDbSymbolTable
 70
     1
  0
STYLE
  5
11
330
3
100
AcDbSymbolTableRecord
100
AcDbTextStyleTableRecord
  2
Standard
 70
     0
 40
0.0
 41
1.0
 50
0.0
 71
     0
 42
0.2
  3
txt
  4

  0
ENDTAB
  0
TABLE
  2
VIEW
  5
6
330
0
100
AcDbSymbolTable
 70
     0
  0
ENDTAB
  0
TABLE
  2
UCS
  5
7
330
0
100
AcDbSymbolTable
 70
     0
  0
ENDTAB
  0
TABLE
  2
APPID
  5
9
330
0
100
AcDbSymbolTable
 70
     1
  0
APPID
  5
12
330
9
100
AcDbSymbolTableRecord
100
AcDbRegAppTableRecord
  2
ACAD
 70
     0
  0
ENDTAB
  0
TABLE
  2
DIMSTYLE
  5
A
330
0
100
AcDbSymbolTable
 70
     1
100
AcDbDimStyleTable
  0
DIMSTYLE
105
27
330
A
100
AcDbSymbolTableRecord
100
AcDbDimStyleTableRecord
  2
Standard
 70
     0
178
     0
340
11
  0
ENDTAB
  0
TABLE
  2
BLOCK_RECORD
  5
1
330
0
100
AcDbSymbolTable
 70
    11
  0
BLOCK_RECORD
  5
1F
330
1
100
AcDbSymbolTableRecord
100
AcDbBlockTableRecord
  2
*Model_Space
340
22
 70
     0
280
     1
281
     0
  0
BLOCK_RECORD
  5
1B
330
1
100
AcDbSymbolTableRecord
100
AcDbBlockTableRecord
  2
*Paper_Space
340
1E
 70
     0
280
     1
281
     0
  0
BLOCK_RECORD
  5
23
330
1
100
AcDbSymbolTableRecord
100
AcDbBlockTableRecord
  2
*Paper_Space0
340
26
 70
     0
280
     1
281
     0
  0
BLOCK_RECORD
  5
AE
330
1
100
AcDbSymbolTableRecord
100
AcDbBlockTableRecord
  2
block 2
340
0
102
{BLKREFS
331
AF
102
}
 70
     0
280
     1
281
     0
  0
BLOCK_RECORD
  5
C9
330
1
100
AcDbSymbolTableRecord
100
AcDbBlockTableRecord
  2
block 3
340
0
102
{BLKREFS
331
CA
102
}
 70
     0
280
     1
281
     0
  0
BLOCK_RECORD
  5
DB
330
1
100
AcDbSymbolTableRecord
100
AcDbBlockTableRecord
  2
block 4
340
0
102
{BLKREFS
331
DC
102
}
 70
     0
280
     1
281
     0
  0
BLOCK_RECORD
  5
ED
330
1
100
AcDbSymbolTableRecord
100
AcDbBlockTableRecord
  2
block 5
340
0
102
{BLKREFS
331
EE
102
}
 70
     0
280
     1
281
     0
  0
BLOCK_RECORD
  5
100
330
1
100
AcDbSymbolTableRecord
100
AcDbBlockTableRecord
  2
block 6
340
0
102
{BLKREFS
331
101
102
}
 70
     0
280
     1
281
     0
  0
BLOCK_RECORD
  5
108
330
1
100
AcDbSymbolTableRecord
100
AcDbBlockTableRecord
  2
block 7
340
0
102
{BLKREFS
331
109
102
}
 70
     0
280
     1
281
     0
  0
BLOCK_RECORD
  5
10E
330
1
100
AcDbSymbolTableRecord
100
AcDbBlockTableRecord
  2
block 8
340
0
102
{BLKREFS
331
10F
102
}
 70
     0
280
     1
281
     0
  0
BLOCK_RECORD
  5
116
330
1
100
AcDbSymbolTableRecord
100
AcDbBlockTableRecord
  2
block 9
340
0
102
{BLKREFS
331
117
102
}
 70
     0
280
     1
281
     0
  0
BLOCK_RECORD
  5
11C
330
1
100
AcDbSymbolTableRecord
100
AcDbBlockTableRecord
  2
block 10
340
0
102
{BLKREFS
331
11D
102
}
 70
     0
280
     1
281
     0
  0
BLOCK_RECORD
  5
137
330
1
100
AcDbSymbolTableRecord
100
AcDbBlockTableRecord
  2
block 11
340
0
102
{BLKREFS
331
138
102
}
 70
     0
280
     1
281
     0
  0
ENDTAB
  0
ENDSEC
  0
SECTION
  2
BLOCKS
  0
BLOCK
  5
20
330
1F
100
AcDbEntity
  8
0
100
AcDbBlockBegin
  2
*Model_Space
 70
     0
 10
0.0
 20
0.0
 30
0.0
  3
*Model_Space
  1

  0
ENDBLK
  5
21
330
1F
100
AcDbEntity
  8
0
100
AcDbBlockEnd
  0
BLOCK
  5
1C
330
1B
100
AcDbEntity
 67
     1
  8
0
100
AcDbBlockBegin
  2
*Paper_Space
 70
     0
 10
0.0
 20
0.0
 30
0.0
  3
*Paper_Space
  1

  0
ENDBLK
  5
1D
330
1B
100
AcDbEntity
 67
     1
  8
0
100
AcDbBlockEnd
  0
BLOCK
  5
24
330
23
100
AcDbEntity
  8
0
100
AcDbBlockBegin
  2
*Paper_Space0
 70
     0
 10
0.0
 20
0.0
 30
0.0
  3
*Paper_Space0
  1

  0
ENDBLK
  5
25
330
23
100
AcDbEntity
  8
0
100
AcDbBlockEnd
  0
BLOCK
  5
B0
330
AE
100
AcDbEntity
  8
0
100
AcDbBlockBegin
  2
block 2
 70
     0
 10
0.0
 20
0.0
 30
0.0
  3
block 2
  1

  0
SPLINE
  5
B2
330
AE
100
AcDbEntity
  8
_U+30EC_U+30A4_U+30E4_U+30FC 1
370
     0
100
AcDbSpline
210
0.0
220
0.0
230
1.0
 70
    11
 71
     3
 72
    26
 73
    22
 74
     0
 42
0.0000000001
 43
0.0000000001
 12
1.0
 22
0.0
 32
0.0
 13
1.0
 23
0.0
 33
0.0
 40
0.0
 40
0.0
 40
0.0
 40
0.0
 40
1.0
 40
1.0
 40
1.0
 40
2.0
 40
2.0
 40
2.0
 40
3.0
 40
3.0
 40
3.0
 40
4.0
 40
4.0
 40
4.0
 40
5.0
 40
5.0
 40
5.0
 40
6.0
 40
6.0
 40
6.0
 40
7.0
 40
7.0
 40
7.0
 40
7.0
 10
111.7389159876903
 20
-122.5241319138134
 30
0.0
 10
111.7389159876903
 20
-122.5241319138134
 30
0.0
 10
110.6347628846677
 20
-122.5241319138134
 30
0.0
 10
110.6347628846677
 20
-122.5241319138134
 30
0.0
 10
110.6347628846677
 20
-122.5241319138134
 30
0.0
 10
110.6347628846677
 20
-122.8541720613003
 30
0.0
 10
110.6347628846677
 20
-122.8541720613003
 30
0.0
 10
110.6347628846677
 20
-122.8541720613003
 30
0.0
 10
110.486623778802
 20
-122.8541720613003
 30
0.0
 10
110.486623778802
 20
-122.8541720613003
 30
0.0
 10
110.4718098682154
 20
-122.5220648565223
 30
0.0
 10
110.3088568517631
 20
-122.4755560674714
 30
0.0
 10
110.1944796816528
 20
-122.4459282462983
 30
0.0
 10
110.1944796816528
 20
-122.4459282462983
 30
0.0
 10
110.1944796816528
 20
-122.2998561977237
 30
0.0
 10
110.1944796816528
 20
-122.2998561977237
 30
0.0
 10
110.1944796816528
 20
-122.2998561977237
 30
0.0
 10
111.7389159876903
 20
-122.2998561977237
 30
0.0
 10
111.7389159876903
 20
-122.2998561977237
 30
0.0
 10
111.7389159876903
 20
-122.2998561977237
 30
0.0
 10
111.7389159876903
 20
-122.5241319138134
 30
0.0
 10
111.7389159876903
 20
-122.5241319138134
 30
0.0
  0
HATCH
  5
B3
330
AE
100
AcDbEntity
  8
_U+30EC_U+30A4_U+30E4_U+30FC 1
 62
   179
420
  2234388
100
AcDbHatch
 10
0.0
 20
0.0
 30
0.0
210
0.0
220
0.0
230
1.0
  2
SOLID
 70
     1
 71
     0
 91
        1
 92
        1
 93
        1
 72
     4
 94
        3
 73
     0
 74
     1
 95
       26
 96
       22
 40
0.0
 40
0.0
 40
0.0
 40
0.0
 40
1.0
 40
1.0
 40
1.0
 40
2.0
 40
2.0
 40
2.0
 40
3.0
 40
3.0
 40
3.0
 40
4.0
 40
4.0
 40
4.0
 40
5.0
 40
5.0
 40
5.0
 40
6.0
 40
6.0
 40
6.0
 40
7.0
 40
7.0
 40
7.0
 40
7.0
 10
111.7389159876903
 20
-122.5241319138134
 10
111.7389159876903
 20
-122.5241319138134
 10
110.6347628846677
 20
-122.5241319138134
 10
110.6347628846677
 20
-122.5241319138134
 10
110.6347628846677
 20
-122.5241319138134
 10
110.6347628846677
 20
-122.8541720613003
 10
110.6347628846677
 20
-122.8541720613003
 10
110.6347628846677
 20
-122.8541720613003
 10
110.486623778802
 20
-122.8541720613003
 10
110.486623778802
 20
-122.8541720613003
 10
110.4718098682154
 20
-122.5220648565223
 10
110.3088568517631
 20
-122.4755560674714
 10
110.1944796816528
 20
-122.4459282462983
 10
110.1944796816528
 20
-122.4459282462983
 10
110.1944796816528
 20
-122.2998561977237
 10
110.1944796816528
 20
-122.2998561977237
 10
110.1944796816528
 20
-122.2998561977237
 10
111.7389159876903
 20
-122.2998561977237
 10
111.7389159876903
 20
-122.2998561977237
 10
111.7389159876903
 20
-122.2998561977237
 10
111.7389159876903
 20
-122.5241319138134
 10
111.7389159876903
 20
-122.5241319138134
 97
        0
 97
        0
 75
     2
 76
     1
 98
        0
  0
POLYLINE
  5
B4
330
AE
100
AcDbEntity
  8
_U+30EC_U+30A4_U+30E4_U+30FC 1
370
     0
100
AcDb2dPolyline
 66
     1
 10
0.0
 20
0.0
 30
0.0
  0
VERTEX
  5
B5
330
B4
100
AcDbEntity
  8
_U+30EC_U+30A4_U+30E4_U+30FC 1
370
     0
100
AcDbVertex
100
AcDb2dVertex
 10
111.3919948723256
 20
-120.966604244932
 30
0.0
  0
VERTEX
  5
B6
330
B4
100
AcDbEntity
  8
_U+30EC_U+30A4_U+30E4_U+30FC 1
370
     0
100
AcDbVertex
100
AcDb2dVertex
 10
111.7389159876903
 20
-120.966604244932
 30
0.0
  0
VERTEX
  5
B7
330
B4
100
AcDbEntity
  8
_U+30EC_U+30A4_U+30E4_U+30FC 1
370
     0
100
AcDbVertex
100
AcDb2dVertex
 10
111.7389159876903
 20
-121.1843342795998
 30
0.0
  0
VERTEX
  5
B8
330
B4
100
AcDbEntity
  8
_U+30EC_U+30A4_U+30E4_U+30FC 1
370
     0
100
AcDbVertex
100
AcDb2dVertex
 10
111.3919948723256
 20
-121.1843342795998
 30
0.0
  0
VERTEX
  5
B9
330
B4
100
AcDbEntity
  8
_U+30EC_U+30A4_U+30E4_U+30FC 1
370
     0
100
AcDbVertex
100
AcDb2dVertex
 10
111.3919948723256
 20
-121.8402804599913
 30
0.0
  0
VERTEX
  5
BA
330
B4
100
AcDbEntity
  8
_U+30EC_U+30A4_U+30E4_U+30FC 1
370
     0
100
AcDbVertex
100
AcDb2dVertex
 10
111.1677191562358
 20
-121.8402804599913
 30
0.0
  0
VERTEX
  5
BB
330
B4
100
AcDbEntity
  8
_U+30EC_U+30A4_U+30E4_U+30FC 1
370
     0
100
AcDbVertex
100
AcDb2dVertex
 10
110.1944796816528
 20
-121.1612521398486
 30
0.0
  0
VERTEX
  5
BC
330
B4
100
AcDbEntity
  8
_U+30EC_U+30A4_U+30E4_U+30FC 1
370
     0
100
AcDbVertex
100
AcDb2dVertex
 10
110.1944796816528
 20
-120.966604244932
 30
0.0
  0
VERTEX
  5
BD
330
B4
100
AcDbEntity
  8
_U+30EC_U+30A4_U+30E4_U+30FC 1
370
     0
100
AcDbVertex
100
AcDb2dVertex
 10
111.1932128628267
 20
-120.966604244932
 30
0.0
  0
VERTEX
  5
BE
330
B4
100
AcDbEntity
  8
_U+30EC_U+30A4_U+30E4_U+30FC 1
370
     0
100
AcDbVertex
100
AcDb2dVertex
 10
111.1932128628267
 20
-120.7592094967199
 30
0.0
  0
VERTEX
  5
BF
330
B4
100
AcDbEntity
  8
_U+30EC_U+30A4_U+30E4_U+30FC 1
370
     0
100
AcDbVertex
100
AcDb2dVertex
 10
111.3919948723256
 20
-120.7592094967199
 30
0.0
  0
VERTEX
  5
C0
330
B4
100
AcDbEntity
  8
_U+30EC_U+30A4_U+30E4_U+30FC 1
370
     0
100
AcDbVertex
100
AcDb2dVertex
 10
111.3919948723256
 20
-120.966604244932
 30
0.0
  0
SEQEND
  5
C1
330
B4
100
AcDbEntity
  8
_U+30EC_U+30A4_U+30E4_U+30FC 1
370
     0
  0
POLYLINE
  5
C2
330
AE
100
AcDbEntity
  8
_U+30EC_U+30A4_U+30E4_U+30FC 1
370
     0
100
AcDb2dPolyline
 66
     1
 10
0.0
 20
0.0
 30
0.0
  0
VERTEX
  5
C3
330
C2
100
AcDbEntity
  8
_U+30EC_U+30A4_U+30E4_U+30FC 1
370
     0
100
AcDbVertex
100
AcDb2dVertex
 10
110.5372666824351
 20
-121.1843342795998
 30
0.0
  0
VERTEX
  5
C4
330
C2
100
AcDbEntity
  8
_U+30EC_U+30A4_U+30E4_U+30FC 1
370
     0
100
AcDbVertex
100
AcDb2dVertex
 10
111.1932128628267
 20
-121.6414984504924
 30
0.0
  0
VERTEX
  5
C5
330
C2
100
AcDbEntity
  8
_U+30EC_U+30A4_U+30E4_U+30FC 1
370
     0
100
AcDbVertex
100
AcDb2dVertex
 10
111.1932128628267
 20
-121.1843342795998
 30
0.0
  0
VERTEX
  5
C6
330
C2
100
AcDbEntity
  8
_U+30EC_U+30A4_U+30E4_U+30FC 1
370
     0
100
AcDbVertex
100
AcDb2dVertex
 10
110.5372666824351
 20
-121.1843342795998
 30
0.0
  0
SEQEND
  5
C7
330
C2
100
AcDbEntity
  8
_U+30EC_U+30A4_U+30E4_U+30FC 1
370
     0
  0
HATCH
  5
C8
330
AE
100
AcDbEntity
  8
_U+30EC_U+30A4_U+30E4_U+30FC 1
 62
   179
420
  2234388
100
AcDbHatch
 10
0.0
 20
0.0
 30
0.0
210
0.0
220
0.0
230
1.0
  2
SOLID
 70
     1
 71
     0
 91
        2
 92
        1
 93
       11
 72
     1
 10
111.3919948723256
 20
-120.966604244932
 11
111.7389159876903
 21
-120.966604244932
 72
     1
 10
111.7389159876903
 20
-120.966604244932
 11
111.7389159876903
 21
-121.1843342795998
 72
     1
 10
111.7389159876903
 20
-121.1843342795998
 11
111.3919948723256
 21
-121.1843342795998
 72
     1
 10
111.3919948723256
 20
-121.1843342795998
 11
111.3919948723256
 21
-121.8402804599913
 72
     1
 10
111.3919948723256
 20
-121.8402804599913
 11
111.1677191562358
 21
-121.8402804599913
 72
     1
 10
111.1677191562358
 20
-121.8402804599913
 11
110.1944796816528
 21
-121.1612521398486
 72
     1
 10
110.1944796816528
 20
-121.1612521398486
 11
110.1944796816528
 21
-120.966604244932
 72
     1
 10
110.1944796816528
 20
-120.966604244932
 11
111.1932128628267
 21
-120.966604244932
 72
     1
 10
111.1932128628267
 20
-120.966604244932
 11
111.1932128628267
 21
-120.7592094967199
 72
     1
 10
111.1932128628267
 20
-120.7592094967199
 11
111.3919948723256
 21
-120.7592094967199
 72
     1
 10
111.3919948723256
 20
-120.7592094967199
 11
111.3919948723256
 21
-120.966604244932
 97
        0
 92
        1
 93
        3
 72
     1
 10
110.5372666824351
 20
-121.1843342795998
 11
111.1932128628267
 21
-121.6414984504924
 72
     1
 10
111.1932128628267
 20
-121.6414984504924
 11
111.1932128628267
 21
-121.1843342795998
 72
     1
 10
111.1932128628267
 20
-121.1843342795998
 11
110.5372666824351
 21
-121.1843342795998
 97
        0
 75
     2
 76
     1
 98
        0
  0
ENDBLK
  5
B1
330
AE
100
AcDbEntity
  8
0
100
AcDbBlockEnd
  0
BLOCK
  5
CB
330
C9
100
AcDbEntity
  8
0
100
AcDbBlockBegin
  2
block 3
 70
     0
 10
0.0
 20
0.0
 30
0.0
  3
block 3
  1

  0
SPLINE
  5
CD
330
C9
100
AcDbEntity
  8
_U+30EC_U+30A4_U+30E4_U+30FC 1
370
     0
100
AcDbSpline
210
0.0
220
0.0
230
1.0
 70
    11
 71
     3
 72
    62
 73
    58
 74
     0
 42
0.0000000001
 43
0.0000000001
 12
1.0
 22
0.0
 32
0.0
 13
1.0
 23
0.0
 33
0.0
 40
0.0
 40
0.0
 40
0.0
 40
0.0
 40
1.0
 40
1.0
 40
1.0
 40
2.0
 40
2.0
 40
2.0
 40
3.0
 40
3.0
 40
3.0
 40
4.0
 40
4.0
 40
4.0
 40
5.0
 40
5.0
 40
5.0
 40
6.0
 40
6.0
 40
6.0
 40
7.0
 40
7.0
 40
7.0
 40
8.0
 40
8.0
 40
8.0
 40
9.0
 40
9.0
 40
9.0
 40
10.0
 40
10.0
 40
10.0
 40
11.0
 40
11.0
 40
11.0
 40
12.0
 40
12.0
 40
12.0
 40
13.0
 40
13.0
 40
13.0
 40
14.0
 40
14.0
 40
14.0
 40
15.0
 40
15.0
 40
15.0
 40
16.0
 40
16.0
 40
16.0
 40
17.0
 40
17.0
 40
17.0
 40
18.0
 40
18.0
 40
18.0
 40
19.0
 40
19.0
 40
19.0
 40
19.0
 10
74.70310599260895
 20
-138.2809651347006
 30
0.0
 10
74.70310599260895
 20
-138.376394279642
 30
0.0
 10
74.68191865537466
 20
-138.5941243143098
 30
0.0
 10
74.49571124439692
 20
-138.7191812804244
 30
0.0
 10
74.38357338635203
 20
-138.7932508333573
 30
0.0
 10
74.28418238160256
 20
-138.7973849479395
 30
0.0
 10
74.19960528743968
 20
-138.8015190625219
 30
0.0
 10
74.19960528743968
 20
-138.8015190625219
 30
0.0
 10
74.19960528743968
 20
-138.5813774610144
 30
0.0
 10
74.19960528743968
 20
-138.5813774610144
 30
0.0
 10
74.27367484037255
 20
-138.5793104037232
 30
0.0
 10
74.50845809769233
 20
-138.5689751172675
 30
0.0
 10
74.50845809769233
 20
-138.2854437588314
 30
0.0
 10
74.50845809769233
 20
-138.14798444897
 30
0.0
 10
74.43869491411603
 20
-137.9953667189734
 30
0.0
 10
74.2101128286697
 20
-137.9953667189734
 30
0.0
 10
74.09384085604252
 20
-137.9953667189734
 30
0.0
 10
74.04509275492623
 20
-138.0336072788596
 30
0.0
 10
74.01339787646194
 20
-138.065302157324
 30
0.0
 10
73.93932832352905
 20
-138.1393717102568
 30
0.0
 10
73.9267537250079
 20
-138.2558159376583
 30
0.0
 10
73.9267537250079
 20
-138.3105929558737
 30
0.0
 10
73.9267537250079
 20
-138.3298854905912
 30
0.0
 10
73.92882078229904
 20
-138.3657144836377
 30
0.0
 10
73.93295489688134
 20
-138.3932752475197
 30
0.0
 10
73.93295489688134
 20
-138.3932752475197
 30
0.0
 10
73.73830700196473
 20
-138.3932752475197
 30
0.0
 10
73.73830700196473
 20
-138.3932752475197
 30
0.0
 10
73.74468042861244
 20
-138.3550346876335
 30
0.0
 10
73.74691974067785
 20
-138.3130045227134
 30
0.0
 10
73.74691974067785
 20
-138.3064588412915
 30
0.0
 10
73.74691974067785
 20
-138.2410020270717
 30
0.0
 10
73.72573240344357
 20
-138.0422200175728
 30
0.0
 10
73.48870983405838
 20
-138.0422200175728
 30
0.0
 10
73.31111516179375
 20
-138.0422200175728
 30
0.0
 10
73.25599363402975
 20
-138.1731336460123
 30
0.0
 10
73.25599363402975
 20
-138.2833767015403
 30
0.0
 10
73.25599363402975
 20
-138.5476155252589
 30
0.0
 10
73.48870983405838
 20
-138.5562282639721
 30
0.0
 10
73.56071232970011
 20
-138.5603623785544
 30
0.0
 10
73.56071232970011
 20
-138.5603623785544
 30
0.0
 10
73.56071232970011
 20
-138.7636230121841
 30
0.0
 10
73.56071232970011
 20
-138.7636230121841
 30
0.0
 10
73.4358276183598
 20
-138.755010273471
 30
0.0
 10
73.059278681822
 20
-138.727449509589
 30
0.0
 10
73.059278681822
 20
-138.2706298482449
 30
0.0
 10
73.059278681822
 20
-138.0463541321551
 30
0.0
 10
73.18623045045345
 20
-137.8051974481876
 30
0.0
 10
73.48233640741067
 20
-137.8051974481876
 30
0.0
 10
73.66854381838843
 20
-137.8051974481876
 30
0.0
 10
73.75105385526015
 20
-137.9002820835805
 30
0.0
 10
73.8123765548976
 20
-137.9998453431042
 30
0.0
 10
73.8399373187796
 20
-137.9385226434668
 30
0.0
 10
73.92038029836019
 20
-137.7566216018456
 30
0.0
 10
74.19753823014854
 20
-137.7566216018456
 30
0.0
 10
74.53601886157433
 20
-137.7566216018456
 30
0.0
 10
74.70310599260895
 20
-138.0039794576865
 30
0.0
 10
74.70310599260895
 20
-138.2809651347006
 30
0.0
  0
HATCH
  5
CE
330
C9
100
AcDbEntity
  8
_U+30EC_U+30A4_U+30E4_U+30FC 1
 62
   179
420
  2234388
100
AcDbHatch
 10
0.0
 20
0.0
 30
0.0
210
0.0
220
0.0
230
1.0
  2
SOLID
 70
     1
 71
     0
 91
        1
 92
        1
 93
        1
 72
     4
 94
        3
 73
     0
 74
     1
 95
       62
 96
       58
 40
0.0
 40
0.0
 40
0.0
 40
0.0
 40
1.0
 40
1.0
 40
1.0
 40
2.0
 40
2.0
 40
2.0
 40
3.0
 40
3.0
 40
3.0
 40
4.0
 40
4.0
 40
4.0
 40
5.0
 40
5.0
 40
5.0
 40
6.0
 40
6.0
 40
6.0
 40
7.0
 40
7.0
 40
7.0
 40
8.0
 40
8.0
 40
8.0
 40
9.0
 40
9.0
 40
9.0
 40
10.0
 40
10.0
 40
10.0
 40
11.0
 40
11.0
 40
11.0
 40
12.0
 40
12.0
 40
12.0
 40
13.0
 40
13.0
 40
13.0
 40
14.0
 40
14.0
 40
14.0
 40
15.0
 40
15.0
 40
15.0
 40
16.0
 40
16.0
 40
16.0
 40
17.0
 40
17.0
 40
17.0
 40
18.0
 40
18.0
 40
18.0
 40
19.0
 40
19.0
 40
19.0
 40
19.0
 10
74.70310599260895
 20
-138.2809651347006
 10
74.70310599260895
 20
-138.376394279642
 10
74.68191865537466
 20
-138.5941243143098
 10
74.49571124439692
 20
-138.7191812804244
 10
74.38357338635203
 20
-138.7932508333573
 10
74.28418238160256
 20
-138.7973849479395
 10
74.19960528743968
 20
-138.8015190625219
 10
74.19960528743968
 20
-138.8015190625219
 10
74.19960528743968
 20
-138.5813774610144
 10
74.19960528743968
 20
-138.5813774610144
 10
74.27367484037255
 20
-138.5793104037232
 10
74.50845809769233
 20
-138.5689751172675
 10
74.50845809769233
 20
-138.2854437588314
 10
74.50845809769233
 20
-138.14798444897
 10
74.43869491411603
 20
-137.9953667189734
 10
74.2101128286697
 20
-137.9953667189734
 10
74.09384085604252
 20
-137.9953667189734
 10
74.04509275492623
 20
-138.0336072788596
 10
74.01339787646194
 20
-138.065302157324
 10
73.93932832352905
 20
-138.1393717102568
 10
73.9267537250079
 20
-138.2558159376583
 10
73.9267537250079
 20
-138.3105929558737
 10
73.9267537250079
 20
-138.3298854905912
 10
73.92882078229904
 20
-138.3657144836377
 10
73.93295489688134
 20
-138.3932752475197
 10
73.93295489688134
 20
-138.3932752475197
 10
73.73830700196473
 20
-138.3932752475197
 10
73.73830700196473
 20
-138.3932752475197
 10
73.74468042861244
 20
-138.3550346876335
 10
73.74691974067785
 20
-138.3130045227134
 10
73.74691974067785
 20
-138.3064588412915
 10
73.74691974067785
 20
-138.2410020270717
 10
73.72573240344357
 20
-138.0422200175728
 10
73.48870983405838
 20
-138.0422200175728
 10
73.31111516179375
 20
-138.0422200175728
 10
73.25599363402975
 20
-138.1731336460123
 10
73.25599363402975
 20
-138.2833767015403
 10
73.25599363402975
 20
-138.5476155252589
 10
73.48870983405838
 20
-138.5562282639721
 10
73.56071232970011
 20
-138.5603623785544
 10
73.56071232970011
 20
-138.5603623785544
 10
73.56071232970011
 20
-138.7636230121841
 10
73.56071232970011
 20
-138.7636230121841
 10
73.4358276183598
 20
-138.755010273471
 10
73.059278681822
 20
-138.727449509589
 10
73.059278681822
 20
-138.2706298482449
 10
73.059278681822
 20
-138.0463541321551
 10
73.18623045045345
 20
-137.8051974481876
 10
73.48233640741067
 20
-137.8051974481876
 10
73.66854381838843
 20
-137.8051974481876
 10
73.75105385526015
 20
-137.9002820835805
 10
73.8123765548976
 20
-137.9998453431042
 10
73.8399373187796
 20
-137.9385226434668
 10
73.92038029836019
 20
-137.7566216018456
 10
74.19753823014854
 20
-137.7566216018456
 10
74.53601886157433
 20
-137.7566216018456
 10
74.70310599260895
 20
-138.0039794576865
 10
74.70310599260895
 20
-138.2809651347006
 97
        0
 97
        0
 75
     2
 76
     1
 98
        0
  0
SPLINE
  5
CF
330
C9
100
AcDbEntity
  8
_U+30EC_U+30A4_U+30E4_U+30FC 1
370
     0
100
AcDbSpline
210
0.0
220
0.0
230
1.0
 70
    11
 71
     3
 72
    62
 73
    58
 74
     0
 42
0.0000000001
 43
0.0000000001
 12
1.0
 22
0.0
 32
0.0
 13
1.0
 23
0.0
 33
0.0
 40
0.0
 40
0.0
 40
0.0
 40
0.0
 40
1.0
 40
1.0
 40
1.0
 40
2.0
 40
2.0
 40
2.0
 40
3.0
 40
3.0
 40
3.0
 40
4.0
 40
4.0
 40
4.0
 40
5.0
 40
5.0
 40
5.0
 40
6.0
 40
6.0
 40
6.0
 40
7.0
 40
7.0
 40
7.0
 40
8.0
 40
8.0
 40
8.0
 40
9.0
 40
9.0
 40
9.0
 40
10.0
 40
10.0
 40
10.0
 40
11.0
 40
11.0
 40
11.0
 40
12.0
 40
12.0
 40
12.0
 40
13.0
 40
13.0
 40
13.0
 40
14.0
 40
14.0
 40
14.0
 40
15.0
 40
15.0
 40
15.0
 40
16.0
 40
16.0
 40
16.0
 40
17.0
 40
17.0
 40
17.0
 40
18.0
 40
18.0
 40
18.0
 40
19.0
 40
19.0
 40
19.0
 40
19.0
 10
74.70310599260895
 20
-137.1041205169392
 30
0.0
 10
74.70310599260895
 20
-137.1995496618807
 30
0.0
 10
74.68191865537466
 20
-137.4172796965485
 30
0.0
 10
74.49571124439692
 20
-137.542336662663
 30
0.0
 10
74.38357338635203
 20
-137.6164062155959
 30
0.0
 10
74.28418238160256
 20
-137.6205403301782
 30
0.0
 10
74.19960528743968
 20
-137.6246744447605
 30
0.0
 10
74.19960528743968
 20
-137.6246744447605
 30
0.0
 10
74.19960528743968
 20
-137.404532843253
 30
0.0
 10
74.19960528743968
 20
-137.404532843253
 30
0.0
 10
74.27367484037255
 20
-137.4024657859619
 30
0.0
 10
74.50845809769233
 20
-137.3921304995062
 30
0.0
 10
74.50845809769233
 20
-137.1085991410701
 30
0.0
 10
74.50845809769233
 20
-136.9711398312086
 30
0.0
 10
74.43869491411603
 20
-136.818522101212
 30
0.0
 10
74.2101128286697
 20
-136.818522101212
 30
0.0
 10
74.09384085604252
 20
-136.818522101212
 30
0.0
 10
74.04509275492623
 20
-136.8567626610983
 30
0.0
 10
74.01339787646194
 20
-136.8884575395626
 30
0.0
 10
73.93932832352905
 20
-136.9625270924955
 30
0.0
 10
73.9267537250079
 20
-137.0789713198969
 30
0.0
 10
73.9267537250079
 20
-137.1337483381124
 30
0.0
 10
73.9267537250079
 20
-137.1530408728298
 30
0.0
 10
73.92882078229904
 20
-137.1888698658764
 30
0.0
 10
73.93295489688134
 20
-137.2164306297584
 30
0.0
 10
73.93295489688134
 20
-137.2164306297584
 30
0.0
 10
73.73830700196473
 20
-137.2164306297584
 30
0.0
 10
73.73830700196473
 20
-137.2164306297584
 30
0.0
 10
73.74468042861244
 20
-137.1781900698721
 30
0.0
 10
73.74691974067785
 20
-137.1361599049521
 30
0.0
 10
73.74691974067785
 20
-137.1296142235301
 30
0.0
 10
73.74691974067785
 20
-137.0641574093104
 30
0.0
 10
73.72573240344357
 20
-136.8653753998114
 30
0.0
 10
73.48870983405838
 20
-136.8653753998114
 30
0.0
 10
73.31111516179375
 20
-136.8653753998114
 30
0.0
 10
73.25599363402975
 20
-136.9962890282509
 30
0.0
 10
73.25599363402975
 20
-137.1065320837789
 30
0.0
 10
73.25599363402975
 20
-137.3707709074976
 30
0.0
 10
73.48870983405838
 20
-137.3793836462107
 30
0.0
 10
73.56071232970011
 20
-137.383517760793
 30
0.0
 10
73.56071232970011
 20
-137.383517760793
 30
0.0
 10
73.56071232970011
 20
-137.5867783944228
 30
0.0
 10
73.56071232970011
 20
-137.5867783944228
 30
0.0
 10
73.4358276183598
 20
-137.5781656557096
 30
0.0
 10
73.059278681822
 20
-137.5506048918276
 30
0.0
 10
73.059278681822
 20
-137.0937852304835
 30
0.0
 10
73.059278681822
 20
-136.8695095143937
 30
0.0
 10
73.18623045045345
 20
-136.6283528304263
 30
0.0
 10
73.48233640741067
 20
-136.6283528304263
 30
0.0
 10
73.66854381838843
 20
-136.6283528304263
 30
0.0
 10
73.75105385526015
 20
-136.7234374658192
 30
0.0
 10
73.8123765548976
 20
-136.8230007253429
 30
0.0
 10
73.8399373187796
 20
-136.7616780257054
 30
0.0
 10
73.92038029836019
 20
-136.5797769840842
 30
0.0
 10
74.19753823014854
 20
-136.5797769840842
 30
0.0
 10
74.53601886157433
 20
-136.5797769840842
 30
0.0
 10
74.70310599260895
 20
-136.8271348399252
 30
0.0
 10
74.70310599260895
 20
-137.1041205169392
 30
0.0
  0
HATCH
  5
D0
330
C9
100
AcDbEntity
  8
_U+30EC_U+30A4_U+30E4_U+30FC 1
 62
   179
420
  2234388
100
AcDbHatch
 10
0.0
 20
0.0
 30
0.0
210
0.0
220
0.0
230
1.0
  2
SOLID
 70
     1
 71
     0
 91
        1
 92
        1
 93
        1
 72
     4
 94
        3
 73
     0
 74
     1
 95
       62
 96
       58
 40
0.0
 40
0.0
 40
0.0
 40
0.0
 40
1.0
 40
1.0
 40
1.0
 40
2.0
 40
2.0
 40
2.0
 40
3.0
 40
3.0
 40
3.0
 40
4.0
 40
4.0
 40
4.0
 40
5.0
 40
5.0
 40
5.0
 40
6.0
 40
6.0
 40
6.0
 40
7.0
 40
7.0
 40
7.0
 40
8.0
 40
8.0
 40
8.0
 40
9.0
 40
9.0
 40
9.0
 40
10.0
 40
10.0
 40
10.0
 40
11.0
 40
11.0
 40
11.0
 40
12.0
 40
12.0
 40
12.0
 40
13.0
 40
13.0
 40
13.0
 40
14.0
 40
14.0
 40
14.0
 40
15.0
 40
15.0
 40
15.0
 40
16.0
 40
16.0
 40
16.0
 40
17.0
 40
17.0
 40
17.0
 40
18.0
 40
18.0
 40
18.0
 40
19.0
 40
19.0
 40
19.0
 40
19.0
 10
74.70310599260895
 20
-137.1041205169392
 10
74.70310599260895
 20
-137.1995496618807
 10
74.68191865537466
 20
-137.4172796965485
 10
74.49571124439692
 20
-137.542336662663
 10
74.38357338635203
 20
-137.6164062155959
 10
74.28418238160256
 20
-137.6205403301782
 10
74.19960528743968
 20
-137.6246744447605
 10
74.19960528743968
 20
-137.6246744447605
 10
74.19960528743968
 20
-137.404532843253
 10
74.19960528743968
 20
-137.404532843253
 10
74.27367484037255
 20
-137.4024657859619
 10
74.50845809769233
 20
-137.3921304995062
 10
74.50845809769233
 20
-137.1085991410701
 10
74.50845809769233
 20
-136.9711398312086
 10
74.43869491411603
 20
-136.818522101212
 10
74.2101128286697
 20
-136.818522101212
 10
74.09384085604252
 20
-136.818522101212
 10
74.04509275492623
 20
-136.8567626610983
 10
74.01339787646194
 20
-136.8884575395626
 10
73.93932832352905
 20
-136.9625270924955
 10
73.9267537250079
 20
-137.0789713198969
 10
73.9267537250079
 20
-137.1337483381124
 10
73.9267537250079
 20
-137.1530408728298
 10
73.92882078229904
 20
-137.1888698658764
 10
73.93295489688134
 20
-137.2164306297584
 10
73.93295489688134
 20
-137.2164306297584
 10
73.73830700196473
 20
-137.2164306297584
 10
73.73830700196473
 20
-137.2164306297584
 10
73.74468042861244
 20
-137.1781900698721
 10
73.74691974067785
 20
-137.1361599049521
 10
73.74691974067785
 20
-137.1296142235301
 10
73.74691974067785
 20
-137.0641574093104
 10
73.72573240344357
 20
-136.8653753998114
 10
73.48870983405838
 20
-136.8653753998114
 10
73.31111516179375
 20
-136.8653753998114
 10
73.25599363402975
 20
-136.9962890282509
 10
73.25599363402975
 20
-137.1065320837789
 10
73.25599363402975
 20
-137.3707709074976
 10
73.48870983405838
 20
-137.3793836462107
 10
73.56071232970011
 20
-137.383517760793
 10
73.56071232970011
 20
-137.383517760793
 10
73.56071232970011
 20
-137.5867783944228
 10
73.56071232970011
 20
-137.5867783944228
 10
73.4358276183598
 20
-137.5781656557096
 10
73.059278681822
 20
-137.5506048918276
 10
73.059278681822
 20
-137.0937852304835
 10
73.059278681822
 20
-136.8695095143937
 10
73.18623045045345
 20
-136.6283528304263
 10
73.48233640741067
 20
-136.6283528304263
 10
73.66854381838843
 20
-136.6283528304263
 10
73.75105385526015
 20
-136.7234374658192
 10
73.8123765548976
 20
-136.8230007253429
 10
73.8399373187796
 20
-136.7616780257054
 10
73.92038029836019
 20
-136.5797769840842
 10
74.19753823014854
 20
-136.5797769840842
 10
74.53601886157433
 20
-136.5797769840842
 10
74.70310599260895
 20
-136.8271348399252
 10
74.70310599260895
 20
-137.1041205169392
 97
        0
 97
        0
 75
     2
 76
     1
 98
        0
  0
POLYLINE
  5
D1
330
C9
100
AcDbEntity
  8
_U+30EC_U+30A4_U+30E4_U+30FC 1
370
     0
100
AcDb2dPolyline
 66
     1
 10
0.0
 20
0.0
 30
0.0
  0
VERTEX
  5
D2
330
D1
100
AcDbEntity
  8
_U+30EC_U+30A4_U+30E4_U+30FC 1
370
     0
100
AcDbVertex
100
AcDb2dVertex
 10
74.65229083420151
 20
-136.3589463634797
 30
0.0
  0
VERTEX
  5
D3
330
D1
100
AcDbEntity
  8
_U+30EC_U+30A4_U+30E4_U+30FC 1
370
     0
100
AcDbVertex
100
AcDb2dVertex
 10
74.40062660900401
 20
-136.3589463634797
 30
0.0
  0
VERTEX
  5
D4
330
D1
100
AcDbEntity
  8
_U+30EC_U+30A4_U+30E4_U+30FC 1
370
     0
100
AcDbVertex
100
AcDb2dVertex
 10
74.40062660900401
 20
-136.1071098835079
 30
0.0
  0
VERTEX
  5
D5
330
D1
100
AcDbEntity
  8
_U+30EC_U+30A4_U+30E4_U+30FC 1
370
     0
100
AcDbVertex
100
AcDb2dVertex
 10
74.65229083420151
 20
-136.1071098835079
 30
0.0
  0
VERTEX
  5
D6
330
D1
100
AcDbEntity
  8
_U+30EC_U+30A4_U+30E4_U+30FC 1
370
     0
100
AcDbVertex
100
AcDb2dVertex
 10
74.65229083420151
 20
-136.3589463634797
 30
0.0
  0
SEQEND
  5
D7
330
D1
100
AcDbEntity
  8
_U+30EC_U+30A4_U+30E4_U+30FC 1
370
     0
  0
HATCH
  5
D8
330
C9
100
AcDbEntity
  8
_U+30EC_U+30A4_U+30E4_U+30FC 1
 62
   179
420
  2234388
100
AcDbHatch
 10
0.0
 20
0.0
 30
0.0
210
0.0
220
0.0
230
1.0
  2
SOLID
 70
     1
 71
     0
 91
        1
 92
        1
 93
        4
 72
     1
 10
74.65229083420151
 20
-136.3589463634797
 11
74.40062660900401
 21
-136.3589463634797
 72
     1
 10
74.40062660900401
 20
-136.3589463634797
 11
74.40062660900401
 21
-136.1071098835079
 72
     1
 10
74.40062660900401
 20
-136.1071098835079
 11
74.65229083420151
 21
-136.1071098835079
 72
     1
 10
74.65229083420151
 20
-136.1071098835079
 11
74.65229083420151
 21
-136.3589463634797
 97
        0
 75
     2
 76
     1
 98
        0
  0
SPLINE
  5
D9
330
C9
100
AcDbEntity
  8
_U+30EC_U+30A4_U+30E4_U+30FC 1
370
     0
100
AcDbSpline
210
0.0
220
0.0
230
1.0
 70
    11
 71
     3
 72
    44
 73
    40
 74
     0
 42
0.0000000001
 43
0.0000000001
 12
1.0
 22
0.0
 32
0.0
 13
1.0
 23
0.0
 33
0.0
 40
0.0
 40
0.0
 40
0.0
 40
0.0
 40
1.0
 40
1.0
 40
1.0
 40
2.0
 40
2.0
 40
2.0
 40
3.0
 40
3.0
 40
3.0
 40
4.0
 40
4.0
 40
4.0
 40
5.0
 40
5.0
 40
5.0
 40
6.0
 40
6.0
 40
6.0
 40
7.0
 40
7.0
 40
7.0
 40
8.0
 40
8.0
 40
8.0
 40
9.0
 40
9.0
 40
9.0
 40
10.0
 40
10.0
 40
10.0
 40
11.0
 40
11.0
 40
11.0
 40
12.0
 40
12.0
 40
12.0
 40
13.0
 40
13.0
 40
13.0
 40
13.0
 10
74.07058646151708
 20
-135.2778754002083
 30
0.0
 10
74.22923310861283
 20
-135.4956054348761
 30
0.0
 10
74.3033026615457
 20
-135.5886230129778
 30
0.0
 10
74.44713539805488
 20
-135.6375433688684
 30
0.0
 10
74.44713539805488
 20
-135.6375433688684
 30
0.0
 10
74.44713539805488
 20
-134.8589517892019
 30
0.0
 10
74.44713539805488
 20
-134.8589517892019
 30
0.0
 10
74.44713539805488
 20
-134.8589517892019
 30
0.0
 10
74.65229083420151
 20
-134.8589517892019
 30
0.0
 10
74.65229083420151
 20
-134.8589517892019
 30
0.0
 10
74.65229083420151
 20
-134.8589517892019
 30
0.0
 10
74.65229083420151
 20
-135.8869682820005
 30
0.0
 10
74.65229083420151
 20
-135.8869682820005
 30
0.0
 10
74.29468992283257
 20
-135.8552734035362
 30
0.0
 10
74.2164862553174
 20
-135.7898165893164
 30
0.0
 10
73.91814098629477
 20
-135.4046549140655
 30
0.0
 10
73.71935897679586
 20
-135.1486843195115
 30
0.0
 10
73.6516628505107
 20
-135.0832275052917
 30
0.0
 10
73.51420354064923
 20
-135.0832275052917
 30
0.0
 10
73.39569225595663
 20
-135.0832275052917
 30
0.0
 10
73.26460637274288
 20
-135.1552300009334
 30
0.0
 10
73.26460637274288
 20
-135.3519449531412
 30
0.0
 10
73.26460637274288
 20
-135.6120496622775
 30
0.0
 10
73.4950832607061
 20
-135.6203178914421
 30
0.0
 10
73.61152748810754
 20
-135.624796515573
 30
0.0
 10
73.61152748810754
 20
-135.624796515573
 30
0.0
 10
73.61152748810754
 20
-135.8490722316627
 30
0.0
 10
73.61152748810754
 20
-135.8490722316627
 30
0.0
 10
73.48457571947608
 20
-135.8404594929496
 30
0.0
 10
73.3724378614312
 20
-135.8297796969453
 30
0.0
 10
73.2539265767386
 20
-135.749508972139
 30
0.0
 10
73.0932128723517
 20
-135.6396104261595
 30
0.0
 10
73.059278681822
 20
-135.4532307604075
 30
0.0
 10
73.059278681822
 20
-135.3371310425546
 30
0.0
 10
73.059278681822
 20
-135.059800855992
 30
0.0
 10
73.2434190355086
 20
-134.85240610778
 30
0.0
 10
73.51627059794038
 20
-134.85240610778
 30
0.0
 10
73.74468042861244
 20
-134.85240610778
 30
0.0
 10
73.84424368813616
 20
-134.9688503351814
 30
0.0
 10
74.07058646151708
 20
-135.2778754002083
 30
0.0
  0
HATCH
  5
DA
330
C9
100
AcDbEntity
  8
_U+30EC_U+30A4_U+30E4_U+30FC 1
 62
   179
420
  2234388
100
AcDbHatch
 10
0.0
 20
0.0
 30
0.0
210
0.0
220
0.0
230
1.0
  2
SOLID
 70
     1
 71
     0
 91
        1
 92
        1
 93
        1
 72
     4
 94
        3
 73
     0
 74
     1
 95
       44
 96
       40
 40
0.0
 40
0.0
 40
0.0
 40
0.0
 40
1.0
 40
1.0
 40
1.0
 40
2.0
 40
2.0
 40
2.0
 40
3.0
 40
3.0
 40
3.0
 40
4.0
 40
4.0
 40
4.0
 40
5.0
 40
5.0
 40
5.0
 40
6.0
 40
6.0
 40
6.0
 40
7.0
 40
7.0
 40
7.0
 40
8.0
 40
8.0
 40
8.0
 40
9.0
 40
9.0
 40
9.0
 40
10.0
 40
10.0
 40
10.0
 40
11.0
 40
11.0
 40
11.0
 40
12.0
 40
12.0
 40
12.0
 40
13.0
 40
13.0
 40
13.0
 40
13.0
 10
74.07058646151708
 20
-135.2778754002083
 10
74.22923310861283
 20
-135.4956054348761
 10
74.3033026615457
 20
-135.5886230129778
 10
74.44713539805488
 20
-135.6375433688684
 10
74.44713539805488
 20
-135.6375433688684
 10
74.44713539805488
 20
-134.8589517892019
 10
74.44713539805488
 20
-134.8589517892019
 10
74.44713539805488
 20
-134.8589517892019
 10
74.65229083420151
 20
-134.8589517892019
 10
74.65229083420151
 20
-134.8589517892019
 10
74.65229083420151
 20
-134.8589517892019
 10
74.65229083420151
 20
-135.8869682820005
 10
74.65229083420151
 20
-135.8869682820005
 10
74.29468992283257
 20
-135.8552734035362
 10
74.2164862553174
 20
-135.7898165893164
 10
73.91814098629477
 20
-135.4046549140655
 10
73.71935897679586
 20
-135.1486843195115
 10
73.6516628505107
 20
-135.0832275052917
 10
73.51420354064923
 20
-135.0832275052917
 10
73.39569225595663
 20
-135.0832275052917
 10
73.26460637274288
 20
-135.1552300009334
 10
73.26460637274288
 20
-135.3519449531412
 10
73.26460637274288
 20
-135.6120496622775
 10
73.4950832607061
 20
-135.6203178914421
 10
73.61152748810754
 20
-135.624796515573
 10
73.61152748810754
 20
-135.624796515573
 10
73.61152748810754
 20
-135.8490722316627
 10
73.61152748810754
 20
-135.8490722316627
 10
73.48457571947608
 20
-135.8404594929496
 10
73.3724378614312
 20
-135.8297796969453
 10
73.2539265767386
 20
-135.749508972139
 10
73.0932128723517
 20
-135.6396104261595
 10
73.059278681822
 20
-135.4532307604075
 10
73.059278681822
 20
-135.3371310425546
 10
73.059278681822
 20
-135.059800855992
 10
73.2434190355086
 20
-134.85240610778
 10
73.51627059794038
 20
-134.85240610778
 10
73.74468042861244
 20
-134.85240610778
 10
73.84424368813616
 20
-134.9688503351814
 10
74.07058646151708
 20
-135.2778754002083
 97
        0
 97
        0
 75
     2
 76
     1
 98
        0
  0
ENDBLK
  5
CC
330
C9
100
AcDbEntity
  8
0
100
AcDbBlockEnd
  0
BLOCK
  5
DD
330
DB
100
AcDbEntity
  8
0
100
AcDbBlockBegin
  2
block 4
 70
     0
 10
0.0
 20
0.0
 30
0.0
  3
block 4
  1

  0
SPLINE
  5
DF
330
DB
100
AcDbEntity
  8
_U+30EC_U+30A4_U+30E4_U+30FC 1
370
     0
100
AcDbSpline
210
0.0
220
0.0
230
1.0
 70
    11
 71
     3
 72
    62
 73
    58
 74
     0
 42
0.0000000001
 43
0.0000000001
 12
1.0
 22
0.0
 32
0.0
 13
1.0
 23
0.0
 33
0.0
 40
0.0
 40
0.0
 40
0.0
 40
0.0
 40
1.0
 40
1.0
 40
1.0
 40
2.0
 40
2.0
 40
2.0
 40
3.0
 40
3.0
 40
3.0
 40
4.0
 40
4.0
 40
4.0
 40
5.0
 40
5.0
 40
5.0
 40
6.0
 40
6.0
 40
6.0
 40
7.0
 40
7.0
 40
7.0
 40
8.0
 40
8.0
 40
8.0
 40
9.0
 40
9.0
 40
9.0
 40
10.0
 40
10.0
 40
10.0
 40
11.0
 40
11.0
 40
11.0
 40
12.0
 40
12.0
 40
12.0
 40
13.0
 40
13.0
 40
13.0
 40
14.0
 40
14.0
 40
14.0
 40
15.0
 40
15.0
 40
15.0
 40
16.0
 40
16.0
 40
16.0
 40
17.0
 40
17.0
 40
17.0
 40
18.0
 40
18.0
 40
18.0
 40
19.0
 40
19.0
 40
19.0
 40
19.0
 10
97.37665741923223
 20
-114.4071424410163
 30
0.0
 10
97.28122827429081
 20
-114.4071424410163
 30
0.0
 10
97.06349823962302
 20
-114.3861273585563
 30
0.0
 10
96.93844127350845
 20
-114.2000922023528
 30
0.0
 10
96.86437172057558
 20
-114.0877820895336
 30
0.0
 10
96.86023760599328
 20
-113.9885633395584
 30
0.0
 10
96.85610349141098
 20
-113.9038139906213
 30
0.0
 10
96.85610349141098
 20
-113.9038139906213
 30
0.0
 10
97.07624509291844
 20
-113.9038139906213
 30
0.0
 10
97.07624509291844
 20
-113.9038139906213
 30
0.0
 10
97.0783121502096
 20
-113.9778835435541
 30
0.0
 10
97.08864743666534
 20
-114.2124945460997
 30
0.0
 10
97.3721787951014
 20
-114.2124945460997
 30
0.0
 10
97.50963810496287
 20
-114.2124945460997
 30
0.0
 10
97.66225583495944
 20
-114.1429036172976
 30
0.0
 10
97.66225583495944
 20
-113.9144937866255
 30
0.0
 10
97.66225583495944
 20
-113.7980495592241
 30
0.0
 10
97.62401527507316
 20
-113.7494737128821
 30
0.0
 10
97.59232039660887
 20
-113.7177788344178
 30
0.0
 10
97.518250843676
 20
-113.6437092814849
 30
0.0
 10
97.40180661627456
 20
-113.6309624281895
 30
0.0
 10
97.34702959805908
 20
-113.6309624281895
 30
0.0
 10
97.32773706334169
 20
-113.6309624281895
 30
0.0
 10
97.29190807029508
 20
-113.6330294854806
 30
0.0
 10
97.26434730641309
 20
-113.6371636000629
 30
0.0
 10
97.26434730641309
 20
-113.6371636000629
 30
0.0
 10
97.26434730641309
 20
-113.4425157051463
 30
0.0
 10
97.26434730641309
 20
-113.4425157051463
 30
0.0
 10
97.30258786629936
 20
-113.4490613865683
 30
0.0
 10
97.34461803121941
 20
-113.4511284438594
 30
0.0
 10
97.35116371264138
 20
-113.4511284438594
 30
0.0
 10
97.41662052686112
 20
-113.4511284438594
 30
0.0
 10
97.61540253636004
 20
-113.4297688518509
 30
0.0
 10
97.61540253636004
 20
-113.1930907920142
 30
0.0
 10
97.61540253636004
 20
-113.0153238649753
 30
0.0
 10
97.48448890792055
 20
-112.9602023372113
 30
0.0
 10
97.37424585239255
 20
-112.9602023372113
 30
0.0
 10
97.11000702867389
 20
-112.9602023372113
 30
0.0
 10
97.10139428996077
 20
-113.1930907920142
 30
0.0
 10
97.09726017537847
 20
-113.2647487781074
 30
0.0
 10
97.09726017537847
 20
-113.2647487781074
 30
0.0
 10
96.89399954174873
 20
-113.2647487781074
 30
0.0
 10
96.89399954174873
 20
-113.2647487781074
 30
0.0
 10
96.90261228046185
 20
-113.1400363215414
 30
0.0
 10
96.93017304434385
 20
-112.7634873850036
 30
0.0
 10
97.38699270568797
 20
-112.7634873850036
 30
0.0
 10
97.61126842177774
 20
-112.7634873850036
 30
0.0
 10
97.85242510574523
 20
-112.8906114084093
 30
0.0
 10
97.85242510574523
 20
-113.1865451105923
 30
0.0
 10
97.85242510574523
 20
-113.3729247763443
 30
0.0
 10
97.75734047035233
 20
-113.4552625584417
 30
0.0
 10
97.65777721082861
 20
-113.5165852580792
 30
0.0
 10
97.71909991046606
 20
-113.5441460219612
 30
0.0
 10
97.90100095208726
 20
-113.6244167467675
 30
0.0
 10
97.90100095208726
 20
-113.9017469333301
 30
0.0
 10
97.90100095208726
 20
-114.2400553099817
 30
0.0
 10
97.65364309624631
 20
-114.4071424410163
 30
0.0
 10
97.37665741923223
 20
-114.4071424410163
 30
0.0
  0
HATCH
  5
E0
330
DB
100
AcDbEntity
  8
_U+30EC_U+30A4_U+30E4_U+30FC 1
 62
   179
420
  2234388
100
AcDbHatch
 10
0.0
 20
0.0
 30
0.0
210
0.0
220
0.0
230
1.0
  2
SOLID
 70
     1
 71
     0
 91
        1
 92
        1
 93
        1
 72
     4
 94
        3
 73
     0
 74
     1
 95
       62
 96
       58
 40
0.0
 40
0.0
 40
0.0
 40
0.0
 40
1.0
 40
1.0
 40
1.0
 40
2.0
 40
2.0
 40
2.0
 40
3.0
 40
3.0
 40
3.0
 40
4.0
 40
4.0
 40
4.0
 40
5.0
 40
5.0
 40
5.0
 40
6.0
 40
6.0
 40
6.0
 40
7.0
 40
7.0
 40
7.0
 40
8.0
 40
8.0
 40
8.0
 40
9.0
 40
9.0
 40
9.0
 40
10.0
 40
10.0
 40
10.0
 40
11.0
 40
11.0
 40
11.0
 40
12.0
 40
12.0
 40
12.0
 40
13.0
 40
13.0
 40
13.0
 40
14.0
 40
14.0
 40
14.0
 40
15.0
 40
15.0
 40
15.0
 40
16.0
 40
16.0
 40
16.0
 40
17.0
 40
17.0
 40
17.0
 40
18.0
 40
18.0
 40
18.0
 40
19.0
 40
19.0
 40
19.0
 40
19.0
 10
97.37665741923223
 20
-114.4071424410163
 10
97.28122827429081
 20
-114.4071424410163
 10
97.06349823962302
 20
-114.3861273585563
 10
96.93844127350845
 20
-114.2000922023528
 10
96.86437172057558
 20
-114.0877820895336
 10
96.86023760599328
 20
-113.9885633395584
 10
96.85610349141098
 20
-113.9038139906213
 10
96.85610349141098
 20
-113.9038139906213
 10
97.07624509291844
 20
-113.9038139906213
 10
97.07624509291844
 20
-113.9038139906213
 10
97.0783121502096
 20
-113.9778835435541
 10
97.08864743666534
 20
-114.2124945460997
 10
97.3721787951014
 20
-114.2124945460997
 10
97.50963810496287
 20
-114.2124945460997
 10
97.66225583495944
 20
-114.1429036172976
 10
97.66225583495944
 20
-113.9144937866255
 10
97.66225583495944
 20
-113.7980495592241
 10
97.62401527507316
 20
-113.7494737128821
 10
97.59232039660887
 20
-113.7177788344178
 10
97.518250843676
 20
-113.6437092814849
 10
97.40180661627456
 20
-113.6309624281895
 10
97.34702959805908
 20
-113.6309624281895
 10
97.32773706334169
 20
-113.6309624281895
 10
97.29190807029508
 20
-113.6330294854806
 10
97.26434730641309
 20
-113.6371636000629
 10
97.26434730641309
 20
-113.6371636000629
 10
97.26434730641309
 20
-113.4425157051463
 10
97.26434730641309
 20
-113.4425157051463
 10
97.30258786629936
 20
-113.4490613865683
 10
97.34461803121941
 20
-113.4511284438594
 10
97.35116371264138
 20
-113.4511284438594
 10
97.41662052686112
 20
-113.4511284438594
 10
97.61540253636004
 20
-113.4297688518509
 10
97.61540253636004
 20
-113.1930907920142
 10
97.61540253636004
 20
-113.0153238649753
 10
97.48448890792055
 20
-112.9602023372113
 10
97.37424585239255
 20
-112.9602023372113
 10
97.11000702867389
 20
-112.9602023372113
 10
97.10139428996077
 20
-113.1930907920142
 10
97.09726017537847
 20
-113.2647487781074
 10
97.09726017537847
 20
-113.2647487781074
 10
96.89399954174873
 20
-113.2647487781074
 10
96.89399954174873
 20
-113.2647487781074
 10
96.90261228046185
 20
-113.1400363215414
 10
96.93017304434385
 20
-112.7634873850036
 10
97.38699270568797
 20
-112.7634873850036
 10
97.61126842177774
 20
-112.7634873850036
 10
97.85242510574523
 20
-112.8906114084093
 10
97.85242510574523
 20
-113.1865451105923
 10
97.85242510574523
 20
-113.3729247763443
 10
97.75734047035233
 20
-113.4552625584417
 10
97.65777721082861
 20
-113.5165852580792
 10
97.71909991046606
 20
-113.5441460219612
 10
97.90100095208726
 20
-113.6244167467675
 10
97.90100095208726
 20
-113.9017469333301
 10
97.90100095208726
 20
-114.2400553099817
 10
97.65364309624631
 20
-114.4071424410163
 10
97.37665741923223
 20
-114.4071424410163
 97
        0
 97
        0
 75
     2
 76
     1
 98
        0
  0
SPLINE
  5
E1
330
DB
100
AcDbEntity
  8
_U+30EC_U+30A4_U+30E4_U+30FC 1
370
     0
100
AcDbSpline
210
0.0
220
0.0
230
1.0
 70
    11
 71
     3
 72
    62
 73
    58
 74
     0
 42
0.0000000001
 43
0.0000000001
 12
1.0
 22
0.0
 32
0.0
 13
1.0
 23
0.0
 33
0.0
 40
0.0
 40
0.0
 40
0.0
 40
0.0
 40
1.0
 40
1.0
 40
1.0
 40
2.0
 40
2.0
 40
2.0
 40
3.0
 40
3.0
 40
3.0
 40
4.0
 40
4.0
 40
4.0
 40
5.0
 40
5.0
 40
5.0
 40
6.0
 40
6.0
 40
6.0
 40
7.0
 40
7.0
 40
7.0
 40
8.0
 40
8.0
 40
8.0
 40
9.0
 40
9.0
 40
9.0
 40
10.0
 40
10.0
 40
10.0
 40
11.0
 40
11.0
 40
11.0
 40
12.0
 40
12.0
 40
12.0
 40
13.0
 40
13.0
 40
13.0
 40
14.0
 40
14.0
 40
14.0
 40
15.0
 40
15.0
 40
15.0
 40
16.0
 40
16.0
 40
16.0
 40
17.0
 40
17.0
 40
17.0
 40
18.0
 40
18.0
 40
18.0
 40
19.0
 40
19.0
 40
19.0
 40
19.0
 10
98.55350203699358
 20
-114.4071424410163
 30
0.0
 10
98.45807289205216
 20
-114.4071424410163
 30
0.0
 10
98.24034285738436
 20
-114.3861273585563
 30
0.0
 10
98.11528589126979
 20
-114.2000922023528
 30
0.0
 10
98.04121633833692
 20
-114.0877820895336
 30
0.0
 10
98.03708222375462
 20
-113.9885633395584
 30
0.0
 10
98.03294810917232
 20
-113.9038139906213
 30
0.0
 10
98.03294810917232
 20
-113.9038139906213
 30
0.0
 10
98.25308971067979
 20
-113.9038139906213
 30
0.0
 10
98.25308971067979
 20
-113.9038139906213
 30
0.0
 10
98.25515676797093
 20
-113.9778835435541
 30
0.0
 10
98.26549205442669
 20
-114.2124945460997
 30
0.0
 10
98.54902341286275
 20
-114.2124945460997
 30
0.0
 10
98.68648272272422
 20
-114.2124945460997
 30
0.0
 10
98.83910045272079
 20
-114.1429036172976
 30
0.0
 10
98.83910045272079
 20
-113.9144937866255
 30
0.0
 10
98.83910045272079
 20
-113.7980495592241
 30
0.0
 10
98.80085989283451
 20
-113.7494737128821
 30
0.0
 10
98.76916501437022
 20
-113.7177788344178
 30
0.0
 10
98.69509546143735
 20
-113.6437092814849
 30
0.0
 10
98.5786512340359
 20
-113.6309624281895
 30
0.0
 10
98.52387421582043
 20
-113.6309624281895
 30
0.0
 10
98.50458168110302
 20
-113.6309624281895
 30
0.0
 10
98.46875268805643
 20
-113.6330294854806
 30
0.0
 10
98.44119192417443
 20
-113.6371636000629
 30
0.0
 10
98.44119192417443
 20
-113.6371636000629
 30
0.0
 10
98.44119192417443
 20
-113.4425157051463
 30
0.0
 10
98.44119192417443
 20
-113.4425157051463
 30
0.0
 10
98.47943248406071
 20
-113.4490613865683
 30
0.0
 10
98.52146264898074
 20
-113.4511284438594
 30
0.0
 10
98.52800833040273
 20
-113.4511284438594
 30
0.0
 10
98.59346514462247
 20
-113.4511284438594
 30
0.0
 10
98.79224715412138
 20
-113.4297688518509
 30
0.0
 10
98.79224715412138
 20
-113.1930907920142
 30
0.0
 10
98.79224715412138
 20
-113.0153238649753
 30
0.0
 10
98.6613335256819
 20
-112.9602023372113
 30
0.0
 10
98.5510904701539
 20
-112.9602023372113
 30
0.0
 10
98.28685164643524
 20
-112.9602023372113
 30
0.0
 10
98.27823890772211
 20
-113.1930907920142
 30
0.0
 10
98.27410479313981
 20
-113.2647487781074
 30
0.0
 10
98.27410479313981
 20
-113.2647487781074
 30
0.0
 10
98.07084415951007
 20
-113.2647487781074
 30
0.0
 10
98.07084415951007
 20
-113.2647487781074
 30
0.0
 10
98.0794568982232
 20
-113.1400363215414
 30
0.0
 10
98.10701766210519
 20
-112.7634873850036
 30
0.0
 10
98.56383732344932
 20
-112.7634873850036
 30
0.0
 10
98.78811303953908
 20
-112.7634873850036
 30
0.0
 10
99.02926972350657
 20
-112.8906114084093
 30
0.0
 10
99.02926972350657
 20
-113.1865451105923
 30
0.0
 10
99.02926972350657
 20
-113.3729247763443
 30
0.0
 10
98.93418508811368
 20
-113.4552625584417
 30
0.0
 10
98.83462182858996
 20
-113.5165852580792
 30
0.0
 10
98.8959445282274
 20
-113.5441460219612
 30
0.0
 10
99.0778455698486
 20
-113.6244167467675
 30
0.0
 10
99.0778455698486
 20
-113.9017469333301
 30
0.0
 10
99.0778455698486
 20
-114.2400553099817
 30
0.0
 10
98.83048771400766
 20
-114.4071424410163
 30
0.0
 10
98.55350203699358
 20
-114.4071424410163
 30
0.0
  0
HATCH
  5
E2
330
DB
100
AcDbEntity
  8
_U+30EC_U+30A4_U+30E4_U+30FC 1
 62
   179
420
  2234388
100
AcDbHatch
 10
0.0
 20
0.0
 30
0.0
210
0.0
220
0.0
230
1.0
  2
SOLID
 70
     1
 71
     0
 91
        1
 92
        1
 93
        1
 72
     4
 94
        3
 73
     0
 74
     1
 95
       62
 96
       58
 40
0.0
 40
0.0
 40
0.0
 40
0.0
 40
1.0
 40
1.0
 40
1.0
 40
2.0
 40
2.0
 40
2.0
 40
3.0
 40
3.0
 40
3.0
 40
4.0
 40
4.0
 40
4.0
 40
5.0
 40
5.0
 40
5.0
 40
6.0
 40
6.0
 40
6.0
 40
7.0
 40
7.0
 40
7.0
 40
8.0
 40
8.0
 40
8.0
 40
9.0
 40
9.0
 40
9.0
 40
10.0
 40
10.0
 40
10.0
 40
11.0
 40
11.0
 40
11.0
 40
12.0
 40
12.0
 40
12.0
 40
13.0
 40
13.0
 40
13.0
 40
14.0
 40
14.0
 40
14.0
 40
15.0
 40
15.0
 40
15.0
 40
16.0
 40
16.0
 40
16.0
 40
17.0
 40
17.0
 40
17.0
 40
18.0
 40
18.0
 40
18.0
 40
19.0
 40
19.0
 40
19.0
 40
19.0
 10
98.55350203699358
 20
-114.4071424410163
 10
98.45807289205216
 20
-114.4071424410163
 10
98.24034285738436
 20
-114.3861273585563
 10
98.11528589126979
 20
-114.2000922023528
 10
98.04121633833692
 20
-114.0877820895336
 10
98.03708222375462
 20
-113.9885633395584
 10
98.03294810917232
 20
-113.9038139906213
 10
98.03294810917232
 20
-113.9038139906213
 10
98.25308971067979
 20
-113.9038139906213
 10
98.25308971067979
 20
-113.9038139906213
 10
98.25515676797093
 20
-113.9778835435541
 10
98.26549205442669
 20
-114.2124945460997
 10
98.54902341286275
 20
-114.2124945460997
 10
98.68648272272422
 20
-114.2124945460997
 10
98.83910045272079
 20
-114.1429036172976
 10
98.83910045272079
 20
-113.9144937866255
 10
98.83910045272079
 20
-113.7980495592241
 10
98.80085989283451
 20
-113.7494737128821
 10
98.76916501437022
 20
-113.7177788344178
 10
98.69509546143735
 20
-113.6437092814849
 10
98.5786512340359
 20
-113.6309624281895
 10
98.52387421582043
 20
-113.6309624281895
 10
98.50458168110302
 20
-113.6309624281895
 10
98.46875268805643
 20
-113.6330294854806
 10
98.44119192417443
 20
-113.6371636000629
 10
98.44119192417443
 20
-113.6371636000629
 10
98.44119192417443
 20
-113.4425157051463
 10
98.44119192417443
 20
-113.4425157051463
 10
98.47943248406071
 20
-113.4490613865683
 10
98.52146264898074
 20
-113.4511284438594
 10
98.52800833040273
 20
-113.4511284438594
 10
98.59346514462247
 20
-113.4511284438594
 10
98.79224715412138
 20
-113.4297688518509
 10
98.79224715412138
 20
-113.1930907920142
 10
98.79224715412138
 20
-113.0153238649753
 10
98.6613335256819
 20
-112.9602023372113
 10
98.5510904701539
 20
-112.9602023372113
 10
98.28685164643524
 20
-112.9602023372113
 10
98.27823890772211
 20
-113.1930907920142
 10
98.27410479313981
 20
-113.2647487781074
 10
98.27410479313981
 20
-113.2647487781074
 10
98.07084415951007
 20
-113.2647487781074
 10
98.07084415951007
 20
-113.2647487781074
 10
98.0794568982232
 20
-113.1400363215414
 10
98.10701766210519
 20
-112.7634873850036
 10
98.56383732344932
 20
-112.7634873850036
 10
98.78811303953908
 20
-112.7634873850036
 10
99.02926972350657
 20
-112.8906114084093
 10
99.02926972350657
 20
-113.1865451105923
 10
99.02926972350657
 20
-113.3729247763443
 10
98.93418508811368
 20
-113.4552625584417
 10
98.83462182858996
 20
-113.5165852580792
 10
98.8959445282274
 20
-113.5441460219612
 10
99.0778455698486
 20
-113.6244167467675
 10
99.0778455698486
 20
-113.9017469333301
 10
99.0778455698486
 20
-114.2400553099817
 10
98.83048771400766
 20
-114.4071424410163
 10
98.55350203699358
 20
-114.4071424410163
 97
        0
 97
        0
 75
     2
 76
     1
 98
        0
  0
POLYLINE
  5
E3
330
DB
100
AcDbEntity
  8
_U+30EC_U+30A4_U+30E4_U+30FC 1
370
     0
100
AcDb2dPolyline
 66
     1
 10
0.0
 20
0.0
 30
0.0
  0
VERTEX
  5
E4
330
E3
100
AcDbEntity
  8
_U+30EC_U+30A4_U+30E4_U+30FC 1
370
     0
100
AcDbVertex
100
AcDb2dVertex
 10
99.29867619045311
 20
-114.3564995373831
 30
0.0
  0
VERTEX
  5
E5
330
E3
100
AcDbEntity
  8
_U+30EC_U+30A4_U+30E4_U+30FC 1
370
     0
100
AcDbVertex
100
AcDb2dVertex
 10
99.29867619045311
 20
-114.1046630574113
 30
0.0
  0
VERTEX
  5
E6
330
E3
100
AcDbEntity
  8
_U+30EC_U+30A4_U+30E4_U+30FC 1
370
     0
100
AcDbVertex
100
AcDb2dVertex
 10
99.55051267042488
 20
-114.1046630574113
 30
0.0
  0
VERTEX
  5
E7
330
E3
100
AcDbEntity
  8
_U+30EC_U+30A4_U+30E4_U+30FC 1
370
     0
100
AcDbVertex
100
AcDb2dVertex
 10
99.55051267042488
 20
-114.3564995373831
 30
0.0
  0
VERTEX
  5
E8
330
E3
100
AcDbEntity
  8
_U+30EC_U+30A4_U+30E4_U+30FC 1
370
     0
100
AcDbVertex
100
AcDb2dVertex
 10
99.29867619045311
 20
-114.3564995373831
 30
0.0
  0
SEQEND
  5
E9
330
E3
100
AcDbEntity
  8
_U+30EC_U+30A4_U+30E4_U+30FC 1
370
     0
  0
HATCH
  5
EA
330
DB
100
AcDbEntity
  8
_U+30EC_U+30A4_U+30E4_U+30FC 1
 62
   179
420
  2234388
100
AcDbHatch
 10
0.0
 20
0.0
 30
0.0
210
0.0
220
0.0
230
1.0
  2
SOLID
 70
     1
 71
     0
 91
        1
 92
        1
 93
        4
 72
     1
 10
99.29867619045311
 20
-114.3564995373831
 11
99.29867619045311
 21
-114.1046630574113
 72
     1
 10
99.29867619045311
 20
-114.1046630574113
 11
99.55051267042488
 21
-114.1046630574113
 72
     1
 10
99.55051267042488
 20
-114.1046630574113
 11
99.55051267042488
 21
-114.3564995373831
 72
     1
 10
99.55051267042488
 20
-114.3564995373831
 11
99.29867619045311
 21
-114.3564995373831
 97
        0
 75
     2
 76
     1
 98
        0
  0
SPLINE
  5
EB
330
DB
100
AcDbEntity
  8
_U+30EC_U+30A4_U+30E4_U+30FC 1
370
     0
100
AcDbSpline
210
0.0
220
0.0
230
1.0
 70
    11
 71
     3
 72
    44
 73
    40
 74
     0
 42
0.0000000001
 43
0.0000000001
 12
1.0
 22
0.0
 32
0.0
 13
1.0
 23
0.0
 33
0.0
 40
0.0
 40
0.0
 40
0.0
 40
0.0
 40
1.0
 40
1.0
 40
1.0
 40
2.0
 40
2.0
 40
2.0
 40
3.0
 40
3.0
 40
3.0
 40
4.0
 40
4.0
 40
4.0
 40
5.0
 40
5.0
 40
5.0
 40
6.0
 40
6.0
 40
6.0
 40
7.0
 40
7.0
 40
7.0
 40
8.0
 40
8.0
 40
8.0
 40
9.0
 40
9.0
 40
9.0
 40
10.0
 40
10.0
 40
10.0
 40
11.0
 40
11.0
 40
11.0
 40
12.0
 40
12.0
 40
12.0
 40
13.0
 40
13.0
 40
13.0
 40
13.0
 10
100.3797471537245
 20
-113.7746229099244
 30
0.0
 10
100.1620171190567
 20
-113.9334418117944
 30
0.0
 10
100.068999540955
 20
-114.0075113647273
 30
0.0
 10
100.0200791850644
 20
-114.1511718464622
 30
0.0
 10
100.0200791850644
 20
-114.1511718464622
 30
0.0
 10
100.7986707647309
 20
-114.1511718464622
 30
0.0
 10
100.7986707647309
 20
-114.1511718464622
 30
0.0
 10
100.7986707647309
 20
-114.1511718464622
 30
0.0
 10
100.7986707647309
 20
-114.3564995373831
 30
0.0
 10
100.7986707647309
 20
-114.3564995373831
 30
0.0
 10
100.7986707647309
 20
-114.3564995373831
 30
0.0
 10
99.77065427193234
 20
-114.3564995373831
 30
0.0
 10
99.77065427193234
 20
-114.3564995373831
 30
0.0
 10
99.80234915039664
 20
-113.9988986260142
 30
0.0
 10
99.86780596461638
 20
-113.920694958499
 30
0.0
 10
100.2529676398673
 20
-113.6223496894764
 30
0.0
 10
100.5089382344214
 20
-113.4235676799775
 30
0.0
 10
100.5743950486411
 20
-113.355699298918
 30
0.0
 10
100.5743950486411
 20
-113.2182399890566
 30
0.0
 10
100.5743950486411
 20
-113.099728704364
 30
0.0
 10
100.5023925529994
 20
-112.9688150759245
 30
0.0
 10
100.3056776007916
 20
-112.9688150759245
 30
0.0
 10
100.0455728916553
 20
-112.9688150759245
 30
0.0
 10
100.0373046624907
 20
-113.1992919638877
 30
0.0
 10
100.0328260383599
 20
-113.3157361912891
 30
0.0
 10
100.0328260383599
 20
-113.3157361912891
 30
0.0
 10
99.8085503222701
 20
-113.3157361912891
 30
0.0
 10
99.8085503222701
 20
-113.3157361912891
 30
0.0
 10
99.81716306098322
 20
-113.1886121678834
 30
0.0
 10
99.82784285698749
 20
-113.0766465646128
 30
0.0
 10
99.90811358179381
 20
-112.9581352799202
 30
0.0
 10
100.0180121277733
 20
-112.797249320759
 30
0.0
 10
100.2043917935253
 20
-112.7634873850036
 30
0.0
 10
100.3204915113782
 20
-112.7634873850036
 30
0.0
 10
100.5978216979408
 20
-112.7634873850036
 30
0.0
 10
100.8052164461529
 20
-112.9474554839159
 30
0.0
 10
100.8052164461529
 20
-113.2203070463477
 30
0.0
 10
100.8052164461529
 20
-113.4490613865683
 30
0.0
 10
100.6887722187514
 20
-113.5482801365435
 30
0.0
 10
100.3797471537245
 20
-113.7746229099244
 30
0.0
  0
HATCH
  5
EC
330
DB
100
AcDbEntity
  8
_U+30EC_U+30A4_U+30E4_U+30FC 1
 62
   179
420
  2234388
100
AcDbHatch
 10
0.0
 20
0.0
 30
0.0
210
0.0
220
0.0
230
1.0
  2
SOLID
 70
     1
 71
     0
 91
        1
 92
        1
 93
        1
 72
     4
 94
        3
 73
     0
 74
     1
 95
       44
 96
       40
 40
0.0
 40
0.0
 40
0.0
 40
0.0
 40
1.0
 40
1.0
 40
1.0
 40
2.0
 40
2.0
 40
2.0
 40
3.0
 40
3.0
 40
3.0
 40
4.0
 40
4.0
 40
4.0
 40
5.0
 40
5.0
 40
5.0
 40
6.0
 40
6.0
 40
6.0
 40
7.0
 40
7.0
 40
7.0
 40
8.0
 40
8.0
 40
8.0
 40
9.0
 40
9.0
 40
9.0
 40
10.0
 40
10.0
 40
10.0
 40
11.0
 40
11.0
 40
11.0
 40
12.0
 40
12.0
 40
12.0
 40
13.0
 40
13.0
 40
13.0
 40
13.0
 10
100.3797471537245
 20
-113.7746229099244
 10
100.1620171190567
 20
-113.9334418117944
 10
100.068999540955
 20
-114.0075113647273
 10
100.0200791850644
 20
-114.1511718464622
 10
100.0200791850644
 20
-114.1511718464622
 10
100.7986707647309
 20
-114.1511718464622
 10
100.7986707647309
 20
-114.1511718464622
 10
100.7986707647309
 20
-114.1511718464622
 10
100.7986707647309
 20
-114.3564995373831
 10
100.7986707647309
 20
-114.3564995373831
 10
100.7986707647309
 20
-114.3564995373831
 10
99.77065427193234
 20
-114.3564995373831
 10
99.77065427193234
 20
-114.3564995373831
 10
99.80234915039664
 20
-113.9988986260142
 10
99.86780596461638
 20
-113.920694958499
 10
100.2529676398673
 20
-113.6223496894764
 10
100.5089382344214
 20
-113.4235676799775
 10
100.5743950486411
 20
-113.355699298918
 10
100.5743950486411
 20
-113.2182399890566
 10
100.5743950486411
 20
-113.099728704364
 10
100.5023925529994
 20
-112.9688150759245
 10
100.3056776007916
 20
-112.9688150759245
 10
100.0455728916553
 20
-112.9688150759245
 10
100.0373046624907
 20
-113.1992919638877
 10
100.0328260383599
 20
-113.3157361912891
 10
100.0328260383599
 20
-113.3157361912891
 10
99.8085503222701
 20
-113.3157361912891
 10
99.8085503222701
 20
-113.3157361912891
 10
99.81716306098322
 20
-113.1886121678834
 10
99.82784285698749
 20
-113.0766465646128
 10
99.90811358179381
 20
-112.9581352799202
 10
100.0180121277733
 20
-112.797249320759
 10
100.2043917935253
 20
-112.7634873850036
 10
100.3204915113782
 20
-112.7634873850036
 10
100.5978216979408
 20
-112.7634873850036
 10
100.8052164461529
 20
-112.9474554839159
 10
100.8052164461529
 20
-113.2203070463477
 10
100.8052164461529
 20
-113.4490613865683
 10
100.6887722187514
 20
-113.5482801365435
 10
100.3797471537245
 20
-113.7746229099244
 97
        0
 97
        0
 75
     2
 76
     1
 98
        0
  0
ENDBLK
  5
DE
330
DB
100
AcDbEntity
  8
0
100
AcDbBlockEnd
  0
BLOCK
  5
EF
330
ED
100
AcDbEntity
  8
0
100
AcDbBlockBegin
  2
block 5
 70
     0
 10
0.0
 20
0.0
 30
0.0
  3
block 5
  1

  0
SPLINE
  5
F1
330
ED
100
AcDbEntity
  8
_U+30EC_U+30A4_U+30E4_U+30FC 1
370
     0
100
AcDbSpline
210
0.0
220
0.0
230
1.0
 70
    11
 71
     3
 72
    53
 73
    49
 74
     0
 42
0.0000000001
 43
0.0000000001
 12
1.0
 22
0.0
 32
0.0
 13
1.0
 23
0.0
 33
0.0
 40
0.0
 40
0.0
 40
0.0
 40
0.0
 40
1.0
 40
1.0
 40
1.0
 40
2.0
 40
2.0
 40
2.0
 40
3.0
 40
3.0
 40
3.0
 40
4.0
 40
4.0
 40
4.0
 40
5.0
 40
5.0
 40
5.0
 40
6.0
 40
6.0
 40
6.0
 40
7.0
 40
7.0
 40
7.0
 40
8.0
 40
8.0
 40
8.0
 40
9.0
 40
9.0
 40
9.0
 40
10.0
 40
10.0
 40
10.0
 40
11.0
 40
11.0
 40
11.0
 40
12.0
 40
12.0
 40
12.0
 40
13.0
 40
13.0
 40
13.0
 40
14.0
 40
14.0
 40
14.0
 40
15.0
 40
15.0
 40
15.0
 40
16.0
 40
16.0
 40
16.0
 40
16.0
 10
92.36852211232454
 20
-110.4614745817596
 30
0.0
 10
92.29031844480937
 20
-110.4614745817596
 30
0.0
 10
92.1886881279945
 20
-110.4445936138819
 30
0.0
 10
92.08705781117963
 20
-110.3812038569533
 30
0.0
 10
91.91376950827156
 20
-110.2713053109738
 30
0.0
 10
91.89240991626302
 20
-110.1400471729858
 30
0.0
 10
91.87346189109414
 20
-110.0322156842975
 30
0.0
 10
91.87346189109414
 20
-110.0322156842975
 30
0.0
 10
92.09567054989276
 20
-110.0322156842975
 30
0.0
 10
92.09567054989276
 20
-110.0322156842975
 30
0.0
 10
92.15044756810822
 20
-110.2309976937964
 30
0.0
 10
92.27757159151395
 20
-110.2606255149696
 30
0.0
 10
92.37058916961568
 20
-110.2606255149696
 30
0.0
 10
92.51011553676831
 20
-110.2606255149696
 30
0.0
 10
92.66238875721635
 20
-110.1610622554459
 30
0.0
 10
92.66238875721635
 20
-109.9285183101915
 30
0.0
 10
92.66238875721635
 20
-109.6725477156374
 30
0.0
 10
92.4825547728863
 20
-109.6026122772869
 30
0.0
 10
92.36197643090257
 20
-109.6026122772869
 30
0.0
 10
92.33028155243827
 20
-109.6026122772869
 30
0.0
 10
92.1886881279945
 20
-109.6026122772869
 30
0.0
 10
92.09980466447506
 20
-109.7318033579837
 30
0.0
 10
92.09980466447506
 20
-109.7318033579837
 30
0.0
 10
91.92410479472731
 20
-109.7128553328148
 30
0.0
 10
91.92410479472731
 20
-109.7128553328148
 30
0.0
 10
91.92410479472731
 20
-109.7128553328148
 30
0.0
 10
92.04468313671106
 20
-108.866395372089
 30
0.0
 10
92.04468313671106
 20
-108.866395372089
 30
0.0
 10
92.04468313671106
 20
-108.866395372089
 30
0.0
 10
92.82327471637753
 20
-108.866395372089
 30
0.0
 10
92.82327471637753
 20
-108.866395372089
 30
0.0
 10
92.82327471637753
 20
-108.866395372089
 30
0.0
 10
92.82327471637753
 20
-109.0610432670056
 30
0.0
 10
92.82327471637753
 20
-109.0610432670056
 30
0.0
 10
92.82327471637753
 20
-109.0610432670056
 30
0.0
 10
92.20763615316338
 20
-109.0610432670056
 30
0.0
 10
92.20763615316338
 20
-109.0610432670056
 30
0.0
 10
92.20763615316338
 20
-109.0610432670056
 30
0.0
 10
92.14217933894362
 20
-109.4841009925943
 30
0.0
 10
92.14217933894362
 20
-109.4841009925943
 30
0.0
 10
92.20350203858108
 20
-109.4503390568388
 30
0.0
 10
92.28583982067855
 20
-109.4100314396614
 30
0.0
 10
92.40435110537113
 20
-109.4100314396614
 30
0.0
 10
92.65825464263405
 20
-109.4100314396614
 30
0.0
 10
92.89527721201924
 20
-109.5964111054134
 30
0.0
 10
92.89527721201924
 20
-109.9095702850226
 30
0.0
 10
92.89527721201924
 20
-110.2268635792141
 30
0.0
 10
92.67100149592947
 20
-110.4614745817596
 30
0.0
 10
92.36852211232454
 20
-110.4614745817596
 30
0.0
  0
HATCH
  5
F2
330
ED
100
AcDbEntity
  8
_U+30EC_U+30A4_U+30E4_U+30FC 1
 62
   179
420
  2234388
100
AcDbHatch
 10
0.0
 20
0.0
 30
0.0
210
0.0
220
0.0
230
1.0
  2
SOLID
 70
     1
 71
     0
 91
        1
 92
        1
 93
        1
 72
     4
 94
        3
 73
     0
 74
     1
 95
       53
 96
       49
 40
0.0
 40
0.0
 40
0.0
 40
0.0
 40
1.0
 40
1.0
 40
1.0
 40
2.0
 40
2.0
 40
2.0
 40
3.0
 40
3.0
 40
3.0
 40
4.0
 40
4.0
 40
4.0
 40
5.0
 40
5.0
 40
5.0
 40
6.0
 40
6.0
 40
6.0
 40
7.0
 40
7.0
 40
7.0
 40
8.0
 40
8.0
 40
8.0
 40
9.0
 40
9.0
 40
9.0
 40
10.0
 40
10.0
 40
10.0
 40
11.0
 40
11.0
 40
11.0
 40
12.0
 40
12.0
 40
12.0
 40
13.0
 40
13.0
 40
13.0
 40
14.0
 40
14.0
 40
14.0
 40
15.0
 40
15.0
 40
15.0
 40
16.0
 40
16.0
 40
16.0
 40
16.0
 10
92.36852211232454
 20
-110.4614745817596
 10
92.29031844480937
 20
-110.4614745817596
 10
92.1886881279945
 20
-110.4445936138819
 10
92.08705781117963
 20
-110.3812038569533
 10
91.91376950827156
 20
-110.2713053109738
 10
91.89240991626302
 20
-110.1400471729858
 10
91.87346189109414
 20
-110.0322156842975
 10
91.87346189109414
 20
-110.0322156842975
 10
92.09567054989276
 20
-110.0322156842975
 10
92.09567054989276
 20
-110.0322156842975
 10
92.15044756810822
 20
-110.2309976937964
 10
92.27757159151395
 20
-110.2606255149696
 10
92.37058916961568
 20
-110.2606255149696
 10
92.51011553676831
 20
-110.2606255149696
 10
92.66238875721635
 20
-110.1610622554459
 10
92.66238875721635
 20
-109.9285183101915
 10
92.66238875721635
 20
-109.6725477156374
 10
92.4825547728863
 20
-109.6026122772869
 10
92.36197643090257
 20
-109.6026122772869
 10
92.33028155243827
 20
-109.6026122772869
 10
92.1886881279945
 20
-109.6026122772869
 10
92.09980466447506
 20
-109.7318033579837
 10
92.09980466447506
 20
-109.7318033579837
 10
91.92410479472731
 20
-109.7128553328148
 10
91.92410479472731
 20
-109.7128553328148
 10
91.92410479472731
 20
-109.7128553328148
 10
92.04468313671106
 20
-108.866395372089
 10
92.04468313671106
 20
-108.866395372089
 10
92.04468313671106
 20
-108.866395372089
 10
92.82327471637753
 20
-108.866395372089
 10
92.82327471637753
 20
-108.866395372089
 10
92.82327471637753
 20
-108.866395372089
 10
92.82327471637753
 20
-109.0610432670056
 10
92.82327471637753
 20
-109.0610432670056
 10
92.82327471637753
 20
-109.0610432670056
 10
92.20763615316338
 20
-109.0610432670056
 10
92.20763615316338
 20
-109.0610432670056
 10
92.20763615316338
 20
-109.0610432670056
 10
92.14217933894362
 20
-109.4841009925943
 10
92.14217933894362
 20
-109.4841009925943
 10
92.20350203858108
 20
-109.4503390568388
 10
92.28583982067855
 20
-109.4100314396614
 10
92.40435110537113
 20
-109.4100314396614
 10
92.65825464263405
 20
-109.4100314396614
 10
92.89527721201924
 20
-109.5964111054134
 10
92.89527721201924
 20
-109.9095702850226
 10
92.89527721201924
 20
-110.2268635792141
 10
92.67100149592947
 20
-110.4614745817596
 10
92.36852211232454
 20
-110.4614745817596
 97
        0
 97
        0
 75
     2
 76
     1
 98
        0
  0
SPLINE
  5
F3
330
ED
100
AcDbEntity
  8
_U+30EC_U+30A4_U+30E4_U+30FC 1
370
     0
100
AcDbSpline
210
0.0
220
0.0
230
1.0
 70
    11
 71
     3
 72
    29
 73
    25
 74
     0
 42
0.0000000001
 43
0.0000000001
 12
1.0
 22
0.0
 32
0.0
 13
1.0
 23
0.0
 33
0.0
 40
0.0
 40
0.0
 40
0.0
 40
0.0
 40
1.0
 40
1.0
 40
1.0
 40
2.0
 40
2.0
 40
2.0
 40
3.0
 40
3.0
 40
3.0
 40
4.0
 40
4.0
 40
4.0
 40
5.0
 40
5.0
 40
5.0
 40
6.0
 40
6.0
 40
6.0
 40
7.0
 40
7.0
 40
7.0
 40
8.0
 40
8.0
 40
8.0
 40
8.0
 10
93.96222328380111
 20
-110.2330647510876
 30
0.0
 10
93.85404728556426
 20
-110.4425265565908
 30
0.0
 10
93.6807589826562
 20
-110.4614745817596
 30
0.0
 10
93.56431475525476
 20
-110.4614745817596
 30
0.0
 10
93.40342879609359
 20
-110.4614745817596
 30
0.0
 10
93.26183537164982
 20
-110.4149657927088
 30
0.0
 10
93.16675073625693
 20
-110.2330647510876
 30
0.0
 10
93.06305336215091
 20
-110.038416856171
 30
0.0
 10
93.0437608274335
 20
-109.8013942867858
 30
0.0
 10
93.0437608274335
 20
-109.638785779882
 30
0.0
 10
93.0437608274335
 20
-109.4947807885985
 30
0.0
 10
93.06098630485975
 20
-109.2429443086268
 30
0.0
 10
93.16675073625693
 20
-109.0441622991278
 30
0.0
 10
93.27458222494525
 20
-108.8412461750466
 30
0.0
 10
93.43546818410641
 20
-108.8178195257469
 30
0.0
 10
93.56431475525476
 20
-108.8178195257469
 30
0.0
 10
93.72313365712478
 20
-108.8178195257469
 30
0.0
 10
93.86679413885969
 20
-108.8622612575067
 30
0.0
 10
93.96222328380111
 20
-109.0441622991278
 30
0.0
 10
94.06144203377632
 20
-109.2367431367533
 30
0.0
 10
94.08486868307601
 20
-109.4651529674254
 30
0.0
 10
94.08486868307601
 20
-109.638785779882
 30
0.0
 10
94.08486868307601
 20
-109.8100070254989
 30
0.0
 10
94.06350909106746
 20
-110.0404839134621
 30
0.0
 10
93.96222328380111
 20
-110.2330647510876
 30
0.0
  0
SPLINE
  5
F4
330
ED
100
AcDbEntity
  8
_U+30EC_U+30A4_U+30E4_U+30FC 1
370
     0
100
AcDbSpline
210
0.0
220
0.0
230
1.0
 70
    11
 71
     3
 72
    17
 73
    13
 74
     0
 42
0.0000000001
 43
0.0000000001
 12
1.0
 22
0.0
 32
0.0
 13
1.0
 23
0.0
 33
0.0
 40
0.0
 40
0.0
 40
0.0
 40
0.0
 40
1.0
 40
1.0
 40
1.0
 40
2.0
 40
2.0
 40
2.0
 40
3.0
 40
3.0
 40
3.0
 40
4.0
 40
4.0
 40
4.0
 40
4.0
 10
93.56431475525476
 20
-109.0104003633724
 30
0.0
 10
93.31454533257414
 20
-109.0104003633724
 30
0.0
 10
93.26803654352327
 20
-109.2939317218085
 30
0.0
 10
93.26803654352327
 20
-109.638785779882
 30
0.0
 10
93.26803654352327
 20
-109.9581461313646
 30
0.0
 10
93.3042100461184
 20
-110.266826686843
 30
0.0
 10
93.56431475525476
 20
-110.266826686843
 30
0.0
 10
93.81201712064423
 20
-110.266826686843
 30
0.0
 10
93.86059296698625
 20
-109.9857068952466
 30
0.0
 10
93.86059296698625
 20
-109.638785779882
 30
0.0
 10
93.86059296698625
 20
-109.3190809188508
 30
0.0
 10
93.82235240709997
 20
-109.0104003633724
 30
0.0
 10
93.56431475525476
 20
-109.0104003633724
 30
0.0
  0
HATCH
  5
F5
330
ED
100
AcDbEntity
  8
_U+30EC_U+30A4_U+30E4_U+30FC 1
 62
   179
420
  2234388
100
AcDbHatch
 10
0.0
 20
0.0
 30
0.0
210
0.0
220
0.0
230
1.0
  2
SOLID
 70
     1
 71
     0
 91
        2
 92
        1
 93
        1
 72
     4
 94
        3
 73
     0
 74
     1
 95
       29
 96
       25
 40
0.0
 40
0.0
 40
0.0
 40
0.0
 40
1.0
 40
1.0
 40
1.0
 40
2.0
 40
2.0
 40
2.0
 40
3.0
 40
3.0
 40
3.0
 40
4.0
 40
4.0
 40
4.0
 40
5.0
 40
5.0
 40
5.0
 40
6.0
 40
6.0
 40
6.0
 40
7.0
 40
7.0
 40
7.0
 40
8.0
 40
8.0
 40
8.0
 40
8.0
 10
93.96222328380111
 20
-110.2330647510876
 10
93.85404728556426
 20
-110.4425265565908
 10
93.6807589826562
 20
-110.4614745817596
 10
93.56431475525476
 20
-110.4614745817596
 10
93.40342879609359
 20
-110.4614745817596
 10
93.26183537164982
 20
-110.4149657927088
 10
93.16675073625693
 20
-110.2330647510876
 10
93.06305336215091
 20
-110.038416856171
 10
93.0437608274335
 20
-109.8013942867858
 10
93.0437608274335
 20
-109.638785779882
 10
93.0437608274335
 20
-109.4947807885985
 10
93.06098630485975
 20
-109.2429443086268
 10
93.16675073625693
 20
-109.0441622991278
 10
93.27458222494525
 20
-108.8412461750466
 10
93.43546818410641
 20
-108.8178195257469
 10
93.56431475525476
 20
-108.8178195257469
 10
93.72313365712478
 20
-108.8178195257469
 10
93.86679413885969
 20
-108.8622612575067
 10
93.96222328380111
 20
-109.0441622991278
 10
94.06144203377632
 20
-109.2367431367533
 10
94.08486868307601
 20
-109.4651529674254
 10
94.08486868307601
 20
-109.638785779882
 10
94.08486868307601
 20
-109.8100070254989
 10
94.06350909106746
 20
-110.0404839134621
 10
93.96222328380111
 20
-110.2330647510876
 97
        0
 97
        0
 92
        1
 93
        1
 72
     4
 94
        3
 73
     0
 74
     1
 95
       17
 96
       13
 40
0.0
 40
0.0
 40
0.0
 40
0.0
 40
1.0
 40
1.0
 40
1.0
 40
2.0
 40
2.0
 40
2.0
 40
3.0
 40
3.0
 40
3.0
 40
4.0
 40
4.0
 40
4.0
 40
4.0
 10
93.56431475525476
 20
-109.0104003633724
 10
93.31454533257414
 20
-109.0104003633724
 10
93.26803654352327
 20
-109.2939317218085
 10
93.26803654352327
 20
-109.638785779882
 10
93.26803654352327
 20
-109.9581461313646
 10
93.3042100461184
 20
-110.266826686843
 10
93.56431475525476
 20
-110.266826686843
 10
93.81201712064423
 20
-110.266826686843
 10
93.86059296698625
 20
-109.9857068952466
 10
93.86059296698625
 20
-109.638785779882
 10
93.86059296698625
 20
-109.3190809188508
 10
93.82235240709997
 20
-109.0104003633724
 10
93.56431475525476
 20
-109.0104003633724
 97
        0
 97
        0
 75
     2
 76
     1
 98
        0
  0
POLYLINE
  5
F6
330
ED
100
AcDbEntity
  8
_U+30EC_U+30A4_U+30E4_U+30FC 1
370
     0
100
AcDb2dPolyline
 66
     1
 10
0.0
 20
0.0
 30
0.0
  0
VERTEX
  5
F7
330
F6
100
AcDbEntity
  8
_U+30EC_U+30A4_U+30E4_U+30FC 1
370
     0
100
AcDbVertex
100
AcDb2dVertex
 10
94.3012206795497
 20
-110.4108316781265
 30
0.0
  0
VERTEX
  5
F8
330
F6
100
AcDbEntity
  8
_U+30EC_U+30A4_U+30E4_U+30FC 1
370
     0
100
AcDbVertex
100
AcDb2dVertex
 10
94.3012206795497
 20
-110.1589951981547
 30
0.0
  0
VERTEX
  5
F9
330
F6
100
AcDbEntity
  8
_U+30EC_U+30A4_U+30E4_U+30FC 1
370
     0
100
AcDbVertex
100
AcDb2dVertex
 10
94.55305715952146
 20
-110.1589951981547
 30
0.0
  0
VERTEX
  5
FA
330
F6
100
AcDbEntity
  8
_U+30EC_U+30A4_U+30E4_U+30FC 1
370
     0
100
AcDbVertex
100
AcDb2dVertex
 10
94.55305715952146
 20
-110.4108316781265
 30
0.0
  0
VERTEX
  5
FB
330
F6
100
AcDbEntity
  8
_U+30EC_U+30A4_U+30E4_U+30FC 1
370
     0
100
AcDbVertex
100
AcDb2dVertex
 10
94.3012206795497
 20
-110.4108316781265
 30
0.0
  0
SEQEND
  5
FC
330
F6
100
AcDbEntity
  8
_U+30EC_U+30A4_U+30E4_U+30FC 1
370
     0
  0
HATCH
  5
FD
330
ED
100
AcDbEntity
  8
_U+30EC_U+30A4_U+30E4_U+30FC 1
 62
   179
420
  2234388
100
AcDbHatch
 10
0.0
 20
0.0
 30
0.0
210
0.0
220
0.0
230
1.0
  2
SOLID
 70
     1
 71
     0
 91
        1
 92
        1
 93
        4
 72
     1
 10
94.3012206795497
 20
-110.4108316781265
 11
94.3012206795497
 21
-110.1589951981547
 72
     1
 10
94.3012206795497
 20
-110.1589951981547
 11
94.55305715952146
 21
-110.1589951981547
 72
     1
 10
94.55305715952146
 20
-110.1589951981547
 11
94.55305715952146
 21
-110.4108316781265
 72
     1
 10
94.55305715952146
 20
-110.4108316781265
 11
94.3012206795497
 21
-110.4108316781265
 97
        0
 75
     2
 76
     1
 98
        0
  0
SPLINE
  5
FE
330
ED
100
AcDbEntity
  8
_U+30EC_U+30A4_U+30E4_U+30FC 1
370
     0
100
AcDbSpline
210
0.0
220
0.0
230
1.0
 70
    11
 71
     3
 72
    44
 73
    40
 74
     0
 42
0.0000000001
 43
0.0000000001
 12
1.0
 22
0.0
 32
0.0
 13
1.0
 23
0.0
 33
0.0
 40
0.0
 40
0.0
 40
0.0
 40
0.0
 40
1.0
 40
1.0
 40
1.0
 40
2.0
 40
2.0
 40
2.0
 40
3.0
 40
3.0
 40
3.0
 40
4.0
 40
4.0
 40
4.0
 40
5.0
 40
5.0
 40
5.0
 40
6.0
 40
6.0
 40
6.0
 40
7.0
 40
7.0
 40
7.0
 40
8.0
 40
8.0
 40
8.0
 40
9.0
 40
9.0
 40
9.0
 40
10.0
 40
10.0
 40
10.0
 40
11.0
 40
11.0
 40
11.0
 40
12.0
 40
12.0
 40
12.0
 40
13.0
 40
13.0
 40
13.0
 40
13.0
 10
95.3822916428211
 20
-109.8289550506678
 30
0.0
 10
95.1645616081533
 20
-109.9877739525378
 30
0.0
 10
95.07154403005157
 20
-110.0618435054707
 30
0.0
 10
95.02262367416101
 20
-110.2055039872056
 30
0.0
 10
95.02262367416101
 20
-110.2055039872056
 30
0.0
 10
95.80121525382748
 20
-110.2055039872056
 30
0.0
 10
95.80121525382748
 20
-110.2055039872056
 30
0.0
 10
95.80121525382748
 20
-110.2055039872056
 30
0.0
 10
95.80121525382748
 20
-110.4108316781265
 30
0.0
 10
95.80121525382748
 20
-110.4108316781265
 30
0.0
 10
95.80121525382748
 20
-110.4108316781265
 30
0.0
 10
94.77319876102892
 20
-110.4108316781265
 30
0.0
 10
94.77319876102892
 20
-110.4108316781265
 30
0.0
 10
94.80489363949323
 20
-110.0532307667575
 30
0.0
 10
94.87035045371297
 20
-109.9750270992424
 30
0.0
 10
95.2555121289639
 20
-109.6766818302197
 30
0.0
 10
95.51148272351797
 20
-109.4778998207208
 30
0.0
 10
95.57693953773772
 20
-109.4100314396614
 30
0.0
 10
95.57693953773772
 20
-109.2725721297999
 30
0.0
 10
95.57693953773772
 20
-109.1540608451073
 30
0.0
 10
95.50493704209599
 20
-109.0231472166678
 30
0.0
 10
95.30822208988823
 20
-109.0231472166678
 30
0.0
 10
95.04811738075186
 20
-109.0231472166678
 30
0.0
 10
95.03984915158726
 20
-109.253624104631
 30
0.0
 10
95.03537052745644
 20
-109.3700683320325
 30
0.0
 10
95.03537052745644
 20
-109.3700683320325
 30
0.0
 10
94.81109481136667
 20
-109.3700683320325
 30
0.0
 10
94.81109481136667
 20
-109.3700683320325
 30
0.0
 10
94.8197075500798
 20
-109.2429443086268
 30
0.0
 10
94.83038734608408
 20
-109.1309787053561
 30
0.0
 10
94.91065807089039
 20
-109.0124674206636
 30
0.0
 10
95.02055661686987
 20
-108.8515814615024
 30
0.0
 10
95.20693628262188
 20
-108.8178195257469
 30
0.0
 10
95.3230360004748
 20
-108.8178195257469
 30
0.0
 10
95.60036618703741
 20
-108.8178195257469
 30
0.0
 10
95.80776093524945
 20
-109.0017876246593
 30
0.0
 10
95.80776093524945
 20
-109.2746391870911
 30
0.0
 10
95.80776093524945
 20
-109.5033935273117
 30
0.0
 10
95.691316707848
 20
-109.6026122772869
 30
0.0
 10
95.3822916428211
 20
-109.8289550506678
 30
0.0
  0
HATCH
  5
FF
330
ED
100
AcDbEntity
  8
_U+30EC_U+30A4_U+30E4_U+30FC 1
 62
   179
420
  2234388
100
AcDbHatch
 10
0.0
 20
0.0
 30
0.0
210
0.0
220
0.0
230
1.0
  2
SOLID
 70
     1
 71
     0
 91
        1
 92
        1
 93
        1
 72
     4
 94
        3
 73
     0
 74
     1
 95
       44
 96
       40
 40
0.0
 40
0.0
 40
0.0
 40
0.0
 40
1.0
 40
1.0
 40
1.0
 40
2.0
 40
2.0
 40
2.0
 40
3.0
 40
3.0
 40
3.0
 40
4.0
 40
4.0
 40
4.0
 40
5.0
 40
5.0
 40
5.0
 40
6.0
 40
6.0
 40
6.0
 40
7.0
 40
7.0
 40
7.0
 40
8.0
 40
8.0
 40
8.0
 40
9.0
 40
9.0
 40
9.0
 40
10.0
 40
10.0
 40
10.0
 40
11.0
 40
11.0
 40
11.0
 40
12.0
 40
12.0
 40
12.0
 40
13.0
 40
13.0
 40
13.0
 40
13.0
 10
95.3822916428211
 20
-109.8289550506678
 10
95.1645616081533
 20
-109.9877739525378
 10
95.07154403005157
 20
-110.0618435054707
 10
95.02262367416101
 20
-110.2055039872056
 10
95.02262367416101
 20
-110.2055039872056
 10
95.80121525382748
 20
-110.2055039872056
 10
95.80121525382748
 20
-110.2055039872056
 10
95.80121525382748
 20
-110.2055039872056
 10
95.80121525382748
 20
-110.4108316781265
 10
95.80121525382748
 20
-110.4108316781265
 10
95.80121525382748
 20
-110.4108316781265
 10
94.77319876102892
 20
-110.4108316781265
 10
94.77319876102892
 20
-110.4108316781265
 10
94.80489363949323
 20
-110.0532307667575
 10
94.87035045371297
 20
-109.9750270992424
 10
95.2555121289639
 20
-109.6766818302197
 10
95.51148272351797
 20
-109.4778998207208
 10
95.57693953773772
 20
-109.4100314396614
 10
95.57693953773772
 20
-109.2725721297999
 10
95.57693953773772
 20
-109.1540608451073
 10
95.50493704209599
 20
-109.0231472166678
 10
95.30822208988823
 20
-109.0231472166678
 10
95.04811738075186
 20
-109.0231472166678
 10
95.03984915158726
 20
-109.253624104631
 10
95.03537052745644
 20
-109.3700683320325
 10
95.03537052745644
 20
-109.3700683320325
 10
94.81109481136667
 20
-109.3700683320325
 10
94.81109481136667
 20
-109.3700683320325
 10
94.8197075500798
 20
-109.2429443086268
 10
94.83038734608408
 20
-109.1309787053561
 10
94.91065807089039
 20
-109.0124674206636
 10
95.02055661686987
 20
-108.8515814615024
 10
95.20693628262188
 20
-108.8178195257469
 10
95.3230360004748
 20
-108.8178195257469
 10
95.60036618703741
 20
-108.8178195257469
 10
95.80776093524945
 20
-109.0017876246593
 10
95.80776093524945
 20
-109.2746391870911
 10
95.80776093524945
 20
-109.5033935273117
 10
95.691316707848
 20
-109.6026122772869
 10
95.3822916428211
 20
-109.8289550506678
 97
        0
 97
        0
 75
     2
 76
     1
 98
        0
  0
ENDBLK
  5
F0
330
ED
100
AcDbEntity
  8
0
100
AcDbBlockEnd
  0
BLOCK
  5
102
330
100
100
AcDbEntity
  8
0
100
AcDbBlockBegin
  2
block 6
 70
     0
 10
0.0
 20
0.0
 30
0.0
  3
block 6
  1

  0
SPLINE
  5
104
330
100
100
AcDbEntity
  8
_U+30EC_U+30A4_U+30E4_U+30FC 1
370
     0
100
AcDbSpline
210
0.0
220
0.0
230
1.0
 70
    11
 71
     3
 72
    26
 73
    22
 74
     0
 42
0.0000000001
 43
0.0000000001
 12
1.0
 22
0.0
 32
0.0
 13
1.0
 23
0.0
 33
0.0
 40
0.0
 40
0.0
 40
0.0
 40
0.0
 40
1.0
 40
1.0
 40
1.0
 40
2.0
 40
2.0
 40
2.0
 40
3.0
 40
3.0
 40
3.0
 40
4.0
 40
4.0
 40
4.0
 40
5.0
 40
5.0
 40
5.0
 40
6.0
 40
6.0
 40
6.0
 40
7.0
 40
7.0
 40
7.0
 40
7.0
 10
111.7389159876903
 20
-132.8139431091576
 30
0.0
 10
111.7389159876903
 20
-132.8139431091576
 30
0.0
 10
110.6347628846677
 20
-132.8139431091576
 30
0.0
 10
110.6347628846677
 20
-132.8139431091576
 30
0.0
 10
110.6347628846677
 20
-132.8139431091576
 30
0.0
 10
110.6347628846677
 20
-133.1439832566446
 30
0.0
 10
110.6347628846677
 20
-133.1439832566446
 30
0.0
 10
110.6347628846677
 20
-133.1439832566446
 30
0.0
 10
110.486623778802
 20
-133.1439832566446
 30
0.0
 10
110.486623778802
 20
-133.1439832566446
 30
0.0
 10
110.4718098682154
 20
-132.8118760518665
 30
0.0
 10
110.3088568517631
 20
-132.7653672628156
 30
0.0
 10
110.1944796816528
 20
-132.7357394416425
 30
0.0
 10
110.1944796816528
 20
-132.7357394416425
 30
0.0
 10
110.1944796816528
 20
-132.5896673930679
 30
0.0
 10
110.1944796816528
 20
-132.5896673930679
 30
0.0
 10
110.1944796816528
 20
-132.5896673930679
 30
0.0
 10
111.7389159876903
 20
-132.5896673930679
 30
0.0
 10
111.7389159876903
 20
-132.5896673930679
 30
0.0
 10
111.7389159876903
 20
-132.5896673930679
 30
0.0
 10
111.7389159876903
 20
-132.8139431091576
 30
0.0
 10
111.7389159876903
 20
-132.8139431091576
 30
0.0
  0
HATCH
  5
105
330
100
100
AcDbEntity
  8
_U+30EC_U+30A4_U+30E4_U+30FC 1
 62
   179
420
  2234388
100
AcDbHatch
 10
0.0
 20
0.0
 30
0.0
210
0.0
220
0.0
230
1.0
  2
SOLID
 70
     1
 71
     0
 91
        1
 92
        1
 93
        1
 72
     4
 94
        3
 73
     0
 74
     1
 95
       26
 96
       22
 40
0.0
 40
0.0
 40
0.0
 40
0.0
 40
1.0
 40
1.0
 40
1.0
 40
2.0
 40
2.0
 40
2.0
 40
3.0
 40
3.0
 40
3.0
 40
4.0
 40
4.0
 40
4.0
 40
5.0
 40
5.0
 40
5.0
 40
6.0
 40
6.0
 40
6.0
 40
7.0
 40
7.0
 40
7.0
 40
7.0
 10
111.7389159876903
 20
-132.8139431091576
 10
111.7389159876903
 20
-132.8139431091576
 10
110.6347628846677
 20
-132.8139431091576
 10
110.6347628846677
 20
-132.8139431091576
 10
110.6347628846677
 20
-132.8139431091576
 10
110.6347628846677
 20
-133.1439832566446
 10
110.6347628846677
 20
-133.1439832566446
 10
110.6347628846677
 20
-133.1439832566446
 10
110.486623778802
 20
-133.1439832566446
 10
110.486623778802
 20
-133.1439832566446
 10
110.4718098682154
 20
-132.8118760518665
 10
110.3088568517631
 20
-132.7653672628156
 10
110.1944796816528
 20
-132.7357394416425
 10
110.1944796816528
 20
-132.7357394416425
 10
110.1944796816528
 20
-132.5896673930679
 10
110.1944796816528
 20
-132.5896673930679
 10
110.1944796816528
 20
-132.5896673930679
 10
111.7389159876903
 20
-132.5896673930679
 10
111.7389159876903
 20
-132.5896673930679
 10
111.7389159876903
 20
-132.5896673930679
 10
111.7389159876903
 20
-132.8139431091576
 10
111.7389159876903
 20
-132.8139431091576
 97
        0
 97
        0
 75
     2
 76
     1
 98
        0
  0
SPLINE
  5
106
330
100
100
AcDbEntity
  8
_U+30EC_U+30A4_U+30E4_U+30FC 1
370
     0
100
AcDbSpline
210
0.0
220
0.0
230
1.0
 70
    11
 71
     3
 72
    53
 73
    49
 74
     0
 42
0.0000000001
 43
0.0000000001
 12
1.0
 22
0.0
 32
0.0
 13
1.0
 23
0.0
 33
0.0
 40
0.0
 40
0.0
 40
0.0
 40
0.0
 40
1.0
 40
1.0
 40
1.0
 40
2.0
 40
2.0
 40
2.0
 40
3.0
 40
3.0
 40
3.0
 40
4.0
 40
4.0
 40
4.0
 40
5.0
 40
5.0
 40
5.0
 40
6.0
 40
6.0
 40
6.0
 40
7.0
 40
7.0
 40
7.0
 40
8.0
 40
8.0
 40
8.0
 40
9.0
 40
9.0
 40
9.0
 40
10.0
 40
10.0
 40
10.0
 40
11.0
 40
11.0
 40
11.0
 40
12.0
 40
12.0
 40
12.0
 40
13.0
 40
13.0
 40
13.0
 40
14.0
 40
14.0
 40
14.0
 40
15.0
 40
15.0
 40
15.0
 40
16.0
 40
16.0
 40
16.0
 40
16.0
 10
111.7895588913235
 20
-131.6074706702231
 30
0.0
 10
111.7895588913235
 20
-131.6856743377383
 30
0.0
 10
111.7726779234457
 20
-131.7873046545532
 30
0.0
 10
111.7092881665171
 20
-131.8889349713681
 30
0.0
 10
111.5993896205377
 20
-132.0622232742761
 30
0.0
 10
111.4681314825496
 20
-132.0835828662847
 30
0.0
 10
111.3602999938613
 20
-132.1025308914535
 30
0.0
 10
111.3602999938613
 20
-132.1025308914535
 30
0.0
 10
111.3602999938613
 20
-131.8803222326549
 30
0.0
 10
111.3602999938613
 20
-131.8803222326549
 30
0.0
 10
111.5590820033602
 20
-131.8255452144394
 30
0.0
 10
111.5887098245334
 20
-131.6984211910337
 30
0.0
 10
111.5887098245334
 20
-131.605403612932
 30
0.0
 10
111.5887098245334
 20
-131.4658772457794
 30
0.0
 10
111.4891465650097
 20
-131.3136040253313
 30
0.0
 10
111.2566026197553
 20
-131.3136040253313
 30
0.0
 10
111.0006320252012
 20
-131.3136040253313
 30
0.0
 10
110.9306965868507
 20
-131.4934380096614
 30
0.0
 10
110.9306965868507
 20
-131.6140163516451
 30
0.0
 10
110.9306965868507
 20
-131.6457112301094
 30
0.0
 10
110.9306965868507
 20
-131.7873046545532
 30
0.0
 10
111.0598876675475
 20
-131.8761881180726
 30
0.0
 10
111.0598876675475
 20
-131.8761881180726
 30
0.0
 10
111.0409396423787
 20
-132.0518879878204
 30
0.0
 10
111.0409396423787
 20
-132.0518879878204
 30
0.0
 10
111.0409396423787
 20
-132.0518879878204
 30
0.0
 10
110.1944796816528
 20
-131.9313096458366
 30
0.0
 10
110.1944796816528
 20
-131.9313096458366
 30
0.0
 10
110.1944796816528
 20
-131.9313096458366
 30
0.0
 10
110.1944796816528
 20
-131.1527180661702
 30
0.0
 10
110.1944796816528
 20
-131.1527180661702
 30
0.0
 10
110.1944796816528
 20
-131.1527180661702
 30
0.0
 10
110.3891275765694
 20
-131.1527180661702
 30
0.0
 10
110.3891275765694
 20
-131.1527180661702
 30
0.0
 10
110.3891275765694
 20
-131.1527180661702
 30
0.0
 10
110.3891275765694
 20
-131.7683566293843
 30
0.0
 10
110.3891275765694
 20
-131.7683566293843
 30
0.0
 10
110.3891275765694
 20
-131.7683566293843
 30
0.0
 10
110.8121853021581
 20
-131.833813443604
 30
0.0
 10
110.8121853021581
 20
-131.833813443604
 30
0.0
 10
110.7784233664026
 20
-131.7724907439666
 30
0.0
 10
110.7381157492252
 20
-131.6901529618691
 30
0.0
 10
110.7381157492252
 20
-131.5716416771765
 30
0.0
 10
110.7381157492252
 20
-131.3177381399136
 30
0.0
 10
110.9244954149772
 20
-131.0807155705284
 30
0.0
 10
111.2376545945864
 20
-131.0807155705284
 30
0.0
 10
111.5549478887779
 20
-131.0807155705284
 30
0.0
 10
111.7895588913235
 20
-131.3049912866182
 30
0.0
 10
111.7895588913235
 20
-131.6074706702231
 30
0.0
  0
HATCH
  5
107
330
100
100
AcDbEntity
  8
_U+30EC_U+30A4_U+30E4_U+30FC 1
 62
   179
420
  2234388
100
AcDbHatch
 10
0.0
 20
0.0
 30
0.0
210
0.0
220
0.0
230
1.0
  2
SOLID
 70
     1
 71
     0
 91
        1
 92
        1
 93
        1
 72
     4
 94
        3
 73
     0
 74
     1
 95
       53
 96
       49
 40
0.0
 40
0.0
 40
0.0
 40
0.0
 40
1.0
 40
1.0
 40
1.0
 40
2.0
 40
2.0
 40
2.0
 40
3.0
 40
3.0
 40
3.0
 40
4.0
 40
4.0
 40
4.0
 40
5.0
 40
5.0
 40
5.0
 40
6.0
 40
6.0
 40
6.0
 40
7.0
 40
7.0
 40
7.0
 40
8.0
 40
8.0
 40
8.0
 40
9.0
 40
9.0
 40
9.0
 40
10.0
 40
10.0
 40
10.0
 40
11.0
 40
11.0
 40
11.0
 40
12.0
 40
12.0
 40
12.0
 40
13.0
 40
13.0
 40
13.0
 40
14.0
 40
14.0
 40
14.0
 40
15.0
 40
15.0
 40
15.0
 40
16.0
 40
16.0
 40
16.0
 40
16.0
 10
111.7895588913235
 20
-131.6074706702231
 10
111.7895588913235
 20
-131.6856743377383
 10
111.7726779234457
 20
-131.7873046545532
 10
111.7092881665171
 20
-131.8889349713681
 10
111.5993896205377
 20
-132.0622232742761
 10
111.4681314825496
 20
-132.0835828662847
 10
111.3602999938613
 20
-132.1025308914535
 10
111.3602999938613
 20
-132.1025308914535
 10
111.3602999938613
 20
-131.8803222326549
 10
111.3602999938613
 20
-131.8803222326549
 10
111.5590820033602
 20
-131.8255452144394
 10
111.5887098245334
 20
-131.6984211910337
 10
111.5887098245334
 20
-131.605403612932
 10
111.5887098245334
 20
-131.4658772457794
 10
111.4891465650097
 20
-131.3136040253313
 10
111.2566026197553
 20
-131.3136040253313
 10
111.0006320252012
 20
-131.3136040253313
 10
110.9306965868507
 20
-131.4934380096614
 10
110.9306965868507
 20
-131.6140163516451
 10
110.9306965868507
 20
-131.6457112301094
 10
110.9306965868507
 20
-131.7873046545532
 10
111.0598876675475
 20
-131.8761881180726
 10
111.0598876675475
 20
-131.8761881180726
 10
111.0409396423787
 20
-132.0518879878204
 10
111.0409396423787
 20
-132.0518879878204
 10
111.0409396423787
 20
-132.0518879878204
 10
110.1944796816528
 20
-131.9313096458366
 10
110.1944796816528
 20
-131.9313096458366
 10
110.1944796816528
 20
-131.9313096458366
 10
110.1944796816528
 20
-131.1527180661702
 10
110.1944796816528
 20
-131.1527180661702
 10
110.1944796816528
 20
-131.1527180661702
 10
110.3891275765694
 20
-131.1527180661702
 10
110.3891275765694
 20
-131.1527180661702
 10
110.3891275765694
 20
-131.1527180661702
 10
110.3891275765694
 20
-131.7683566293843
 10
110.3891275765694
 20
-131.7683566293843
 10
110.3891275765694
 20
-131.7683566293843
 10
110.8121853021581
 20
-131.833813443604
 10
110.8121853021581
 20
-131.833813443604
 10
110.7784233664026
 20
-131.7724907439666
 10
110.7381157492252
 20
-131.6901529618691
 10
110.7381157492252
 20
-131.5716416771765
 10
110.7381157492252
 20
-131.3177381399136
 10
110.9244954149772
 20
-131.0807155705284
 10
111.2376545945864
 20
-131.0807155705284
 10
111.5549478887779
 20
-131.0807155705284
 10
111.7895588913235
 20
-131.3049912866182
 10
111.7895588913235
 20
-131.6074706702231
 97
        0
 97
        0
 75
     2
 76
     1
 98
        0
  0
ENDBLK
  5
103
330
100
100
AcDbEntity
  8
0
100
AcDbBlockEnd
  0
BLOCK
  5
10A
330
108
100
AcDbEntity
  8
0
100
AcDbBlockBegin
  2
block 7
 70
     0
 10
0.0
 20
0.0
 30
0.0
  3
block 7
  1

  0
SPLINE
  5
10C
330
108
100
AcDbEntity
  8
_U+30EC_U+30A4_U+30E4_U+30FC 1
370
     0
100
AcDbSpline
210
0.0
220
0.0
230
1.0
 70
    11
 71
     3
 72
    62
 73
    58
 74
     0
 42
0.0000000001
 43
0.0000000001
 12
1.0
 22
0.0
 32
0.0
 13
1.0
 23
0.0
 33
0.0
 40
0.0
 40
0.0
 40
0.0
 40
0.0
 40
1.0
 40
1.0
 40
1.0
 40
2.0
 40
2.0
 40
2.0
 40
3.0
 40
3.0
 40
3.0
 40
4.0
 40
4.0
 40
4.0
 40
5.0
 40
5.0
 40
5.0
 40
6.0
 40
6.0
 40
6.0
 40
7.0
 40
7.0
 40
7.0
 40
8.0
 40
8.0
 40
8.0
 40
9.0
 40
9.0
 40
9.0
 40
10.0
 40
10.0
 40
10.0
 40
11.0
 40
11.0
 40
11.0
 40
12.0
 40
12.0
 40
12.0
 40
13.0
 40
13.0
 40
13.0
 40
14.0
 40
14.0
 40
14.0
 40
15.0
 40
15.0
 40
15.0
 40
16.0
 40
16.0
 40
16.0
 40
17.0
 40
17.0
 40
17.0
 40
18.0
 40
18.0
 40
18.0
 40
19.0
 40
19.0
 40
19.0
 40
19.0
 10
111.7606200892474
 20
-126.9452229500345
 30
0.0
 10
111.7606200892474
 20
-127.040652094976
 30
0.0
 10
111.7396050067873
 20
-127.2583821296437
 30
0.0
 10
111.5535698505838
 20
-127.3834390957583
 30
0.0
 10
111.4412597377647
 20
-127.4575086486912
 30
0.0
 10
111.3420409877895
 20
-127.4616427632735
 30
0.0
 10
111.2572916388524
 20
-127.4657768778558
 30
0.0
 10
111.2572916388524
 20
-127.4657768778558
 30
0.0
 10
111.2572916388524
 20
-127.2456352763483
 30
0.0
 10
111.2572916388524
 20
-127.2456352763483
 30
0.0
 10
111.3313611917852
 20
-127.2435682190572
 30
0.0
 10
111.5659721943307
 20
-127.2332329326014
 30
0.0
 10
111.5659721943307
 20
-126.9497015741654
 30
0.0
 10
111.5659721943307
 20
-126.8122422643039
 30
0.0
 10
111.4963812655287
 20
-126.6596245343073
 30
0.0
 10
111.2679714348566
 20
-126.6596245343073
 30
0.0
 10
111.1515272074552
 20
-126.6596245343073
 30
0.0
 10
111.1029513611132
 20
-126.6978650941936
 30
0.0
 10
111.0712564826489
 20
-126.7295599726579
 30
0.0
 10
110.997186929716
 20
-126.8036295255908
 30
0.0
 10
110.9844400764206
 20
-126.9200737529922
 30
0.0
 10
110.9844400764206
 20
-126.9748507712077
 30
0.0
 10
110.9844400764206
 20
-126.9941433059251
 30
0.0
 10
110.9865071337117
 20
-127.0299722989717
 30
0.0
 10
110.990641248294
 20
-127.0575330628537
 30
0.0
 10
110.990641248294
 20
-127.0575330628537
 30
0.0
 10
110.7959933533774
 20
-127.0575330628537
 30
0.0
 10
110.7959933533774
 20
-127.0575330628537
 30
0.0
 10
110.8025390347994
 20
-127.0192925029674
 30
0.0
 10
110.8046060920905
 20
-126.9772623380474
 30
0.0
 10
110.8046060920905
 20
-126.9707166566254
 30
0.0
 10
110.8046060920905
 20
-126.9052598424056
 30
0.0
 10
110.783246500082
 20
-126.7064778329067
 30
0.0
 10
110.5465684402453
 20
-126.7064778329067
 30
0.0
 10
110.3688015132064
 20
-126.7064778329067
 30
0.0
 10
110.3136799854424
 20
-126.8373914613462
 30
0.0
 10
110.3136799854424
 20
-126.9476345168742
 30
0.0
 10
110.3136799854424
 20
-127.2118733405929
 30
0.0
 10
110.5465684402453
 20
-127.220486079306
 30
0.0
 10
110.6182264263385
 20
-127.2246201938883
 30
0.0
 10
110.6182264263385
 20
-127.2246201938883
 30
0.0
 10
110.6182264263385
 20
-127.427880827518
 30
0.0
 10
110.6182264263385
 20
-127.427880827518
 30
0.0
 10
110.4935139697725
 20
-127.4192680888049
 30
0.0
 10
110.1169650332346
 20
-127.3917073249229
 30
0.0
 10
110.1169650332346
 20
-126.9348876635788
 30
0.0
 10
110.1169650332346
 20
-126.710611947489
 30
0.0
 10
110.2440890566404
 20
-126.4694552635215
 30
0.0
 10
110.5400227588233
 20
-126.4694552635215
 30
0.0
 10
110.7264024245754
 20
-126.4694552635215
 30
0.0
 10
110.8087402066728
 20
-126.5645398989144
 30
0.0
 10
110.8700629063103
 20
-126.6641031584382
 30
0.0
 10
110.8976236701923
 20
-126.6027804588007
 30
0.0
 10
110.9778943949986
 20
-126.4208794171795
 30
0.0
 10
111.2552245815612
 20
-126.4208794171795
 30
0.0
 10
111.5935329582127
 20
-126.4208794171795
 30
0.0
 10
111.7606200892474
 20
-126.6682372730205
 30
0.0
 10
111.7606200892474
 20
-126.9452229500345
 30
0.0
  0
HATCH
  5
10D
330
108
100
AcDbEntity
  8
_U+30EC_U+30A4_U+30E4_U+30FC 1
 62
   179
420
  2234388
100
AcDbHatch
 10
0.0
 20
0.0
 30
0.0
210
0.0
220
0.0
230
1.0
  2
SOLID
 70
     1
 71
     0
 91
        1
 92
        1
 93
        1
 72
     4
 94
        3
 73
     0
 74
     1
 95
       62
 96
       58
 40
0.0
 40
0.0
 40
0.0
 40
0.0
 40
1.0
 40
1.0
 40
1.0
 40
2.0
 40
2.0
 40
2.0
 40
3.0
 40
3.0
 40
3.0
 40
4.0
 40
4.0
 40
4.0
 40
5.0
 40
5.0
 40
5.0
 40
6.0
 40
6.0
 40
6.0
 40
7.0
 40
7.0
 40
7.0
 40
8.0
 40
8.0
 40
8.0
 40
9.0
 40
9.0
 40
9.0
 40
10.0
 40
10.0
 40
10.0
 40
11.0
 40
11.0
 40
11.0
 40
12.0
 40
12.0
 40
12.0
 40
13.0
 40
13.0
 40
13.0
 40
14.0
 40
14.0
 40
14.0
 40
15.0
 40
15.0
 40
15.0
 40
16.0
 40
16.0
 40
16.0
 40
17.0
 40
17.0
 40
17.0
 40
18.0
 40
18.0
 40
18.0
 40
19.0
 40
19.0
 40
19.0
 40
19.0
 10
111.7606200892474
 20
-126.9452229500345
 10
111.7606200892474
 20
-127.040652094976
 10
111.7396050067873
 20
-127.2583821296437
 10
111.5535698505838
 20
-127.3834390957583
 10
111.4412597377647
 20
-127.4575086486912
 10
111.3420409877895
 20
-127.4616427632735
 10
111.2572916388524
 20
-127.4657768778558
 10
111.2572916388524
 20
-127.4657768778558
 10
111.2572916388524
 20
-127.2456352763483
 10
111.2572916388524
 20
-127.2456352763483
 10
111.3313611917852
 20
-127.2435682190572
 10
111.5659721943307
 20
-127.2332329326014
 10
111.5659721943307
 20
-126.9497015741654
 10
111.5659721943307
 20
-126.8122422643039
 10
111.4963812655287
 20
-126.6596245343073
 10
111.2679714348566
 20
-126.6596245343073
 10
111.1515272074552
 20
-126.6596245343073
 10
111.1029513611132
 20
-126.6978650941936
 10
111.0712564826489
 20
-126.7295599726579
 10
110.997186929716
 20
-126.8036295255908
 10
110.9844400764206
 20
-126.9200737529922
 10
110.9844400764206
 20
-126.9748507712077
 10
110.9844400764206
 20
-126.9941433059251
 10
110.9865071337117
 20
-127.0299722989717
 10
110.990641248294
 20
-127.0575330628537
 10
110.990641248294
 20
-127.0575330628537
 10
110.7959933533774
 20
-127.0575330628537
 10
110.7959933533774
 20
-127.0575330628537
 10
110.8025390347994
 20
-127.0192925029674
 10
110.8046060920905
 20
-126.9772623380474
 10
110.8046060920905
 20
-126.9707166566254
 10
110.8046060920905
 20
-126.9052598424056
 10
110.783246500082
 20
-126.7064778329067
 10
110.5465684402453
 20
-126.7064778329067
 10
110.3688015132064
 20
-126.7064778329067
 10
110.3136799854424
 20
-126.8373914613462
 10
110.3136799854424
 20
-126.9476345168742
 10
110.3136799854424
 20
-127.2118733405929
 10
110.5465684402453
 20
-127.220486079306
 10
110.6182264263385
 20
-127.2246201938883
 10
110.6182264263385
 20
-127.2246201938883
 10
110.6182264263385
 20
-127.427880827518
 10
110.6182264263385
 20
-127.427880827518
 10
110.4935139697725
 20
-127.4192680888049
 10
110.1169650332346
 20
-127.3917073249229
 10
110.1169650332346
 20
-126.9348876635788
 10
110.1169650332346
 20
-126.710611947489
 10
110.2440890566404
 20
-126.4694552635215
 10
110.5400227588233
 20
-126.4694552635215
 10
110.7264024245754
 20
-126.4694552635215
 10
110.8087402066728
 20
-126.5645398989144
 10
110.8700629063103
 20
-126.6641031584382
 10
110.8976236701923
 20
-126.6027804588007
 10
110.9778943949986
 20
-126.4208794171795
 10
111.2552245815612
 20
-126.4208794171795
 10
111.5935329582127
 20
-126.4208794171795
 10
111.7606200892474
 20
-126.6682372730205
 10
111.7606200892474
 20
-126.9452229500345
 97
        0
 97
        0
 75
     2
 76
     1
 98
        0
  0
ENDBLK
  5
10B
330
108
100
AcDbEntity
  8
0
100
AcDbBlockEnd
  0
BLOCK
  5
110
330
10E
100
AcDbEntity
  8
0
100
AcDbBlockBegin
  2
block 8
 70
     0
 10
0.0
 20
0.0
 30
0.0
  3
block 8
  1

  0
SPLINE
  5
112
330
10E
100
AcDbEntity
  8
_U+30EC_U+30A4_U+30E4_U+30FC 1
370
     0
100
AcDbSpline
210
0.0
220
0.0
230
1.0
 70
    11
 71
     3
 72
    26
 73
    22
 74
     0
 42
0.0000000001
 43
0.0000000001
 12
1.0
 22
0.0
 32
0.0
 13
1.0
 23
0.0
 33
0.0
 40
0.0
 40
0.0
 40
0.0
 40
0.0
 40
1.0
 40
1.0
 40
1.0
 40
2.0
 40
2.0
 40
2.0
 40
3.0
 40
3.0
 40
3.0
 40
4.0
 40
4.0
 40
4.0
 40
5.0
 40
5.0
 40
5.0
 40
6.0
 40
6.0
 40
6.0
 40
7.0
 40
7.0
 40
7.0
 40
7.0
 10
93.55432397834754
 20
-146.9691514389522
 30
0.0
 10
93.55432397834754
 20
-146.9691514389522
 30
0.0
 10
93.55432397834754
 20
-145.8649983359296
 30
0.0
 10
93.55432397834754
 20
-145.8649983359296
 30
0.0
 10
93.55432397834754
 20
-145.8649983359296
 30
0.0
 10
93.2242838308606
 20
-145.8649983359296
 30
0.0
 10
93.2242838308606
 20
-145.8649983359296
 30
0.0
 10
93.2242838308606
 20
-145.8649983359296
 30
0.0
 10
93.2242838308606
 20
-145.7168592300638
 30
0.0
 10
93.2242838308606
 20
-145.7168592300638
 30
0.0
 10
93.55639103563868
 20
-145.7020453194773
 30
0.0
 10
93.60289982468956
 20
-145.5390923030249
 30
0.0
 10
93.63252764586271
 20
-145.4247151329147
 30
0.0
 10
93.63252764586271
 20
-145.4247151329147
 30
0.0
 10
93.7785996944373
 20
-145.4247151329147
 30
0.0
 10
93.7785996944373
 20
-145.4247151329147
 30
0.0
 10
93.7785996944373
 20
-145.4247151329147
 30
0.0
 10
93.7785996944373
 20
-146.9691514389522
 30
0.0
 10
93.7785996944373
 20
-146.9691514389522
 30
0.0
 10
93.7785996944373
 20
-146.9691514389522
 30
0.0
 10
93.55432397834754
 20
-146.9691514389522
 30
0.0
 10
93.55432397834754
 20
-146.9691514389522
 30
0.0
  0
HATCH
  5
113
330
10E
100
AcDbEntity
  8
_U+30EC_U+30A4_U+30E4_U+30FC 1
 62
   179
420
  2234388
100
AcDbHatch
 10
0.0
 20
0.0
 30
0.0
210
0.0
220
0.0
230
1.0
  2
SOLID
 70
     1
 71
     0
 91
        1
 92
        1
 93
        1
 72
     4
 94
        3
 73
     0
 74
     1
 95
       26
 96
       22
 40
0.0
 40
0.0
 40
0.0
 40
0.0
 40
1.0
 40
1.0
 40
1.0
 40
2.0
 40
2.0
 40
2.0
 40
3.0
 40
3.0
 40
3.0
 40
4.0
 40
4.0
 40
4.0
 40
5.0
 40
5.0
 40
5.0
 40
6.0
 40
6.0
 40
6.0
 40
7.0
 40
7.0
 40
7.0
 40
7.0
 10
93.55432397834754
 20
-146.9691514389522
 10
93.55432397834754
 20
-146.9691514389522
 10
93.55432397834754
 20
-145.8649983359296
 10
93.55432397834754
 20
-145.8649983359296
 10
93.55432397834754
 20
-145.8649983359296
 10
93.2242838308606
 20
-145.8649983359296
 10
93.2242838308606
 20
-145.8649983359296
 10
93.2242838308606
 20
-145.8649983359296
 10
93.2242838308606
 20
-145.7168592300638
 10
93.2242838308606
 20
-145.7168592300638
 10
93.55639103563868
 20
-145.7020453194773
 10
93.60289982468956
 20
-145.5390923030249
 10
93.63252764586271
 20
-145.4247151329147
 10
93.63252764586271
 20
-145.4247151329147
 10
93.7785996944373
 20
-145.4247151329147
 10
93.7785996944373
 20
-145.4247151329147
 10
93.7785996944373
 20
-145.4247151329147
 10
93.7785996944373
 20
-146.9691514389522
 10
93.7785996944373
 20
-146.9691514389522
 10
93.7785996944373
 20
-146.9691514389522
 10
93.55432397834754
 20
-146.9691514389522
 10
93.55432397834754
 20
-146.9691514389522
 97
        0
 97
        0
 75
     2
 76
     1
 98
        0
  0
SPLINE
  5
114
330
10E
100
AcDbEntity
  8
_U+30EC_U+30A4_U+30E4_U+30FC 1
370
     0
100
AcDbSpline
210
0.0
220
0.0
230
1.0
 70
    11
 71
     3
 72
    53
 73
    49
 74
     0
 42
0.0000000001
 43
0.0000000001
 12
1.0
 22
0.0
 32
0.0
 13
1.0
 23
0.0
 33
0.0
 40
0.0
 40
0.0
 40
0.0
 40
0.0
 40
1.0
 40
1.0
 40
1.0
 40
2.0
 40
2.0
 40
2.0
 40
3.0
 40
3.0
 40
3.0
 40
4.0
 40
4.0
 40
4.0
 40
5.0
 40
5.0
 40
5.0
 40
6.0
 40
6.0
 40
6.0
 40
7.0
 40
7.0
 40
7.0
 40
8.0
 40
8.0
 40
8.0
 40
9.0
 40
9.0
 40
9.0
 40
10.0
 40
10.0
 40
10.0
 40
11.0
 40
11.0
 40
11.0
 40
12.0
 40
12.0
 40
12.0
 40
13.0
 40
13.0
 40
13.0
 40
14.0
 40
14.0
 40
14.0
 40
15.0
 40
15.0
 40
15.0
 40
16.0
 40
16.0
 40
16.0
 40
16.0
 10
94.76079641728202
 20
-147.0197943425853
 30
0.0
 10
94.68259274976685
 20
-147.0197943425853
 30
0.0
 10
94.58096243295199
 20
-147.0029133747076
 30
0.0
 10
94.47933211613712
 20
-146.939523617779
 30
0.0
 10
94.30604381322905
 20
-146.8296250717995
 30
0.0
 10
94.2846842212205
 20
-146.6983669338115
 30
0.0
 10
94.26573619605162
 20
-146.5905354451232
 30
0.0
 10
94.26573619605162
 20
-146.5905354451232
 30
0.0
 10
94.48794485485024
 20
-146.5905354451232
 30
0.0
 10
94.48794485485024
 20
-146.5905354451232
 30
0.0
 10
94.54272187306572
 20
-146.7893174546221
 30
0.0
 10
94.66984589647143
 20
-146.8189452757953
 30
0.0
 10
94.76286347457318
 20
-146.8189452757953
 30
0.0
 10
94.90238984172579
 20
-146.8189452757953
 30
0.0
 10
95.05466306217384
 20
-146.7193820162715
 30
0.0
 10
95.05466306217384
 20
-146.4868380710172
 30
0.0
 10
95.05466306217384
 20
-146.2308674764631
 30
0.0
 10
94.8748290778438
 20
-146.1609320381125
 30
0.0
 10
94.75425073586005
 20
-146.1609320381125
 30
0.0
 10
94.72255585739576
 20
-146.1609320381125
 30
0.0
 10
94.58096243295199
 20
-146.1609320381125
 30
0.0
 10
94.49207896943254
 20
-146.2901231188094
 30
0.0
 10
94.49207896943254
 20
-146.2901231188094
 30
0.0
 10
94.3163790996848
 20
-146.2711750936406
 30
0.0
 10
94.3163790996848
 20
-146.2711750936406
 30
0.0
 10
94.3163790996848
 20
-146.2711750936406
 30
0.0
 10
94.43695744166854
 20
-145.4247151329147
 30
0.0
 10
94.43695744166854
 20
-145.4247151329147
 30
0.0
 10
94.43695744166854
 20
-145.4247151329147
 30
0.0
 10
95.21554902133501
 20
-145.4247151329147
 30
0.0
 10
95.21554902133501
 20
-145.4247151329147
 30
0.0
 10
95.21554902133501
 20
-145.4247151329147
 30
0.0
 10
95.21554902133501
 20
-145.6193630278313
 30
0.0
 10
95.21554902133501
 20
-145.6193630278313
 30
0.0
 10
95.21554902133501
 20
-145.6193630278313
 30
0.0
 10
94.59991045812086
 20
-145.6193630278313
 30
0.0
 10
94.59991045812086
 20
-145.6193630278313
 30
0.0
 10
94.59991045812086
 20
-145.6193630278313
 30
0.0
 10
94.53445364390112
 20
-146.0424207534199
 30
0.0
 10
94.53445364390112
 20
-146.0424207534199
 30
0.0
 10
94.59577634353856
 20
-146.0086588176645
 30
0.0
 10
94.67811412563603
 20
-145.9683512004871
 30
0.0
 10
94.79662541032863
 20
-145.9683512004871
 30
0.0
 10
95.05052894759154
 20
-145.9683512004871
 30
0.0
 10
95.28755151697673
 20
-146.1547308662391
 30
0.0
 10
95.28755151697673
 20
-146.4678900458483
 30
0.0
 10
95.28755151697673
 20
-146.7851833400398
 30
0.0
 10
95.06327580088697
 20
-147.0197943425853
 30
0.0
 10
94.76079641728202
 20
-147.0197943425853
 30
0.0
  0
HATCH
  5
115
330
10E
100
AcDbEntity
  8
_U+30EC_U+30A4_U+30E4_U+30FC 1
 62
   179
420
  2234388
100
AcDbHatch
 10
0.0
 20
0.0
 30
0.0
210
0.0
220
0.0
230
1.0
  2
SOLID
 70
     1
 71
     0
 91
        1
 92
        1
 93
        1
 72
     4
 94
        3
 73
     0
 74
     1
 95
       53
 96
       49
 40
0.0
 40
0.0
 40
0.0
 40
0.0
 40
1.0
 40
1.0
 40
1.0
 40
2.0
 40
2.0
 40
2.0
 40
3.0
 40
3.0
 40
3.0
 40
4.0
 40
4.0
 40
4.0
 40
5.0
 40
5.0
 40
5.0
 40
6.0
 40
6.0
 40
6.0
 40
7.0
 40
7.0
 40
7.0
 40
8.0
 40
8.0
 40
8.0
 40
9.0
 40
9.0
 40
9.0
 40
10.0
 40
10.0
 40
10.0
 40
11.0
 40
11.0
 40
11.0
 40
12.0
 40
12.0
 40
12.0
 40
13.0
 40
13.0
 40
13.0
 40
14.0
 40
14.0
 40
14.0
 40
15.0
 40
15.0
 40
15.0
 40
16.0
 40
16.0
 40
16.0
 40
16.0
 10
94.76079641728202
 20
-147.0197943425853
 10
94.68259274976685
 20
-147.0197943425853
 10
94.58096243295199
 20
-147.0029133747076
 10
94.47933211613712
 20
-146.939523617779
 10
94.30604381322905
 20
-146.8296250717995
 10
94.2846842212205
 20
-146.6983669338115
 10
94.26573619605162
 20
-146.5905354451232
 10
94.26573619605162
 20
-146.5905354451232
 10
94.48794485485024
 20
-146.5905354451232
 10
94.48794485485024
 20
-146.5905354451232
 10
94.54272187306572
 20
-146.7893174546221
 10
94.66984589647143
 20
-146.8189452757953
 10
94.76286347457318
 20
-146.8189452757953
 10
94.90238984172579
 20
-146.8189452757953
 10
95.05466306217384
 20
-146.7193820162715
 10
95.05466306217384
 20
-146.4868380710172
 10
95.05466306217384
 20
-146.2308674764631
 10
94.8748290778438
 20
-146.1609320381125
 10
94.75425073586005
 20
-146.1609320381125
 10
94.72255585739576
 20
-146.1609320381125
 10
94.58096243295199
 20
-146.1609320381125
 10
94.49207896943254
 20
-146.2901231188094
 10
94.49207896943254
 20
-146.2901231188094
 10
94.3163790996848
 20
-146.2711750936406
 10
94.3163790996848
 20
-146.2711750936406
 10
94.3163790996848
 20
-146.2711750936406
 10
94.43695744166854
 20
-145.4247151329147
 10
94.43695744166854
 20
-145.4247151329147
 10
94.43695744166854
 20
-145.4247151329147
 10
95.21554902133501
 20
-145.4247151329147
 10
95.21554902133501
 20
-145.4247151329147
 10
95.21554902133501
 20
-145.4247151329147
 10
95.21554902133501
 20
-145.6193630278313
 10
95.21554902133501
 20
-145.6193630278313
 10
95.21554902133501
 20
-145.6193630278313
 10
94.59991045812086
 20
-145.6193630278313
 10
94.59991045812086
 20
-145.6193630278313
 10
94.59991045812086
 20
-145.6193630278313
 10
94.53445364390112
 20
-146.0424207534199
 10
94.53445364390112
 20
-146.0424207534199
 10
94.59577634353856
 20
-146.0086588176645
 10
94.67811412563603
 20
-145.9683512004871
 10
94.79662541032863
 20
-145.9683512004871
 10
95.05052894759154
 20
-145.9683512004871
 10
95.28755151697673
 20
-146.1547308662391
 10
95.28755151697673
 20
-146.4678900458483
 10
95.28755151697673
 20
-146.7851833400398
 10
95.06327580088697
 20
-147.0197943425853
 10
94.76079641728202
 20
-147.0197943425853
 97
        0
 97
        0
 75
     2
 76
     1
 98
        0
  0
ENDBLK
  5
111
330
10E
100
AcDbEntity
  8
0
100
AcDbBlockEnd
  0
BLOCK
  5
118
330
116
100
AcDbEntity
  8
0
100
AcDbBlockBegin
  2
block 9
 70
     0
 10
0.0
 20
0.0
 30
0.0
  3
block 9
  1

  0
SPLINE
  5
11A
330
116
100
AcDbEntity
  8
_U+30EC_U+30A4_U+30E4_U+30FC 1
370
     0
100
AcDbSpline
210
0.0
220
0.0
230
1.0
 70
    11
 71
     3
 72
    62
 73
    58
 74
     0
 42
0.0000000001
 43
0.0000000001
 12
1.0
 22
0.0
 32
0.0
 13
1.0
 23
0.0
 33
0.0
 40
0.0
 40
0.0
 40
0.0
 40
0.0
 40
1.0
 40
1.0
 40
1.0
 40
2.0
 40
2.0
 40
2.0
 40
3.0
 40
3.0
 40
3.0
 40
4.0
 40
4.0
 40
4.0
 40
5.0
 40
5.0
 40
5.0
 40
6.0
 40
6.0
 40
6.0
 40
7.0
 40
7.0
 40
7.0
 40
8.0
 40
8.0
 40
8.0
 40
9.0
 40
9.0
 40
9.0
 40
10.0
 40
10.0
 40
10.0
 40
11.0
 40
11.0
 40
11.0
 40
12.0
 40
12.0
 40
12.0
 40
13.0
 40
13.0
 40
13.0
 40
14.0
 40
14.0
 40
14.0
 40
15.0
 40
15.0
 40
15.0
 40
16.0
 40
16.0
 40
16.0
 40
17.0
 40
17.0
 40
17.0
 40
18.0
 40
18.0
 40
18.0
 40
19.0
 40
19.0
 40
19.0
 40
19.0
 10
88.8853583219627
 20
-147.1083332965563
 30
0.0
 10
88.79010143179553
 20
-147.1083332965563
 30
0.0
 10
88.57219914235348
 20
-147.0873182140962
 30
0.0
 10
88.44748668578744
 20
-146.9012830578928
 30
0.0
 10
88.37341713285457
 20
-146.7889729450736
 30
0.0
 10
88.369110763498
 20
-146.6897541950984
 30
0.0
 10
88.3649766489157
 20
-146.6050048461613
 30
0.0
 10
88.3649766489157
 20
-146.6050048461613
 30
0.0
 10
88.58494599564891
 20
-146.6050048461613
 30
0.0
 10
88.58494599564891
 20
-146.6050048461613
 30
0.0
 10
88.58701305294005
 20
-146.6790743990941
 30
0.0
 10
88.59769284894433
 20
-146.9136854016396
 30
0.0
 10
88.8812242073804
 20
-146.9136854016396
 30
0.0
 10
89.01868351724185
 20
-146.9136854016396
 30
0.0
 10
89.1709567376899
 20
-146.8440944728376
 30
0.0
 10
89.1709567376899
 20
-146.6156846421655
 30
0.0
 10
89.1709567376899
 20
-146.4992404147641
 30
0.0
 10
89.1328884325779
 20
-146.4506645684221
 30
0.0
 10
89.10119355411359
 20
-146.4189696899578
 30
0.0
 10
89.02712400118072
 20
-146.3449001370249
 30
0.0
 10
88.91067977377928
 20
-146.3321532837295
 30
0.0
 10
88.85573050078955
 20
-146.3321532837295
 30
0.0
 10
88.83678247562067
 20
-146.3321532837295
 30
0.0
 10
88.8007812277998
 20
-146.3342203410206
 30
0.0
 10
88.77322046391781
 20
-146.3383544556029
 30
0.0
 10
88.77322046391781
 20
-146.3383544556029
 30
0.0
 10
88.77322046391781
 20
-146.1437065606863
 30
0.0
 10
88.77322046391781
 20
-146.1437065606863
 30
0.0
 10
88.81128876902982
 20
-146.1502522421083
 30
0.0
 10
88.85366344349839
 20
-146.1523192993994
 30
0.0
 10
88.8600368701461
 20
-146.1523192993994
 30
0.0
 10
88.92549368436585
 20
-146.1523192993994
 30
0.0
 10
89.12444794863903
 20
-146.1309597073909
 30
0.0
 10
89.12444794863903
 20
-145.8942816475542
 30
0.0
 10
89.12444794863903
 20
-145.7165147205153
 30
0.0
 10
88.99318981065102
 20
-145.6613931927513
 30
0.0
 10
88.88329126467154
 20
-145.6613931927513
 30
0.0
 10
88.61888018617861
 20
-145.6613931927513
 30
0.0
 10
88.61043970223976
 20
-145.8942816475542
 30
0.0
 10
88.60613333288319
 20
-145.9659396336474
 30
0.0
 10
88.60613333288319
 20
-145.9659396336474
 30
0.0
 10
88.40304495402772
 20
-145.9659396336474
 30
0.0
 10
88.40304495402772
 20
-145.9659396336474
 30
0.0
 10
88.41148543796658
 20
-145.8412271770814
 30
0.0
 10
88.43904620184857
 20
-145.4646782405435
 30
0.0
 10
88.89586586319271
 20
-145.4646782405435
 30
0.0
 10
89.12014157928247
 20
-145.4646782405435
 30
0.0
 10
89.36129826324996
 20
-145.5918022639493
 30
0.0
 10
89.36129826324996
 20
-145.8877359661322
 30
0.0
 10
89.36129826324996
 20
-146.0741156318843
 30
0.0
 10
89.26621362785706
 20
-146.1564534139817
 30
0.0
 10
89.16665036833334
 20
-146.2177761136192
 30
0.0
 10
89.22814532274505
 20
-146.2453368775012
 30
0.0
 10
89.41004636436624
 20
-146.3256076023075
 30
0.0
 10
89.41004636436624
 20
-146.6029377888701
 30
0.0
 10
89.41004636436624
 20
-146.9412461655216
 30
0.0
 10
89.16251625375104
 20
-147.1083332965563
 30
0.0
 10
88.8853583219627
 20
-147.1083332965563
 30
0.0
  0
HATCH
  5
11B
330
116
100
AcDbEntity
  8
_U+30EC_U+30A4_U+30E4_U+30FC 1
 62
   179
420
  2234388
100
AcDbHatch
 10
0.0
 20
0.0
 30
0.0
210
0.0
220
0.0
230
1.0
  2
SOLID
 70
     1
 71
     0
 91
        1
 92
        1
 93
        1
 72
     4
 94
        3
 73
     0
 74
     1
 95
       62
 96
       58
 40
0.0
 40
0.0
 40
0.0
 40
0.0
 40
1.0
 40
1.0
 40
1.0
 40
2.0
 40
2.0
 40
2.0
 40
3.0
 40
3.0
 40
3.0
 40
4.0
 40
4.0
 40
4.0
 40
5.0
 40
5.0
 40
5.0
 40
6.0
 40
6.0
 40
6.0
 40
7.0
 40
7.0
 40
7.0
 40
8.0
 40
8.0
 40
8.0
 40
9.0
 40
9.0
 40
9.0
 40
10.0
 40
10.0
 40
10.0
 40
11.0
 40
11.0
 40
11.0
 40
12.0
 40
12.0
 40
12.0
 40
13.0
 40
13.0
 40
13.0
 40
14.0
 40
14.0
 40
14.0
 40
15.0
 40
15.0
 40
15.0
 40
16.0
 40
16.0
 40
16.0
 40
17.0
 40
17.0
 40
17.0
 40
18.0
 40
18.0
 40
18.0
 40
19.0
 40
19.0
 40
19.0
 40
19.0
 10
88.8853583219627
 20
-147.1083332965563
 10
88.79010143179553
 20
-147.1083332965563
 10
88.57219914235348
 20
-147.0873182140962
 10
88.44748668578744
 20
-146.9012830578928
 10
88.37341713285457
 20
-146.7889729450736
 10
88.369110763498
 20
-146.6897541950984
 10
88.3649766489157
 20
-146.6050048461613
 10
88.3649766489157
 20
-146.6050048461613
 10
88.58494599564891
 20
-146.6050048461613
 10
88.58494599564891
 20
-146.6050048461613
 10
88.58701305294005
 20
-146.6790743990941
 10
88.59769284894433
 20
-146.9136854016396
 10
88.8812242073804
 20
-146.9136854016396
 10
89.01868351724185
 20
-146.9136854016396
 10
89.1709567376899
 20
-146.8440944728376
 10
89.1709567376899
 20
-146.6156846421655
 10
89.1709567376899
 20
-146.4992404147641
 10
89.1328884325779
 20
-146.4506645684221
 10
89.10119355411359
 20
-146.4189696899578
 10
89.02712400118072
 20
-146.3449001370249
 10
88.91067977377928
 20
-146.3321532837295
 10
88.85573050078955
 20
-146.3321532837295
 10
88.83678247562067
 20
-146.3321532837295
 10
88.8007812277998
 20
-146.3342203410206
 10
88.77322046391781
 20
-146.3383544556029
 10
88.77322046391781
 20
-146.3383544556029
 10
88.77322046391781
 20
-146.1437065606863
 10
88.77322046391781
 20
-146.1437065606863
 10
88.81128876902982
 20
-146.1502522421083
 10
88.85366344349839
 20
-146.1523192993994
 10
88.8600368701461
 20
-146.1523192993994
 10
88.92549368436585
 20
-146.1523192993994
 10
89.12444794863903
 20
-146.1309597073909
 10
89.12444794863903
 20
-145.8942816475542
 10
89.12444794863903
 20
-145.7165147205153
 10
88.99318981065102
 20
-145.6613931927513
 10
88.88329126467154
 20
-145.6613931927513
 10
88.61888018617861
 20
-145.6613931927513
 10
88.61043970223976
 20
-145.8942816475542
 10
88.60613333288319
 20
-145.9659396336474
 10
88.60613333288319
 20
-145.9659396336474
 10
88.40304495402772
 20
-145.9659396336474
 10
88.40304495402772
 20
-145.9659396336474
 10
88.41148543796658
 20
-145.8412271770814
 10
88.43904620184857
 20
-145.4646782405435
 10
88.89586586319271
 20
-145.4646782405435
 10
89.12014157928247
 20
-145.4646782405435
 10
89.36129826324996
 20
-145.5918022639493
 10
89.36129826324996
 20
-145.8877359661322
 10
89.36129826324996
 20
-146.0741156318843
 10
89.26621362785706
 20
-146.1564534139817
 10
89.16665036833334
 20
-146.2177761136192
 10
89.22814532274505
 20
-146.2453368775012
 10
89.41004636436624
 20
-146.3256076023075
 10
89.41004636436624
 20
-146.6029377888701
 10
89.41004636436624
 20
-146.9412461655216
 10
89.16251625375104
 20
-147.1083332965563
 10
88.8853583219627
 20
-147.1083332965563
 97
        0
 97
        0
 75
     2
 76
     1
 98
        0
  0
ENDBLK
  5
119
330
116
100
AcDbEntity
  8
0
100
AcDbBlockEnd
  0
BLOCK
  5
11E
330
11C
100
AcDbEntity
  8
0
100
AcDbBlockBegin
  2
block 10
 70
     0
 10
0.0
 20
0.0
 30
0.0
  3
block 10
  1

  0
SPLINE
  5
120
330
11C
100
AcDbEntity
  8
_U+30EC_U+30A4_U+30E4_U+30FC 1
370
     0
100
AcDbSpline
210
0.0
220
0.0
230
1.0
 70
    11
 71
     3
 72
    26
 73
    22
 74
     0
 42
0.0000000001
 43
0.0000000001
 12
1.0
 22
0.0
 32
0.0
 13
1.0
 23
0.0
 33
0.0
 40
0.0
 40
0.0
 40
0.0
 40
0.0
 40
1.0
 40
1.0
 40
1.0
 40
2.0
 40
2.0
 40
2.0
 40
3.0
 40
3.0
 40
3.0
 40
4.0
 40
4.0
 40
4.0
 40
5.0
 40
5.0
 40
5.0
 40
6.0
 40
6.0
 40
6.0
 40
7.0
 40
7.0
 40
7.0
 40
7.0
 10
83.26554631164889
 20
-146.9691514389522
 30
0.0
 10
83.26554631164889
 20
-146.9691514389522
 30
0.0
 10
83.26554631164889
 20
-145.8649983359296
 30
0.0
 10
83.26554631164889
 20
-145.8649983359296
 30
0.0
 10
83.26554631164889
 20
-145.8649983359296
 30
0.0
 10
82.93550616416196
 20
-145.8649983359296
 30
0.0
 10
82.93550616416196
 20
-145.8649983359296
 30
0.0
 10
82.93550616416196
 20
-145.8649983359296
 30
0.0
 10
82.93550616416196
 20
-145.7168592300638
 30
0.0
 10
82.93550616416196
 20
-145.7168592300638
 30
0.0
 10
83.26761336894005
 20
-145.7020453194773
 30
0.0
 10
83.31412215799092
 20
-145.5390923030249
 30
0.0
 10
83.34374997916407
 20
-145.4247151329147
 30
0.0
 10
83.34374997916407
 20
-145.4247151329147
 30
0.0
 10
83.48982202773865
 20
-145.4247151329147
 30
0.0
 10
83.48982202773865
 20
-145.4247151329147
 30
0.0
 10
83.48982202773865
 20
-145.4247151329147
 30
0.0
 10
83.48982202773865
 20
-146.9691514389522
 30
0.0
 10
83.48982202773865
 20
-146.9691514389522
 30
0.0
 10
83.48982202773865
 20
-146.9691514389522
 30
0.0
 10
83.26554631164889
 20
-146.9691514389522
 30
0.0
 10
83.26554631164889
 20
-146.9691514389522
 30
0.0
  0
HATCH
  5
121
330
11C
100
AcDbEntity
  8
_U+30EC_U+30A4_U+30E4_U+30FC 1
 62
   179
420
  2234388
100
AcDbHatch
 10
0.0
 20
0.0
 30
0.0
210
0.0
220
0.0
230
1.0
  2
SOLID
 70
     1
 71
     0
 91
        1
 92
        1
 93
        1
 72
     4
 94
        3
 73
     0
 74
     1
 95
       26
 96
       22
 40
0.0
 40
0.0
 40
0.0
 40
0.0
 40
1.0
 40
1.0
 40
1.0
 40
2.0
 40
2.0
 40
2.0
 40
3.0
 40
3.0
 40
3.0
 40
4.0
 40
4.0
 40
4.0
 40
5.0
 40
5.0
 40
5.0
 40
6.0
 40
6.0
 40
6.0
 40
7.0
 40
7.0
 40
7.0
 40
7.0
 10
83.26554631164889
 20
-146.9691514389522
 10
83.26554631164889
 20
-146.9691514389522
 10
83.26554631164889
 20
-145.8649983359296
 10
83.26554631164889
 20
-145.8649983359296
 10
83.26554631164889
 20
-145.8649983359296
 10
82.93550616416196
 20
-145.8649983359296
 10
82.93550616416196
 20
-145.8649983359296
 10
82.93550616416196
 20
-145.8649983359296
 10
82.93550616416196
 20
-145.7168592300638
 10
82.93550616416196
 20
-145.7168592300638
 10
83.26761336894005
 20
-145.7020453194773
 10
83.31412215799092
 20
-145.5390923030249
 10
83.34374997916407
 20
-145.4247151329147
 10
83.34374997916407
 20
-145.4247151329147
 10
83.48982202773865
 20
-145.4247151329147
 10
83.48982202773865
 20
-145.4247151329147
 10
83.48982202773865
 20
-145.4247151329147
 10
83.48982202773865
 20
-146.9691514389522
 10
83.48982202773865
 20
-146.9691514389522
 10
83.48982202773865
 20
-146.9691514389522
 10
83.26554631164889
 20
-146.9691514389522
 10
83.26554631164889
 20
-146.9691514389522
 97
        0
 97
        0
 75
     2
 76
     1
 98
        0
  0
POLYLINE
  5
122
330
11C
100
AcDbEntity
  8
_U+30EC_U+30A4_U+30E4_U+30FC 1
370
     0
100
AcDb2dPolyline
 66
     1
 10
0.0
 20
0.0
 30
0.0
  0
VERTEX
  5
123
330
122
100
AcDbEntity
  8
_U+30EC_U+30A4_U+30E4_U+30FC 1
370
     0
100
AcDbVertex
100
AcDb2dVertex
 10
84.82307398053035
 20
-146.6222303235875
 30
0.0
  0
VERTEX
  5
124
330
122
100
AcDbEntity
  8
_U+30EC_U+30A4_U+30E4_U+30FC 1
370
     0
100
AcDbVertex
100
AcDb2dVertex
 10
84.82307398053035
 20
-146.9691514389522
 30
0.0
  0
VERTEX
  5
125
330
122
100
AcDbEntity
  8
_U+30EC_U+30A4_U+30E4_U+30FC 1
370
     0
100
AcDbVertex
100
AcDb2dVertex
 10
84.60517169108829
 20
-146.9691514389522
 30
0.0
  0
VERTEX
  5
126
330
122
100
AcDbEntity
  8
_U+30EC_U+30A4_U+30E4_U+30FC 1
370
     0
100
AcDbVertex
100
AcDb2dVertex
 10
84.60517169108829
 20
-146.6222303235875
 30
0.0
  0
VERTEX
  5
127
330
122
100
AcDbEntity
  8
_U+30EC_U+30A4_U+30E4_U+30FC 1
370
     0
100
AcDbVertex
100
AcDb2dVertex
 10
83.94939776547099
 20
-146.6222303235875
 30
0.0
  0
VERTEX
  5
128
330
122
100
AcDbEntity
  8
_U+30EC_U+30A4_U+30E4_U+30FC 1
370
     0
100
AcDbVertex
100
AcDb2dVertex
 10
83.94939776547099
 20
-146.3979546074978
 30
0.0
  0
VERTEX
  5
129
330
122
100
AcDbEntity
  8
_U+30EC_U+30A4_U+30E4_U+30FC 1
370
     0
100
AcDbVertex
100
AcDb2dVertex
 10
84.62842608561373
 20
-145.4247151329147
 30
0.0
  0
VERTEX
  5
12A
330
122
100
AcDbEntity
  8
_U+30EC_U+30A4_U+30E4_U+30FC 1
370
     0
100
AcDbVertex
100
AcDb2dVertex
 10
84.82307398053035
 20
-145.4247151329147
 30
0.0
  0
VERTEX
  5
12B
330
122
100
AcDbEntity
  8
_U+30EC_U+30A4_U+30E4_U+30FC 1
370
     0
100
AcDbVertex
100
AcDb2dVertex
 10
84.82307398053035
 20
-146.4234483140886
 30
0.0
  0
VERTEX
  5
12C
330
122
100
AcDbEntity
  8
_U+30EC_U+30A4_U+30E4_U+30FC 1
370
     0
100
AcDbVertex
100
AcDb2dVertex
 10
85.03046872874239
 20
-146.4234483140886
 30
0.0
  0
VERTEX
  5
12D
330
122
100
AcDbEntity
  8
_U+30EC_U+30A4_U+30E4_U+30FC 1
370
     0
100
AcDbVertex
100
AcDb2dVertex
 10
85.03046872874239
 20
-146.6222303235875
 30
0.0
  0
VERTEX
  5
12E
330
122
100
AcDbEntity
  8
_U+30EC_U+30A4_U+30E4_U+30FC 1
370
     0
100
AcDbVertex
100
AcDb2dVertex
 10
84.82307398053035
 20
-146.6222303235875
 30
0.0
  0
SEQEND
  5
12F
330
122
100
AcDbEntity
  8
_U+30EC_U+30A4_U+30E4_U+30FC 1
370
     0
  0
POLYLINE
  5
130
330
11C
100
AcDbEntity
  8
_U+30EC_U+30A4_U+30E4_U+30FC 1
370
     0
100
AcDb2dPolyline
 66
     1
 10
0.0
 20
0.0
 30
0.0
  0
VERTEX
  5
131
330
130
100
AcDbEntity
  8
_U+30EC_U+30A4_U+30E4_U+30FC 1
370
     0
100
AcDbVertex
100
AcDb2dVertex
 10
84.60517169108829
 20
-145.767502133697
 30
0.0
  0
VERTEX
  5
132
330
130
100
AcDbEntity
  8
_U+30EC_U+30A4_U+30E4_U+30FC 1
370
     0
100
AcDbVertex
100
AcDb2dVertex
 10
84.14835202974416
 20
-146.4234483140886
 30
0.0
  0
VERTEX
  5
133
330
130
100
AcDbEntity
  8
_U+30EC_U+30A4_U+30E4_U+30FC 1
370
     0
100
AcDbVertex
100
AcDb2dVertex
 10
84.60517169108829
 20
-146.4234483140886
 30
0.0
  0
VERTEX
  5
134
330
130
100
AcDbEntity
  8
_U+30EC_U+30A4_U+30E4_U+30FC 1
370
     0
100
AcDbVertex
100
AcDb2dVertex
 10
84.60517169108829
 20
-145.767502133697
 30
0.0
  0
SEQEND
  5
135
330
130
100
AcDbEntity
  8
_U+30EC_U+30A4_U+30E4_U+30FC 1
370
     0
  0
HATCH
  5
136
330
11C
100
AcDbEntity
  8
_U+30EC_U+30A4_U+30E4_U+30FC 1
 62
   179
420
  2234388
100
AcDbHatch
 10
0.0
 20
0.0
 30
0.0
210
0.0
220
0.0
230
1.0
  2
SOLID
 70
     1
 71
     0
 91
        2
 92
        1
 93
       11
 72
     1
 10
84.82307398053035
 20
-146.6222303235875
 11
84.82307398053035
 21
-146.9691514389522
 72
     1
 10
84.82307398053035
 20
-146.9691514389522
 11
84.60517169108829
 21
-146.9691514389522
 72
     1
 10
84.60517169108829
 20
-146.9691514389522
 11
84.60517169108829
 21
-146.6222303235875
 72
     1
 10
84.60517169108829
 20
-146.6222303235875
 11
83.94939776547099
 21
-146.6222303235875
 72
     1
 10
83.94939776547099
 20
-146.6222303235875
 11
83.94939776547099
 21
-146.3979546074978
 72
     1
 10
83.94939776547099
 20
-146.3979546074978
 11
84.62842608561373
 21
-145.4247151329147
 72
     1
 10
84.62842608561373
 20
-145.4247151329147
 11
84.82307398053035
 21
-145.4247151329147
 72
     1
 10
84.82307398053035
 20
-145.4247151329147
 11
84.82307398053035
 21
-146.4234483140886
 72
     1
 10
84.82307398053035
 20
-146.4234483140886
 11
85.03046872874239
 21
-146.4234483140886
 72
     1
 10
85.03046872874239
 20
-146.4234483140886
 11
85.03046872874239
 21
-146.6222303235875
 72
     1
 10
85.03046872874239
 20
-146.6222303235875
 11
84.82307398053035
 21
-146.6222303235875
 97
        0
 92
        1
 93
        3
 72
     1
 10
84.60517169108829
 20
-145.767502133697
 11
84.14835202974416
 21
-146.4234483140886
 72
     1
 10
84.14835202974416
 20
-146.4234483140886
 11
84.60517169108829
 21
-146.4234483140886
 72
     1
 10
84.60517169108829
 20
-146.4234483140886
 11
84.60517169108829
 21
-145.767502133697
 97
        0
 75
     2
 76
     1
 98
        0
  0
ENDBLK
  5
11F
330
11C
100
AcDbEntity
  8
0
100
AcDbBlockEnd
  0
BLOCK
  5
139
330
137
100
AcDbEntity
  8
0
100
AcDbBlockBegin
  2
block 11
 70
     0
 10
0.0
 20
0.0
 30
0.0
  3
block 11
  1

  0
SPLINE
  5
13B
330
137
100
AcDbEntity
  8
_U+30EC_U+30A4_U+30E4_U+30FC 1
370
     0
100
AcDbSpline
210
0.0
220
0.0
230
1.0
 70
    11
 71
     3
 72
    53
 73
    49
 74
     0
 42
0.0000000001
 43
0.0000000001
 12
1.0
 22
0.0
 32
0.0
 13
1.0
 23
0.0
 33
0.0
 40
0.0
 40
0.0
 40
0.0
 40
0.0
 40
1.0
 40
1.0
 40
1.0
 40
2.0
 40
2.0
 40
2.0
 40
3.0
 40
3.0
 40
3.0
 40
4.0
 40
4.0
 40
4.0
 40
5.0
 40
5.0
 40
5.0
 40
6.0
 40
6.0
 40
6.0
 40
7.0
 40
7.0
 40
7.0
 40
8.0
 40
8.0
 40
8.0
 40
9.0
 40
9.0
 40
9.0
 40
10.0
 40
10.0
 40
10.0
 40
11.0
 40
11.0
 40
11.0
 40
12.0
 40
12.0
 40
12.0
 40
13.0
 40
13.0
 40
13.0
 40
14.0
 40
14.0
 40
14.0
 40
15.0
 40
15.0
 40
15.0
 40
16.0
 40
16.0
 40
16.0
 40
16.0
 10
70.64237194414497
 20
-133.2931558911559
 30
0.0
 10
70.64237194414497
 20
-133.3713595586711
 30
0.0
 10
70.62531872149297
 20
-133.4729898754859
 30
0.0
 10
70.56192896456439
 20
-133.5746201923008
 30
0.0
 10
70.45185816381066
 20
-133.7479084952089
 30
0.0
 10
70.3207722805969
 20
-133.7692680872174
 30
0.0
 10
70.21294079190858
 20
-133.7882161123863
 30
0.0
 10
70.21294079190858
 20
-133.7882161123863
 30
0.0
 10
70.21294079190858
 20
-133.5660074535877
 30
0.0
 10
70.21294079190858
 20
-133.5660074535877
 30
0.0
 10
70.41172280140749
 20
-133.5112304353722
 30
0.0
 10
70.44135062258064
 20
-133.3841064119665
 30
0.0
 10
70.44135062258064
 20
-133.2910888338647
 30
0.0
 10
70.44135062258064
 20
-133.1515624667121
 30
0.0
 10
70.34195961783118
 20
-132.9992892462641
 30
0.0
 10
70.10924341780256
 20
-132.9992892462641
 30
0.0
 10
69.85327282324849
 20
-132.9992892462641
 30
0.0
 10
69.78350963967218
 20
-133.1791232305941
 30
0.0
 10
69.78350963967218
 20
-133.2997015725778
 30
0.0
 10
69.78350963967218
 20
-133.3313964510422
 30
0.0
 10
69.78350963967218
 20
-133.4729898754859
 30
0.0
 10
69.91252846559479
 20
-133.5618733390054
 30
0.0
 10
69.91252846559479
 20
-133.5618733390054
 30
0.0
 10
69.89340818565165
 20
-133.7375732087531
 30
0.0
 10
69.89340818565165
 20
-133.7375732087531
 30
0.0
 10
69.89340818565165
 20
-133.7375732087531
 30
0.0
 10
69.0472927344743
 20
-133.6169948667694
 30
0.0
 10
69.0472927344743
 20
-133.6169948667694
 30
0.0
 10
69.0472927344743
 20
-133.6169948667694
 30
0.0
 10
69.0472927344743
 20
-132.8384032871029
 30
0.0
 10
69.0472927344743
 20
-132.8384032871029
 30
0.0
 10
69.0472927344743
 20
-132.8384032871029
 30
0.0
 10
69.24194062939091
 20
-132.8384032871029
 30
0.0
 10
69.24194062939091
 20
-132.8384032871029
 30
0.0
 10
69.24194062939091
 20
-132.8384032871029
 30
0.0
 10
69.24194062939091
 20
-133.4540418503171
 30
0.0
 10
69.24194062939091
 20
-133.4540418503171
 30
0.0
 10
69.24194062939091
 20
-133.4540418503171
 30
0.0
 10
69.66499835497959
 20
-133.5194986645368
 30
0.0
 10
69.66499835497959
 20
-133.5194986645368
 30
0.0
 10
69.63106416444988
 20
-133.4581759648993
 30
0.0
 10
69.59092880204672
 20
-133.3758381828019
 30
0.0
 10
69.59092880204672
 20
-133.2573268981093
 30
0.0
 10
69.59092880204672
 20
-133.0034233608464
 30
0.0
 10
69.77713621302446
 20
-132.7664007914612
 30
0.0
 10
70.09012313785942
 20
-132.7664007914612
 30
0.0
 10
70.40758868682519
 20
-132.7664007914612
 30
0.0
 10
70.64237194414497
 20
-132.9906765075509
 30
0.0
 10
70.64237194414497
 20
-133.2931558911559
 30
0.0
  0
HATCH
  5
13C
330
137
100
AcDbEntity
  8
_U+30EC_U+30A4_U+30E4_U+30FC 1
 62
   179
420
  2234388
100
AcDbHatch
 10
0.0
 20
0.0
 30
0.0
210
0.0
220
0.0
230
1.0
  2
SOLID
 70
     1
 71
     0
 91
        1
 92
        1
 93
        1
 72
     4
 94
        3
 73
     0
 74
     1
 95
       53
 96
       49
 40
0.0
 40
0.0
 40
0.0
 40
0.0
 40
1.0
 40
1.0
 40
1.0
 40
2.0
 40
2.0
 40
2.0
 40
3.0
 40
3.0
 40
3.0
 40
4.0
 40
4.0
 40
4.0
 40
5.0
 40
5.0
 40
5.0
 40
6.0
 40
6.0
 40
6.0
 40
7.0
 40
7.0
 40
7.0
 40
8.0
 40
8.0
 40
8.0
 40
9.0
 40
9.0
 40
9.0
 40
10.0
 40
10.0
 40
10.0
 40
11.0
 40
11.0
 40
11.0
 40
12.0
 40
12.0
 40
12.0
 40
13.0
 40
13.0
 40
13.0
 40
14.0
 40
14.0
 40
14.0
 40
15.0
 40
15.0
 40
15.0
 40
16.0
 40
16.0
 40
16.0
 40
16.0
 10
70.64237194414497
 20
-133.2931558911559
 10
70.64237194414497
 20
-133.3713595586711
 10
70.62531872149297
 20
-133.4729898754859
 10
70.56192896456439
 20
-133.5746201923008
 10
70.45185816381066
 20
-133.7479084952089
 10
70.3207722805969
 20
-133.7692680872174
 10
70.21294079190858
 20
-133.7882161123863
 10
70.21294079190858
 20
-133.7882161123863
 10
70.21294079190858
 20
-133.5660074535877
 10
70.21294079190858
 20
-133.5660074535877
 10
70.41172280140749
 20
-133.5112304353722
 10
70.44135062258064
 20
-133.3841064119665
 10
70.44135062258064
 20
-133.2910888338647
 10
70.44135062258064
 20
-133.1515624667121
 10
70.34195961783118
 20
-132.9992892462641
 10
70.10924341780256
 20
-132.9992892462641
 10
69.85327282324849
 20
-132.9992892462641
 10
69.78350963967218
 20
-133.1791232305941
 10
69.78350963967218
 20
-133.2997015725778
 10
69.78350963967218
 20
-133.3313964510422
 10
69.78350963967218
 20
-133.4729898754859
 10
69.91252846559479
 20
-133.5618733390054
 10
69.91252846559479
 20
-133.5618733390054
 10
69.89340818565165
 20
-133.7375732087531
 10
69.89340818565165
 20
-133.7375732087531
 10
69.89340818565165
 20
-133.7375732087531
 10
69.0472927344743
 20
-133.6169948667694
 10
69.0472927344743
 20
-133.6169948667694
 10
69.0472927344743
 20
-133.6169948667694
 10
69.0472927344743
 20
-132.8384032871029
 10
69.0472927344743
 20
-132.8384032871029
 10
69.0472927344743
 20
-132.8384032871029
 10
69.24194062939091
 20
-132.8384032871029
 10
69.24194062939091
 20
-132.8384032871029
 10
69.24194062939091
 20
-132.8384032871029
 10
69.24194062939091
 20
-133.4540418503171
 10
69.24194062939091
 20
-133.4540418503171
 10
69.24194062939091
 20
-133.4540418503171
 10
69.66499835497959
 20
-133.5194986645368
 10
69.66499835497959
 20
-133.5194986645368
 10
69.63106416444988
 20
-133.4581759648993
 10
69.59092880204672
 20
-133.3758381828019
 10
69.59092880204672
 20
-133.2573268981093
 10
69.59092880204672
 20
-133.0034233608464
 10
69.77713621302446
 20
-132.7664007914612
 10
70.09012313785942
 20
-132.7664007914612
 10
70.40758868682519
 20
-132.7664007914612
 10
70.64237194414497
 20
-132.9906765075509
 10
70.64237194414497
 20
-133.2931558911559
 97
        0
 97
        0
 75
     2
 76
     1
 98
        0
  0
SPLINE
  5
13D
330
137
100
AcDbEntity
  8
_U+30EC_U+30A4_U+30E4_U+30FC 1
370
     0
100
AcDbSpline
210
0.0
220
0.0
230
1.0
 70
    11
 71
     3
 72
    29
 73
    25
 74
     0
 42
0.0000000001
 43
0.0000000001
 12
1.0
 22
0.0
 32
0.0
 13
1.0
 23
0.0
 33
0.0
 40
0.0
 40
0.0
 40
0.0
 40
0.0
 40
1.0
 40
1.0
 40
1.0
 40
2.0
 40
2.0
 40
2.0
 40
3.0
 40
3.0
 40
3.0
 40
4.0
 40
4.0
 40
4.0
 40
5.0
 40
5.0
 40
5.0
 40
6.0
 40
6.0
 40
6.0
 40
7.0
 40
7.0
 40
7.0
 40
8.0
 40
8.0
 40
8.0
 40
8.0
 10
70.41378985869864
 20
-131.6994547196793
 30
0.0
 10
70.62325166420183
 20
-131.8076307179161
 30
0.0
 10
70.64237194414497
 20
-131.9809190208242
 30
0.0
 10
70.64237194414497
 20
-132.0973632482257
 30
0.0
 10
70.64237194414497
 20
-132.2582492073868
 30
0.0
 10
70.5958631550941
 20
-132.3998426318306
 30
0.0
 10
70.41378985869864
 20
-132.4949272672235
 30
0.0
 10
70.21914196378202
 20
-132.5986246413295
 30
0.0
 10
69.9822916491711
 20
-132.6175726664984
 30
0.0
 10
69.81933863271878
 20
-132.6175726664984
 30
0.0
 10
69.6755058962096
 20
-132.6175726664984
 30
0.0
 10
69.4238416710121
 20
-132.6006916986207
 30
0.0
 10
69.22488740673892
 20
-132.4949272672235
 30
0.0
 10
69.02179902788345
 20
-132.3870957785352
 30
0.0
 10
68.99854463335801
 20
-132.226209819374
 30
0.0
 10
68.99854463335801
 20
-132.0973632482257
 30
0.0
 10
68.99854463335801
 20
-131.9385443463557
 30
0.0
 10
69.04298636511773
 20
-131.7948838646207
 30
0.0
 10
69.22488740673892
 20
-131.6994547196793
 30
0.0
 10
69.41746824436439
 20
-131.6002359697041
 30
0.0
 10
69.64587807503645
 20
-131.5768093204044
 30
0.0
 10
69.81933863271878
 20
-131.5768093204044
 30
0.0
 10
69.99073213310996
 20
-131.5768093204044
 30
0.0
 10
70.22138127584743
 20
-131.598168912413
 30
0.0
 10
70.41378985869864
 20
-131.6994547196793
 30
0.0
  0
SPLINE
  5
13E
330
137
100
AcDbEntity
  8
_U+30EC_U+30A4_U+30E4_U+30FC 1
370
     0
100
AcDbSpline
210
0.0
220
0.0
230
1.0
 70
    11
 71
     3
 72
    17
 73
    13
 74
     0
 42
0.0000000001
 43
0.0000000001
 12
1.0
 22
0.0
 32
0.0
 13
1.0
 23
0.0
 33
0.0
 40
0.0
 40
0.0
 40
0.0
 40
0.0
 40
1.0
 40
1.0
 40
1.0
 40
2.0
 40
2.0
 40
2.0
 40
3.0
 40
3.0
 40
3.0
 40
4.0
 40
4.0
 40
4.0
 40
4.0
 10
69.19112547098347
 20
-132.0973632482257
 30
0.0
 10
69.19112547098347
 20
-132.3467881613578
 30
0.0
 10
69.47465682941953
 20
-132.3936414599571
 30
0.0
 10
69.81933863271878
 20
-132.3936414599571
 30
0.0
 10
70.1388712389757
 20
-132.3936414599571
 30
0.0
 10
70.44772404922836
 20
-132.357467957362
 30
0.0
 10
70.44772404922836
 20
-132.0973632482257
 30
0.0
 10
70.44772404922836
 20
-131.8496608828362
 30
0.0
 10
70.16625974808343
 20
-131.8010850364942
 30
0.0
 10
69.81933863271878
 20
-131.8010850364942
 30
0.0
 10
69.49997828123612
 20
-131.8010850364942
 30
0.0
 10
69.19112547098347
 20
-131.8393255963805
 30
0.0
 10
69.19112547098347
 20
-132.0973632482257
 30
0.0
  0
HATCH
  5
13F
330
137
100
AcDbEntity
  8
_U+30EC_U+30A4_U+30E4_U+30FC 1
 62
   179
420
  2234388
100
AcDbHatch
 10
0.0
 20
0.0
 30
0.0
210
0.0
220
0.0
230
1.0
  2
SOLID
 70
     1
 71
     0
 91
        2
 92
        1
 93
        1
 72
     4
 94
        3
 73
     0
 74
     1
 95
       29
 96
       25
 40
0.0
 40
0.0
 40
0.0
 40
0.0
 40
1.0
 40
1.0
 40
1.0
 40
2.0
 40
2.0
 40
2.0
 40
3.0
 40
3.0
 40
3.0
 40
4.0
 40
4.0
 40
4.0
 40
5.0
 40
5.0
 40
5.0
 40
6.0
 40
6.0
 40
6.0
 40
7.0
 40
7.0
 40
7.0
 40
8.0
 40
8.0
 40
8.0
 40
8.0
 10
70.41378985869864
 20
-131.6994547196793
 10
70.62325166420183
 20
-131.8076307179161
 10
70.64237194414497
 20
-131.9809190208242
 10
70.64237194414497
 20
-132.0973632482257
 10
70.64237194414497
 20
-132.2582492073868
 10
70.5958631550941
 20
-132.3998426318306
 10
70.41378985869864
 20
-132.4949272672235
 10
70.21914196378202
 20
-132.5986246413295
 10
69.9822916491711
 20
-132.6175726664984
 10
69.81933863271878
 20
-132.6175726664984
 10
69.6755058962096
 20
-132.6175726664984
 10
69.4238416710121
 20
-132.6006916986207
 10
69.22488740673892
 20
-132.4949272672235
 10
69.02179902788345
 20
-132.3870957785352
 10
68.99854463335801
 20
-132.226209819374
 10
68.99854463335801
 20
-132.0973632482257
 10
68.99854463335801
 20
-131.9385443463557
 10
69.04298636511773
 20
-131.7948838646207
 10
69.22488740673892
 20
-131.6994547196793
 10
69.41746824436439
 20
-131.6002359697041
 10
69.64587807503645
 20
-131.5768093204044
 10
69.81933863271878
 20
-131.5768093204044
 10
69.99073213310996
 20
-131.5768093204044
 10
70.22138127584743
 20
-131.598168912413
 10
70.41378985869864
 20
-131.6994547196793
 97
        0
 97
        0
 92
        1
 93
        1
 72
     4
 94
        3
 73
     0
 74
     1
 95
       17
 96
       13
 40
0.0
 40
0.0
 40
0.0
 40
0.0
 40
1.0
 40
1.0
 40
1.0
 40
2.0
 40
2.0
 40
2.0
 40
3.0
 40
3.0
 40
3.0
 40
4.0
 40
4.0
 40
4.0
 40
4.0
 10
69.19112547098347
 20
-132.0973632482257
 10
69.19112547098347
 20
-132.3467881613578
 10
69.47465682941953
 20
-132.3936414599571
 10
69.81933863271878
 20
-132.3936414599571
 10
70.1388712389757
 20
-132.3936414599571
 10
70.44772404922836
 20
-132.357467957362
 10
70.44772404922836
 20
-132.0973632482257
 10
70.44772404922836
 20
-131.8496608828362
 10
70.16625974808343
 20
-131.8010850364942
 10
69.81933863271878
 20
-131.8010850364942
 10
69.49997828123612
 20
-131.8010850364942
 10
69.19112547098347
 20
-131.8393255963805
 10
69.19112547098347
 20
-132.0973632482257
 97
        0
 97
        0
 75
     2
 76
     1
 98
        0
  0
POLYLINE
  5
140
330
137
100
AcDbEntity
  8
_U+30EC_U+30A4_U+30E4_U+30FC 1
370
     0
100
AcDb2dPolyline
 66
     1
 10
0.0
 20
0.0
 30
0.0
  0
VERTEX
  5
141
330
140
100
AcDbEntity
  8
_U+30EC_U+30A4_U+30E4_U+30FC 1
370
     0
100
AcDbVertex
100
AcDb2dVertex
 10
70.59155678573752
 20
-131.3604573239307
 30
0.0
  0
VERTEX
  5
142
330
140
100
AcDbEntity
  8
_U+30EC_U+30A4_U+30E4_U+30FC 1
370
     0
100
AcDbVertex
100
AcDb2dVertex
 10
70.33989256054004
 20
-131.3604573239307
 30
0.0
  0
VERTEX
  5
143
330
140
100
AcDbEntity
  8
_U+30EC_U+30A4_U+30E4_U+30FC 1
370
     0
100
AcDbVertex
100
AcDb2dVertex
 10
70.33989256054004
 20
-131.108620843959
 30
0.0
  0
VERTEX
  5
144
330
140
100
AcDbEntity
  8
_U+30EC_U+30A4_U+30E4_U+30FC 1
370
     0
100
AcDbVertex
100
AcDb2dVertex
 10
70.59155678573752
 20
-131.108620843959
 30
0.0
  0
VERTEX
  5
145
330
140
100
AcDbEntity
  8
_U+30EC_U+30A4_U+30E4_U+30FC 1
370
     0
100
AcDbVertex
100
AcDb2dVertex
 10
70.59155678573752
 20
-131.3604573239307
 30
0.0
  0
SEQEND
  5
146
330
140
100
AcDbEntity
  8
_U+30EC_U+30A4_U+30E4_U+30FC 1
370
     0
  0
HATCH
  5
147
330
137
100
AcDbEntity
  8
_U+30EC_U+30A4_U+30E4_U+30FC 1
 62
   179
420
  2234388
100
AcDbHatch
 10
0.0
 20
0.0
 30
0.0
210
0.0
220
0.0
230
1.0
  2
SOLID
 70
     1
 71
     0
 91
        1
 92
        1
 93
        4
 72
     1
 10
70.59155678573752
 20
-131.3604573239307
 11
70.33989256054004
 21
-131.3604573239307
 72
     1
 10
70.33989256054004
 20
-131.3604573239307
 11
70.33989256054004
 21
-131.108620843959
 72
     1
 10
70.33989256054004
 20
-131.108620843959
 11
70.59155678573752
 21
-131.108620843959
 72
     1
 10
70.59155678573752
 20
-131.108620843959
 11
70.59155678573752
 21
-131.3604573239307
 97
        0
 75
     2
 76
     1
 98
        0
  0
SPLINE
  5
148
330
137
100
AcDbEntity
  8
_U+30EC_U+30A4_U+30E4_U+30FC 1
370
     0
100
AcDbSpline
210
0.0
220
0.0
230
1.0
 70
    11
 71
     3
 72
    44
 73
    40
 74
     0
 42
0.0000000001
 43
0.0000000001
 12
1.0
 22
0.0
 32
0.0
 13
1.0
 23
0.0
 33
0.0
 40
0.0
 40
0.0
 40
0.0
 40
0.0
 40
1.0
 40
1.0
 40
1.0
 40
2.0
 40
2.0
 40
2.0
 40
3.0
 40
3.0
 40
3.0
 40
4.0
 40
4.0
 40
4.0
 40
5.0
 40
5.0
 40
5.0
 40
6.0
 40
6.0
 40
6.0
 40
7.0
 40
7.0
 40
7.0
 40
8.0
 40
8.0
 40
8.0
 40
9.0
 40
9.0
 40
9.0
 40
10.0
 40
10.0
 40
10.0
 40
11.0
 40
11.0
 40
11.0
 40
12.0
 40
12.0
 40
12.0
 40
13.0
 40
13.0
 40
13.0
 40
13.0
 10
70.0098524130531
 20
-130.2793863606593
 30
0.0
 10
70.16849906014885
 20
-130.4971163953271
 30
0.0
 10
70.24256861308172
 20
-130.5901339734289
 30
0.0
 10
70.3864013495909
 20
-130.6390543293194
 30
0.0
 10
70.3864013495909
 20
-130.6390543293194
 30
0.0
 10
70.3864013495909
 20
-129.860462749653
 30
0.0
 10
70.3864013495909
 20
-129.860462749653
 30
0.0
 10
70.3864013495909
 20
-129.860462749653
 30
0.0
 10
70.59155678573752
 20
-129.860462749653
 30
0.0
 10
70.59155678573752
 20
-129.860462749653
 30
0.0
 10
70.59155678573752
 20
-129.860462749653
 30
0.0
 10
70.59155678573752
 20
-130.8884792424515
 30
0.0
 10
70.59155678573752
 20
-130.8884792424515
 30
0.0
 10
70.2339558743686
 20
-130.8567843639872
 30
0.0
 10
70.15575220685342
 20
-130.7913275497675
 30
0.0
 10
69.85740693783079
 20
-130.4061658745165
 30
0.0
 10
69.65862492833188
 20
-130.1501952799624
 30
0.0
 10
69.59092880204672
 20
-130.0847384657427
 30
0.0
 10
69.45346949218525
 20
-130.0847384657427
 30
0.0
 10
69.33495820749265
 20
-130.0847384657427
 30
0.0
 10
69.20387232427889
 20
-130.1567409613844
 30
0.0
 10
69.20387232427889
 20
-130.3534559135922
 30
0.0
 10
69.20387232427889
 20
-130.6135606227286
 30
0.0
 10
69.43434921224211
 20
-130.6221733614417
 30
0.0
 10
69.55079343964356
 20
-130.626307476024
 30
0.0
 10
69.55079343964356
 20
-130.626307476024
 30
0.0
 10
69.55079343964356
 20
-130.8505831921138
 30
0.0
 10
69.55079343964356
 20
-130.8505831921138
 30
0.0
 10
69.4238416710121
 20
-130.8419704534006
 30
0.0
 10
69.31170381296721
 20
-130.8312906573964
 30
0.0
 10
69.19319252827462
 20
-130.75101993259
 30
0.0
 10
69.03247882388771
 20
-130.6411213866106
 30
0.0
 10
68.99854463335801
 20
-130.4547417208586
 30
0.0
 10
68.99854463335801
 20
-130.3386420030056
 30
0.0
 10
68.99854463335801
 20
-130.061311816443
 30
0.0
 10
69.18268498704461
 20
-129.853917068231
 30
0.0
 10
69.45553654947639
 20
-129.853917068231
 30
0.0
 10
69.68394638014846
 20
-129.853917068231
 30
0.0
 10
69.78350963967218
 20
-129.9703612956324
 30
0.0
 10
70.0098524130531
 20
-130.2793863606593
 30
0.0
  0
HATCH
  5
149
330
137
100
AcDbEntity
  8
_U+30EC_U+30A4_U+30E4_U+30FC 1
 62
   179
420
  2234388
100
AcDbHatch
 10
0.0
 20
0.0
 30
0.0
210
0.0
220
0.0
230
1.0
  2
SOLID
 70
     1
 71
     0
 91
        1
 92
        1
 93
        1
 72
     4
 94
        3
 73
     0
 74
     1
 95
       44
 96
       40
 40
0.0
 40
0.0
 40
0.0
 40
0.0
 40
1.0
 40
1.0
 40
1.0
 40
2.0
 40
2.0
 40
2.0
 40
3.0
 40
3.0
 40
3.0
 40
4.0
 40
4.0
 40
4.0
 40
5.0
 40
5.0
 40
5.0
 40
6.0
 40
6.0
 40
6.0
 40
7.0
 40
7.0
 40
7.0
 40
8.0
 40
8.0
 40
8.0
 40
9.0
 40
9.0
 40
9.0
 40
10.0
 40
10.0
 40
10.0
 40
11.0
 40
11.0
 40
11.0
 40
12.0
 40
12.0
 40
12.0
 40
13.0
 40
13.0
 40
13.0
 40
13.0
 10
70.0098524130531
 20
-130.2793863606593
 10
70.16849906014885
 20
-130.4971163953271
 10
70.24256861308172
 20
-130.5901339734289
 10
70.3864013495909
 20
-130.6390543293194
 10
70.3864013495909
 20
-130.6390543293194
 10
70.3864013495909
 20
-129.860462749653
 10
70.3864013495909
 20
-129.860462749653
 10
70.3864013495909
 20
-129.860462749653
 10
70.59155678573752
 20
-129.860462749653
 10
70.59155678573752
 20
-129.860462749653
 10
70.59155678573752
 20
-129.860462749653
 10
70.59155678573752
 20
-130.8884792424515
 10
70.59155678573752
 20
-130.8884792424515
 10
70.2339558743686
 20
-130.8567843639872
 10
70.15575220685342
 20
-130.7913275497675
 10
69.85740693783079
 20
-130.4061658745165
 10
69.65862492833188
 20
-130.1501952799624
 10
69.59092880204672
 20
-130.0847384657427
 10
69.45346949218525
 20
-130.0847384657427
 10
69.33495820749265
 20
-130.0847384657427
 10
69.20387232427889
 20
-130.1567409613844
 10
69.20387232427889
 20
-130.3534559135922
 10
69.20387232427889
 20
-130.6135606227286
 10
69.43434921224211
 20
-130.6221733614417
 10
69.55079343964356
 20
-130.626307476024
 10
69.55079343964356
 20
-130.626307476024
 10
69.55079343964356
 20
-130.8505831921138
 10
69.55079343964356
 20
-130.8505831921138
 10
69.4238416710121
 20
-130.8419704534006
 10
69.31170381296721
 20
-130.8312906573964
 10
69.19319252827462
 20
-130.75101993259
 10
69.03247882388771
 20
-130.6411213866106
 10
68.99854463335801
 20
-130.4547417208586
 10
68.99854463335801
 20
-130.3386420030056
 10
68.99854463335801
 20
-130.061311816443
 10
69.18268498704461
 20
-129.853917068231
 10
69.45553654947639
 20
-129.853917068231
 10
69.68394638014846
 20
-129.853917068231
 10
69.78350963967218
 20
-129.9703612956324
 10
70.0098524130531
 20
-130.2793863606593
 97
        0
 97
        0
 75
     2
 76
     1
 98
        0
  0
ENDBLK
  5
13A
330
137
100
AcDbEntity
  8
0
100
AcDbBlockEnd
  0
ENDSEC
  0
SECTION
  2
ENTITIES
  0
SPLINE
  5
41
330
1F
100
AcDbEntity
  8
_U+30EC_U+30A4_U+30E4_U+30FC 1
370
     0
100
AcDbSpline
210
0.0
220
0.0
230
1.0
 70
    11
 71
     3
 72
    77
 73
    73
 74
     0
 42
0.0000000001
 43
0.0000000001
 12
1.0
 22
0.0
 32
0.0
 13
1.0
 23
0.0
 33
0.0
 40
0.0
 40
0.0
 40
0.0
 40
0.0
 40
1.0
 40
1.0
 40
1.0
 40
2.0
 40
2.0
 40
2.0
 40
3.0
 40
3.0
 40
3.0
 40
4.0
 40
4.0
 40
4.0
 40
5.0
 40
5.0
 40
5.0
 40
6.0
 40
6.0
 40
6.0
 40
7.0
 40
7.0
 40
7.0
 40
8.0
 40
8.0
 40
8.0
 40
9.0
 40
9.0
 40
9.0
 40
10.0
 40
10.0
 40
10.0
 40
11.0
 40
11.0
 40
11.0
 40
12.0
 40
12.0
 40
12.0
 40
13.0
 40
13.0
 40
13.0
 40
14.0
 40
14.0
 40
14.0
 40
15.0
 40
15.0
 40
15.0
 40
16.0
 40
16.0
 40
16.0
 40
17.0
 40
17.0
 40
17.0
 40
18.0
 40
18.0
 40
18.0
 40
19.0
 40
19.0
 40
19.0
 40
20.0
 40
20.0
 40
20.0
 40
21.0
 40
21.0
 40
21.0
 40
22.0
 40
22.0
 40
22.0
 40
23.0
 40
23.0
 40
23.0
 40
24.0
 40
24.0
 40
24.0
 40
24.0
 10
108.5956158406061
 20
-117.0665891374001
 30
0.0
 10
108.5956158406061
 20
-117.0665891374001
 30
0.0
 10
89.66429076802892
 20
-117.0665891374001
 30
0.0
 10
89.66429076802892
 20
-117.0665891374001
 30
0.0
 10
89.51065831095559
 20
-117.0665891374001
 30
0.0
 10
89.35769160918426
 20
-117.1303008040507
 30
0.0
 10
89.24914188973136
 20
-117.2388505262459
 30
0.0
 10
89.13995717029468
 20
-117.3480352484406
 30
0.0
 10
89.0769157830141
 20
-117.5009996928469
 30
0.0
 10
89.0769157830141
 20
-117.6553399705861
 30
0.0
 10
89.0769157830141
 20
-117.6553399705861
 30
0.0
 10
89.0769157830141
 20
-127.0614891349012
 30
0.0
 10
89.0769157830141
 20
-127.0614891349012
 30
0.0
 10
89.0769157830141
 20
-127.0614891349012
 30
0.0
 10
79.66970852301196
 20
-127.0614891349012
 30
0.0
 10
79.66970852301196
 20
-127.0614891349012
 30
0.0
 10
79.51607380470928
 20
-127.0614891349012
 30
0.0
 10
79.36310936416729
 20
-127.1252360793297
 30
0.0
 10
79.2542421447225
 20
-127.2344560793025
 30
0.0
 10
79.14537492527771
 20
-127.3429705237199
 30
0.0
 10
79.08198076022836
 20
-127.4952294125707
 30
0.0
 10
79.08198076022836
 20
-127.6499224680876
 30
0.0
 10
79.08198076022836
 20
-127.6499224680876
 30
0.0
 10
79.08198076022836
 20
-146.5812480189103
 30
0.0
 10
79.08198076022836
 20
-146.5812480189103
 30
0.0
 10
79.08198076022836
 20
-146.5812480189103
 30
0.0
 10
79.7875362977837
 20
-146.5812480189103
 30
0.0
 10
79.7875362977837
 20
-146.5812480189103
 30
0.0
 10
79.7875362977837
 20
-146.5812480189103
 30
0.0
 10
79.7875362977837
 20
-127.7673974680581
 30
0.0
 10
79.7875362977837
 20
-127.7673974680581
 30
0.0
 10
79.7875362977837
 20
-127.7673974680581
 30
0.0
 10
89.0769157830141
 20
-127.7673974680581
 30
0.0
 10
89.0769157830141
 20
-127.7673974680581
 30
0.0
 10
89.0769157830141
 20
-127.7673974680581
 30
0.0
 10
89.0769157830141
 20
-135.8807571882522
 30
0.0
 10
89.0769157830141
 20
-135.8807571882522
 30
0.0
 10
89.0769157830141
 20
-135.8807571882522
 30
0.0
 10
88.01889997667301
 20
-135.8807571882522
 30
0.0
 10
88.01889997667301
 20
-135.8807571882522
 30
0.0
 10
88.01889997667301
 20
-135.8807571882522
 30
0.0
 10
88.01889997667301
 20
-136.5863127436314
 30
0.0
 10
88.01889997667301
 20
-136.5863127436314
 30
0.0
 10
88.01889997667301
 20
-136.5863127436314
 30
0.0
 10
89.78211854280066
 20
-136.5863127436314
 30
0.0
 10
89.78211854280066
 20
-136.5863127436314
 30
0.0
 10
89.78211854280066
 20
-136.5863127436314
 30
0.0
 10
89.78211854280066
 20
-127.7673974680581
 30
0.0
 10
89.78211854280066
 20
-127.7673974680581
 30
0.0
 10
89.78211854280066
 20
-127.7673974680581
 30
0.0
 10
98.60138886423854
 20
-127.7673974680581
 30
0.0
 10
98.60138886423854
 20
-127.7673974680581
 30
0.0
 10
98.60138886423854
 20
-127.7673974680581
 30
0.0
 10
98.60138886423854
 20
-126.003861357388
 30
0.0
 10
98.60138886423854
 20
-126.003861357388
 30
0.0
 10
98.60138886423854
 20
-126.003861357388
 30
0.0
 10
97.89583330885938
 20
-126.003861357388
 30
0.0
 10
97.89583330885938
 20
-126.003861357388
 30
0.0
 10
97.89583330885938
 20
-126.003861357388
 30
0.0
 10
97.89583330885938
 20
-127.0614891349012
 30
0.0
 10
97.89583330885938
 20
-127.0614891349012
 30
0.0
 10
97.89583330885938
 20
-127.0614891349012
 30
0.0
 10
89.78211854280066
 20
-127.0614891349012
 30
0.0
 10
89.78211854280066
 20
-127.0614891349012
 30
0.0
 10
89.78211854280066
 20
-127.0614891349012
 30
0.0
 10
89.78211854280066
 20
-117.7728149705566
 30
0.0
 10
89.78211854280066
 20
-117.7728149705566
 30
0.0
 10
89.78211854280066
 20
-117.7728149705566
 30
0.0
 10
108.5956158406061
 20
-117.7728149705566
 30
0.0
 10
108.5956158406061
 20
-117.7728149705566
 30
0.0
 10
108.5956158406061
 20
-117.7728149705566
 30
0.0
 10
108.5956158406061
 20
-117.0665891374001
 30
0.0
 10
108.5956158406061
 20
-117.0665891374001
 30
0.0
  0
HATCH
  5
42
330
1F
100
AcDbEntity
  8
_U+30EC_U+30A4_U+30E4_U+30FC 1
 62
   253
420
 10066329
100
AcDbHatch
 10
0.0
 20
0.0
 30
0.0
210
0.0
220
0.0
230
1.0
  2
SOLID
 70
     1
 71
     0
 91
        1
 92
        1
 93
        2
 72
     4
 94
        3
 73
     0
 74
     0
 95
       77
 96
       73
 40
0.0
 40
0.0
 40
0.0
 40
0.0
 40
0.3527777776895833
 40
0.3527777776895833
 40
0.3527777776895833
 40
0.7055555553791667
 40
0.7055555553791667
 40
0.7055555553791667
 40
1.05833333306875
 40
1.05833333306875
 40
1.05833333306875
 40
1.411111110758333
 40
1.411111110758333
 40
1.411111110758333
 40
1.763888888447917
 40
1.763888888447917
 40
1.763888888447917
 40
2.1166666661375
 40
2.1166666661375
 40
2.1166666661375
 40
2.469444443827083
 40
2.469444443827083
 40
2.469444443827083
 40
2.822222221516667
 40
2.822222221516667
 40
2.822222221516667
 40
3.17499999920625
 40
3.17499999920625
 40
3.17499999920625
 40
3.527777776895833
 40
3.527777776895833
 40
3.527777776895833
 40
3.880555554585417
 40
3.880555554585417
 40
3.880555554585417
 40
4.233333332275
 40
4.233333332275
 40
4.233333332275
 40
4.586111109964584
 40
4.586111109964584
 40
4.586111109964584
 40
4.938888887654167
 40
4.938888887654167
 40
4.938888887654167
 40
5.29166666534375
 40
5.29166666534375
 40
5.29166666534375
 40
5.644444443033334
 40
5.644444443033334
 40
5.644444443033334
 40
5.997222220722917
 40
5.997222220722917
 40
5.997222220722917
 40
6.349999998412501
 40
6.349999998412501
 40
6.349999998412501
 40
6.702777776102083
 40
6.702777776102083
 40
6.702777776102083
 40
7.055555553791667
 40
7.055555553791667
 40
7.055555553791667
 40
7.40833333148125
 40
7.40833333148125
 40
7.40833333148125
 40
7.761111109170834
 40
7.761111109170834
 40
7.761111109170834
 40
8.113888886860417
 40
8.113888886860417
 40
8.113888886860417
 40
8.46666666455
 40
8.46666666455
 40
8.46666666455
 40
8.46666666455
 10
108.5956158406061
 20
-117.0665891374001
 10
108.5956158406061
 20
-117.0665891374001
 10
89.66429076802892
 20
-117.0665891374001
 10
89.66429076802892
 20
-117.0665891374001
 10
89.51065831095559
 20
-117.0665891374001
 10
89.35769160918426
 20
-117.1303008040507
 10
89.24914188973136
 20
-117.2388505262459
 10
89.13995717029468
 20
-117.3480352484406
 10
89.0769157830141
 20
-117.5009996928469
 10
89.0769157830141
 20
-117.6553399705861
 10
89.0769157830141
 20
-117.6553399705861
 10
89.0769157830141
 20
-127.0614891349012
 10
89.0769157830141
 20
-127.0614891349012
 10
89.0769157830141
 20
-127.0614891349012
 10
79.66970852301196
 20
-127.0614891349012
 10
79.66970852301196
 20
-127.0614891349012
 10
79.51607380470928
 20
-127.0614891349012
 10
79.36310936416729
 20
-127.1252360793297
 10
79.2542421447225
 20
-127.2344560793025
 10
79.14537492527771
 20
-127.3429705237199
 10
79.08198076022836
 20
-127.4952294125707
 10
79.08198076022836
 20
-127.6499224680876
 10
79.08198076022836
 20
-127.6499224680876
 10
79.08198076022836
 20
-146.5812480189103
 10
79.08198076022836
 20
-146.5812480189103
 10
79.08198076022836
 20
-146.5812480189103
 10
79.7875362977837
 20
-146.5812480189103
 10
79.7875362977837
 20
-146.5812480189103
 10
79.7875362977837
 20
-146.5812480189103
 10
79.7875362977837
 20
-127.7673974680581
 10
79.7875362977837
 20
-127.7673974680581
 10
79.7875362977837
 20
-127.7673974680581
 10
89.0769157830141
 20
-127.7673974680581
 10
89.0769157830141
 20
-127.7673974680581
 10
89.0769157830141
 20
-127.7673974680581
 10
89.0769157830141
 20
-135.8807571882522
 10
89.0769157830141
 20
-135.8807571882522
 10
89.0769157830141
 20
-135.8807571882522
 10
88.01889997667301
 20
-135.8807571882522
 10
88.01889997667301
 20
-135.8807571882522
 10
88.01889997667301
 20
-135.8807571882522
 10
88.01889997667301
 20
-136.5863127436314
 10
88.01889997667301
 20
-136.5863127436314
 10
88.01889997667301
 20
-136.5863127436314
 10
89.78211854280066
 20
-136.5863127436314
 10
89.78211854280066
 20
-136.5863127436314
 10
89.78211854280066
 20
-136.5863127436314
 10
89.78211854280066
 20
-127.7673974680581
 10
89.78211854280066
 20
-127.7673974680581
 10
89.78211854280066
 20
-127.7673974680581
 10
98.60138886423854
 20
-127.7673974680581
 10
98.60138886423854
 20
-127.7673974680581
 10
98.60138886423854
 20
-127.7673974680581
 10
98.60138886423854
 20
-126.003861357388
 10
98.60138886423854
 20
-126.003861357388
 10
98.60138886423854
 20
-126.003861357388
 10
97.89583330885938
 20
-126.003861357388
 10
97.89583330885938
 20
-126.003861357388
 10
97.89583330885938
 20
-126.003861357388
 10
97.89583330885938
 20
-127.0614891349012
 10
97.89583330885938
 20
-127.0614891349012
 10
97.89583330885938
 20
-127.0614891349012
 10
89.78211854280066
 20
-127.0614891349012
 10
89.78211854280066
 20
-127.0614891349012
 10
89.78211854280066
 20
-127.0614891349012
 10
89.78211854280066
 20
-117.7728149705566
 10
89.78211854280066
 20
-117.7728149705566
 10
89.78211854280066
 20
-117.7728149705566
 10
108.5956158406061
 20
-117.7728149705566
 10
108.5956158406061
 20
-117.7728149705566
 10
108.5956158406061
 20
-117.7728149705566
 10
108.5956158406061
 20
-117.0665891374001
 10
108.5956158406061
 20
-117.0665891374001
 97
        0
 72
     1
 10
108.5956158406061
 20
-117.0665891374001
 11
108.5956158406061
 21
-117.0665891374001
 97
        0
 75
     2
 76
     1
 98
        0
  0
SPLINE
  5
43
330
1F
100
AcDbEntity
  8
_U+30EC_U+30A4_U+30E4_U+30FC 1
 62
     7
420
 16777215
370
    25
100
AcDbSpline
210
0.0
220
0.0
230
1.0
 70
    11
 71
     3
 72
    77
 73
    73
 74
     0
 42
0.0000000001
 43
0.0000000001
 12
1.0
 22
0.0
 32
0.0
 13
1.0
 23
0.0
 33
0.0
 40
0.0
 40
0.0
 40
0.0
 40
0.0
 40
1.0
 40
1.0
 40
1.0
 40
2.0
 40
2.0
 40
2.0
 40
3.0
 40
3.0
 40
3.0
 40
4.0
 40
4.0
 40
4.0
 40
5.0
 40
5.0
 40
5.0
 40
6.0
 40
6.0
 40
6.0
 40
7.0
 40
7.0
 40
7.0
 40
8.0
 40
8.0
 40
8.0
 40
9.0
 40
9.0
 40
9.0
 40
10.0
 40
10.0
 40
10.0
 40
11.0
 40
11.0
 40
11.0
 40
12.0
 40
12.0
 40
12.0
 40
13.0
 40
13.0
 40
13.0
 40
14.0
 40
14.0
 40
14.0
 40
15.0
 40
15.0
 40
15.0
 40
16.0
 40
16.0
 40
16.0
 40
17.0
 40
17.0
 40
17.0
 40
18.0
 40
18.0
 40
18.0
 40
19.0
 40
19.0
 40
19.0
 40
20.0
 40
20.0
 40
20.0
 40
21.0
 40
21.0
 40
21.0
 40
22.0
 40
22.0
 40
22.0
 40
23.0
 40
23.0
 40
23.0
 40
24.0
 40
24.0
 40
24.0
 40
24.0
 10
108.5956158406061
 20
-117.0665891374001
 30
0.0
 10
108.5956158406061
 20
-117.0665891374001
 30
0.0
 10
89.66429076802892
 20
-117.0665891374001
 30
0.0
 10
89.66429076802892
 20
-117.0665891374001
 30
0.0
 10
89.51065831095559
 20
-117.0665891374001
 30
0.0
 10
89.35769160918426
 20
-117.1303008040507
 30
0.0
 10
89.24914188973136
 20
-117.2388505262459
 30
0.0
 10
89.13995717029468
 20
-117.3480352484406
 30
0.0
 10
89.0769157830141
 20
-117.5009996928469
 30
0.0
 10
89.0769157830141
 20
-117.6553399705861
 30
0.0
 10
89.0769157830141
 20
-117.6553399705861
 30
0.0
 10
89.0769157830141
 20
-127.0614891349012
 30
0.0
 10
89.0769157830141
 20
-127.0614891349012
 30
0.0
 10
89.0769157830141
 20
-127.0614891349012
 30
0.0
 10
79.66970852301196
 20
-127.0614891349012
 30
0.0
 10
79.66970852301196
 20
-127.0614891349012
 30
0.0
 10
79.51607380470928
 20
-127.0614891349012
 30
0.0
 10
79.36310936416729
 20
-127.1252360793297
 30
0.0
 10
79.2542421447225
 20
-127.2344560793025
 30
0.0
 10
79.14537492527771
 20
-127.3429705237199
 30
0.0
 10
79.08198076022836
 20
-127.4952294125707
 30
0.0
 10
79.08198076022836
 20
-127.6499224680876
 30
0.0
 10
79.08198076022836
 20
-127.6499224680876
 30
0.0
 10
79.08198076022836
 20
-146.5812480189103
 30
0.0
 10
79.08198076022836
 20
-146.5812480189103
 30
0.0
 10
79.08198076022836
 20
-146.5812480189103
 30
0.0
 10
79.7875362977837
 20
-146.5812480189103
 30
0.0
 10
79.7875362977837
 20
-146.5812480189103
 30
0.0
 10
79.7875362977837
 20
-146.5812480189103
 30
0.0
 10
79.7875362977837
 20
-127.7673974680581
 30
0.0
 10
79.7875362977837
 20
-127.7673974680581
 30
0.0
 10
79.7875362977837
 20
-127.7673974680581
 30
0.0
 10
89.0769157830141
 20
-127.7673974680581
 30
0.0
 10
89.0769157830141
 20
-127.7673974680581
 30
0.0
 10
89.0769157830141
 20
-127.7673974680581
 30
0.0
 10
89.0769157830141
 20
-135.8807571882522
 30
0.0
 10
89.0769157830141
 20
-135.8807571882522
 30
0.0
 10
89.0769157830141
 20
-135.8807571882522
 30
0.0
 10
88.01889997667301
 20
-135.8807571882522
 30
0.0
 10
88.01889997667301
 20
-135.8807571882522
 30
0.0
 10
88.01889997667301
 20
-135.8807571882522
 30
0.0
 10
88.01889997667301
 20
-136.5863127436314
 30
0.0
 10
88.01889997667301
 20
-136.5863127436314
 30
0.0
 10
88.01889997667301
 20
-136.5863127436314
 30
0.0
 10
89.78211854280066
 20
-136.5863127436314
 30
0.0
 10
89.78211854280066
 20
-136.5863127436314
 30
0.0
 10
89.78211854280066
 20
-136.5863127436314
 30
0.0
 10
89.78211854280066
 20
-127.7673974680581
 30
0.0
 10
89.78211854280066
 20
-127.7673974680581
 30
0.0
 10
89.78211854280066
 20
-127.7673974680581
 30
0.0
 10
98.60138886423854
 20
-127.7673974680581
 30
0.0
 10
98.60138886423854
 20
-127.7673974680581
 30
0.0
 10
98.60138886423854
 20
-127.7673974680581
 30
0.0
 10
98.60138886423854
 20
-126.003861357388
 30
0.0
 10
98.60138886423854
 20
-126.003861357388
 30
0.0
 10
98.60138886423854
 20
-126.003861357388
 30
0.0
 10
97.89583330885938
 20
-126.003861357388
 30
0.0
 10
97.89583330885938
 20
-126.003861357388
 30
0.0
 10
97.89583330885938
 20
-126.003861357388
 30
0.0
 10
97.89583330885938
 20
-127.0614891349012
 30
0.0
 10
97.89583330885938
 20
-127.0614891349012
 30
0.0
 10
97.89583330885938
 20
-127.0614891349012
 30
0.0
 10
89.78211854280066
 20
-127.0614891349012
 30
0.0
 10
89.78211854280066
 20
-127.0614891349012
 30
0.0
 10
89.78211854280066
 20
-127.0614891349012
 30
0.0
 10
89.78211854280066
 20
-117.7728149705566
 30
0.0
 10
89.78211854280066
 20
-117.7728149705566
 30
0.0
 10
89.78211854280066
 20
-117.7728149705566
 30
0.0
 10
108.5956158406061
 20
-117.7728149705566
 30
0.0
 10
108.5956158406061
 20
-117.7728149705566
 30
0.0
 10
108.5956158406061
 20
-117.7728149705566
 30
0.0
 10
108.5956158406061
 20
-117.0665891374001
 30
0.0
 10
108.5956158406061
 20
-117.0665891374001
 30
0.0
  0
POLYLINE
  5
44
330
1F
100
AcDbEntity
  8
_U+30EC_U+30A4_U+30E4_U+30FC 1
 62
     7
420
 16777215
370
     9
100
AcDb2dPolyline
 66
     1
 10
0.0
 20
0.0
 30
0.0
  0
VERTEX
  5
45
330
44
100
AcDbEntity
  8
_U+30EC_U+30A4_U+30E4_U+30FC 1
 62
     7
420
 16777215
370
     9
100
AcDbVertex
100
AcDb2dVertex
 10
88.01787692114355
 20
-137.0224871879667
 30
0.0
  0
VERTEX
  5
46
330
44
100
AcDbEntity
  8
_U+30EC_U+30A4_U+30E4_U+30FC 1
 62
     7
420
 16777215
370
     9
100
AcDbVertex
100
AcDb2dVertex
 10
88.01787692114355
 20
-148.8171182961293
 30
0.0
  0
SEQEND
  5
47
330
44
100
AcDbEntity
  8
_U+30EC_U+30A4_U+30E4_U+30FC 1
 62
     7
420
 16777215
370
     9
  0
POLYLINE
  5
48
330
1F
100
AcDbEntity
  8
_U+30EC_U+30A4_U+30E4_U+30FC 1
 62
     7
420
 16777215
370
     9
100
AcDb2dPolyline
 66
     1
 10
0.0
 20
0.0
 30
0.0
  0
VERTEX
  5
49
330
48
100
AcDbEntity
  8
_U+30EC_U+30A4_U+30E4_U+30FC 1
 62
     7
420
 16777215
370
     9
100
AcDbVertex
100
AcDb2dVertex
 10
88.01787692114355
 20
-148.2286849629432
 30
0.0
  0
VERTEX
  5
4A
330
48
100
AcDbEntity
  8
_U+30EC_U+30A4_U+30E4_U+30FC 1
 62
     7
420
 16777215
370
     9
100
AcDbVertex
100
AcDb2dVertex
 10
89.78211854280066
 20
-148.2286849629432
 30
0.0
  0
SEQEND
  5
4B
330
48
100
AcDbEntity
  8
_U+30EC_U+30A4_U+30E4_U+30FC 1
 62
     7
420
 16777215
370
     9
  0
POLYLINE
  5
4C
330
1F
100
AcDbEntity
  8
_U+30EC_U+30A4_U+30E4_U+30FC 1
 62
     7
420
 16777215
370
     9
100
AcDb2dPolyline
 66
     1
 10
0.0
 20
0.0
 30
0.0
  0
VERTEX
  5
4D
330
4C
100
AcDbEntity
  8
_U+30EC_U+30A4_U+30E4_U+30FC 1
 62
     7
420
 16777215
370
     9
100
AcDbVertex
100
AcDb2dVertex
 10
89.78211854280066
 20
-137.0569182990689
 30
0.0
  0
VERTEX
  5
4E
330
4C
100
AcDbEntity
  8
_U+30EC_U+30A4_U+30E4_U+30FC 1
 62
     7
420
 16777215
370
     9
100
AcDbVertex
100
AcDb2dVertex
 10
89.78211854280066
 20
-148.8171182961293
 30
0.0
  0
SEQEND
  5
4F
330
4C
100
AcDbEntity
  8
_U+30EC_U+30A4_U+30E4_U+30FC 1
 62
     7
420
 16777215
370
     9
  0
POLYLINE
  5
50
330
1F
100
AcDbEntity
  8
_U+30EC_U+30A4_U+30E4_U+30FC 1
 62
     7
420
 16777215
370
     9
100
AcDb2dPolyline
 66
     1
 10
0.0
 20
0.0
 30
0.0
  0
VERTEX
  5
51
330
50
100
AcDbEntity
  8
_U+30EC_U+30A4_U+30E4_U+30FC 1
 62
     7
420
 16777215
370
     9
100
AcDbVertex
100
AcDb2dVertex
 10
79.7875362977837
 20
-147.0511480187929
 30
0.0
  0
VERTEX
  5
52
330
50
100
AcDbEntity
  8
_U+30EC_U+30A4_U+30E4_U+30FC 1
 62
     7
420
 16777215
370
     9
100
AcDbVertex
100
AcDb2dVertex
 10
79.7875362977837
 20
-148.8171182961293
 30
0.0
  0
SEQEND
  5
53
330
50
100
AcDbEntity
  8
_U+30EC_U+30A4_U+30E4_U+30FC 1
 62
     7
420
 16777215
370
     9
  0
POLYLINE
  5
54
330
1F
100
AcDbEntity
  8
_U+30EC_U+30A4_U+30E4_U+30FC 1
 62
     7
420
 16777215
370
     9
100
AcDb2dPolyline
 66
     1
 10
0.0
 20
0.0
 30
0.0
  0
VERTEX
  5
55
330
54
100
AcDbEntity
  8
_U+30EC_U+30A4_U+30E4_U+30FC 1
 62
     7
420
 16777215
370
     9
100
AcDbVertex
100
AcDb2dVertex
 10
79.7875362977837
 20
-148.2286849629432
 30
0.0
  0
VERTEX
  5
56
330
54
100
AcDbEntity
  8
_U+30EC_U+30A4_U+30E4_U+30FC 1
 62
     7
420
 16777215
370
     9
100
AcDbVertex
100
AcDb2dVertex
 10
88.01889997667301
 20
-148.2286849629432
 30
0.0
  0
SEQEND
  5
57
330
54
100
AcDbEntity
  8
_U+30EC_U+30A4_U+30E4_U+30FC 1
 62
     7
420
 16777215
370
     9
  0
SPLINE
  5
58
330
1F
100
AcDbEntity
  8
_U+30EC_U+30A4_U+30E4_U+30FC 1
370
     0
100
AcDbSpline
210
0.0
220
0.0
230
1.0
 70
     8
 71
     3
 72
    17
 73
    13
 74
     0
 42
0.0000000001
 43
0.0000000001
 12
1.0
 22
0.0
 32
0.0
 13
1.0
 23
0.0
 33
0.0
 40
0.0
 40
0.0
 40
0.0
 40
0.0
 40
1.0
 40
1.0
 40
1.0
 40
2.0
 40
2.0
 40
2.0
 40
3.0
 40
3.0
 40
3.0
 40
4.0
 40
4.0
 40
4.0
 40
4.0
 10
75.27790752394503
 20
-127.0163688571349
 30
0.0
 10
75.27790752394503
 20
-127.0428977460172
 30
0.0
 10
75.28894946810776
 20
-127.0683683015663
 30
0.0
 10
75.30754085652235
 20
-127.0873477460058
 30
0.0
 10
75.32546387005743
 20
-127.1059391348901
 30
0.0
 10
75.35163807761955
 20
-127.1169458015542
 30
0.0
 10
75.37781418806286
 20
-127.1169458015542
 30
0.0
 10
75.40402557628305
 20
-127.1169458015542
 30
0.0
 10
75.42949613118878
 20
-127.1059391348901
 30
0.0
 10
75.44879307514093
 20
-127.0873477460058
 30
0.0
 10
75.46671418579483
 20
-127.0683683015663
 30
0.0
 10
75.4777208521807
 20
-127.0428977460172
 30
0.0
 10
75.4777208521807
 20
-127.0163688571349
 30
0.0
  0
HATCH
  5
59
330
1F
100
AcDbEntity
  8
_U+30EC_U+30A4_U+30E4_U+30FC 1
 62
     7
420
 16777215
100
AcDbHatch
 10
0.0
 20
0.0
 30
0.0
210
0.0
220
0.0
230
1.0
  2
SOLID
 70
     1
 71
     0
 91
        1
 92
        1
 93
        2
 72
     4
 94
        3
 73
     0
 74
     0
 95
       17
 96
       13
 40
0.0
 40
0.0
 40
0.0
 40
0.0
 40
0.3527777776895833
 40
0.3527777776895833
 40
0.3527777776895833
 40
0.7055555553791667
 40
0.7055555553791667
 40
0.7055555553791667
 40
1.05833333306875
 40
1.05833333306875
 40
1.05833333306875
 40
1.411111110758333
 40
1.411111110758333
 40
1.411111110758333
 40
1.411111110758333
 10
75.27790752394503
 20
-127.0163688571349
 10
75.27790752394503
 20
-127.0428977460172
 10
75.28894946810776
 20
-127.0683683015663
 10
75.30754085652235
 20
-127.0873477460058
 10
75.32546387005743
 20
-127.1059391348901
 10
75.35163807761955
 20
-127.1169458015542
 10
75.37781418806286
 20
-127.1169458015542
 10
75.40402557628305
 20
-127.1169458015542
 10
75.42949613118878
 20
-127.1059391348901
 10
75.44879307514093
 20
-127.0873477460058
 10
75.46671418579483
 20
-127.0683683015663
 10
75.4777208521807
 20
-127.0428977460172
 10
75.4777208521807
 20
-127.0163688571349
 97
        0
 72
     1
 10
75.4777208521807
 20
-127.0163688571349
 11
75.27790752394503
 21
-127.0163688571349
 97
        0
 75
     2
 76
     1
 98
        0
  0
SPLINE
  5
5A
330
1F
100
AcDbEntity
  8
_U+30EC_U+30A4_U+30E4_U+30FC 1
 62
     7
420
 16777215
370
     9
100
AcDbSpline
210
0.0
220
0.0
230
1.0
 70
     8
 71
     3
 72
    17
 73
    13
 74
     0
 42
0.0000000001
 43
0.0000000001
 12
1.0
 22
0.0
 32
0.0
 13
1.0
 23
0.0
 33
0.0
 40
0.0
 40
0.0
 40
0.0
 40
0.0
 40
1.0
 40
1.0
 40
1.0
 40
2.0
 40
2.0
 40
2.0
 40
3.0
 40
3.0
 40
3.0
 40
4.0
 40
4.0
 40
4.0
 40
4.0
 10
75.27790752394503
 20
-127.0163688571349
 30
0.0
 10
75.27790752394503
 20
-127.0428977460172
 30
0.0
 10
75.28894946810776
 20
-127.0683683015663
 30
0.0
 10
75.30754085652235
 20
-127.0873477460058
 30
0.0
 10
75.32546387005743
 20
-127.1059391348901
 30
0.0
 10
75.35163807761955
 20
-127.1169458015542
 30
0.0
 10
75.37781418806286
 20
-127.1169458015542
 30
0.0
 10
75.40402557628305
 20
-127.1169458015542
 30
0.0
 10
75.42949613118878
 20
-127.1059391348901
 30
0.0
 10
75.44879307514093
 20
-127.0873477460058
 30
0.0
 10
75.46671418579483
 20
-127.0683683015663
 30
0.0
 10
75.4777208521807
 20
-127.0428977460172
 30
0.0
 10
75.4777208521807
 20
-127.0163688571349
 30
0.0
  0
POLYLINE
  5
5B
330
1F
100
AcDbEntity
  8
_U+30EC_U+30A4_U+30E4_U+30FC 1
 62
     7
420
 16777215
370
     9
100
AcDb2dPolyline
 66
     1
 10
0.0
 20
0.0
 30
0.0
  0
VERTEX
  5
5C
330
5B
100
AcDbEntity
  8
_U+30EC_U+30A4_U+30E4_U+30FC 1
 62
     7
420
 16777215
370
     9
100
AcDbVertex
100
AcDb2dVertex
 10
79.08198076022836
 20
-127.1796696904272
 30
0.0
  0
VERTEX
  5
5D
330
5B
100
AcDbEntity
  8
_U+30EC_U+30A4_U+30E4_U+30FC 1
 62
     7
420
 16777215
370
     9
100
AcDbVertex
100
AcDb2dVertex
 10
79.08198076022836
 20
-110.5639774723591
 30
0.0
  0
SEQEND
  5
5E
330
5B
100
AcDbEntity
  8
_U+30EC_U+30A4_U+30E4_U+30FC 1
 62
     7
420
 16777215
370
     9
  0
POLYLINE
  5
5F
330
1F
100
AcDbEntity
  8
_U+30EC_U+30A4_U+30E4_U+30FC 1
 62
     7
420
 16777215
370
     9
100
AcDb2dPolyline
 66
     1
 10
0.0
 20
0.0
 30
0.0
  0
VERTEX
  5
60
330
5F
100
AcDbEntity
  8
_U+30EC_U+30A4_U+30E4_U+30FC 1
 62
     7
420
 16777215
370
     9
100
AcDbVertex
100
AcDb2dVertex
 10
79.08198076022836
 20
-111.1520580277674
 30
0.0
  0
VERTEX
  5
61
330
5F
100
AcDbEntity
  8
_U+30EC_U+30A4_U+30E4_U+30FC 1
 62
     7
420
 16777215
370
     9
100
AcDbVertex
100
AcDb2dVertex
 10
108.5956158406061
 20
-111.1520580277674
 30
0.0
  0
SEQEND
  5
62
330
5F
100
AcDbEntity
  8
_U+30EC_U+30A4_U+30E4_U+30FC 1
 62
     7
420
 16777215
370
     9
  0
POLYLINE
  5
63
330
1F
100
AcDbEntity
  8
_U+30EC_U+30A4_U+30E4_U+30FC 1
 62
     7
420
 16777215
370
     9
100
AcDb2dPolyline
 66
     1
 10
0.0
 20
0.0
 30
0.0
  0
VERTEX
  5
64
330
63
100
AcDbEntity
  8
_U+30EC_U+30A4_U+30E4_U+30FC 1
 62
     7
420
 16777215
370
     9
100
AcDbVertex
100
AcDb2dVertex
 10
108.5956158406061
 20
-116.5966891375175
 30
0.0
  0
VERTEX
  5
65
330
63
100
AcDbEntity
  8
_U+30EC_U+30A4_U+30E4_U+30FC 1
 62
     7
420
 16777215
370
     9
100
AcDbVertex
100
AcDb2dVertex
 10
108.5956158406061
 20
-110.5639774723591
 30
0.0
  0
SEQEND
  5
66
330
63
100
AcDbEntity
  8
_U+30EC_U+30A4_U+30E4_U+30FC 1
 62
     7
420
 16777215
370
     9
  0
POLYLINE
  5
67
330
1F
100
AcDbEntity
  8
_U+30EC_U+30A4_U+30E4_U+30FC 1
 62
     7
420
 16777215
370
     9
100
AcDb2dPolyline
 66
     1
 10
0.0
 20
0.0
 30
0.0
  0
VERTEX
  5
68
330
67
100
AcDbEntity
  8
_U+30EC_U+30A4_U+30E4_U+30FC 1
 62
     7
420
 16777215
370
     9
100
AcDbVertex
100
AcDb2dVertex
 10
99.07128886412119
 20
-127.7673974680581
 30
0.0
  0
VERTEX
  5
69
330
67
100
AcDbEntity
  8
_U+30EC_U+30A4_U+30E4_U+30FC 1
 62
     7
420
 16777215
370
     9
100
AcDbVertex
100
AcDb2dVertex
 10
112.9936257284036
 20
-127.7673974680581
 30
0.0
  0
SEQEND
  5
6A
330
67
100
AcDbEntity
  8
_U+30EC_U+30A4_U+30E4_U+30FC 1
 62
     7
420
 16777215
370
     9
  0
POLYLINE
  5
6B
330
1F
100
AcDbEntity
  8
_U+30EC_U+30A4_U+30E4_U+30FC 1
 62
     7
420
 16777215
370
     9
100
AcDb2dPolyline
 66
     1
 10
0.0
 20
0.0
 30
0.0
  0
VERTEX
  5
6C
330
6B
100
AcDbEntity
  8
_U+30EC_U+30A4_U+30E4_U+30FC 1
 62
     7
420
 16777215
370
     9
100
AcDbVertex
100
AcDb2dVertex
 10
112.4051924100824
 20
-127.7673974680581
 30
0.0
  0
VERTEX
  5
6D
330
6B
100
AcDbEntity
  8
_U+30EC_U+30A4_U+30E4_U+30FC 1
 62
     7
420
 16777215
370
     9
100
AcDbVertex
100
AcDb2dVertex
 10
112.4051924100824
 20
-136.5863127436314
 30
0.0
  0
SEQEND
  5
6E
330
6B
100
AcDbEntity
  8
_U+30EC_U+30A4_U+30E4_U+30FC 1
 62
     7
420
 16777215
370
     9
  0
POLYLINE
  5
6F
330
1F
100
AcDbEntity
  8
_U+30EC_U+30A4_U+30E4_U+30FC 1
 62
     7
420
 16777215
370
     9
100
AcDb2dPolyline
 66
     1
 10
0.0
 20
0.0
 30
0.0
  0
VERTEX
  5
70
330
6F
100
AcDbEntity
  8
_U+30EC_U+30A4_U+30E4_U+30FC 1
 62
     7
420
 16777215
370
     9
100
AcDbVertex
100
AcDb2dVertex
 10
89.78211854280066
 20
-137.0569182990689
 30
0.0
  0
VERTEX
  5
71
330
6F
100
AcDbEntity
  8
_U+30EC_U+30A4_U+30E4_U+30FC 1
 62
     7
420
 16777215
370
     9
100
AcDbVertex
100
AcDb2dVertex
 10
89.78211854280066
 20
-148.8171182961293
 30
0.0
  0
SEQEND
  5
72
330
6F
100
AcDbEntity
  8
_U+30EC_U+30A4_U+30E4_U+30FC 1
 62
     7
420
 16777215
370
     9
  0
POLYLINE
  5
73
330
1F
100
AcDbEntity
  8
_U+30EC_U+30A4_U+30E4_U+30FC 1
 62
     7
420
 16777215
370
     9
100
AcDb2dPolyline
 66
     1
 10
0.0
 20
0.0
 30
0.0
  0
VERTEX
  5
74
330
73
100
AcDbEntity
  8
_U+30EC_U+30A4_U+30E4_U+30FC 1
 62
     7
420
 16777215
370
     9
100
AcDbVertex
100
AcDb2dVertex
 10
89.78211854280066
 20
-148.2286849629432
 30
0.0
  0
VERTEX
  5
75
330
73
100
AcDbEntity
  8
_U+30EC_U+30A4_U+30E4_U+30FC 1
 62
     7
420
 16777215
370
     9
100
AcDbVertex
100
AcDb2dVertex
 10
98.60068330868302
 20
-148.2286849629432
 30
0.0
  0
SEQEND
  5
76
330
73
100
AcDbEntity
  8
_U+30EC_U+30A4_U+30E4_U+30FC 1
 62
     7
420
 16777215
370
     9
  0
POLYLINE
  5
77
330
1F
100
AcDbEntity
  8
_U+30EC_U+30A4_U+30E4_U+30FC 1
 62
     7
420
 16777215
370
     9
100
AcDb2dPolyline
 66
     1
 10
0.0
 20
0.0
 30
0.0
  0
VERTEX
  5
78
330
77
100
AcDbEntity
  8
_U+30EC_U+30A4_U+30E4_U+30FC 1
 62
     7
420
 16777215
370
     9
100
AcDbVertex
100
AcDb2dVertex
 10
98.60068330868302
 20
-128.2376502457185
 30
0.0
  0
VERTEX
  5
79
330
77
100
AcDbEntity
  8
_U+30EC_U+30A4_U+30E4_U+30FC 1
 62
     7
420
 16777215
370
     9
100
AcDbVertex
100
AcDb2dVertex
 10
98.60068330868302
 20
-148.8171182961293
 30
0.0
  0
SEQEND
  5
7A
330
77
100
AcDbEntity
  8
_U+30EC_U+30A4_U+30E4_U+30FC 1
 62
     7
420
 16777215
370
     9
  0
POLYLINE
  5
7B
330
1F
100
AcDbEntity
  8
_U+30EC_U+30A4_U+30E4_U+30FC 1
 62
     7
420
 16777215
370
     9
100
AcDb2dPolyline
 66
     1
 10
0.0
 20
0.0
 30
0.0
  0
VERTEX
  5
7C
330
7B
100
AcDbEntity
  8
_U+30EC_U+30A4_U+30E4_U+30FC 1
 62
     7
420
 16777215
370
     9
100
AcDbVertex
100
AcDb2dVertex
 10
108.5956158406061
 20
-115.0791096934524
 30
0.0
  0
VERTEX
  5
7D
330
7B
100
AcDbEntity
  8
_U+30EC_U+30A4_U+30E4_U+30FC 1
 62
     7
420
 16777215
370
     9
100
AcDbVertex
100
AcDb2dVertex
 10
89.07621022747655
 20
-115.0791096934524
 30
0.0
  0
SEQEND
  5
7E
330
7B
100
AcDbEntity
  8
_U+30EC_U+30A4_U+30E4_U+30FC 1
 62
     7
420
 16777215
370
     9
  0
POLYLINE
  5
7F
330
1F
100
AcDbEntity
  8
_U+30EC_U+30A4_U+30E4_U+30FC 1
 62
     7
420
 16777215
370
     9
100
AcDb2dPolyline
 66
     1
 10
0.0
 20
0.0
 30
0.0
  0
VERTEX
  5
80
330
7F
100
AcDbEntity
  8
_U+30EC_U+30A4_U+30E4_U+30FC 1
 62
     7
420
 16777215
370
     9
100
AcDbVertex
100
AcDb2dVertex
 10
89.07621022747655
 20
-116.5966891375175
 30
0.0
  0
VERTEX
  5
81
330
7F
100
AcDbEntity
  8
_U+30EC_U+30A4_U+30E4_U+30FC 1
 62
     7
420
 16777215
370
     9
100
AcDbVertex
100
AcDb2dVertex
 10
89.07621022747655
 20
-114.491029138044
 30
0.0
  0
SEQEND
  5
82
330
7F
100
AcDbEntity
  8
_U+30EC_U+30A4_U+30E4_U+30FC 1
 62
     7
420
 16777215
370
     9
  0
POLYLINE
  5
83
330
1F
100
AcDbEntity
  8
_U+30EC_U+30A4_U+30E4_U+30FC 1
 62
     7
420
 16777215
370
     9
100
AcDb2dPolyline
 66
     1
 10
0.0
 20
0.0
 30
0.0
  0
VERTEX
  5
84
330
83
100
AcDbEntity
  8
_U+30EC_U+30A4_U+30E4_U+30FC 1
 62
     7
420
 16777215
370
     9
100
AcDbVertex
100
AcDb2dVertex
 10
90.25237130858129
 20
-136.5863127436314
 30
0.0
  0
VERTEX
  5
85
330
83
100
AcDbEntity
  8
_U+30EC_U+30A4_U+30E4_U+30FC 1
 62
     7
420
 16777215
370
     9
100
AcDbVertex
100
AcDb2dVertex
 10
112.9936257284036
 20
-136.5863127436314
 30
0.0
  0
SEQEND
  5
86
330
83
100
AcDbEntity
  8
_U+30EC_U+30A4_U+30E4_U+30FC 1
 62
     7
420
 16777215
370
     9
  0
POLYLINE
  5
87
330
1F
100
AcDbEntity
  8
_U+30EC_U+30A4_U+30E4_U+30FC 1
 62
     7
420
 16777215
370
     9
100
AcDb2dPolyline
 66
     1
 10
0.0
 20
0.0
 30
0.0
  0
VERTEX
  5
88
330
87
100
AcDbEntity
  8
_U+30EC_U+30A4_U+30E4_U+30FC 1
 62
     7
420
 16777215
370
     9
100
AcDbVertex
100
AcDb2dVertex
 10
99.07128886412119
 20
-126.003861357388
 30
0.0
  0
VERTEX
  5
89
330
87
100
AcDbEntity
  8
_U+30EC_U+30A4_U+30E4_U+30FC 1
 62
     7
420
 16777215
370
     9
100
AcDbVertex
100
AcDb2dVertex
 10
112.9936257284036
 20
-126.003861357388
 30
0.0
  0
SEQEND
  5
8A
330
87
100
AcDbEntity
  8
_U+30EC_U+30A4_U+30E4_U+30FC 1
 62
     7
420
 16777215
370
     9
  0
POLYLINE
  5
8B
330
1F
100
AcDbEntity
  8
_U+30EC_U+30A4_U+30E4_U+30FC 1
 62
     7
420
 16777215
370
     9
100
AcDb2dPolyline
 66
     1
 10
0.0
 20
0.0
 30
0.0
  0
VERTEX
  5
8C
330
8B
100
AcDbEntity
  8
_U+30EC_U+30A4_U+30E4_U+30FC 1
 62
     7
420
 16777215
370
     9
100
AcDbVertex
100
AcDb2dVertex
 10
112.4051924100824
 20
-126.003861357388
 30
0.0
  0
VERTEX
  5
8D
330
8B
100
AcDbEntity
  8
_U+30EC_U+30A4_U+30E4_U+30FC 1
 62
     7
420
 16777215
370
     9
100
AcDbVertex
100
AcDb2dVertex
 10
112.4051924100824
 20
-127.7673974680581
 30
0.0
  0
SEQEND
  5
8E
330
8B
100
AcDbEntity
  8
_U+30EC_U+30A4_U+30E4_U+30FC 1
 62
     7
420
 16777215
370
     9
  0
POLYLINE
  5
8F
330
1F
100
AcDbEntity
  8
_U+30EC_U+30A4_U+30E4_U+30FC 1
 62
     7
420
 16777215
370
     9
100
AcDb2dPolyline
 66
     1
 10
0.0
 20
0.0
 30
0.0
  0
VERTEX
  5
90
330
8F
100
AcDbEntity
  8
_U+30EC_U+30A4_U+30E4_U+30FC 1
 62
     7
420
 16777215
370
     9
100
AcDbVertex
100
AcDb2dVertex
 10
109.0662213841555
 20
-117.772497470557
 30
0.0
  0
VERTEX
  5
91
330
8F
100
AcDbEntity
  8
_U+30EC_U+30A4_U+30E4_U+30FC 1
 62
     7
420
 16777215
370
     9
100
AcDbVertex
100
AcDb2dVertex
 10
112.9936257284036
 20
-117.772497470557
 30
0.0
  0
SEQEND
  5
92
330
8F
100
AcDbEntity
  8
_U+30EC_U+30A4_U+30E4_U+30FC 1
 62
     7
420
 16777215
370
     9
  0
POLYLINE
  5
93
330
1F
100
AcDbEntity
  8
_U+30EC_U+30A4_U+30E4_U+30FC 1
 62
     7
420
 16777215
370
     9
100
AcDb2dPolyline
 66
     1
 10
0.0
 20
0.0
 30
0.0
  0
VERTEX
  5
94
330
93
100
AcDbEntity
  8
_U+30EC_U+30A4_U+30E4_U+30FC 1
 62
     7
420
 16777215
370
     9
100
AcDbVertex
100
AcDb2dVertex
 10
112.4051924100824
 20
-117.772497470557
 30
0.0
  0
VERTEX
  5
95
330
93
100
AcDbEntity
  8
_U+30EC_U+30A4_U+30E4_U+30FC 1
 62
     7
420
 16777215
370
     9
100
AcDbVertex
100
AcDb2dVertex
 10
112.4051924100824
 20
-126.003861357388
 30
0.0
  0
SEQEND
  5
96
330
93
100
AcDbEntity
  8
_U+30EC_U+30A4_U+30E4_U+30FC 1
 62
     7
420
 16777215
370
     9
  0
POLYLINE
  5
97
330
1F
100
AcDbEntity
  8
_U+30EC_U+30A4_U+30E4_U+30FC 1
 62
     7
420
 16777215
370
     9
100
AcDb2dPolyline
 66
     1
 10
0.0
 20
0.0
 30
0.0
  0
VERTEX
  5
98
330
97
100
AcDbEntity
  8
_U+30EC_U+30A4_U+30E4_U+30FC 1
 62
     7
420
 16777215
370
     9
100
AcDbVertex
100
AcDb2dVertex
 10
99.07128886412119
 20
-126.003861357388
 30
0.0
  0
VERTEX
  5
99
330
97
100
AcDbEntity
  8
_U+30EC_U+30A4_U+30E4_U+30FC 1
 62
     7
420
 16777215
370
     9
100
AcDbVertex
100
AcDb2dVertex
 10
112.9936257284036
 20
-126.003861357388
 30
0.0
  0
SEQEND
  5
9A
330
97
100
AcDbEntity
  8
_U+30EC_U+30A4_U+30E4_U+30FC 1
 62
     7
420
 16777215
370
     9
  0
POLYLINE
  5
9B
330
1F
100
AcDbEntity
  8
_U+30EC_U+30A4_U+30E4_U+30FC 1
 62
     7
420
 16777215
370
     9
100
AcDb2dPolyline
 66
     1
 10
0.0
 20
0.0
 30
0.0
  0
VERTEX
  5
9C
330
9B
100
AcDbEntity
  8
_U+30EC_U+30A4_U+30E4_U+30FC 1
 62
     7
420
 16777215
370
     9
100
AcDbVertex
100
AcDb2dVertex
 10
78.61137521667895
 20
-127.0614891349012
 30
0.0
  0
VERTEX
  5
9D
330
9B
100
AcDbEntity
  8
_U+30EC_U+30A4_U+30E4_U+30FC 1
 62
     7
420
 16777215
370
     9
100
AcDbVertex
100
AcDb2dVertex
 10
74.83555947967471
 20
-127.0614891349012
 30
0.0
  0
SEQEND
  5
9E
330
9B
100
AcDbEntity
  8
_U+30EC_U+30A4_U+30E4_U+30FC 1
 62
     7
420
 16777215
370
     9
  0
POLYLINE
  5
9F
330
1F
100
AcDbEntity
  8
_U+30EC_U+30A4_U+30E4_U+30FC 1
 62
     7
420
 16777215
370
     9
100
AcDb2dPolyline
 66
     1
 10
0.0
 20
0.0
 30
0.0
  0
VERTEX
  5
A0
330
9F
100
AcDbEntity
  8
_U+30EC_U+30A4_U+30E4_U+30FC 1
 62
     7
420
 16777215
370
     9
100
AcDbVertex
100
AcDb2dVertex
 10
75.42364002022708
 20
-127.0614891349012
 30
0.0
  0
VERTEX
  5
A1
330
9F
100
AcDbEntity
  8
_U+30EC_U+30A4_U+30E4_U+30FC 1
 62
     7
420
 16777215
370
     9
100
AcDbVertex
100
AcDb2dVertex
 10
75.42364002022708
 20
-146.5812480189103
 30
0.0
  0
SEQEND
  5
A2
330
9F
100
AcDbEntity
  8
_U+30EC_U+30A4_U+30E4_U+30FC 1
 62
     7
420
 16777215
370
     9
  0
SPLINE
  5
A3
330
1F
100
AcDbEntity
  8
_U+30EC_U+30A4_U+30E4_U+30FC 1
370
     0
100
AcDbSpline
210
0.0
220
0.0
230
1.0
 70
     8
 71
     3
 72
    17
 73
    13
 74
     0
 42
0.0000000001
 43
0.0000000001
 12
1.0
 22
0.0
 32
0.0
 13
1.0
 23
0.0
 33
0.0
 40
0.0
 40
0.0
 40
0.0
 40
0.0
 40
1.0
 40
1.0
 40
1.0
 40
2.0
 40
2.0
 40
2.0
 40
3.0
 40
3.0
 40
3.0
 40
4.0
 40
4.0
 40
4.0
 40
4.0
 10
75.4777208521807
 20
-127.0163688571349
 30
0.0
 10
75.4777208521807
 20
-126.9905102460302
 30
0.0
 10
75.46671418579483
 20
-126.9646869127034
 30
0.0
 10
75.44879307514093
 20
-126.9467658015968
 30
0.0
 10
75.42949613118878
 20
-126.9278216349347
 30
0.0
 10
75.40402557628305
 20
-126.9168149682707
 30
0.0
 10
75.37781418806286
 20
-126.9168149682707
 30
0.0
 10
75.35163807761955
 20
-126.9168149682707
 30
0.0
 10
75.3258166478352
 20
-126.9278216349347
 30
0.0
 10
75.30754085652235
 20
-126.9467658015968
 30
0.0
 10
75.28894946810776
 20
-126.9646869127034
 30
0.0
 10
75.27790752394503
 20
-126.9905102460302
 30
0.0
 10
75.27790752394503
 20
-127.0163688571349
 30
0.0
  0
HATCH
  5
A4
330
1F
100
AcDbEntity
  8
_U+30EC_U+30A4_U+30E4_U+30FC 1
 62
     7
420
 16777215
100
AcDbHatch
 10
0.0
 20
0.0
 30
0.0
210
0.0
220
0.0
230
1.0
  2
SOLID
 70
     1
 71
     0
 91
        1
 92
        1
 93
        2
 72
     4
 94
        3
 73
     0
 74
     0
 95
       17
 96
       13
 40
0.0
 40
0.0
 40
0.0
 40
0.0
 40
0.3527777776895833
 40
0.3527777776895833
 40
0.3527777776895833
 40
0.7055555553791667
 40
0.7055555553791667
 40
0.7055555553791667
 40
1.05833333306875
 40
1.05833333306875
 40
1.05833333306875
 40
1.411111110758333
 40
1.411111110758333
 40
1.411111110758333
 40
1.411111110758333
 10
75.4777208521807
 20
-127.0163688571349
 10
75.4777208521807
 20
-126.9905102460302
 10
75.46671418579483
 20
-126.9646869127034
 10
75.44879307514093
 20
-126.9467658015968
 10
75.42949613118878
 20
-126.9278216349347
 10
75.40402557628305
 20
-126.9168149682707
 10
75.37781418806286
 20
-126.9168149682707
 10
75.35163807761955
 20
-126.9168149682707
 10
75.3258166478352
 20
-126.9278216349347
 10
75.30754085652235
 20
-126.9467658015968
 10
75.28894946810776
 20
-126.9646869127034
 10
75.27790752394503
 20
-126.9905102460302
 10
75.27790752394503
 20
-127.0163688571349
 97
        0
 72
     1
 10
75.27790752394503
 20
-127.0163688571349
 11
75.4777208521807
 21
-127.0163688571349
 97
        0
 75
     2
 76
     1
 98
        0
  0
SPLINE
  5
A5
330
1F
100
AcDbEntity
  8
_U+30EC_U+30A4_U+30E4_U+30FC 1
 62
     7
420
 16777215
370
     9
100
AcDbSpline
210
0.0
220
0.0
230
1.0
 70
     8
 71
     3
 72
    17
 73
    13
 74
     0
 42
0.0000000001
 43
0.0000000001
 12
1.0
 22
0.0
 32
0.0
 13
1.0
 23
0.0
 33
0.0
 40
0.0
 40
0.0
 40
0.0
 40
0.0
 40
1.0
 40
1.0
 40
1.0
 40
2.0
 40
2.0
 40
2.0
 40
3.0
 40
3.0
 40
3.0
 40
4.0
 40
4.0
 40
4.0
 40
4.0
 10
75.4777208521807
 20
-127.0163688571349
 30
0.0
 10
75.4777208521807
 20
-126.9905102460302
 30
0.0
 10
75.46671418579483
 20
-126.9646869127034
 30
0.0
 10
75.44879307514093
 20
-126.9467658015968
 30
0.0
 10
75.42949613118878
 20
-126.9278216349347
 30
0.0
 10
75.40402557628305
 20
-126.9168149682707
 30
0.0
 10
75.37781418806286
 20
-126.9168149682707
 30
0.0
 10
75.35163807761955
 20
-126.9168149682707
 30
0.0
 10
75.3258166478352
 20
-126.9278216349347
 30
0.0
 10
75.30754085652235
 20
-126.9467658015968
 30
0.0
 10
75.28894946810776
 20
-126.9646869127034
 30
0.0
 10
75.27790752394503
 20
-126.9905102460302
 30
0.0
 10
75.27790752394503
 20
-127.0163688571349
 30
0.0
  0
POLYLINE
  5
A6
330
1F
100
AcDbEntity
  8
_U+30EC_U+30A4_U+30E4_U+30FC 1
 62
     7
420
 16777215
370
     9
100
AcDb2dPolyline
 66
     1
 10
0.0
 20
0.0
 30
0.0
  0
VERTEX
  5
A7
330
A6
100
AcDbEntity
  8
_U+30EC_U+30A4_U+30E4_U+30FC 1
 62
     7
420
 16777215
370
     9
100
AcDbVertex
100
AcDb2dVertex
 10
78.61137521667895
 20
-146.5812480189103
 30
0.0
  0
VERTEX
  5
A8
330
A6
100
AcDbEntity
  8
_U+30EC_U+30A4_U+30E4_U+30FC 1
 62
     7
420
 16777215
370
     9
100
AcDbVertex
100
AcDb2dVertex
 10
74.83555947967471
 20
-146.5812480189103
 30
0.0
  0
SEQEND
  5
A9
330
A6
100
AcDbEntity
  8
_U+30EC_U+30A4_U+30E4_U+30FC 1
 62
     7
420
 16777215
370
     9
  0
POLYLINE
  5
AA
330
1F
100
AcDbEntity
  8
_U+30EC_U+30A4_U+30E4_U+30FC 1
 62
     7
420
 16777215
370
     9
100
AcDb2dPolyline
 66
     1
 10
0.0
 20
0.0
 30
0.0
  0
VERTEX
  5
AB
330
AA
100
AcDbEntity
  8
_U+30EC_U+30A4_U+30E4_U+30FC 1
 62
     7
420
 16777215
370
     9
100
AcDbVertex
100
AcDb2dVertex
 10
108.5956158406061
 20
-116.5966891375175
 30
0.0
  0
VERTEX
  5
AC
330
AA
100
AcDbEntity
  8
_U+30EC_U+30A4_U+30E4_U+30FC 1
 62
     7
420
 16777215
370
     9
100
AcDbVertex
100
AcDb2dVertex
 10
108.5956158406061
 20
-114.491029138044
 30
0.0
  0
SEQEND
  5
AD
330
AA
100
AcDbEntity
  8
_U+30EC_U+30A4_U+30E4_U+30FC 1
 62
     7
420
 16777215
370
     9
  0
INSERT
  5
AF
330
1F
100
AcDbEntity
  8
_U+30EC_U+30A4_U+30E4_U+30FC 1
100
AcDbBlockReference
  2
block 2
 10
0.0
 20
0.0
 30
0.0
  0
INSERT
  5
CA
330
1F
100
AcDbEntity
  8
_U+30EC_U+30A4_U+30E4_U+30FC 1
100
AcDbBlockReference
  2
block 3
 10
0.0
 20
0.0
 30
0.0
  0
INSERT
  5
DC
330
1F
100
AcDbEntity
  8
_U+30EC_U+30A4_U+30E4_U+30FC 1
100
AcDbBlockReference
  2
block 4
 10
0.0
 20
0.0
 30
0.0
  0
INSERT
  5
EE
330
1F
100
AcDbEntity
  8
_U+30EC_U+30A4_U+30E4_U+30FC 1
100
AcDbBlockReference
  2
block 5
 10
0.0
 20
0.0
 30
0.0
  0
INSERT
  5
101
330
1F
100
AcDbEntity
  8
_U+30EC_U+30A4_U+30E4_U+30FC 1
100
AcDbBlockReference
  2
block 6
 10
0.0
 20
0.0
 30
0.0
  0
INSERT
  5
109
330
1F
100
AcDbEntity
  8
_U+30EC_U+30A4_U+30E4_U+30FC 1
100
AcDbBlockReference
  2
block 7
 10
0.0
 20
0.0
 30
0.0
  0
INSERT
  5
10F
330
1F
100
AcDbEntity
  8
_U+30EC_U+30A4_U+30E4_U+30FC 1
100
AcDbBlockReference
  2
block 8
 10
0.0
 20
0.0
 30
0.0
  0
INSERT
  5
117
330
1F
100
AcDbEntity
  8
_U+30EC_U+30A4_U+30E4_U+30FC 1
100
AcDbBlockReference
  2
block 9
 10
0.0
 20
0.0
 30
0.0
  0
INSERT
  5
11D
330
1F
100
AcDbEntity
  8
_U+30EC_U+30A4_U+30E4_U+30FC 1
100
AcDbBlockReference
  2
block 10
 10
0.0
 20
0.0
 30
0.0
  0
INSERT
  5
138
330
1F
100
AcDbEntity
  8
_U+30EC_U+30A4_U+30E4_U+30FC 1
100
AcDbBlockReference
  2
block 11
 10
0.0
 20
0.0
 30
0.0
  0
POLYLINE
  5
14A
330
1F
100
AcDbEntity
  8
_U+30EC_U+30A4_U+30E4_U+30FC 1
 62
     7
420
 16777215
370
     9
100
AcDb2dPolyline
 66
     1
 10
0.0
 20
0.0
 30
0.0
  0
VERTEX
  5
14B
330
14A
100
AcDbEntity
  8
_U+30EC_U+30A4_U+30E4_U+30FC 1
 62
     7
420
 16777215
370
     9
100
AcDbVertex
100
AcDb2dVertex
 10
71.394953178563
 20
-117.0665891374001
 30
0.0
  0
VERTEX
  5
14C
330
14A
100
AcDbEntity
  8
_U+30EC_U+30A4_U+30E4_U+30FC 1
 62
     7
420
 16777215
370
     9
100
AcDbVertex
100
AcDb2dVertex
 10
71.394953178563
 20
-146.5812480189103
 30
0.0
  0
SEQEND
  5
14D
330
14A
100
AcDbEntity
  8
_U+30EC_U+30A4_U+30E4_U+30FC 1
 62
     7
420
 16777215
370
     9
  0
POLYLINE
  5
14E
330
1F
100
AcDbEntity
  8
_U+30EC_U+30A4_U+30E4_U+30FC 1
 62
     7
420
 16777215
370
     9
100
AcDb2dPolyline
 66
     1
 10
0.0
 20
0.0
 30
0.0
  0
VERTEX
  5
14F
330
14E
100
AcDbEntity
  8
_U+30EC_U+30A4_U+30E4_U+30FC 1
 62
     7
420
 16777215
370
     9
100
AcDbVertex
100
AcDb2dVertex
 10
89.19470828000897
 20
-117.0665891374001
 30
0.0
  0
VERTEX
  5
150
330
14E
100
AcDbEntity
  8
_U+30EC_U+30A4_U+30E4_U+30FC 1
 62
     7
420
 16777215
370
     9
100
AcDbVertex
100
AcDb2dVertex
 10
70.80757819354818
 20
-117.0665891374001
 30
0.0
  0
SEQEND
  5
151
330
14E
100
AcDbEntity
  8
_U+30EC_U+30A4_U+30E4_U+30FC 1
 62
     7
420
 16777215
370
     9
  0
POLYLINE
  5
152
330
1F
100
AcDbEntity
  8
_U+30EC_U+30A4_U+30E4_U+30FC 1
 62
     7
420
 16777215
370
     9
100
AcDb2dPolyline
 66
     1
 10
0.0
 20
0.0
 30
0.0
  0
VERTEX
  5
153
330
152
100
AcDbEntity
  8
_U+30EC_U+30A4_U+30E4_U+30FC 1
 62
     7
420
 16777215
370
     9
100
AcDbVertex
100
AcDb2dVertex
 10
78.61137521667895
 20
-146.5812480189103
 30
0.0
  0
VERTEX
  5
154
330
152
100
AcDbEntity
  8
_U+30EC_U+30A4_U+30E4_U+30FC 1
 62
     7
420
 16777215
370
     9
100
AcDbVertex
100
AcDb2dVertex
 10
70.80757819354818
 20
-146.5812480189103
 30
0.0
  0
SEQEND
  5
155
330
152
100
AcDbEntity
  8
_U+30EC_U+30A4_U+30E4_U+30FC 1
 62
     7
420
 16777215
370
     9
  0
SPLINE
  5
156
330
1F
100
AcDbEntity
  8
_U+30EC_U+30A4_U+30E4_U+30FC 1
370
     0
100
AcDbSpline
210
0.0
220
0.0
230
1.0
 70
    11
 71
     3
 72
    35
 73
    31
 74
     0
 42
0.0000000001
 43
0.0000000001
 12
1.0
 22
0.0
 32
0.0
 13
1.0
 23
0.0
 33
0.0
 40
0.0
 40
0.0
 40
0.0
 40
0.0
 40
1.0
 40
1.0
 40
1.0
 40
2.0
 40
2.0
 40
2.0
 40
3.0
 40
3.0
 40
3.0
 40
4.0
 40
4.0
 40
4.0
 40
5.0
 40
5.0
 40
5.0
 40
6.0
 40
6.0
 40
6.0
 40
7.0
 40
7.0
 40
7.0
 40
8.0
 40
8.0
 40
8.0
 40
9.0
 40
9.0
 40
9.0
 40
10.0
 40
10.0
 40
10.0
 40
10.0
 10
71.24819762675149
 20
-116.9366963596548
 30
0.0
 10
71.22957096056003
 20
-116.9553230263167
 30
0.0
 10
71.21891707194294
 20
-116.9814991374213
 30
0.0
 10
71.21891707194294
 20
-117.0073224707481
 30
0.0
 10
71.21891707194294
 20
-117.0334985818526
 30
0.0
 10
71.22957096056003
 20
-117.0593571929573
 30
0.0
 10
71.24819762675149
 20
-117.0779485818416
 30
0.0
 10
71.26714179293485
 20
-117.0968927485037
 30
0.0
 10
71.29264762561748
 20
-117.1075819151675
 30
0.0
 10
71.31917651382956
 20
-117.1075819151675
 30
0.0
 10
71.31917651382956
 20
-117.1075819151675
 30
0.0
 10
71.31917651382956
 20
-117.1075819151675
 30
0.0
 10
71.31917651382956
 20
-117.1075819151675
 30
0.0
 10
71.34499984650408
 20
-117.1075819151675
 30
0.0
 10
71.37117775993495
 20
-117.0968927485037
 30
0.0
 10
71.38976734536196
 20
-117.0779485818416
 30
0.0
 10
71.40839401155343
 20
-117.0593571929573
 30
0.0
 10
71.41908317794739
 20
-117.0334985818526
 30
0.0
 10
71.41908317794739
 20
-117.0073224707481
 30
0.0
 10
71.41908317794739
 20
-116.9807935818661
 30
0.0
 10
71.40839401155343
 20
-116.9553230263167
 30
0.0
 10
71.38976734536196
 20
-116.9366963596548
 30
0.0
 10
71.37117775993495
 20
-116.9181049707705
 30
0.0
 10
71.34499984650408
 20
-116.9074158041064
 30
0.0
 10
71.31917651382956
 20
-116.9074158041064
 30
0.0
 10
71.31917651382956
 20
-116.9074158041064
 30
0.0
 10
71.31917651382956
 20
-116.9074158041064
 30
0.0
 10
71.31917651382956
 20
-116.9074158041064
 30
0.0
 10
71.29264762561748
 20
-116.9074158041064
 30
0.0
 10
71.26714179293485
 20
-116.9181049707705
 30
0.0
 10
71.24819762675149
 20
-116.9366963596548
 30
0.0
  0
HATCH
  5
157
330
1F
100
AcDbEntity
  8
_U+30EC_U+30A4_U+30E4_U+30FC 1
 62
     7
420
 16777215
100
AcDbHatch
 10
0.0
 20
0.0
 30
0.0
210
0.0
220
0.0
230
1.0
  2
SOLID
 70
     1
 71
     0
 91
        1
 92
        1
 93
        1
 72
     4
 94
        3
 73
     0
 74
     1
 95
       35
 96
       31
 40
0.0
 40
0.0
 40
0.0
 40
0.0
 40
1.0
 40
1.0
 40
1.0
 40
2.0
 40
2.0
 40
2.0
 40
3.0
 40
3.0
 40
3.0
 40
4.0
 40
4.0
 40
4.0
 40
5.0
 40
5.0
 40
5.0
 40
6.0
 40
6.0
 40
6.0
 40
7.0
 40
7.0
 40
7.0
 40
8.0
 40
8.0
 40
8.0
 40
9.0
 40
9.0
 40
9.0
 40
10.0
 40
10.0
 40
10.0
 40
10.0
 10
71.24819762675149
 20
-116.9366963596548
 10
71.22957096056003
 20
-116.9553230263167
 10
71.21891707194294
 20
-116.9814991374213
 10
71.21891707194294
 20
-117.0073224707481
 10
71.21891707194294
 20
-117.0334985818526
 10
71.22957096056003
 20
-117.0593571929573
 10
71.24819762675149
 20
-117.0779485818416
 10
71.26714179293485
 20
-117.0968927485037
 10
71.29264762561748
 20
-117.1075819151675
 10
71.31917651382956
 20
-117.1075819151675
 10
71.31917651382956
 20
-117.1075819151675
 10
71.31917651382956
 20
-117.1075819151675
 10
71.31917651382956
 20
-117.1075819151675
 10
71.34499984650408
 20
-117.1075819151675
 10
71.37117775993495
 20
-117.0968927485037
 10
71.38976734536196
 20
-117.0779485818416
 10
71.40839401155343
 20
-117.0593571929573
 10
71.41908317794739
 20
-117.0334985818526
 10
71.41908317794739
 20
-117.0073224707481
 10
71.41908317794739
 20
-116.9807935818661
 10
71.40839401155343
 20
-116.9553230263167
 10
71.38976734536196
 20
-116.9366963596548
 10
71.37117775993495
 20
-116.9181049707705
 10
71.34499984650408
 20
-116.9074158041064
 10
71.31917651382956
 20
-116.9074158041064
 10
71.31917651382956
 20
-116.9074158041064
 10
71.31917651382956
 20
-116.9074158041064
 10
71.31917651382956
 20
-116.9074158041064
 10
71.29264762561748
 20
-116.9074158041064
 10
71.26714179293485
 20
-116.9181049707705
 10
71.24819762675149
 20
-116.9366963596548
 97
        0
 97
        0
 75
     2
 76
     1
 98
        0
  0
SPLINE
  5
158
330
1F
100
AcDbEntity
  8
_U+30EC_U+30A4_U+30E4_U+30FC 1
370
     0
100
AcDbSpline
210
0.0
220
0.0
230
1.0
 70
    11
 71
     3
 72
    29
 73
    25
 74
     0
 42
0.0000000001
 43
0.0000000001
 12
1.0
 22
0.0
 32
0.0
 13
1.0
 23
0.0
 33
0.0
 40
0.0
 40
0.0
 40
0.0
 40
0.0
 40
1.0
 40
1.0
 40
1.0
 40
2.0
 40
2.0
 40
2.0
 40
3.0
 40
3.0
 40
3.0
 40
4.0
 40
4.0
 40
4.0
 40
5.0
 40
5.0
 40
5.0
 40
6.0
 40
6.0
 40
6.0
 40
7.0
 40
7.0
 40
7.0
 40
8.0
 40
8.0
 40
8.0
 40
8.0
 10
78.98828298484102
 20
-111.1310324722173
 30
0.0
 10
78.98828298484102
 20
-111.1575613610996
 30
0.0
 10
78.9986193734662
 20
-111.1827144166487
 30
0.0
 10
79.01721076188079
 20
-111.2016585833108
 30
0.0
 10
79.03583742807224
 20
-111.2202499721951
 30
0.0
 10
79.06166076074678
 20
-111.2309391388589
 30
0.0
 10
79.08819164689459
 20
-111.2309391388589
 30
0.0
 10
79.11436575940216
 20
-111.2309391388589
 30
0.0
 10
79.14022436985356
 20
-111.2206027499725
 30
0.0
 10
79.15881575826815
 20
-111.2016585833108
 30
0.0
 10
79.17709164687251
 20
-111.1833846944264
 30
0.0
 10
79.18809631307668
 20
-111.1575613610996
 30
0.0
 10
79.18809631307668
 20
-111.1310324722173
 30
0.0
 10
79.18809631307668
 20
-111.1048563611127
 30
0.0
 10
79.17709164687251
 20
-111.078997750008
 30
0.0
 10
79.15881575826815
 20
-111.060053583346
 30
0.0
 10
79.14022436985356
 20
-111.0418149722394
 30
0.0
 10
79.11436575940216
 20
-111.0307730277979
 30
0.0
 10
79.08819164689459
 20
-111.0307730277979
 30
0.0
 10
79.06166076074678
 20
-111.0307730277979
 30
0.0
 10
79.03583742807224
 20
-111.0418149722394
 30
0.0
 10
79.01721076188079
 20
-111.060053583346
 30
0.0
 10
78.9986193734662
 20
-111.0786802500081
 30
0.0
 10
78.98828298484102
 20
-111.1048563611127
 30
0.0
 10
78.98828298484102
 20
-111.1310324722173
 30
0.0
  0
HATCH
  5
159
330
1F
100
AcDbEntity
  8
_U+30EC_U+30A4_U+30E4_U+30FC 1
 62
     7
420
 16777215
100
AcDbHatch
 10
0.0
 20
0.0
 30
0.0
210
0.0
220
0.0
230
1.0
  2
SOLID
 70
     1
 71
     0
 91
        1
 92
        1
 93
        1
 72
     4
 94
        3
 73
     0
 74
     1
 95
       29
 96
       25
 40
0.0
 40
0.0
 40
0.0
 40
0.0
 40
1.0
 40
1.0
 40
1.0
 40
2.0
 40
2.0
 40
2.0
 40
3.0
 40
3.0
 40
3.0
 40
4.0
 40
4.0
 40
4.0
 40
5.0
 40
5.0
 40
5.0
 40
6.0
 40
6.0
 40
6.0
 40
7.0
 40
7.0
 40
7.0
 40
8.0
 40
8.0
 40
8.0
 40
8.0
 10
78.98828298484102
 20
-111.1310324722173
 10
78.98828298484102
 20
-111.1575613610996
 10
78.9986193734662
 20
-111.1827144166487
 10
79.01721076188079
 20
-111.2016585833108
 10
79.03583742807224
 20
-111.2202499721951
 10
79.06166076074678
 20
-111.2309391388589
 10
79.08819164689459
 20
-111.2309391388589
 10
79.11436575940216
 20
-111.2309391388589
 10
79.14022436985356
 20
-111.2206027499725
 10
79.15881575826815
 20
-111.2016585833108
 10
79.17709164687251
 20
-111.1833846944264
 10
79.18809631307668
 20
-111.1575613610996
 10
79.18809631307668
 20
-111.1310324722173
 10
79.18809631307668
 20
-111.1048563611127
 10
79.17709164687251
 20
-111.078997750008
 10
79.15881575826815
 20
-111.060053583346
 10
79.14022436985356
 20
-111.0418149722394
 10
79.11436575940216
 20
-111.0307730277979
 10
79.08819164689459
 20
-111.0307730277979
 10
79.06166076074678
 20
-111.0307730277979
 10
79.03583742807224
 20
-111.0418149722394
 10
79.01721076188079
 20
-111.060053583346
 10
78.9986193734662
 20
-111.0786802500081
 10
78.98828298484102
 20
-111.1048563611127
 10
78.98828298484102
 20
-111.1310324722173
 97
        0
 97
        0
 75
     2
 76
     1
 98
        0
  0
SPLINE
  5
15A
330
1F
100
AcDbEntity
  8
_U+30EC_U+30A4_U+30E4_U+30FC 1
370
     0
100
AcDbSpline
210
0.0
220
0.0
230
1.0
 70
    11
 71
     3
 72
    35
 73
    31
 74
     0
 42
0.0000000001
 43
0.0000000001
 12
1.0
 22
0.0
 32
0.0
 13
1.0
 23
0.0
 33
0.0
 40
0.0
 40
0.0
 40
0.0
 40
0.0
 40
1.0
 40
1.0
 40
1.0
 40
2.0
 40
2.0
 40
2.0
 40
3.0
 40
3.0
 40
3.0
 40
4.0
 40
4.0
 40
4.0
 40
5.0
 40
5.0
 40
5.0
 40
6.0
 40
6.0
 40
6.0
 40
7.0
 40
7.0
 40
7.0
 40
8.0
 40
8.0
 40
8.0
 40
9.0
 40
9.0
 40
9.0
 40
10.0
 40
10.0
 40
10.0
 40
10.0
 10
89.02177661775416
 20
-115.0394927490179
 30
0.0
 10
89.00318522933958
 20
-115.0580841379022
 30
0.0
 10
88.99214328517684
 20
-115.0842602490068
 30
0.0
 10
88.99214328517684
 20
-115.1097660823337
 30
0.0
 10
88.99214328517684
 20
-115.136294971216
 30
0.0
 10
89.00318522933958
 20
-115.1624710823206
 30
0.0
 10
89.02177661775416
 20
-115.180744971205
 30
0.0
 10
89.04036800616873
 20
-115.1993363600889
 30
0.0
 10
89.06587383885136
 20
-115.2100255267531
 30
0.0
 10
89.09275550483223
 20
-115.2100255267531
 30
0.0
 10
89.09275550483223
 20
-115.2100255267531
 30
0.0
 10
89.09275550483223
 20
-115.2100255267531
 30
0.0
 10
89.09275550483223
 20
-115.2100255267531
 30
0.0
 10
89.11857883750675
 20
-115.2100255267531
 30
0.0
 10
89.14475494795005
 20
-115.1993363600889
 30
0.0
 10
89.16338161414151
 20
-115.180744971205
 30
0.0
 10
89.18197300255609
 20
-115.1624710823206
 30
0.0
 10
89.19230939118128
 20
-115.1359421934382
 30
0.0
 10
89.19230939118128
 20
-115.1097660823337
 30
0.0
 10
89.19230939118128
 20
-115.0839427490069
 30
0.0
 10
89.18197300255609
 20
-115.0580841379022
 30
0.0
 10
89.16338161414151
 20
-115.0394927490179
 30
0.0
 10
89.14475494795005
 20
-115.0209013601336
 30
0.0
 10
89.11857883750675
 20
-115.0102121934698
 30
0.0
 10
89.09275550483223
 20
-115.0102121934698
 30
0.0
 10
89.09275550483223
 20
-115.0102121934698
 30
0.0
 10
89.09275550483223
 20
-115.0102121934698
 30
0.0
 10
89.09275550483223
 20
-115.0102121934698
 30
0.0
 10
89.06587383885136
 20
-115.0102121934698
 30
0.0
 10
89.04036800616873
 20
-115.0209013601336
 30
0.0
 10
89.02177661775416
 20
-115.0394927490179
 30
0.0
  0
HATCH
  5
15B
330
1F
100
AcDbEntity
  8
_U+30EC_U+30A4_U+30E4_U+30FC 1
 62
     7
420
 16777215
100
AcDbHatch
 10
0.0
 20
0.0
 30
0.0
210
0.0
220
0.0
230
1.0
  2
SOLID
 70
     1
 71
     0
 91
        1
 92
        1
 93
        1
 72
     4
 94
        3
 73
     0
 74
     1
 95
       35
 96
       31
 40
0.0
 40
0.0
 40
0.0
 40
0.0
 40
1.0
 40
1.0
 40
1.0
 40
2.0
 40
2.0
 40
2.0
 40
3.0
 40
3.0
 40
3.0
 40
4.0
 40
4.0
 40
4.0
 40
5.0
 40
5.0
 40
5.0
 40
6.0
 40
6.0
 40
6.0
 40
7.0
 40
7.0
 40
7.0
 40
8.0
 40
8.0
 40
8.0
 40
9.0
 40
9.0
 40
9.0
 40
10.0
 40
10.0
 40
10.0
 40
10.0
 10
89.02177661775416
 20
-115.0394927490179
 10
89.00318522933958
 20
-115.0580841379022
 10
88.99214328517684
 20
-115.0842602490068
 10
88.99214328517684
 20
-115.1097660823337
 10
88.99214328517684
 20
-115.136294971216
 10
89.00318522933958
 20
-115.1624710823206
 10
89.02177661775416
 20
-115.180744971205
 10
89.04036800616873
 20
-115.1993363600889
 10
89.06587383885136
 20
-115.2100255267531
 10
89.09275550483223
 20
-115.2100255267531
 10
89.09275550483223
 20
-115.2100255267531
 10
89.09275550483223
 20
-115.2100255267531
 10
89.09275550483223
 20
-115.2100255267531
 10
89.11857883750675
 20
-115.2100255267531
 10
89.14475494795005
 20
-115.1993363600889
 10
89.16338161414151
 20
-115.180744971205
 10
89.18197300255609
 20
-115.1624710823206
 10
89.19230939118128
 20
-115.1359421934382
 10
89.19230939118128
 20
-115.1097660823337
 10
89.19230939118128
 20
-115.0839427490069
 10
89.18197300255609
 20
-115.0580841379022
 10
89.16338161414151
 20
-115.0394927490179
 10
89.14475494795005
 20
-115.0209013601336
 10
89.11857883750675
 20
-115.0102121934698
 10
89.09275550483223
 20
-115.0102121934698
 10
89.09275550483223
 20
-115.0102121934698
 10
89.09275550483223
 20
-115.0102121934698
 10
89.09275550483223
 20
-115.0102121934698
 10
89.06587383885136
 20
-115.0102121934698
 10
89.04036800616873
 20
-115.0209013601336
 10
89.02177661775416
 20
-115.0394927490179
 97
        0
 97
        0
 75
     2
 76
     1
 98
        0
  0
SPLINE
  5
15C
330
1F
100
AcDbEntity
  8
_U+30EC_U+30A4_U+30E4_U+30FC 1
370
     0
100
AcDbSpline
210
0.0
220
0.0
230
1.0
 70
    11
 71
     3
 72
    29
 73
    25
 74
     0
 42
0.0000000001
 43
0.0000000001
 12
1.0
 22
0.0
 32
0.0
 13
1.0
 23
0.0
 33
0.0
 40
0.0
 40
0.0
 40
0.0
 40
0.0
 40
1.0
 40
1.0
 40
1.0
 40
2.0
 40
2.0
 40
2.0
 40
3.0
 40
3.0
 40
3.0
 40
4.0
 40
4.0
 40
4.0
 40
5.0
 40
5.0
 40
5.0
 40
6.0
 40
6.0
 40
6.0
 40
7.0
 40
7.0
 40
7.0
 40
8.0
 40
8.0
 40
8.0
 40
8.0
 10
108.5549405638661
 20
-111.1816560833158
 30
0.0
 10
108.5549405638661
 20
-111.2081849721981
 30
0.0
 10
108.5652769524913
 20
-111.2340435833027
 30
0.0
 10
108.5845738964434
 20
-111.2526349721867
 30
0.0
 10
108.6024950070973
 20
-111.2709088610711
 30
0.0
 10
108.6293766730782
 20
-111.2819155277352
 30
0.0
 10
108.6548499728361
 20
-111.2819155277352
 30
0.0
 10
108.6810586162041
 20
-111.2819155277352
 30
0.0
 10
108.7079050044081
 20
-111.2712616388489
 30
0.0
 10
108.725826115062
 20
-111.2526349721867
 30
0.0
 10
108.7444555283696
 20
-111.2340435833027
 30
0.0
 10
108.7554594476393
 20
-111.2081849721981
 30
0.0
 10
108.7554594476393
 20
-111.1820088610935
 30
0.0
 10
108.7554594476393
 20
-111.1558327499889
 30
0.0
 10
108.7444555283696
 20
-111.1296566388844
 30
0.0
 10
108.725826115062
 20
-111.1110299722222
 30
0.0
 10
108.7079050044081
 20
-111.0927913611157
 30
0.0
 10
108.6810586162041
 20
-111.0817494166741
 30
0.0
 10
108.6548499728361
 20
-111.0817494166741
 30
0.0
 10
108.6293766730782
 20
-111.0817494166741
 30
0.0
 10
108.6024950070973
 20
-111.0927913611157
 30
0.0
 10
108.5845738964434
 20
-111.1110299722222
 30
0.0
 10
108.5652769524913
 20
-111.1293038611066
 30
0.0
 10
108.5549405638661
 20
-111.1558327499889
 30
0.0
 10
108.5549405638661
 20
-111.1816560833158
 30
0.0
  0
HATCH
  5
15D
330
1F
100
AcDbEntity
  8
_U+30EC_U+30A4_U+30E4_U+30FC 1
 62
     7
420
 16777215
100
AcDbHatch
 10
0.0
 20
0.0
 30
0.0
210
0.0
220
0.0
230
1.0
  2
SOLID
 70
     1
 71
     0
 91
        1
 92
        1
 93
        1
 72
     4
 94
        3
 73
     0
 74
     1
 95
       29
 96
       25
 40
0.0
 40
0.0
 40
0.0
 40
0.0
 40
1.0
 40
1.0
 40
1.0
 40
2.0
 40
2.0
 40
2.0
 40
3.0
 40
3.0
 40
3.0
 40
4.0
 40
4.0
 40
4.0
 40
5.0
 40
5.0
 40
5.0
 40
6.0
 40
6.0
 40
6.0
 40
7.0
 40
7.0
 40
7.0
 40
8.0
 40
8.0
 40
8.0
 40
8.0
 10
108.5549405638661
 20
-111.1816560833158
 10
108.5549405638661
 20
-111.2081849721981
 10
108.5652769524913
 20
-111.2340435833027
 10
108.5845738964434
 20
-111.2526349721867
 10
108.6024950070973
 20
-111.2709088610711
 10
108.6293766730782
 20
-111.2819155277352
 10
108.6548499728361
 20
-111.2819155277352
 10
108.6810586162041
 20
-111.2819155277352
 10
108.7079050044081
 20
-111.2712616388489
 10
108.725826115062
 20
-111.2526349721867
 10
108.7444555283696
 20
-111.2340435833027
 10
108.7554594476393
 20
-111.2081849721981
 10
108.7554594476393
 20
-111.1820088610935
 10
108.7554594476393
 20
-111.1558327499889
 10
108.7444555283696
 20
-111.1296566388844
 10
108.725826115062
 20
-111.1110299722222
 10
108.7079050044081
 20
-111.0927913611157
 10
108.6810586162041
 20
-111.0817494166741
 10
108.6548499728361
 20
-111.0817494166741
 10
108.6293766730782
 20
-111.0817494166741
 10
108.6024950070973
 20
-111.0927913611157
 10
108.5845738964434
 20
-111.1110299722222
 10
108.5652769524913
 20
-111.1293038611066
 10
108.5549405638661
 20
-111.1558327499889
 10
108.5549405638661
 20
-111.1816560833158
 97
        0
 97
        0
 75
     2
 76
     1
 98
        0
  0
SPLINE
  5
15E
330
1F
100
AcDbEntity
  8
_U+30EC_U+30A4_U+30E4_U+30FC 1
370
     0
100
AcDbSpline
210
0.0
220
0.0
230
1.0
 70
    11
 71
     3
 72
    35
 73
    31
 74
     0
 42
0.0000000001
 43
0.0000000001
 12
1.0
 22
0.0
 32
0.0
 13
1.0
 23
0.0
 33
0.0
 40
0.0
 40
0.0
 40
0.0
 40
0.0
 40
1.0
 40
1.0
 40
1.0
 40
2.0
 40
2.0
 40
2.0
 40
3.0
 40
3.0
 40
3.0
 40
4.0
 40
4.0
 40
4.0
 40
5.0
 40
5.0
 40
5.0
 40
6.0
 40
6.0
 40
6.0
 40
7.0
 40
7.0
 40
7.0
 40
8.0
 40
8.0
 40
8.0
 40
9.0
 40
9.0
 40
9.0
 40
10.0
 40
10.0
 40
10.0
 40
10.0
 10
108.5591033415377
 20
-115.0077780268036
 30
0.0
 10
108.5404766753462
 20
-115.0264046934658
 30
0.0
 10
108.530140286721
 20
-115.0525808045703
 30
0.0
 10
108.530140286721
 20
-115.0791096934524
 30
0.0
 10
108.530140286721
 20
-115.1049330267792
 30
0.0
 10
108.5404766753462
 20
-115.1307916378838
 30
0.0
 10
108.5591033415377
 20
-115.1493830267681
 30
0.0
 10
108.5776947299522
 20
-115.1679744156524
 30
0.0
 10
108.6038708403955
 20
-115.1786635823165
 30
0.0
 10
108.6300469508388
 20
-115.1786635823165
 30
0.0
 10
108.6300469508388
 20
-115.1786635823165
 30
0.0
 10
108.6300469508388
 20
-115.1786635823165
 30
0.0
 10
108.6300469508388
 20
-115.1786635823165
 30
0.0
 10
108.6562610839472
 20
-115.1786635823165
 30
0.0
 10
108.6824344495023
 20
-115.1679744156524
 30
0.0
 10
108.7003583061584
 20
-115.1493830267681
 30
0.0
 10
108.7189469485708
 20
-115.1307916378838
 30
0.0
 10
108.7299536149567
 20
-115.1049330267792
 30
0.0
 10
108.7299536149567
 20
-115.0791096934524
 30
0.0
 10
108.7299536149567
 20
-115.0522280267926
 30
0.0
 10
108.7189469485708
 20
-115.0264046934658
 30
0.0
 10
108.7003583061584
 20
-115.0077780268036
 30
0.0
 10
108.6824344495023
 20
-114.9891866379193
 30
0.0
 10
108.6562610839472
 20
-114.9784974712555
 30
0.0
 10
108.6300469508388
 20
-114.9784974712555
 30
0.0
 10
108.6300469508388
 20
-114.9784974712555
 30
0.0
 10
108.6300469508388
 20
-114.9784974712555
 30
0.0
 10
108.6300469508388
 20
-114.9784974712555
 30
0.0
 10
108.6038708403955
 20
-114.9784974712555
 30
0.0
 10
108.5776947299522
 20
-114.9891866379193
 30
0.0
 10
108.5591033415377
 20
-115.0077780268036
 30
0.0
  0
HATCH
  5
15F
330
1F
100
AcDbEntity
  8
_U+30EC_U+30A4_U+30E4_U+30FC 1
 62
     7
420
 16777215
100
AcDbHatch
 10
0.0
 20
0.0
 30
0.0
210
0.0
220
0.0
230
1.0
  2
SOLID
 70
     1
 71
     0
 91
        1
 92
        1
 93
        1
 72
     4
 94
        3
 73
     0
 74
     1
 95
       35
 96
       31
 40
0.0
 40
0.0
 40
0.0
 40
0.0
 40
1.0
 40
1.0
 40
1.0
 40
2.0
 40
2.0
 40
2.0
 40
3.0
 40
3.0
 40
3.0
 40
4.0
 40
4.0
 40
4.0
 40
5.0
 40
5.0
 40
5.0
 40
6.0
 40
6.0
 40
6.0
 40
7.0
 40
7.0
 40
7.0
 40
8.0
 40
8.0
 40
8.0
 40
9.0
 40
9.0
 40
9.0
 40
10.0
 40
10.0
 40
10.0
 40
10.0
 10
108.5591033415377
 20
-115.0077780268036
 10
108.5404766753462
 20
-115.0264046934658
 10
108.530140286721
 20
-115.0525808045703
 10
108.530140286721
 20
-115.0791096934524
 10
108.530140286721
 20
-115.1049330267792
 10
108.5404766753462
 20
-115.1307916378838
 10
108.5591033415377
 20
-115.1493830267681
 10
108.5776947299522
 20
-115.1679744156524
 10
108.6038708403955
 20
-115.1786635823165
 10
108.6300469508388
 20
-115.1786635823165
 10
108.6300469508388
 20
-115.1786635823165
 10
108.6300469508388
 20
-115.1786635823165
 10
108.6300469508388
 20
-115.1786635823165
 10
108.6562610839472
 20
-115.1786635823165
 10
108.6824344495023
 20
-115.1679744156524
 10
108.7003583061584
 20
-115.1493830267681
 10
108.7189469485708
 20
-115.1307916378838
 10
108.7299536149567
 20
-115.1049330267792
 10
108.7299536149567
 20
-115.0791096934524
 10
108.7299536149567
 20
-115.0522280267926
 10
108.7189469485708
 20
-115.0264046934658
 10
108.7003583061584
 20
-115.0077780268036
 10
108.6824344495023
 20
-114.9891866379193
 10
108.6562610839472
 20
-114.9784974712555
 10
108.6300469508388
 20
-114.9784974712555
 10
108.6300469508388
 20
-114.9784974712555
 10
108.6300469508388
 20
-114.9784974712555
 10
108.6300469508388
 20
-114.9784974712555
 10
108.6038708403955
 20
-114.9784974712555
 10
108.5776947299522
 20
-114.9891866379193
 10
108.5591033415377
 20
-115.0077780268036
 97
        0
 97
        0
 75
     2
 76
     1
 98
        0
  0
SPLINE
  5
160
330
1F
100
AcDbEntity
  8
_U+30EC_U+30A4_U+30E4_U+30FC 1
370
     0
100
AcDbSpline
210
0.0
220
0.0
230
1.0
 70
    11
 71
     3
 72
    29
 73
    25
 74
     0
 42
0.0000000001
 43
0.0000000001
 12
1.0
 22
0.0
 32
0.0
 13
1.0
 23
0.0
 33
0.0
 40
0.0
 40
0.0
 40
0.0
 40
0.0
 40
1.0
 40
1.0
 40
1.0
 40
2.0
 40
2.0
 40
2.0
 40
3.0
 40
3.0
 40
3.0
 40
4.0
 40
4.0
 40
4.0
 40
5.0
 40
5.0
 40
5.0
 40
6.0
 40
6.0
 40
6.0
 40
7.0
 40
7.0
 40
7.0
 40
8.0
 40
8.0
 40
8.0
 40
8.0
 10
112.5050990742002
 20
-117.7728149705566
 30
0.0
 10
112.5050990742002
 20
-117.7466388594524
 30
0.0
 10
112.4947626855751
 20
-117.72010997057
 30
0.0
 10
112.4761712971605
 20
-117.7018713594635
 30
0.0
 10
112.4582501865066
 20
-117.6835974705791
 30
0.0
 10
112.4313685205257
 20
-117.6725908039151
 30
0.0
 10
112.4051924100824
 20
-117.6725908039151
 30
0.0
 10
112.3790162996391
 20
-117.6725908039151
 30
0.0
 10
112.3528401891958
 20
-117.6832446928014
 30
0.0
 10
112.3349190785419
 20
-117.7018713594635
 30
0.0
 10
112.3163305274766
 20
-117.72010997057
 30
0.0
 10
112.3052857459646
 20
-117.7466388594524
 30
0.0
 10
112.3052857459646
 20
-117.7721446927793
 30
0.0
 10
112.3052857459646
 20
-117.7986735816613
 30
0.0
 10
112.3163305274766
 20
-117.8244969149884
 30
0.0
 10
112.3349190785419
 20
-117.8431235816502
 30
0.0
 10
112.3528401891958
 20
-117.8617149705346
 30
0.0
 10
112.3790162996391
 20
-117.8724041371987
 30
0.0
 10
112.4051924100824
 20
-117.8724041371987
 30
0.0
 10
112.4313685205257
 20
-117.8724041371987
 30
0.0
 10
112.4582501865066
 20
-117.8617149705346
 30
0.0
 10
112.4761712971605
 20
-117.8431235816502
 30
0.0
 10
112.4947626855751
 20
-117.8244969149884
 30
0.0
 10
112.5050990742002
 20
-117.7986735816613
 30
0.0
 10
112.5050990742002
 20
-117.7728149705566
 30
0.0
  0
HATCH
  5
161
330
1F
100
AcDbEntity
  8
_U+30EC_U+30A4_U+30E4_U+30FC 1
 62
     7
420
 16777215
100
AcDbHatch
 10
0.0
 20
0.0
 30
0.0
210
0.0
220
0.0
230
1.0
  2
SOLID
 70
     1
 71
     0
 91
        1
 92
        1
 93
        1
 72
     4
 94
        3
 73
     0
 74
     1
 95
       29
 96
       25
 40
0.0
 40
0.0
 40
0.0
 40
0.0
 40
1.0
 40
1.0
 40
1.0
 40
2.0
 40
2.0
 40
2.0
 40
3.0
 40
3.0
 40
3.0
 40
4.0
 40
4.0
 40
4.0
 40
5.0
 40
5.0
 40
5.0
 40
6.0
 40
6.0
 40
6.0
 40
7.0
 40
7.0
 40
7.0
 40
8.0
 40
8.0
 40
8.0
 40
8.0
 10
112.5050990742002
 20
-117.7728149705566
 10
112.5050990742002
 20
-117.7466388594524
 10
112.4947626855751
 20
-117.72010997057
 10
112.4761712971605
 20
-117.7018713594635
 10
112.4582501865066
 20
-117.6835974705791
 10
112.4313685205257
 20
-117.6725908039151
 10
112.4051924100824
 20
-117.6725908039151
 10
112.3790162996391
 20
-117.6725908039151
 10
112.3528401891958
 20
-117.6832446928014
 10
112.3349190785419
 20
-117.7018713594635
 10
112.3163305274766
 20
-117.72010997057
 10
112.3052857459646
 20
-117.7466388594524
 10
112.3052857459646
 20
-117.7721446927793
 10
112.3052857459646
 20
-117.7986735816613
 10
112.3163305274766
 20
-117.8244969149884
 10
112.3349190785419
 20
-117.8431235816502
 10
112.3528401891958
 20
-117.8617149705346
 10
112.3790162996391
 20
-117.8724041371987
 10
112.4051924100824
 20
-117.8724041371987
 10
112.4313685205257
 20
-117.8724041371987
 10
112.4582501865066
 20
-117.8617149705346
 10
112.4761712971605
 20
-117.8431235816502
 10
112.4947626855751
 20
-117.8244969149884
 10
112.5050990742002
 20
-117.7986735816613
 10
112.5050990742002
 20
-117.7728149705566
 97
        0
 97
        0
 75
     2
 76
     1
 98
        0
  0
SPLINE
  5
162
330
1F
100
AcDbEntity
  8
_U+30EC_U+30A4_U+30E4_U+30FC 1
370
     0
100
AcDbSpline
210
0.0
220
0.0
230
1.0
 70
    11
 71
     3
 72
    29
 73
    25
 74
     0
 42
0.0000000001
 43
0.0000000001
 12
1.0
 22
0.0
 32
0.0
 13
1.0
 23
0.0
 33
0.0
 40
0.0
 40
0.0
 40
0.0
 40
0.0
 40
1.0
 40
1.0
 40
1.0
 40
2.0
 40
2.0
 40
2.0
 40
3.0
 40
3.0
 40
3.0
 40
4.0
 40
4.0
 40
4.0
 40
5.0
 40
5.0
 40
5.0
 40
6.0
 40
6.0
 40
6.0
 40
7.0
 40
7.0
 40
7.0
 40
8.0
 40
8.0
 40
8.0
 40
8.0
 10
112.2722333052654
 20
-126.0041788573879
 30
0.0
 10
112.2722333052654
 20
-126.0300374684925
 30
0.0
 10
112.2825668576553
 20
-126.0562135795971
 30
0.0
 10
112.3011610830361
 20
-126.0748049684814
 30
0.0
 10
112.3197496344845
 20
-126.0930788573658
 30
0.0
 10
112.3459257449278
 20
-126.1037680240296
 30
0.0
 10
112.3721371331479
 20
-126.1037680240296
 30
0.0
 10
112.3976076880537
 20
-126.1037680240296
 30
0.0
 10
112.4244893540345
 20
-126.0930788573658
 30
0.0
 10
112.4424104646885
 20
-126.0748049684814
 30
0.0
 10
112.461001853103
 20
-126.0565663573749
 30
0.0
 10
112.4727140750265
 20
-126.0300374684925
 30
0.0
 10
112.4727140750265
 20
-126.0041788573879
 30
0.0
 10
112.4727140750265
 20
-125.9776852462834
 30
0.0
 10
112.461001853103
 20
-125.9518266351787
 30
0.0
 10
112.4424104646885
 20
-125.9332352462944
 30
0.0
 10
112.4244893540345
 20
-125.9146085796326
 30
0.0
 10
112.3976076880537
 20
-125.9039546907463
 30
0.0
 10
112.3721371331479
 20
-125.9039546907463
 30
0.0
 10
112.3459257449278
 20
-125.9039546907463
 30
0.0
 10
112.3197496344845
 20
-125.9146085796326
 30
0.0
 10
112.3011610830361
 20
-125.9328824685167
 30
0.0
 10
112.2825668576553
 20
-125.951473857401
 30
0.0
 10
112.2722333052654
 20
-125.9776852462834
 30
0.0
 10
112.2722333052654
 20
-126.0041788573879
 30
0.0
  0
HATCH
  5
163
330
1F
100
AcDbEntity
  8
_U+30EC_U+30A4_U+30E4_U+30FC 1
 62
     7
420
 16777215
100
AcDbHatch
 10
0.0
 20
0.0
 30
0.0
210
0.0
220
0.0
230
1.0
  2
SOLID
 70
     1
 71
     0
 91
        1
 92
        1
 93
        1
 72
     4
 94
        3
 73
     0
 74
     1
 95
       29
 96
       25
 40
0.0
 40
0.0
 40
0.0
 40
0.0
 40
1.0
 40
1.0
 40
1.0
 40
2.0
 40
2.0
 40
2.0
 40
3.0
 40
3.0
 40
3.0
 40
4.0
 40
4.0
 40
4.0
 40
5.0
 40
5.0
 40
5.0
 40
6.0
 40
6.0
 40
6.0
 40
7.0
 40
7.0
 40
7.0
 40
8.0
 40
8.0
 40
8.0
 40
8.0
 10
112.2722333052654
 20
-126.0041788573879
 10
112.2722333052654
 20
-126.0300374684925
 10
112.2825668576553
 20
-126.0562135795971
 10
112.3011610830361
 20
-126.0748049684814
 10
112.3197496344845
 20
-126.0930788573658
 10
112.3459257449278
 20
-126.1037680240296
 10
112.3721371331479
 20
-126.1037680240296
 10
112.3976076880537
 20
-126.1037680240296
 10
112.4244893540345
 20
-126.0930788573658
 10
112.4424104646885
 20
-126.0748049684814
 10
112.461001853103
 20
-126.0565663573749
 10
112.4727140750265
 20
-126.0300374684925
 10
112.4727140750265
 20
-126.0041788573879
 10
112.4727140750265
 20
-125.9776852462834
 10
112.461001853103
 20
-125.9518266351787
 10
112.4424104646885
 20
-125.9332352462944
 10
112.4244893540345
 20
-125.9146085796326
 10
112.3976076880537
 20
-125.9039546907463
 10
112.3721371331479
 20
-125.9039546907463
 10
112.3459257449278
 20
-125.9039546907463
 10
112.3197496344845
 20
-125.9146085796326
 10
112.3011610830361
 20
-125.9328824685167
 10
112.2825668576553
 20
-125.951473857401
 10
112.2722333052654
 20
-125.9776852462834
 10
112.2722333052654
 20
-126.0041788573879
 97
        0
 97
        0
 75
     2
 76
     1
 98
        0
  0
SPLINE
  5
164
330
1F
100
AcDbEntity
  8
_U+30EC_U+30A4_U+30E4_U+30FC 1
370
     0
100
AcDbSpline
210
0.0
220
0.0
230
1.0
 70
    11
 71
     3
 72
    29
 73
    25
 74
     0
 42
0.0000000001
 43
0.0000000001
 12
1.0
 22
0.0
 32
0.0
 13
1.0
 23
0.0
 33
0.0
 40
0.0
 40
0.0
 40
0.0
 40
0.0
 40
1.0
 40
1.0
 40
1.0
 40
2.0
 40
2.0
 40
2.0
 40
3.0
 40
3.0
 40
3.0
 40
4.0
 40
4.0
 40
4.0
 40
5.0
 40
5.0
 40
5.0
 40
6.0
 40
6.0
 40
6.0
 40
7.0
 40
7.0
 40
7.0
 40
8.0
 40
8.0
 40
8.0
 40
8.0
 10
112.3052857459646
 20
-127.7673974680581
 30
0.0
 10
112.3052857459646
 20
-127.7939263569404
 30
0.0
 10
112.3156249719211
 20
-127.8197496902673
 30
0.0
 10
112.3342135230043
 20
-127.8380235791517
 30
0.0
 10
112.3528401891958
 20
-127.8562621902582
 30
0.0
 10
112.3790162996391
 20
-127.8673041346998
 30
0.0
 10
112.4051924100824
 20
-127.8673041346998
 30
0.0
 10
112.4313685205257
 20
-127.8673041346998
 30
0.0
 10
112.457544630969
 20
-127.856614968036
 30
0.0
 10
112.4754657416229
 20
-127.8380235791517
 30
0.0
 10
112.4940924078144
 20
-127.8197496902673
 30
0.0
 10
112.5058046297378
 20
-127.7939263569404
 30
0.0
 10
112.5058046297378
 20
-127.7677502458359
 30
0.0
 10
112.5058046297378
 20
-127.7412213569535
 30
0.0
 10
112.4940924078144
 20
-127.715045245849
 30
0.0
 10
112.4754657416229
 20
-127.6964185791871
 30
0.0
 10
112.457544630969
 20
-127.6781799680806
 30
0.0
 10
112.4313685205257
 20
-127.6674908014165
 30
0.0
 10
112.4051924100824
 20
-127.6674908014165
 30
0.0
 10
112.3790162996391
 20
-127.6674908014165
 30
0.0
 10
112.3528401891958
 20
-127.6781799680806
 30
0.0
 10
112.3342135230043
 20
-127.6964185791871
 30
0.0
 10
112.3156249719211
 20
-127.715045245849
 30
0.0
 10
112.3052857459646
 20
-127.7412213569535
 30
0.0
 10
112.3052857459646
 20
-127.7673974680581
 30
0.0
  0
HATCH
  5
165
330
1F
100
AcDbEntity
  8
_U+30EC_U+30A4_U+30E4_U+30FC 1
 62
     7
420
 16777215
100
AcDbHatch
 10
0.0
 20
0.0
 30
0.0
210
0.0
220
0.0
230
1.0
  2
SOLID
 70
     1
 71
     0
 91
        1
 92
        1
 93
        1
 72
     4
 94
        3
 73
     0
 74
     1
 95
       29
 96
       25
 40
0.0
 40
0.0
 40
0.0
 40
0.0
 40
1.0
 40
1.0
 40
1.0
 40
2.0
 40
2.0
 40
2.0
 40
3.0
 40
3.0
 40
3.0
 40
4.0
 40
4.0
 40
4.0
 40
5.0
 40
5.0
 40
5.0
 40
6.0
 40
6.0
 40
6.0
 40
7.0
 40
7.0
 40
7.0
 40
8.0
 40
8.0
 40
8.0
 40
8.0
 10
112.3052857459646
 20
-127.7673974680581
 10
112.3052857459646
 20
-127.7939263569404
 10
112.3156249719211
 20
-127.8197496902673
 10
112.3342135230043
 20
-127.8380235791517
 10
112.3528401891958
 20
-127.8562621902582
 10
112.3790162996391
 20
-127.8673041346998
 10
112.4051924100824
 20
-127.8673041346998
 10
112.4313685205257
 20
-127.8673041346998
 10
112.457544630969
 20
-127.856614968036
 10
112.4754657416229
 20
-127.8380235791517
 10
112.4940924078144
 20
-127.8197496902673
 10
112.5058046297378
 20
-127.7939263569404
 10
112.5058046297378
 20
-127.7677502458359
 10
112.5058046297378
 20
-127.7412213569535
 10
112.4940924078144
 20
-127.715045245849
 10
112.4754657416229
 20
-127.6964185791871
 10
112.457544630969
 20
-127.6781799680806
 10
112.4313685205257
 20
-127.6674908014165
 10
112.4051924100824
 20
-127.6674908014165
 10
112.3790162996391
 20
-127.6674908014165
 10
112.3528401891958
 20
-127.6781799680806
 10
112.3342135230043
 20
-127.6964185791871
 10
112.3156249719211
 20
-127.715045245849
 10
112.3052857459646
 20
-127.7412213569535
 10
112.3052857459646
 20
-127.7673974680581
 97
        0
 97
        0
 75
     2
 76
     1
 98
        0
  0
SPLINE
  5
166
330
1F
100
AcDbEntity
  8
_U+30EC_U+30A4_U+30E4_U+30FC 1
370
     0
100
AcDbSpline
210
0.0
220
0.0
230
1.0
 70
    11
 71
     3
 72
    29
 73
    25
 74
     0
 42
0.0000000001
 43
0.0000000001
 12
1.0
 22
0.0
 32
0.0
 13
1.0
 23
0.0
 33
0.0
 40
0.0
 40
0.0
 40
0.0
 40
0.0
 40
1.0
 40
1.0
 40
1.0
 40
2.0
 40
2.0
 40
2.0
 40
3.0
 40
3.0
 40
3.0
 40
4.0
 40
4.0
 40
4.0
 40
5.0
 40
5.0
 40
5.0
 40
6.0
 40
6.0
 40
6.0
 40
7.0
 40
7.0
 40
7.0
 40
8.0
 40
8.0
 40
8.0
 40
8.0
 10
112.3052857459646
 20
-136.5856424658534
 30
0.0
 10
112.3052857459646
 20
-136.6124888547356
 30
0.0
 10
112.3156249719211
 20
-136.6379946880625
 30
0.0
 10
112.3342135230043
 20
-136.6565860769468
 30
0.0
 10
112.3528401891958
 20
-136.6752127436093
 30
0.0
 10
112.3790162996391
 20
-136.686219410273
 30
0.0
 10
112.404524971899
 20
-136.686219410273
 30
0.0
 10
112.430698242765
 20
-136.686219410273
 30
0.0
 10
112.457544630969
 20
-136.6752127436093
 30
0.0
 10
112.4754657416229
 20
-136.6565860769468
 30
0.0
 10
112.4940924078144
 20
-136.6379946880625
 30
0.0
 10
112.5058046297378
 20
-136.6124888547356
 30
0.0
 10
112.5058046297378
 20
-136.5863127436314
 30
0.0
 10
112.5058046297378
 20
-136.5601366325265
 30
0.0
 10
112.4940924078144
 20
-136.5339605214222
 30
0.0
 10
112.4754657416229
 20
-136.5153691325379
 30
0.0
 10
112.457544630969
 20
-136.4967424658761
 30
0.0
 10
112.430698242765
 20
-136.4864060769897
 30
0.0
 10
112.404524971899
 20
-136.4864060769897
 30
0.0
 10
112.3790162996391
 20
-136.4864060769897
 30
0.0
 10
112.3528401891958
 20
-136.4967424658761
 30
0.0
 10
112.3342135230043
 20
-136.5153691325379
 30
0.0
 10
112.3156249719211
 20
-136.5339605214222
 30
0.0
 10
112.3052857459646
 20
-136.5601366325265
 30
0.0
 10
112.3052857459646
 20
-136.5856424658534
 30
0.0
  0
HATCH
  5
167
330
1F
100
AcDbEntity
  8
_U+30EC_U+30A4_U+30E4_U+30FC 1
 62
     7
420
 16777215
100
AcDbHatch
 10
0.0
 20
0.0
 30
0.0
210
0.0
220
0.0
230
1.0
  2
SOLID
 70
     1
 71
     0
 91
        1
 92
        1
 93
        1
 72
     4
 94
        3
 73
     0
 74
     1
 95
       29
 96
       25
 40
0.0
 40
0.0
 40
0.0
 40
0.0
 40
1.0
 40
1.0
 40
1.0
 40
2.0
 40
2.0
 40
2.0
 40
3.0
 40
3.0
 40
3.0
 40
4.0
 40
4.0
 40
4.0
 40
5.0
 40
5.0
 40
5.0
 40
6.0
 40
6.0
 40
6.0
 40
7.0
 40
7.0
 40
7.0
 40
8.0
 40
8.0
 40
8.0
 40
8.0
 10
112.3052857459646
 20
-136.5856424658534
 10
112.3052857459646
 20
-136.6124888547356
 10
112.3156249719211
 20
-136.6379946880625
 10
112.3342135230043
 20
-136.6565860769468
 10
112.3528401891958
 20
-136.6752127436093
 10
112.3790162996391
 20
-136.686219410273
 10
112.404524971899
 20
-136.686219410273
 10
112.430698242765
 20
-136.686219410273
 10
112.457544630969
 20
-136.6752127436093
 10
112.4754657416229
 20
-136.6565860769468
 10
112.4940924078144
 20
-136.6379946880625
 10
112.5058046297378
 20
-136.6124888547356
 10
112.5058046297378
 20
-136.5863127436314
 10
112.5058046297378
 20
-136.5601366325265
 10
112.4940924078144
 20
-136.5339605214222
 10
112.4754657416229
 20
-136.5153691325379
 10
112.457544630969
 20
-136.4967424658761
 10
112.430698242765
 20
-136.4864060769897
 10
112.404524971899
 20
-136.4864060769897
 10
112.3790162996391
 20
-136.4864060769897
 10
112.3528401891958
 20
-136.4967424658761
 10
112.3342135230043
 20
-136.5153691325379
 10
112.3156249719211
 20
-136.5339605214222
 10
112.3052857459646
 20
-136.5601366325265
 10
112.3052857459646
 20
-136.5856424658534
 97
        0
 97
        0
 75
     2
 76
     1
 98
        0
  0
SPLINE
  5
168
330
1F
100
AcDbEntity
  8
_U+30EC_U+30A4_U+30E4_U+30FC 1
370
     0
100
AcDbSpline
210
0.0
220
0.0
230
1.0
 70
    11
 71
     3
 72
    29
 73
    25
 74
     0
 42
0.0000000001
 43
0.0000000001
 12
1.0
 22
0.0
 32
0.0
 13
1.0
 23
0.0
 33
0.0
 40
0.0
 40
0.0
 40
0.0
 40
0.0
 40
1.0
 40
1.0
 40
1.0
 40
2.0
 40
2.0
 40
2.0
 40
3.0
 40
3.0
 40
3.0
 40
4.0
 40
4.0
 40
4.0
 40
5.0
 40
5.0
 40
5.0
 40
6.0
 40
6.0
 40
6.0
 40
7.0
 40
7.0
 40
7.0
 40
8.0
 40
8.0
 40
8.0
 40
8.0
 10
98.52077665319226
 20
-148.1928427407292
 30
0.0
 10
98.52077665319226
 20
-148.2197244073897
 30
0.0
 10
98.53178331957812
 20
-148.2459005184939
 30
0.0
 10
98.54970443023203
 20
-148.2644919073782
 30
0.0
 10
98.56900137418417
 20
-148.2824130184852
 30
0.0
 10
98.5945072068668
 20
-148.2934549629264
 30
0.0
 10
98.6206833173101
 20
-148.2934549629264
 30
0.0
 10
98.6468594277534
 20
-148.2934549629264
 30
0.0
 10
98.6730355381967
 20
-148.2831185740401
 30
0.0
 10
98.69166220438815
 20
-148.2644919073782
 30
0.0
 10
98.70954803726518
 20
-148.2459005184939
 30
0.0
 10
98.72058998142792
 20
-148.2197244073897
 30
0.0
 10
98.72058998142792
 20
-148.1942185740628
 30
0.0
 10
98.72058998142792
 20
-148.1673721851805
 30
0.0
 10
98.70954803726518
 20
-148.1411607962981
 30
0.0
 10
98.69166220438815
 20
-148.1225694074138
 30
0.0
 10
98.6730355381967
 20
-148.1046482963069
 30
0.0
 10
98.6468594277534
 20
-148.0936416296431
 30
0.0
 10
98.6206833173101
 20
-148.0936416296431
 30
0.0
 10
98.5945072068668
 20
-148.0936416296431
 30
0.0
 10
98.56900137418417
 20
-148.1039780185295
 30
0.0
 10
98.54970443023203
 20
-148.1225694074138
 30
0.0
 10
98.53178331957812
 20
-148.1411607962981
 30
0.0
 10
98.52077665319226
 20
-148.1673721851805
 30
0.0
 10
98.52077665319226
 20
-148.1928427407292
 30
0.0
  0
HATCH
  5
169
330
1F
100
AcDbEntity
  8
_U+30EC_U+30A4_U+30E4_U+30FC 1
 62
     7
420
 16777215
100
AcDbHatch
 10
0.0
 20
0.0
 30
0.0
210
0.0
220
0.0
230
1.0
  2
SOLID
 70
     1
 71
     0
 91
        1
 92
        1
 93
        1
 72
     4
 94
        3
 73
     0
 74
     1
 95
       29
 96
       25
 40
0.0
 40
0.0
 40
0.0
 40
0.0
 40
1.0
 40
1.0
 40
1.0
 40
2.0
 40
2.0
 40
2.0
 40
3.0
 40
3.0
 40
3.0
 40
4.0
 40
4.0
 40
4.0
 40
5.0
 40
5.0
 40
5.0
 40
6.0
 40
6.0
 40
6.0
 40
7.0
 40
7.0
 40
7.0
 40
8.0
 40
8.0
 40
8.0
 40
8.0
 10
98.52077665319226
 20
-148.1928427407292
 10
98.52077665319226
 20
-148.2197244073897
 10
98.53178331957812
 20
-148.2459005184939
 10
98.54970443023203
 20
-148.2644919073782
 10
98.56900137418417
 20
-148.2824130184852
 10
98.5945072068668
 20
-148.2934549629264
 10
98.6206833173101
 20
-148.2934549629264
 10
98.6468594277534
 20
-148.2934549629264
 10
98.6730355381967
 20
-148.2831185740401
 10
98.69166220438815
 20
-148.2644919073782
 10
98.70954803726518
 20
-148.2459005184939
 10
98.72058998142792
 20
-148.2197244073897
 10
98.72058998142792
 20
-148.1942185740628
 10
98.72058998142792
 20
-148.1673721851805
 10
98.70954803726518
 20
-148.1411607962981
 10
98.69166220438815
 20
-148.1225694074138
 10
98.6730355381967
 20
-148.1046482963069
 10
98.6468594277534
 20
-148.0936416296431
 10
98.6206833173101
 20
-148.0936416296431
 10
98.5945072068668
 20
-148.0936416296431
 10
98.56900137418417
 20
-148.1039780185295
 10
98.54970443023203
 20
-148.1225694074138
 10
98.53178331957812
 20
-148.1411607962981
 10
98.52077665319226
 20
-148.1673721851805
 10
98.52077665319226
 20
-148.1928427407292
 97
        0
 97
        0
 75
     2
 76
     1
 98
        0
  0
SPLINE
  5
16A
330
1F
100
AcDbEntity
  8
_U+30EC_U+30A4_U+30E4_U+30FC 1
370
     0
100
AcDbSpline
210
0.0
220
0.0
230
1.0
 70
    11
 71
     3
 72
    29
 73
    25
 74
     0
 42
0.0000000001
 43
0.0000000001
 12
1.0
 22
0.0
 32
0.0
 13
1.0
 23
0.0
 33
0.0
 40
0.0
 40
0.0
 40
0.0
 40
0.0
 40
1.0
 40
1.0
 40
1.0
 40
2.0
 40
2.0
 40
2.0
 40
3.0
 40
3.0
 40
3.0
 40
4.0
 40
4.0
 40
4.0
 40
5.0
 40
5.0
 40
5.0
 40
6.0
 40
6.0
 40
6.0
 40
7.0
 40
7.0
 40
7.0
 40
8.0
 40
8.0
 40
8.0
 40
8.0
 10
89.64189164425622
 20
-148.2259332962767
 30
0.0
 10
89.64189164425622
 20
-148.2521094073816
 30
0.0
 10
89.65293132387428
 20
-148.2776152407085
 30
0.0
 10
89.67085243452819
 20
-148.2962066295928
 30
0.0
 10
89.68944382294276
 20
-148.315503574032
 30
0.0
 10
89.71562219979329
 20
-148.3258399629184
 30
0.0
 10
89.74179604382938
 20
-148.3258399629184
 30
0.0
 10
89.76797215427268
 20
-148.3258399629184
 30
0.0
 10
89.79418354249286
 20
-148.315503574032
 30
0.0
 10
89.81206937536989
 20
-148.2968769073702
 30
0.0
 10
89.83069604156135
 20
-148.2782855184859
 30
0.0
 10
89.8417027079472
 20
-148.2521094073816
 30
0.0
 10
89.8417027079472
 20
-148.2259332962767
 30
0.0
 10
89.8417027079472
 20
-148.1997571851725
 30
0.0
 10
89.83069604156135
 20
-148.1735457962901
 30
0.0
 10
89.81206937536989
 20
-148.1549544074058
 30
0.0
 10
89.79418354249286
 20
-148.1363630185215
 30
0.0
 10
89.76797215427268
 20
-148.1260266296351
 30
0.0
 10
89.74179604382938
 20
-148.1260266296351
 30
0.0
 10
89.71562219979329
 20
-148.1260266296351
 30
0.0
 10
89.68944382294276
 20
-148.1363630185215
 30
0.0
 10
89.67085243452819
 20
-148.1549544074058
 30
0.0
 10
89.65293132387428
 20
-148.1735457962901
 30
0.0
 10
89.64189164425622
 20
-148.1997571851725
 30
0.0
 10
89.64189164425622
 20
-148.2259332962767
 30
0.0
  0
HATCH
  5
16B
330
1F
100
AcDbEntity
  8
_U+30EC_U+30A4_U+30E4_U+30FC 1
 62
     7
420
 16777215
100
AcDbHatch
 10
0.0
 20
0.0
 30
0.0
210
0.0
220
0.0
230
1.0
  2
SOLID
 70
     1
 71
     0
 91
        1
 92
        1
 93
        1
 72
     4
 94
        3
 73
     0
 74
     1
 95
       29
 96
       25
 40
0.0
 40
0.0
 40
0.0
 40
0.0
 40
1.0
 40
1.0
 40
1.0
 40
2.0
 40
2.0
 40
2.0
 40
3.0
 40
3.0
 40
3.0
 40
4.0
 40
4.0
 40
4.0
 40
5.0
 40
5.0
 40
5.0
 40
6.0
 40
6.0
 40
6.0
 40
7.0
 40
7.0
 40
7.0
 40
8.0
 40
8.0
 40
8.0
 40
8.0
 10
89.64189164425622
 20
-148.2259332962767
 10
89.64189164425622
 20
-148.2521094073816
 10
89.65293132387428
 20
-148.2776152407085
 10
89.67085243452819
 20
-148.2962066295928
 10
89.68944382294276
 20
-148.315503574032
 10
89.71562219979329
 20
-148.3258399629184
 10
89.74179604382938
 20
-148.3258399629184
 10
89.76797215427268
 20
-148.3258399629184
 10
89.79418354249286
 20
-148.315503574032
 10
89.81206937536989
 20
-148.2968769073702
 10
89.83069604156135
 20
-148.2782855184859
 10
89.8417027079472
 20
-148.2521094073816
 10
89.8417027079472
 20
-148.2259332962767
 10
89.8417027079472
 20
-148.1997571851725
 10
89.83069604156135
 20
-148.1735457962901
 10
89.81206937536989
 20
-148.1549544074058
 10
89.79418354249286
 20
-148.1363630185215
 10
89.76797215427268
 20
-148.1260266296351
 10
89.74179604382938
 20
-148.1260266296351
 10
89.71562219979329
 20
-148.1260266296351
 10
89.68944382294276
 20
-148.1363630185215
 10
89.67085243452819
 20
-148.1549544074058
 10
89.65293132387428
 20
-148.1735457962901
 10
89.64189164425622
 20
-148.1997571851725
 10
89.64189164425622
 20
-148.2259332962767
 97
        0
 97
        0
 75
     2
 76
     1
 98
        0
  0
SPLINE
  5
16C
330
1F
100
AcDbEntity
  8
_U+30EC_U+30A4_U+30E4_U+30FC 1
370
     0
100
AcDbSpline
210
0.0
220
0.0
230
1.0
 70
    11
 71
     3
 72
    29
 73
    25
 74
     0
 42
0.0000000001
 43
0.0000000001
 12
1.0
 22
0.0
 32
0.0
 13
1.0
 23
0.0
 33
0.0
 40
0.0
 40
0.0
 40
0.0
 40
0.0
 40
1.0
 40
1.0
 40
1.0
 40
2.0
 40
2.0
 40
2.0
 40
3.0
 40
3.0
 40
3.0
 40
4.0
 40
4.0
 40
4.0
 40
5.0
 40
5.0
 40
5.0
 40
6.0
 40
6.0
 40
6.0
 40
7.0
 40
7.0
 40
7.0
 40
8.0
 40
8.0
 40
8.0
 40
8.0
 10
87.89108859104486
 20
-148.2410674629398
 30
0.0
 10
87.89108859104486
 20
-148.2679491295995
 30
0.0
 10
87.90177775743882
 20
-148.2941252407044
 30
0.0
 10
87.92072192362218
 20
-148.3127519073662
 30
0.0
 10
87.93934858981365
 20
-148.330637740695
 30
0.0
 10
87.96481914471939
 20
-148.3416796851369
 30
0.0
 10
87.99099525516269
 20
-148.3416796851369
 30
0.0
 10
88.01752414337477
 20
-148.3416796851369
 30
0.0
 10
88.04338275382618
 20
-148.330637740695
 30
0.0
 10
88.06197414224076
 20
-148.3127519073662
 30
0.0
 10
88.08056553065533
 20
-148.2941252407044
 30
0.0
 10
88.09090191928053
 20
-148.2679491295995
 30
0.0
 10
88.09090191928053
 20
-148.2417730184953
 30
0.0
 10
88.09090191928053
 20
-148.2155969073904
 30
0.0
 10
88.08056553065533
 20
-148.1894207962861
 30
0.0
 10
88.06197414224076
 20
-148.1707941296237
 30
0.0
 10
88.04338275382618
 20
-148.1528730185174
 30
0.0
 10
88.01752414337477
 20
-148.1418663518537
 30
0.0
 10
87.99099525516269
 20
-148.1418663518537
 30
0.0
 10
87.96481914471939
 20
-148.1418663518537
 30
0.0
 10
87.93934858981365
 20
-148.15220274074
 30
0.0
 10
87.92072192362218
 20
-148.1707941296237
 30
0.0
 10
87.90177775743882
 20
-148.1894207962861
 30
0.0
 10
87.89108859104486
 20
-148.2155969073904
 30
0.0
 10
87.89108859104486
 20
-148.2410674629398
 30
0.0
  0
HATCH
  5
16D
330
1F
100
AcDbEntity
  8
_U+30EC_U+30A4_U+30E4_U+30FC 1
 62
     7
420
 16777215
100
AcDbHatch
 10
0.0
 20
0.0
 30
0.0
210
0.0
220
0.0
230
1.0
  2
SOLID
 70
     1
 71
     0
 91
        1
 92
        1
 93
        1
 72
     4
 94
        3
 73
     0
 74
     1
 95
       29
 96
       25
 40
0.0
 40
0.0
 40
0.0
 40
0.0
 40
1.0
 40
1.0
 40
1.0
 40
2.0
 40
2.0
 40
2.0
 40
3.0
 40
3.0
 40
3.0
 40
4.0
 40
4.0
 40
4.0
 40
5.0
 40
5.0
 40
5.0
 40
6.0
 40
6.0
 40
6.0
 40
7.0
 40
7.0
 40
7.0
 40
8.0
 40
8.0
 40
8.0
 40
8.0
 10
87.89108859104486
 20
-148.2410674629398
 10
87.89108859104486
 20
-148.2679491295995
 10
87.90177775743882
 20
-148.2941252407044
 10
87.92072192362218
 20
-148.3127519073662
 10
87.93934858981365
 20
-148.330637740695
 10
87.96481914471939
 20
-148.3416796851369
 10
87.99099525516269
 20
-148.3416796851369
 10
88.01752414337477
 20
-148.3416796851369
 10
88.04338275382618
 20
-148.330637740695
 10
88.06197414224076
 20
-148.3127519073662
 10
88.08056553065533
 20
-148.2941252407044
 10
88.09090191928053
 20
-148.2679491295995
 10
88.09090191928053
 20
-148.2417730184953
 10
88.09090191928053
 20
-148.2155969073904
 10
88.08056553065533
 20
-148.1894207962861
 10
88.06197414224076
 20
-148.1707941296237
 10
88.04338275382618
 20
-148.1528730185174
 10
88.01752414337477
 20
-148.1418663518537
 10
87.99099525516269
 20
-148.1418663518537
 10
87.96481914471939
 20
-148.1418663518537
 10
87.93934858981365
 20
-148.15220274074
 10
87.92072192362218
 20
-148.1707941296237
 10
87.90177775743882
 20
-148.1894207962861
 10
87.89108859104486
 20
-148.2155969073904
 10
87.89108859104486
 20
-148.2410674629398
 97
        0
 97
        0
 75
     2
 76
     1
 98
        0
  0
SPLINE
  5
16E
330
1F
100
AcDbEntity
  8
_U+30EC_U+30A4_U+30E4_U+30FC 1
370
     0
100
AcDbSpline
210
0.0
220
0.0
230
1.0
 70
    11
 71
     3
 72
    35
 73
    31
 74
     0
 42
0.0000000001
 43
0.0000000001
 12
1.0
 22
0.0
 32
0.0
 13
1.0
 23
0.0
 33
0.0
 40
0.0
 40
0.0
 40
0.0
 40
0.0
 40
1.0
 40
1.0
 40
1.0
 40
2.0
 40
2.0
 40
2.0
 40
3.0
 40
3.0
 40
3.0
 40
4.0
 40
4.0
 40
4.0
 40
5.0
 40
5.0
 40
5.0
 40
6.0
 40
6.0
 40
6.0
 40
7.0
 40
7.0
 40
7.0
 40
8.0
 40
8.0
 40
8.0
 40
9.0
 40
9.0
 40
9.0
 40
10.0
 40
10.0
 40
10.0
 40
10.0
 10
79.65905463439488
 20
-148.1480752407407
 30
0.0
 10
79.64011046821152
 20
-148.1659610740695
 30
0.0
 10
79.62977407958633
 20
-148.1921724629519
 30
0.0
 10
79.62977407958633
 20
-148.2183485740568
 30
0.0
 10
79.62977407958633
 20
-148.2445246851611
 30
0.0
 10
79.64011046821152
 20
-148.2707007962659
 30
0.0
 10
79.65905463439488
 20
-148.2886219073722
 30
0.0
 10
79.67729324504067
 20
-148.3072132962565
 30
0.0
 10
79.70350463326086
 20
-148.3182552406984
 30
0.0
 10
79.72968074370417
 20
-148.3182552406984
 30
0.0
 10
79.72968074370417
 20
-148.3182552406984
 30
0.0
 10
79.72968074370417
 20
-148.3182552406984
 30
0.0
 10
79.72968074370417
 20
-148.3182552406984
 30
0.0
 10
79.75585685414747
 20
-148.3182552406984
 30
0.0
 10
79.78203296459077
 20
-148.3072132962565
 30
0.0
 10
79.80062435300535
 20
-148.2886219073722
 30
0.0
 10
79.81889824142803
 20
-148.2707007962659
 30
0.0
 10
79.829587407822
 20
-148.2445246851611
 30
0.0
 10
79.829587407822
 20
-148.2183485740568
 30
0.0
 10
79.829587407822
 20
-148.1921724629519
 30
0.0
 10
79.81889824142803
 20
-148.1659610740695
 30
0.0
 10
79.80062435300535
 20
-148.1480752407407
 30
0.0
 10
79.78203296459077
 20
-148.1294485740789
 30
0.0
 10
79.75585685414747
 20
-148.1184419074152
 30
0.0
 10
79.72968074370417
 20
-148.1184419074152
 30
0.0
 10
79.72968074370417
 20
-148.1184419074152
 30
0.0
 10
79.72968074370417
 20
-148.1191121851925
 30
0.0
 10
79.72968074370417
 20
-148.1191121851925
 30
0.0
 10
79.70350463326086
 20
-148.1191121851925
 30
0.0
 10
79.67729324504067
 20
-148.1294485740789
 30
0.0
 10
79.65905463439488
 20
-148.1480752407407
 30
0.0
  0
HATCH
  5
16F
330
1F
100
AcDbEntity
  8
_U+30EC_U+30A4_U+30E4_U+30FC 1
 62
     7
420
 16777215
100
AcDbHatch
 10
0.0
 20
0.0
 30
0.0
210
0.0
220
0.0
230
1.0
  2
SOLID
 70
     1
 71
     0
 91
        1
 92
        1
 93
        1
 72
     4
 94
        3
 73
     0
 74
     1
 95
       35
 96
       31
 40
0.0
 40
0.0
 40
0.0
 40
0.0
 40
1.0
 40
1.0
 40
1.0
 40
2.0
 40
2.0
 40
2.0
 40
3.0
 40
3.0
 40
3.0
 40
4.0
 40
4.0
 40
4.0
 40
5.0
 40
5.0
 40
5.0
 40
6.0
 40
6.0
 40
6.0
 40
7.0
 40
7.0
 40
7.0
 40
8.0
 40
8.0
 40
8.0
 40
9.0
 40
9.0
 40
9.0
 40
10.0
 40
10.0
 40
10.0
 40
10.0
 10
79.65905463439488
 20
-148.1480752407407
 10
79.64011046821152
 20
-148.1659610740695
 10
79.62977407958633
 20
-148.1921724629519
 10
79.62977407958633
 20
-148.2183485740568
 10
79.62977407958633
 20
-148.2445246851611
 10
79.64011046821152
 20
-148.2707007962659
 10
79.65905463439488
 20
-148.2886219073722
 10
79.67729324504067
 20
-148.3072132962565
 10
79.70350463326086
 20
-148.3182552406984
 10
79.72968074370417
 20
-148.3182552406984
 10
79.72968074370417
 20
-148.3182552406984
 10
79.72968074370417
 20
-148.3182552406984
 10
79.72968074370417
 20
-148.3182552406984
 10
79.75585685414747
 20
-148.3182552406984
 10
79.78203296459077
 20
-148.3072132962565
 10
79.80062435300535
 20
-148.2886219073722
 10
79.81889824142803
 20
-148.2707007962659
 10
79.829587407822
 20
-148.2445246851611
 10
79.829587407822
 20
-148.2183485740568
 10
79.829587407822
 20
-148.1921724629519
 10
79.81889824142803
 20
-148.1659610740695
 10
79.80062435300535
 20
-148.1480752407407
 10
79.78203296459077
 20
-148.1294485740789
 10
79.75585685414747
 20
-148.1184419074152
 10
79.72968074370417
 20
-148.1184419074152
 10
79.72968074370417
 20
-148.1184419074152
 10
79.72968074370417
 20
-148.1191121851925
 10
79.72968074370417
 20
-148.1191121851925
 10
79.70350463326086
 20
-148.1191121851925
 10
79.67729324504067
 20
-148.1294485740789
 10
79.65905463439488
 20
-148.1480752407407
 97
        0
 97
        0
 75
     2
 76
     1
 98
        0
  0
SPLINE
  5
170
330
1F
100
AcDbEntity
  8
_U+30EC_U+30A4_U+30E4_U+30FC 1
370
     0
100
AcDbSpline
210
0.0
220
0.0
230
1.0
 70
    11
 71
     3
 72
    29
 73
    25
 74
     0
 42
0.0000000001
 43
0.0000000001
 12
1.0
 22
0.0
 32
0.0
 13
1.0
 23
0.0
 33
0.0
 40
0.0
 40
0.0
 40
0.0
 40
0.0
 40
1.0
 40
1.0
 40
1.0
 40
2.0
 40
2.0
 40
2.0
 40
3.0
 40
3.0
 40
3.0
 40
4.0
 40
4.0
 40
4.0
 40
5.0
 40
5.0
 40
5.0
 40
6.0
 40
6.0
 40
6.0
 40
7.0
 40
7.0
 40
7.0
 40
8.0
 40
8.0
 40
8.0
 40
8.0
 10
75.26139752436623
 20
-146.5591994078047
 30
0.0
 10
75.26139752436623
 20
-146.586045796687
 30
0.0
 10
75.2724041907521
 20
-146.6115516300138
 30
0.0
 10
75.29099557916668
 20
-146.6301430188981
 30
0.0
 10
75.30891668982058
 20
-146.6480641300045
 30
0.0
 10
75.33509280026388
 20
-146.6597763522237
 30
0.0
 10
75.36162168847596
 20
-146.6597763522237
 30
0.0
 10
75.38748029892737
 20
-146.6597763522237
 30
0.0
 10
75.41365831447983
 20
-146.64876968556
 30
0.0
 10
75.43224779778525
 20
-146.6301430188981
 30
0.0
 10
75.45087446397672
 20
-146.6115516300138
 30
0.0
 10
75.4615283525938
 20
-146.586045796687
 30
0.0
 10
75.4615283525938
 20
-146.559869685582
 30
0.0
 10
75.4615283525938
 20
-146.5336935744778
 30
0.0
 10
75.45087446397672
 20
-146.5075174633729
 30
0.0
 10
75.43224779778525
 20
-146.4888907967111
 30
0.0
 10
75.41365831447983
 20
-146.4702994078268
 30
0.0
 10
75.38748029892737
 20
-146.459292741163
 30
0.0
 10
75.36162168847596
 20
-146.459292741163
 30
0.0
 10
75.33509280026388
 20
-146.459292741163
 30
0.0
 10
75.30891668982058
 20
-146.4702994078268
 30
0.0
 10
75.29099557916668
 20
-146.4888907967111
 30
0.0
 10
75.2724041907521
 20
-146.5075174633729
 30
0.0
 10
75.26139752436623
 20
-146.5336935744778
 30
0.0
 10
75.26139752436623
 20
-146.5591994078047
 30
0.0
  0
HATCH
  5
171
330
1F
100
AcDbEntity
  8
_U+30EC_U+30A4_U+30E4_U+30FC 1
 62
     7
420
 16777215
100
AcDbHatch
 10
0.0
 20
0.0
 30
0.0
210
0.0
220
0.0
230
1.0
  2
SOLID
 70
     1
 71
     0
 91
        1
 92
        1
 93
        1
 72
     4
 94
        3
 73
     0
 74
     1
 95
       29
 96
       25
 40
0.0
 40
0.0
 40
0.0
 40
0.0
 40
1.0
 40
1.0
 40
1.0
 40
2.0
 40
2.0
 40
2.0
 40
3.0
 40
3.0
 40
3.0
 40
4.0
 40
4.0
 40
4.0
 40
5.0
 40
5.0
 40
5.0
 40
6.0
 40
6.0
 40
6.0
 40
7.0
 40
7.0
 40
7.0
 40
8.0
 40
8.0
 40
8.0
 40
8.0
 10
75.26139752436623
 20
-146.5591994078047
 10
75.26139752436623
 20
-146.586045796687
 10
75.2724041907521
 20
-146.6115516300138
 10
75.29099557916668
 20
-146.6301430188981
 10
75.30891668982058
 20
-146.6480641300045
 10
75.33509280026388
 20
-146.6597763522237
 10
75.36162168847596
 20
-146.6597763522237
 10
75.38748029892737
 20
-146.6597763522237
 10
75.41365831447983
 20
-146.64876968556
 10
75.43224779778525
 20
-146.6301430188981
 10
75.45087446397672
 20
-146.6115516300138
 10
75.4615283525938
 20
-146.586045796687
 10
75.4615283525938
 20
-146.559869685582
 10
75.4615283525938
 20
-146.5336935744778
 10
75.45087446397672
 20
-146.5075174633729
 10
75.43224779778525
 20
-146.4888907967111
 10
75.41365831447983
 20
-146.4702994078268
 10
75.38748029892737
 20
-146.459292741163
 10
75.36162168847596
 20
-146.459292741163
 10
75.33509280026388
 20
-146.459292741163
 10
75.30891668982058
 20
-146.4702994078268
 10
75.29099557916668
 20
-146.4888907967111
 10
75.2724041907521
 20
-146.5075174633729
 10
75.26139752436623
 20
-146.5336935744778
 10
75.26139752436623
 20
-146.5591994078047
 97
        0
 97
        0
 75
     2
 76
     1
 98
        0
  0
SPLINE
  5
172
330
1F
100
AcDbEntity
  8
_U+30EC_U+30A4_U+30E4_U+30FC 1
370
     0
100
AcDbSpline
210
0.0
220
0.0
230
1.0
 70
    11
 71
     3
 72
    29
 73
    25
 74
     0
 42
0.0000000001
 43
0.0000000001
 12
1.0
 22
0.0
 32
0.0
 13
1.0
 23
0.0
 33
0.0
 40
0.0
 40
0.0
 40
0.0
 40
0.0
 40
1.0
 40
1.0
 40
1.0
 40
2.0
 40
2.0
 40
2.0
 40
3.0
 40
3.0
 40
3.0
 40
4.0
 40
4.0
 40
4.0
 40
5.0
 40
5.0
 40
5.0
 40
6.0
 40
6.0
 40
6.0
 40
7.0
 40
7.0
 40
7.0
 40
8.0
 40
8.0
 40
8.0
 40
8.0
 10
71.21133234991423
 20
-146.5626213522485
 30
0.0
 10
71.21133234991423
 20
-146.5887974633527
 30
0.0
 10
71.22233901630008
 20
-146.6143032966796
 30
0.0
 10
71.24096568249155
 20
-146.6336002411194
 30
0.0
 10
71.25888679314545
 20
-146.6515213522257
 30
0.0
 10
71.28506290358875
 20
-146.6625280188901
 30
0.0
 10
71.31123901403205
 20
-146.6625280188901
 30
0.0
 10
71.33741512447536
 20
-146.6625280188901
 30
0.0
 10
71.36359123491866
 20
-146.6521916300038
 30
0.0
 10
71.38221790111012
 20
-146.6336002411194
 30
0.0
 10
71.40081109326081
 20
-146.6143032966796
 30
0.0
 10
71.41149845591868
 20
-146.5887974633527
 30
0.0
 10
71.41149845591868
 20
-146.5626213522485
 30
0.0
 10
71.41149845591868
 20
-146.5364452411436
 30
0.0
 10
71.40081109326081
 20
-146.5102691300393
 30
0.0
 10
71.38221790111012
 20
-146.491677741155
 30
0.0
 10
71.36359123491866
 20
-146.4737566300481
 30
0.0
 10
71.33741512447536
 20
-146.4627146856068
 30
0.0
 10
71.31123901403205
 20
-146.4627146856068
 30
0.0
 10
71.28506290358875
 20
-146.4627146856068
 30
0.0
 10
71.25888679314545
 20
-146.4737566300481
 30
0.0
 10
71.24096568249155
 20
-146.491677741155
 30
0.0
 10
71.22233901630008
 20
-146.5102691300393
 30
0.0
 10
71.21133234991423
 20
-146.5364452411436
 30
0.0
 10
71.21133234991423
 20
-146.5626213522485
 30
0.0
  0
HATCH
  5
173
330
1F
100
AcDbEntity
  8
_U+30EC_U+30A4_U+30E4_U+30FC 1
 62
     7
420
 16777215
100
AcDbHatch
 10
0.0
 20
0.0
 30
0.0
210
0.0
220
0.0
230
1.0
  2
SOLID
 70
     1
 71
     0
 91
        1
 92
        1
 93
        1
 72
     4
 94
        3
 73
     0
 74
     1
 95
       29
 96
       25
 40
0.0
 40
0.0
 40
0.0
 40
0.0
 40
1.0
 40
1.0
 40
1.0
 40
2.0
 40
2.0
 40
2.0
 40
3.0
 40
3.0
 40
3.0
 40
4.0
 40
4.0
 40
4.0
 40
5.0
 40
5.0
 40
5.0
 40
6.0
 40
6.0
 40
6.0
 40
7.0
 40
7.0
 40
7.0
 40
8.0
 40
8.0
 40
8.0
 40
8.0
 10
71.21133234991423
 20
-146.5626213522485
 10
71.21133234991423
 20
-146.5887974633527
 10
71.22233901630008
 20
-146.6143032966796
 10
71.24096568249155
 20
-146.6336002411194
 10
71.25888679314545
 20
-146.6515213522257
 10
71.28506290358875
 20
-146.6625280188901
 10
71.31123901403205
 20
-146.6625280188901
 10
71.33741512447536
 20
-146.6625280188901
 10
71.36359123491866
 20
-146.6521916300038
 10
71.38221790111012
 20
-146.6336002411194
 10
71.40081109326081
 20
-146.6143032966796
 10
71.41149845591868
 20
-146.5887974633527
 10
71.41149845591868
 20
-146.5626213522485
 10
71.41149845591868
 20
-146.5364452411436
 10
71.40081109326081
 20
-146.5102691300393
 10
71.38221790111012
 20
-146.491677741155
 10
71.36359123491866
 20
-146.4737566300481
 10
71.33741512447536
 20
-146.4627146856068
 10
71.31123901403205
 20
-146.4627146856068
 10
71.28506290358875
 20
-146.4627146856068
 10
71.25888679314545
 20
-146.4737566300481
 10
71.24096568249155
 20
-146.491677741155
 10
71.22233901630008
 20
-146.5102691300393
 10
71.21133234991423
 20
-146.5364452411436
 10
71.21133234991423
 20
-146.5626213522485
 97
        0
 97
        0
 75
     2
 76
     1
 98
        0
  0
ENDSEC
  0
SECTION
  2
OBJECTS
  0
DICTIONARY
  5
C
330
0
100
AcDbDictionary
281
     1
  3
ACAD_GROUP
350
D
  3
ACAD_LAYOUT
350
1A
  3
ACAD_MATERIAL
350
3B
  3
ACAD_MLEADERSTYLE
350
175
  3
ACAD_MLINESTYLE
350
17
  3
ACAD_PLOTSETTINGS
350
19
  3
ACAD_PLOTSTYLENAME
350
E
  3
ACAD_TABLESTYLE
350
174
  3
ACAD_VISUALSTYLE
350
2A
  0
SUN
  5
3F
330
29
100
AcDbSun
 90
        1
290
     0
 63
     7
421
 16777215
 40
1.0
291
     1
 91
  2455826
 92
 54000000
292
     0
 70
     2
 71
   256
280
     1
  0
DICTIONARY
  5
D
102
{ACAD_REACTORS
330
C
102
}
330
C
100
AcDbDictionary
281
     1
  0
DICTIONARY
  5
1A
102
{ACAD_REACTORS
330
C
102
}
330
C
100
AcDbDictionary
281
     1
  3
Layout1
350
1E
  3
Layout2
350
26
  3
Model
350
22
  0
DICTIONARY
  5
3B
102
{ACAD_REACTORS
330
C
102
}
330
C
100
AcDbDictionary
281
     1
  3
ByBlock
350
3D
  3
ByLayer
350
3C
  3
Global
350
3E
  0
DICTIONARY
  5
175
102
{ACAD_REACTORS
330
C
102
}
330
C
100
AcDbDictionary
281
     1
  0
DICTIONARY
  5
17
102
{ACAD_REACTORS
330
C
102
}
330
C
100
AcDbDictionary
281
     1
  3
Standard
350
18
  0
DICTIONARY
  5
19
102
{ACAD_REACTORS
330
C
102
}
330
C
100
AcDbDictionary
281
     1
  0
ACDBDICTIONARYWDFLT
  5
E
102
{ACAD_REACTORS
330
C
102
}
330
C
100
AcDbDictionary
281
     1
  3
Normal
350
F
100
AcDbDictionaryWithDefault
340
F
  0
DICTIONARY
  5
174
102
{ACAD_REACTORS
330
C
102
}
330
C
100
AcDbDictionary
281
     1
  0
DICTIONARY
  5
2A
102
{ACAD_REACTORS
330
C
102
}
330
C
100
AcDbDictionary
281
     1
  3
2dWireframe
350
2F
  3
3D Hidden
350
31
  3
3dWireframe
350
30
  3
Basic
350
32
  3
Brighten
350
36
  3
ColorChange
350
3A
  3
Conceptual
350
34
  3
Dim
350
35
  3
Facepattern
350
39
  3
Flat
350
2B
  3
FlatWithEdges
350
2C
  3
Gouraud
350
2D
  3
GouraudWithEdges
350
2E
  3
Linepattern
350
38
  3
Realistic
350
33
  3
Thicken
350
37
  0
LAYOUT
  5
1E
102
{ACAD_REACTORS
330
1A
102
}
330
1A
100
AcDbPlotSettings
  1

  2
none_device
  4

  6

 40
0.0
 41
0.0
 42
0.0
 43
0.0
 44
0.0
 45
0.0
 46
0.0
 47
0.0
 48
0.0
 49
0.0
140
0.0
141
0.0
142
1.0
143
1.0
 70
   688
 72
     0
 73
     0
 74
     5
  7

 75
    16
 76
     0
 77
     2
 78
   300
147
1.0
148
0.0
149
0.0
100
AcDbLayout
  1
Layout1
 70
     1
 71
     1
 10
0.0
 20
0.0
 11
12.0
 21
9.0
 12
0.0
 22
0.0
 32
0.0
 14
1.000000000000000E+20
 24
1.000000000000000E+20
 34
1.000000000000000E+20
 15
-1.000000000000000E+20
 25
-1.000000000000000E+20
 35
-1.000000000000000E+20
146
0.0
 13
0.0
 23
0.0
 33
0.0
 16
1.0
 26
0.0
 36
0.0
 17
0.0
 27
1.0
 37
0.0
 76
     0
330
1B
  0
LAYOUT
  5
26
102
{ACAD_REACTORS
330
1A
102
}
330
1A
100
AcDbPlotSettings
  1

  2
none_device
  4

  6

 40
0.0
 41
0.0
 42
0.0
 43
0.0
 44
0.0
 45
0.0
 46
0.0
 47
0.0
 48
0.0
 49
0.0
140
0.0
141
0.0
142
1.0
143
1.0
 70
   688
 72
     0
 73
     0
 74
     5
  7

 75
    16
 76
     0
 77
     2
 78
   300
147
1.0
148
0.0
149
0.0
100
AcDbLayout
  1
Layout2
 70
     1
 71
     2
 10
0.0
 20
0.0
 11
0.0
 21
0.0
 12
0.0
 22
0.0
 32
0.0
 14
0.0
 24
0.0
 34
0.0
 15
0.0
 25
0.0
 35
0.0
146
0.0
 13
0.0
 23
0.0
 33
0.0
 16
1.0
 26
0.0
 36
0.0
 17
0.0
 27
1.0
 37
0.0
 76
     0
330
23
  0
LAYOUT
  5
22
102
{ACAD_REACTORS
330
1A
102
}
330
1A
100
AcDbPlotSettings
  1

  2
none_device
  4

  6

 40
0.0
 41
0.0
 42
0.0
 43
0.0
 44
0.0
 45
0.0
 46
0.0
 47
0.0
 48
0.0
 49
0.0
140
0.0
141
0.0
142
1.0
143
1.0
 70
  1712
 72
     0
 73
     0
 74
     0
  7

 75
     0
 76
     0
 77
     2
 78
   300
147
1.0
148
0.0
149
0.0
100
AcDbLayout
  1
Model
 70
     1
 71
     0
 10
0.0
 20
0.0
 11
12.0
 21
9.0
 12
0.0
 22
0.0
 32
0.0
 14
1.000000000000000E+20
 24
1.000000000000000E+20
 34
1.000000000000000E+20
 15
-1.000000000000000E+20
 25
-1.000000000000000E+20
 35
-1.000000000000000E+20
146
0.0
 13
0.0
 23
0.0
 33
0.0
 16
1.0
 26
0.0
 36
0.0
 17
0.0
 27
1.0
 37
0.0
 76
     0
330
1F
331
29
  0
MATERIAL
  5
3D
102
{ACAD_REACTORS
330
3B
102
}
330
3B
100
AcDbMaterial
  1
ByBlock
 72
     1
 94
      127
  0
MATERIAL
  5
3C
102
{ACAD_REACTORS
330
3B
102
}
330
3B
100
AcDbMaterial
  1
ByLayer
 72
     1
 94
      127
  0
MATERIAL
  5
3E
102
{ACAD_REACTORS
330
3B
102
}
330
3B
100
AcDbMaterial
  1
Global
 72
     1
 94
      127
  0
MLINESTYLE
  5
18
102
{ACAD_REACTORS
330
17
102
}
330
17
100
AcDbMlineStyle
  2
Standard
 70
     0
  3

 62
   256
 51
90.0
 52
90.0
 71
     2
 49
0.5
 62
   256
  6
BYLAYER
 49
-0.5
 62
   256
  6
BYLAYER
  0
ACDBPLACEHOLDER
  5
F
102
{ACAD_REACTORS
330
E
102
}
330
E
  0
VISUALSTYLE
  5
2F
102
{ACAD_REACTORS
330
2A
102
}
330
2A
100
AcDbVisualStyle
  2
2dWireframe
 70
     4
177
     2
291
     0
 71
     0
176
     1
 72
     2
176
     1
 73
     0
176
     1
 90
        0
176
     1
 40
-0.6
176
     1
 41
-30.0
176
     1
 62
     5
 63
     7
421
 16777215
176
     1
 74
     1
176
     1
 91
        4
176
     1
 64
     7
176
     1
 65
   257
176
     1
 75
     1
176
     1
175
     1
176
     1
 42
1.0
176
     1
 92
        0
176
     1
 66
   257
176
     1
 43
1.0
176
     1
 76
     1
176
     1
 77
     6
176
     1
 78
     2
176
     1
 67
     7
176
     1
 79
     5
176
     1
170
     0
176
     1
171
     0
176
     1
290
     0
176
     1
 93
        1
176
     1
 44
0.0
176
     1
173
     0
176
     1
  0
VISUALSTYLE
  5
31
102
{ACAD_REACTORS
330
2A
102
}
330
2A
100
AcDbVisualStyle
  2
3D Hidden
 70
     6
177
     2
291
     0
 71
     1
176
     1
 72
     2
176
     1
 73
     2
176
     1
 90
        0
176
     1
 40
-0.6
176
     1
 41
-30.0
176
     1
 62
     5
 63
     7
421
 16777215
176
     1
 74
     2
176
     1
 91
        2
176
     1
 64
     7
176
     1
 65
   257
176
     1
 75
     2
176
     1
175
     1
176
     1
 42
40.0
176
     1
 92
        0
176
     1
 66
   257
176
     1
 43
1.0
176
     1
 76
     1
176
     1
 77
     6
176
     1
 78
     2
176
     1
 67
     7
176
     1
 79
     3
176
     1
170
     0
176
     1
171
     0
176
     1
290
     0
176
     1
 93
        1
176
     1
 44
0.0
176
     1
173
     0
176
     1
  0
VISUALSTYLE
  5
30
102
{ACAD_REACTORS
330
2A
102
}
330
2A
100
AcDbVisualStyle
  2
3dWireframe
 70
     5
177
     2
291
     0
 71
     0
176
     1
 72
     2
176
     1
 73
     0
176
     1
 90
        0
176
     1
 40
-0.6
176
     1
 41
-30.0
176
     1
 62
     5
 63
     7
421
 16777215
176
     1
 74
     1
176
     1
 91
        4
176
     1
 64
     7
176
     1
 65
   257
176
     1
 75
     1
176
     1
175
     1
176
     1
 42
1.0
176
     1
 92
        0
176
     1
 66
   257
176
     1
 43
1.0
176
     1
 76
     1
176
     1
 77
     6
176
     1
 78
     2
176
     1
 67
     7
176
     1
 79
     5
176
     1
170
     0
176
     1
171
     0
176
     1
290
     0
176
     1
 93
        1
176
     1
 44
0.0
176
     1
173
     0
176
     1
  0
VISUALSTYLE
  5
32
102
{ACAD_REACTORS
330
2A
102
}
330
2A
100
AcDbVisualStyle
  2
Basic
 70
     7
177
     2
291
     1
 71
     1
176
     1
 72
     0
176
     1
 73
     1
176
     1
 90
        0
176
     1
 40
-0.6
176
     1
 41
-30.0
176
     1
 62
     5
 63
     7
421
 16777215
176
     1
 74
     0
176
     1
 91
        4
176
     1
 64
     7
176
     1
 65
   257
176
     1
 75
     1
176
     1
175
     1
176
     1
 42
1.0
176
     1
 92
        8
176
     1
 66
     7
176
     1
 43
1.0
176
     1
 76
     1
176
     1
 77
     6
176
     1
 78
     2
176
     1
 67
     7
176
     1
 79
     5
176
     1
170
     0
176
     1
171
     0
176
     1
290
     0
176
     1
 93
        1
176
     1
 44
0.0
176
     1
173
     0
176
     1
  0
VISUALSTYLE
  5
36
102
{ACAD_REACTORS
330
2A
102
}
330
2A
100
AcDbVisualStyle
  2
Brighten
 70
    12
177
     2
291
     1
 71
     2
176
     1
 72
     2
176
     1
 73
     0
176
     1
 90
        0
176
     1
 40
-0.6
176
     1
 41
-30.0
176
     1
 62
     5
 63
     7
421
 16777215
176
     1
 74
     1
176
     1
 91
        4
176
     1
 64
     7
176
     1
 65
   257
176
     1
 75
     1
176
     1
175
     1
176
     1
 42
1.0
176
     1
 92
        8
176
     1
 66
     7
176
     1
 43
1.0
176
     1
 76
     1
176
     1
 77
     6
176
     1
 78
     2
176
     1
 67
     7
176
     1
 79
     5
176
     1
170
     0
176
     1
171
     0
176
     1
290
     0
176
     1
 93
        1
176
     1
 44
50.0
176
     1
173
     0
176
     1
  0
VISUALSTYLE
  5
3A
102
{ACAD_REACTORS
330
2A
102
}
330
2A
100
AcDbVisualStyle
  2
ColorChange
 70
    16
177
     2
291
     1
 71
     2
176
     1
 72
     2
176
     1
 73
     3
176
     1
 90
        0
176
     1
 40
-0.6
176
     1
 41
-30.0
176
     1
 62
     5
 63
     8
421
  8421504
176
     1
 74
     1
176
     1
 91
        4
176
     1
 64
     7
176
     1
 65
   257
176
     1
 75
     1
176
     1
175
     1
176
     1
 42
1.0
176
     1
 92
        8
176
     1
 66
     8
424
  8421504
176
     1
 43
1.0
176
     1
 76
     1
176
     1
 77
     6
176
     1
 78
     2
176
     1
 67
     7
176
     1
 79
     5
176
     1
170
     0
176
     1
171
     0
176
     1
290
     0
176
     1
 93
        1
176
     1
 44
0.0
176
     1
173
     0
176
     1
  0
VISUALSTYLE
  5
34
102
{ACAD_REACTORS
330
2A
102
}
330
2A
100
AcDbVisualStyle
  2
Conceptual
 70
     9
177
     2
291
     0
 71
     3
176
     1
 72
     2
176
     1
 73
     0
176
     1
 90
        0
176
     1
 40
-0.6
176
     1
 41
-30.0
176
     1
 62
     5
 63
     7
421
 16777215
176
     1
 74
     2
176
     1
 91
        2
176
     1
 64
     7
176
     1
 65
   257
176
     1
 75
     1
176
     1
175
     1
176
     1
 42
40.0
176
     1
 92
        8
176
     1
 66
     7
176
     1
 43
1.0
176
     1
 76
     1
176
     1
 77
     6
176
     1
 78
     2
176
     1
 67
     7
176
     1
 79
     3
176
     1
170
     0
176
     1
171
     0
176
     1
290
     0
176
     1
 93
        1
176
     1
 44
0.0
176
     1
173
     0
176
     1
  0
VISUALSTYLE
  5
35
102
{ACAD_REACTORS
330
2A
102
}
330
2A
100
AcDbVisualStyle
  2
Dim
 70
    11
177
     2
291
     1
 71
     2
176
     1
 72
     2
176
     1
 73
     0
176
     1
 90
        0
176
     1
 40
-0.6
176
     1
 41
-30.0
176
     1
 62
     5
 63
     7
421
 16777215
176
     1
 74
     1
176
     1
 91
        4
176
     1
 64
     7
176
     1
 65
   257
176
     1
 75
     1
176
     1
175
     1
176
     1
 42
1.0
176
     1
 92
        8
176
     1
 66
     7
176
     1
 43
1.0
176
     1
 76
     1
176
     1
 77
     6
176
     1
 78
     2
176
     1
 67
     7
176
     1
 79
     5
176
     1
170
     0
176
     1
171
     0
176
     1
290
     0
176
     1
 93
        1
176
     1
 44
-50.0
176
     1
173
     0
176
     1
  0
VISUALSTYLE
  5
39
102
{ACAD_REACTORS
330
2A
102
}
330
2A
100
AcDbVisualStyle
  2
Facepattern
 70
    15
177
     2
291
     1
 71
     2
176
     1
 72
     2
176
     1
 73
     0
176
     1
 90
        0
176
     1
 40
-0.6
176
     1
 41
-30.0
176
     1
 62
     5
 63
     7
421
 16777215
176
     1
 74
     1
176
     1
 91
        4
176
     1
 64
     7
176
     1
 65
   257
176
     1
 75
     1
176
     1
175
     1
176
     1
 42
1.0
176
     1
 92
        8
176
     1
 66
     7
176
     1
 43
1.0
176
     1
 76
     1
176
     1
 77
     6
176
     1
 78
     2
176
     1
 67
     7
176
     1
 79
     5
176
     1
170
     0
176
     1
171
     0
176
     1
290
     0
176
     1
 93
        1
176
     1
 44
0.0
176
     1
173
     0
176
     1
  0
VISUALSTYLE
  5
2B
102
{ACAD_REACTORS
330
2A
102
}
330
2A
100
AcDbVisualStyle
  2
Flat
 70
     0
177
     2
291
     1
 71
     2
176
     1
 72
     1
176
     1
 73
     1
176
     1
 90
        2
176
     1
 40
-0.6
176
     1
 41
30.0
176
     1
 62
     5
 63
     7
421
 16777215
176
     1
 74
     0
176
     1
 91
        4
176
     1
 64
     7
176
     1
 65
   257
176
     1
 75
     1
176
     1
175
     1
176
     1
 42
1.0
176
     1
 92
        8
176
     1
 66
     7
176
     1
 43
1.0
176
     1
 76
     1
176
     1
 77
     6
176
     1
 78
     2
176
     1
 67
     7
176
     1
 79
     5
176
     1
170
     0
176
     1
171
     0
176
     1
290
     0
176
     1
 93
       13
176
     1
 44
0.0
176
     1
173
     0
176
     1
  0
VISUALSTYLE
  5
2C
102
{ACAD_REACTORS
330
2A
102
}
330
2A
100
AcDbVisualStyle
  2
FlatWithEdges
 70
     1
177
     2
291
     1
 71
     2
176
     1
 72
     1
176
     1
 73
     1
176
     1
 90
        2
176
     1
 40
-0.6
176
     1
 41
30.0
176
     1
 62
     5
 63
     7
421
 16777215
176
     1
 74
     1
176
     1
 91
        4
176
     1
 64
     7
176
     1
 65
   257
176
     1
 75
     1
176
     1
175
     1
176
     1
 42
1.0
176
     1
 92
        0
176
     1
 66
   257
176
     1
 43
1.0
176
     1
 76
     1
176
     1
 77
     6
176
     1
 78
     2
176
     1
 67
     7
176
     1
 79
     5
176
     1
170
     0
176
     1
171
     0
176
     1
290
     0
176
     1
 93
       13
176
     1
 44
0.0
176
     1
173
     0
176
     1
  0
VISUALSTYLE
  5
2D
102
{ACAD_REACTORS
330
2A
102
}
330
2A
100
AcDbVisualStyle
  2
Gouraud
 70
     2
177
     2
291
     1
 71
     2
176
     1
 72
     2
176
     1
 73
     1
176
     1
 90
        2
176
     1
 40
-0.6
176
     1
 41
30.0
176
     1
 62
     5
 63
     7
421
 16777215
176
     1
 74
     0
176
     1
 91
        4
176
     1
 64
     7
176
     1
 65
   257
176
     1
 75
     1
176
     1
175
     1
176
     1
 42
1.0
176
     1
 92
        0
176
     1
 66
     7
176
     1
 43
1.0
176
     1
 76
     1
176
     1
 77
     6
176
     1
 78
     2
176
     1
 67
     7
176
     1
 79
     5
176
     1
170
     0
176
     1
171
     0
176
     1
290
     0
176
     1
 93
       13
176
     1
 44
0.0
176
     1
173
     0
176
     1
  0
VISUALSTYLE
  5
2E
102
{ACAD_REACTORS
330
2A
102
}
330
2A
100
AcDbVisualStyle
  2
GouraudWithEdges
 70
     3
177
     2
291
     1
 71
     2
176
     1
 72
     2
176
     1
 73
     1
176
     1
 90
        2
176
     1
 40
-0.6
176
     1
 41
30.0
176
     1
 62
     5
 63
     7
421
 16777215
176
     1
 74
     1
176
     1
 91
        4
176
     1
 64
     7
176
     1
 65
   257
176
     1
 75
     1
176
     1
175
     1
176
     1
 42
1.0
176
     1
 92
        0
176
     1
 66
   257
176
     1
 43
1.0
176
     1
 76
     1
176
     1
 77
     6
176
     1
 78
     2
176
     1
 67
     7
176
     1
 79
     5
176
     1
170
     0
176
     1
171
     0
176
     1
290
     0
176
     1
 93
       13
176
     1
 44
0.0
176
     1
173
     0
176
     1
  0
VISUALSTYLE
  5
38
102
{ACAD_REACTORS
330
2A
102
}
330
2A
100
AcDbVisualStyle
  2
Linepattern
 70
    14
177
     2
291
     1
 71
     2
176
     1
 72
     2
176
     1
 73
     0
176
     1
 90
        0
176
     1
 40
-0.6
176
     1
 41
-30.0
176
     1
 62
     5
 63
     7
421
 16777215
176
     1
 74
     1
176
     1
 91
        4
176
     1
 64
     7
176
     1
 65
   257
176
     1
 75
     7
176
     1
175
     7
176
     1
 42
1.0
176
     1
 92
        8
176
     1
 66
     7
176
     1
 43
1.0
176
     1
 76
     1
176
     1
 77
     6
176
     1
 78
     2
176
     1
 67
     7
176
     1
 79
     5
176
     1
170
     0
176
     1
171
     0
176
     1
290
     0
176
     1
 93
        1
176
     1
 44
0.0
176
     1
173
     0
176
     1
  0
VISUALSTYLE
  5
33
102
{ACAD_REACTORS
330
2A
102
}
330
2A
100
AcDbVisualStyle
  2
Realistic
 70
     8
177
     2
291
     0
 71
     2
176
     1
 72
     2
176
     1
 73
     0
176
     1
 90
        0
176
     1
 40
-0.6
176
     1
 41
-30.0
176
     1
 62
     5
 63
     7
421
 16777215
176
     1
 74
     1
176
     1
 91
        0
176
     1
 64
     7
176
     1
 65
   257
176
     1
 75
     1
176
     1
175
     1
176
     1
 42
1.0
176
     1
 92
        8
176
     1
 66
     8
424
  7895160
176
     1
 43
1.0
176
     1
 76
     1
176
     1
 77
     6
176
     1
 78
     2
176
     1
 67
     7
176
     1
 79
     5
176
     1
170
     0
176
     1
171
     0
176
     1
290
     0
176
     1
 93
       13
176
     1
 44
0.0
176
     1
173
     0
176
     1
  0
VISUALSTYLE
  5
37
102
{ACAD_REACTORS
330
2A
102
}
330
2A
100
AcDbVisualStyle
  2
Thicken
 70
    13
177
     2
291
     1
 71
     2
176
     1
 72
     2
176
     1
 73
     0
176
     1
 90
        0
176
     1
 40
-0.6
176
     1
 41
-30.0
176
     1
 62
     5
 63
     7
421
 16777215
176
     1
 74
     1
176
     1
 91
        4
176
     1
 64
     7
176
     1
 65
   257
176
     1
 75
     1
176
     1
175
     1
176
     1
 42
1.0
176
     1
 92
       12
176
     1
 66
     7
176
     1
 43
1.0
176
     1
 76
     1
176
     1
 77
     6
176
     1
 78
     2
176
     1
 67
     7
176
     1
 79
     5
176
     1
170
     0
176
     1
171
     0
176
     1
290
     0
176
     1
 93
        1
176
     1
 44
0.0
176
     1
173
     0
176
     1
  0
ENDSEC
  0
EOF
