  0
SECTION
  2
HEADER
  9
$ACADVER
  1
AC1024
  9
$ACADMAINTVER
 70
     6
  9
$DWGCODEPAGE
  3
UNDEFINED
  9
$INSBASE
 10
0.0
 20
0.0
 30
0.0
  9
$EXTMIN
 10
1.000000000000000E+20
 20
1.000000000000000E+20
 30
1.000000000000000E+20
  9
$EXTMAX
 10
-1.000000000000000E+20
 20
-1.000000000000000E+20
 30
-1.000000000000000E+20
  9
$LIMMIN
 10
0.0
 20
0.0
  9
$LIMMAX
 10
12.0
 20
9.0
  9
$ORTHOMODE
 70
     0
  9
$REGENMODE
 70
     1
  9
$FILLMODE
 70
     1
  9
$QTEXTMODE
 70
     0
  9
$MIRRTEXT
 70
     1
  9
$LTSCALE
 40
1.0
  9
$ATTMODE
 70
     1
  9
$TEXTSIZE
 40
0.2
  9
$TRACEWID
 40
0.05
  9
$TEXTSTYLE
  7
Standard
  9
$CLAYER
  8
0
  9
$CELTYPE
  6
ByLayer
  9
$CECOLOR
 62
   256
  9
$CELTSCALE
 40
1.0
  9
$DISPSILH
 70
     0
  9
$DIMSCALE
 40
1.0
  9
$DIMASZ
 40
0.18
  9
$DIMEXO
 40
0.0625
  9
$DIMDLI
 40
0.38
  9
$DIMRND
 40
0.0
  9
$DIMDLE
 40
0.0
  9
$DIMEXE
 40
0.18
  9
$DIMTP
 40
0.0
  9
$DIMTM
 40
0.0
  9
$DIMTXT
 40
0.18
  9
$DIMCEN
 40
0.09
  9
$DIMTSZ
 40
0.0
  9
$DIMTOL
 70
     0
  9
$DIMLIM
 70
     0
  9
$DIMTIH
 70
     1
  9
$DIMTOH
 70
     1
  9
$DIMSE1
 70
     0
  9
$DIMSE2
 70
     0
  9
$DIMTAD
 70
     0
  9
$DIMZIN
 70
     0
  9
$DIMBLK
  1

  9
$DIMASO
 70
     1
  9
$DIMSHO
 70
     1
  9
$DIMPOST
  1

  9
$DIMAPOST
  1

  9
$DIMALT
 70
     0
  9
$DIMALTD
 70
     2
  9
$DIMALTF
 40
25.4
  9
$DIMLFAC
 40
1.0
  9
$DIMTOFL
 70
     0
  9
$DIMTVP
 40
0.0
  9
$DIMTIX
 70
     0
  9
$DIMSOXD
 70
     0
  9
$DIMSAH
 70
     0
  9
$DIMBLK1
  1

  9
$DIMBLK2
  1

  9
$DIMSTYLE
  2
Standard
  9
$DIMCLRD
 70
     0
  9
$DIMCLRE
 70
     0
  9
$DIMCLRT
 70
     0
  9
$DIMTFAC
 40
1.0
  9
$DIMGAP
 40
0.09
  9
$DIMJUST
 70
     0
  9
$DIMSD1
 70
     0
  9
$DIMSD2
 70
     0
  9
$DIMTOLJ
 70
     1
  9
$DIMTZIN
 70
     0
  9
$DIMALTZ
 70
     0
  9
$DIMALTTZ
 70
     0
  9
$DIMUPT
 70
     0
  9
$DIMDEC
 70
     4
  9
$DIMTDEC
 70
     4
  9
$DIMALTU
 70
     2
  9
$DIMALTTD
 70
     2
  9
$DIMTXSTY
  7
Standard
  9
$DIMAUNIT
 70
     0
  9
$DIMADEC
 70
     0
  9
$DIMALTRND
 40
0.0
  9
$DIMAZIN
 70
     0
  9
$DIMDSEP
 70
    46
  9
$DIMATFIT
 70
     3
  9
$DIMFRAC
 70
     0
  9
$DIMLDRBLK
  1

  9
$DIMLUNIT
 70
     2
  9
$DIMLWD
 70
    -2
  9
$DIMLWE
 70
    -2
  9
$DIMTMOVE
 70
     0
  9
$DIMFXL
 40
1.0
  9
$DIMFXLON
 70
     0
  9
$DIMJOGANG
 40
0.7853981633974483
  9
$DIMTFILL
 70
     0
  9
$DIMTFILLCLR
 70
     0
  9
$DIMARCSYM
 70
     0
  9
$DIMLTYPE
  6

  9
$DIMLTEX1
  6

  9
$DIMLTEX2
  6

  9
$DIMTXTDIRECTION
 70
     0
  9
$LUNITS
 70
     2
  9
$LUPREC
 70
     4
  9
$SKETCHINC
 40
0.1
  9
$FILLETRAD
 40
0.5
  9
$AUNITS
 70
     0
  9
$AUPREC
 70
     0
  9
$MENU
  1
.
  9
$ELEVATION
 40
0.0
  9
$PELEVATION
 40
0.0
  9
$THICKNESS
 40
0.0
  9
$LIMCHECK
 70
     0
  9
$CHAMFERA
 40
0.5
  9
$CHAMFERB
 40
0.5
  9
$CHAMFERC
 40
1.0
  9
$CHAMFERD
 40
0.0
  9
$SKPOLY
 70
     0
  9
$TDCREATE
 40
2457917.627511562
  9
$TDUCREATE
 40
2457917.252511574
  9
$TDUPDATE
 40
2457917.627511562
  9
$TDUUPDATE
 40
2457917.252511574
  9
$TDINDWG
 40
0.0000000116
  9
$TDUSRTIMER
 40
0.0000000116
  9
$USRTIMER
 70
     1
  9
$ANGBASE
 50
0.0
  9
$ANGDIR
 70
     0
  9
$PDMODE
 70
     0
  9
$PDSIZE
 40
0.0
  9
$PLINEWID
 40
0.0
  9
$SPLFRAME
 70
     0
  9
$SPLINETYPE
 70
     6
  9
$SPLINESEGS
 70
     8
  9
$HANDSEED
  5
18F
  9
$SURFTAB1
 70
     6
  9
$SURFTAB2
 70
     6
  9
$SURFTYPE
 70
     6
  9
$SURFU
 70
     6
  9
$SURFV
 70
     6
  9
$UCSBASE
  2

  9
$UCSNAME
  2

  9
$UCSORG
 10
0.0
 20
0.0
 30
0.0
  9
$UCSXDIR
 10
1.0
 20
0.0
 30
0.0
  9
$UCSYDIR
 10
0.0
 20
1.0
 30
0.0
  9
$UCSORTHOREF
  2

  9
$UCSORTHOVIEW
 70
     0
  9
$UCSORGTOP
 10
0.0
 20
0.0
 30
0.0
  9
$UCSORGBOTTOM
 10
0.0
 20
0.0
 30
0.0
  9
$UCSORGLEFT
 10
0.0
 20
0.0
 30
0.0
  9
$UCSORGRIGHT
 10
0.0
 20
0.0
 30
0.0
  9
$UCSORGFRONT
 10
0.0
 20
0.0
 30
0.0
  9
$UCSORGBACK
 10
0.0
 20
0.0
 30
0.0
  9
$PUCSBASE
  2

  9
$PUCSNAME
  2

  9
$PUCSORG
 10
0.0
 20
0.0
 30
0.0
  9
$PUCSXDIR
 10
1.0
 20
0.0
 30
0.0
  9
$PUCSYDIR
 10
0.0
 20
1.0
 30
0.0
  9
$PUCSORTHOREF
  2

  9
$PUCSORTHOVIEW
 70
     0
  9
$PUCSORGTOP
 10
0.0
 20
0.0
 30
0.0
  9
$PUCSORGBOTTOM
 10
0.0
 20
0.0
 30
0.0
  9
$PUCSORGLEFT
 10
0.0
 20
0.0
 30
0.0
  9
$PUCSORGRIGHT
 10
0.0
 20
0.0
 30
0.0
  9
$PUCSORGFRONT
 10
0.0
 20
0.0
 30
0.0
  9
$PUCSORGBACK
 10
0.0
 20
0.0
 30
0.0
  9
$USERI1
 70
     0
  9
$USERI2
 70
     0
  9
$USERI3
 70
     0
  9
$USERI4
 70
     0
  9
$USERI5
 70
     0
  9
$USERR1
 40
0.0
  9
$USERR2
 40
0.0
  9
$USERR3
 40
0.0
  9
$USERR4
 40
0.0
  9
$USERR5
 40
0.0
  9
$WORLDVIEW
 70
     1
  9
$SHADEDGE
 70
     3
  9
$SHADEDIF
 70
    70
  9
$TILEMODE
 70
     1
  9
$MAXACTVP
 70
    64
  9
$PINSBASE
 10
0.0
 20
0.0
 30
0.0
  9
$PLIMCHECK
 70
     0
  9
$PEXTMIN
 10
1.000000000000000E+20
 20
1.000000000000000E+20
 30
1.000000000000000E+20
  9
$PEXTMAX
 10
-1.000000000000000E+20
 20
-1.000000000000000E+20
 30
-1.000000000000000E+20
  9
$PLIMMIN
 10
0.0
 20
0.0
  9
$PLIMMAX
 10
12.0
 20
9.0
  9
$UNITMODE
 70
     0
  9
$VISRETAIN
 70
     1
  9
$PLINEGEN
 70
     0
  9
$PSLTSCALE
 70
     1
  9
$TREEDEPTH
 70
  3020
  9
$CMLSTYLE
  2
Standard
  9
$CMLJUST
 70
     0
  9
$CMLSCALE
 40
1.0
  9
$PROXYGRAPHICS
 70
     1
  9
$MEASUREMENT
 70
     0
  9
$CELWEIGHT
370
    -1
  9
$ENDCAPS
280
     0
  9
$JOINSTYLE
280
     0
  9
$LWDISPLAY
290
     1
  9
$INSUNITS
 70
     1
  9
$HYPERLINKBASE
  1

  9
$STYLESHEET
  1

  9
$XEDIT
290
     1
  9
$CEPSNTYPE
380
     0
  9
$PSTYLEMODE
290
     1
  9
$FINGERPRINTGUID
  2
{45725858-7A54-8946-BBEB-8859AE2E715D}
  9
$VERSIONGUID
  2
{FAEB1C32-E019-11D5-929B-00C0DF256EC4}
  9
$EXTNAMES
290
     1
  9
$PSVPSCALE
 40
0.0
  9
$OLESTARTUP
290
     0
  9
$SORTENTS
280
   127
  9
$INDEXCTL
280
     0
  9
$HIDETEXT
280
     1
  9
$XCLIPFRAME
280
     2
  9
$HALOGAP
280
     0
  9
$OBSCOLOR
 70
   257
  9
$OBSLTYPE
280
     0
  9
$INTERSECTIONDISPLAY
280
     0
  9
$INTERSECTIONCOLOR
 70
   257
  9
$DIMASSOC
280
     2
  9
$PROJECTNAME
  1

  9
$CAMERADISPLAY
290
     0
  9
$LENSLENGTH
 40
50.0
  9
$CAMERAHEIGHT
 40
0.0
  9
$STEPSPERSEC
 40
2.0
  9
$STEPSIZE
 40
6.0
  9
$3DDWFPREC
 40
2.0
  9
$PSOLWIDTH
 40
0.25
  9
$PSOLHEIGHT
 40
4.0
  9
$LOFTANG1
 40
1.570796326794897
  9
$LOFTANG2
 40
1.570796326794897
  9
$LOFTMAG1
 40
0.0
  9
$LOFTMAG2
 40
0.0
  9
$LOFTPARAM
 70
     7
  9
$LOFTNORMALS
280
     1
  9
$LATITUDE
 40
37.795
  9
$LONGITUDE
 40
-122.394
  9
$NORTHDIRECTION
 40
0.0
  9
$TIMEZONE
 70
 -8000
  9
$LIGHTGLYPHDISPLAY
280
     1
  9
$TILEMODELIGHTSYNCH
280
     1
  9
$CMATERIAL
347
3C
  9
$SOLIDHIST
280
     1
  9
$SHOWHIST
280
     1
  9
$DWFFRAME
280
     2
  9
$DGNFRAME
280
     2
  9
$REALWORLDSCALE
290
     1
  9
$INTERFERECOLOR
 62
   256
  9
$CSHADOW
280
     0
  9
$SHADOWPLANELOCATION
 40
0.0
  0
ENDSEC
  0
SECTION
  2
CLASSES
  0
CLASS
  1
ACDBDICTIONARYWDFLT
  2
AcDbDictionaryWithDefault
  3
ObjectDBX Classes
 90
        0
 91
        4
280
     0
281
     0
  0
CLASS
  1
VISUALSTYLE
  2
AcDbVisualStyle
  3
ObjectDBX Classes
 90
     4095
 91
        4
280
     0
281
     0
  0
CLASS
  1
MATERIAL
  2
AcDbMaterial
  3
ObjectDBX Classes
 90
     1153
 91
        4
280
     0
281
     0
  0
CLASS
  1
SUN
  2
AcDbSun
  3
SCENEOE
 90
     1024
 91
        4
280
     0
281
     0
  0
ENDSEC
  0
SECTION
  2
TABLES
  0
TABLE
  2
VPORT
  5
8
330
0
100
AcDbSymbolTable
 70
     1
  0
VPORT
  5
29
330
8
100
AcDbSymbolTableRecord
100
AcDbViewportTableRecord
  2
*Active
 70
     0
 10
0.0
 20
0.0
 11
1.0
 21
1.0
 12
0.0
 22
0.0
 13
0.0
 23
0.0
 14
0.5
 24
0.5
 15
0.5
 25
0.5
 16
0.0
 26
0.0
 36
1.0
 17
91.00082462281999
 27
-128.4993055234307
 37
0.0
 40
256.9986110468615
 41
0.7081814508812795
 42
50.0
 43
0.0
 44
0.0
 50
0.0
 51
0.0
 71
     0
 72
   100
 73
     1
 74
     3
 75
     0
 76
     0
 77
     0
 78
     0
281
     0
 65
     1
110
0.0
120
0.0
130
0.0
111
1.0
121
0.0
131
0.0
112
0.0
122
1.0
132
0.0
 79
     0
146
0.0
 60
     3
 61
     5
292
     1
282
     1
141
0.0
142
0.0
 63
   250
361
3F
  0
ENDTAB
  0
TABLE
  2
LTYPE
  5
5
330
0
100
AcDbSymbolTable
 70
     1
  0
LTYPE
  5
14
330
5
100
AcDbSymbolTableRecord
100
AcDbLinetypeTableRecord
  2
ByBlock
 70
     0
  3

 72
    65
 73
     0
 40
0.0
  0
LTYPE
  5
15
330
5
100
AcDbSymbolTableRecord
100
AcDbLinetypeTableRecord
  2
ByLayer
 70
     0
  3

 72
    65
 73
     0
 40
0.0
  0
LTYPE
  5
16
330
5
100
AcDbSymbolTableRecord
100
AcDbLinetypeTableRecord
  2
Continuous
 70
     0
  3
Solid line
 72
    65
 73
     0
 40
0.0
  0
ENDTAB
  0
TABLE
  2
LAYER
  5
2
330
0
100
AcDbSymbolTable
 70
     2
  0
LAYER
  5
10
330
2
100
AcDbSymbolTableRecord
100
AcDbLayerTableRecord
  2
0
 70
     0
 62
     7
  6
Continuous
370
    -3
390
F
347
3E
  0
LAYER
  5
40
330
2
100
AcDbSymbolTableRecord
100
AcDbLayerTableRecord
  2
_U+30EC_U+30A4_U+30E4_U+30FC 1
 70
     0
 62
     7
  6
Continuous
370
    -3
390
F
347
3E
  0
ENDTAB
  0
TABLE
  2
STYLE
  5
3
330
0
100
AcDbSymbolTable
 70
     1
  0
STYLE
  5
11
330
3
100
AcDbSymbolTableRecord
100
AcDbTextStyleTableRecord
  2
Standard
 70
     0
 40
0.0
 41
1.0
 50
0.0
 71
     0
 42
0.2
  3
txt
  4

  0
ENDTAB
  0
TABLE
  2
VIEW
  5
6
330
0
100
AcDbSymbolTable
 70
     0
  0
ENDTAB
  0
TABLE
  2
UCS
  5
7
330
0
100
AcDbSymbolTable
 70
     0
  0
ENDTAB
  0
TABLE
  2
APPID
  5
9
330
0
100
AcDbSymbolTable
 70
     1
  0
APPID
  5
12
330
9
100
AcDbSymbolTableRecord
100
AcDbRegAppTableRecord
  2
ACAD
 70
     0
  0
ENDTAB
  0
TABLE
  2
DIMSTYLE
  5
A
330
0
100
AcDbSymbolTable
 70
     1
100
AcDbDimStyleTable
  0
DIMSTYLE
105
27
330
A
100
AcDbSymbolTableRecord
100
AcDbDimStyleTableRecord
  2
Standard
 70
     0
178
     0
340
11
  0
ENDTAB
  0
TABLE
  2
BLOCK_RECORD
  5
1
330
0
100
AcDbSymbolTable
 70
     9
  0
BLOCK_RECORD
  5
1F
330
1
100
AcDbSymbolTableRecord
100
AcDbBlockTableRecord
  2
*Model_Space
340
22
 70
     0
280
     1
281
     0
  0
BLOCK_RECORD
  5
1B
330
1
100
AcDbSymbolTableRecord
100
AcDbBlockTableRecord
  2
*Paper_Space
340
1E
 70
     0
280
     1
281
     0
  0
BLOCK_RECORD
  5
23
330
1
100
AcDbSymbolTableRecord
100
AcDbBlockTableRecord
  2
*Paper_Space0
340
26
 70
     0
280
     1
281
     0
  0
BLOCK_RECORD
  5
7C
330
1
100
AcDbSymbolTableRecord
100
AcDbBlockTableRecord
  2
block 2
340
0
102
{BLKREFS
331
7D
102
}
 70
     0
280
     1
281
     0
  0
BLOCK_RECORD
  5
84
330
1
100
AcDbSymbolTableRecord
100
AcDbBlockTableRecord
  2
block 3
340
0
102
{BLKREFS
331
85
102
}
 70
     0
280
     1
281
     0
  0
BLOCK_RECORD
  5
9F
330
1
100
AcDbSymbolTableRecord
100
AcDbBlockTableRecord
  2
block 4
340
0
102
{BLKREFS
331
A0
102
}
 70
     0
280
     1
281
     0
  0
BLOCK_RECORD
  5
A5
330
1
100
AcDbSymbolTableRecord
100
AcDbBlockTableRecord
  2
block 5
340
0
102
{BLKREFS
331
A6
102
}
 70
     0
280
     1
281
     0
  0
BLOCK_RECORD
  5
AD
330
1
100
AcDbSymbolTableRecord
100
AcDbBlockTableRecord
  2
block 6
340
0
102
{BLKREFS
331
AE
102
}
 70
     0
280
     1
281
     0
  0
BLOCK_RECORD
  5
E9
330
1
100
AcDbSymbolTableRecord
100
AcDbBlockTableRecord
  2
block 7
340
0
102
{BLKREFS
331
EA
102
}
 70
     0
280
     1
281
     0
  0
BLOCK_RECORD
  5
104
330
1
100
AcDbSymbolTableRecord
100
AcDbBlockTableRecord
  2
block 8
340
0
102
{BLKREFS
331
105
102
}
 70
     0
280
     1
281
     0
  0
BLOCK_RECORD
  5
10D
330
1
100
AcDbSymbolTableRecord
100
AcDbBlockTableRecord
  2
block 9
340
0
102
{BLKREFS
331
10E
102
}
 70
     0
280
     1
281
     0
  0
ENDTAB
  0
ENDSEC
  0
SECTION
  2
BLOCKS
  0
BLOCK
  5
20
330
1F
100
AcDbEntity
  8
0
100
AcDbBlockBegin
  2
*Model_Space
 70
     0
 10
0.0
 20
0.0
 30
0.0
  3
*Model_Space
  1

  0
ENDBLK
  5
21
330
1F
100
AcDbEntity
  8
0
100
AcDbBlockEnd
  0
BLOCK
  5
1C
330
1B
100
AcDbEntity
 67
     1
  8
0
100
AcDbBlockBegin
  2
*Paper_Space
 70
     0
 10
0.0
 20
0.0
 30
0.0
  3
*Paper_Space
  1

  0
ENDBLK
  5
1D
330
1B
100
AcDbEntity
 67
     1
  8
0
100
AcDbBlockEnd
  0
BLOCK
  5
24
330
23
100
AcDbEntity
  8
0
100
AcDbBlockBegin
  2
*Paper_Space0
 70
     0
 10
0.0
 20
0.0
 30
0.0
  3
*Paper_Space0
  1

  0
ENDBLK
  5
25
330
23
100
AcDbEntity
  8
0
100
AcDbBlockEnd
  0
BLOCK
  5
7E
330
7C
100
AcDbEntity
  8
0
100
AcDbBlockBegin
  2
block 2
 70
     0
 10
0.0
 20
0.0
 30
0.0
  3
block 2
  1

  0
SPLINE
  5
80
330
7C
100
AcDbEntity
  8
_U+30EC_U+30A4_U+30E4_U+30FC 1
370
     0
100
AcDbSpline
210
0.0
220
0.0
230
1.0
 70
    11
 71
     3
 72
    44
 73
    40
 74
     0
 42
0.0000000001
 43
0.0000000001
 12
1.0
 22
0.0
 32
0.0
 13
1.0
 23
0.0
 33
0.0
 40
0.0
 40
0.0
 40
0.0
 40
0.0
 40
1.0
 40
1.0
 40
1.0
 40
2.0
 40
2.0
 40
2.0
 40
3.0
 40
3.0
 40
3.0
 40
4.0
 40
4.0
 40
4.0
 40
5.0
 40
5.0
 40
5.0
 40
6.0
 40
6.0
 40
6.0
 40
7.0
 40
7.0
 40
7.0
 40
8.0
 40
8.0
 40
8.0
 40
9.0
 40
9.0
 40
9.0
 40
10.0
 40
10.0
 40
10.0
 40
11.0
 40
11.0
 40
11.0
 40
12.0
 40
12.0
 40
12.0
 40
13.0
 40
13.0
 40
13.0
 40
13.0
 10
92.69994029800557
 20
-142.1418836450201
 30
0.0
 10
92.48221026333779
 20
-142.3003580373416
 30
0.0
 10
92.38884817568751
 20
-142.3744275902745
 30
0.0
 10
92.3402723293455
 20
-142.5184325815579
 30
0.0
 10
92.3402723293455
 20
-142.5184325815579
 30
0.0
 10
93.11886390901195
 20
-142.5184325815579
 30
0.0
 10
93.11886390901195
 20
-142.5184325815579
 30
0.0
 10
93.11886390901195
 20
-142.5184325815579
 30
0.0
 10
93.11886390901195
 20
-142.7234157629303
 30
0.0
 10
93.11886390901195
 20
-142.7234157629303
 30
0.0
 10
93.11886390901195
 20
-142.7234157629303
 30
0.0
 10
92.0908474162134
 20
-142.7234157629303
 30
0.0
 10
92.0908474162134
 20
-142.7234157629303
 30
0.0
 10
92.1225422946777
 20
-142.3658148515613
 30
0.0
 10
92.18799910889744
 20
-142.2876111840462
 30
0.0
 10
92.57316078414839
 20
-141.9892659150235
 30
0.0
 10
92.82878686915392
 20
-141.7904839055246
 30
0.0
 10
92.89424368337366
 20
-141.7229600340137
 30
0.0
 10
92.89424368337366
 20
-141.5855007241522
 30
0.0
 10
92.89424368337366
 20
-141.4669894394596
 30
0.0
 10
92.82258569728047
 20
-141.3357313014716
 30
0.0
 10
92.6258707450727
 20
-141.3357313014716
 30
0.0
 10
92.36576603593635
 20
-141.3357313014716
 30
0.0
 10
92.35715329722322
 20
-141.5662081894348
 30
0.0
 10
92.3526746730924
 20
-141.6826524168363
 30
0.0
 10
92.3526746730924
 20
-141.6826524168363
 30
0.0
 10
92.12874346655116
 20
-141.6826524168363
 30
0.0
 10
92.12874346655116
 20
-141.6826524168363
 30
0.0
 10
92.13701169571576
 20
-141.5558729029791
 30
0.0
 10
92.14769149172002
 20
-141.4435627901599
 30
0.0
 10
92.22796221652635
 20
-141.3250515054673
 30
0.0
 10
92.33820527205434
 20
-141.1645100558547
 30
0.0
 10
92.52424042825783
 20
-141.1304036105507
 30
0.0
 10
92.64068465565927
 20
-141.1304036105507
 30
0.0
 10
92.91767033267337
 20
-141.1304036105507
 30
0.0
 10
93.1250650808854
 20
-141.3147162190116
 30
0.0
 10
93.1250650808854
 20
-141.5875677814434
 30
0.0
 10
93.1250650808854
 20
-141.8159776121155
 30
0.0
 10
93.00862085348396
 20
-141.9155408716392
 30
0.0
 10
92.69994029800557
 20
-142.1418836450201
 30
0.0
  0
HATCH
  5
81
330
7C
100
AcDbEntity
  8
_U+30EC_U+30A4_U+30E4_U+30FC 1
 62
   179
420
  2234388
100
AcDbHatch
 10
0.0
 20
0.0
 30
0.0
210
0.0
220
0.0
230
1.0
  2
SOLID
 70
     1
 71
     0
 91
        1
 92
        1
 93
        1
 72
     4
 94
        3
 73
     0
 74
     1
 95
       44
 96
       40
 40
0.0
 40
0.0
 40
0.0
 40
0.0
 40
1.0
 40
1.0
 40
1.0
 40
2.0
 40
2.0
 40
2.0
 40
3.0
 40
3.0
 40
3.0
 40
4.0
 40
4.0
 40
4.0
 40
5.0
 40
5.0
 40
5.0
 40
6.0
 40
6.0
 40
6.0
 40
7.0
 40
7.0
 40
7.0
 40
8.0
 40
8.0
 40
8.0
 40
9.0
 40
9.0
 40
9.0
 40
10.0
 40
10.0
 40
10.0
 40
11.0
 40
11.0
 40
11.0
 40
12.0
 40
12.0
 40
12.0
 40
13.0
 40
13.0
 40
13.0
 40
13.0
 10
92.69994029800557
 20
-142.1418836450201
 10
92.48221026333779
 20
-142.3003580373416
 10
92.38884817568751
 20
-142.3744275902745
 10
92.3402723293455
 20
-142.5184325815579
 10
92.3402723293455
 20
-142.5184325815579
 10
93.11886390901195
 20
-142.5184325815579
 10
93.11886390901195
 20
-142.5184325815579
 10
93.11886390901195
 20
-142.5184325815579
 10
93.11886390901195
 20
-142.7234157629303
 10
93.11886390901195
 20
-142.7234157629303
 10
93.11886390901195
 20
-142.7234157629303
 10
92.0908474162134
 20
-142.7234157629303
 10
92.0908474162134
 20
-142.7234157629303
 10
92.1225422946777
 20
-142.3658148515613
 10
92.18799910889744
 20
-142.2876111840462
 10
92.57316078414839
 20
-141.9892659150235
 10
92.82878686915392
 20
-141.7904839055246
 10
92.89424368337366
 20
-141.7229600340137
 10
92.89424368337366
 20
-141.5855007241522
 10
92.89424368337366
 20
-141.4669894394596
 10
92.82258569728047
 20
-141.3357313014716
 10
92.6258707450727
 20
-141.3357313014716
 10
92.36576603593635
 20
-141.3357313014716
 10
92.35715329722322
 20
-141.5662081894348
 10
92.3526746730924
 20
-141.6826524168363
 10
92.3526746730924
 20
-141.6826524168363
 10
92.12874346655116
 20
-141.6826524168363
 10
92.12874346655116
 20
-141.6826524168363
 10
92.13701169571576
 20
-141.5558729029791
 10
92.14769149172002
 20
-141.4435627901599
 10
92.22796221652635
 20
-141.3250515054673
 10
92.33820527205434
 20
-141.1645100558547
 10
92.52424042825783
 20
-141.1304036105507
 10
92.64068465565927
 20
-141.1304036105507
 10
92.91767033267337
 20
-141.1304036105507
 10
93.1250650808854
 20
-141.3147162190116
 10
93.1250650808854
 20
-141.5875677814434
 10
93.1250650808854
 20
-141.8159776121155
 10
93.00862085348396
 20
-141.9155408716392
 10
92.69994029800557
 20
-142.1418836450201
 97
        0
 97
        0
 75
     2
 76
     1
 98
        0
  0
SPLINE
  5
82
330
7C
100
AcDbEntity
  8
_U+30EC_U+30A4_U+30E4_U+30FC 1
370
     0
100
AcDbSpline
210
0.0
220
0.0
230
1.0
 70
    11
 71
     3
 72
    53
 73
    49
 74
     0
 42
0.0000000001
 43
0.0000000001
 12
1.0
 22
0.0
 32
0.0
 13
1.0
 23
0.0
 33
0.0
 40
0.0
 40
0.0
 40
0.0
 40
0.0
 40
1.0
 40
1.0
 40
1.0
 40
2.0
 40
2.0
 40
2.0
 40
3.0
 40
3.0
 40
3.0
 40
4.0
 40
4.0
 40
4.0
 40
5.0
 40
5.0
 40
5.0
 40
6.0
 40
6.0
 40
6.0
 40
7.0
 40
7.0
 40
7.0
 40
8.0
 40
8.0
 40
8.0
 40
9.0
 40
9.0
 40
9.0
 40
10.0
 40
10.0
 40
10.0
 40
11.0
 40
11.0
 40
11.0
 40
12.0
 40
12.0
 40
12.0
 40
13.0
 40
13.0
 40
13.0
 40
14.0
 40
14.0
 40
14.0
 40
15.0
 40
15.0
 40
15.0
 40
16.0
 40
16.0
 40
16.0
 40
16.0
 10
93.76447480294777
 20
-142.774403176112
 30
0.0
 10
93.6862711354326
 20
-142.774403176112
 30
0.0
 10
93.58464081861773
 20
-142.7571776986857
 30
0.0
 10
93.48335501135139
 20
-142.6937879417571
 30
0.0
 10
93.30972219889479
 20
-142.5838893957776
 30
0.0
 10
93.28836260688625
 20
-142.4526312577896
 30
0.0
 10
93.2697590912659
 20
-142.3447997691013
 30
0.0
 10
93.2697590912659
 20
-142.3447997691013
 30
0.0
 10
93.49162324051599
 20
-142.3447997691013
 30
0.0
 10
93.49162324051599
 20
-142.3447997691013
 30
0.0
 10
93.54674476827998
 20
-142.5435817786002
 30
0.0
 10
93.67352428213718
 20
-142.5732095997734
 30
0.0
 10
93.76654186023893
 20
-142.5732095997734
 30
0.0
 10
93.90641273694007
 20
-142.5732095997734
 30
0.0
 10
94.05868595738811
 20
-142.4739908497982
 30
0.0
 10
94.05868595738811
 20
-142.2411023949953
 30
0.0
 10
94.05868595738811
 20
-141.9851318004412
 30
0.0
 10
93.87885197305808
 20
-141.9155408716392
 30
0.0
 10
93.75827363107433
 20
-141.9155408716392
 30
0.0
 10
93.72657875261002
 20
-141.9155408716392
 30
0.0
 10
93.58464081861773
 20
-141.9155408716392
 30
0.0
 10
93.49575735509829
 20
-142.0443874427875
 30
0.0
 10
93.49575735509829
 20
-142.0443874427875
 30
0.0
 10
93.32040199489907
 20
-142.0254394176187
 30
0.0
 10
93.32040199489907
 20
-142.0254394176187
 30
0.0
 10
93.32040199489907
 20
-142.0254394176187
 30
0.0
 10
93.44098033688282
 20
-141.1793239664413
 30
0.0
 10
93.44098033688282
 20
-141.1793239664413
 30
0.0
 10
93.44098033688282
 20
-141.1793239664413
 30
0.0
 10
94.21922740700076
 20
-141.1793239664413
 30
0.0
 10
94.21922740700076
 20
-141.1793239664413
 30
0.0
 10
94.21922740700076
 20
-141.1793239664413
 30
0.0
 10
94.21922740700076
 20
-141.3739718613579
 30
0.0
 10
94.21922740700076
 20
-141.3739718613579
 30
0.0
 10
94.21922740700076
 20
-141.3739718613579
 30
0.0
 10
93.60393335333514
 20
-141.3739718613579
 30
0.0
 10
93.60393335333514
 20
-141.3739718613579
 30
0.0
 10
93.60393335333514
 20
-141.3739718613579
 30
0.0
 10
93.53847653911538
 20
-141.7970295869466
 30
0.0
 10
93.53847653911538
 20
-141.7970295869466
 30
0.0
 10
93.59979923875284
 20
-141.7629231416426
 30
0.0
 10
93.6821370208503
 20
-141.7229600340137
 30
0.0
 10
93.80030379599437
 20
-141.7229600340137
 30
0.0
 10
94.05455184280581
 20
-141.7229600340137
 30
0.0
 10
94.291574412191
 20
-141.9089951902172
 30
0.0
 10
94.291574412191
 20
-142.2221543698264
 30
0.0
 10
94.291574412191
 20
-142.5394476640179
 30
0.0
 10
94.0669541865527
 20
-142.774403176112
 30
0.0
 10
93.76447480294777
 20
-142.774403176112
 30
0.0
  0
HATCH
  5
83
330
7C
100
AcDbEntity
  8
_U+30EC_U+30A4_U+30E4_U+30FC 1
 62
   179
420
  2234388
100
AcDbHatch
 10
0.0
 20
0.0
 30
0.0
210
0.0
220
0.0
230
1.0
  2
SOLID
 70
     1
 71
     0
 91
        1
 92
        1
 93
        1
 72
     4
 94
        3
 73
     0
 74
     1
 95
       53
 96
       49
 40
0.0
 40
0.0
 40
0.0
 40
0.0
 40
1.0
 40
1.0
 40
1.0
 40
2.0
 40
2.0
 40
2.0
 40
3.0
 40
3.0
 40
3.0
 40
4.0
 40
4.0
 40
4.0
 40
5.0
 40
5.0
 40
5.0
 40
6.0
 40
6.0
 40
6.0
 40
7.0
 40
7.0
 40
7.0
 40
8.0
 40
8.0
 40
8.0
 40
9.0
 40
9.0
 40
9.0
 40
10.0
 40
10.0
 40
10.0
 40
11.0
 40
11.0
 40
11.0
 40
12.0
 40
12.0
 40
12.0
 40
13.0
 40
13.0
 40
13.0
 40
14.0
 40
14.0
 40
14.0
 40
15.0
 40
15.0
 40
15.0
 40
16.0
 40
16.0
 40
16.0
 40
16.0
 10
93.76447480294777
 20
-142.774403176112
 10
93.6862711354326
 20
-142.774403176112
 10
93.58464081861773
 20
-142.7571776986857
 10
93.48335501135139
 20
-142.6937879417571
 10
93.30972219889479
 20
-142.5838893957776
 10
93.28836260688625
 20
-142.4526312577896
 10
93.2697590912659
 20
-142.3447997691013
 10
93.2697590912659
 20
-142.3447997691013
 10
93.49162324051599
 20
-142.3447997691013
 10
93.49162324051599
 20
-142.3447997691013
 10
93.54674476827998
 20
-142.5435817786002
 10
93.67352428213718
 20
-142.5732095997734
 10
93.76654186023893
 20
-142.5732095997734
 10
93.90641273694007
 20
-142.5732095997734
 10
94.05868595738811
 20
-142.4739908497982
 10
94.05868595738811
 20
-142.2411023949953
 10
94.05868595738811
 20
-141.9851318004412
 10
93.87885197305808
 20
-141.9155408716392
 10
93.75827363107433
 20
-141.9155408716392
 10
93.72657875261002
 20
-141.9155408716392
 10
93.58464081861773
 20
-141.9155408716392
 10
93.49575735509829
 20
-142.0443874427875
 10
93.49575735509829
 20
-142.0443874427875
 10
93.32040199489907
 20
-142.0254394176187
 10
93.32040199489907
 20
-142.0254394176187
 10
93.32040199489907
 20
-142.0254394176187
 10
93.44098033688282
 20
-141.1793239664413
 10
93.44098033688282
 20
-141.1793239664413
 10
93.44098033688282
 20
-141.1793239664413
 10
94.21922740700076
 20
-141.1793239664413
 10
94.21922740700076
 20
-141.1793239664413
 10
94.21922740700076
 20
-141.1793239664413
 10
94.21922740700076
 20
-141.3739718613579
 10
94.21922740700076
 20
-141.3739718613579
 10
94.21922740700076
 20
-141.3739718613579
 10
93.60393335333514
 20
-141.3739718613579
 10
93.60393335333514
 20
-141.3739718613579
 10
93.60393335333514
 20
-141.3739718613579
 10
93.53847653911538
 20
-141.7970295869466
 10
93.53847653911538
 20
-141.7970295869466
 10
93.59979923875284
 20
-141.7629231416426
 10
93.6821370208503
 20
-141.7229600340137
 10
93.80030379599437
 20
-141.7229600340137
 10
94.05455184280581
 20
-141.7229600340137
 10
94.291574412191
 20
-141.9089951902172
 10
94.291574412191
 20
-142.2221543698264
 10
94.291574412191
 20
-142.5394476640179
 10
94.0669541865527
 20
-142.774403176112
 10
93.76447480294777
 20
-142.774403176112
 97
        0
 97
        0
 75
     2
 76
     1
 98
        0
  0
ENDBLK
  5
7F
330
7C
100
AcDbEntity
  8
0
100
AcDbBlockEnd
  0
BLOCK
  5
86
330
84
100
AcDbEntity
  8
0
100
AcDbBlockBegin
  2
block 3
 70
     0
 10
0.0
 20
0.0
 30
0.0
  3
block 3
  1

  0
SPLINE
  5
88
330
84
100
AcDbEntity
  8
_U+30EC_U+30A4_U+30E4_U+30FC 1
370
     0
100
AcDbSpline
210
0.0
220
0.0
230
1.0
 70
    11
 71
     3
 72
    26
 73
    22
 74
     0
 42
0.0000000001
 43
0.0000000001
 12
1.0
 22
0.0
 32
0.0
 13
1.0
 23
0.0
 33
0.0
 40
0.0
 40
0.0
 40
0.0
 40
0.0
 40
1.0
 40
1.0
 40
1.0
 40
2.0
 40
2.0
 40
2.0
 40
3.0
 40
3.0
 40
3.0
 40
4.0
 40
4.0
 40
4.0
 40
5.0
 40
5.0
 40
5.0
 40
6.0
 40
6.0
 40
6.0
 40
7.0
 40
7.0
 40
7.0
 40
7.0
 10
93.74862736371563
 20
-110.0227416717131
 30
0.0
 10
93.74862736371563
 20
-110.0227416717131
 30
0.0
 10
93.74862736371563
 20
-108.9184163139162
 30
0.0
 10
93.74862736371563
 20
-108.9184163139162
 30
0.0
 10
93.74862736371563
 20
-108.9184163139162
 30
0.0
 10
93.41858721622869
 20
-108.9184163139162
 30
0.0
 10
93.41858721622869
 20
-108.9184163139162
 30
0.0
 10
93.41858721622869
 20
-108.9184163139162
 30
0.0
 10
93.41858721622869
 20
-108.7702772080505
 30
0.0
 10
93.41858721622869
 20
-108.7702772080505
 30
0.0
 10
93.75069442100677
 20
-108.7556355522382
 30
0.0
 10
93.79685870050912
 20
-108.5926825357859
 30
0.0
 10
93.82648652168227
 20
-108.4784776204498
 30
0.0
 10
93.82648652168227
 20
-108.4784776204498
 30
0.0
 10
93.97255857025687
 20
-108.4784776204498
 30
0.0
 10
93.97255857025687
 20
-108.4784776204498
 30
0.0
 10
93.97255857025687
 20
-108.4784776204498
 30
0.0
 10
93.97255857025687
 20
-110.0227416717131
 30
0.0
 10
93.97255857025687
 20
-110.0227416717131
 30
0.0
 10
93.97255857025687
 20
-110.0227416717131
 30
0.0
 10
93.74862736371563
 20
-110.0227416717131
 30
0.0
 10
93.74862736371563
 20
-110.0227416717131
 30
0.0
  0
HATCH
  5
89
330
84
100
AcDbEntity
  8
_U+30EC_U+30A4_U+30E4_U+30FC 1
 62
   179
420
  2234388
100
AcDbHatch
 10
0.0
 20
0.0
 30
0.0
210
0.0
220
0.0
230
1.0
  2
SOLID
 70
     1
 71
     0
 91
        1
 92
        1
 93
        1
 72
     4
 94
        3
 73
     0
 74
     1
 95
       26
 96
       22
 40
0.0
 40
0.0
 40
0.0
 40
0.0
 40
1.0
 40
1.0
 40
1.0
 40
2.0
 40
2.0
 40
2.0
 40
3.0
 40
3.0
 40
3.0
 40
4.0
 40
4.0
 40
4.0
 40
5.0
 40
5.0
 40
5.0
 40
6.0
 40
6.0
 40
6.0
 40
7.0
 40
7.0
 40
7.0
 40
7.0
 10
93.74862736371563
 20
-110.0227416717131
 10
93.74862736371563
 20
-110.0227416717131
 10
93.74862736371563
 20
-108.9184163139162
 10
93.74862736371563
 20
-108.9184163139162
 10
93.74862736371563
 20
-108.9184163139162
 10
93.41858721622869
 20
-108.9184163139162
 10
93.41858721622869
 20
-108.9184163139162
 10
93.41858721622869
 20
-108.9184163139162
 10
93.41858721622869
 20
-108.7702772080505
 10
93.41858721622869
 20
-108.7702772080505
 10
93.75069442100677
 20
-108.7556355522382
 10
93.79685870050912
 20
-108.5926825357859
 10
93.82648652168227
 20
-108.4784776204498
 10
93.82648652168227
 20
-108.4784776204498
 10
93.97255857025687
 20
-108.4784776204498
 10
93.97255857025687
 20
-108.4784776204498
 10
93.97255857025687
 20
-108.4784776204498
 10
93.97255857025687
 20
-110.0227416717131
 10
93.97255857025687
 20
-110.0227416717131
 10
93.97255857025687
 20
-110.0227416717131
 10
93.74862736371563
 20
-110.0227416717131
 10
93.74862736371563
 20
-110.0227416717131
 97
        0
 97
        0
 75
     2
 76
     1
 98
        0
  0
POLYLINE
  5
8A
330
84
100
AcDbEntity
  8
_U+30EC_U+30A4_U+30E4_U+30FC 1
370
     0
100
AcDb2dPolyline
 66
     1
 10
0.0
 20
0.0
 30
0.0
  0
VERTEX
  5
8B
330
8A
100
AcDbEntity
  8
_U+30EC_U+30A4_U+30E4_U+30FC 1
370
     0
100
AcDbVertex
100
AcDb2dVertex
 10
95.30581052304855
 20
-109.6758205563484
 30
0.0
  0
VERTEX
  5
8C
330
8A
100
AcDbEntity
  8
_U+30EC_U+30A4_U+30E4_U+30FC 1
370
     0
100
AcDbVertex
100
AcDb2dVertex
 10
95.30581052304855
 20
-110.0227416717131
 30
0.0
  0
VERTEX
  5
8D
330
8A
100
AcDbEntity
  8
_U+30EC_U+30A4_U+30E4_U+30FC 1
370
     0
100
AcDbVertex
100
AcDb2dVertex
 10
95.08808048838077
 20
-110.0227416717131
 30
0.0
  0
VERTEX
  5
8E
330
8A
100
AcDbEntity
  8
_U+30EC_U+30A4_U+30E4_U+30FC 1
370
     0
100
AcDbVertex
100
AcDb2dVertex
 10
95.08808048838077
 20
-109.6758205563484
 30
0.0
  0
VERTEX
  5
8F
330
8A
100
AcDbEntity
  8
_U+30EC_U+30A4_U+30E4_U+30FC 1
370
     0
100
AcDbVertex
100
AcDb2dVertex
 10
94.43213430798919
 20
-109.6758205563484
 30
0.0
  0
VERTEX
  5
90
330
8A
100
AcDbEntity
  8
_U+30EC_U+30A4_U+30E4_U+30FC 1
370
     0
100
AcDbVertex
100
AcDb2dVertex
 10
94.43213430798919
 20
-109.4515448402586
 30
0.0
  0
VERTEX
  5
91
330
8A
100
AcDbEntity
  8
_U+30EC_U+30A4_U+30E4_U+30FC 1
370
     0
100
AcDbVertex
100
AcDb2dVertex
 10
95.11150713768046
 20
-108.4784776204498
 30
0.0
  0
VERTEX
  5
92
330
8A
100
AcDbEntity
  8
_U+30EC_U+30A4_U+30E4_U+30FC 1
370
     0
100
AcDbVertex
100
AcDb2dVertex
 10
95.30581052304855
 20
-108.4784776204498
 30
0.0
  0
VERTEX
  5
93
330
8A
100
AcDbEntity
  8
_U+30EC_U+30A4_U+30E4_U+30FC 1
370
     0
100
AcDbVertex
100
AcDb2dVertex
 10
95.30581052304855
 20
-109.4768662920752
 30
0.0
  0
VERTEX
  5
94
330
8A
100
AcDbEntity
  8
_U+30EC_U+30A4_U+30E4_U+30FC 1
370
     0
100
AcDbVertex
100
AcDb2dVertex
 10
95.51320527126059
 20
-109.4768662920752
 30
0.0
  0
VERTEX
  5
95
330
8A
100
AcDbEntity
  8
_U+30EC_U+30A4_U+30E4_U+30FC 1
370
     0
100
AcDbVertex
100
AcDb2dVertex
 10
95.51320527126059
 20
-109.6758205563484
 30
0.0
  0
VERTEX
  5
96
330
8A
100
AcDbEntity
  8
_U+30EC_U+30A4_U+30E4_U+30FC 1
370
     0
100
AcDbVertex
100
AcDb2dVertex
 10
95.30581052304855
 20
-109.6758205563484
 30
0.0
  0
SEQEND
  5
97
330
8A
100
AcDbEntity
  8
_U+30EC_U+30A4_U+30E4_U+30FC 1
370
     0
  0
POLYLINE
  5
98
330
84
100
AcDbEntity
  8
_U+30EC_U+30A4_U+30E4_U+30FC 1
370
     0
100
AcDb2dPolyline
 66
     1
 10
0.0
 20
0.0
 30
0.0
  0
VERTEX
  5
99
330
98
100
AcDbEntity
  8
_U+30EC_U+30A4_U+30E4_U+30FC 1
370
     0
100
AcDbVertex
100
AcDb2dVertex
 10
95.08808048838077
 20
-108.8210923664579
 30
0.0
  0
VERTEX
  5
9A
330
98
100
AcDbEntity
  8
_U+30EC_U+30A4_U+30E4_U+30FC 1
370
     0
100
AcDbVertex
100
AcDb2dVertex
 10
94.63126082703663
 20
-109.4768662920752
 30
0.0
  0
VERTEX
  5
9B
330
98
100
AcDbEntity
  8
_U+30EC_U+30A4_U+30E4_U+30FC 1
370
     0
100
AcDbVertex
100
AcDb2dVertex
 10
95.08808048838077
 20
-109.4768662920752
 30
0.0
  0
VERTEX
  5
9C
330
98
100
AcDbEntity
  8
_U+30EC_U+30A4_U+30E4_U+30FC 1
370
     0
100
AcDbVertex
100
AcDb2dVertex
 10
95.08808048838077
 20
-108.8210923664579
 30
0.0
  0
SEQEND
  5
9D
330
98
100
AcDbEntity
  8
_U+30EC_U+30A4_U+30E4_U+30FC 1
370
     0
  0
HATCH
  5
9E
330
84
100
AcDbEntity
  8
_U+30EC_U+30A4_U+30E4_U+30FC 1
 62
   179
420
  2234388
100
AcDbHatch
 10
0.0
 20
0.0
 30
0.0
210
0.0
220
0.0
230
1.0
  2
SOLID
 70
     1
 71
     0
 91
        2
 92
        1
 93
       11
 72
     1
 10
95.30581052304855
 20
-109.6758205563484
 11
95.30581052304855
 21
-110.0227416717131
 72
     1
 10
95.30581052304855
 20
-110.0227416717131
 11
95.08808048838077
 21
-110.0227416717131
 72
     1
 10
95.08808048838077
 20
-110.0227416717131
 11
95.08808048838077
 21
-109.6758205563484
 72
     1
 10
95.08808048838077
 20
-109.6758205563484
 11
94.43213430798919
 21
-109.6758205563484
 72
     1
 10
94.43213430798919
 20
-109.6758205563484
 11
94.43213430798919
 21
-109.4515448402586
 72
     1
 10
94.43213430798919
 20
-109.4515448402586
 11
95.11150713768046
 21
-108.4784776204498
 72
     1
 10
95.11150713768046
 20
-108.4784776204498
 11
95.30581052304855
 21
-108.4784776204498
 72
     1
 10
95.30581052304855
 20
-108.4784776204498
 11
95.30581052304855
 21
-109.4768662920752
 72
     1
 10
95.30581052304855
 20
-109.4768662920752
 11
95.51320527126059
 21
-109.4768662920752
 72
     1
 10
95.51320527126059
 20
-109.4768662920752
 11
95.51320527126059
 21
-109.6758205563484
 72
     1
 10
95.51320527126059
 20
-109.6758205563484
 11
95.30581052304855
 21
-109.6758205563484
 97
        0
 92
        1
 93
        3
 72
     1
 10
95.08808048838077
 20
-108.8210923664579
 11
94.63126082703663
 21
-109.4768662920752
 72
     1
 10
94.63126082703663
 20
-109.4768662920752
 11
95.08808048838077
 21
-109.4768662920752
 72
     1
 10
95.08808048838077
 20
-109.4768662920752
 11
95.08808048838077
 21
-108.8210923664579
 97
        0
 75
     2
 76
     1
 98
        0
  0
ENDBLK
  5
87
330
84
100
AcDbEntity
  8
0
100
AcDbBlockEnd
  0
BLOCK
  5
A1
330
9F
100
AcDbEntity
  8
0
100
AcDbBlockBegin
  2
block 4
 70
     0
 10
0.0
 20
0.0
 30
0.0
  3
block 4
  1

  0
SPLINE
  5
A3
330
9F
100
AcDbEntity
  8
_U+30EC_U+30A4_U+30E4_U+30FC 1
370
     0
100
AcDbSpline
210
0.0
220
0.0
230
1.0
 70
    11
 71
     3
 72
    62
 73
    58
 74
     0
 42
0.0000000001
 43
0.0000000001
 12
1.0
 22
0.0
 32
0.0
 13
1.0
 23
0.0
 33
0.0
 40
0.0
 40
0.0
 40
0.0
 40
0.0
 40
1.0
 40
1.0
 40
1.0
 40
2.0
 40
2.0
 40
2.0
 40
3.0
 40
3.0
 40
3.0
 40
4.0
 40
4.0
 40
4.0
 40
5.0
 40
5.0
 40
5.0
 40
6.0
 40
6.0
 40
6.0
 40
7.0
 40
7.0
 40
7.0
 40
8.0
 40
8.0
 40
8.0
 40
9.0
 40
9.0
 40
9.0
 40
10.0
 40
10.0
 40
10.0
 40
11.0
 40
11.0
 40
11.0
 40
12.0
 40
12.0
 40
12.0
 40
13.0
 40
13.0
 40
13.0
 40
14.0
 40
14.0
 40
14.0
 40
15.0
 40
15.0
 40
15.0
 40
16.0
 40
16.0
 40
16.0
 40
17.0
 40
17.0
 40
17.0
 40
18.0
 40
18.0
 40
18.0
 40
19.0
 40
19.0
 40
19.0
 40
19.0
 10
100.965413386217
 20
-110.073901339669
 30
0.0
 10
100.8699842412756
 20
-110.073901339669
 30
0.0
 10
100.6519096970593
 20
-110.0527140024347
 30
0.0
 10
100.5271972404932
 20
-109.866506591457
 30
0.0
 10
100.4534721971089
 20
-109.7543687334121
 30
0.0
 10
100.448993572978
 20
-109.6549777286626
 30
0.0
 10
100.4448594583957
 20
-109.5704006344998
 30
0.0
 10
100.4448594583957
 20
-109.5704006344998
 30
0.0
 10
100.6650010599032
 20
-109.5704006344998
 30
0.0
 10
100.6650010599032
 20
-109.5704006344998
 30
0.0
 10
100.6670681171943
 20
-109.6444701874326
 30
0.0
 10
100.6774034036501
 20
-109.8792534447524
 30
0.0
 10
100.9609347620862
 20
-109.8792534447524
 30
0.0
 10
101.0983940719476
 20
-109.8792534447524
 30
0.0
 10
101.2506672923957
 20
-109.8094902611761
 30
0.0
 10
101.2506672923957
 20
-109.5809081757298
 30
0.0
 10
101.2506672923957
 20
-109.4646362031026
 30
0.0
 10
101.2127712420579
 20
-109.4158881019863
 30
0.0
 10
101.1810763635936
 20
-109.384193223522
 30
0.0
 10
101.1070068106607
 20
-109.3101236705891
 30
0.0
 10
100.9905625832593
 20
-109.297549072068
 30
0.0
 10
100.9357855650438
 20
-109.297549072068
 30
0.0
 10
100.9164930303264
 20
-109.297549072068
 30
0.0
 10
100.8806640372798
 20
-109.2996161293591
 30
0.0
 10
100.8531032733978
 20
-109.3037502439414
 30
0.0
 10
100.8531032733978
 20
-109.3037502439414
 30
0.0
 10
100.8531032733978
 20
-109.1092746037991
 30
0.0
 10
100.8531032733978
 20
-109.1092746037991
 30
0.0
 10
100.8909993237356
 20
-109.1154757756725
 30
0.0
 10
100.9337185077527
 20
-109.1177150877379
 30
0.0
 10
100.9399196796261
 20
-109.1177150877379
 30
0.0
 10
101.0053764938459
 20
-109.1177150877379
 30
0.0
 10
101.2045030128933
 20
-109.0965277505037
 30
0.0
 10
101.2045030128933
 20
-108.8595051811185
 30
0.0
 10
101.2045030128933
 20
-108.6819105088538
 30
0.0
 10
101.0729003653568
 20
-108.6267889810898
 30
0.0
 10
100.9633463289258
 20
-108.6267889810898
 30
0.0
 10
100.6987629956586
 20
-108.6267889810898
 30
0.0
 10
100.6901502569455
 20
-108.8595051811185
 30
0.0
 10
100.6860161423632
 20
-108.9315076767602
 30
0.0
 10
100.6860161423632
 20
-108.9315076767602
 30
0.0
 10
100.483100018282
 20
-108.9315076767602
 30
0.0
 10
100.483100018282
 20
-108.9315076767602
 30
0.0
 10
100.4913682474466
 20
-108.8066229654199
 30
0.0
 10
100.5189290113286
 20
-108.4300740288821
 30
0.0
 10
100.9757486726727
 20
-108.4300740288821
 30
0.0
 10
101.2000243887625
 20
-108.4300740288821
 30
0.0
 10
101.44118107273
 20
-108.5570257975135
 30
0.0
 10
101.44118107273
 20
-108.8531317544708
 30
0.0
 10
101.44118107273
 20
-109.0393391654485
 30
0.0
 10
101.3460964373371
 20
-109.1218492023202
 30
0.0
 10
101.2465331778134
 20
-109.1831719019577
 30
0.0
 10
101.3078558774508
 20
-109.2107326658397
 30
0.0
 10
101.489756919072
 20
-109.2911756454203
 30
0.0
 10
101.489756919072
 20
-109.5683335772086
 30
0.0
 10
101.489756919072
 20
-109.9068142086344
 30
0.0
 10
101.2423990632311
 20
-110.073901339669
 30
0.0
 10
100.965413386217
 20
-110.073901339669
 30
0.0
  0
HATCH
  5
A4
330
9F
100
AcDbEntity
  8
_U+30EC_U+30A4_U+30E4_U+30FC 1
 62
   179
420
  2234388
100
AcDbHatch
 10
0.0
 20
0.0
 30
0.0
210
0.0
220
0.0
230
1.0
  2
SOLID
 70
     1
 71
     0
 91
        1
 92
        1
 93
        1
 72
     4
 94
        3
 73
     0
 74
     1
 95
       62
 96
       58
 40
0.0
 40
0.0
 40
0.0
 40
0.0
 40
1.0
 40
1.0
 40
1.0
 40
2.0
 40
2.0
 40
2.0
 40
3.0
 40
3.0
 40
3.0
 40
4.0
 40
4.0
 40
4.0
 40
5.0
 40
5.0
 40
5.0
 40
6.0
 40
6.0
 40
6.0
 40
7.0
 40
7.0
 40
7.0
 40
8.0
 40
8.0
 40
8.0
 40
9.0
 40
9.0
 40
9.0
 40
10.0
 40
10.0
 40
10.0
 40
11.0
 40
11.0
 40
11.0
 40
12.0
 40
12.0
 40
12.0
 40
13.0
 40
13.0
 40
13.0
 40
14.0
 40
14.0
 40
14.0
 40
15.0
 40
15.0
 40
15.0
 40
16.0
 40
16.0
 40
16.0
 40
17.0
 40
17.0
 40
17.0
 40
18.0
 40
18.0
 40
18.0
 40
19.0
 40
19.0
 40
19.0
 40
19.0
 10
100.965413386217
 20
-110.073901339669
 10
100.8699842412756
 20
-110.073901339669
 10
100.6519096970593
 20
-110.0527140024347
 10
100.5271972404932
 20
-109.866506591457
 10
100.4534721971089
 20
-109.7543687334121
 10
100.448993572978
 20
-109.6549777286626
 10
100.4448594583957
 20
-109.5704006344998
 10
100.4448594583957
 20
-109.5704006344998
 10
100.6650010599032
 20
-109.5704006344998
 10
100.6650010599032
 20
-109.5704006344998
 10
100.6670681171943
 20
-109.6444701874326
 10
100.6774034036501
 20
-109.8792534447524
 10
100.9609347620862
 20
-109.8792534447524
 10
101.0983940719476
 20
-109.8792534447524
 10
101.2506672923957
 20
-109.8094902611761
 10
101.2506672923957
 20
-109.5809081757298
 10
101.2506672923957
 20
-109.4646362031026
 10
101.2127712420579
 20
-109.4158881019863
 10
101.1810763635936
 20
-109.384193223522
 10
101.1070068106607
 20
-109.3101236705891
 10
100.9905625832593
 20
-109.297549072068
 10
100.9357855650438
 20
-109.297549072068
 10
100.9164930303264
 20
-109.297549072068
 10
100.8806640372798
 20
-109.2996161293591
 10
100.8531032733978
 20
-109.3037502439414
 10
100.8531032733978
 20
-109.3037502439414
 10
100.8531032733978
 20
-109.1092746037991
 10
100.8531032733978
 20
-109.1092746037991
 10
100.8909993237356
 20
-109.1154757756725
 10
100.9337185077527
 20
-109.1177150877379
 10
100.9399196796261
 20
-109.1177150877379
 10
101.0053764938459
 20
-109.1177150877379
 10
101.2045030128933
 20
-109.0965277505037
 10
101.2045030128933
 20
-108.8595051811185
 10
101.2045030128933
 20
-108.6819105088538
 10
101.0729003653568
 20
-108.6267889810898
 10
100.9633463289258
 20
-108.6267889810898
 10
100.6987629956586
 20
-108.6267889810898
 10
100.6901502569455
 20
-108.8595051811185
 10
100.6860161423632
 20
-108.9315076767602
 10
100.6860161423632
 20
-108.9315076767602
 10
100.483100018282
 20
-108.9315076767602
 10
100.483100018282
 20
-108.9315076767602
 10
100.4913682474466
 20
-108.8066229654199
 10
100.5189290113286
 20
-108.4300740288821
 10
100.9757486726727
 20
-108.4300740288821
 10
101.2000243887625
 20
-108.4300740288821
 10
101.44118107273
 20
-108.5570257975135
 10
101.44118107273
 20
-108.8531317544708
 10
101.44118107273
 20
-109.0393391654485
 10
101.3460964373371
 20
-109.1218492023202
 10
101.2465331778134
 20
-109.1831719019577
 10
101.3078558774508
 20
-109.2107326658397
 10
101.489756919072
 20
-109.2911756454203
 10
101.489756919072
 20
-109.5683335772086
 10
101.489756919072
 20
-109.9068142086344
 10
101.2423990632311
 20
-110.073901339669
 10
100.965413386217
 20
-110.073901339669
 97
        0
 97
        0
 75
     2
 76
     1
 98
        0
  0
ENDBLK
  5
A2
330
9F
100
AcDbEntity
  8
0
100
AcDbBlockEnd
  0
BLOCK
  5
A7
330
A5
100
AcDbEntity
  8
0
100
AcDbBlockBegin
  2
block 5
 70
     0
 10
0.0
 20
0.0
 30
0.0
  3
block 5
  1

  0
SPLINE
  5
A9
330
A5
100
AcDbEntity
  8
_U+30EC_U+30A4_U+30E4_U+30FC 1
370
     0
100
AcDbSpline
210
0.0
220
0.0
230
1.0
 70
    11
 71
     3
 72
    44
 73
    40
 74
     0
 42
0.0000000001
 43
0.0000000001
 12
1.0
 22
0.0
 32
0.0
 13
1.0
 23
0.0
 33
0.0
 40
0.0
 40
0.0
 40
0.0
 40
0.0
 40
1.0
 40
1.0
 40
1.0
 40
2.0
 40
2.0
 40
2.0
 40
3.0
 40
3.0
 40
3.0
 40
4.0
 40
4.0
 40
4.0
 40
5.0
 40
5.0
 40
5.0
 40
6.0
 40
6.0
 40
6.0
 40
7.0
 40
7.0
 40
7.0
 40
8.0
 40
8.0
 40
8.0
 40
9.0
 40
9.0
 40
9.0
 40
10.0
 40
10.0
 40
10.0
 40
11.0
 40
11.0
 40
11.0
 40
12.0
 40
12.0
 40
12.0
 40
13.0
 40
13.0
 40
13.0
 40
13.0
 10
101.8607937028334
 20
-133.3493109475654
 30
0.0
 10
102.0196126047034
 20
-133.5670409822332
 30
0.0
 10
102.0933376480878
 20
-133.660058560335
 30
0.0
 10
102.2373426393712
 20
-133.7089789162255
 30
0.0
 10
102.2373426393712
 20
-133.7089789162255
 30
0.0
 10
102.2373426393712
 20
-132.9303873365591
 30
0.0
 10
102.2373426393712
 20
-132.9303873365591
 30
0.0
 10
102.2373426393712
 20
-132.9303873365591
 30
0.0
 10
102.4426703302921
 20
-132.9303873365591
 30
0.0
 10
102.4426703302921
 20
-132.9303873365591
 30
0.0
 10
102.4426703302921
 20
-132.9303873365591
 30
0.0
 10
102.4426703302921
 20
-133.9584038293576
 30
0.0
 10
102.4426703302921
 20
-133.9584038293576
 30
0.0
 10
102.0850694189232
 20
-133.9267089508933
 30
0.0
 10
102.0065212418595
 20
-133.8612521366736
 30
0.0
 10
101.7081759728369
 20
-133.4760904614226
 30
0.0
 10
101.5097384728865
 20
-133.2201198668686
 30
0.0
 10
101.441870091827
 20
-133.1546630526488
 30
0.0
 10
101.3044107819656
 20
-133.1546630526488
 30
0.0
 10
101.185899497273
 20
-133.1546630526488
 30
0.0
 10
101.054641359285
 20
-133.2266655482906
 30
0.0
 10
101.054641359285
 20
-133.4230359909498
 30
0.0
 10
101.054641359285
 20
-133.6834852096347
 30
0.0
 10
101.2851182472482
 20
-133.6917534387993
 30
0.0
 10
101.4015624746496
 20
-133.6962320629301
 30
0.0
 10
101.4015624746496
 20
-133.6962320629301
 30
0.0
 10
101.4015624746496
 20
-133.9205077790199
 30
0.0
 10
101.4015624746496
 20
-133.9205077790199
 30
0.0
 10
101.2747829607924
 20
-133.9118950403067
 30
0.0
 10
101.1624728479733
 20
-133.9012152443025
 30
0.0
 10
101.0439615632807
 20
-133.8209445194962
 30
0.0
 10
100.883420113668
 20
-133.7110459735167
 30
0.0
 10
100.8496581779126
 20
-133.5250108173132
 30
0.0
 10
100.8496581779126
 20
-133.4085665899117
 30
0.0
 10
100.8496581779126
 20
-133.1312364033491
 30
0.0
 10
101.0336262768249
 20
-132.9241861646856
 30
0.0
 10
101.3064778392567
 20
-132.9241861646856
 30
0.0
 10
101.5348876699288
 20
-132.9241861646856
 30
0.0
 10
101.6344509294525
 20
-133.0402858825385
 30
0.0
 10
101.8607937028334
 20
-133.3493109475654
 30
0.0
  0
HATCH
  5
AA
330
A5
100
AcDbEntity
  8
_U+30EC_U+30A4_U+30E4_U+30FC 1
 62
   179
420
  2234388
100
AcDbHatch
 10
0.0
 20
0.0
 30
0.0
210
0.0
220
0.0
230
1.0
  2
SOLID
 70
     1
 71
     0
 91
        1
 92
        1
 93
        1
 72
     4
 94
        3
 73
     0
 74
     1
 95
       44
 96
       40
 40
0.0
 40
0.0
 40
0.0
 40
0.0
 40
1.0
 40
1.0
 40
1.0
 40
2.0
 40
2.0
 40
2.0
 40
3.0
 40
3.0
 40
3.0
 40
4.0
 40
4.0
 40
4.0
 40
5.0
 40
5.0
 40
5.0
 40
6.0
 40
6.0
 40
6.0
 40
7.0
 40
7.0
 40
7.0
 40
8.0
 40
8.0
 40
8.0
 40
9.0
 40
9.0
 40
9.0
 40
10.0
 40
10.0
 40
10.0
 40
11.0
 40
11.0
 40
11.0
 40
12.0
 40
12.0
 40
12.0
 40
13.0
 40
13.0
 40
13.0
 40
13.0
 10
101.8607937028334
 20
-133.3493109475654
 10
102.0196126047034
 20
-133.5670409822332
 10
102.0933376480878
 20
-133.660058560335
 10
102.2373426393712
 20
-133.7089789162255
 10
102.2373426393712
 20
-133.7089789162255
 10
102.2373426393712
 20
-132.9303873365591
 10
102.2373426393712
 20
-132.9303873365591
 10
102.2373426393712
 20
-132.9303873365591
 10
102.4426703302921
 20
-132.9303873365591
 10
102.4426703302921
 20
-132.9303873365591
 10
102.4426703302921
 20
-132.9303873365591
 10
102.4426703302921
 20
-133.9584038293576
 10
102.4426703302921
 20
-133.9584038293576
 10
102.0850694189232
 20
-133.9267089508933
 10
102.0065212418595
 20
-133.8612521366736
 10
101.7081759728369
 20
-133.4760904614226
 10
101.5097384728865
 20
-133.2201198668686
 10
101.441870091827
 20
-133.1546630526488
 10
101.3044107819656
 20
-133.1546630526488
 10
101.185899497273
 20
-133.1546630526488
 10
101.054641359285
 20
-133.2266655482906
 10
101.054641359285
 20
-133.4230359909498
 10
101.054641359285
 20
-133.6834852096347
 10
101.2851182472482
 20
-133.6917534387993
 10
101.4015624746496
 20
-133.6962320629301
 10
101.4015624746496
 20
-133.6962320629301
 10
101.4015624746496
 20
-133.9205077790199
 10
101.4015624746496
 20
-133.9205077790199
 10
101.2747829607924
 20
-133.9118950403067
 10
101.1624728479733
 20
-133.9012152443025
 10
101.0439615632807
 20
-133.8209445194962
 10
100.883420113668
 20
-133.7110459735167
 10
100.8496581779126
 20
-133.5250108173132
 10
100.8496581779126
 20
-133.4085665899117
 10
100.8496581779126
 20
-133.1312364033491
 10
101.0336262768249
 20
-132.9241861646856
 10
101.3064778392567
 20
-132.9241861646856
 10
101.5348876699288
 20
-132.9241861646856
 10
101.6344509294525
 20
-133.0402858825385
 10
101.8607937028334
 20
-133.3493109475654
 97
        0
 97
        0
 75
     2
 76
     1
 98
        0
  0
SPLINE
  5
AB
330
A5
100
AcDbEntity
  8
_U+30EC_U+30A4_U+30E4_U+30FC 1
370
     0
100
AcDbSpline
210
0.0
220
0.0
230
1.0
 70
    11
 71
     3
 72
    53
 73
    49
 74
     0
 42
0.0000000001
 43
0.0000000001
 12
1.0
 22
0.0
 32
0.0
 13
1.0
 23
0.0
 33
0.0
 40
0.0
 40
0.0
 40
0.0
 40
0.0
 40
1.0
 40
1.0
 40
1.0
 40
2.0
 40
2.0
 40
2.0
 40
3.0
 40
3.0
 40
3.0
 40
4.0
 40
4.0
 40
4.0
 40
5.0
 40
5.0
 40
5.0
 40
6.0
 40
6.0
 40
6.0
 40
7.0
 40
7.0
 40
7.0
 40
8.0
 40
8.0
 40
8.0
 40
9.0
 40
9.0
 40
9.0
 40
10.0
 40
10.0
 40
10.0
 40
11.0
 40
11.0
 40
11.0
 40
12.0
 40
12.0
 40
12.0
 40
13.0
 40
13.0
 40
13.0
 40
14.0
 40
14.0
 40
14.0
 40
15.0
 40
15.0
 40
15.0
 40
16.0
 40
16.0
 40
16.0
 40
16.0
 10
102.4933132339253
 20
-132.2844319330747
 30
0.0
 10
102.4933132339253
 20
-132.3626356005899
 30
0.0
 10
102.4764322660476
 20
-132.4642659174048
 30
0.0
 10
102.413042509119
 20
-132.5658962342197
 30
0.0
 10
102.302799453591
 20
-132.7395290466762
 30
0.0
 10
102.1718858251515
 20
-132.7605441291363
 30
0.0
 10
102.0637098269146
 20
-132.7794921543051
 30
0.0
 10
102.0637098269146
 20
-132.7794921543051
 30
0.0
 10
102.0637098269146
 20
-132.5576280050551
 30
0.0
 10
102.0637098269146
 20
-132.5576280050551
 30
0.0
 10
102.2628363459621
 20
-132.502506477291
 30
0.0
 10
102.2924641671352
 20
-132.3753824538853
 30
0.0
 10
102.2924641671352
 20
-132.2823648757836
 30
0.0
 10
102.2924641671352
 20
-132.142838508631
 30
0.0
 10
102.1929009076115
 20
-131.9905652881829
 30
0.0
 10
101.9603569623571
 20
-131.9905652881829
 30
0.0
 10
101.7040418582546
 20
-131.9905652881829
 30
0.0
 10
101.6344509294525
 20
-132.170399272513
 30
0.0
 10
101.6344509294525
 20
-132.2909776144967
 30
0.0
 10
101.6344509294525
 20
-132.322672492961
 30
0.0
 10
101.6344509294525
 20
-132.4642659174048
 30
0.0
 10
101.7632975006008
 20
-132.5531493809242
 30
0.0
 10
101.7632975006008
 20
-132.5531493809242
 30
0.0
 10
101.744349475432
 20
-132.7285047411234
 30
0.0
 10
101.744349475432
 20
-132.7285047411234
 30
0.0
 10
101.744349475432
 20
-132.7285047411234
 30
0.0
 10
100.8982340242546
 20
-132.6079263991397
 30
0.0
 10
100.8982340242546
 20
-132.6079263991397
 30
0.0
 10
100.8982340242546
 20
-132.6079263991397
 30
0.0
 10
100.8982340242546
 20
-131.8296793290218
 30
0.0
 10
100.8982340242546
 20
-131.8296793290218
 30
0.0
 10
100.8982340242546
 20
-131.8296793290218
 30
0.0
 10
101.0928819191712
 20
-131.8296793290218
 30
0.0
 10
101.0928819191712
 20
-131.8296793290218
 30
0.0
 10
101.0928819191712
 20
-131.8296793290218
 30
0.0
 10
101.0928819191712
 20
-132.4453178922359
 30
0.0
 10
101.0928819191712
 20
-132.4453178922359
 30
0.0
 10
101.0928819191712
 20
-132.4453178922359
 30
0.0
 10
101.5159396447599
 20
-132.5107747064556
 30
0.0
 10
101.5159396447599
 20
-132.5107747064556
 30
0.0
 10
101.4821777090045
 20
-132.4494520068182
 30
0.0
 10
101.441870091827
 20
-132.3667697151722
 30
0.0
 10
101.441870091827
 20
-132.2486029400281
 30
0.0
 10
101.441870091827
 20
-131.9946994027652
 30
0.0
 10
101.6282497575791
 20
-131.75767683338
 30
0.0
 10
101.9410644276397
 20
-131.75767683338
 30
0.0
 10
102.2587022313798
 20
-131.75767683338
 30
0.0
 10
102.4933132339253
 20
-131.9819525494698
 30
0.0
 10
102.4933132339253
 20
-132.2844319330747
 30
0.0
  0
HATCH
  5
AC
330
A5
100
AcDbEntity
  8
_U+30EC_U+30A4_U+30E4_U+30FC 1
 62
   179
420
  2234388
100
AcDbHatch
 10
0.0
 20
0.0
 30
0.0
210
0.0
220
0.0
230
1.0
  2
SOLID
 70
     1
 71
     0
 91
        1
 92
        1
 93
        1
 72
     4
 94
        3
 73
     0
 74
     1
 95
       53
 96
       49
 40
0.0
 40
0.0
 40
0.0
 40
0.0
 40
1.0
 40
1.0
 40
1.0
 40
2.0
 40
2.0
 40
2.0
 40
3.0
 40
3.0
 40
3.0
 40
4.0
 40
4.0
 40
4.0
 40
5.0
 40
5.0
 40
5.0
 40
6.0
 40
6.0
 40
6.0
 40
7.0
 40
7.0
 40
7.0
 40
8.0
 40
8.0
 40
8.0
 40
9.0
 40
9.0
 40
9.0
 40
10.0
 40
10.0
 40
10.0
 40
11.0
 40
11.0
 40
11.0
 40
12.0
 40
12.0
 40
12.0
 40
13.0
 40
13.0
 40
13.0
 40
14.0
 40
14.0
 40
14.0
 40
15.0
 40
15.0
 40
15.0
 40
16.0
 40
16.0
 40
16.0
 40
16.0
 10
102.4933132339253
 20
-132.2844319330747
 10
102.4933132339253
 20
-132.3626356005899
 10
102.4764322660476
 20
-132.4642659174048
 10
102.413042509119
 20
-132.5658962342197
 10
102.302799453591
 20
-132.7395290466762
 10
102.1718858251515
 20
-132.7605441291363
 10
102.0637098269146
 20
-132.7794921543051
 10
102.0637098269146
 20
-132.7794921543051
 10
102.0637098269146
 20
-132.5576280050551
 10
102.0637098269146
 20
-132.5576280050551
 10
102.2628363459621
 20
-132.502506477291
 10
102.2924641671352
 20
-132.3753824538853
 10
102.2924641671352
 20
-132.2823648757836
 10
102.2924641671352
 20
-132.142838508631
 10
102.1929009076115
 20
-131.9905652881829
 10
101.9603569623571
 20
-131.9905652881829
 10
101.7040418582546
 20
-131.9905652881829
 10
101.6344509294525
 20
-132.170399272513
 10
101.6344509294525
 20
-132.2909776144967
 10
101.6344509294525
 20
-132.322672492961
 10
101.6344509294525
 20
-132.4642659174048
 10
101.7632975006008
 20
-132.5531493809242
 10
101.7632975006008
 20
-132.5531493809242
 10
101.744349475432
 20
-132.7285047411234
 10
101.744349475432
 20
-132.7285047411234
 10
101.744349475432
 20
-132.7285047411234
 10
100.8982340242546
 20
-132.6079263991397
 10
100.8982340242546
 20
-132.6079263991397
 10
100.8982340242546
 20
-132.6079263991397
 10
100.8982340242546
 20
-131.8296793290218
 10
100.8982340242546
 20
-131.8296793290218
 10
100.8982340242546
 20
-131.8296793290218
 10
101.0928819191712
 20
-131.8296793290218
 10
101.0928819191712
 20
-131.8296793290218
 10
101.0928819191712
 20
-131.8296793290218
 10
101.0928819191712
 20
-132.4453178922359
 10
101.0928819191712
 20
-132.4453178922359
 10
101.0928819191712
 20
-132.4453178922359
 10
101.5159396447599
 20
-132.5107747064556
 10
101.5159396447599
 20
-132.5107747064556
 10
101.4821777090045
 20
-132.4494520068182
 10
101.441870091827
 20
-132.3667697151722
 10
101.441870091827
 20
-132.2486029400281
 10
101.441870091827
 20
-131.9946994027652
 10
101.6282497575791
 20
-131.75767683338
 10
101.9410644276397
 20
-131.75767683338
 10
102.2587022313798
 20
-131.75767683338
 10
102.4933132339253
 20
-131.9819525494698
 10
102.4933132339253
 20
-132.2844319330747
 97
        0
 97
        0
 75
     2
 76
     1
 98
        0
  0
ENDBLK
  5
A8
330
A5
100
AcDbEntity
  8
0
100
AcDbBlockEnd
  0
BLOCK
  5
AF
330
AD
100
AcDbEntity
  8
0
100
AcDbBlockBegin
  2
block 6
 70
     0
 10
0.0
 20
0.0
 30
0.0
  3
block 6
  1

  0
SPLINE
  5
B1
330
AD
100
AcDbEntity
  8
_U+30EC_U+30A4_U+30E4_U+30FC 1
370
     0
100
AcDbSpline
210
0.0
220
0.0
230
1.0
 70
    11
 71
     3
 72
    53
 73
    49
 74
     0
 42
0.0000000001
 43
0.0000000001
 12
1.0
 22
0.0
 32
0.0
 13
1.0
 23
0.0
 33
0.0
 40
0.0
 40
0.0
 40
0.0
 40
0.0
 40
1.0
 40
1.0
 40
1.0
 40
2.0
 40
2.0
 40
2.0
 40
3.0
 40
3.0
 40
3.0
 40
4.0
 40
4.0
 40
4.0
 40
5.0
 40
5.0
 40
5.0
 40
6.0
 40
6.0
 40
6.0
 40
7.0
 40
7.0
 40
7.0
 40
8.0
 40
8.0
 40
8.0
 40
9.0
 40
9.0
 40
9.0
 40
10.0
 40
10.0
 40
10.0
 40
11.0
 40
11.0
 40
11.0
 40
12.0
 40
12.0
 40
12.0
 40
13.0
 40
13.0
 40
13.0
 40
14.0
 40
14.0
 40
14.0
 40
15.0
 40
15.0
 40
15.0
 40
16.0
 40
16.0
 40
16.0
 40
16.0
 10
108.039572455629
 20
-127.5048787116134
 30
0.0
 10
108.039572455629
 20
-127.5832546339028
 30
0.0
 10
108.0226914877513
 20
-127.6847126959434
 30
0.0
 10
107.9593017308227
 20
-127.7863430127583
 30
0.0
 10
107.8494031848432
 20
-127.9598035704406
 30
0.0
 10
107.7181450468552
 20
-127.9809909076749
 30
0.0
 10
107.6103135581669
 20
-127.9999389328438
 30
0.0
 10
107.6103135581669
 20
-127.9999389328438
 30
0.0
 10
107.6103135581669
 20
-127.7779025288194
 30
0.0
 10
107.6103135581669
 20
-127.7779025288194
 30
0.0
 10
107.8090955676658
 20
-127.7227810010554
 30
0.0
 10
107.8387233888389
 20
-127.595829232424
 30
0.0
 10
107.8387233888389
 20
-127.5028116543222
 30
0.0
 10
107.8387233888389
 20
-127.3631130323953
 30
0.0
 10
107.7391601293152
 20
-127.2108398119473
 30
0.0
 10
107.5066161840608
 20
-127.2108398119473
 30
0.0
 10
107.2506455895068
 20
-127.2108398119473
 30
0.0
 10
107.1807101511562
 20
-127.3906737962773
 30
0.0
 10
107.1807101511562
 20
-127.5112521382611
 30
0.0
 10
107.1807101511562
 20
-127.5429470167254
 30
0.0
 10
107.1807101511562
 20
-127.6847126959434
 30
0.0
 10
107.3099012318531
 20
-127.7735961594629
 30
0.0
 10
107.3099012318531
 20
-127.7735961594629
 30
0.0
 10
107.2909532066842
 20
-127.9491237744363
 30
0.0
 10
107.2909532066842
 20
-127.9491237744363
 30
0.0
 10
107.2909532066842
 20
-127.9491237744363
 30
0.0
 10
106.4444932459583
 20
-127.8285454324526
 30
0.0
 10
106.4444932459583
 20
-127.8285454324526
 30
0.0
 10
106.4444932459583
 20
-127.8285454324526
 30
0.0
 10
106.4444932459583
 20
-127.0501261075604
 30
0.0
 10
106.4444932459583
 20
-127.0501261075604
 30
0.0
 10
106.4444932459583
 20
-127.0501261075604
 30
0.0
 10
106.6391411408749
 20
-127.0501261075604
 30
0.0
 10
106.6391411408749
 20
-127.0501261075604
 30
0.0
 10
106.6391411408749
 20
-127.0501261075604
 30
0.0
 10
106.6391411408749
 20
-127.6657646707745
 30
0.0
 10
106.6391411408749
 20
-127.6657646707745
 30
0.0
 10
106.6391411408749
 20
-127.6657646707745
 30
0.0
 10
107.0621988664636
 20
-127.7312214849943
 30
0.0
 10
107.0621988664636
 20
-127.7312214849943
 30
0.0
 10
107.0284369307082
 20
-127.6698987853568
 30
0.0
 10
106.9881293135307
 20
-127.5873887484851
 30
0.0
 10
106.9881293135307
 20
-127.4690497185668
 30
0.0
 10
106.9881293135307
 20
-127.2151461813039
 30
0.0
 10
107.1745089792828
 20
-126.9781236119187
 30
0.0
 10
107.487668158892
 20
-126.9781236119187
 30
0.0
 10
107.8049614530835
 20
-126.9781236119187
 30
0.0
 10
108.039572455629
 20
-127.2023993280084
 30
0.0
 10
108.039572455629
 20
-127.5048787116134
 30
0.0
  0
HATCH
  5
B2
330
AD
100
AcDbEntity
  8
_U+30EC_U+30A4_U+30E4_U+30FC 1
 62
   179
420
  2234388
100
AcDbHatch
 10
0.0
 20
0.0
 30
0.0
210
0.0
220
0.0
230
1.0
  2
SOLID
 70
     1
 71
     0
 91
        1
 92
        1
 93
        1
 72
     4
 94
        3
 73
     0
 74
     1
 95
       53
 96
       49
 40
0.0
 40
0.0
 40
0.0
 40
0.0
 40
1.0
 40
1.0
 40
1.0
 40
2.0
 40
2.0
 40
2.0
 40
3.0
 40
3.0
 40
3.0
 40
4.0
 40
4.0
 40
4.0
 40
5.0
 40
5.0
 40
5.0
 40
6.0
 40
6.0
 40
6.0
 40
7.0
 40
7.0
 40
7.0
 40
8.0
 40
8.0
 40
8.0
 40
9.0
 40
9.0
 40
9.0
 40
10.0
 40
10.0
 40
10.0
 40
11.0
 40
11.0
 40
11.0
 40
12.0
 40
12.0
 40
12.0
 40
13.0
 40
13.0
 40
13.0
 40
14.0
 40
14.0
 40
14.0
 40
15.0
 40
15.0
 40
15.0
 40
16.0
 40
16.0
 40
16.0
 40
16.0
 10
108.039572455629
 20
-127.5048787116134
 10
108.039572455629
 20
-127.5832546339028
 10
108.0226914877513
 20
-127.6847126959434
 10
107.9593017308227
 20
-127.7863430127583
 10
107.8494031848432
 20
-127.9598035704406
 10
107.7181450468552
 20
-127.9809909076749
 10
107.6103135581669
 20
-127.9999389328438
 10
107.6103135581669
 20
-127.9999389328438
 10
107.6103135581669
 20
-127.7779025288194
 10
107.6103135581669
 20
-127.7779025288194
 10
107.8090955676658
 20
-127.7227810010554
 10
107.8387233888389
 20
-127.595829232424
 10
107.8387233888389
 20
-127.5028116543222
 10
107.8387233888389
 20
-127.3631130323953
 10
107.7391601293152
 20
-127.2108398119473
 10
107.5066161840608
 20
-127.2108398119473
 10
107.2506455895068
 20
-127.2108398119473
 10
107.1807101511562
 20
-127.3906737962773
 10
107.1807101511562
 20
-127.5112521382611
 10
107.1807101511562
 20
-127.5429470167254
 10
107.1807101511562
 20
-127.6847126959434
 10
107.3099012318531
 20
-127.7735961594629
 10
107.3099012318531
 20
-127.7735961594629
 10
107.2909532066842
 20
-127.9491237744363
 10
107.2909532066842
 20
-127.9491237744363
 10
107.2909532066842
 20
-127.9491237744363
 10
106.4444932459583
 20
-127.8285454324526
 10
106.4444932459583
 20
-127.8285454324526
 10
106.4444932459583
 20
-127.8285454324526
 10
106.4444932459583
 20
-127.0501261075604
 10
106.4444932459583
 20
-127.0501261075604
 10
106.4444932459583
 20
-127.0501261075604
 10
106.6391411408749
 20
-127.0501261075604
 10
106.6391411408749
 20
-127.0501261075604
 10
106.6391411408749
 20
-127.0501261075604
 10
106.6391411408749
 20
-127.6657646707745
 10
106.6391411408749
 20
-127.6657646707745
 10
106.6391411408749
 20
-127.6657646707745
 10
107.0621988664636
 20
-127.7312214849943
 10
107.0621988664636
 20
-127.7312214849943
 10
107.0284369307082
 20
-127.6698987853568
 10
106.9881293135307
 20
-127.5873887484851
 10
106.9881293135307
 20
-127.4690497185668
 10
106.9881293135307
 20
-127.2151461813039
 10
107.1745089792828
 20
-126.9781236119187
 10
107.487668158892
 20
-126.9781236119187
 10
107.8049614530835
 20
-126.9781236119187
 10
108.039572455629
 20
-127.2023993280084
 10
108.039572455629
 20
-127.5048787116134
 97
        0
 97
        0
 75
     2
 76
     1
 98
        0
  0
SPLINE
  5
B3
330
AD
100
AcDbEntity
  8
_U+30EC_U+30A4_U+30E4_U+30FC 1
370
     0
100
AcDbSpline
210
0.0
220
0.0
230
1.0
 70
    11
 71
     3
 72
    29
 73
    25
 74
     0
 42
0.0000000001
 43
0.0000000001
 12
1.0
 22
0.0
 32
0.0
 13
1.0
 23
0.0
 33
0.0
 40
0.0
 40
0.0
 40
0.0
 40
0.0
 40
1.0
 40
1.0
 40
1.0
 40
2.0
 40
2.0
 40
2.0
 40
3.0
 40
3.0
 40
3.0
 40
4.0
 40
4.0
 40
4.0
 40
5.0
 40
5.0
 40
5.0
 40
6.0
 40
6.0
 40
6.0
 40
7.0
 40
7.0
 40
7.0
 40
8.0
 40
8.0
 40
8.0
 40
8.0
 10
107.8111626249569
 20
-125.9113497949111
 30
0.0
 10
108.0206244304601
 20
-126.0191812835994
 30
0.0
 10
108.039572455629
 20
-126.1926418412817
 30
0.0
 10
108.039572455629
 20
-126.3090860686832
 30
0.0
 10
108.039572455629
 20
-126.4697997730701
 30
0.0
 10
107.9930636665781
 20
-126.6115654522881
 30
0.0
 10
107.8111626249569
 20
-126.7068223424552
 30
0.0
 10
107.6165147300403
 20
-126.810347461787
 30
0.0
 10
107.3798366702037
 20
-126.8294677417301
 30
0.0
 10
107.2168836537513
 20
-126.8294677417301
 30
0.0
 10
107.0728786624679
 20
-126.8294677417301
 30
0.0
 10
106.8210421824961
 20
-126.8125867738524
 30
0.0
 10
106.6222601729972
 20
-126.7068223424552
 30
0.0
 10
106.419344048916
 20
-126.5988185989927
 30
0.0
 10
106.3959173996163
 20
-126.4381048946058
 30
0.0
 10
106.3959173996163
 20
-126.3090860686832
 30
0.0
 10
106.3959173996163
 20
-126.1504394215874
 30
0.0
 10
106.440359131376
 20
-126.0066066850782
 30
0.0
 10
106.6222601729972
 20
-125.9113497949111
 30
0.0
 10
106.8148410106227
 20
-125.8119587901616
 30
0.0
 10
107.0432508412947
 20
-125.7887043956362
 30
0.0
 10
107.2168836537513
 20
-125.7887043956362
 30
0.0
 10
107.3881048993683
 20
-125.7887043956362
 30
0.0
 10
107.6185817873315
 20
-125.8097194780962
 30
0.0
 10
107.8111626249569
 20
-125.9113497949111
 30
0.0
  0
SPLINE
  5
B4
330
AD
100
AcDbEntity
  8
_U+30EC_U+30A4_U+30E4_U+30FC 1
370
     0
100
AcDbSpline
210
0.0
220
0.0
230
1.0
 70
    11
 71
     3
 72
    17
 73
    13
 74
     0
 42
0.0000000001
 43
0.0000000001
 12
1.0
 22
0.0
 32
0.0
 13
1.0
 23
0.0
 33
0.0
 40
0.0
 40
0.0
 40
0.0
 40
0.0
 40
1.0
 40
1.0
 40
1.0
 40
2.0
 40
2.0
 40
2.0
 40
3.0
 40
3.0
 40
3.0
 40
4.0
 40
4.0
 40
4.0
 40
4.0
 10
106.5884982372418
 20
-126.3090860686832
 30
0.0
 10
106.5884982372418
 20
-126.5586832365895
 30
0.0
 10
106.8720295956778
 20
-126.6051920256404
 30
0.0
 10
107.2168836537513
 20
-126.6051920256404
 30
0.0
 10
107.536244005234
 20
-126.6051920256404
 30
0.0
 10
107.8449245607124
 20
-126.5691907778195
 30
0.0
 10
107.8449245607124
 20
-126.3090860686832
 30
0.0
 10
107.8449245607124
 20
-126.061555958068
 30
0.0
 10
107.563804769116
 20
-126.0128078569517
 30
0.0
 10
107.2168836537513
 20
-126.0128078569517
 30
0.0
 10
106.8971787927202
 20
-126.0128078569517
 30
0.0
 10
106.5884982372418
 20
-126.0508761620637
 30
0.0
 10
106.5884982372418
 20
-126.3090860686832
 30
0.0
  0
HATCH
  5
B5
330
AD
100
AcDbEntity
  8
_U+30EC_U+30A4_U+30E4_U+30FC 1
 62
   179
420
  2234388
100
AcDbHatch
 10
0.0
 20
0.0
 30
0.0
210
0.0
220
0.0
230
1.0
  2
SOLID
 70
     1
 71
     0
 91
        2
 92
        1
 93
        1
 72
     4
 94
        3
 73
     0
 74
     1
 95
       29
 96
       25
 40
0.0
 40
0.0
 40
0.0
 40
0.0
 40
1.0
 40
1.0
 40
1.0
 40
2.0
 40
2.0
 40
2.0
 40
3.0
 40
3.0
 40
3.0
 40
4.0
 40
4.0
 40
4.0
 40
5.0
 40
5.0
 40
5.0
 40
6.0
 40
6.0
 40
6.0
 40
7.0
 40
7.0
 40
7.0
 40
8.0
 40
8.0
 40
8.0
 40
8.0
 10
107.8111626249569
 20
-125.9113497949111
 10
108.0206244304601
 20
-126.0191812835994
 10
108.039572455629
 20
-126.1926418412817
 10
108.039572455629
 20
-126.3090860686832
 10
108.039572455629
 20
-126.4697997730701
 10
107.9930636665781
 20
-126.6115654522881
 10
107.8111626249569
 20
-126.7068223424552
 10
107.6165147300403
 20
-126.810347461787
 10
107.3798366702037
 20
-126.8294677417301
 10
107.2168836537513
 20
-126.8294677417301
 10
107.0728786624679
 20
-126.8294677417301
 10
106.8210421824961
 20
-126.8125867738524
 10
106.6222601729972
 20
-126.7068223424552
 10
106.419344048916
 20
-126.5988185989927
 10
106.3959173996163
 20
-126.4381048946058
 10
106.3959173996163
 20
-126.3090860686832
 10
106.3959173996163
 20
-126.1504394215874
 10
106.440359131376
 20
-126.0066066850782
 10
106.6222601729972
 20
-125.9113497949111
 10
106.8148410106227
 20
-125.8119587901616
 10
107.0432508412947
 20
-125.7887043956362
 10
107.2168836537513
 20
-125.7887043956362
 10
107.3881048993683
 20
-125.7887043956362
 10
107.6185817873315
 20
-125.8097194780962
 10
107.8111626249569
 20
-125.9113497949111
 97
        0
 97
        0
 92
        1
 93
        1
 72
     4
 94
        3
 73
     0
 74
     1
 95
       17
 96
       13
 40
0.0
 40
0.0
 40
0.0
 40
0.0
 40
1.0
 40
1.0
 40
1.0
 40
2.0
 40
2.0
 40
2.0
 40
3.0
 40
3.0
 40
3.0
 40
4.0
 40
4.0
 40
4.0
 40
4.0
 10
106.5884982372418
 20
-126.3090860686832
 10
106.5884982372418
 20
-126.5586832365895
 10
106.8720295956778
 20
-126.6051920256404
 10
107.2168836537513
 20
-126.6051920256404
 10
107.536244005234
 20
-126.6051920256404
 10
107.8449245607124
 20
-126.5691907778195
 10
107.8449245607124
 20
-126.3090860686832
 10
107.8449245607124
 20
-126.061555958068
 10
107.563804769116
 20
-126.0128078569517
 10
107.2168836537513
 20
-126.0128078569517
 10
106.8971787927202
 20
-126.0128078569517
 10
106.5884982372418
 20
-126.0508761620637
 10
106.5884982372418
 20
-126.3090860686832
 97
        0
 97
        0
 75
     2
 76
     1
 98
        0
  0
ENDBLK
  5
B0
330
AD
100
AcDbEntity
  8
0
100
AcDbBlockEnd
  0
BLOCK
  5
EB
330
E9
100
AcDbEntity
  8
0
100
AcDbBlockBegin
  2
block 7
 70
     0
 10
0.0
 20
0.0
 30
0.0
  3
block 7
  1

  0
SPLINE
  5
ED
330
E9
100
AcDbEntity
  8
_U+30EC_U+30A4_U+30E4_U+30FC 1
370
     0
100
AcDbSpline
210
0.0
220
0.0
230
1.0
 70
    11
 71
     3
 72
    26
 73
    22
 74
     0
 42
0.0000000001
 43
0.0000000001
 12
1.0
 22
0.0
 32
0.0
 13
1.0
 23
0.0
 33
0.0
 40
0.0
 40
0.0
 40
0.0
 40
0.0
 40
1.0
 40
1.0
 40
1.0
 40
2.0
 40
2.0
 40
2.0
 40
3.0
 40
3.0
 40
3.0
 40
4.0
 40
4.0
 40
4.0
 40
5.0
 40
5.0
 40
5.0
 40
6.0
 40
6.0
 40
6.0
 40
7.0
 40
7.0
 40
7.0
 40
7.0
 10
73.4670057325013
 20
-134.6818738812601
 30
0.0
 10
73.4670057325013
 20
-134.6818738812601
 30
0.0
 10
72.36268037470447
 20
-134.6818738812601
 30
0.0
 10
72.36268037470447
 20
-134.6818738812601
 30
0.0
 10
72.36268037470447
 20
-134.6818738812601
 30
0.0
 10
72.36268037470447
 20
-135.011914028747
 30
0.0
 10
72.36268037470447
 20
-135.011914028747
 30
0.0
 10
72.36268037470447
 20
-135.011914028747
 30
0.0
 10
72.21471352361299
 20
-135.011914028747
 30
0.0
 10
72.21471352361299
 20
-135.011914028747
 30
0.0
 10
72.19989961302642
 20
-134.6798068239689
 30
0.0
 10
72.0369465965741
 20
-134.6332980349181
 30
0.0
 10
71.92274168123807
 20
-134.6036702137449
 30
0.0
 10
71.92274168123807
 20
-134.6036702137449
 30
0.0
 10
71.92274168123807
 20
-134.4575981651703
 30
0.0
 10
71.92274168123807
 20
-134.4575981651703
 30
0.0
 10
71.92274168123807
 20
-134.4575981651703
 30
0.0
 10
73.4670057325013
 20
-134.4575981651703
 30
0.0
 10
73.4670057325013
 20
-134.4575981651703
 30
0.0
 10
73.4670057325013
 20
-134.4575981651703
 30
0.0
 10
73.4670057325013
 20
-134.6818738812601
 30
0.0
 10
73.4670057325013
 20
-134.6818738812601
 30
0.0
  0
HATCH
  5
EE
330
E9
100
AcDbEntity
  8
_U+30EC_U+30A4_U+30E4_U+30FC 1
 62
   179
420
  2234388
100
AcDbHatch
 10
0.0
 20
0.0
 30
0.0
210
0.0
220
0.0
230
1.0
  2
SOLID
 70
     1
 71
     0
 91
        1
 92
        1
 93
        1
 72
     4
 94
        3
 73
     0
 74
     1
 95
       26
 96
       22
 40
0.0
 40
0.0
 40
0.0
 40
0.0
 40
1.0
 40
1.0
 40
1.0
 40
2.0
 40
2.0
 40
2.0
 40
3.0
 40
3.0
 40
3.0
 40
4.0
 40
4.0
 40
4.0
 40
5.0
 40
5.0
 40
5.0
 40
6.0
 40
6.0
 40
6.0
 40
7.0
 40
7.0
 40
7.0
 40
7.0
 10
73.4670057325013
 20
-134.6818738812601
 10
73.4670057325013
 20
-134.6818738812601
 10
72.36268037470447
 20
-134.6818738812601
 10
72.36268037470447
 20
-134.6818738812601
 10
72.36268037470447
 20
-134.6818738812601
 10
72.36268037470447
 20
-135.011914028747
 10
72.36268037470447
 20
-135.011914028747
 10
72.36268037470447
 20
-135.011914028747
 10
72.21471352361299
 20
-135.011914028747
 10
72.21471352361299
 20
-135.011914028747
 10
72.19989961302642
 20
-134.6798068239689
 10
72.0369465965741
 20
-134.6332980349181
 10
71.92274168123807
 20
-134.6036702137449
 10
71.92274168123807
 20
-134.6036702137449
 10
71.92274168123807
 20
-134.4575981651703
 10
71.92274168123807
 20
-134.4575981651703
 10
71.92274168123807
 20
-134.4575981651703
 10
73.4670057325013
 20
-134.4575981651703
 10
73.4670057325013
 20
-134.4575981651703
 10
73.4670057325013
 20
-134.4575981651703
 10
73.4670057325013
 20
-134.6818738812601
 10
73.4670057325013
 20
-134.6818738812601
 97
        0
 97
        0
 75
     2
 76
     1
 98
        0
  0
POLYLINE
  5
EF
330
E9
100
AcDbEntity
  8
_U+30EC_U+30A4_U+30E4_U+30FC 1
370
     0
100
AcDb2dPolyline
 66
     1
 10
0.0
 20
0.0
 30
0.0
  0
VERTEX
  5
F0
330
EF
100
AcDbEntity
  8
_U+30EC_U+30A4_U+30E4_U+30FC 1
370
     0
100
AcDbVertex
100
AcDb2dVertex
 10
73.12008461713665
 20
-133.1243462123786
 30
0.0
  0
VERTEX
  5
F1
330
EF
100
AcDbEntity
  8
_U+30EC_U+30A4_U+30E4_U+30FC 1
370
     0
100
AcDbVertex
100
AcDb2dVertex
 10
73.4670057325013
 20
-133.1243462123786
 30
0.0
  0
VERTEX
  5
F2
330
EF
100
AcDbEntity
  8
_U+30EC_U+30A4_U+30E4_U+30FC 1
370
     0
100
AcDbVertex
100
AcDb2dVertex
 10
73.4670057325013
 20
-133.3424207565949
 30
0.0
  0
VERTEX
  5
F3
330
EF
100
AcDbEntity
  8
_U+30EC_U+30A4_U+30E4_U+30FC 1
370
     0
100
AcDbVertex
100
AcDb2dVertex
 10
73.12008461713665
 20
-133.3424207565949
 30
0.0
  0
VERTEX
  5
F4
330
EF
100
AcDbEntity
  8
_U+30EC_U+30A4_U+30E4_U+30FC 1
370
     0
100
AcDbVertex
100
AcDb2dVertex
 10
73.12008461713665
 20
-133.998022427438
 30
0.0
  0
VERTEX
  5
F5
330
EF
100
AcDbEntity
  8
_U+30EC_U+30A4_U+30E4_U+30FC 1
370
     0
100
AcDbVertex
100
AcDb2dVertex
 10
72.89580890104689
 20
-133.998022427438
 30
0.0
  0
VERTEX
  5
F6
330
EF
100
AcDbEntity
  8
_U+30EC_U+30A4_U+30E4_U+30FC 1
370
     0
100
AcDbVertex
100
AcDb2dVertex
 10
71.92274168123807
 20
-133.3189941072953
 30
0.0
  0
VERTEX
  5
F7
330
EF
100
AcDbEntity
  8
_U+30EC_U+30A4_U+30E4_U+30FC 1
370
     0
100
AcDbVertex
100
AcDb2dVertex
 10
71.92274168123807
 20
-133.1243462123786
 30
0.0
  0
VERTEX
  5
F8
330
EF
100
AcDbEntity
  8
_U+30EC_U+30A4_U+30E4_U+30FC 1
370
     0
100
AcDbVertex
100
AcDb2dVertex
 10
72.92113035286347
 20
-133.1243462123786
 30
0.0
  0
VERTEX
  5
F9
330
EF
100
AcDbEntity
  8
_U+30EC_U+30A4_U+30E4_U+30FC 1
370
     0
100
AcDbVertex
100
AcDb2dVertex
 10
72.92113035286347
 20
-132.9169514641666
 30
0.0
  0
VERTEX
  5
FA
330
EF
100
AcDbEntity
  8
_U+30EC_U+30A4_U+30E4_U+30FC 1
370
     0
100
AcDbVertex
100
AcDb2dVertex
 10
73.12008461713665
 20
-132.9169514641666
 30
0.0
  0
VERTEX
  5
FB
330
EF
100
AcDbEntity
  8
_U+30EC_U+30A4_U+30E4_U+30FC 1
370
     0
100
AcDbVertex
100
AcDb2dVertex
 10
73.12008461713665
 20
-133.1243462123786
 30
0.0
  0
SEQEND
  5
FC
330
EF
100
AcDbEntity
  8
_U+30EC_U+30A4_U+30E4_U+30FC 1
370
     0
  0
POLYLINE
  5
FD
330
E9
100
AcDbEntity
  8
_U+30EC_U+30A4_U+30E4_U+30FC 1
370
     0
100
AcDb2dPolyline
 66
     1
 10
0.0
 20
0.0
 30
0.0
  0
VERTEX
  5
FE
330
FD
100
AcDbEntity
  8
_U+30EC_U+30A4_U+30E4_U+30FC 1
370
     0
100
AcDbVertex
100
AcDb2dVertex
 10
72.26535642724616
 20
-133.3424207565949
 30
0.0
  0
VERTEX
  5
FF
330
FD
100
AcDbEntity
  8
_U+30EC_U+30A4_U+30E4_U+30FC 1
370
     0
100
AcDbVertex
100
AcDb2dVertex
 10
72.92113035286347
 20
-133.7992404179391
 30
0.0
  0
VERTEX
  5
100
330
FD
100
AcDbEntity
  8
_U+30EC_U+30A4_U+30E4_U+30FC 1
370
     0
100
AcDbVertex
100
AcDb2dVertex
 10
72.92113035286347
 20
-133.3424207565949
 30
0.0
  0
VERTEX
  5
101
330
FD
100
AcDbEntity
  8
_U+30EC_U+30A4_U+30E4_U+30FC 1
370
     0
100
AcDbVertex
100
AcDb2dVertex
 10
72.26535642724616
 20
-133.3424207565949
 30
0.0
  0
SEQEND
  5
102
330
FD
100
AcDbEntity
  8
_U+30EC_U+30A4_U+30E4_U+30FC 1
370
     0
  0
HATCH
  5
103
330
E9
100
AcDbEntity
  8
_U+30EC_U+30A4_U+30E4_U+30FC 1
 62
   179
420
  2234388
100
AcDbHatch
 10
0.0
 20
0.0
 30
0.0
210
0.0
220
0.0
230
1.0
  2
SOLID
 70
     1
 71
     0
 91
        2
 92
        1
 93
       11
 72
     1
 10
73.12008461713665
 20
-133.1243462123786
 11
73.4670057325013
 21
-133.1243462123786
 72
     1
 10
73.4670057325013
 20
-133.1243462123786
 11
73.4670057325013
 21
-133.3424207565949
 72
     1
 10
73.4670057325013
 20
-133.3424207565949
 11
73.12008461713665
 21
-133.3424207565949
 72
     1
 10
73.12008461713665
 20
-133.3424207565949
 11
73.12008461713665
 21
-133.998022427438
 72
     1
 10
73.12008461713665
 20
-133.998022427438
 11
72.89580890104689
 21
-133.998022427438
 72
     1
 10
72.89580890104689
 20
-133.998022427438
 11
71.92274168123807
 21
-133.3189941072953
 72
     1
 10
71.92274168123807
 20
-133.3189941072953
 11
71.92274168123807
 21
-133.1243462123786
 72
     1
 10
71.92274168123807
 20
-133.1243462123786
 11
72.92113035286347
 21
-133.1243462123786
 72
     1
 10
72.92113035286347
 20
-133.1243462123786
 11
72.92113035286347
 21
-132.9169514641666
 72
     1
 10
72.92113035286347
 20
-132.9169514641666
 11
73.12008461713665
 21
-132.9169514641666
 72
     1
 10
73.12008461713665
 20
-132.9169514641666
 11
73.12008461713665
 21
-133.1243462123786
 97
        0
 92
        1
 93
        3
 72
     1
 10
72.26535642724616
 20
-133.3424207565949
 11
72.92113035286347
 21
-133.7992404179391
 72
     1
 10
72.92113035286347
 20
-133.7992404179391
 11
72.92113035286347
 21
-133.3424207565949
 72
     1
 10
72.92113035286347
 20
-133.3424207565949
 11
72.26535642724616
 21
-133.3424207565949
 97
        0
 75
     2
 76
     1
 98
        0
  0
ENDBLK
  5
EC
330
E9
100
AcDbEntity
  8
0
100
AcDbBlockEnd
  0
BLOCK
  5
106
330
104
100
AcDbEntity
  8
0
100
AcDbBlockBegin
  2
block 8
 70
     0
 10
0.0
 20
0.0
 30
0.0
  3
block 8
  1

  0
SPLINE
  5
108
330
104
100
AcDbEntity
  8
_U+30EC_U+30A4_U+30E4_U+30FC 1
370
     0
100
AcDbSpline
210
0.0
220
0.0
230
1.0
 70
    11
 71
     3
 72
    53
 73
    49
 74
     0
 42
0.0000000001
 43
0.0000000001
 12
1.0
 22
0.0
 32
0.0
 13
1.0
 23
0.0
 33
0.0
 40
0.0
 40
0.0
 40
0.0
 40
0.0
 40
1.0
 40
1.0
 40
1.0
 40
2.0
 40
2.0
 40
2.0
 40
3.0
 40
3.0
 40
3.0
 40
4.0
 40
4.0
 40
4.0
 40
5.0
 40
5.0
 40
5.0
 40
6.0
 40
6.0
 40
6.0
 40
7.0
 40
7.0
 40
7.0
 40
8.0
 40
8.0
 40
8.0
 40
9.0
 40
9.0
 40
9.0
 40
10.0
 40
10.0
 40
10.0
 40
11.0
 40
11.0
 40
11.0
 40
12.0
 40
12.0
 40
12.0
 40
13.0
 40
13.0
 40
13.0
 40
14.0
 40
14.0
 40
14.0
 40
15.0
 40
15.0
 40
15.0
 40
16.0
 40
16.0
 40
16.0
 40
16.0
 10
86.63209361983503
 20
-146.9856878972814
 30
0.0
 10
86.55371769754561
 20
-146.9856878972814
 30
0.0
 10
86.452259635505
 20
-146.9688069294036
 30
0.0
 10
86.35062931869012
 20
-146.905417172475
 30
0.0
 10
86.17716876100779
 20
-146.795174116947
 30
0.0
 10
86.15598142377351
 20
-146.6642604885076
 30
0.0
 10
86.13703339860463
 20
-146.5564289998192
 30
0.0
 10
86.13703339860463
 20
-146.5564289998192
 30
0.0
 10
86.35906980262898
 20
-146.5564289998192
 30
0.0
 10
86.35906980262898
 20
-146.5564289998192
 30
0.0
 10
86.41419133039298
 20
-146.7552110093181
 30
0.0
 10
86.54114309902444
 20
-146.7848388304913
 30
0.0
 10
86.63416067712619
 20
-146.7848388304913
 30
0.0
 10
86.7736870442788
 20
-146.7848388304913
 30
0.0
 10
86.92613251950111
 20
-146.6852755709676
 30
0.0
 10
86.92613251950111
 20
-146.4527316257132
 30
0.0
 10
86.92613251950111
 20
-146.1967610311592
 30
0.0
 10
86.74629853517106
 20
-146.1268255928086
 30
0.0
 10
86.62572019318732
 20
-146.1268255928086
 30
0.0
 10
86.59402531472303
 20
-146.1268255928086
 30
0.0
 10
86.452259635505
 20
-146.1268255928086
 30
0.0
 10
86.36337617198555
 20
-146.2560166735055
 30
0.0
 10
86.36337617198555
 20
-146.2560166735055
 30
0.0
 10
86.18784855701207
 20
-146.236724138788
 30
0.0
 10
86.18784855701207
 20
-146.236724138788
 30
0.0
 10
86.18784855701207
 20
-146.236724138788
 30
0.0
 10
86.30842689899582
 20
-145.3906086876107
 30
0.0
 10
86.30842689899582
 20
-145.3906086876107
 30
0.0
 10
86.30842689899582
 20
-145.3906086876107
 30
0.0
 10
87.08684622388802
 20
-145.3906086876107
 30
0.0
 10
87.08684622388802
 20
-145.3906086876107
 30
0.0
 10
87.08684622388802
 20
-145.3906086876107
 30
0.0
 10
87.08684622388802
 20
-145.5852565825273
 30
0.0
 10
87.08684622388802
 20
-145.5852565825273
 30
0.0
 10
87.08684622388802
 20
-145.5852565825273
 30
0.0
 10
86.47120766067387
 20
-145.5852565825273
 30
0.0
 10
86.47120766067387
 20
-145.5852565825273
 30
0.0
 10
86.47120766067387
 20
-145.5852565825273
 30
0.0
 10
86.40575084645413
 20
-146.008314308116
 30
0.0
 10
86.40575084645413
 20
-146.008314308116
 30
0.0
 10
86.46707354609157
 20
-145.9745523723605
 30
0.0
 10
86.54958358296331
 20
-145.9342447551831
 30
0.0
 10
86.66792261288164
 20
-145.9342447551831
 30
0.0
 10
86.92182615014455
 20
-145.9342447551831
 30
0.0
 10
87.15884871952974
 20
-146.1206244209351
 30
0.0
 10
87.15884871952974
 20
-146.4334390909958
 30
0.0
 10
87.15884871952974
 20
-146.7510768947359
 30
0.0
 10
86.93457300343997
 20
-146.9856878972814
 30
0.0
 10
86.63209361983503
 20
-146.9856878972814
 30
0.0
  0
HATCH
  5
109
330
104
100
AcDbEntity
  8
_U+30EC_U+30A4_U+30E4_U+30FC 1
 62
   179
420
  2234388
100
AcDbHatch
 10
0.0
 20
0.0
 30
0.0
210
0.0
220
0.0
230
1.0
  2
SOLID
 70
     1
 71
     0
 91
        1
 92
        1
 93
        1
 72
     4
 94
        3
 73
     0
 74
     1
 95
       53
 96
       49
 40
0.0
 40
0.0
 40
0.0
 40
0.0
 40
1.0
 40
1.0
 40
1.0
 40
2.0
 40
2.0
 40
2.0
 40
3.0
 40
3.0
 40
3.0
 40
4.0
 40
4.0
 40
4.0
 40
5.0
 40
5.0
 40
5.0
 40
6.0
 40
6.0
 40
6.0
 40
7.0
 40
7.0
 40
7.0
 40
8.0
 40
8.0
 40
8.0
 40
9.0
 40
9.0
 40
9.0
 40
10.0
 40
10.0
 40
10.0
 40
11.0
 40
11.0
 40
11.0
 40
12.0
 40
12.0
 40
12.0
 40
13.0
 40
13.0
 40
13.0
 40
14.0
 40
14.0
 40
14.0
 40
15.0
 40
15.0
 40
15.0
 40
16.0
 40
16.0
 40
16.0
 40
16.0
 10
86.63209361983503
 20
-146.9856878972814
 10
86.55371769754561
 20
-146.9856878972814
 10
86.452259635505
 20
-146.9688069294036
 10
86.35062931869012
 20
-146.905417172475
 10
86.17716876100779
 20
-146.795174116947
 10
86.15598142377351
 20
-146.6642604885076
 10
86.13703339860463
 20
-146.5564289998192
 10
86.13703339860463
 20
-146.5564289998192
 10
86.35906980262898
 20
-146.5564289998192
 10
86.35906980262898
 20
-146.5564289998192
 10
86.41419133039298
 20
-146.7552110093181
 10
86.54114309902444
 20
-146.7848388304913
 10
86.63416067712619
 20
-146.7848388304913
 10
86.7736870442788
 20
-146.7848388304913
 10
86.92613251950111
 20
-146.6852755709676
 10
86.92613251950111
 20
-146.4527316257132
 10
86.92613251950111
 20
-146.1967610311592
 10
86.74629853517106
 20
-146.1268255928086
 10
86.62572019318732
 20
-146.1268255928086
 10
86.59402531472303
 20
-146.1268255928086
 10
86.452259635505
 20
-146.1268255928086
 10
86.36337617198555
 20
-146.2560166735055
 10
86.36337617198555
 20
-146.2560166735055
 10
86.18784855701207
 20
-146.236724138788
 10
86.18784855701207
 20
-146.236724138788
 10
86.18784855701207
 20
-146.236724138788
 10
86.30842689899582
 20
-145.3906086876107
 10
86.30842689899582
 20
-145.3906086876107
 10
86.30842689899582
 20
-145.3906086876107
 10
87.08684622388802
 20
-145.3906086876107
 10
87.08684622388802
 20
-145.3906086876107
 10
87.08684622388802
 20
-145.3906086876107
 10
87.08684622388802
 20
-145.5852565825273
 10
87.08684622388802
 20
-145.5852565825273
 10
87.08684622388802
 20
-145.5852565825273
 10
86.47120766067387
 20
-145.5852565825273
 10
86.47120766067387
 20
-145.5852565825273
 10
86.47120766067387
 20
-145.5852565825273
 10
86.40575084645413
 20
-146.008314308116
 10
86.40575084645413
 20
-146.008314308116
 10
86.46707354609157
 20
-145.9745523723605
 10
86.54958358296331
 20
-145.9342447551831
 10
86.66792261288164
 20
-145.9342447551831
 10
86.92182615014455
 20
-145.9342447551831
 10
87.15884871952974
 20
-146.1206244209351
 10
87.15884871952974
 20
-146.4334390909958
 10
87.15884871952974
 20
-146.7510768947359
 10
86.93457300343997
 20
-146.9856878972814
 10
86.63209361983503
 20
-146.9856878972814
 97
        0
 97
        0
 75
     2
 76
     1
 98
        0
  0
SPLINE
  5
10A
330
104
100
AcDbEntity
  8
_U+30EC_U+30A4_U+30E4_U+30FC 1
370
     0
100
AcDbSpline
210
0.0
220
0.0
230
1.0
 70
    11
 71
     3
 72
    29
 73
    25
 74
     0
 42
0.0000000001
 43
0.0000000001
 12
1.0
 22
0.0
 32
0.0
 13
1.0
 23
0.0
 33
0.0
 40
0.0
 40
0.0
 40
0.0
 40
0.0
 40
1.0
 40
1.0
 40
1.0
 40
2.0
 40
2.0
 40
2.0
 40
3.0
 40
3.0
 40
3.0
 40
4.0
 40
4.0
 40
4.0
 40
5.0
 40
5.0
 40
5.0
 40
6.0
 40
6.0
 40
6.0
 40
7.0
 40
7.0
 40
7.0
 40
8.0
 40
8.0
 40
8.0
 40
8.0
 10
88.22562253653734
 20
-146.7572780666093
 30
0.0
 10
88.11779104784902
 20
-146.9667398721125
 30
0.0
 10
87.9443304901667
 20
-146.9856878972814
 30
0.0
 10
87.82788626276526
 20
-146.9856878972814
 30
0.0
 10
87.66717255837835
 20
-146.9856878972814
 30
0.0
 10
87.52540687916031
 20
-146.9391791082305
 30
0.0
 10
87.43014998899316
 20
-146.7572780666093
 30
0.0
 10
87.3266248696614
 20
-146.5626301716927
 30
0.0
 10
87.30750458971826
 20
-146.3256076023075
 30
0.0
 10
87.30750458971826
 20
-146.1626545858552
 30
0.0
 10
87.30750458971826
 20
-146.0189941041203
 30
0.0
 10
87.32438555759599
 20
-145.7671576241485
 30
0.0
 10
87.43014998899316
 20
-145.5683756146496
 30
0.0
 10
87.53815373245574
 20
-145.3651149810198
 30
0.0
 10
87.69886743684265
 20
-145.3420328412687
 30
0.0
 10
87.82788626276526
 20
-145.3420328412687
 30
0.0
 10
87.98653290986101
 20
-145.3420328412687
 30
0.0
 10
88.1303656463702
 20
-145.3864745730284
 30
0.0
 10
88.22562253653734
 20
-145.5683756146496
 30
0.0
 10
88.32501354128681
 20
-145.7609564522751
 30
0.0
 10
88.34826793581225
 20
-145.9893662829471
 30
0.0
 10
88.34826793581225
 20
-146.1626545858552
 30
0.0
 10
88.34826793581225
 20
-146.3342203410206
 30
0.0
 10
88.32725285335222
 20
-146.5646972289838
 30
0.0
 10
88.22562253653734
 20
-146.7572780666093
 30
0.0
  0
SPLINE
  5
10B
330
104
100
AcDbEntity
  8
_U+30EC_U+30A4_U+30E4_U+30FC 1
370
     0
100
AcDbSpline
210
0.0
220
0.0
230
1.0
 70
    11
 71
     3
 72
    17
 73
    13
 74
     0
 42
0.0000000001
 43
0.0000000001
 12
1.0
 22
0.0
 32
0.0
 13
1.0
 23
0.0
 33
0.0
 40
0.0
 40
0.0
 40
0.0
 40
0.0
 40
1.0
 40
1.0
 40
1.0
 40
2.0
 40
2.0
 40
2.0
 40
3.0
 40
3.0
 40
3.0
 40
4.0
 40
4.0
 40
4.0
 40
4.0
 10
87.82788626276526
 20
-145.5346136788941
 30
0.0
 10
87.5782890948589
 20
-145.5346136788941
 30
0.0
 10
87.53178030580803
 20
-145.8178005277817
 30
0.0
 10
87.53178030580803
 20
-146.1626545858552
 30
0.0
 10
87.53178030580803
 20
-146.4823594468864
 30
0.0
 10
87.56778155362889
 20
-146.7910400023648
 30
0.0
 10
87.82788626276526
 20
-146.7910400023648
 30
0.0
 10
88.07541637338045
 20
-146.7910400023648
 30
0.0
 10
88.12416447449674
 20
-146.5095757012198
 30
0.0
 10
88.12416447449674
 20
-146.1626545858552
 30
0.0
 10
88.12416447449674
 20
-145.8432942343725
 30
0.0
 10
88.08592391461046
 20
-145.5346136788941
 30
0.0
 10
87.82788626276526
 20
-145.5346136788941
 30
0.0
  0
HATCH
  5
10C
330
104
100
AcDbEntity
  8
_U+30EC_U+30A4_U+30E4_U+30FC 1
 62
   179
420
  2234388
100
AcDbHatch
 10
0.0
 20
0.0
 30
0.0
210
0.0
220
0.0
230
1.0
  2
SOLID
 70
     1
 71
     0
 91
        2
 92
        1
 93
        1
 72
     4
 94
        3
 73
     0
 74
     1
 95
       29
 96
       25
 40
0.0
 40
0.0
 40
0.0
 40
0.0
 40
1.0
 40
1.0
 40
1.0
 40
2.0
 40
2.0
 40
2.0
 40
3.0
 40
3.0
 40
3.0
 40
4.0
 40
4.0
 40
4.0
 40
5.0
 40
5.0
 40
5.0
 40
6.0
 40
6.0
 40
6.0
 40
7.0
 40
7.0
 40
7.0
 40
8.0
 40
8.0
 40
8.0
 40
8.0
 10
88.22562253653734
 20
-146.7572780666093
 10
88.11779104784902
 20
-146.9667398721125
 10
87.9443304901667
 20
-146.9856878972814
 10
87.82788626276526
 20
-146.9856878972814
 10
87.66717255837835
 20
-146.9856878972814
 10
87.52540687916031
 20
-146.9391791082305
 10
87.43014998899316
 20
-146.7572780666093
 10
87.3266248696614
 20
-146.5626301716927
 10
87.30750458971826
 20
-146.3256076023075
 10
87.30750458971826
 20
-146.1626545858552
 10
87.30750458971826
 20
-146.0189941041203
 10
87.32438555759599
 20
-145.7671576241485
 10
87.43014998899316
 20
-145.5683756146496
 10
87.53815373245574
 20
-145.3651149810198
 10
87.69886743684265
 20
-145.3420328412687
 10
87.82788626276526
 20
-145.3420328412687
 10
87.98653290986101
 20
-145.3420328412687
 10
88.1303656463702
 20
-145.3864745730284
 10
88.22562253653734
 20
-145.5683756146496
 10
88.32501354128681
 20
-145.7609564522751
 10
88.34826793581225
 20
-145.9893662829471
 10
88.34826793581225
 20
-146.1626545858552
 10
88.34826793581225
 20
-146.3342203410206
 10
88.32725285335222
 20
-146.5646972289838
 10
88.22562253653734
 20
-146.7572780666093
 97
        0
 97
        0
 92
        1
 93
        1
 72
     4
 94
        3
 73
     0
 74
     1
 95
       17
 96
       13
 40
0.0
 40
0.0
 40
0.0
 40
0.0
 40
1.0
 40
1.0
 40
1.0
 40
2.0
 40
2.0
 40
2.0
 40
3.0
 40
3.0
 40
3.0
 40
4.0
 40
4.0
 40
4.0
 40
4.0
 10
87.82788626276526
 20
-145.5346136788941
 10
87.5782890948589
 20
-145.5346136788941
 10
87.53178030580803
 20
-145.8178005277817
 10
87.53178030580803
 20
-146.1626545858552
 10
87.53178030580803
 20
-146.4823594468864
 10
87.56778155362889
 20
-146.7910400023648
 10
87.82788626276526
 20
-146.7910400023648
 10
88.07541637338045
 20
-146.7910400023648
 10
88.12416447449674
 20
-146.5095757012198
 10
88.12416447449674
 20
-146.1626545858552
 10
88.12416447449674
 20
-145.8432942343725
 10
88.08592391461046
 20
-145.5346136788941
 10
87.82788626276526
 20
-145.5346136788941
 97
        0
 97
        0
 75
     2
 76
     1
 98
        0
  0
ENDBLK
  5
107
330
104
100
AcDbEntity
  8
0
100
AcDbBlockEnd
  0
BLOCK
  5
10F
330
10D
100
AcDbEntity
  8
0
100
AcDbBlockBegin
  2
block 9
 70
     0
 10
0.0
 20
0.0
 30
0.0
  3
block 9
  1

  0
SPLINE
  5
111
330
10D
100
AcDbEntity
  8
_U+30EC_U+30A4_U+30E4_U+30FC 1
370
     0
100
AcDbSpline
210
0.0
220
0.0
230
1.0
 70
    11
 71
     3
 72
    62
 73
    58
 74
     0
 42
0.0000000001
 43
0.0000000001
 12
1.0
 22
0.0
 32
0.0
 13
1.0
 23
0.0
 33
0.0
 40
0.0
 40
0.0
 40
0.0
 40
0.0
 40
1.0
 40
1.0
 40
1.0
 40
2.0
 40
2.0
 40
2.0
 40
3.0
 40
3.0
 40
3.0
 40
4.0
 40
4.0
 40
4.0
 40
5.0
 40
5.0
 40
5.0
 40
6.0
 40
6.0
 40
6.0
 40
7.0
 40
7.0
 40
7.0
 40
8.0
 40
8.0
 40
8.0
 40
9.0
 40
9.0
 40
9.0
 40
10.0
 40
10.0
 40
10.0
 40
11.0
 40
11.0
 40
11.0
 40
12.0
 40
12.0
 40
12.0
 40
13.0
 40
13.0
 40
13.0
 40
14.0
 40
14.0
 40
14.0
 40
15.0
 40
15.0
 40
15.0
 40
16.0
 40
16.0
 40
16.0
 40
17.0
 40
17.0
 40
17.0
 40
18.0
 40
18.0
 40
18.0
 40
19.0
 40
19.0
 40
19.0
 40
19.0
 10
73.51816540045726
 20
-140.4524088190536
 30
0.0
 10
73.51816540045726
 20
-140.5474934544465
 30
0.0
 10
73.49697806322298
 20
-140.7652234891142
 30
0.0
 10
73.31077065224522
 20
-140.8899359456803
 30
0.0
 10
73.19863279420035
 20
-140.9643500081617
 30
0.0
 10
73.09924178945089
 20
-140.968484122744
 30
0.0
 10
73.014664695288
 20
-140.9726182373263
 30
0.0
 10
73.014664695288
 20
-140.9726182373263
 30
0.0
 10
73.014664695288
 20
-140.7528211453674
 30
0.0
 10
73.014664695288
 20
-140.7528211453674
 30
0.0
 10
73.08873424822087
 20
-140.7507540880762
 30
0.0
 10
73.32351750554065
 20
-140.7397297825234
 30
0.0
 10
73.32351750554065
 20
-140.4565429336359
 30
0.0
 10
73.32351750554065
 20
-140.3187391142259
 30
0.0
 10
73.25375432196434
 20
-140.1664658937778
 30
0.0
 10
73.02517223651802
 20
-140.1664658937778
 30
0.0
 10
72.90890026389083
 20
-140.1664658937778
 30
0.0
 10
72.86015216277455
 20
-140.2047064536641
 30
0.0
 10
72.82845728431025
 20
-140.2364013321284
 30
0.0
 10
72.75438773137738
 20
-140.3104708850613
 30
0.0
 10
72.74181313285622
 20
-140.4269151124627
 30
0.0
 10
72.74181313285622
 20
-140.4820366402267
 30
0.0
 10
72.74181313285622
 20
-140.5006401558471
 30
0.0
 10
72.74388019014737
 20
-140.5368136584422
 30
0.0
 10
72.74801430472967
 20
-140.5643744223242
 30
0.0
 10
72.74801430472967
 20
-140.5643744223242
 30
0.0
 10
72.55336640981305
 20
-140.5643744223242
 30
0.0
 10
72.55336640981305
 20
-140.5643744223242
 30
0.0
 10
72.55973983646076
 20
-140.5261338624379
 30
0.0
 10
72.56197914852618
 20
-140.4841036975179
 30
0.0
 10
72.56197914852618
 20
-140.4775580160959
 30
0.0
 10
72.56197914852618
 20
-140.4121012018761
 30
0.0
 10
72.54079181129188
 20
-140.2133191923772
 30
0.0
 10
72.30376924190669
 20
-140.2133191923772
 30
0.0
 10
72.12617456964207
 20
-140.2133191923772
 30
0.0
 10
72.07105304187807
 20
-140.3442328208167
 30
0.0
 10
72.07105304187807
 20
-140.4544758763447
 30
0.0
 10
72.07105304187807
 20
-140.7187147000634
 30
0.0
 10
72.30376924190669
 20
-140.7273274387765
 30
0.0
 10
72.37577173754842
 20
-140.7314615533588
 30
0.0
 10
72.37577173754842
 20
-140.7314615533588
 30
0.0
 10
72.37577173754842
 20
-140.9347221869886
 30
0.0
 10
72.37577173754842
 20
-140.9347221869886
 30
0.0
 10
72.25088702620812
 20
-140.9261094482754
 30
0.0
 10
71.8743380896703
 20
-140.8985486843934
 30
0.0
 10
71.8743380896703
 20
-140.4417290230493
 30
0.0
 10
71.8743380896703
 20
-140.2174533069595
 30
0.0
 10
72.00128985830176
 20
-139.976296622992
 30
0.0
 10
72.297395815259
 20
-139.976296622992
 30
0.0
 10
72.48360322623674
 20
-139.976296622992
 30
0.0
 10
72.56611326310848
 20
-140.0713812583849
 30
0.0
 10
72.62743596274592
 20
-140.1709445179087
 30
0.0
 10
72.65499672662791
 20
-140.1092773087227
 30
0.0
 10
72.73543970620851
 20
-139.9273762671015
 30
0.0
 10
73.01259763799685
 20
-139.9273762671015
 30
0.0
 10
73.35107826942264
 20
-139.9273762671015
 30
0.0
 10
73.51816540045726
 20
-140.175078632491
 30
0.0
 10
73.51816540045726
 20
-140.4524088190536
 30
0.0
  0
HATCH
  5
112
330
10D
100
AcDbEntity
  8
_U+30EC_U+30A4_U+30E4_U+30FC 1
 62
   179
420
  2234388
100
AcDbHatch
 10
0.0
 20
0.0
 30
0.0
210
0.0
220
0.0
230
1.0
  2
SOLID
 70
     1
 71
     0
 91
        1
 92
        1
 93
        1
 72
     4
 94
        3
 73
     0
 74
     1
 95
       62
 96
       58
 40
0.0
 40
0.0
 40
0.0
 40
0.0
 40
1.0
 40
1.0
 40
1.0
 40
2.0
 40
2.0
 40
2.0
 40
3.0
 40
3.0
 40
3.0
 40
4.0
 40
4.0
 40
4.0
 40
5.0
 40
5.0
 40
5.0
 40
6.0
 40
6.0
 40
6.0
 40
7.0
 40
7.0
 40
7.0
 40
8.0
 40
8.0
 40
8.0
 40
9.0
 40
9.0
 40
9.0
 40
10.0
 40
10.0
 40
10.0
 40
11.0
 40
11.0
 40
11.0
 40
12.0
 40
12.0
 40
12.0
 40
13.0
 40
13.0
 40
13.0
 40
14.0
 40
14.0
 40
14.0
 40
15.0
 40
15.0
 40
15.0
 40
16.0
 40
16.0
 40
16.0
 40
17.0
 40
17.0
 40
17.0
 40
18.0
 40
18.0
 40
18.0
 40
19.0
 40
19.0
 40
19.0
 40
19.0
 10
73.51816540045726
 20
-140.4524088190536
 10
73.51816540045726
 20
-140.5474934544465
 10
73.49697806322298
 20
-140.7652234891142
 10
73.31077065224522
 20
-140.8899359456803
 10
73.19863279420035
 20
-140.9643500081617
 10
73.09924178945089
 20
-140.968484122744
 10
73.014664695288
 20
-140.9726182373263
 10
73.014664695288
 20
-140.9726182373263
 10
73.014664695288
 20
-140.7528211453674
 10
73.014664695288
 20
-140.7528211453674
 10
73.08873424822087
 20
-140.7507540880762
 10
73.32351750554065
 20
-140.7397297825234
 10
73.32351750554065
 20
-140.4565429336359
 10
73.32351750554065
 20
-140.3187391142259
 10
73.25375432196434
 20
-140.1664658937778
 10
73.02517223651802
 20
-140.1664658937778
 10
72.90890026389083
 20
-140.1664658937778
 10
72.86015216277455
 20
-140.2047064536641
 10
72.82845728431025
 20
-140.2364013321284
 10
72.75438773137738
 20
-140.3104708850613
 10
72.74181313285622
 20
-140.4269151124627
 10
72.74181313285622
 20
-140.4820366402267
 10
72.74181313285622
 20
-140.5006401558471
 10
72.74388019014737
 20
-140.5368136584422
 10
72.74801430472967
 20
-140.5643744223242
 10
72.74801430472967
 20
-140.5643744223242
 10
72.55336640981305
 20
-140.5643744223242
 10
72.55336640981305
 20
-140.5643744223242
 10
72.55973983646076
 20
-140.5261338624379
 10
72.56197914852618
 20
-140.4841036975179
 10
72.56197914852618
 20
-140.4775580160959
 10
72.56197914852618
 20
-140.4121012018761
 10
72.54079181129188
 20
-140.2133191923772
 10
72.30376924190669
 20
-140.2133191923772
 10
72.12617456964207
 20
-140.2133191923772
 10
72.07105304187807
 20
-140.3442328208167
 10
72.07105304187807
 20
-140.4544758763447
 10
72.07105304187807
 20
-140.7187147000634
 10
72.30376924190669
 20
-140.7273274387765
 10
72.37577173754842
 20
-140.7314615533588
 10
72.37577173754842
 20
-140.7314615533588
 10
72.37577173754842
 20
-140.9347221869886
 10
72.37577173754842
 20
-140.9347221869886
 10
72.25088702620812
 20
-140.9261094482754
 10
71.8743380896703
 20
-140.8985486843934
 10
71.8743380896703
 20
-140.4417290230493
 10
71.8743380896703
 20
-140.2174533069595
 10
72.00128985830176
 20
-139.976296622992
 10
72.297395815259
 20
-139.976296622992
 10
72.48360322623674
 20
-139.976296622992
 10
72.56611326310848
 20
-140.0713812583849
 10
72.62743596274592
 20
-140.1709445179087
 10
72.65499672662791
 20
-140.1092773087227
 10
72.73543970620851
 20
-139.9273762671015
 10
73.01259763799685
 20
-139.9273762671015
 10
73.35107826942264
 20
-139.9273762671015
 10
73.51816540045726
 20
-140.175078632491
 10
73.51816540045726
 20
-140.4524088190536
 97
        0
 97
        0
 75
     2
 76
     1
 98
        0
  0
ENDBLK
  5
110
330
10D
100
AcDbEntity
  8
0
100
AcDbBlockEnd
  0
ENDSEC
  0
SECTION
  2
ENTITIES
  0
POLYLINE
  5
41
330
1F
100
AcDbEntity
  8
_U+30EC_U+30A4_U+30E4_U+30FC 1
370
     0
100
AcDb2dPolyline
 66
     1
 10
0.0
 20
0.0
 30
0.0
  0
VERTEX
  5
42
330
41
100
AcDbEntity
  8
_U+30EC_U+30A4_U+30E4_U+30FC 1
370
     0
100
AcDbVertex
100
AcDb2dVertex
 10
75.29392363464753
 20
-130.7152085784325
 30
0.0
  0
VERTEX
  5
43
330
41
100
AcDbEntity
  8
_U+30EC_U+30A4_U+30E4_U+30FC 1
370
     0
100
AcDbVertex
100
AcDb2dVertex
 10
75.29392363464753
 20
-130.1529513563507
 30
0.0
  0
VERTEX
  5
44
330
41
100
AcDbEntity
  8
_U+30EC_U+30A4_U+30E4_U+30FC 1
370
     0
100
AcDbVertex
100
AcDb2dVertex
 10
90.39242408278602
 20
-130.1529513563507
 30
0.0
  0
VERTEX
  5
45
330
41
100
AcDbEntity
  8
_U+30EC_U+30A4_U+30E4_U+30FC 1
370
     0
100
AcDbVertex
100
AcDb2dVertex
 10
90.39242408278602
 20
-114.9339063601555
 30
0.0
  0
VERTEX
  5
46
330
41
100
AcDbEntity
  8
_U+30EC_U+30A4_U+30E4_U+30FC 1
370
     0
100
AcDbVertex
100
AcDb2dVertex
 10
90.99496851185829
 20
-114.9339063601555
 30
0.0
  0
VERTEX
  5
47
330
41
100
AcDbEntity
  8
_U+30EC_U+30A4_U+30E4_U+30FC 1
370
     0
100
AcDbVertex
100
AcDb2dVertex
 10
90.99496851185829
 20
-119.5516969145565
 30
0.0
  0
VERTEX
  5
48
330
41
100
AcDbEntity
  8
_U+30EC_U+30A4_U+30E4_U+30FC 1
370
     0
100
AcDbVertex
100
AcDb2dVertex
 10
90.91502906945327
 20
-119.672099970082
 30
0.0
  0
VERTEX
  5
49
330
41
100
AcDbEntity
  8
_U+30EC_U+30A4_U+30E4_U+30FC 1
370
     0
100
AcDbVertex
100
AcDb2dVertex
 10
91.0352557330527
 20
-119.8330019144863
 30
0.0
  0
VERTEX
  5
4A
330
41
100
AcDbEntity
  8
_U+30EC_U+30A4_U+30E4_U+30FC 1
370
     0
100
AcDbVertex
100
AcDb2dVertex
 10
91.0352557330527
 20
-130.1529513563507
 30
0.0
  0
VERTEX
  5
4B
330
41
100
AcDbEntity
  8
_U+30EC_U+30A4_U+30E4_U+30FC 1
370
     0
100
AcDbVertex
100
AcDb2dVertex
 10
98.26342775321173
 20
-137.5013477434022
 30
0.0
  0
VERTEX
  5
4C
330
41
100
AcDbEntity
  8
_U+30EC_U+30A4_U+30E4_U+30FC 1
370
     0
100
AcDbVertex
100
AcDb2dVertex
 10
98.5844883182335
 20
-137.3407985767759
 30
0.0
  0
VERTEX
  5
4D
330
41
100
AcDbEntity
  8
_U+30EC_U+30A4_U+30E4_U+30FC 1
370
     0
100
AcDbVertex
100
AcDb2dVertex
 10
98.5844883182335
 20
-127.4624916348009
 30
0.0
  0
VERTEX
  5
4E
330
41
100
AcDbEntity
  8
_U+30EC_U+30A4_U+30E4_U+30FC 1
370
     0
100
AcDbVertex
100
AcDb2dVertex
 10
97.74113778419361
 20
-127.4624916348009
 30
0.0
  0
VERTEX
  5
4F
330
41
100
AcDbEntity
  8
_U+30EC_U+30A4_U+30E4_U+30FC 1
370
     0
100
AcDbVertex
100
AcDb2dVertex
 10
97.74113778419361
 20
-126.8203302460728
 30
0.0
  0
VERTEX
  5
50
330
41
100
AcDbEntity
  8
_U+30EC_U+30A4_U+30E4_U+30FC 1
370
     0
100
AcDbVertex
100
AcDb2dVertex
 10
99.14674552611135
 20
-126.8203302460728
 30
0.0
  0
VERTEX
  5
51
330
41
100
AcDbEntity
  8
_U+30EC_U+30A4_U+30E4_U+30FC 1
370
     0
100
AcDbVertex
100
AcDb2dVertex
 10
99.14674552611135
 20
-138.6664669097776
 30
0.0
  0
VERTEX
  5
52
330
41
100
AcDbEntity
  8
_U+30EC_U+30A4_U+30E4_U+30FC 1
370
     0
100
AcDbVertex
100
AcDb2dVertex
 10
98.94590914234622
 20
-138.7470766319801
 30
0.0
  0
VERTEX
  5
53
330
41
100
AcDbEntity
  8
_U+30EC_U+30A4_U+30E4_U+30FC 1
370
     0
100
AcDbVertex
100
AcDb2dVertex
 10
87.22035221926788
 20
-138.7470766319801
 30
0.0
  0
VERTEX
  5
54
330
41
100
AcDbEntity
  8
_U+30EC_U+30A4_U+30E4_U+30FC 1
370
     0
100
AcDbVertex
100
AcDb2dVertex
 10
87.22035221926788
 20
-137.4214082989777
 30
0.0
  0
VERTEX
  5
55
330
41
100
AcDbEntity
  8
_U+30EC_U+30A4_U+30E4_U+30FC 1
370
     0
100
AcDbVertex
100
AcDb2dVertex
 10
87.74228692817444
 20
-137.4214082989777
 30
0.0
  0
VERTEX
  5
56
330
41
100
AcDbEntity
  8
_U+30EC_U+30A4_U+30E4_U+30FC 1
370
     0
100
AcDbVertex
100
AcDb2dVertex
 10
87.74228692817444
 20
-138.1441794099083
 30
0.0
  0
VERTEX
  5
57
330
41
100
AcDbEntity
  8
_U+30EC_U+30A4_U+30E4_U+30FC 1
370
     0
100
AcDbVertex
100
AcDb2dVertex
 10
97.7011680629911
 20
-138.1441794099083
 30
0.0
  0
VERTEX
  5
58
330
41
100
AcDbEntity
  8
_U+30EC_U+30A4_U+30E4_U+30FC 1
370
     0
100
AcDbVertex
100
AcDb2dVertex
 10
97.82174997554488
 20
-137.8630860766452
 30
0.0
  0
VERTEX
  5
59
330
41
100
AcDbEntity
  8
_U+30EC_U+30A4_U+30E4_U+30FC 1
370
     0
100
AcDbVertex
100
AcDb2dVertex
 10
90.67369379783246
 20
-130.7152085784325
 30
0.0
  0
VERTEX
  5
5A
330
41
100
AcDbEntity
  8
_U+30EC_U+30A4_U+30E4_U+30FC 1
370
     0
100
AcDbVertex
100
AcDb2dVertex
 10
80.31345739547744
 20
-130.7152085784325
 30
0.0
  0
VERTEX
  5
5B
330
41
100
AcDbEntity
  8
_U+30EC_U+30A4_U+30E4_U+30FC 1
370
     0
100
AcDbVertex
100
AcDb2dVertex
 10
80.11276212281983
 20
-130.5546594118056
 30
0.0
  0
VERTEX
  5
5C
330
41
100
AcDbEntity
  8
_U+30EC_U+30A4_U+30E4_U+30FC 1
370
     0
100
AcDbVertex
100
AcDb2dVertex
 10
79.95203657136473
 20
-130.7152085784325
 30
0.0
  0
VERTEX
  5
5D
330
41
100
AcDbEntity
  8
_U+30EC_U+30A4_U+30E4_U+30FC 1
370
     0
100
AcDbVertex
100
AcDb2dVertex
 10
75.29392363464753
 20
-130.7152085784325
 30
0.0
  0
SEQEND
  5
5F
330
41
100
AcDbEntity
  8
_U+30EC_U+30A4_U+30E4_U+30FC 1
370
     0
  0
HATCH
  5
5E
330
1F
100
AcDbEntity
  8
_U+30EC_U+30A4_U+30E4_U+30FC 1
 62
   253
420
 10066329
100
AcDbHatch
 10
0.0
 20
0.0
 30
0.0
210
0.0
220
0.0
230
1.0
  2
SOLID
 70
     1
 71
     0
 91
        1
 92
        1
 93
       27
 72
     1
 10
75.29392363464753
 20
-130.7152085784325
 11
75.29392363464753
 21
-130.1529513563507
 72
     1
 10
75.29392363464753
 20
-130.1529513563507
 11
90.39242408278602
 21
-130.1529513563507
 72
     1
 10
90.39242408278602
 20
-130.1529513563507
 11
90.39242408278602
 21
-114.9339063601555
 72
     1
 10
90.39242408278602
 20
-114.9339063601555
 11
90.99496851185827
 21
-114.9339063601555
 72
     1
 10
90.99496851185829
 20
-114.9339063601555
 11
90.99496851185829
 21
-119.5516969145565
 72
     1
 10
90.99496851185829
 20
-119.5516969145565
 11
90.91502906945327
 21
-119.672099970082
 72
     1
 10
90.91502906945327
 20
-119.672099970082
 11
91.0352557330527
 21
-119.8330019144863
 72
     1
 10
91.0352557330527
 20
-119.8330019144863
 11
91.0352557330527
 21
-130.1529513563507
 72
     1
 10
91.0352557330527
 20
-130.1529513563507
 11
98.26342775321174
 21
-137.5013477434022
 72
     1
 10
98.26342775321173
 20
-137.5013477434022
 11
98.5844883182335
 21
-137.3407985767759
 72
     1
 10
98.5844883182335
 20
-137.3407985767759
 11
98.5844883182335
 21
-127.4624916348009
 72
     1
 10
98.5844883182335
 20
-127.4624916348009
 11
97.74113778419361
 21
-127.4624916348009
 72
     1
 10
97.74113778419361
 20
-127.4624916348009
 11
97.74113778419361
 21
-126.8203302460728
 72
     1
 10
97.74113778419361
 20
-126.8203302460728
 11
99.14674552611135
 21
-126.8203302460728
 72
     1
 10
99.14674552611135
 20
-126.8203302460728
 11
99.14674552611135
 21
-138.6664669097776
 72
     1
 10
99.14674552611135
 20
-138.6664669097776
 11
98.94590914234622
 21
-138.7470766319801
 72
     1
 10
98.94590914234622
 20
-138.7470766319801
 11
87.22035221926788
 21
-138.7470766319801
 72
     1
 10
87.22035221926788
 20
-138.7470766319801
 11
87.22035221926788
 21
-137.4214082989777
 72
     1
 10
87.22035221926788
 20
-137.4214082989777
 11
87.74228692817444
 21
-137.4214082989777
 72
     1
 10
87.74228692817444
 20
-137.4214082989777
 11
87.74228692817444
 21
-138.1441794099083
 72
     1
 10
87.74228692817444
 20
-138.1441794099083
 11
97.7011680629911
 21
-138.1441794099083
 72
     1
 10
97.7011680629911
 20
-138.1441794099083
 11
97.82174997554488
 21
-137.8630860766452
 72
     1
 10
97.82174997554488
 20
-137.8630860766452
 11
90.67369379783246
 21
-130.7152085784325
 72
     1
 10
90.67369379783246
 20
-130.7152085784325
 11
80.31345739547744
 21
-130.7152085784325
 72
     1
 10
80.31345739547744
 20
-130.7152085784325
 11
80.11276212281983
 21
-130.5546594118056
 72
     1
 10
80.11276212281983
 20
-130.5546594118056
 11
79.95203657136473
 21
-130.7152085784325
 72
     1
 10
79.95203657136473
 20
-130.7152085784325
 11
75.29392363464754
 21
-130.7152085784325
 97
        0
 75
     2
 76
     1
 98
        0
  0
POLYLINE
  5
60
330
1F
100
AcDbEntity
  8
_U+30EC_U+30A4_U+30E4_U+30FC 1
 62
   179
420
  2234388
370
     9
100
AcDb2dPolyline
 66
     1
 10
0.0
 20
0.0
 30
0.0
  0
VERTEX
  5
61
330
60
100
AcDbEntity
  8
_U+30EC_U+30A4_U+30E4_U+30FC 1
 62
   179
420
  2234388
370
     9
100
AcDbVertex
100
AcDb2dVertex
 10
99.15052024823727
 20
-139.660735798418
 30
0.0
  0
VERTEX
  5
62
330
60
100
AcDbEntity
  8
_U+30EC_U+30A4_U+30E4_U+30FC 1
 62
   179
420
  2234388
370
     9
100
AcDbVertex
100
AcDb2dVertex
 10
99.15052024823727
 20
-148.8963521849982
 30
0.0
  0
SEQEND
  5
63
330
60
100
AcDbEntity
  8
_U+30EC_U+30A4_U+30E4_U+30FC 1
 62
   179
420
  2234388
370
     9
  0
POLYLINE
  5
64
330
1F
100
AcDbEntity
  8
_U+30EC_U+30A4_U+30E4_U+30FC 1
 62
   179
420
  2234388
370
     9
100
AcDb2dPolyline
 66
     1
 10
0.0
 20
0.0
 30
0.0
  0
VERTEX
  5
65
330
64
100
AcDbEntity
  8
_U+30EC_U+30A4_U+30E4_U+30FC 1
 62
   179
420
  2234388
370
     9
100
AcDbVertex
100
AcDb2dVertex
 10
100.2395452204539
 20
-126.8981883016088
 30
0.0
  0
VERTEX
  5
66
330
64
100
AcDbEntity
  8
_U+30EC_U+30A4_U+30E4_U+30FC 1
 62
   179
420
  2234388
370
     9
100
AcDbVertex
100
AcDb2dVertex
 10
104.5231492778368
 20
-126.8981883016088
 30
0.0
  0
SEQEND
  5
67
330
64
100
AcDbEntity
  8
_U+30EC_U+30A4_U+30E4_U+30FC 1
 62
   179
420
  2234388
370
     9
  0
POLYLINE
  5
68
330
1F
100
AcDbEntity
  8
_U+30EC_U+30A4_U+30E4_U+30FC 1
 62
   179
420
  2234388
370
     9
100
AcDb2dPolyline
 66
     1
 10
0.0
 20
0.0
 30
0.0
  0
VERTEX
  5
69
330
68
100
AcDbEntity
  8
_U+30EC_U+30A4_U+30E4_U+30FC 1
 62
   179
420
  2234388
370
     9
100
AcDbVertex
100
AcDb2dVertex
 10
100.0018082820747
 20
-138.8098005208531
 30
0.0
  0
VERTEX
  5
6A
330
68
100
AcDbEntity
  8
_U+30EC_U+30A4_U+30E4_U+30FC 1
 62
   179
420
  2234388
370
     9
100
AcDbVertex
100
AcDb2dVertex
 10
110.0401349704201
 20
-138.8098005208531
 30
0.0
  0
SEQEND
  5
6B
330
68
100
AcDbEntity
  8
_U+30EC_U+30A4_U+30E4_U+30FC 1
 62
   179
420
  2234388
370
     9
  0
POLYLINE
  5
6C
330
1F
100
AcDbEntity
  8
_U+30EC_U+30A4_U+30E4_U+30FC 1
 62
   179
420
  2234388
370
     9
100
AcDb2dPolyline
 66
     1
 10
0.0
 20
0.0
 30
0.0
  0
VERTEX
  5
6D
330
6C
100
AcDbEntity
  8
_U+30EC_U+30A4_U+30E4_U+30FC 1
 62
   179
420
  2234388
370
     9
100
AcDbVertex
100
AcDb2dVertex
 10
108.6786244495995
 20
-138.8098005208531
 30
0.0
  0
VERTEX
  5
6E
330
6C
100
AcDbEntity
  8
_U+30EC_U+30A4_U+30E4_U+30FC 1
 62
   179
420
  2234388
370
     9
100
AcDbVertex
100
AcDb2dVertex
 10
108.6786244495995
 20
-114.9871405268087
 30
0.0
  0
SEQEND
  5
6F
330
6C
100
AcDbEntity
  8
_U+30EC_U+30A4_U+30E4_U+30FC 1
 62
   179
420
  2234388
370
     9
  0
POLYLINE
  5
70
330
1F
100
AcDbEntity
  8
_U+30EC_U+30A4_U+30E4_U+30FC 1
 62
   179
420
  2234388
370
     9
100
AcDb2dPolyline
 66
     1
 10
0.0
 20
0.0
 30
0.0
  0
VERTEX
  5
71
330
70
100
AcDbEntity
  8
_U+30EC_U+30A4_U+30E4_U+30FC 1
 62
   179
420
  2234388
370
     9
100
AcDbVertex
100
AcDb2dVertex
 10
99.15052024823727
 20
-125.8090221907699
 30
0.0
  0
VERTEX
  5
72
330
70
100
AcDbEntity
  8
_U+30EC_U+30A4_U+30E4_U+30FC 1
 62
   179
420
  2234388
370
     9
100
AcDbVertex
100
AcDb2dVertex
 10
99.15052024823727
 20
-109.4474005281937
 30
0.0
  0
SEQEND
  5
73
330
70
100
AcDbEntity
  8
_U+30EC_U+30A4_U+30E4_U+30FC 1
 62
   179
420
  2234388
370
     9
  0
POLYLINE
  5
74
330
1F
100
AcDbEntity
  8
_U+30EC_U+30A4_U+30E4_U+30FC 1
 62
   179
420
  2234388
370
     9
100
AcDb2dPolyline
 66
     1
 10
0.0
 20
0.0
 30
0.0
  0
VERTEX
  5
75
330
74
100
AcDbEntity
  8
_U+30EC_U+30A4_U+30E4_U+30FC 1
 62
   179
420
  2234388
370
     9
100
AcDbVertex
100
AcDb2dVertex
 10
100.0018082820747
 20
-138.8098005208531
 30
0.0
  0
VERTEX
  5
76
330
74
100
AcDbEntity
  8
_U+30EC_U+30A4_U+30E4_U+30FC 1
 62
   179
420
  2234388
370
     9
100
AcDbVertex
100
AcDb2dVertex
 10
104.5231492778368
 20
-138.8098005208531
 30
0.0
  0
SEQEND
  5
77
330
74
100
AcDbEntity
  8
_U+30EC_U+30A4_U+30E4_U+30FC 1
 62
   179
420
  2234388
370
     9
  0
POLYLINE
  5
78
330
1F
100
AcDbEntity
  8
_U+30EC_U+30A4_U+30E4_U+30FC 1
 62
   179
420
  2234388
370
     9
100
AcDb2dPolyline
 66
     1
 10
0.0
 20
0.0
 30
0.0
  0
VERTEX
  5
79
330
78
100
AcDbEntity
  8
_U+30EC_U+30A4_U+30E4_U+30FC 1
 62
   179
420
  2234388
370
     9
100
AcDbVertex
100
AcDb2dVertex
 10
103.1616740347931
 20
-138.8098005208531
 30
0.0
  0
VERTEX
  5
7A
330
78
100
AcDbEntity
  8
_U+30EC_U+30A4_U+30E4_U+30FC 1
 62
   179
420
  2234388
370
     9
100
AcDbVertex
100
AcDb2dVertex
 10
103.1616740347931
 20
-126.8981883016088
 30
0.0
  0
SEQEND
  5
7B
330
78
100
AcDbEntity
  8
_U+30EC_U+30A4_U+30E4_U+30FC 1
 62
   179
420
  2234388
370
     9
  0
INSERT
  5
7D
330
1F
100
AcDbEntity
  8
_U+30EC_U+30A4_U+30E4_U+30FC 1
100
AcDbBlockReference
  2
block 2
 10
0.0
 20
0.0
 30
0.0
  0
INSERT
  5
85
330
1F
100
AcDbEntity
  8
_U+30EC_U+30A4_U+30E4_U+30FC 1
100
AcDbBlockReference
  2
block 3
 10
0.0
 20
0.0
 30
0.0
  0
INSERT
  5
A0
330
1F
100
AcDbEntity
  8
_U+30EC_U+30A4_U+30E4_U+30FC 1
100
AcDbBlockReference
  2
block 4
 10
0.0
 20
0.0
 30
0.0
  0
INSERT
  5
A6
330
1F
100
AcDbEntity
  8
_U+30EC_U+30A4_U+30E4_U+30FC 1
100
AcDbBlockReference
  2
block 5
 10
0.0
 20
0.0
 30
0.0
  0
INSERT
  5
AE
330
1F
100
AcDbEntity
  8
_U+30EC_U+30A4_U+30E4_U+30FC 1
100
AcDbBlockReference
  2
block 6
 10
0.0
 20
0.0
 30
0.0
  0
POLYLINE
  5
B6
330
1F
100
AcDbEntity
  8
_U+30EC_U+30A4_U+30E4_U+30FC 1
 62
   179
420
  2234388
370
     9
100
AcDb2dPolyline
 66
     1
 10
0.0
 20
0.0
 30
0.0
  0
VERTEX
  5
B7
330
B6
100
AcDbEntity
  8
_U+30EC_U+30A4_U+30E4_U+30FC 1
 62
   179
420
  2234388
370
     9
100
AcDbVertex
100
AcDb2dVertex
 10
92.14012042708747
 20
-114.9871405268087
 30
0.0
  0
VERTEX
  5
B8
330
B6
100
AcDbEntity
  8
_U+30EC_U+30A4_U+30E4_U+30FC 1
 62
   179
420
  2234388
370
     9
100
AcDbVertex
100
AcDb2dVertex
 10
110.0401349704201
 20
-114.9871405268087
 30
0.0
  0
SEQEND
  5
B9
330
B6
100
AcDbEntity
  8
_U+30EC_U+30A4_U+30E4_U+30FC 1
 62
   179
420
  2234388
370
     9
  0
POLYLINE
  5
BA
330
1F
100
AcDbEntity
  8
_U+30EC_U+30A4_U+30E4_U+30FC 1
 62
   179
420
  2234388
370
     9
100
AcDb2dPolyline
 66
     1
 10
0.0
 20
0.0
 30
0.0
  0
VERTEX
  5
BB
330
BA
100
AcDbEntity
  8
_U+30EC_U+30A4_U+30E4_U+30FC 1
 62
   179
420
  2234388
370
     9
100
AcDbVertex
100
AcDb2dVertex
 10
99.15087302600604
 20
-139.660735798418
 30
0.0
  0
VERTEX
  5
BC
330
BA
100
AcDbEntity
  8
_U+30EC_U+30A4_U+30E4_U+30FC 1
 62
   179
420
  2234388
370
     9
100
AcDbVertex
100
AcDb2dVertex
 10
99.15087302600604
 20
-144.7498374638127
 30
0.0
  0
SEQEND
  5
BD
330
BA
100
AcDbEntity
  8
_U+30EC_U+30A4_U+30E4_U+30FC 1
 62
   179
420
  2234388
370
     9
  0
POLYLINE
  5
BE
330
1F
100
AcDbEntity
  8
_U+30EC_U+30A4_U+30E4_U+30FC 1
 62
   179
420
  2234388
370
     9
100
AcDb2dPolyline
 66
     1
 10
0.0
 20
0.0
 30
0.0
  0
VERTEX
  5
BF
330
BE
100
AcDbEntity
  8
_U+30EC_U+30A4_U+30E4_U+30FC 1
 62
   179
420
  2234388
370
     9
100
AcDbVertex
100
AcDb2dVertex
 10
91.0512718437552
 20
-110.808911083409
 30
0.0
  0
VERTEX
  5
C0
330
BE
100
AcDbEntity
  8
_U+30EC_U+30A4_U+30E4_U+30FC 1
 62
   179
420
  2234388
370
     9
100
AcDbVertex
100
AcDb2dVertex
 10
97.72152334024958
 20
-110.808911083409
 30
0.0
  0
SEQEND
  5
C1
330
BE
100
AcDbEntity
  8
_U+30EC_U+30A4_U+30E4_U+30FC 1
 62
   179
420
  2234388
370
     9
  0
POLYLINE
  5
C2
330
1F
100
AcDbEntity
  8
_U+30EC_U+30A4_U+30E4_U+30FC 1
 62
   179
420
  2234388
370
     9
100
AcDb2dPolyline
 66
     1
 10
0.0
 20
0.0
 30
0.0
  0
VERTEX
  5
C3
330
C2
100
AcDbEntity
  8
_U+30EC_U+30A4_U+30E4_U+30FC 1
 62
   179
420
  2234388
370
     9
100
AcDbVertex
100
AcDb2dVertex
 10
97.72152334024958
 20
-125.8090221907699
 30
0.0
  0
VERTEX
  5
C4
330
C2
100
AcDbEntity
  8
_U+30EC_U+30A4_U+30E4_U+30FC 1
 62
   179
420
  2234388
370
     9
100
AcDbVertex
100
AcDb2dVertex
 10
97.72152334024958
 20
-109.4474005281937
 30
0.0
  0
SEQEND
  5
C5
330
C2
100
AcDbEntity
  8
_U+30EC_U+30A4_U+30E4_U+30FC 1
 62
   179
420
  2234388
370
     9
  0
POLYLINE
  5
C6
330
1F
100
AcDbEntity
  8
_U+30EC_U+30A4_U+30E4_U+30FC 1
 62
   179
420
  2234388
370
     9
100
AcDb2dPolyline
 66
     1
 10
0.0
 20
0.0
 30
0.0
  0
VERTEX
  5
C7
330
C6
100
AcDbEntity
  8
_U+30EC_U+30A4_U+30E4_U+30FC 1
 62
   179
420
  2234388
370
     9
100
AcDbVertex
100
AcDb2dVertex
 10
97.72152334024958
 20
-110.808911083409
 30
0.0
  0
VERTEX
  5
C8
330
C6
100
AcDbEntity
  8
_U+30EC_U+30A4_U+30E4_U+30FC 1
 62
   179
420
  2234388
370
     9
100
AcDbVertex
100
AcDb2dVertex
 10
101.5317701874865
 20
-110.808911083409
 30
0.0
  0
SEQEND
  5
C9
330
C6
100
AcDbEntity
  8
_U+30EC_U+30A4_U+30E4_U+30FC 1
 62
   179
420
  2234388
370
     9
  0
POLYLINE
  5
CA
330
1F
100
AcDbEntity
  8
_U+30EC_U+30A4_U+30E4_U+30FC 1
 62
   179
420
  2234388
370
    25
100
AcDb2dPolyline
 66
     1
 10
0.0
 20
0.0
 30
0.0
  0
VERTEX
  5
CB
330
CA
100
AcDbEntity
  8
_U+30EC_U+30A4_U+30E4_U+30FC 1
 62
   179
420
  2234388
370
    25
100
AcDbVertex
100
AcDb2dVertex
 10
99.15052024823727
 20
-126.8981883016088
 30
0.0
  0
VERTEX
  5
CC
330
CA
100
AcDbEntity
  8
_U+30EC_U+30A4_U+30E4_U+30FC 1
 62
   179
420
  2234388
370
    25
100
AcDbVertex
100
AcDb2dVertex
 10
97.72152334024958
 20
-126.8981883016088
 30
0.0
  0
SEQEND
  5
CD
330
CA
100
AcDbEntity
  8
_U+30EC_U+30A4_U+30E4_U+30FC 1
 62
   179
420
  2234388
370
    25
  0
POLYLINE
  5
CE
330
1F
100
AcDbEntity
  8
_U+30EC_U+30A4_U+30E4_U+30FC 1
 62
   179
420
  2234388
370
    25
100
AcDb2dPolyline
 66
     1
 10
0.0
 20
0.0
 30
0.0
  0
VERTEX
  5
CF
330
CE
100
AcDbEntity
  8
_U+30EC_U+30A4_U+30E4_U+30FC 1
 62
   179
420
  2234388
370
    25
100
AcDbVertex
100
AcDb2dVertex
 10
90.6466710207441
 20
-130.7096699673228
 30
0.0
  0
VERTEX
  5
D0
330
CE
100
AcDbEntity
  8
_U+30EC_U+30A4_U+30E4_U+30FC 1
 62
   179
420
  2234388
370
    25
100
AcDbVertex
100
AcDb2dVertex
 10
97.76801945017446
 20
-137.8313713544313
 30
0.0
  0
SEQEND
  5
D1
330
CE
100
AcDbEntity
  8
_U+30EC_U+30A4_U+30E4_U+30FC 1
 62
   179
420
  2234388
370
    25
  0
POLYLINE
  5
D2
330
1F
100
AcDbEntity
  8
_U+30EC_U+30A4_U+30E4_U+30FC 1
 62
   179
420
  2234388
370
    25
100
AcDb2dPolyline
 66
     1
 10
0.0
 20
0.0
 30
0.0
  0
VERTEX
  5
D3
330
D2
100
AcDbEntity
  8
_U+30EC_U+30A4_U+30E4_U+30FC 1
 62
   179
420
  2234388
370
    25
100
AcDbVertex
100
AcDb2dVertex
 10
99.15052024823727
 20
-138.5713932986908
 30
0.0
  0
VERTEX
  5
D4
330
D2
100
AcDbEntity
  8
_U+30EC_U+30A4_U+30E4_U+30FC 1
 62
   179
420
  2234388
370
    25
100
AcDbVertex
100
AcDb2dVertex
 10
99.15052024823727
 20
-126.8981883016088
 30
0.0
  0
SEQEND
  5
D5
330
D2
100
AcDbEntity
  8
_U+30EC_U+30A4_U+30E4_U+30FC 1
 62
   179
420
  2234388
370
    25
  0
SPLINE
  5
D6
330
1F
100
AcDbEntity
  8
_U+30EC_U+30A4_U+30E4_U+30FC 1
 62
   179
420
  2234388
370
    25
100
AcDbSpline
210
0.0
220
0.0
230
1.0
 70
     8
 71
     3
 72
    11
 73
     7
 74
     0
 42
0.0000000001
 43
0.0000000001
 12
1.0
 22
0.0
 32
0.0
 13
1.0
 23
0.0
 33
0.0
 40
0.0
 40
0.0
 40
0.0
 40
0.0
 40
1.0
 40
1.0
 40
1.0
 40
2.0
 40
2.0
 40
2.0
 40
2.0
 10
98.91246580986609
 20
-138.8098005208531
 30
0.0
 10
98.97448414161721
 20
-138.8098005208531
 30
0.0
 10
99.03720802890588
 20
-138.7835891319707
 30
0.0
 10
99.08130525000308
 20
-138.7394919097595
 30
0.0
 10
99.12469691556274
 20
-138.6961002431038
 30
0.0
 10
99.15052024823727
 20
-138.6334116320083
 30
0.0
 10
99.15052024823727
 20
-138.5713932986908
 30
0.0
  0
POLYLINE
  5
D7
330
1F
100
AcDbEntity
  8
_U+30EC_U+30A4_U+30E4_U+30FC 1
 62
   179
420
  2234388
370
    25
100
AcDb2dPolyline
 66
     1
 10
0.0
 20
0.0
 30
0.0
  0
VERTEX
  5
D8
330
D7
100
AcDbEntity
  8
_U+30EC_U+30A4_U+30E4_U+30FC 1
 62
   179
420
  2234388
370
    25
100
AcDbVertex
100
AcDb2dVertex
 10
97.72152334024958
 20
-127.4697235792438
 30
0.0
  0
VERTEX
  5
D9
330
D7
100
AcDbEntity
  8
_U+30EC_U+30A4_U+30E4_U+30FC 1
 62
   179
420
  2234388
370
    25
100
AcDbVertex
100
AcDb2dVertex
 10
97.72152334024958
 20
-126.8981883016088
 30
0.0
  0
SEQEND
  5
DA
330
D7
100
AcDbEntity
  8
_U+30EC_U+30A4_U+30E4_U+30FC 1
 62
   179
420
  2234388
370
    25
  0
POLYLINE
  5
DB
330
1F
100
AcDbEntity
  8
_U+30EC_U+30A4_U+30E4_U+30FC 1
 62
   179
420
  2234388
370
    25
100
AcDb2dPolyline
 66
     1
 10
0.0
 20
0.0
 30
0.0
  0
VERTEX
  5
DC
330
DB
100
AcDbEntity
  8
_U+30EC_U+30A4_U+30E4_U+30FC 1
 62
   179
420
  2234388
370
    25
100
AcDbVertex
100
AcDb2dVertex
 10
98.5786322072718
 20
-127.4697235792438
 30
0.0
  0
VERTEX
  5
DD
330
DB
100
AcDbEntity
  8
_U+30EC_U+30A4_U+30E4_U+30FC 1
 62
   179
420
  2234388
370
    25
100
AcDbVertex
100
AcDb2dVertex
 10
98.5786322072718
 20
-137.2581074656857
 30
0.0
  0
SEQEND
  5
DE
330
DB
100
AcDbEntity
  8
_U+30EC_U+30A4_U+30E4_U+30FC 1
 62
   179
420
  2234388
370
    25
  0
SPLINE
  5
DF
330
1F
100
AcDbEntity
  8
_U+30EC_U+30A4_U+30E4_U+30FC 1
 62
   179
420
  2234388
370
    25
100
AcDbSpline
210
0.0
220
0.0
230
1.0
 70
     8
 71
     3
 72
    14
 73
    10
 74
     0
 42
0.0000000001
 43
0.0000000001
 12
1.0
 22
0.0
 32
0.0
 13
1.0
 23
0.0
 33
0.0
 40
0.0
 40
0.0
 40
0.0
 40
0.0
 40
1.0
 40
1.0
 40
1.0
 40
2.0
 40
2.0
 40
2.0
 40
3.0
 40
3.0
 40
3.0
 40
3.0
 10
97.59921528781436
 20
-138.2379124654404
 30
0.0
 10
97.66190389732614
 20
-138.2379124654404
 30
0.0
 10
97.72392222907726
 20
-138.2117363543362
 30
0.0
 10
97.76801945017446
 20
-138.1676391321249
 30
0.0
 10
97.8117638935029
 20
-138.1235419099138
 30
0.0
 10
97.8376249755403
 20
-138.0615235765956
 30
0.0
 10
97.8376249755403
 20
-137.9987996877226
 30
0.0
 10
97.8376249755403
 20
-137.9368166321826
 30
0.0
 10
97.8117638935029
 20
-137.8747982988645
 30
0.0
 10
97.76801945017446
 20
-137.8307010766533
 30
0.0
  0
SPLINE
  5
E0
330
1F
100
AcDbEntity
  8
_U+30EC_U+30A4_U+30E4_U+30FC 1
 62
   179
420
  2234388
370
    25
100
AcDbSpline
210
0.0
220
0.0
230
1.0
 70
     8
 71
     3
 72
    14
 73
    10
 74
     0
 42
0.0000000001
 43
0.0000000001
 12
1.0
 22
0.0
 32
0.0
 13
1.0
 23
0.0
 33
0.0
 40
0.0
 40
0.0
 40
0.0
 40
0.0
 40
1.0
 40
1.0
 40
1.0
 40
2.0
 40
2.0
 40
2.0
 40
3.0
 40
3.0
 40
3.0
 40
3.0
 10
98.17247916207806
 20
-137.4262413545326
 30
0.0
 10
98.2162236054065
 20
-137.4710088545211
 30
0.0
 10
98.27859719765227
 20
-137.496514687848
 30
0.0
 10
98.34128332443818
 20
-137.496514687848
 30
0.0
 10
98.40294887842052
 20
-137.496514687848
 30
0.0
 10
98.4653199879404
 20
-137.4710088545211
 30
0.0
 10
98.50941720903761
 20
-137.4262413545326
 30
0.0
 10
98.55351443013483
 20
-137.3828144100987
 30
0.0
 10
98.57898498504056
 20
-137.3208313545587
 30
0.0
 10
98.57898498504056
 20
-137.2581074656857
 30
0.0
  0
POLYLINE
  5
E1
330
1F
100
AcDbEntity
  8
_U+30EC_U+30A4_U+30E4_U+30FC 1
 62
   179
420
  2234388
370
    25
100
AcDb2dPolyline
 66
     1
 10
0.0
 20
0.0
 30
0.0
  0
VERTEX
  5
E2
330
E1
100
AcDbEntity
  8
_U+30EC_U+30A4_U+30E4_U+30FC 1
 62
   179
420
  2234388
370
    25
100
AcDbVertex
100
AcDb2dVertex
 10
91.0512718437552
 20
-130.305915800757
 30
0.0
  0
VERTEX
  5
E3
330
E1
100
AcDbEntity
  8
_U+30EC_U+30A4_U+30E4_U+30FC 1
 62
   179
420
  2234388
370
    25
100
AcDbVertex
100
AcDb2dVertex
 10
98.17247916207806
 20
-137.4262413545326
 30
0.0
  0
SEQEND
  5
E4
330
E1
100
AcDbEntity
  8
_U+30EC_U+30A4_U+30E4_U+30FC 1
 62
   179
420
  2234388
370
    25
  0
POLYLINE
  5
E5
330
1F
100
AcDbEntity
  8
_U+30EC_U+30A4_U+30E4_U+30FC 1
 62
   179
420
  2234388
370
    25
100
AcDb2dPolyline
 66
     1
 10
0.0
 20
0.0
 30
0.0
  0
VERTEX
  5
E6
330
E5
100
AcDbEntity
  8
_U+30EC_U+30A4_U+30E4_U+30FC 1
 62
   179
420
  2234388
370
    25
100
AcDbVertex
100
AcDb2dVertex
 10
98.57898498504056
 20
-127.4697235792438
 30
0.0
  0
VERTEX
  5
E7
330
E5
100
AcDbEntity
  8
_U+30EC_U+30A4_U+30E4_U+30FC 1
 62
   179
420
  2234388
370
    25
100
AcDbVertex
100
AcDb2dVertex
 10
97.72184084024147
 20
-127.4697235792438
 30
0.0
  0
SEQEND
  5
E8
330
E5
100
AcDbEntity
  8
_U+30EC_U+30A4_U+30E4_U+30FC 1
 62
   179
420
  2234388
370
    25
  0
INSERT
  5
EA
330
1F
100
AcDbEntity
  8
_U+30EC_U+30A4_U+30E4_U+30FC 1
100
AcDbBlockReference
  2
block 7
 10
0.0
 20
0.0
 30
0.0
  0
INSERT
  5
105
330
1F
100
AcDbEntity
  8
_U+30EC_U+30A4_U+30E4_U+30FC 1
100
AcDbBlockReference
  2
block 8
 10
0.0
 20
0.0
 30
0.0
  0
INSERT
  5
10E
330
1F
100
AcDbEntity
  8
_U+30EC_U+30A4_U+30E4_U+30FC 1
100
AcDbBlockReference
  2
block 9
 10
0.0
 20
0.0
 30
0.0
  0
POLYLINE
  5
113
330
1F
100
AcDbEntity
  8
_U+30EC_U+30A4_U+30E4_U+30FC 1
 62
   179
420
  2234388
370
     9
100
AcDb2dPolyline
 66
     1
 10
0.0
 20
0.0
 30
0.0
  0
VERTEX
  5
114
330
113
100
AcDbEntity
  8
_U+30EC_U+30A4_U+30E4_U+30FC 1
 62
   179
420
  2234388
370
     9
100
AcDbVertex
100
AcDb2dVertex
 10
87.23929638545124
 20
-139.8984374650254
 30
0.0
  0
VERTEX
  5
115
330
113
100
AcDbEntity
  8
_U+30EC_U+30A4_U+30E4_U+30FC 1
 62
   179
420
  2234388
370
     9
100
AcDbVertex
100
AcDb2dVertex
 10
87.23929638545124
 20
-144.7498374638127
 30
0.0
  0
SEQEND
  5
116
330
113
100
AcDbEntity
  8
_U+30EC_U+30A4_U+30E4_U+30FC 1
 62
   179
420
  2234388
370
     9
  0
POLYLINE
  5
117
330
1F
100
AcDbEntity
  8
_U+30EC_U+30A4_U+30E4_U+30FC 1
 62
   179
420
  2234388
370
     9
100
AcDb2dPolyline
 66
     1
 10
0.0
 20
0.0
 30
0.0
  0
VERTEX
  5
118
330
117
100
AcDbEntity
  8
_U+30EC_U+30A4_U+30E4_U+30FC 1
 62
   179
420
  2234388
370
     9
100
AcDbVertex
100
AcDb2dVertex
 10
75.3285664115415
 20
-131.79901246705
 30
0.0
  0
VERTEX
  5
119
330
117
100
AcDbEntity
  8
_U+30EC_U+30A4_U+30E4_U+30FC 1
 62
   179
420
  2234388
370
     9
100
AcDbVertex
100
AcDb2dVertex
 10
75.3285664115415
 20
-148.8963521849982
 30
0.0
  0
SEQEND
  5
11A
330
117
100
AcDbEntity
  8
_U+30EC_U+30A4_U+30E4_U+30FC 1
 62
   179
420
  2234388
370
     9
  0
POLYLINE
  5
11B
330
1F
100
AcDbEntity
  8
_U+30EC_U+30A4_U+30E4_U+30FC 1
 62
   179
420
  2234388
370
     9
100
AcDb2dPolyline
 66
     1
 10
0.0
 20
0.0
 30
0.0
  0
VERTEX
  5
11C
330
11B
100
AcDbEntity
  8
_U+30EC_U+30A4_U+30E4_U+30FC 1
 62
   179
420
  2234388
370
     9
100
AcDbVertex
100
AcDb2dVertex
 10
74.13638921973426
 20
-137.3800627434329
 30
0.0
  0
VERTEX
  5
11D
330
11B
100
AcDbEntity
  8
_U+30EC_U+30A4_U+30E4_U+30FC 1
 62
   179
420
  2234388
370
     9
100
AcDbVertex
100
AcDb2dVertex
 10
74.13638921973426
 20
-141.0194594091897
 30
0.0
  0
SEQEND
  5
11E
330
11B
100
AcDbEntity
  8
_U+30EC_U+30A4_U+30E4_U+30FC 1
 62
   179
420
  2234388
370
     9
  0
POLYLINE
  5
11F
330
1F
100
AcDbEntity
  8
_U+30EC_U+30A4_U+30E4_U+30FC 1
 62
   179
420
  2234388
370
     9
100
AcDb2dPolyline
 66
     1
 10
0.0
 20
0.0
 30
0.0
  0
VERTEX
  5
120
330
11F
100
AcDbEntity
  8
_U+30EC_U+30A4_U+30E4_U+30FC 1
 62
   179
420
  2234388
370
     9
100
AcDbVertex
100
AcDb2dVertex
 10
74.23957671710171
 20
-130.7096699673228
 30
0.0
  0
VERTEX
  5
121
330
11F
100
AcDbEntity
  8
_U+30EC_U+30A4_U+30E4_U+30FC 1
 62
   179
420
  2234388
370
     9
100
AcDbVertex
100
AcDb2dVertex
 10
72.7748805373619
 20
-130.7096699673228
 30
0.0
  0
SEQEND
  5
122
330
11F
100
AcDbEntity
  8
_U+30EC_U+30A4_U+30E4_U+30FC 1
 62
   179
420
  2234388
370
     9
  0
POLYLINE
  5
123
330
1F
100
AcDbEntity
  8
_U+30EC_U+30A4_U+30E4_U+30FC 1
 62
   179
420
  2234388
370
     9
100
AcDb2dPolyline
 66
     1
 10
0.0
 20
0.0
 30
0.0
  0
VERTEX
  5
124
330
123
100
AcDbEntity
  8
_U+30EC_U+30A4_U+30E4_U+30FC 1
 62
   179
420
  2234388
370
     9
100
AcDbVertex
100
AcDb2dVertex
 10
86.14995391324268
 20
-138.8098005208531
 30
0.0
  0
VERTEX
  5
125
330
123
100
AcDbEntity
  8
_U+30EC_U+30A4_U+30E4_U+30FC 1
 62
   179
420
  2234388
370
     9
100
AcDbVertex
100
AcDb2dVertex
 10
72.77403203226865
 20
-138.8098005208531
 30
0.0
  0
SEQEND
  5
126
330
123
100
AcDbEntity
  8
_U+30EC_U+30A4_U+30E4_U+30FC 1
 62
   179
420
  2234388
370
     9
  0
POLYLINE
  5
127
330
1F
100
AcDbEntity
  8
_U+30EC_U+30A4_U+30E4_U+30FC 1
 62
   179
420
  2234388
370
     9
100
AcDb2dPolyline
 66
     1
 10
0.0
 20
0.0
 30
0.0
  0
VERTEX
  5
128
330
127
100
AcDbEntity
  8
_U+30EC_U+30A4_U+30E4_U+30FC 1
 62
   179
420
  2234388
370
     9
100
AcDbVertex
100
AcDb2dVertex
 10
91.05060156599453
 20
-113.8981155270812
 30
0.0
  0
VERTEX
  5
129
330
127
100
AcDbEntity
  8
_U+30EC_U+30A4_U+30E4_U+30FC 1
 62
   179
420
  2234388
370
     9
100
AcDbVertex
100
AcDb2dVertex
 10
91.05060156599453
 20
-109.4474005281937
 30
0.0
  0
SEQEND
  5
12A
330
127
100
AcDbEntity
  8
_U+30EC_U+30A4_U+30E4_U+30FC 1
 62
   179
420
  2234388
370
     9
  0
POLYLINE
  5
12B
330
1F
100
AcDbEntity
  8
_U+30EC_U+30A4_U+30E4_U+30FC 1
 62
   179
420
  2234388
370
     9
100
AcDb2dPolyline
 66
     1
 10
0.0
 20
0.0
 30
0.0
  0
VERTEX
  5
12C
330
12B
100
AcDbEntity
  8
_U+30EC_U+30A4_U+30E4_U+30FC 1
 62
   179
420
  2234388
370
     9
100
AcDbVertex
100
AcDb2dVertex
 10
74.13568366419669
 20
-130.7096699673228
 30
0.0
  0
VERTEX
  5
12D
330
12B
100
AcDbEntity
  8
_U+30EC_U+30A4_U+30E4_U+30FC 1
 62
   179
420
  2234388
370
     9
100
AcDbVertex
100
AcDb2dVertex
 10
74.13568366419669
 20
-137.3800627434329
 30
0.0
  0
SEQEND
  5
12E
330
12B
100
AcDbEntity
  8
_U+30EC_U+30A4_U+30E4_U+30FC 1
 62
   179
420
  2234388
370
     9
  0
SPLINE
  5
12F
330
1F
100
AcDbEntity
  8
_U+30EC_U+30A4_U+30E4_U+30FC 1
370
     0
100
AcDbSpline
210
0.0
220
0.0
230
1.0
 70
    11
 71
     3
 72
    29
 73
    25
 74
     0
 42
0.0000000001
 43
0.0000000001
 12
1.0
 22
0.0
 32
0.0
 13
1.0
 23
0.0
 33
0.0
 40
0.0
 40
0.0
 40
0.0
 40
0.0
 40
1.0
 40
1.0
 40
1.0
 40
2.0
 40
2.0
 40
2.0
 40
3.0
 40
3.0
 40
3.0
 40
4.0
 40
4.0
 40
4.0
 40
5.0
 40
5.0
 40
5.0
 40
6.0
 40
6.0
 40
6.0
 40
7.0
 40
7.0
 40
7.0
 40
8.0
 40
8.0
 40
8.0
 40
8.0
 10
99.05061358411943
 20
-147.5348416297832
 30
0.0
 10
99.05061358411943
 20
-147.561723296443
 30
0.0
 10
99.06130275051339
 20
-147.5871938519924
 30
0.0
 10
99.07989413892798
 20
-147.6058205186542
 30
0.0
 10
99.09852080511943
 20
-147.6244119075385
 30
0.0
 10
99.12434413779397
 20
-147.6347482964249
 30
0.0
 10
99.15052024823727
 20
-147.6347482964249
 30
0.0
 10
99.17704913644936
 20
-147.6347482964249
 30
0.0
 10
99.20290774690075
 20
-147.6244119075385
 30
0.0
 10
99.22114635754656
 20
-147.6058205186542
 30
0.0
 10
99.23977302373802
 20
-147.5871938519924
 30
0.0
 10
99.25077969012388
 20
-147.561723296443
 30
0.0
 10
99.25077969012388
 20
-147.5348416297832
 30
0.0
 10
99.25077969012388
 20
-147.5086655186783
 30
0.0
 10
99.23977302373802
 20
-147.4831596853514
 30
0.0
 10
99.22114635754656
 20
-147.4645682964671
 30
0.0
 10
99.20290774690075
 20
-147.4459416298053
 30
0.0
 10
99.17704913644936
 20
-147.4349349631416
 30
0.0
 10
99.15052024823727
 20
-147.4349349631416
 30
0.0
 10
99.12434413779397
 20
-147.4349349631416
 30
0.0
 10
99.09852080511943
 20
-147.4459416298053
 30
0.0
 10
99.07989413892798
 20
-147.4645682964671
 30
0.0
 10
99.06130275051339
 20
-147.4831596853514
 30
0.0
 10
99.05061358411943
 20
-147.5086655186783
 30
0.0
 10
99.05061358411943
 20
-147.5348416297832
 30
0.0
  0
HATCH
  5
130
330
1F
100
AcDbEntity
  8
_U+30EC_U+30A4_U+30E4_U+30FC 1
 62
   179
420
  2234388
100
AcDbHatch
 10
0.0
 20
0.0
 30
0.0
210
0.0
220
0.0
230
1.0
  2
SOLID
 70
     1
 71
     0
 91
        1
 92
        1
 93
        1
 72
     4
 94
        3
 73
     0
 74
     1
 95
       29
 96
       25
 40
0.0
 40
0.0
 40
0.0
 40
0.0
 40
1.0
 40
1.0
 40
1.0
 40
2.0
 40
2.0
 40
2.0
 40
3.0
 40
3.0
 40
3.0
 40
4.0
 40
4.0
 40
4.0
 40
5.0
 40
5.0
 40
5.0
 40
6.0
 40
6.0
 40
6.0
 40
7.0
 40
7.0
 40
7.0
 40
8.0
 40
8.0
 40
8.0
 40
8.0
 10
99.05061358411943
 20
-147.5348416297832
 10
99.05061358411943
 20
-147.561723296443
 10
99.06130275051339
 20
-147.5871938519924
 10
99.07989413892798
 20
-147.6058205186542
 10
99.09852080511943
 20
-147.6244119075385
 10
99.12434413779397
 20
-147.6347482964249
 10
99.15052024823727
 20
-147.6347482964249
 10
99.17704913644936
 20
-147.6347482964249
 10
99.20290774690075
 20
-147.6244119075385
 10
99.22114635754656
 20
-147.6058205186542
 10
99.23977302373802
 20
-147.5871938519924
 10
99.25077969012388
 20
-147.561723296443
 10
99.25077969012388
 20
-147.5348416297832
 10
99.25077969012388
 20
-147.5086655186783
 10
99.23977302373802
 20
-147.4831596853514
 10
99.22114635754656
 20
-147.4645682964671
 10
99.20290774690075
 20
-147.4459416298053
 10
99.17704913644936
 20
-147.4349349631416
 10
99.15052024823727
 20
-147.4349349631416
 10
99.12434413779397
 20
-147.4349349631416
 10
99.09852080511943
 20
-147.4459416298053
 10
99.07989413892798
 20
-147.4645682964671
 10
99.06130275051339
 20
-147.4831596853514
 10
99.05061358411943
 20
-147.5086655186783
 10
99.05061358411943
 20
-147.5348416297832
 97
        0
 97
        0
 75
     2
 76
     1
 98
        0
  0
SPLINE
  5
131
330
1F
100
AcDbEntity
  8
_U+30EC_U+30A4_U+30E4_U+30FC 1
370
     0
100
AcDbSpline
210
0.0
220
0.0
230
1.0
 70
    11
 71
     3
 72
    29
 73
    25
 74
     0
 42
0.0000000001
 43
0.0000000001
 12
1.0
 22
0.0
 32
0.0
 13
1.0
 23
0.0
 33
0.0
 40
0.0
 40
0.0
 40
0.0
 40
0.0
 40
1.0
 40
1.0
 40
1.0
 40
2.0
 40
2.0
 40
2.0
 40
3.0
 40
3.0
 40
3.0
 40
4.0
 40
4.0
 40
4.0
 40
5.0
 40
5.0
 40
5.0
 40
6.0
 40
6.0
 40
6.0
 40
7.0
 40
7.0
 40
7.0
 40
8.0
 40
8.0
 40
8.0
 40
8.0
 10
103.0617673706753
 20
-126.8983646904977
 30
0.0
 10
103.0617673706753
 20
-126.9242233016024
 30
0.0
 10
103.0727740370611
 20
-126.9505758015958
 30
0.0
 10
103.0913654254757
 20
-126.9688144127024
 30
0.0
 10
103.1092865361296
 20
-126.9872646904753
 30
0.0
 10
103.1354626465729
 20
-126.9980949682505
 30
0.0
 10
103.1616740347931
 20
-126.9980949682505
 30
0.0
 10
103.1878527519809
 20
-126.9980949682505
 30
0.0
 10
103.2136734779109
 20
-126.9872646904753
 30
0.0
 10
103.2319499741921
 20
-126.9688144127024
 30
0.0
 10
103.250891532517
 20
-126.9505758015958
 30
0.0
 10
103.2618981989028
 20
-126.9242233016024
 30
0.0
 10
103.2618981989028
 20
-126.8983646904977
 30
0.0
 10
103.2618981989028
 20
-126.8718358016154
 30
0.0
 10
103.250891532517
 20
-126.8461888571775
 30
0.0
 10
103.2319499741921
 20
-126.8275621905153
 30
0.0
 10
103.2136734779109
 20
-126.8093235794088
 30
0.0
 10
103.1878527519809
 20
-126.7981052460783
 30
0.0
 10
103.1616740347931
 20
-126.7981052460783
 30
0.0
 10
103.1354626465729
 20
-126.7981052460783
 30
0.0
 10
103.1092865361296
 20
-126.8093235794088
 30
0.0
 10
103.0913654254757
 20
-126.8275621905153
 30
0.0
 10
103.0727740370611
 20
-126.8461888571775
 30
0.0
 10
103.0617673706753
 20
-126.8718358016154
 30
0.0
 10
103.0617673706753
 20
-126.8983646904977
 30
0.0
  0
HATCH
  5
132
330
1F
100
AcDbEntity
  8
_U+30EC_U+30A4_U+30E4_U+30FC 1
 62
   179
420
  2234388
100
AcDbHatch
 10
0.0
 20
0.0
 30
0.0
210
0.0
220
0.0
230
1.0
  2
SOLID
 70
     1
 71
     0
 91
        1
 92
        1
 93
        1
 72
     4
 94
        3
 73
     0
 74
     1
 95
       29
 96
       25
 40
0.0
 40
0.0
 40
0.0
 40
0.0
 40
1.0
 40
1.0
 40
1.0
 40
2.0
 40
2.0
 40
2.0
 40
3.0
 40
3.0
 40
3.0
 40
4.0
 40
4.0
 40
4.0
 40
5.0
 40
5.0
 40
5.0
 40
6.0
 40
6.0
 40
6.0
 40
7.0
 40
7.0
 40
7.0
 40
8.0
 40
8.0
 40
8.0
 40
8.0
 10
103.0617673706753
 20
-126.8983646904977
 10
103.0617673706753
 20
-126.9242233016024
 10
103.0727740370611
 20
-126.9505758015958
 10
103.0913654254757
 20
-126.9688144127024
 10
103.1092865361296
 20
-126.9872646904753
 10
103.1354626465729
 20
-126.9980949682505
 10
103.1616740347931
 20
-126.9980949682505
 10
103.1878527519809
 20
-126.9980949682505
 10
103.2136734779109
 20
-126.9872646904753
 10
103.2319499741921
 20
-126.9688144127024
 10
103.250891532517
 20
-126.9505758015958
 10
103.2618981989028
 20
-126.9242233016024
 10
103.2618981989028
 20
-126.8983646904977
 10
103.2618981989028
 20
-126.8718358016154
 10
103.250891532517
 20
-126.8461888571775
 10
103.2319499741921
 20
-126.8275621905153
 10
103.2136734779109
 20
-126.8093235794088
 10
103.1878527519809
 20
-126.7981052460783
 10
103.1616740347931
 20
-126.7981052460783
 10
103.1354626465729
 20
-126.7981052460783
 10
103.1092865361296
 20
-126.8093235794088
 10
103.0913654254757
 20
-126.8275621905153
 10
103.0727740370611
 20
-126.8461888571775
 10
103.0617673706753
 20
-126.8718358016154
 10
103.0617673706753
 20
-126.8983646904977
 97
        0
 97
        0
 75
     2
 76
     1
 98
        0
  0
SPLINE
  5
133
330
1F
100
AcDbEntity
  8
_U+30EC_U+30A4_U+30E4_U+30FC 1
370
     0
100
AcDbSpline
210
0.0
220
0.0
230
1.0
 70
    11
 71
     3
 72
    29
 73
    25
 74
     0
 42
0.0000000001
 43
0.0000000001
 12
1.0
 22
0.0
 32
0.0
 13
1.0
 23
0.0
 33
0.0
 40
0.0
 40
0.0
 40
0.0
 40
0.0
 40
1.0
 40
1.0
 40
1.0
 40
2.0
 40
2.0
 40
2.0
 40
3.0
 40
3.0
 40
3.0
 40
4.0
 40
4.0
 40
4.0
 40
5.0
 40
5.0
 40
5.0
 40
6.0
 40
6.0
 40
6.0
 40
7.0
 40
7.0
 40
7.0
 40
8.0
 40
8.0
 40
8.0
 40
8.0
 10
99.25077969012388
 20
-110.808911083409
 30
0.0
 10
99.25077969012388
 20
-110.7825585834155
 30
0.0
 10
99.23977302373802
 20
-110.7565588611998
 30
0.0
 10
99.22114635754656
 20
-110.7381085834266
 30
0.0
 10
99.20290774690075
 20
-110.7196935834311
 30
0.0
 10
99.17704913644936
 20
-110.7090044167673
 30
0.0
 10
99.15052024823727
 20
-110.7090044167673
 30
0.0
 10
99.12434413779397
 20
-110.7090044167673
 30
0.0
 10
99.09852080511943
 20
-110.7196935834311
 30
0.0
 10
99.07989413892798
 20
-110.7381085834266
 30
0.0
 10
99.06130275051339
 20
-110.7565588611998
 30
0.0
 10
99.05061358411943
 20
-110.7825585834155
 30
0.0
 10
99.05061358411943
 20
-110.808911083409
 30
0.0
 10
99.05061358411943
 20
-110.8352635834024
 30
0.0
 10
99.06130275051339
 20
-110.8612633056181
 30
0.0
 10
99.07989413892798
 20
-110.8795371945025
 30
0.0
 10
99.09852080511943
 20
-110.8978110833866
 30
0.0
 10
99.12434413779397
 20
-110.9088177500506
 30
0.0
 10
99.15052024823727
 20
-110.9088177500506
 30
0.0
 10
99.17704913644936
 20
-110.9088177500506
 30
0.0
 10
99.20290774690075
 20
-110.8978110833866
 30
0.0
 10
99.22114635754656
 20
-110.8795371945025
 30
0.0
 10
99.23977302373802
 20
-110.8612633056181
 30
0.0
 10
99.25077969012388
 20
-110.8352635834024
 30
0.0
 10
99.25077969012388
 20
-110.808911083409
 30
0.0
  0
HATCH
  5
134
330
1F
100
AcDbEntity
  8
_U+30EC_U+30A4_U+30E4_U+30FC 1
 62
   179
420
  2234388
100
AcDbHatch
 10
0.0
 20
0.0
 30
0.0
210
0.0
220
0.0
230
1.0
  2
SOLID
 70
     1
 71
     0
 91
        1
 92
        1
 93
        1
 72
     4
 94
        3
 73
     0
 74
     1
 95
       29
 96
       25
 40
0.0
 40
0.0
 40
0.0
 40
0.0
 40
1.0
 40
1.0
 40
1.0
 40
2.0
 40
2.0
 40
2.0
 40
3.0
 40
3.0
 40
3.0
 40
4.0
 40
4.0
 40
4.0
 40
5.0
 40
5.0
 40
5.0
 40
6.0
 40
6.0
 40
6.0
 40
7.0
 40
7.0
 40
7.0
 40
8.0
 40
8.0
 40
8.0
 40
8.0
 10
99.25077969012388
 20
-110.808911083409
 10
99.25077969012388
 20
-110.7825585834155
 10
99.23977302373802
 20
-110.7565588611998
 10
99.22114635754656
 20
-110.7381085834266
 10
99.20290774690075
 20
-110.7196935834311
 10
99.17704913644936
 20
-110.7090044167673
 10
99.15052024823727
 20
-110.7090044167673
 10
99.12434413779397
 20
-110.7090044167673
 10
99.09852080511943
 20
-110.7196935834311
 10
99.07989413892798
 20
-110.7381085834266
 10
99.06130275051339
 20
-110.7565588611998
 10
99.05061358411943
 20
-110.7825585834155
 10
99.05061358411943
 20
-110.808911083409
 10
99.05061358411943
 20
-110.8352635834024
 10
99.06130275051339
 20
-110.8612633056181
 10
99.07989413892798
 20
-110.8795371945025
 10
99.09852080511943
 20
-110.8978110833866
 10
99.12434413779397
 20
-110.9088177500506
 10
99.15052024823727
 20
-110.9088177500506
 10
99.17704913644936
 20
-110.9088177500506
 10
99.20290774690075
 20
-110.8978110833866
 10
99.22114635754656
 20
-110.8795371945025
 10
99.23977302373802
 20
-110.8612633056181
 10
99.25077969012388
 20
-110.8352635834024
 10
99.25077969012388
 20
-110.808911083409
 97
        0
 97
        0
 75
     2
 76
     1
 98
        0
  0
SPLINE
  5
135
330
1F
100
AcDbEntity
  8
_U+30EC_U+30A4_U+30E4_U+30FC 1
370
     0
100
AcDbSpline
210
0.0
220
0.0
230
1.0
 70
    11
 71
     3
 72
    29
 73
    25
 74
     0
 42
0.0000000001
 43
0.0000000001
 12
1.0
 22
0.0
 32
0.0
 13
1.0
 23
0.0
 33
0.0
 40
0.0
 40
0.0
 40
0.0
 40
0.0
 40
1.0
 40
1.0
 40
1.0
 40
2.0
 40
2.0
 40
2.0
 40
3.0
 40
3.0
 40
3.0
 40
4.0
 40
4.0
 40
4.0
 40
5.0
 40
5.0
 40
5.0
 40
6.0
 40
6.0
 40
6.0
 40
7.0
 40
7.0
 40
7.0
 40
8.0
 40
8.0
 40
8.0
 40
8.0
 10
103.0620848706672
 20
-138.8098005208531
 30
0.0
 10
103.0620848706672
 20
-138.835976631958
 30
0.0
 10
103.0727740370611
 20
-138.8614471875067
 30
0.0
 10
103.0910479254838
 20
-138.8800738541692
 30
0.0
 10
103.1096393138984
 20
-138.8986652430528
 30
0.0
 10
103.1354626465729
 20
-138.9097071874947
 30
0.0
 10
103.1616740347931
 20
-138.9097071874947
 30
0.0
 10
103.1878527519809
 20
-138.9097071874947
 30
0.0
 10
103.2140262556797
 20
-138.8986652430528
 30
0.0
 10
103.2326176440943
 20
-138.8800738541692
 30
0.0
 10
103.2512443102857
 20
-138.8614471875067
 30
0.0
 10
103.2622509766716
 20
-138.835976631958
 30
0.0
 10
103.2622509766716
 20
-138.8098005208531
 30
0.0
 10
103.2622509766716
 20
-138.7835891319707
 30
0.0
 10
103.2512443102857
 20
-138.7567427430884
 30
0.0
 10
103.2326176440943
 20
-138.7388216319821
 30
0.0
 10
103.2140262556797
 20
-138.7202302430978
 30
0.0
 10
103.1878527519809
 20
-138.7091882986559
 30
0.0
 10
103.1616740347931
 20
-138.7091882986559
 30
0.0
 10
103.1354626465729
 20
-138.7091882986559
 30
0.0
 10
103.1096393138984
 20
-138.7202302430978
 30
0.0
 10
103.0910479254838
 20
-138.7388216319821
 30
0.0
 10
103.0727740370611
 20
-138.7567427430884
 30
0.0
 10
103.0620848706672
 20
-138.7835891319707
 30
0.0
 10
103.0620848706672
 20
-138.8098005208531
 30
0.0
  0
HATCH
  5
136
330
1F
100
AcDbEntity
  8
_U+30EC_U+30A4_U+30E4_U+30FC 1
 62
   179
420
  2234388
100
AcDbHatch
 10
0.0
 20
0.0
 30
0.0
210
0.0
220
0.0
230
1.0
  2
SOLID
 70
     1
 71
     0
 91
        1
 92
        1
 93
        1
 72
     4
 94
        3
 73
     0
 74
     1
 95
       29
 96
       25
 40
0.0
 40
0.0
 40
0.0
 40
0.0
 40
1.0
 40
1.0
 40
1.0
 40
2.0
 40
2.0
 40
2.0
 40
3.0
 40
3.0
 40
3.0
 40
4.0
 40
4.0
 40
4.0
 40
5.0
 40
5.0
 40
5.0
 40
6.0
 40
6.0
 40
6.0
 40
7.0
 40
7.0
 40
7.0
 40
8.0
 40
8.0
 40
8.0
 40
8.0
 10
103.0620848706672
 20
-138.8098005208531
 10
103.0620848706672
 20
-138.835976631958
 10
103.0727740370611
 20
-138.8614471875067
 10
103.0910479254838
 20
-138.8800738541692
 10
103.1096393138984
 20
-138.8986652430528
 10
103.1354626465729
 20
-138.9097071874947
 10
103.1616740347931
 20
-138.9097071874947
 10
103.1878527519809
 20
-138.9097071874947
 10
103.2140262556797
 20
-138.8986652430528
 10
103.2326176440943
 20
-138.8800738541692
 10
103.2512443102857
 20
-138.8614471875067
 10
103.2622509766716
 20
-138.835976631958
 10
103.2622509766716
 20
-138.8098005208531
 10
103.2622509766716
 20
-138.7835891319707
 10
103.2512443102857
 20
-138.7567427430884
 10
103.2326176440943
 20
-138.7388216319821
 10
103.2140262556797
 20
-138.7202302430978
 10
103.1878527519809
 20
-138.7091882986559
 10
103.1616740347931
 20
-138.7091882986559
 10
103.1354626465729
 20
-138.7091882986559
 10
103.1096393138984
 20
-138.7202302430978
 10
103.0910479254838
 20
-138.7388216319821
 10
103.0727740370611
 20
-138.7567427430884
 10
103.0620848706672
 20
-138.7835891319707
 10
103.0620848706672
 20
-138.8098005208531
 97
        0
 97
        0
 75
     2
 76
     1
 98
        0
  0
SPLINE
  5
137
330
1F
100
AcDbEntity
  8
_U+30EC_U+30A4_U+30E4_U+30FC 1
370
     0
100
AcDbSpline
210
0.0
220
0.0
230
1.0
 70
    11
 71
     3
 72
    29
 73
    25
 74
     0
 42
0.0000000001
 43
0.0000000001
 12
1.0
 22
0.0
 32
0.0
 13
1.0
 23
0.0
 33
0.0
 40
0.0
 40
0.0
 40
0.0
 40
0.0
 40
1.0
 40
1.0
 40
1.0
 40
2.0
 40
2.0
 40
2.0
 40
3.0
 40
3.0
 40
3.0
 40
4.0
 40
4.0
 40
4.0
 40
5.0
 40
5.0
 40
5.0
 40
6.0
 40
6.0
 40
6.0
 40
7.0
 40
7.0
 40
7.0
 40
8.0
 40
8.0
 40
8.0
 40
8.0
 10
108.7788838914861
 20
-114.9871405268087
 30
0.0
 10
108.7788838914861
 20
-114.9607527490375
 30
0.0
 10
108.7681947250922
 20
-114.9349294157106
 30
0.0
 10
108.7492505589088
 20
-114.9163380268263
 30
0.0
 10
108.7306591704942
 20
-114.8978877490534
 30
0.0
 10
108.7048005600428
 20
-114.8870574712782
 30
0.0
 10
108.6786244495995
 20
-114.8870574712782
 30
0.0
 10
108.6524483391562
 20
-114.8870574712782
 30
0.0
 10
108.626627750621
 20
-114.8978877490534
 30
0.0
 10
108.6079983402902
 20
-114.9163380268263
 30
0.0
 10
108.5897597296444
 20
-114.9349294157106
 30
0.0
 10
108.5787177854817
 20
-114.9607527490375
 30
0.0
 10
108.5787177854817
 20
-114.9871405268087
 30
0.0
 10
108.5787177854817
 20
-115.0134930268022
 30
0.0
 10
108.5897597296444
 20
-115.039316360129
 30
0.0
 10
108.6079983402902
 20
-115.0579077490133
 30
0.0
 10
108.626627750621
 20
-115.0761816378977
 30
0.0
 10
108.6524483391562
 20
-115.0870471934504
 30
0.0
 10
108.6786244495995
 20
-115.0870471934504
 30
0.0
 10
108.7048005600428
 20
-115.0870471934504
 30
0.0
 10
108.7306591704942
 20
-115.0761816378977
 30
0.0
 10
108.7492505589088
 20
-115.0579077490133
 30
0.0
 10
108.7681947250922
 20
-115.039316360129
 30
0.0
 10
108.7788838914861
 20
-115.0134930268022
 30
0.0
 10
108.7788838914861
 20
-114.9871405268087
 30
0.0
  0
HATCH
  5
138
330
1F
100
AcDbEntity
  8
_U+30EC_U+30A4_U+30E4_U+30FC 1
 62
   179
420
  2234388
100
AcDbHatch
 10
0.0
 20
0.0
 30
0.0
210
0.0
220
0.0
230
1.0
  2
SOLID
 70
     1
 71
     0
 91
        1
 92
        1
 93
        1
 72
     4
 94
        3
 73
     0
 74
     1
 95
       29
 96
       25
 40
0.0
 40
0.0
 40
0.0
 40
0.0
 40
1.0
 40
1.0
 40
1.0
 40
2.0
 40
2.0
 40
2.0
 40
3.0
 40
3.0
 40
3.0
 40
4.0
 40
4.0
 40
4.0
 40
5.0
 40
5.0
 40
5.0
 40
6.0
 40
6.0
 40
6.0
 40
7.0
 40
7.0
 40
7.0
 40
8.0
 40
8.0
 40
8.0
 40
8.0
 10
108.7788838914861
 20
-114.9871405268087
 10
108.7788838914861
 20
-114.9607527490375
 10
108.7681947250922
 20
-114.9349294157106
 10
108.7492505589088
 20
-114.9163380268263
 10
108.7306591704942
 20
-114.8978877490534
 10
108.7048005600428
 20
-114.8870574712782
 10
108.6786244495995
 20
-114.8870574712782
 10
108.6524483391562
 20
-114.8870574712782
 10
108.626627750621
 20
-114.8978877490534
 10
108.6079983402902
 20
-114.9163380268263
 10
108.5897597296444
 20
-114.9349294157106
 10
108.5787177854817
 20
-114.9607527490375
 10
108.5787177854817
 20
-114.9871405268087
 10
108.5787177854817
 20
-115.0134930268022
 10
108.5897597296444
 20
-115.039316360129
 10
108.6079983402902
 20
-115.0579077490133
 10
108.626627750621
 20
-115.0761816378977
 10
108.6524483391562
 20
-115.0870471934504
 10
108.6786244495995
 20
-115.0870471934504
 10
108.7048005600428
 20
-115.0870471934504
 10
108.7306591704942
 20
-115.0761816378977
 10
108.7492505589088
 20
-115.0579077490133
 10
108.7681947250922
 20
-115.039316360129
 10
108.7788838914861
 20
-115.0134930268022
 10
108.7788838914861
 20
-114.9871405268087
 97
        0
 97
        0
 75
     2
 76
     1
 98
        0
  0
SPLINE
  5
139
330
1F
100
AcDbEntity
  8
_U+30EC_U+30A4_U+30E4_U+30FC 1
370
     0
100
AcDbSpline
210
0.0
220
0.0
230
1.0
 70
    11
 71
     3
 72
    29
 73
    25
 74
     0
 42
0.0000000001
 43
0.0000000001
 12
1.0
 22
0.0
 32
0.0
 13
1.0
 23
0.0
 33
0.0
 40
0.0
 40
0.0
 40
0.0
 40
0.0
 40
1.0
 40
1.0
 40
1.0
 40
2.0
 40
2.0
 40
2.0
 40
3.0
 40
3.0
 40
3.0
 40
4.0
 40
4.0
 40
4.0
 40
5.0
 40
5.0
 40
5.0
 40
6.0
 40
6.0
 40
6.0
 40
7.0
 40
7.0
 40
7.0
 40
8.0
 40
8.0
 40
8.0
 40
8.0
 10
99.05096636188821
 20
-143.3883269085971
 30
0.0
 10
99.05096636188821
 20
-143.4152085752575
 30
0.0
 10
99.06200830605096
 20
-143.4406791308062
 30
0.0
 10
99.08059969446553
 20
-143.4586002419132
 30
0.0
 10
99.09852080511943
 20
-143.477897186353
 30
0.0
 10
99.12469691556274
 20
-143.4882335752394
 30
0.0
 10
99.15087302600604
 20
-143.4882335752394
 30
0.0
 10
99.17704913644936
 20
-143.4882335752394
 30
0.0
 10
99.20326052466953
 20
-143.477897186353
 30
0.0
 10
99.22185191308411
 20
-143.4586002419132
 30
0.0
 10
99.24009052372992
 20
-143.4406791308062
 30
0.0
 10
99.25113246789266
 20
-143.4152085752575
 30
0.0
 10
99.25113246789266
 20
-143.3883269085971
 30
0.0
 10
99.25113246789266
 20
-143.3628210752702
 30
0.0
 10
99.24009052372992
 20
-143.3359394086104
 30
0.0
 10
99.22185191308411
 20
-143.3180535752817
 30
0.0
 10
99.20326052466953
 20
-143.2994269086198
 30
0.0
 10
99.17704913644936
 20
-143.2884202419555
 30
0.0
 10
99.15087302600604
 20
-143.2884202419555
 30
0.0
 10
99.12469691556274
 20
-143.2884202419555
 30
0.0
 10
99.09852080511943
 20
-143.2994269086198
 30
0.0
 10
99.08059969446553
 20
-143.3180535752817
 30
0.0
 10
99.06200830605096
 20
-143.3359394086104
 30
0.0
 10
99.05096636188821
 20
-143.3628210752702
 30
0.0
 10
99.05096636188821
 20
-143.3883269085971
 30
0.0
  0
HATCH
  5
13A
330
1F
100
AcDbEntity
  8
_U+30EC_U+30A4_U+30E4_U+30FC 1
 62
   179
420
  2234388
100
AcDbHatch
 10
0.0
 20
0.0
 30
0.0
210
0.0
220
0.0
230
1.0
  2
SOLID
 70
     1
 71
     0
 91
        1
 92
        1
 93
        1
 72
     4
 94
        3
 73
     0
 74
     1
 95
       29
 96
       25
 40
0.0
 40
0.0
 40
0.0
 40
0.0
 40
1.0
 40
1.0
 40
1.0
 40
2.0
 40
2.0
 40
2.0
 40
3.0
 40
3.0
 40
3.0
 40
4.0
 40
4.0
 40
4.0
 40
5.0
 40
5.0
 40
5.0
 40
6.0
 40
6.0
 40
6.0
 40
7.0
 40
7.0
 40
7.0
 40
8.0
 40
8.0
 40
8.0
 40
8.0
 10
99.05096636188821
 20
-143.3883269085971
 10
99.05096636188821
 20
-143.4152085752575
 10
99.06200830605096
 20
-143.4406791308062
 10
99.08059969446553
 20
-143.4586002419132
 10
99.09852080511943
 20
-143.477897186353
 10
99.12469691556274
 20
-143.4882335752394
 10
99.15087302600604
 20
-143.4882335752394
 10
99.17704913644936
 20
-143.4882335752394
 10
99.20326052466953
 20
-143.477897186353
 10
99.22185191308411
 20
-143.4586002419132
 10
99.24009052372992
 20
-143.4406791308062
 10
99.25113246789266
 20
-143.4152085752575
 10
99.25113246789266
 20
-143.3883269085971
 10
99.25113246789266
 20
-143.3628210752702
 10
99.24009052372992
 20
-143.3359394086104
 10
99.22185191308411
 20
-143.3180535752817
 10
99.20326052466953
 20
-143.2994269086198
 10
99.17704913644936
 20
-143.2884202419555
 10
99.15087302600604
 20
-143.2884202419555
 10
99.12469691556274
 20
-143.2884202419555
 10
99.09852080511943
 20
-143.2994269086198
 10
99.08059969446553
 20
-143.3180535752817
 10
99.06200830605096
 20
-143.3359394086104
 10
99.05096636188821
 20
-143.3628210752702
 10
99.05096636188821
 20
-143.3883269085971
 97
        0
 97
        0
 75
     2
 76
     1
 98
        0
  0
SPLINE
  5
13B
330
1F
100
AcDbEntity
  8
_U+30EC_U+30A4_U+30E4_U+30FC 1
370
     0
100
AcDbSpline
210
0.0
220
0.0
230
1.0
 70
    11
 71
     3
 72
    29
 73
    25
 74
     0
 42
0.0000000001
 43
0.0000000001
 12
1.0
 22
0.0
 32
0.0
 13
1.0
 23
0.0
 33
0.0
 40
0.0
 40
0.0
 40
0.0
 40
0.0
 40
1.0
 40
1.0
 40
1.0
 40
2.0
 40
2.0
 40
2.0
 40
3.0
 40
3.0
 40
3.0
 40
4.0
 40
4.0
 40
4.0
 40
5.0
 40
5.0
 40
5.0
 40
6.0
 40
6.0
 40
6.0
 40
7.0
 40
7.0
 40
7.0
 40
8.0
 40
8.0
 40
8.0
 40
8.0
 10
97.62126389836295
 20
-110.808911083409
 30
0.0
 10
97.62126389836295
 20
-110.8352635834024
 30
0.0
 10
97.63195553114771
 20
-110.8612633056181
 30
0.0
 10
97.65019167540272
 20
-110.8795371945025
 30
0.0
 10
97.66913584158608
 20
-110.8983049722754
 30
0.0
 10
97.69499445203749
 20
-110.9088177500506
 30
0.0
 10
97.72152334024958
 20
-110.9088177500506
 30
0.0
 10
97.7473466729241
 20
-110.9088177500506
 30
0.0
 10
97.7735227833674
 20
-110.8983049722754
 30
0.0
 10
97.79214944955886
 20
-110.8795371945025
 30
0.0
 10
97.81074083797344
 20
-110.8612633056181
 30
0.0
 10
97.82107722659863
 20
-110.8352635834024
 30
0.0
 10
97.82107722659863
 20
-110.808911083409
 30
0.0
 10
97.82107722659863
 20
-110.7825585834155
 30
0.0
 10
97.81074083797344
 20
-110.7565588611998
 30
0.0
 10
97.79214944955886
 20
-110.7381085834266
 30
0.0
 10
97.7735227833674
 20
-110.7193408056534
 30
0.0
 10
97.7473466729241
 20
-110.7090044167673
 30
0.0
 10
97.72152334024958
 20
-110.7090044167673
 30
0.0
 10
97.69499445203749
 20
-110.7090044167673
 30
0.0
 10
97.66913584158608
 20
-110.7193408056534
 30
0.0
 10
97.65019167540272
 20
-110.7381085834266
 30
0.0
 10
97.63195553114771
 20
-110.7565588611998
 30
0.0
 10
97.62126389836295
 20
-110.7825585834155
 30
0.0
 10
97.62126389836295
 20
-110.808911083409
 30
0.0
  0
HATCH
  5
13C
330
1F
100
AcDbEntity
  8
_U+30EC_U+30A4_U+30E4_U+30FC 1
 62
   179
420
  2234388
100
AcDbHatch
 10
0.0
 20
0.0
 30
0.0
210
0.0
220
0.0
230
1.0
  2
SOLID
 70
     1
 71
     0
 91
        1
 92
        1
 93
        1
 72
     4
 94
        3
 73
     0
 74
     1
 95
       29
 96
       25
 40
0.0
 40
0.0
 40
0.0
 40
0.0
 40
1.0
 40
1.0
 40
1.0
 40
2.0
 40
2.0
 40
2.0
 40
3.0
 40
3.0
 40
3.0
 40
4.0
 40
4.0
 40
4.0
 40
5.0
 40
5.0
 40
5.0
 40
6.0
 40
6.0
 40
6.0
 40
7.0
 40
7.0
 40
7.0
 40
8.0
 40
8.0
 40
8.0
 40
8.0
 10
97.62126389836295
 20
-110.808911083409
 10
97.62126389836295
 20
-110.8352635834024
 10
97.63195553114771
 20
-110.8612633056181
 10
97.65019167540272
 20
-110.8795371945025
 10
97.66913584158608
 20
-110.8983049722754
 10
97.69499445203749
 20
-110.9088177500506
 10
97.72152334024958
 20
-110.9088177500506
 10
97.7473466729241
 20
-110.9088177500506
 10
97.7735227833674
 20
-110.8983049722754
 10
97.79214944955886
 20
-110.8795371945025
 10
97.81074083797344
 20
-110.8612633056181
 10
97.82107722659863
 20
-110.8352635834024
 10
97.82107722659863
 20
-110.808911083409
 10
97.82107722659863
 20
-110.7825585834155
 10
97.81074083797344
 20
-110.7565588611998
 10
97.79214944955886
 20
-110.7381085834266
 10
97.7735227833674
 20
-110.7193408056534
 10
97.7473466729241
 20
-110.7090044167673
 10
97.72152334024958
 20
-110.7090044167673
 10
97.69499445203749
 20
-110.7090044167673
 10
97.66913584158608
 20
-110.7193408056534
 10
97.65019167540272
 20
-110.7381085834266
 10
97.63195553114771
 20
-110.7565588611998
 10
97.62126389836295
 20
-110.7825585834155
 10
97.62126389836295
 20
-110.808911083409
 97
        0
 97
        0
 75
     2
 76
     1
 98
        0
  0
SPLINE
  5
13D
330
1F
100
AcDbEntity
  8
_U+30EC_U+30A4_U+30E4_U+30FC 1
370
     0
100
AcDbSpline
210
0.0
220
0.0
230
1.0
 70
    11
 71
     3
 72
    29
 73
    25
 74
     0
 42
0.0000000001
 43
0.0000000001
 12
1.0
 22
0.0
 32
0.0
 13
1.0
 23
0.0
 33
0.0
 40
0.0
 40
0.0
 40
0.0
 40
0.0
 40
1.0
 40
1.0
 40
1.0
 40
2.0
 40
2.0
 40
2.0
 40
3.0
 40
3.0
 40
3.0
 40
4.0
 40
4.0
 40
4.0
 40
5.0
 40
5.0
 40
5.0
 40
6.0
 40
6.0
 40
6.0
 40
7.0
 40
7.0
 40
7.0
 40
8.0
 40
8.0
 40
8.0
 40
8.0
 10
108.5787177854817
 20
-138.8098005208531
 30
0.0
 10
108.5787177854817
 20
-138.835976631958
 30
0.0
 10
108.5897597296444
 20
-138.8614471875067
 30
0.0
 10
108.6079983402902
 20
-138.8800738541692
 30
0.0
 10
108.626627750621
 20
-138.8986652430528
 30
0.0
 10
108.6524483391562
 20
-138.9097071874947
 30
0.0
 10
108.6786244495995
 20
-138.9097071874947
 30
0.0
 10
108.7048005600428
 20
-138.9097071874947
 30
0.0
 10
108.7306591704942
 20
-138.8986652430528
 30
0.0
 10
108.7492505589088
 20
-138.8800738541692
 30
0.0
 10
108.7681947250922
 20
-138.8614471875067
 30
0.0
 10
108.7788838914861
 20
-138.835976631958
 30
0.0
 10
108.7788838914861
 20
-138.8098005208531
 30
0.0
 10
108.7788838914861
 20
-138.7835891319707
 30
0.0
 10
108.7681947250922
 20
-138.7567427430884
 30
0.0
 10
108.7492505589088
 20
-138.7388216319821
 30
0.0
 10
108.7306591704942
 20
-138.7202302430978
 30
0.0
 10
108.7048005600428
 20
-138.7091882986559
 30
0.0
 10
108.6786244495995
 20
-138.7091882986559
 30
0.0
 10
108.6524483391562
 20
-138.7091882986559
 30
0.0
 10
108.626627750621
 20
-138.7202302430978
 30
0.0
 10
108.6079983402902
 20
-138.7388216319821
 30
0.0
 10
108.5897597296444
 20
-138.7567427430884
 30
0.0
 10
108.5787177854817
 20
-138.7835891319707
 30
0.0
 10
108.5787177854817
 20
-138.8098005208531
 30
0.0
  0
HATCH
  5
13E
330
1F
100
AcDbEntity
  8
_U+30EC_U+30A4_U+30E4_U+30FC 1
 62
   179
420
  2234388
100
AcDbHatch
 10
0.0
 20
0.0
 30
0.0
210
0.0
220
0.0
230
1.0
  2
SOLID
 70
     1
 71
     0
 91
        1
 92
        1
 93
        1
 72
     4
 94
        3
 73
     0
 74
     1
 95
       29
 96
       25
 40
0.0
 40
0.0
 40
0.0
 40
0.0
 40
1.0
 40
1.0
 40
1.0
 40
2.0
 40
2.0
 40
2.0
 40
3.0
 40
3.0
 40
3.0
 40
4.0
 40
4.0
 40
4.0
 40
5.0
 40
5.0
 40
5.0
 40
6.0
 40
6.0
 40
6.0
 40
7.0
 40
7.0
 40
7.0
 40
8.0
 40
8.0
 40
8.0
 40
8.0
 10
108.5787177854817
 20
-138.8098005208531
 10
108.5787177854817
 20
-138.835976631958
 10
108.5897597296444
 20
-138.8614471875067
 10
108.6079983402902
 20
-138.8800738541692
 10
108.626627750621
 20
-138.8986652430528
 10
108.6524483391562
 20
-138.9097071874947
 10
108.6786244495995
 20
-138.9097071874947
 10
108.7048005600428
 20
-138.9097071874947
 10
108.7306591704942
 20
-138.8986652430528
 10
108.7492505589088
 20
-138.8800738541692
 10
108.7681947250922
 20
-138.8614471875067
 10
108.7788838914861
 20
-138.835976631958
 10
108.7788838914861
 20
-138.8098005208531
 10
108.7788838914861
 20
-138.7835891319707
 10
108.7681947250922
 20
-138.7567427430884
 10
108.7492505589088
 20
-138.7388216319821
 10
108.7306591704942
 20
-138.7202302430978
 10
108.7048005600428
 20
-138.7091882986559
 10
108.6786244495995
 20
-138.7091882986559
 10
108.6524483391562
 20
-138.7091882986559
 10
108.626627750621
 20
-138.7202302430978
 10
108.6079983402902
 20
-138.7388216319821
 10
108.5897597296444
 20
-138.7567427430884
 10
108.5787177854817
 20
-138.7835891319707
 10
108.5787177854817
 20
-138.8098005208531
 97
        0
 97
        0
 75
     2
 76
     1
 98
        0
  0
SPLINE
  5
13F
330
1F
100
AcDbEntity
  8
_U+30EC_U+30A4_U+30E4_U+30FC 1
370
     0
100
AcDbSpline
210
0.0
220
0.0
230
1.0
 70
    11
 71
     3
 72
    29
 73
    25
 74
     0
 42
0.0000000001
 43
0.0000000001
 12
1.0
 22
0.0
 32
0.0
 13
1.0
 23
0.0
 33
0.0
 40
0.0
 40
0.0
 40
0.0
 40
0.0
 40
1.0
 40
1.0
 40
1.0
 40
2.0
 40
2.0
 40
2.0
 40
3.0
 40
3.0
 40
3.0
 40
4.0
 40
4.0
 40
4.0
 40
5.0
 40
5.0
 40
5.0
 40
6.0
 40
6.0
 40
6.0
 40
7.0
 40
7.0
 40
7.0
 40
8.0
 40
8.0
 40
8.0
 40
8.0
 10
87.13956611021779
 20
-143.3883269085971
 30
0.0
 10
87.13956611021779
 20
-143.4152085752575
 30
0.0
 10
87.15022220043465
 20
-143.4406791308062
 30
0.0
 10
87.16849388725755
 20
-143.4593057974687
 30
0.0
 10
87.18726386709223
 20
-143.477897186353
 30
0.0
 10
87.21329666389232
 20
-143.4882335752394
 30
0.0
 10
87.23947497819002
 20
-143.4882335752394
 30
0.0
 10
87.26564888477893
 20
-143.4882335752394
 30
0.0
 10
87.29182499522223
 20
-143.477897186353
 30
0.0
 10
87.31027527252931
 20
-143.4593057974687
 30
0.0
 10
87.3286902720595
 20
-143.4406791308062
 30
0.0
 10
87.33955582733785
 20
-143.4152085752575
 30
0.0
 10
87.33955582733785
 20
-143.3883269085971
 30
0.0
 10
87.33955582733785
 20
-143.3628210752702
 30
0.0
 10
87.3286902720595
 20
-143.3359394086104
 30
0.0
 10
87.31027527252931
 20
-143.3180535752817
 30
0.0
 10
87.29182499522223
 20
-143.2994269086198
 30
0.0
 10
87.26564888477893
 20
-143.2884202419555
 30
0.0
 10
87.23947497819002
 20
-143.2884202419555
 30
0.0
 10
87.21329666389232
 20
-143.2884202419555
 30
0.0
 10
87.18726386709223
 20
-143.2994269086198
 30
0.0
 10
87.16849388725755
 20
-143.3180535752817
 30
0.0
 10
87.15022220043465
 20
-143.3359394086104
 30
0.0
 10
87.13956611021779
 20
-143.3628210752702
 30
0.0
 10
87.13956611021779
 20
-143.3883269085971
 30
0.0
  0
HATCH
  5
140
330
1F
100
AcDbEntity
  8
_U+30EC_U+30A4_U+30E4_U+30FC 1
 62
   179
420
  2234388
100
AcDbHatch
 10
0.0
 20
0.0
 30
0.0
210
0.0
220
0.0
230
1.0
  2
SOLID
 70
     1
 71
     0
 91
        1
 92
        1
 93
        1
 72
     4
 94
        3
 73
     0
 74
     1
 95
       29
 96
       25
 40
0.0
 40
0.0
 40
0.0
 40
0.0
 40
1.0
 40
1.0
 40
1.0
 40
2.0
 40
2.0
 40
2.0
 40
3.0
 40
3.0
 40
3.0
 40
4.0
 40
4.0
 40
4.0
 40
5.0
 40
5.0
 40
5.0
 40
6.0
 40
6.0
 40
6.0
 40
7.0
 40
7.0
 40
7.0
 40
8.0
 40
8.0
 40
8.0
 40
8.0
 10
87.13956611021779
 20
-143.3883269085971
 10
87.13956611021779
 20
-143.4152085752575
 10
87.15022220043465
 20
-143.4406791308062
 10
87.16849388725755
 20
-143.4593057974687
 10
87.18726386709223
 20
-143.477897186353
 10
87.21329666389232
 20
-143.4882335752394
 10
87.23947497819002
 20
-143.4882335752394
 10
87.26564888477893
 20
-143.4882335752394
 10
87.29182499522223
 20
-143.477897186353
 10
87.31027527252931
 20
-143.4593057974687
 10
87.3286902720595
 20
-143.4406791308062
 10
87.33955582733785
 20
-143.4152085752575
 10
87.33955582733785
 20
-143.3883269085971
 10
87.33955582733785
 20
-143.3628210752702
 10
87.3286902720595
 20
-143.3359394086104
 10
87.31027527252931
 20
-143.3180535752817
 10
87.29182499522223
 20
-143.2994269086198
 10
87.26564888477893
 20
-143.2884202419555
 10
87.23947497819002
 20
-143.2884202419555
 10
87.21329666389232
 20
-143.2884202419555
 10
87.18726386709223
 20
-143.2994269086198
 10
87.16849388725755
 20
-143.3180535752817
 10
87.15022220043465
 20
-143.3359394086104
 10
87.13956611021779
 20
-143.3628210752702
 10
87.13956611021779
 20
-143.3883269085971
 97
        0
 97
        0
 75
     2
 76
     1
 98
        0
  0
SPLINE
  5
141
330
1F
100
AcDbEntity
  8
_U+30EC_U+30A4_U+30E4_U+30FC 1
370
     0
100
AcDbSpline
210
0.0
220
0.0
230
1.0
 70
    11
 71
     3
 72
    29
 73
    25
 74
     0
 42
0.0000000001
 43
0.0000000001
 12
1.0
 22
0.0
 32
0.0
 13
1.0
 23
0.0
 33
0.0
 40
0.0
 40
0.0
 40
0.0
 40
0.0
 40
1.0
 40
1.0
 40
1.0
 40
2.0
 40
2.0
 40
2.0
 40
3.0
 40
3.0
 40
3.0
 40
4.0
 40
4.0
 40
4.0
 40
5.0
 40
5.0
 40
5.0
 40
6.0
 40
6.0
 40
6.0
 40
7.0
 40
7.0
 40
7.0
 40
8.0
 40
8.0
 40
8.0
 40
8.0
 10
75.22830696965488
 20
-147.5348416297832
 30
0.0
 10
75.22830696965488
 20
-147.561723296443
 30
0.0
 10
75.23934891381762
 20
-147.5871938519924
 30
0.0
 10
75.25758752446343
 20
-147.6058205186542
 30
0.0
 10
75.2760378017705
 20
-147.6244119075385
 30
0.0
 10
75.3023903010982
 20
-147.6347482964249
 30
0.0
 10
75.3285664115415
 20
-147.6347482964249
 30
0.0
 10
75.3543916478281
 20
-147.6347482964249
 30
0.0
 10
75.38056585465932
 20
-147.6244119075385
 30
0.0
 10
75.3991944255945
 20
-147.6058205186542
 30
0.0
 10
75.4174311314966
 20
-147.5871938519924
 30
0.0
 10
75.42847498114293
 20
-147.561723296443
 30
0.0
 10
75.42847498114293
 20
-147.5348416297832
 30
0.0
 10
75.42847498114293
 20
-147.5086655186783
 30
0.0
 10
75.4174311314966
 20
-147.4831596853514
 30
0.0
 10
75.3991944255945
 20
-147.4645682964671
 30
0.0
 10
75.38056585465932
 20
-147.4459416298053
 30
0.0
 10
75.3543916478281
 20
-147.4349349631416
 30
0.0
 10
75.3285664115415
 20
-147.4349349631416
 30
0.0
 10
75.3023903010982
 20
-147.4349349631416
 30
0.0
 10
75.2760378017705
 20
-147.4459416298053
 30
0.0
 10
75.25758752446343
 20
-147.4645682964671
 30
0.0
 10
75.23934891381762
 20
-147.4831596853514
 30
0.0
 10
75.22830696965488
 20
-147.5086655186783
 30
0.0
 10
75.22830696965488
 20
-147.5348416297832
 30
0.0
  0
HATCH
  5
142
330
1F
100
AcDbEntity
  8
_U+30EC_U+30A4_U+30E4_U+30FC 1
 62
   179
420
  2234388
100
AcDbHatch
 10
0.0
 20
0.0
 30
0.0
210
0.0
220
0.0
230
1.0
  2
SOLID
 70
     1
 71
     0
 91
        1
 92
        1
 93
        1
 72
     4
 94
        3
 73
     0
 74
     1
 95
       29
 96
       25
 40
0.0
 40
0.0
 40
0.0
 40
0.0
 40
1.0
 40
1.0
 40
1.0
 40
2.0
 40
2.0
 40
2.0
 40
3.0
 40
3.0
 40
3.0
 40
4.0
 40
4.0
 40
4.0
 40
5.0
 40
5.0
 40
5.0
 40
6.0
 40
6.0
 40
6.0
 40
7.0
 40
7.0
 40
7.0
 40
8.0
 40
8.0
 40
8.0
 40
8.0
 10
75.22830696965488
 20
-147.5348416297832
 10
75.22830696965488
 20
-147.561723296443
 10
75.23934891381762
 20
-147.5871938519924
 10
75.25758752446343
 20
-147.6058205186542
 10
75.2760378017705
 20
-147.6244119075385
 10
75.3023903010982
 20
-147.6347482964249
 10
75.3285664115415
 20
-147.6347482964249
 10
75.3543916478281
 20
-147.6347482964249
 10
75.38056585465932
 20
-147.6244119075385
 10
75.3991944255945
 20
-147.6058205186542
 10
75.4174311314966
 20
-147.5871938519924
 10
75.42847498114293
 20
-147.561723296443
 10
75.42847498114293
 20
-147.5348416297832
 10
75.42847498114293
 20
-147.5086655186783
 10
75.4174311314966
 20
-147.4831596853514
 10
75.3991944255945
 20
-147.4645682964671
 10
75.38056585465932
 20
-147.4459416298053
 10
75.3543916478281
 20
-147.4349349631416
 10
75.3285664115415
 20
-147.4349349631416
 10
75.3023903010982
 20
-147.4349349631416
 10
75.2760378017705
 20
-147.4459416298053
 10
75.25758752446343
 20
-147.4645682964671
 10
75.23934891381762
 20
-147.4831596853514
 10
75.22830696965488
 20
-147.5086655186783
 10
75.22830696965488
 20
-147.5348416297832
 97
        0
 97
        0
 75
     2
 76
     1
 98
        0
  0
SPLINE
  5
143
330
1F
100
AcDbEntity
  8
_U+30EC_U+30A4_U+30E4_U+30FC 1
370
     0
100
AcDbSpline
210
0.0
220
0.0
230
1.0
 70
    11
 71
     3
 72
    38
 73
    34
 74
     0
 42
0.0000000001
 43
0.0000000001
 12
1.0
 22
0.0
 32
0.0
 13
1.0
 23
0.0
 33
0.0
 40
0.0
 40
0.0
 40
0.0
 40
0.0
 40
1.0
 40
1.0
 40
1.0
 40
2.0
 40
2.0
 40
2.0
 40
3.0
 40
3.0
 40
3.0
 40
4.0
 40
4.0
 40
4.0
 40
5.0
 40
5.0
 40
5.0
 40
6.0
 40
6.0
 40
6.0
 40
7.0
 40
7.0
 40
7.0
 40
8.0
 40
8.0
 40
8.0
 40
9.0
 40
9.0
 40
9.0
 40
10.0
 40
10.0
 40
10.0
 40
11.0
 40
11.0
 40
11.0
 40
11.0
 10
74.03595338896325
 20
-137.3800627434329
 30
0.0
 10
74.03595338896325
 20
-137.3800627434329
 30
0.0
 10
74.03595338896325
 20
-137.3800627434329
 30
0.0
 10
74.03595338896325
 20
-137.3800627434329
 30
0.0
 10
74.03595338896325
 20
-137.3800627434329
 30
0.0
 10
74.03595338896325
 20
-137.3800627434329
 30
0.0
 10
74.03595338896325
 20
-137.3800627434329
 30
0.0
 10
74.03595338896325
 20
-137.4062388545372
 30
0.0
 10
74.0466444259327
 20
-137.4324502434196
 30
0.0
 10
74.0652339437718
 20
-137.4510416323039
 30
0.0
 10
74.08368609259027
 20
-137.4696330211882
 30
0.0
 10
74.10986033152217
 20
-137.4806749656301
 30
0.0
 10
74.13568366419669
 20
-137.4806749656301
 30
0.0
 10
74.16203616352439
 20
-137.4806749656301
 30
0.0
 10
74.18807116286018
 20
-137.4696330211882
 30
0.0
 10
74.20648616239038
 20
-137.4510416323039
 30
0.0
 10
74.22511282858183
 20
-137.4324502434196
 30
0.0
 10
74.23594310608331
 20
-137.4062388545372
 30
0.0
 10
74.23594310608331
 20
-137.3800627434329
 30
0.0
 10
74.23594310608331
 20
-137.3538866323281
 30
0.0
 10
74.22511282858183
 20
-137.3283807990012
 30
0.0
 10
74.20648616239038
 20
-137.3097894101168
 30
0.0
 10
74.18807116286018
 20
-137.2911980212325
 30
0.0
 10
74.16203616352439
 20
-137.2808616323462
 30
0.0
 10
74.13568366419669
 20
-137.2808616323462
 30
0.0
 10
74.13568366419669
 20
-137.2808616323462
 30
0.0
 10
74.13568366419669
 20
-137.2801560767913
 30
0.0
 10
74.13568366419669
 20
-137.2801560767913
 30
0.0
 10
74.10986033152217
 20
-137.2801560767913
 30
0.0
 10
74.08368609259027
 20
-137.2911980212325
 30
0.0
 10
74.0652339437718
 20
-137.3091191323395
 30
0.0
 10
74.0466444259327
 20
-137.3277105212238
 30
0.0
 10
74.03595338896325
 20
-137.3538866323281
 30
0.0
 10
74.03595338896325
 20
-137.3800627434329
 30
0.0
  0
HATCH
  5
144
330
1F
100
AcDbEntity
  8
_U+30EC_U+30A4_U+30E4_U+30FC 1
 62
   179
420
  2234388
100
AcDbHatch
 10
0.0
 20
0.0
 30
0.0
210
0.0
220
0.0
230
1.0
  2
SOLID
 70
     1
 71
     0
 91
        1
 92
        1
 93
        1
 72
     4
 94
        3
 73
     0
 74
     1
 95
       38
 96
       34
 40
0.0
 40
0.0
 40
0.0
 40
0.0
 40
1.0
 40
1.0
 40
1.0
 40
2.0
 40
2.0
 40
2.0
 40
3.0
 40
3.0
 40
3.0
 40
4.0
 40
4.0
 40
4.0
 40
5.0
 40
5.0
 40
5.0
 40
6.0
 40
6.0
 40
6.0
 40
7.0
 40
7.0
 40
7.0
 40
8.0
 40
8.0
 40
8.0
 40
9.0
 40
9.0
 40
9.0
 40
10.0
 40
10.0
 40
10.0
 40
11.0
 40
11.0
 40
11.0
 40
11.0
 10
74.03595338896325
 20
-137.3800627434329
 10
74.03595338896325
 20
-137.3800627434329
 10
74.03595338896325
 20
-137.3800627434329
 10
74.03595338896325
 20
-137.3800627434329
 10
74.03595338896325
 20
-137.3800627434329
 10
74.03595338896325
 20
-137.3800627434329
 10
74.03595338896325
 20
-137.3800627434329
 10
74.03595338896325
 20
-137.4062388545372
 10
74.0466444259327
 20
-137.4324502434196
 10
74.0652339437718
 20
-137.4510416323039
 10
74.08368609259027
 20
-137.4696330211882
 10
74.10986033152217
 20
-137.4806749656301
 10
74.13568366419669
 20
-137.4806749656301
 10
74.16203616352439
 20
-137.4806749656301
 10
74.18807116286018
 20
-137.4696330211882
 10
74.20648616239038
 20
-137.4510416323039
 10
74.22511282858183
 20
-137.4324502434196
 10
74.23594310608331
 20
-137.4062388545372
 10
74.23594310608331
 20
-137.3800627434329
 10
74.23594310608331
 20
-137.3538866323281
 10
74.22511282858183
 20
-137.3283807990012
 10
74.20648616239038
 20
-137.3097894101168
 10
74.18807116286018
 20
-137.2911980212325
 10
74.16203616352439
 20
-137.2808616323462
 10
74.13568366419669
 20
-137.2808616323462
 10
74.13568366419669
 20
-137.2808616323462
 10
74.13568366419669
 20
-137.2801560767913
 10
74.13568366419669
 20
-137.2801560767913
 10
74.10986033152217
 20
-137.2801560767913
 10
74.08368609259027
 20
-137.2911980212325
 10
74.0652339437718
 20
-137.3091191323395
 10
74.0466444259327
 20
-137.3277105212238
 10
74.03595338896325
 20
-137.3538866323281
 10
74.03595338896325
 20
-137.3800627434329
 97
        0
 97
        0
 75
     2
 76
     1
 98
        0
  0
SPLINE
  5
145
330
1F
100
AcDbEntity
  8
_U+30EC_U+30A4_U+30E4_U+30FC 1
370
     0
100
AcDbSpline
210
0.0
220
0.0
230
1.0
 70
    11
 71
     3
 72
    29
 73
    25
 74
     0
 42
0.0000000001
 43
0.0000000001
 12
1.0
 22
0.0
 32
0.0
 13
1.0
 23
0.0
 33
0.0
 40
0.0
 40
0.0
 40
0.0
 40
0.0
 40
1.0
 40
1.0
 40
1.0
 40
2.0
 40
2.0
 40
2.0
 40
3.0
 40
3.0
 40
3.0
 40
4.0
 40
4.0
 40
4.0
 40
5.0
 40
5.0
 40
5.0
 40
6.0
 40
6.0
 40
6.0
 40
7.0
 40
7.0
 40
7.0
 40
8.0
 40
8.0
 40
8.0
 40
8.0
 10
74.03577700007887
 20
-138.8098005208531
 30
0.0
 10
74.03577700007887
 20
-138.835976631958
 30
0.0
 10
74.0466444259327
 20
-138.8614471875067
 30
0.0
 10
74.0650575548874
 20
-138.8800738541692
 30
0.0
 10
74.08350783219447
 20
-138.8986652430528
 30
0.0
 10
74.10968394263779
 20
-138.9097071874947
 30
0.0
 10
74.13568366419669
 20
-138.9097071874947
 30
0.0
 10
74.16171866353248
 20
-138.9097071874947
 30
0.0
 10
74.18807116286018
 20
-138.8986652430528
 30
0.0
 10
74.20630977350598
 20
-138.8800738541692
 30
0.0
 10
74.22476005081306
 20
-138.8614471875067
 30
0.0
 10
74.23576671719891
 20
-138.835976631958
 30
0.0
 10
74.23576671719891
 20
-138.8098005208531
 30
0.0
 10
74.23576671719891
 20
-138.7835891319707
 30
0.0
 10
74.22476005081306
 20
-138.7567427430884
 30
0.0
 10
74.20630977350598
 20
-138.7388216319821
 30
0.0
 10
74.18807116286018
 20
-138.7202302430978
 30
0.0
 10
74.16171866353248
 20
-138.7091882986559
 30
0.0
 10
74.13568366419669
 20
-138.7091882986559
 30
0.0
 10
74.10968394263779
 20
-138.7091882986559
 30
0.0
 10
74.08350783219447
 20
-138.7202302430978
 30
0.0
 10
74.0650575548874
 20
-138.7388216319821
 30
0.0
 10
74.0466444259327
 20
-138.7567427430884
 30
0.0
 10
74.03577700007887
 20
-138.7835891319707
 30
0.0
 10
74.03577700007887
 20
-138.8098005208531
 30
0.0
  0
HATCH
  5
146
330
1F
100
AcDbEntity
  8
_U+30EC_U+30A4_U+30E4_U+30FC 1
 62
   179
420
  2234388
100
AcDbHatch
 10
0.0
 20
0.0
 30
0.0
210
0.0
220
0.0
230
1.0
  2
SOLID
 70
     1
 71
     0
 91
        1
 92
        1
 93
        1
 72
     4
 94
        3
 73
     0
 74
     1
 95
       29
 96
       25
 40
0.0
 40
0.0
 40
0.0
 40
0.0
 40
1.0
 40
1.0
 40
1.0
 40
2.0
 40
2.0
 40
2.0
 40
3.0
 40
3.0
 40
3.0
 40
4.0
 40
4.0
 40
4.0
 40
5.0
 40
5.0
 40
5.0
 40
6.0
 40
6.0
 40
6.0
 40
7.0
 40
7.0
 40
7.0
 40
8.0
 40
8.0
 40
8.0
 40
8.0
 10
74.03577700007887
 20
-138.8098005208531
 10
74.03577700007887
 20
-138.835976631958
 10
74.0466444259327
 20
-138.8614471875067
 10
74.0650575548874
 20
-138.8800738541692
 10
74.08350783219447
 20
-138.8986652430528
 10
74.10968394263779
 20
-138.9097071874947
 10
74.13568366419669
 20
-138.9097071874947
 10
74.16171866353248
 20
-138.9097071874947
 10
74.18807116286018
 20
-138.8986652430528
 10
74.20630977350598
 20
-138.8800738541692
 10
74.22476005081306
 20
-138.8614471875067
 10
74.23576671719891
 20
-138.835976631958
 10
74.23576671719891
 20
-138.8098005208531
 10
74.23576671719891
 20
-138.7835891319707
 10
74.22476005081306
 20
-138.7567427430884
 10
74.20630977350598
 20
-138.7388216319821
 10
74.18807116286018
 20
-138.7202302430978
 10
74.16171866353248
 20
-138.7091882986559
 10
74.13568366419669
 20
-138.7091882986559
 10
74.10968394263779
 20
-138.7091882986559
 10
74.08350783219447
 20
-138.7202302430978
 10
74.0650575548874
 20
-138.7388216319821
 10
74.0466444259327
 20
-138.7567427430884
 10
74.03577700007887
 20
-138.7835891319707
 10
74.03577700007887
 20
-138.8098005208531
 97
        0
 97
        0
 75
     2
 76
     1
 98
        0
  0
SPLINE
  5
147
330
1F
100
AcDbEntity
  8
_U+30EC_U+30A4_U+30E4_U+30FC 1
370
     0
100
AcDbSpline
210
0.0
220
0.0
230
1.0
 70
    11
 71
     3
 72
    35
 73
    31
 74
     0
 42
0.0000000001
 43
0.0000000001
 12
1.0
 22
0.0
 32
0.0
 13
1.0
 23
0.0
 33
0.0
 40
0.0
 40
0.0
 40
0.0
 40
0.0
 40
1.0
 40
1.0
 40
1.0
 40
2.0
 40
2.0
 40
2.0
 40
3.0
 40
3.0
 40
3.0
 40
4.0
 40
4.0
 40
4.0
 40
5.0
 40
5.0
 40
5.0
 40
6.0
 40
6.0
 40
6.0
 40
7.0
 40
7.0
 40
7.0
 40
8.0
 40
8.0
 40
8.0
 40
9.0
 40
9.0
 40
9.0
 40
10.0
 40
10.0
 40
10.0
 40
10.0
 10
90.98015184556962
 20
-110.7382849723155
 30
0.0
 10
90.96170156826255
 20
-110.7565588611998
 30
0.0
 10
90.95087129076107
 20
-110.7827349723044
 30
0.0
 10
90.95087129076107
 20
-110.808911083409
 30
0.0
 10
90.95087129076107
 20
-110.8352635834024
 30
0.0
 10
90.96170156826255
 20
-110.8612633056181
 30
0.0
 10
90.98015184556962
 20
-110.8797135833911
 30
0.0
 10
90.99856684509982
 20
-110.8983049722754
 30
0.0
 10
91.02474295554312
 20
-110.9088177500506
 30
0.0
 10
91.0509543437633
 20
-110.9088177500506
 30
0.0
 10
91.0509543437633
 20
-110.9088177500506
 30
0.0
 10
91.0509543437633
 20
-110.9088177500506
 30
0.0
 10
91.0509543437633
 20
-110.9088177500506
 30
0.0
 10
91.07695406532221
 20
-110.9088177500506
 30
0.0
 10
91.10277739799673
 20
-110.8978110833866
 30
0.0
 10
91.1214040641882
 20
-110.8795371945025
 30
0.0
 10
91.14034823037156
 20
-110.8609458056182
 30
0.0
 10
91.15068461899675
 20
-110.8347344167358
 30
0.0
 10
91.15068461899675
 20
-110.808911083409
 30
0.0
 10
91.15068461899675
 20
-110.7825585834155
 30
0.0
 10
91.14034823037156
 20
-110.7565588611998
 30
0.0
 10
91.1214040641882
 20
-110.7381085834266
 30
0.0
 10
91.10277739799673
 20
-110.7193408056534
 30
0.0
 10
91.07695406532221
 20
-110.7090044167673
 30
0.0
 10
91.0509543437633
 20
-110.7090044167673
 30
0.0
 10
91.0509543437633
 20
-110.7090044167673
 30
0.0
 10
91.0509543437633
 20
-110.7090044167673
 30
0.0
 10
91.0509543437633
 20
-110.7090044167673
 30
0.0
 10
91.02474295554312
 20
-110.7090044167673
 30
0.0
 10
90.99856684509982
 20
-110.7196935834311
 30
0.0
 10
90.98015184556962
 20
-110.7382849723155
 30
0.0
  0
HATCH
  5
148
330
1F
100
AcDbEntity
  8
_U+30EC_U+30A4_U+30E4_U+30FC 1
 62
   179
420
  2234388
100
AcDbHatch
 10
0.0
 20
0.0
 30
0.0
210
0.0
220
0.0
230
1.0
  2
SOLID
 70
     1
 71
     0
 91
        1
 92
        1
 93
        1
 72
     4
 94
        3
 73
     0
 74
     1
 95
       35
 96
       31
 40
0.0
 40
0.0
 40
0.0
 40
0.0
 40
1.0
 40
1.0
 40
1.0
 40
2.0
 40
2.0
 40
2.0
 40
3.0
 40
3.0
 40
3.0
 40
4.0
 40
4.0
 40
4.0
 40
5.0
 40
5.0
 40
5.0
 40
6.0
 40
6.0
 40
6.0
 40
7.0
 40
7.0
 40
7.0
 40
8.0
 40
8.0
 40
8.0
 40
9.0
 40
9.0
 40
9.0
 40
10.0
 40
10.0
 40
10.0
 40
10.0
 10
90.98015184556962
 20
-110.7382849723155
 10
90.96170156826255
 20
-110.7565588611998
 10
90.95087129076107
 20
-110.7827349723044
 10
90.95087129076107
 20
-110.808911083409
 10
90.95087129076107
 20
-110.8352635834024
 10
90.96170156826255
 20
-110.8612633056181
 10
90.98015184556962
 20
-110.8797135833911
 10
90.99856684509982
 20
-110.8983049722754
 10
91.02474295554312
 20
-110.9088177500506
 10
91.0509543437633
 20
-110.9088177500506
 10
91.0509543437633
 20
-110.9088177500506
 10
91.0509543437633
 20
-110.9088177500506
 10
91.0509543437633
 20
-110.9088177500506
 10
91.07695406532221
 20
-110.9088177500506
 10
91.10277739799673
 20
-110.8978110833866
 10
91.1214040641882
 20
-110.8795371945025
 10
91.14034823037156
 20
-110.8609458056182
 10
91.15068461899675
 20
-110.8347344167358
 10
91.15068461899675
 20
-110.808911083409
 10
91.15068461899675
 20
-110.7825585834155
 10
91.14034823037156
 20
-110.7565588611998
 10
91.1214040641882
 20
-110.7381085834266
 10
91.10277739799673
 20
-110.7193408056534
 10
91.07695406532221
 20
-110.7090044167673
 10
91.0509543437633
 20
-110.7090044167673
 10
91.0509543437633
 20
-110.7090044167673
 10
91.0509543437633
 20
-110.7090044167673
 10
91.0509543437633
 20
-110.7090044167673
 10
91.02474295554312
 20
-110.7090044167673
 10
90.99856684509982
 20
-110.7196935834311
 10
90.98015184556962
 20
-110.7382849723155
 97
        0
 97
        0
 75
     2
 76
     1
 98
        0
  0
SPLINE
  5
149
330
1F
100
AcDbEntity
  8
_U+30EC_U+30A4_U+30E4_U+30FC 1
370
     0
100
AcDbSpline
210
0.0
220
0.0
230
1.0
 70
    11
 71
     3
 72
    29
 73
    25
 74
     0
 42
0.0000000001
 43
0.0000000001
 12
1.0
 22
0.0
 32
0.0
 13
1.0
 23
0.0
 33
0.0
 40
0.0
 40
0.0
 40
0.0
 40
0.0
 40
1.0
 40
1.0
 40
1.0
 40
2.0
 40
2.0
 40
2.0
 40
3.0
 40
3.0
 40
3.0
 40
4.0
 40
4.0
 40
4.0
 40
5.0
 40
5.0
 40
5.0
 40
6.0
 40
6.0
 40
6.0
 40
7.0
 40
7.0
 40
7.0
 40
8.0
 40
8.0
 40
8.0
 40
8.0
 10
74.23576671719891
 20
-130.7096699673228
 30
0.0
 10
74.23576671719891
 20
-130.6869510784392
 30
0.0
 10
74.22476005081306
 20
-130.6641969117781
 30
0.0
 10
74.20630977350598
 20
-130.6483571895602
 30
0.0
 10
74.18807116286018
 20
-130.6325174673416
 30
0.0
 10
74.16171866353248
 20
-130.6228513562333
 30
0.0
 10
74.13568366419669
 20
-130.6228513562333
 30
0.0
 10
74.10968394263779
 20
-130.6228513562333
 30
0.0
 10
74.08350783219447
 20
-130.6325174673416
 30
0.0
 10
74.0650575548874
 20
-130.6483571895602
 30
0.0
 10
74.0466444259327
 20
-130.6641969117781
 30
0.0
 10
74.03577700007887
 20
-130.6869510784392
 30
0.0
 10
74.03577700007887
 20
-130.7096699673228
 30
0.0
 10
74.03577700007887
 20
-130.7324241339833
 30
0.0
 10
74.0466444259327
 20
-130.7558485784224
 30
0.0
 10
74.0650575548874
 20
-130.7716883006403
 30
0.0
 10
74.08350783219447
 20
-130.7875280228589
 30
0.0
 10
74.10968394263779
 20
-130.7971941339672
 30
0.0
 10
74.13568366419669
 20
-130.7971941339672
 30
0.0
 10
74.16171866353248
 20
-130.7971941339672
 30
0.0
 10
74.18807116286018
 20
-130.7875280228589
 30
0.0
 10
74.20630977350598
 20
-130.7716883006403
 30
0.0
 10
74.22476005081306
 20
-130.7558485784224
 30
0.0
 10
74.23576671719891
 20
-130.7324241339833
 30
0.0
 10
74.23576671719891
 20
-130.7096699673228
 30
0.0
  0
HATCH
  5
14A
330
1F
100
AcDbEntity
  8
_U+30EC_U+30A4_U+30E4_U+30FC 1
 62
   179
420
  2234388
100
AcDbHatch
 10
0.0
 20
0.0
 30
0.0
210
0.0
220
0.0
230
1.0
  2
SOLID
 70
     1
 71
     0
 91
        1
 92
        1
 93
        1
 72
     4
 94
        3
 73
     0
 74
     1
 95
       29
 96
       25
 40
0.0
 40
0.0
 40
0.0
 40
0.0
 40
1.0
 40
1.0
 40
1.0
 40
2.0
 40
2.0
 40
2.0
 40
3.0
 40
3.0
 40
3.0
 40
4.0
 40
4.0
 40
4.0
 40
5.0
 40
5.0
 40
5.0
 40
6.0
 40
6.0
 40
6.0
 40
7.0
 40
7.0
 40
7.0
 40
8.0
 40
8.0
 40
8.0
 40
8.0
 10
74.23576671719891
 20
-130.7096699673228
 10
74.23576671719891
 20
-130.6869510784392
 10
74.22476005081306
 20
-130.6641969117781
 10
74.20630977350598
 20
-130.6483571895602
 10
74.18807116286018
 20
-130.6325174673416
 10
74.16171866353248
 20
-130.6228513562333
 10
74.13568366419669
 20
-130.6228513562333
 10
74.10968394263779
 20
-130.6228513562333
 10
74.08350783219447
 20
-130.6325174673416
 10
74.0650575548874
 20
-130.6483571895602
 10
74.0466444259327
 20
-130.6641969117781
 10
74.03577700007887
 20
-130.6869510784392
 10
74.03577700007887
 20
-130.7096699673228
 10
74.03577700007887
 20
-130.7324241339833
 10
74.0466444259327
 20
-130.7558485784224
 10
74.0650575548874
 20
-130.7716883006403
 10
74.08350783219447
 20
-130.7875280228589
 10
74.10968394263779
 20
-130.7971941339672
 10
74.13568366419669
 20
-130.7971941339672
 10
74.16171866353248
 20
-130.7971941339672
 10
74.18807116286018
 20
-130.7875280228589
 10
74.20630977350598
 20
-130.7716883006403
 10
74.22476005081306
 20
-130.7558485784224
 10
74.23576671719891
 20
-130.7324241339833
 10
74.23576671719891
 20
-130.7096699673228
 97
        0
 97
        0
 75
     2
 76
     1
 98
        0
  0
POLYLINE
  5
14B
330
1F
100
AcDbEntity
  8
_U+30EC_U+30A4_U+30E4_U+30FC 1
 62
   179
420
  2234388
370
     9
100
AcDb2dPolyline
 66
     1
 10
0.0
 20
0.0
 30
0.0
  0
VERTEX
  5
14C
330
14B
100
AcDbEntity
  8
_U+30EC_U+30A4_U+30E4_U+30FC 1
 62
   179
420
  2234388
370
     9
100
AcDbVertex
100
AcDb2dVertex
 10
86.15048307989585
 20
-137.3800627434329
 30
0.0
  0
VERTEX
  5
14D
330
14B
100
AcDbEntity
  8
_U+30EC_U+30A4_U+30E4_U+30FC 1
 62
   179
420
  2234388
370
     9
100
AcDbVertex
100
AcDb2dVertex
 10
72.77438481003743
 20
-137.3800627434329
 30
0.0
  0
SEQEND
  5
14E
330
14B
100
AcDbEntity
  8
_U+30EC_U+30A4_U+30E4_U+30FC 1
 62
   179
420
  2234388
370
     9
  0
SPLINE
  5
14F
330
1F
100
AcDbEntity
  8
_U+30EC_U+30A4_U+30E4_U+30FC 1
 62
   179
420
  2234388
370
    25
100
AcDbSpline
210
0.0
220
0.0
230
1.0
 70
     8
 71
     3
 72
    17
 73
    13
 74
     0
 42
0.0000000001
 43
0.0000000001
 12
1.0
 22
0.0
 32
0.0
 13
1.0
 23
0.0
 33
0.0
 40
0.0
 40
0.0
 40
0.0
 40
0.0
 40
1.0
 40
1.0
 40
1.0
 40
2.0
 40
2.0
 40
2.0
 40
3.0
 40
3.0
 40
3.0
 40
4.0
 40
4.0
 40
4.0
 40
4.0
 10
91.0512718437552
 20
-119.6087058034313
 30
0.0
 10
91.01355990027287
 20
-119.6087058034313
 30
0.0
 10
90.9766946234356
 20
-119.6242280256496
 30
0.0
 10
90.95016573522352
 20
-119.6504041367542
 30
0.0
 10
90.92331934701954
 20
-119.6767566367476
 30
0.0
 10
90.90850268073088
 20
-119.7141510811826
 30
0.0
 10
90.90850268073088
 20
-119.7513338589509
 30
0.0
 10
90.90850268073088
 20
-119.7889046922751
 30
0.0
 10
90.92331934701954
 20
-119.8261227478213
 30
0.0
 10
90.95016573522352
 20
-119.8524752478147
 30
0.0
 10
90.9766946234356
 20
-119.8791452478081
 30
0.0
 10
91.01355990027287
 20
-119.8946674700264
 30
0.0
 10
91.0512718437552
 20
-119.8946674700264
 30
0.0
  0
POLYLINE
  5
150
330
1F
100
AcDbEntity
  8
_U+30EC_U+30A4_U+30E4_U+30FC 1
 62
   179
420
  2234388
370
    25
100
AcDb2dPolyline
 66
     1
 10
0.0
 20
0.0
 30
0.0
  0
VERTEX
  5
151
330
150
100
AcDbEntity
  8
_U+30EC_U+30A4_U+30E4_U+30FC 1
 62
   179
420
  2234388
370
    25
100
AcDbVertex
100
AcDb2dVertex
 10
91.0512718437552
 20
-114.9871405268087
 30
0.0
  0
VERTEX
  5
152
330
150
100
AcDbEntity
  8
_U+30EC_U+30A4_U+30E4_U+30FC 1
 62
   179
420
  2234388
370
    25
100
AcDbVertex
100
AcDb2dVertex
 10
90.47973886626899
 20
-114.9871405268087
 30
0.0
  0
SEQEND
  5
153
330
150
100
AcDbEntity
  8
_U+30EC_U+30A4_U+30E4_U+30FC 1
 62
   179
420
  2234388
370
    25
  0
POLYLINE
  5
154
330
1F
100
AcDbEntity
  8
_U+30EC_U+30A4_U+30E4_U+30FC 1
 62
   179
420
  2234388
370
    25
100
AcDb2dPolyline
 66
     1
 10
0.0
 20
0.0
 30
0.0
  0
VERTEX
  5
155
330
154
100
AcDbEntity
  8
_U+30EC_U+30A4_U+30E4_U+30FC 1
 62
   179
420
  2234388
370
    25
100
AcDbVertex
100
AcDb2dVertex
 10
90.47973886626899
 20
-130.1377819119101
 30
0.0
  0
VERTEX
  5
156
330
154
100
AcDbEntity
  8
_U+30EC_U+30A4_U+30E4_U+30FC 1
 62
   179
420
  2234388
370
    25
100
AcDbVertex
100
AcDb2dVertex
 10
90.47973886626899
 20
-114.9871405268087
 30
0.0
  0
SEQEND
  5
157
330
154
100
AcDbEntity
  8
_U+30EC_U+30A4_U+30E4_U+30FC 1
 62
   179
420
  2234388
370
    25
  0
POLYLINE
  5
158
330
1F
100
AcDbEntity
  8
_U+30EC_U+30A4_U+30E4_U+30FC 1
 62
   179
420
  2234388
370
    25
100
AcDb2dPolyline
 66
     1
 10
0.0
 20
0.0
 30
0.0
  0
VERTEX
  5
159
330
158
100
AcDbEntity
  8
_U+30EC_U+30A4_U+30E4_U+30FC 1
 62
   179
420
  2234388
370
    25
100
AcDbVertex
100
AcDb2dVertex
 10
79.94999046030581
 20
-130.7096699673228
 30
0.0
  0
VERTEX
  5
15A
330
158
100
AcDbEntity
  8
_U+30EC_U+30A4_U+30E4_U+30FC 1
 62
   179
420
  2234388
370
    25
100
AcDbVertex
100
AcDb2dVertex
 10
75.3285664115415
 20
-130.7096699673228
 30
0.0
  0
SEQEND
  5
15B
330
158
100
AcDbEntity
  8
_U+30EC_U+30A4_U+30E4_U+30FC 1
 62
   179
420
  2234388
370
    25
  0
POLYLINE
  5
15C
330
1F
100
AcDbEntity
  8
_U+30EC_U+30A4_U+30E4_U+30FC 1
 62
   179
420
  2234388
370
    25
100
AcDb2dPolyline
 66
     1
 10
0.0
 20
0.0
 30
0.0
  0
VERTEX
  5
15D
330
15C
100
AcDbEntity
  8
_U+30EC_U+30A4_U+30E4_U+30FC 1
 62
   179
420
  2234388
370
    25
100
AcDbVertex
100
AcDb2dVertex
 10
90.64751768738915
 20
-130.7096699673228
 30
0.0
  0
VERTEX
  5
15E
330
15C
100
AcDbEntity
  8
_U+30EC_U+30A4_U+30E4_U+30FC 1
 62
   179
420
  2234388
370
    25
100
AcDbVertex
100
AcDb2dVertex
 10
80.23644600855329
 20
-130.7096699673228
 30
0.0
  0
SEQEND
  5
15F
330
15C
100
AcDbEntity
  8
_U+30EC_U+30A4_U+30E4_U+30FC 1
 62
   179
420
  2234388
370
    25
  0
POLYLINE
  5
160
330
1F
100
AcDbEntity
  8
_U+30EC_U+30A4_U+30E4_U+30FC 1
 62
   179
420
  2234388
370
    25
100
AcDb2dPolyline
 66
     1
 10
0.0
 20
0.0
 30
0.0
  0
VERTEX
  5
161
330
160
100
AcDbEntity
  8
_U+30EC_U+30A4_U+30E4_U+30FC 1
 62
   179
420
  2234388
370
    25
100
AcDbVertex
100
AcDb2dVertex
 10
87.23996666321192
 20
-138.8098005208531
 30
0.0
  0
VERTEX
  5
162
330
160
100
AcDbEntity
  8
_U+30EC_U+30A4_U+30E4_U+30FC 1
 62
   179
420
  2234388
370
    25
100
AcDbVertex
100
AcDb2dVertex
 10
87.23996666321192
 20
-137.3800627434329
 30
0.0
  0
SEQEND
  5
163
330
160
100
AcDbEntity
  8
_U+30EC_U+30A4_U+30E4_U+30FC 1
 62
   179
420
  2234388
370
    25
  0
POLYLINE
  5
164
330
1F
100
AcDbEntity
  8
_U+30EC_U+30A4_U+30E4_U+30FC 1
 62
   179
420
  2234388
370
    25
100
AcDb2dPolyline
 66
     1
 10
0.0
 20
0.0
 30
0.0
  0
VERTEX
  5
165
330
164
100
AcDbEntity
  8
_U+30EC_U+30A4_U+30E4_U+30FC 1
 62
   179
420
  2234388
370
    25
100
AcDbVertex
100
AcDb2dVertex
 10
90.48009164404674
 20
-130.1377819119101
 30
0.0
  0
VERTEX
  5
166
330
164
100
AcDbEntity
  8
_U+30EC_U+30A4_U+30E4_U+30FC 1
 62
   179
420
  2234388
370
    25
100
AcDbVertex
100
AcDb2dVertex
 10
75.32891918931027
 20
-130.1377819119101
 30
0.0
  0
SEQEND
  5
167
330
164
100
AcDbEntity
  8
_U+30EC_U+30A4_U+30E4_U+30FC 1
 62
   179
420
  2234388
370
    25
  0
POLYLINE
  5
168
330
1F
100
AcDbEntity
  8
_U+30EC_U+30A4_U+30E4_U+30FC 1
 62
   179
420
  2234388
370
    25
100
AcDb2dPolyline
 66
     1
 10
0.0
 20
0.0
 30
0.0
  0
VERTEX
  5
169
330
168
100
AcDbEntity
  8
_U+30EC_U+30A4_U+30E4_U+30FC 1
 62
   179
420
  2234388
370
    25
100
AcDbVertex
100
AcDb2dVertex
 10
91.05180101040837
 20
-119.6083883034314
 30
0.0
  0
VERTEX
  5
16A
330
168
100
AcDbEntity
  8
_U+30EC_U+30A4_U+30E4_U+30FC 1
 62
   179
420
  2234388
370
    25
100
AcDbVertex
100
AcDb2dVertex
 10
91.05180101040837
 20
-114.9864349712535
 30
0.0
  0
SEQEND
  5
16B
330
168
100
AcDbEntity
  8
_U+30EC_U+30A4_U+30E4_U+30FC 1
 62
   179
420
  2234388
370
    25
  0
POLYLINE
  5
16C
330
1F
100
AcDbEntity
  8
_U+30EC_U+30A4_U+30E4_U+30FC 1
 62
   179
420
  2234388
370
    25
100
AcDb2dPolyline
 66
     1
 10
0.0
 20
0.0
 30
0.0
  0
VERTEX
  5
16D
330
16C
100
AcDbEntity
  8
_U+30EC_U+30A4_U+30E4_U+30FC 1
 62
   179
420
  2234388
370
    25
100
AcDbVertex
100
AcDb2dVertex
 10
91.05180101040837
 20
-130.3052102452014
 30
0.0
  0
VERTEX
  5
16E
330
16C
100
AcDbEntity
  8
_U+30EC_U+30A4_U+30E4_U+30FC 1
 62
   179
420
  2234388
370
    25
100
AcDbVertex
100
AcDb2dVertex
 10
91.05180101040837
 20
-119.8939619144709
 30
0.0
  0
SEQEND
  5
16F
330
16C
100
AcDbEntity
  8
_U+30EC_U+30A4_U+30E4_U+30FC 1
 62
   179
420
  2234388
370
    25
  0
SPLINE
  5
170
330
1F
100
AcDbEntity
  8
_U+30EC_U+30A4_U+30E4_U+30FC 1
 62
   179
420
  2234388
370
    25
100
AcDbSpline
210
0.0
220
0.0
230
1.0
 70
     8
 71
     3
 72
    17
 73
    13
 74
     0
 42
0.0000000001
 43
0.0000000001
 12
1.0
 22
0.0
 32
0.0
 13
1.0
 23
0.0
 33
0.0
 40
0.0
 40
0.0
 40
0.0
 40
0.0
 40
1.0
 40
1.0
 40
1.0
 40
2.0
 40
2.0
 40
2.0
 40
3.0
 40
3.0
 40
3.0
 40
4.0
 40
4.0
 40
4.0
 40
4.0
 10
80.23644600855329
 20
-130.7096699673228
 30
0.0
 10
80.23644600855329
 20
-130.6717816339987
 30
0.0
 10
80.22078267561955
 20
-130.6345635784525
 30
0.0
 10
80.19443017629186
 20
-130.6083874673477
 30
0.0
 10
80.16772489919539
 20
-130.5815058006879
 30
0.0
 10
80.13085962235813
 20
-130.5670419118028
 30
0.0
 10
80.0932887899833
 20
-130.5670419118028
 30
0.0
 10
80.05628240203852
 20
-130.5670419118028
 30
0.0
 10
80.01853518077931
 20
-130.5815058006879
 30
0.0
 10
79.99271386889079
 20
-130.6083874673477
 30
0.0
 10
79.9661829598927
 20
-130.6345635784525
 30
0.0
 10
79.9504843491821
 20
-130.6717816339987
 30
0.0
 10
79.9504843491821
 20
-130.7096699673228
 30
0.0
  0
POLYLINE
  5
171
330
1F
100
AcDbEntity
  8
_U+30EC_U+30A4_U+30E4_U+30FC 1
 62
   179
420
  2234388
370
    25
100
AcDb2dPolyline
 66
     1
 10
0.0
 20
0.0
 30
0.0
  0
VERTEX
  5
172
330
171
100
AcDbEntity
  8
_U+30EC_U+30A4_U+30E4_U+30FC 1
 62
   179
420
  2234388
370
    25
100
AcDbVertex
100
AcDb2dVertex
 10
75.32891918931027
 20
-130.7096699673228
 30
0.0
  0
VERTEX
  5
173
330
171
100
AcDbEntity
  8
_U+30EC_U+30A4_U+30E4_U+30FC 1
 62
   179
420
  2234388
370
    25
100
AcDbVertex
100
AcDb2dVertex
 10
75.32891918931027
 20
-130.1371116341321
 30
0.0
  0
SEQEND
  5
174
330
171
100
AcDbEntity
  8
_U+30EC_U+30A4_U+30E4_U+30FC 1
 62
   179
420
  2234388
370
    25
  0
POLYLINE
  5
175
330
1F
100
AcDbEntity
  8
_U+30EC_U+30A4_U+30E4_U+30FC 1
 62
   179
420
  2234388
370
    25
100
AcDb2dPolyline
 66
     1
 10
0.0
 20
0.0
 30
0.0
  0
VERTEX
  5
176
330
175
100
AcDbEntity
  8
_U+30EC_U+30A4_U+30E4_U+30FC 1
 62
   179
420
  2234388
370
    25
100
AcDbVertex
100
AcDb2dVertex
 10
87.81168053360263
 20
-137.3793924656549
 30
0.0
  0
VERTEX
  5
177
330
175
100
AcDbEntity
  8
_U+30EC_U+30A4_U+30E4_U+30FC 1
 62
   179
420
  2234388
370
    25
100
AcDbVertex
100
AcDb2dVertex
 10
87.23996666321192
 20
-137.3793924656549
 30
0.0
  0
SEQEND
  5
178
330
175
100
AcDbEntity
  8
_U+30EC_U+30A4_U+30E4_U+30FC 1
 62
   179
420
  2234388
370
    25
  0
POLYLINE
  5
179
330
1F
100
AcDbEntity
  8
_U+30EC_U+30A4_U+30E4_U+30FC 1
 62
   179
420
  2234388
370
    25
100
AcDb2dPolyline
 66
     1
 10
0.0
 20
0.0
 30
0.0
  0
VERTEX
  5
17A
330
179
100
AcDbEntity
  8
_U+30EC_U+30A4_U+30E4_U+30FC 1
 62
   179
420
  2234388
370
    25
100
AcDbVertex
100
AcDb2dVertex
 10
87.81168053360263
 20
-138.2379124654404
 30
0.0
  0
VERTEX
  5
17B
330
179
100
AcDbEntity
  8
_U+30EC_U+30A4_U+30E4_U+30FC 1
 62
   179
420
  2234388
370
    25
100
AcDbVertex
100
AcDb2dVertex
 10
87.81168053360263
 20
-137.3793924656549
 30
0.0
  0
SEQEND
  5
17C
330
179
100
AcDbEntity
  8
_U+30EC_U+30A4_U+30E4_U+30FC 1
 62
   179
420
  2234388
370
    25
  0
POLYLINE
  5
17D
330
1F
100
AcDbEntity
  8
_U+30EC_U+30A4_U+30E4_U+30FC 1
 62
   179
420
  2234388
370
    25
100
AcDb2dPolyline
 66
     1
 10
0.0
 20
0.0
 30
0.0
  0
VERTEX
  5
17E
330
17D
100
AcDbEntity
  8
_U+30EC_U+30A4_U+30E4_U+30FC 1
 62
   179
420
  2234388
370
    25
100
AcDbVertex
100
AcDb2dVertex
 10
98.91317136540366
 20
-138.8098005208531
 30
0.0
  0
VERTEX
  5
17F
330
17D
100
AcDbEntity
  8
_U+30EC_U+30A4_U+30E4_U+30FC 1
 62
   179
420
  2234388
370
    25
100
AcDbVertex
100
AcDb2dVertex
 10
87.23996666321192
 20
-138.8098005208531
 30
0.0
  0
SEQEND
  5
180
330
17D
100
AcDbEntity
  8
_U+30EC_U+30A4_U+30E4_U+30FC 1
 62
   179
420
  2234388
370
    25
  0
POLYLINE
  5
181
330
1F
100
AcDbEntity
  8
_U+30EC_U+30A4_U+30E4_U+30FC 1
 62
   179
420
  2234388
370
    25
100
AcDb2dPolyline
 66
     1
 10
0.0
 20
0.0
 30
0.0
  0
VERTEX
  5
182
330
181
100
AcDbEntity
  8
_U+30EC_U+30A4_U+30E4_U+30FC 1
 62
   179
420
  2234388
370
    25
100
AcDbVertex
100
AcDb2dVertex
 10
87.81168053360263
 20
-138.2379124654404
 30
0.0
  0
VERTEX
  5
183
330
181
100
AcDbEntity
  8
_U+30EC_U+30A4_U+30E4_U+30FC 1
 62
   179
420
  2234388
370
    25
100
AcDbVertex
100
AcDb2dVertex
 10
97.60059112111259
 20
-138.2379124654404
 30
0.0
  0
SEQEND
  5
184
330
181
100
AcDbEntity
  8
_U+30EC_U+30A4_U+30E4_U+30FC 1
 62
   179
420
  2234388
370
    25
  0
POLYLINE
  5
185
330
1F
100
AcDbEntity
  8
_U+30EC_U+30A4_U+30E4_U+30FC 1
 62
   179
420
  2234388
370
     9
100
AcDb2dPolyline
 66
     1
 10
0.0
 20
0.0
 30
0.0
  0
VERTEX
  5
186
330
185
100
AcDbEntity
  8
_U+30EC_U+30A4_U+30E4_U+30FC 1
 62
   179
420
  2234388
370
     9
100
AcDbVertex
100
AcDb2dVertex
 10
75.3285664115415
 20
-147.5355119075606
 30
0.0
  0
VERTEX
  5
187
330
185
100
AcDbEntity
  8
_U+30EC_U+30A4_U+30E4_U+30FC 1
 62
   179
420
  2234388
370
     9
100
AcDbVertex
100
AcDb2dVertex
 10
99.15052024823727
 20
-147.5355119075606
 30
0.0
  0
SEQEND
  5
188
330
185
100
AcDbEntity
  8
_U+30EC_U+30A4_U+30E4_U+30FC 1
 62
   179
420
  2234388
370
     9
  0
POLYLINE
  5
189
330
1F
100
AcDbEntity
  8
_U+30EC_U+30A4_U+30E4_U+30FC 1
 62
   179
420
  2234388
370
     9
100
AcDb2dPolyline
 66
     1
 10
0.0
 20
0.0
 30
0.0
  0
VERTEX
  5
18A
330
189
100
AcDbEntity
  8
_U+30EC_U+30A4_U+30E4_U+30FC 1
 62
   179
420
  2234388
370
     9
100
AcDbVertex
100
AcDb2dVertex
 10
99.15052024823727
 20
-143.3883269085971
 30
0.0
  0
VERTEX
  5
18B
330
189
100
AcDbEntity
  8
_U+30EC_U+30A4_U+30E4_U+30FC 1
 62
   179
420
  2234388
370
     9
100
AcDbVertex
100
AcDb2dVertex
 10
87.23929638545124
 20
-143.3883269085971
 30
0.0
  0
SEQEND
  5
18C
330
189
100
AcDbEntity
  8
_U+30EC_U+30A4_U+30E4_U+30FC 1
 62
   179
420
  2234388
370
     9
  0
ENDSEC
  0
SECTION
  2
OBJECTS
  0
DICTIONARY
  5
C
330
0
100
AcDbDictionary
281
     1
  3
ACAD_GROUP
350
D
  3
ACAD_LAYOUT
350
1A
  3
ACAD_MATERIAL
350
3B
  3
ACAD_MLEADERSTYLE
350
18E
  3
ACAD_MLINESTYLE
350
17
  3
ACAD_PLOTSETTINGS
350
19
  3
ACAD_PLOTSTYLENAME
350
E
  3
ACAD_TABLESTYLE
350
18D
  3
ACAD_VISUALSTYLE
350
2A
  0
SUN
  5
3F
330
29
100
AcDbSun
 90
        1
290
     0
 63
     7
421
 16777215
 40
1.0
291
     1
 91
  2455826
 92
 54000000
292
     0
 70
     2
 71
   256
280
     1
  0
DICTIONARY
  5
D
102
{ACAD_REACTORS
330
C
102
}
330
C
100
AcDbDictionary
281
     1
  0
DICTIONARY
  5
1A
102
{ACAD_REACTORS
330
C
102
}
330
C
100
AcDbDictionary
281
     1
  3
Layout1
350
1E
  3
Layout2
350
26
  3
Model
350
22
  0
DICTIONARY
  5
3B
102
{ACAD_REACTORS
330
C
102
}
330
C
100
AcDbDictionary
281
     1
  3
ByBlock
350
3D
  3
ByLayer
350
3C
  3
Global
350
3E
  0
DICTIONARY
  5
18E
102
{ACAD_REACTORS
330
C
102
}
330
C
100
AcDbDictionary
281
     1
  0
DICTIONARY
  5
17
102
{ACAD_REACTORS
330
C
102
}
330
C
100
AcDbDictionary
281
     1
  3
Standard
350
18
  0
DICTIONARY
  5
19
102
{ACAD_REACTORS
330
C
102
}
330
C
100
AcDbDictionary
281
     1
  0
ACDBDICTIONARYWDFLT
  5
E
102
{ACAD_REACTORS
330
C
102
}
330
C
100
AcDbDictionary
281
     1
  3
Normal
350
F
100
AcDbDictionaryWithDefault
340
F
  0
DICTIONARY
  5
18D
102
{ACAD_REACTORS
330
C
102
}
330
C
100
AcDbDictionary
281
     1
  0
DICTIONARY
  5
2A
102
{ACAD_REACTORS
330
C
102
}
330
C
100
AcDbDictionary
281
     1
  3
2dWireframe
350
2F
  3
3D Hidden
350
31
  3
3dWireframe
350
30
  3
Basic
350
32
  3
Brighten
350
36
  3
ColorChange
350
3A
  3
Conceptual
350
34
  3
Dim
350
35
  3
Facepattern
350
39
  3
Flat
350
2B
  3
FlatWithEdges
350
2C
  3
Gouraud
350
2D
  3
GouraudWithEdges
350
2E
  3
Linepattern
350
38
  3
Realistic
350
33
  3
Thicken
350
37
  0
LAYOUT
  5
1E
102
{ACAD_REACTORS
330
1A
102
}
330
1A
100
AcDbPlotSettings
  1

  2
none_device
  4

  6

 40
0.0
 41
0.0
 42
0.0
 43
0.0
 44
0.0
 45
0.0
 46
0.0
 47
0.0
 48
0.0
 49
0.0
140
0.0
141
0.0
142
1.0
143
1.0
 70
   688
 72
     0
 73
     0
 74
     5
  7

 75
    16
 76
     0
 77
     2
 78
   300
147
1.0
148
0.0
149
0.0
100
AcDbLayout
  1
Layout1
 70
     1
 71
     1
 10
0.0
 20
0.0
 11
12.0
 21
9.0
 12
0.0
 22
0.0
 32
0.0
 14
1.000000000000000E+20
 24
1.000000000000000E+20
 34
1.000000000000000E+20
 15
-1.000000000000000E+20
 25
-1.000000000000000E+20
 35
-1.000000000000000E+20
146
0.0
 13
0.0
 23
0.0
 33
0.0
 16
1.0
 26
0.0
 36
0.0
 17
0.0
 27
1.0
 37
0.0
 76
     0
330
1B
  0
LAYOUT
  5
26
102
{ACAD_REACTORS
330
1A
102
}
330
1A
100
AcDbPlotSettings
  1

  2
none_device
  4

  6

 40
0.0
 41
0.0
 42
0.0
 43
0.0
 44
0.0
 45
0.0
 46
0.0
 47
0.0
 48
0.0
 49
0.0
140
0.0
141
0.0
142
1.0
143
1.0
 70
   688
 72
     0
 73
     0
 74
     5
  7

 75
    16
 76
     0
 77
     2
 78
   300
147
1.0
148
0.0
149
0.0
100
AcDbLayout
  1
Layout2
 70
     1
 71
     2
 10
0.0
 20
0.0
 11
0.0
 21
0.0
 12
0.0
 22
0.0
 32
0.0
 14
0.0
 24
0.0
 34
0.0
 15
0.0
 25
0.0
 35
0.0
146
0.0
 13
0.0
 23
0.0
 33
0.0
 16
1.0
 26
0.0
 36
0.0
 17
0.0
 27
1.0
 37
0.0
 76
     0
330
23
  0
LAYOUT
  5
22
102
{ACAD_REACTORS
330
1A
102
}
330
1A
100
AcDbPlotSettings
  1

  2
none_device
  4

  6

 40
0.0
 41
0.0
 42
0.0
 43
0.0
 44
0.0
 45
0.0
 46
0.0
 47
0.0
 48
0.0
 49
0.0
140
0.0
141
0.0
142
1.0
143
1.0
 70
  1712
 72
     0
 73
     0
 74
     0
  7

 75
     0
 76
     0
 77
     2
 78
   300
147
1.0
148
0.0
149
0.0
100
AcDbLayout
  1
Model
 70
     1
 71
     0
 10
0.0
 20
0.0
 11
12.0
 21
9.0
 12
0.0
 22
0.0
 32
0.0
 14
1.000000000000000E+20
 24
1.000000000000000E+20
 34
1.000000000000000E+20
 15
-1.000000000000000E+20
 25
-1.000000000000000E+20
 35
-1.000000000000000E+20
146
0.0
 13
0.0
 23
0.0
 33
0.0
 16
1.0
 26
0.0
 36
0.0
 17
0.0
 27
1.0
 37
0.0
 76
     0
330
1F
331
29
  0
MATERIAL
  5
3D
102
{ACAD_REACTORS
330
3B
102
}
330
3B
100
AcDbMaterial
  1
ByBlock
 72
     1
 94
      127
  0
MATERIAL
  5
3C
102
{ACAD_REACTORS
330
3B
102
}
330
3B
100
AcDbMaterial
  1
ByLayer
 72
     1
 94
      127
  0
MATERIAL
  5
3E
102
{ACAD_REACTORS
330
3B
102
}
330
3B
100
AcDbMaterial
  1
Global
 72
     1
 94
      127
  0
MLINESTYLE
  5
18
102
{ACAD_REACTORS
330
17
102
}
330
17
100
AcDbMlineStyle
  2
Standard
 70
     0
  3

 62
   256
 51
90.0
 52
90.0
 71
     2
 49
0.5
 62
   256
  6
BYLAYER
 49
-0.5
 62
   256
  6
BYLAYER
  0
ACDBPLACEHOLDER
  5
F
102
{ACAD_REACTORS
330
E
102
}
330
E
  0
VISUALSTYLE
  5
2F
102
{ACAD_REACTORS
330
2A
102
}
330
2A
100
AcDbVisualStyle
  2
2dWireframe
 70
     4
177
     2
291
     0
 71
     0
176
     1
 72
     2
176
     1
 73
     0
176
     1
 90
        0
176
     1
 40
-0.6
176
     1
 41
-30.0
176
     1
 62
     5
 63
     7
421
 16777215
176
     1
 74
     1
176
     1
 91
        4
176
     1
 64
     7
176
     1
 65
   257
176
     1
 75
     1
176
     1
175
     1
176
     1
 42
1.0
176
     1
 92
        0
176
     1
 66
   257
176
     1
 43
1.0
176
     1
 76
     1
176
     1
 77
     6
176
     1
 78
     2
176
     1
 67
     7
176
     1
 79
     5
176
     1
170
     0
176
     1
171
     0
176
     1
290
     0
176
     1
 93
        1
176
     1
 44
0.0
176
     1
173
     0
176
     1
  0
VISUALSTYLE
  5
31
102
{ACAD_REACTORS
330
2A
102
}
330
2A
100
AcDbVisualStyle
  2
3D Hidden
 70
     6
177
     2
291
     0
 71
     1
176
     1
 72
     2
176
     1
 73
     2
176
     1
 90
        0
176
     1
 40
-0.6
176
     1
 41
-30.0
176
     1
 62
     5
 63
     7
421
 16777215
176
     1
 74
     2
176
     1
 91
        2
176
     1
 64
     7
176
     1
 65
   257
176
     1
 75
     2
176
     1
175
     1
176
     1
 42
40.0
176
     1
 92
        0
176
     1
 66
   257
176
     1
 43
1.0
176
     1
 76
     1
176
     1
 77
     6
176
     1
 78
     2
176
     1
 67
     7
176
     1
 79
     3
176
     1
170
     0
176
     1
171
     0
176
     1
290
     0
176
     1
 93
        1
176
     1
 44
0.0
176
     1
173
     0
176
     1
  0
VISUALSTYLE
  5
30
102
{ACAD_REACTORS
330
2A
102
}
330
2A
100
AcDbVisualStyle
  2
3dWireframe
 70
     5
177
     2
291
     0
 71
     0
176
     1
 72
     2
176
     1
 73
     0
176
     1
 90
        0
176
     1
 40
-0.6
176
     1
 41
-30.0
176
     1
 62
     5
 63
     7
421
 16777215
176
     1
 74
     1
176
     1
 91
        4
176
     1
 64
     7
176
     1
 65
   257
176
     1
 75
     1
176
     1
175
     1
176
     1
 42
1.0
176
     1
 92
        0
176
     1
 66
   257
176
     1
 43
1.0
176
     1
 76
     1
176
     1
 77
     6
176
     1
 78
     2
176
     1
 67
     7
176
     1
 79
     5
176
     1
170
     0
176
     1
171
     0
176
     1
290
     0
176
     1
 93
        1
176
     1
 44
0.0
176
     1
173
     0
176
     1
  0
VISUALSTYLE
  5
32
102
{ACAD_REACTORS
330
2A
102
}
330
2A
100
AcDbVisualStyle
  2
Basic
 70
     7
177
     2
291
     1
 71
     1
176
     1
 72
     0
176
     1
 73
     1
176
     1
 90
        0
176
     1
 40
-0.6
176
     1
 41
-30.0
176
     1
 62
     5
 63
     7
421
 16777215
176
     1
 74
     0
176
     1
 91
        4
176
     1
 64
     7
176
     1
 65
   257
176
     1
 75
     1
176
     1
175
     1
176
     1
 42
1.0
176
     1
 92
        8
176
     1
 66
     7
176
     1
 43
1.0
176
     1
 76
     1
176
     1
 77
     6
176
     1
 78
     2
176
     1
 67
     7
176
     1
 79
     5
176
     1
170
     0
176
     1
171
     0
176
     1
290
     0
176
     1
 93
        1
176
     1
 44
0.0
176
     1
173
     0
176
     1
  0
VISUALSTYLE
  5
36
102
{ACAD_REACTORS
330
2A
102
}
330
2A
100
AcDbVisualStyle
  2
Brighten
 70
    12
177
     2
291
     1
 71
     2
176
     1
 72
     2
176
     1
 73
     0
176
     1
 90
        0
176
     1
 40
-0.6
176
     1
 41
-30.0
176
     1
 62
     5
 63
     7
421
 16777215
176
     1
 74
     1
176
     1
 91
        4
176
     1
 64
     7
176
     1
 65
   257
176
     1
 75
     1
176
     1
175
     1
176
     1
 42
1.0
176
     1
 92
        8
176
     1
 66
     7
176
     1
 43
1.0
176
     1
 76
     1
176
     1
 77
     6
176
     1
 78
     2
176
     1
 67
     7
176
     1
 79
     5
176
     1
170
     0
176
     1
171
     0
176
     1
290
     0
176
     1
 93
        1
176
     1
 44
50.0
176
     1
173
     0
176
     1
  0
VISUALSTYLE
  5
3A
102
{ACAD_REACTORS
330
2A
102
}
330
2A
100
AcDbVisualStyle
  2
ColorChange
 70
    16
177
     2
291
     1
 71
     2
176
     1
 72
     2
176
     1
 73
     3
176
     1
 90
        0
176
     1
 40
-0.6
176
     1
 41
-30.0
176
     1
 62
     5
 63
     8
421
  8421504
176
     1
 74
     1
176
     1
 91
        4
176
     1
 64
     7
176
     1
 65
   257
176
     1
 75
     1
176
     1
175
     1
176
     1
 42
1.0
176
     1
 92
        8
176
     1
 66
     8
424
  8421504
176
     1
 43
1.0
176
     1
 76
     1
176
     1
 77
     6
176
     1
 78
     2
176
     1
 67
     7
176
     1
 79
     5
176
     1
170
     0
176
     1
171
     0
176
     1
290
     0
176
     1
 93
        1
176
     1
 44
0.0
176
     1
173
     0
176
     1
  0
VISUALSTYLE
  5
34
102
{ACAD_REACTORS
330
2A
102
}
330
2A
100
AcDbVisualStyle
  2
Conceptual
 70
     9
177
     2
291
     0
 71
     3
176
     1
 72
     2
176
     1
 73
     0
176
     1
 90
        0
176
     1
 40
-0.6
176
     1
 41
-30.0
176
     1
 62
     5
 63
     7
421
 16777215
176
     1
 74
     2
176
     1
 91
        2
176
     1
 64
     7
176
     1
 65
   257
176
     1
 75
     1
176
     1
175
     1
176
     1
 42
40.0
176
     1
 92
        8
176
     1
 66
     7
176
     1
 43
1.0
176
     1
 76
     1
176
     1
 77
     6
176
     1
 78
     2
176
     1
 67
     7
176
     1
 79
     3
176
     1
170
     0
176
     1
171
     0
176
     1
290
     0
176
     1
 93
        1
176
     1
 44
0.0
176
     1
173
     0
176
     1
  0
VISUALSTYLE
  5
35
102
{ACAD_REACTORS
330
2A
102
}
330
2A
100
AcDbVisualStyle
  2
Dim
 70
    11
177
     2
291
     1
 71
     2
176
     1
 72
     2
176
     1
 73
     0
176
     1
 90
        0
176
     1
 40
-0.6
176
     1
 41
-30.0
176
     1
 62
     5
 63
     7
421
 16777215
176
     1
 74
     1
176
     1
 91
        4
176
     1
 64
     7
176
     1
 65
   257
176
     1
 75
     1
176
     1
175
     1
176
     1
 42
1.0
176
     1
 92
        8
176
     1
 66
     7
176
     1
 43
1.0
176
     1
 76
     1
176
     1
 77
     6
176
     1
 78
     2
176
     1
 67
     7
176
     1
 79
     5
176
     1
170
     0
176
     1
171
     0
176
     1
290
     0
176
     1
 93
        1
176
     1
 44
-50.0
176
     1
173
     0
176
     1
  0
VISUALSTYLE
  5
39
102
{ACAD_REACTORS
330
2A
102
}
330
2A
100
AcDbVisualStyle
  2
Facepattern
 70
    15
177
     2
291
     1
 71
     2
176
     1
 72
     2
176
     1
 73
     0
176
     1
 90
        0
176
     1
 40
-0.6
176
     1
 41
-30.0
176
     1
 62
     5
 63
     7
421
 16777215
176
     1
 74
     1
176
     1
 91
        4
176
     1
 64
     7
176
     1
 65
   257
176
     1
 75
     1
176
     1
175
     1
176
     1
 42
1.0
176
     1
 92
        8
176
     1
 66
     7
176
     1
 43
1.0
176
     1
 76
     1
176
     1
 77
     6
176
     1
 78
     2
176
     1
 67
     7
176
     1
 79
     5
176
     1
170
     0
176
     1
171
     0
176
     1
290
     0
176
     1
 93
        1
176
     1
 44
0.0
176
     1
173
     0
176
     1
  0
VISUALSTYLE
  5
2B
102
{ACAD_REACTORS
330
2A
102
}
330
2A
100
AcDbVisualStyle
  2
Flat
 70
     0
177
     2
291
     1
 71
     2
176
     1
 72
     1
176
     1
 73
     1
176
     1
 90
        2
176
     1
 40
-0.6
176
     1
 41
30.0
176
     1
 62
     5
 63
     7
421
 16777215
176
     1
 74
     0
176
     1
 91
        4
176
     1
 64
     7
176
     1
 65
   257
176
     1
 75
     1
176
     1
175
     1
176
     1
 42
1.0
176
     1
 92
        8
176
     1
 66
     7
176
     1
 43
1.0
176
     1
 76
     1
176
     1
 77
     6
176
     1
 78
     2
176
     1
 67
     7
176
     1
 79
     5
176
     1
170
     0
176
     1
171
     0
176
     1
290
     0
176
     1
 93
       13
176
     1
 44
0.0
176
     1
173
     0
176
     1
  0
VISUALSTYLE
  5
2C
102
{ACAD_REACTORS
330
2A
102
}
330
2A
100
AcDbVisualStyle
  2
FlatWithEdges
 70
     1
177
     2
291
     1
 71
     2
176
     1
 72
     1
176
     1
 73
     1
176
     1
 90
        2
176
     1
 40
-0.6
176
     1
 41
30.0
176
     1
 62
     5
 63
     7
421
 16777215
176
     1
 74
     1
176
     1
 91
        4
176
     1
 64
     7
176
     1
 65
   257
176
     1
 75
     1
176
     1
175
     1
176
     1
 42
1.0
176
     1
 92
        0
176
     1
 66
   257
176
     1
 43
1.0
176
     1
 76
     1
176
     1
 77
     6
176
     1
 78
     2
176
     1
 67
     7
176
     1
 79
     5
176
     1
170
     0
176
     1
171
     0
176
     1
290
     0
176
     1
 93
       13
176
     1
 44
0.0
176
     1
173
     0
176
     1
  0
VISUALSTYLE
  5
2D
102
{ACAD_REACTORS
330
2A
102
}
330
2A
100
AcDbVisualStyle
  2
Gouraud
 70
     2
177
     2
291
     1
 71
     2
176
     1
 72
     2
176
     1
 73
     1
176
     1
 90
        2
176
     1
 40
-0.6
176
     1
 41
30.0
176
     1
 62
     5
 63
     7
421
 16777215
176
     1
 74
     0
176
     1
 91
        4
176
     1
 64
     7
176
     1
 65
   257
176
     1
 75
     1
176
     1
175
     1
176
     1
 42
1.0
176
     1
 92
        0
176
     1
 66
     7
176
     1
 43
1.0
176
     1
 76
     1
176
     1
 77
     6
176
     1
 78
     2
176
     1
 67
     7
176
     1
 79
     5
176
     1
170
     0
176
     1
171
     0
176
     1
290
     0
176
     1
 93
       13
176
     1
 44
0.0
176
     1
173
     0
176
     1
  0
VISUALSTYLE
  5
2E
102
{ACAD_REACTORS
330
2A
102
}
330
2A
100
AcDbVisualStyle
  2
GouraudWithEdges
 70
     3
177
     2
291
     1
 71
     2
176
     1
 72
     2
176
     1
 73
     1
176
     1
 90
        2
176
     1
 40
-0.6
176
     1
 41
30.0
176
     1
 62
     5
 63
     7
421
 16777215
176
     1
 74
     1
176
     1
 91
        4
176
     1
 64
     7
176
     1
 65
   257
176
     1
 75
     1
176
     1
175
     1
176
     1
 42
1.0
176
     1
 92
        0
176
     1
 66
   257
176
     1
 43
1.0
176
     1
 76
     1
176
     1
 77
     6
176
     1
 78
     2
176
     1
 67
     7
176
     1
 79
     5
176
     1
170
     0
176
     1
171
     0
176
     1
290
     0
176
     1
 93
       13
176
     1
 44
0.0
176
     1
173
     0
176
     1
  0
VISUALSTYLE
  5
38
102
{ACAD_REACTORS
330
2A
102
}
330
2A
100
AcDbVisualStyle
  2
Linepattern
 70
    14
177
     2
291
     1
 71
     2
176
     1
 72
     2
176
     1
 73
     0
176
     1
 90
        0
176
     1
 40
-0.6
176
     1
 41
-30.0
176
     1
 62
     5
 63
     7
421
 16777215
176
     1
 74
     1
176
     1
 91
        4
176
     1
 64
     7
176
     1
 65
   257
176
     1
 75
     7
176
     1
175
     7
176
     1
 42
1.0
176
     1
 92
        8
176
     1
 66
     7
176
     1
 43
1.0
176
     1
 76
     1
176
     1
 77
     6
176
     1
 78
     2
176
     1
 67
     7
176
     1
 79
     5
176
     1
170
     0
176
     1
171
     0
176
     1
290
     0
176
     1
 93
        1
176
     1
 44
0.0
176
     1
173
     0
176
     1
  0
VISUALSTYLE
  5
33
102
{ACAD_REACTORS
330
2A
102
}
330
2A
100
AcDbVisualStyle
  2
Realistic
 70
     8
177
     2
291
     0
 71
     2
176
     1
 72
     2
176
     1
 73
     0
176
     1
 90
        0
176
     1
 40
-0.6
176
     1
 41
-30.0
176
     1
 62
     5
 63
     7
421
 16777215
176
     1
 74
     1
176
     1
 91
        0
176
     1
 64
     7
176
     1
 65
   257
176
     1
 75
     1
176
     1
175
     1
176
     1
 42
1.0
176
     1
 92
        8
176
     1
 66
     8
424
  7895160
176
     1
 43
1.0
176
     1
 76
     1
176
     1
 77
     6
176
     1
 78
     2
176
     1
 67
     7
176
     1
 79
     5
176
     1
170
     0
176
     1
171
     0
176
     1
290
     0
176
     1
 93
       13
176
     1
 44
0.0
176
     1
173
     0
176
     1
  0
VISUALSTYLE
  5
37
102
{ACAD_REACTORS
330
2A
102
}
330
2A
100
AcDbVisualStyle
  2
Thicken
 70
    13
177
     2
291
     1
 71
     2
176
     1
 72
     2
176
     1
 73
     0
176
     1
 90
        0
176
     1
 40
-0.6
176
     1
 41
-30.0
176
     1
 62
     5
 63
     7
421
 16777215
176
     1
 74
     1
176
     1
 91
        4
176
     1
 64
     7
176
     1
 65
   257
176
     1
 75
     1
176
     1
175
     1
176
     1
 42
1.0
176
     1
 92
       12
176
     1
 66
     7
176
     1
 43
1.0
176
     1
 76
     1
176
     1
 77
     6
176
     1
 78
     2
176
     1
 67
     7
176
     1
 79
     5
176
     1
170
     0
176
     1
171
     0
176
     1
290
     0
176
     1
 93
        1
176
     1
 44
0.0
176
     1
173
     0
176
     1
  0
ENDSEC
  0
EOF
