  0
SECTION
  2
HEADER
  9
$ACADVER
  1
AC1024
  9
$ACADMAINTVER
 70
     6
  9
$DWGCODEPAGE
  3
UNDEFINED
  9
$INSBASE
 10
0.0
 20
0.0
 30
0.0
  9
$EXTMIN
 10
1.000000000000000E+20
 20
1.000000000000000E+20
 30
1.000000000000000E+20
  9
$EXTMAX
 10
-1.000000000000000E+20
 20
-1.000000000000000E+20
 30
-1.000000000000000E+20
  9
$LIMMIN
 10
0.0
 20
0.0
  9
$LIMMAX
 10
12.0
 20
9.0
  9
$ORTHOMODE
 70
     0
  9
$REGENMODE
 70
     1
  9
$FILLMODE
 70
     1
  9
$QTEXTMODE
 70
     0
  9
$MIRRTEXT
 70
     1
  9
$LTSCALE
 40
1.0
  9
$ATTMODE
 70
     1
  9
$TEXTSIZE
 40
0.2
  9
$TRACEWID
 40
0.05
  9
$TEXTSTYLE
  7
Standard
  9
$CLAYER
  8
0
  9
$CELTYPE
  6
ByLayer
  9
$CECOLOR
 62
   256
  9
$CELTSCALE
 40
1.0
  9
$DISPSILH
 70
     0
  9
$DIMSCALE
 40
1.0
  9
$DIMASZ
 40
0.18
  9
$DIMEXO
 40
0.0625
  9
$DIMDLI
 40
0.38
  9
$DIMRND
 40
0.0
  9
$DIMDLE
 40
0.0
  9
$DIMEXE
 40
0.18
  9
$DIMTP
 40
0.0
  9
$DIMTM
 40
0.0
  9
$DIMTXT
 40
0.18
  9
$DIMCEN
 40
0.09
  9
$DIMTSZ
 40
0.0
  9
$DIMTOL
 70
     0
  9
$DIMLIM
 70
     0
  9
$DIMTIH
 70
     1
  9
$DIMTOH
 70
     1
  9
$DIMSE1
 70
     0
  9
$DIMSE2
 70
     0
  9
$DIMTAD
 70
     0
  9
$DIMZIN
 70
     0
  9
$DIMBLK
  1

  9
$DIMASO
 70
     1
  9
$DIMSHO
 70
     1
  9
$DIMPOST
  1

  9
$DIMAPOST
  1

  9
$DIMALT
 70
     0
  9
$DIMALTD
 70
     2
  9
$DIMALTF
 40
25.4
  9
$DIMLFAC
 40
1.0
  9
$DIMTOFL
 70
     0
  9
$DIMTVP
 40
0.0
  9
$DIMTIX
 70
     0
  9
$DIMSOXD
 70
     0
  9
$DIMSAH
 70
     0
  9
$DIMBLK1
  1

  9
$DIMBLK2
  1

  9
$DIMSTYLE
  2
Standard
  9
$DIMCLRD
 70
     0
  9
$DIMCLRE
 70
     0
  9
$DIMCLRT
 70
     0
  9
$DIMTFAC
 40
1.0
  9
$DIMGAP
 40
0.09
  9
$DIMJUST
 70
     0
  9
$DIMSD1
 70
     0
  9
$DIMSD2
 70
     0
  9
$DIMTOLJ
 70
     1
  9
$DIMTZIN
 70
     0
  9
$DIMALTZ
 70
     0
  9
$DIMALTTZ
 70
     0
  9
$DIMUPT
 70
     0
  9
$DIMDEC
 70
     4
  9
$DIMTDEC
 70
     4
  9
$DIMALTU
 70
     2
  9
$DIMALTTD
 70
     2
  9
$DIMTXSTY
  7
Standard
  9
$DIMAUNIT
 70
     0
  9
$DIMADEC
 70
     0
  9
$DIMALTRND
 40
0.0
  9
$DIMAZIN
 70
     0
  9
$DIMDSEP
 70
    46
  9
$DIMATFIT
 70
     3
  9
$DIMFRAC
 70
     0
  9
$DIMLDRBLK
  1

  9
$DIMLUNIT
 70
     2
  9
$DIMLWD
 70
    -2
  9
$DIMLWE
 70
    -2
  9
$DIMTMOVE
 70
     0
  9
$DIMFXL
 40
1.0
  9
$DIMFXLON
 70
     0
  9
$DIMJOGANG
 40
0.7853981633974483
  9
$DIMTFILL
 70
     0
  9
$DIMTFILLCLR
 70
     0
  9
$DIMARCSYM
 70
     0
  9
$DIMLTYPE
  6

  9
$DIMLTEX1
  6

  9
$DIMLTEX2
  6

  9
$DIMTXTDIRECTION
 70
     0
  9
$LUNITS
 70
     2
  9
$LUPREC
 70
     4
  9
$SKETCHINC
 40
0.1
  9
$FILLETRAD
 40
0.5
  9
$AUNITS
 70
     0
  9
$AUPREC
 70
     0
  9
$MENU
  1
.
  9
$ELEVATION
 40
0.0
  9
$PELEVATION
 40
0.0
  9
$THICKNESS
 40
0.0
  9
$LIMCHECK
 70
     0
  9
$CHAMFERA
 40
0.5
  9
$CHAMFERB
 40
0.5
  9
$CHAMFERC
 40
1.0
  9
$CHAMFERD
 40
0.0
  9
$SKPOLY
 70
     0
  9
$TDCREATE
 40
2457917.627453704
  9
$TDUCREATE
 40
2457917.252453704
  9
$TDUPDATE
 40
2457917.627453704
  9
$TDUUPDATE
 40
2457917.252453704
  9
$TDINDWG
 40
0.0000000116
  9
$TDUSRTIMER
 40
0.0000000116
  9
$USRTIMER
 70
     1
  9
$ANGBASE
 50
0.0
  9
$ANGDIR
 70
     0
  9
$PDMODE
 70
     0
  9
$PDSIZE
 40
0.0
  9
$PLINEWID
 40
0.0
  9
$SPLFRAME
 70
     0
  9
$SPLINETYPE
 70
     6
  9
$SPLINESEGS
 70
     8
  9
$HANDSEED
  5
F5
  9
$SURFTAB1
 70
     6
  9
$SURFTAB2
 70
     6
  9
$SURFTYPE
 70
     6
  9
$SURFU
 70
     6
  9
$SURFV
 70
     6
  9
$UCSBASE
  2

  9
$UCSNAME
  2

  9
$UCSORG
 10
0.0
 20
0.0
 30
0.0
  9
$UCSXDIR
 10
1.0
 20
0.0
 30
0.0
  9
$UCSYDIR
 10
0.0
 20
1.0
 30
0.0
  9
$UCSORTHOREF
  2

  9
$UCSORTHOVIEW
 70
     0
  9
$UCSORGTOP
 10
0.0
 20
0.0
 30
0.0
  9
$UCSORGBOTTOM
 10
0.0
 20
0.0
 30
0.0
  9
$UCSORGLEFT
 10
0.0
 20
0.0
 30
0.0
  9
$UCSORGRIGHT
 10
0.0
 20
0.0
 30
0.0
  9
$UCSORGFRONT
 10
0.0
 20
0.0
 30
0.0
  9
$UCSORGBACK
 10
0.0
 20
0.0
 30
0.0
  9
$PUCSBASE
  2

  9
$PUCSNAME
  2

  9
$PUCSORG
 10
0.0
 20
0.0
 30
0.0
  9
$PUCSXDIR
 10
1.0
 20
0.0
 30
0.0
  9
$PUCSYDIR
 10
0.0
 20
1.0
 30
0.0
  9
$PUCSORTHOREF
  2

  9
$PUCSORTHOVIEW
 70
     0
  9
$PUCSORGTOP
 10
0.0
 20
0.0
 30
0.0
  9
$PUCSORGBOTTOM
 10
0.0
 20
0.0
 30
0.0
  9
$PUCSORGLEFT
 10
0.0
 20
0.0
 30
0.0
  9
$PUCSORGRIGHT
 10
0.0
 20
0.0
 30
0.0
  9
$PUCSORGFRONT
 10
0.0
 20
0.0
 30
0.0
  9
$PUCSORGBACK
 10
0.0
 20
0.0
 30
0.0
  9
$USERI1
 70
     0
  9
$USERI2
 70
     0
  9
$USERI3
 70
     0
  9
$USERI4
 70
     0
  9
$USERI5
 70
     0
  9
$USERR1
 40
0.0
  9
$USERR2
 40
0.0
  9
$USERR3
 40
0.0
  9
$USERR4
 40
0.0
  9
$USERR5
 40
0.0
  9
$WORLDVIEW
 70
     1
  9
$SHADEDGE
 70
     3
  9
$SHADEDIF
 70
    70
  9
$TILEMODE
 70
     1
  9
$MAXACTVP
 70
    64
  9
$PINSBASE
 10
0.0
 20
0.0
 30
0.0
  9
$PLIMCHECK
 70
     0
  9
$PEXTMIN
 10
1.000000000000000E+20
 20
1.000000000000000E+20
 30
1.000000000000000E+20
  9
$PEXTMAX
 10
-1.000000000000000E+20
 20
-1.000000000000000E+20
 30
-1.000000000000000E+20
  9
$PLIMMIN
 10
0.0
 20
0.0
  9
$PLIMMAX
 10
12.0
 20
9.0
  9
$UNITMODE
 70
     0
  9
$VISRETAIN
 70
     1
  9
$PLINEGEN
 70
     0
  9
$PSLTSCALE
 70
     1
  9
$TREEDEPTH
 70
  3020
  9
$CMLSTYLE
  2
Standard
  9
$CMLJUST
 70
     0
  9
$CMLSCALE
 40
1.0
  9
$PROXYGRAPHICS
 70
     1
  9
$MEASUREMENT
 70
     0
  9
$CELWEIGHT
370
    -1
  9
$ENDCAPS
280
     0
  9
$JOINSTYLE
280
     0
  9
$LWDISPLAY
290
     1
  9
$INSUNITS
 70
     1
  9
$HYPERLINKBASE
  1

  9
$STYLESHEET
  1

  9
$XEDIT
290
     1
  9
$CEPSNTYPE
380
     0
  9
$PSTYLEMODE
290
     1
  9
$FINGERPRINTGUID
  2
{74D7C3DE-E56D-29A4-2C7E-0B6511E17A43}
  9
$VERSIONGUID
  2
{FAEB1C32-E019-11D5-929B-00C0DF256EC4}
  9
$EXTNAMES
290
     1
  9
$PSVPSCALE
 40
0.0
  9
$OLESTARTUP
290
     0
  9
$SORTENTS
280
   127
  9
$INDEXCTL
280
     0
  9
$HIDETEXT
280
     1
  9
$XCLIPFRAME
280
     2
  9
$HALOGAP
280
     0
  9
$OBSCOLOR
 70
   257
  9
$OBSLTYPE
280
     0
  9
$INTERSECTIONDISPLAY
280
     0
  9
$INTERSECTIONCOLOR
 70
   257
  9
$DIMASSOC
280
     2
  9
$PROJECTNAME
  1

  9
$CAMERADISPLAY
290
     0
  9
$LENSLENGTH
 40
50.0
  9
$CAMERAHEIGHT
 40
0.0
  9
$STEPSPERSEC
 40
2.0
  9
$STEPSIZE
 40
6.0
  9
$3DDWFPREC
 40
2.0
  9
$PSOLWIDTH
 40
0.25
  9
$PSOLHEIGHT
 40
4.0
  9
$LOFTANG1
 40
1.570796326794897
  9
$LOFTANG2
 40
1.570796326794897
  9
$LOFTMAG1
 40
0.0
  9
$LOFTMAG2
 40
0.0
  9
$LOFTPARAM
 70
     7
  9
$LOFTNORMALS
280
     1
  9
$LATITUDE
 40
37.795
  9
$LONGITUDE
 40
-122.394
  9
$NORTHDIRECTION
 40
0.0
  9
$TIMEZONE
 70
 -8000
  9
$LIGHTGLYPHDISPLAY
280
     1
  9
$TILEMODELIGHTSYNCH
280
     1
  9
$CMATERIAL
347
3C
  9
$SOLIDHIST
280
     1
  9
$SHOWHIST
280
     1
  9
$DWFFRAME
280
     2
  9
$DGNFRAME
280
     2
  9
$REALWORLDSCALE
290
     1
  9
$INTERFERECOLOR
 62
   256
  9
$CSHADOW
280
     0
  9
$SHADOWPLANELOCATION
 40
0.0
  0
ENDSEC
  0
SECTION
  2
CLASSES
  0
CLASS
  1
ACDBDICTIONARYWDFLT
  2
AcDbDictionaryWithDefault
  3
ObjectDBX Classes
 90
        0
 91
        4
280
     0
281
     0
  0
CLASS
  1
VISUALSTYLE
  2
AcDbVisualStyle
  3
ObjectDBX Classes
 90
     4095
 91
        4
280
     0
281
     0
  0
CLASS
  1
MATERIAL
  2
AcDbMaterial
  3
ObjectDBX Classes
 90
     1153
 91
        4
280
     0
281
     0
  0
CLASS
  1
SUN
  2
AcDbSun
  3
SCENEOE
 90
     1024
 91
        4
280
     0
281
     0
  0
ENDSEC
  0
SECTION
  2
TABLES
  0
TABLE
  2
VPORT
  5
8
330
0
100
AcDbSymbolTable
 70
     1
  0
VPORT
  5
29
330
8
100
AcDbSymbolTableRecord
100
AcDbViewportTableRecord
  2
*Active
 70
     0
 10
0.0
 20
0.0
 11
1.0
 21
1.0
 12
0.0
 22
0.0
 13
0.0
 23
0.0
 14
0.5
 24
0.5
 15
0.5
 25
0.5
 16
0.0
 26
0.0
 36
1.0
 17
91.00082462281999
 27
-128.4993055234307
 37
0.0
 40
256.9986110468615
 41
0.7081814508812795
 42
50.0
 43
0.0
 44
0.0
 50
0.0
 51
0.0
 71
     0
 72
   100
 73
     1
 74
     3
 75
     0
 76
     0
 77
     0
 78
     0
281
     0
 65
     1
110
0.0
120
0.0
130
0.0
111
1.0
121
0.0
131
0.0
112
0.0
122
1.0
132
0.0
 79
     0
146
0.0
 60
     3
 61
     5
292
     1
282
     1
141
0.0
142
0.0
 63
   250
361
3F
  0
ENDTAB
  0
TABLE
  2
LTYPE
  5
5
330
0
100
AcDbSymbolTable
 70
     1
  0
LTYPE
  5
14
330
5
100
AcDbSymbolTableRecord
100
AcDbLinetypeTableRecord
  2
ByBlock
 70
     0
  3

 72
    65
 73
     0
 40
0.0
  0
LTYPE
  5
15
330
5
100
AcDbSymbolTableRecord
100
AcDbLinetypeTableRecord
  2
ByLayer
 70
     0
  3

 72
    65
 73
     0
 40
0.0
  0
LTYPE
  5
16
330
5
100
AcDbSymbolTableRecord
100
AcDbLinetypeTableRecord
  2
Continuous
 70
     0
  3
Solid line
 72
    65
 73
     0
 40
0.0
  0
ENDTAB
  0
TABLE
  2
LAYER
  5
2
330
0
100
AcDbSymbolTable
 70
     2
  0
LAYER
  5
10
330
2
100
AcDbSymbolTableRecord
100
AcDbLayerTableRecord
  2
0
 70
     0
 62
     7
  6
Continuous
370
    -3
390
F
347
3E
  0
LAYER
  5
40
330
2
100
AcDbSymbolTableRecord
100
AcDbLayerTableRecord
  2
_U+30EC_U+30A4_U+30E4_U+30FC 1
 70
     0
 62
     7
  6
Continuous
370
    -3
390
F
347
3E
  0
ENDTAB
  0
TABLE
  2
STYLE
  5
3
330
0
100
AcDbSymbolTable
 70
     1
  0
STYLE
  5
11
330
3
100
AcDbSymbolTableRecord
100
AcDbTextStyleTableRecord
  2
Standard
 70
     0
 40
0.0
 41
1.0
 50
0.0
 71
     0
 42
0.2
  3
txt
  4

  0
ENDTAB
  0
TABLE
  2
VIEW
  5
6
330
0
100
AcDbSymbolTable
 70
     0
  0
ENDTAB
  0
TABLE
  2
UCS
  5
7
330
0
100
AcDbSymbolTable
 70
     0
  0
ENDTAB
  0
TABLE
  2
APPID
  5
9
330
0
100
AcDbSymbolTable
 70
     1
  0
APPID
  5
12
330
9
100
AcDbSymbolTableRecord
100
AcDbRegAppTableRecord
  2
ACAD
 70
     0
  0
ENDTAB
  0
TABLE
  2
DIMSTYLE
  5
A
330
0
100
AcDbSymbolTable
 70
     1
100
AcDbDimStyleTable
  0
DIMSTYLE
105
27
330
A
100
AcDbSymbolTableRecord
100
AcDbDimStyleTableRecord
  2
Standard
 70
     0
178
     0
340
11
  0
ENDTAB
  0
TABLE
  2
BLOCK_RECORD
  5
1
330
0
100
AcDbSymbolTable
 70
     6
  0
BLOCK_RECORD
  5
1F
330
1
100
AcDbSymbolTableRecord
100
AcDbBlockTableRecord
  2
*Model_Space
340
22
 70
     0
280
     1
281
     0
  0
BLOCK_RECORD
  5
1B
330
1
100
AcDbSymbolTableRecord
100
AcDbBlockTableRecord
  2
*Paper_Space
340
1E
 70
     0
280
     1
281
     0
  0
BLOCK_RECORD
  5
23
330
1
100
AcDbSymbolTableRecord
100
AcDbBlockTableRecord
  2
*Paper_Space0
340
26
 70
     0
280
     1
281
     0
  0
BLOCK_RECORD
  5
87
330
1
100
AcDbSymbolTableRecord
100
AcDbBlockTableRecord
  2
block 2
340
0
102
{BLKREFS
331
88
102
}
 70
     0
280
     1
281
     0
  0
BLOCK_RECORD
  5
90
330
1
100
AcDbSymbolTableRecord
100
AcDbBlockTableRecord
  2
block 3
340
0
102
{BLKREFS
331
91
102
}
 70
     0
280
     1
281
     0
  0
BLOCK_RECORD
  5
A9
330
1
100
AcDbSymbolTableRecord
100
AcDbBlockTableRecord
  2
block 4
340
0
102
{BLKREFS
331
AA
102
}
 70
     0
280
     1
281
     0
  0
BLOCK_RECORD
  5
AF
330
1
100
AcDbSymbolTableRecord
100
AcDbBlockTableRecord
  2
block 5
340
0
102
{BLKREFS
331
B0
102
}
 70
     0
280
     1
281
     0
  0
BLOCK_RECORD
  5
B5
330
1
100
AcDbSymbolTableRecord
100
AcDbBlockTableRecord
  2
block 6
340
0
102
{BLKREFS
331
B6
102
}
 70
     0
280
     1
281
     0
  0
ENDTAB
  0
ENDSEC
  0
SECTION
  2
BLOCKS
  0
BLOCK
  5
20
330
1F
100
AcDbEntity
  8
0
100
AcDbBlockBegin
  2
*Model_Space
 70
     0
 10
0.0
 20
0.0
 30
0.0
  3
*Model_Space
  1

  0
ENDBLK
  5
21
330
1F
100
AcDbEntity
  8
0
100
AcDbBlockEnd
  0
BLOCK
  5
1C
330
1B
100
AcDbEntity
 67
     1
  8
0
100
AcDbBlockBegin
  2
*Paper_Space
 70
     0
 10
0.0
 20
0.0
 30
0.0
  3
*Paper_Space
  1

  0
ENDBLK
  5
1D
330
1B
100
AcDbEntity
 67
     1
  8
0
100
AcDbBlockEnd
  0
BLOCK
  5
24
330
23
100
AcDbEntity
  8
0
100
AcDbBlockBegin
  2
*Paper_Space0
 70
     0
 10
0.0
 20
0.0
 30
0.0
  3
*Paper_Space0
  1

  0
ENDBLK
  5
25
330
23
100
AcDbEntity
  8
0
100
AcDbBlockEnd
  0
BLOCK
  5
89
330
87
100
AcDbEntity
  8
0
100
AcDbBlockBegin
  2
block 2
 70
     0
 10
0.0
 20
0.0
 30
0.0
  3
block 2
  1

  0
SPLINE
  5
8B
330
87
100
AcDbEntity
  8
_U+30EC_U+30A4_U+30E4_U+30FC 1
370
     0
100
AcDbSpline
210
0.0
220
0.0
230
1.0
 70
    11
 71
     3
 72
    62
 73
    58
 74
     0
 42
0.0000000001
 43
0.0000000001
 12
1.0
 22
0.0
 32
0.0
 13
1.0
 23
0.0
 33
0.0
 40
0.0
 40
0.0
 40
0.0
 40
0.0
 40
1.0
 40
1.0
 40
1.0
 40
2.0
 40
2.0
 40
2.0
 40
3.0
 40
3.0
 40
3.0
 40
4.0
 40
4.0
 40
4.0
 40
5.0
 40
5.0
 40
5.0
 40
6.0
 40
6.0
 40
6.0
 40
7.0
 40
7.0
 40
7.0
 40
8.0
 40
8.0
 40
8.0
 40
9.0
 40
9.0
 40
9.0
 40
10.0
 40
10.0
 40
10.0
 40
11.0
 40
11.0
 40
11.0
 40
12.0
 40
12.0
 40
12.0
 40
13.0
 40
13.0
 40
13.0
 40
14.0
 40
14.0
 40
14.0
 40
15.0
 40
15.0
 40
15.0
 40
16.0
 40
16.0
 40
16.0
 40
17.0
 40
17.0
 40
17.0
 40
18.0
 40
18.0
 40
18.0
 40
19.0
 40
19.0
 40
19.0
 40
19.0
 10
88.1427679901171
 20
-139.5594400692768
 30
0.0
 10
88.04751109994993
 20
-139.5594400692768
 30
0.0
 10
87.82960881050788
 20
-139.5380804772683
 30
0.0
 10
87.70489635394183
 20
-139.3520453210648
 30
0.0
 10
87.63082680100896
 20
-139.2397352082456
 30
0.0
 10
87.6265204316524
 20
-139.1405164582704
 30
0.0
 10
87.6223863170701
 20
-139.0557671093333
 30
0.0
 10
87.6223863170701
 20
-139.0557671093333
 30
0.0
 10
87.8423556638033
 20
-139.0557671093333
 30
0.0
 10
87.8423556638033
 20
-139.0557671093333
 30
0.0
 10
87.84442272109446
 20
-139.1301811718147
 30
0.0
 10
87.85510251709873
 20
-139.3647921743602
 30
0.0
 10
88.1386338755348
 20
-139.3647921743602
 30
0.0
 10
88.27609318539626
 20
-139.3647921743602
 30
0.0
 10
88.4283664058443
 20
-139.2948567360096
 30
0.0
 10
88.4283664058443
 20
-139.0664469053376
 30
0.0
 10
88.4283664058443
 20
-138.9503471874847
 30
0.0
 10
88.3902981007323
 20
-138.9014268315941
 30
0.0
 10
88.35860322226799
 20
-138.8697319531298
 30
0.0
 10
88.28453366933512
 20
-138.7956624001969
 30
0.0
 10
88.16808944193367
 20
-138.7829155469015
 30
0.0
 10
88.11314016894394
 20
-138.7829155469015
 30
0.0
 10
88.09419214377506
 20
-138.7829155469015
 30
0.0
 10
88.05819089595421
 20
-138.7849826041927
 30
0.0
 10
88.0306301320722
 20
-138.7891167187749
 30
0.0
 10
88.0306301320722
 20
-138.7891167187749
 30
0.0
 10
88.0306301320722
 20
-138.5948133334068
 30
0.0
 10
88.0306301320722
 20
-138.5948133334068
 30
0.0
 10
88.06869843718422
 20
-138.6010145052803
 30
0.0
 10
88.11107311165279
 20
-138.6030815625714
 30
0.0
 10
88.1174465383005
 20
-138.6030815625714
 30
0.0
 10
88.18290335252026
 20
-138.6030815625714
 30
0.0
 10
88.38185761679343
 20
-138.5820664801114
 30
0.0
 10
88.38185761679343
 20
-138.3450439107262
 30
0.0
 10
88.38185761679343
 20
-138.1676214932359
 30
0.0
 10
88.25059947880541
 20
-138.1124999654719
 30
0.0
 10
88.14070093282594
 20
-138.1124999654719
 30
0.0
 10
87.87628985433301
 20
-138.1124999654719
 30
0.0
 10
87.86784937039415
 20
-138.3450439107262
 30
0.0
 10
87.86354300103758
 20
-138.417046406368
 30
0.0
 10
87.86354300103758
 20
-138.417046406368
 30
0.0
 10
87.66045462218212
 20
-138.417046406368
 30
0.0
 10
87.66045462218212
 20
-138.417046406368
 30
0.0
 10
87.66889510612097
 20
-138.2923339498019
 30
0.0
 10
87.69645587000298
 20
-137.9154405037156
 30
0.0
 10
88.1532755313471
 20
-137.9154405037156
 30
0.0
 10
88.37755124743687
 20
-137.9154405037156
 30
0.0
 10
88.61870793140436
 20
-138.0425645271213
 30
0.0
 10
88.61870793140436
 20
-138.3384982293043
 30
0.0
 10
88.61870793140436
 20
-138.5248778950563
 30
0.0
 10
88.52362329601146
 20
-138.6072156771538
 30
0.0
 10
88.42406003648775
 20
-138.6685383767912
 30
0.0
 10
88.48555499089944
 20
-138.6960991406732
 30
0.0
 10
88.66745603252065
 20
-138.7767143750281
 30
0.0
 10
88.66745603252065
 20
-139.0537000520421
 30
0.0
 10
88.66745603252065
 20
-139.3923529382422
 30
0.0
 10
88.41992592190545
 20
-139.5594400692768
 30
0.0
 10
88.1427679901171
 20
-139.5594400692768
 30
0.0
  0
HATCH
  5
8C
330
87
100
AcDbEntity
  8
_U+30EC_U+30A4_U+30E4_U+30FC 1
 62
   179
420
  2234388
100
AcDbHatch
 10
0.0
 20
0.0
 30
0.0
210
0.0
220
0.0
230
1.0
  2
SOLID
 70
     1
 71
     0
 91
        1
 92
        1
 93
        1
 72
     4
 94
        3
 73
     0
 74
     1
 95
       62
 96
       58
 40
0.0
 40
0.0
 40
0.0
 40
0.0
 40
1.0
 40
1.0
 40
1.0
 40
2.0
 40
2.0
 40
2.0
 40
3.0
 40
3.0
 40
3.0
 40
4.0
 40
4.0
 40
4.0
 40
5.0
 40
5.0
 40
5.0
 40
6.0
 40
6.0
 40
6.0
 40
7.0
 40
7.0
 40
7.0
 40
8.0
 40
8.0
 40
8.0
 40
9.0
 40
9.0
 40
9.0
 40
10.0
 40
10.0
 40
10.0
 40
11.0
 40
11.0
 40
11.0
 40
12.0
 40
12.0
 40
12.0
 40
13.0
 40
13.0
 40
13.0
 40
14.0
 40
14.0
 40
14.0
 40
15.0
 40
15.0
 40
15.0
 40
16.0
 40
16.0
 40
16.0
 40
17.0
 40
17.0
 40
17.0
 40
18.0
 40
18.0
 40
18.0
 40
19.0
 40
19.0
 40
19.0
 40
19.0
 10
88.1427679901171
 20
-139.5594400692768
 10
88.04751109994993
 20
-139.5594400692768
 10
87.82960881050788
 20
-139.5380804772683
 10
87.70489635394183
 20
-139.3520453210648
 10
87.63082680100896
 20
-139.2397352082456
 10
87.6265204316524
 20
-139.1405164582704
 10
87.6223863170701
 20
-139.0557671093333
 10
87.6223863170701
 20
-139.0557671093333
 10
87.8423556638033
 20
-139.0557671093333
 10
87.8423556638033
 20
-139.0557671093333
 10
87.84442272109446
 20
-139.1301811718147
 10
87.85510251709873
 20
-139.3647921743602
 10
88.1386338755348
 20
-139.3647921743602
 10
88.27609318539626
 20
-139.3647921743602
 10
88.4283664058443
 20
-139.2948567360096
 10
88.4283664058443
 20
-139.0664469053376
 10
88.4283664058443
 20
-138.9503471874847
 10
88.3902981007323
 20
-138.9014268315941
 10
88.35860322226799
 20
-138.8697319531298
 10
88.28453366933512
 20
-138.7956624001969
 10
88.16808944193367
 20
-138.7829155469015
 10
88.11314016894394
 20
-138.7829155469015
 10
88.09419214377506
 20
-138.7829155469015
 10
88.05819089595421
 20
-138.7849826041927
 10
88.0306301320722
 20
-138.7891167187749
 10
88.0306301320722
 20
-138.7891167187749
 10
88.0306301320722
 20
-138.5948133334068
 10
88.0306301320722
 20
-138.5948133334068
 10
88.06869843718422
 20
-138.6010145052803
 10
88.11107311165279
 20
-138.6030815625714
 10
88.1174465383005
 20
-138.6030815625714
 10
88.18290335252026
 20
-138.6030815625714
 10
88.38185761679343
 20
-138.5820664801114
 10
88.38185761679343
 20
-138.3450439107262
 10
88.38185761679343
 20
-138.1676214932359
 10
88.25059947880541
 20
-138.1124999654719
 10
88.14070093282594
 20
-138.1124999654719
 10
87.87628985433301
 20
-138.1124999654719
 10
87.86784937039415
 20
-138.3450439107262
 10
87.86354300103758
 20
-138.417046406368
 10
87.86354300103758
 20
-138.417046406368
 10
87.66045462218212
 20
-138.417046406368
 10
87.66045462218212
 20
-138.417046406368
 10
87.66889510612097
 20
-138.2923339498019
 10
87.69645587000298
 20
-137.9154405037156
 10
88.1532755313471
 20
-137.9154405037156
 10
88.37755124743687
 20
-137.9154405037156
 10
88.61870793140436
 20
-138.0425645271213
 10
88.61870793140436
 20
-138.3384982293043
 10
88.61870793140436
 20
-138.5248778950563
 10
88.52362329601146
 20
-138.6072156771538
 10
88.42406003648775
 20
-138.6685383767912
 10
88.48555499089944
 20
-138.6960991406732
 10
88.66745603252065
 20
-138.7767143750281
 10
88.66745603252065
 20
-139.0537000520421
 10
88.66745603252065
 20
-139.3923529382422
 10
88.41992592190545
 20
-139.5594400692768
 10
88.1427679901171
 20
-139.5594400692768
 97
        0
 97
        0
 75
     2
 76
     1
 98
        0
  0
SPLINE
  5
8D
330
87
100
AcDbEntity
  8
_U+30EC_U+30A4_U+30E4_U+30FC 1
370
     0
100
AcDbSpline
210
0.0
220
0.0
230
1.0
 70
    11
 71
     3
 72
    29
 73
    25
 74
     0
 42
0.0000000001
 43
0.0000000001
 12
1.0
 22
0.0
 32
0.0
 13
1.0
 23
0.0
 33
0.0
 40
0.0
 40
0.0
 40
0.0
 40
0.0
 40
1.0
 40
1.0
 40
1.0
 40
2.0
 40
2.0
 40
2.0
 40
3.0
 40
3.0
 40
3.0
 40
4.0
 40
4.0
 40
4.0
 40
5.0
 40
5.0
 40
5.0
 40
6.0
 40
6.0
 40
6.0
 40
7.0
 40
7.0
 40
7.0
 40
8.0
 40
8.0
 40
8.0
 40
8.0
 10
89.72596162036365
 20
-139.3306857290562
 30
0.0
 10
89.61813013167533
 20
-139.5401475345594
 30
0.0
 10
89.444669573993
 20
-139.5594400692768
 30
0.0
 10
89.32822534659157
 20
-139.5594400692768
 30
0.0
 10
89.16751164220466
 20
-139.5594400692768
 30
0.0
 10
89.02574596298662
 20
-139.5129312802259
 30
0.0
 10
88.93048907281947
 20
-139.3306857290562
 30
0.0
 10
88.8269639534877
 20
-139.1363823436881
 30
0.0
 10
88.80784367354457
 20
-138.899359774303
 30
0.0
 10
88.80784367354457
 20
-138.7364067578506
 30
0.0
 10
88.80784367354457
 20
-138.5927462761157
 30
0.0
 10
88.82472464142229
 20
-138.3409097961439
 30
0.0
 10
88.93048907281947
 20
-138.142127786645
 30
0.0
 10
89.03849281628204
 20
-137.9388671530153
 30
0.0
 10
89.19920652066895
 20
-137.9154405037156
 30
0.0
 10
89.32822534659157
 20
-137.9154405037156
 30
0.0
 10
89.48687199368732
 20
-137.9154405037156
 30
0.0
 10
89.6307047301965
 20
-137.9602267450238
 30
0.0
 10
89.72596162036365
 20
-138.142127786645
 30
0.0
 10
89.82535262511311
 20
-138.334364114722
 30
0.0
 10
89.84860701963855
 20
-138.5631184549426
 30
0.0
 10
89.84860701963855
 20
-138.7364067578506
 30
0.0
 10
89.84860701963855
 20
-138.9076280034676
 30
0.0
 10
89.82759193717852
 20
-139.1384494009793
 30
0.0
 10
89.72596162036365
 20
-139.3306857290562
 30
0.0
  0
SPLINE
  5
8E
330
87
100
AcDbEntity
  8
_U+30EC_U+30A4_U+30E4_U+30FC 1
370
     0
100
AcDbSpline
210
0.0
220
0.0
230
1.0
 70
    11
 71
     3
 72
    17
 73
    13
 74
     0
 42
0.0000000001
 43
0.0000000001
 12
1.0
 22
0.0
 32
0.0
 13
1.0
 23
0.0
 33
0.0
 40
0.0
 40
0.0
 40
0.0
 40
0.0
 40
1.0
 40
1.0
 40
1.0
 40
2.0
 40
2.0
 40
2.0
 40
3.0
 40
3.0
 40
3.0
 40
4.0
 40
4.0
 40
4.0
 40
4.0
 10
89.32822534659157
 20
-138.1083658508896
 30
0.0
 10
89.07862817868521
 20
-138.1083658508896
 30
0.0
 10
89.03211938963433
 20
-138.3915526997771
 30
0.0
 10
89.03211938963433
 20
-138.7364067578506
 30
0.0
 10
89.03211938963433
 20
-139.0557671093333
 30
0.0
 10
89.0681206374552
 20
-139.3647921743602
 30
0.0
 10
89.32822534659157
 20
-139.3647921743602
 30
0.0
 10
89.57575545720675
 20
-139.3647921743602
 30
0.0
 10
89.62450355832304
 20
-139.0833278732153
 30
0.0
 10
89.62450355832304
 20
-138.7364067578506
 30
0.0
 10
89.62450355832304
 20
-138.417046406368
 30
0.0
 10
89.58626299843677
 20
-138.1083658508896
 30
0.0
 10
89.32822534659157
 20
-138.1083658508896
 30
0.0
  0
HATCH
  5
8F
330
87
100
AcDbEntity
  8
_U+30EC_U+30A4_U+30E4_U+30FC 1
 62
   179
420
  2234388
100
AcDbHatch
 10
0.0
 20
0.0
 30
0.0
210
0.0
220
0.0
230
1.0
  2
SOLID
 70
     1
 71
     0
 91
        2
 92
        1
 93
        1
 72
     4
 94
        3
 73
     0
 74
     1
 95
       29
 96
       25
 40
0.0
 40
0.0
 40
0.0
 40
0.0
 40
1.0
 40
1.0
 40
1.0
 40
2.0
 40
2.0
 40
2.0
 40
3.0
 40
3.0
 40
3.0
 40
4.0
 40
4.0
 40
4.0
 40
5.0
 40
5.0
 40
5.0
 40
6.0
 40
6.0
 40
6.0
 40
7.0
 40
7.0
 40
7.0
 40
8.0
 40
8.0
 40
8.0
 40
8.0
 10
89.72596162036365
 20
-139.3306857290562
 10
89.61813013167533
 20
-139.5401475345594
 10
89.444669573993
 20
-139.5594400692768
 10
89.32822534659157
 20
-139.5594400692768
 10
89.16751164220466
 20
-139.5594400692768
 10
89.02574596298662
 20
-139.5129312802259
 10
88.93048907281947
 20
-139.3306857290562
 10
88.8269639534877
 20
-139.1363823436881
 10
88.80784367354457
 20
-138.899359774303
 10
88.80784367354457
 20
-138.7364067578506
 10
88.80784367354457
 20
-138.5927462761157
 10
88.82472464142229
 20
-138.3409097961439
 10
88.93048907281947
 20
-138.142127786645
 10
89.03849281628204
 20
-137.9388671530153
 10
89.19920652066895
 20
-137.9154405037156
 10
89.32822534659157
 20
-137.9154405037156
 10
89.48687199368732
 20
-137.9154405037156
 10
89.6307047301965
 20
-137.9602267450238
 10
89.72596162036365
 20
-138.142127786645
 10
89.82535262511311
 20
-138.334364114722
 10
89.84860701963855
 20
-138.5631184549426
 10
89.84860701963855
 20
-138.7364067578506
 10
89.84860701963855
 20
-138.9076280034676
 10
89.82759193717852
 20
-139.1384494009793
 10
89.72596162036365
 20
-139.3306857290562
 97
        0
 97
        0
 92
        1
 93
        1
 72
     4
 94
        3
 73
     0
 74
     1
 95
       17
 96
       13
 40
0.0
 40
0.0
 40
0.0
 40
0.0
 40
1.0
 40
1.0
 40
1.0
 40
2.0
 40
2.0
 40
2.0
 40
3.0
 40
3.0
 40
3.0
 40
4.0
 40
4.0
 40
4.0
 40
4.0
 10
89.32822534659157
 20
-138.1083658508896
 10
89.07862817868521
 20
-138.1083658508896
 10
89.03211938963433
 20
-138.3915526997771
 10
89.03211938963433
 20
-138.7364067578506
 10
89.03211938963433
 20
-139.0557671093333
 10
89.0681206374552
 20
-139.3647921743602
 10
89.32822534659157
 20
-139.3647921743602
 10
89.57575545720675
 20
-139.3647921743602
 10
89.62450355832304
 20
-139.0833278732153
 10
89.62450355832304
 20
-138.7364067578506
 10
89.62450355832304
 20
-138.417046406368
 10
89.58626299843677
 20
-138.1083658508896
 10
89.32822534659157
 20
-138.1083658508896
 97
        0
 97
        0
 75
     2
 76
     1
 98
        0
  0
ENDBLK
  5
8A
330
87
100
AcDbEntity
  8
0
100
AcDbBlockEnd
  0
BLOCK
  5
92
330
90
100
AcDbEntity
  8
0
100
AcDbBlockBegin
  2
block 3
 70
     0
 10
0.0
 20
0.0
 30
0.0
  3
block 3
  1

  0
POLYLINE
  5
94
330
90
100
AcDbEntity
  8
_U+30EC_U+30A4_U+30E4_U+30FC 1
370
     0
100
AcDb2dPolyline
 66
     1
 10
0.0
 20
0.0
 30
0.0
  0
VERTEX
  5
95
330
94
100
AcDbEntity
  8
_U+30EC_U+30A4_U+30E4_U+30FC 1
370
     0
100
AcDbVertex
100
AcDb2dVertex
 10
102.5143283163853
 20
-122.128118187784
 30
0.0
  0
VERTEX
  5
96
330
94
100
AcDbEntity
  8
_U+30EC_U+30A4_U+30E4_U+30FC 1
370
     0
100
AcDbVertex
100
AcDb2dVertex
 10
102.86124943175
 20
-122.128118187784
 30
0.0
  0
VERTEX
  5
97
330
94
100
AcDbEntity
  8
_U+30EC_U+30A4_U+30E4_U+30FC 1
370
     0
100
AcDbVertex
100
AcDb2dVertex
 10
102.86124943175
 20
-122.346020477226
 30
0.0
  0
VERTEX
  5
98
330
94
100
AcDbEntity
  8
_U+30EC_U+30A4_U+30E4_U+30FC 1
370
     0
100
AcDbVertex
100
AcDb2dVertex
 10
102.5143283163853
 20
-122.346020477226
 30
0.0
  0
VERTEX
  5
99
330
94
100
AcDbEntity
  8
_U+30EC_U+30A4_U+30E4_U+30FC 1
370
     0
100
AcDbVertex
100
AcDb2dVertex
 10
102.5143283163853
 20
-123.0017944028433
 30
0.0
  0
VERTEX
  5
9A
330
94
100
AcDbEntity
  8
_U+30EC_U+30A4_U+30E4_U+30FC 1
370
     0
100
AcDbVertex
100
AcDb2dVertex
 10
102.2900526002956
 20
-123.0017944028433
 30
0.0
  0
VERTEX
  5
9B
330
94
100
AcDbEntity
  8
_U+30EC_U+30A4_U+30E4_U+30FC 1
370
     0
100
AcDbVertex
100
AcDb2dVertex
 10
101.3168131257125
 20
-122.3227660827006
 30
0.0
  0
VERTEX
  5
9C
330
94
100
AcDbEntity
  8
_U+30EC_U+30A4_U+30E4_U+30FC 1
370
     0
100
AcDbVertex
100
AcDb2dVertex
 10
101.3168131257125
 20
-122.128118187784
 30
0.0
  0
VERTEX
  5
9D
330
94
100
AcDbEntity
  8
_U+30EC_U+30A4_U+30E4_U+30FC 1
370
     0
100
AcDbVertex
100
AcDb2dVertex
 10
102.3152017973379
 20
-122.128118187784
 30
0.0
  0
VERTEX
  5
9E
330
94
100
AcDbEntity
  8
_U+30EC_U+30A4_U+30E4_U+30FC 1
370
     0
100
AcDbVertex
100
AcDb2dVertex
 10
102.3152017973379
 20
-121.9207234395719
 30
0.0
  0
VERTEX
  5
9F
330
94
100
AcDbEntity
  8
_U+30EC_U+30A4_U+30E4_U+30FC 1
370
     0
100
AcDbVertex
100
AcDb2dVertex
 10
102.5143283163853
 20
-121.9207234395719
 30
0.0
  0
VERTEX
  5
A0
330
94
100
AcDbEntity
  8
_U+30EC_U+30A4_U+30E4_U+30FC 1
370
     0
100
AcDbVertex
100
AcDb2dVertex
 10
102.5143283163853
 20
-122.128118187784
 30
0.0
  0
SEQEND
  5
A1
330
94
100
AcDbEntity
  8
_U+30EC_U+30A4_U+30E4_U+30FC 1
370
     0
  0
POLYLINE
  5
A2
330
90
100
AcDbEntity
  8
_U+30EC_U+30A4_U+30E4_U+30FC 1
370
     0
100
AcDb2dPolyline
 66
     1
 10
0.0
 20
0.0
 30
0.0
  0
VERTEX
  5
A3
330
A2
100
AcDbEntity
  8
_U+30EC_U+30A4_U+30E4_U+30FC 1
370
     0
100
AcDbVertex
100
AcDb2dVertex
 10
101.6596001264948
 20
-122.346020477226
 30
0.0
  0
VERTEX
  5
A4
330
A2
100
AcDbEntity
  8
_U+30EC_U+30A4_U+30E4_U+30FC 1
370
     0
100
AcDbVertex
100
AcDb2dVertex
 10
102.3152017973379
 20
-122.8028401385701
 30
0.0
  0
VERTEX
  5
A5
330
A2
100
AcDbEntity
  8
_U+30EC_U+30A4_U+30E4_U+30FC 1
370
     0
100
AcDbVertex
100
AcDb2dVertex
 10
102.3152017973379
 20
-122.346020477226
 30
0.0
  0
VERTEX
  5
A6
330
A2
100
AcDbEntity
  8
_U+30EC_U+30A4_U+30E4_U+30FC 1
370
     0
100
AcDbVertex
100
AcDb2dVertex
 10
101.6596001264948
 20
-122.346020477226
 30
0.0
  0
SEQEND
  5
A7
330
A2
100
AcDbEntity
  8
_U+30EC_U+30A4_U+30E4_U+30FC 1
370
     0
  0
HATCH
  5
A8
330
90
100
AcDbEntity
  8
_U+30EC_U+30A4_U+30E4_U+30FC 1
 62
   179
420
  2234388
100
AcDbHatch
 10
0.0
 20
0.0
 30
0.0
210
0.0
220
0.0
230
1.0
  2
SOLID
 70
     1
 71
     0
 91
        2
 92
        1
 93
       11
 72
     1
 10
102.5143283163853
 20
-122.128118187784
 11
102.86124943175
 21
-122.128118187784
 72
     1
 10
102.86124943175
 20
-122.128118187784
 11
102.86124943175
 21
-122.346020477226
 72
     1
 10
102.86124943175
 20
-122.346020477226
 11
102.5143283163853
 21
-122.346020477226
 72
     1
 10
102.5143283163853
 20
-122.346020477226
 11
102.5143283163853
 21
-123.0017944028433
 72
     1
 10
102.5143283163853
 20
-123.0017944028433
 11
102.2900526002956
 21
-123.0017944028433
 72
     1
 10
102.2900526002956
 20
-123.0017944028433
 11
101.3168131257125
 21
-122.3227660827006
 72
     1
 10
101.3168131257125
 20
-122.3227660827006
 11
101.3168131257125
 21
-122.128118187784
 72
     1
 10
101.3168131257125
 20
-122.128118187784
 11
102.3152017973379
 21
-122.128118187784
 72
     1
 10
102.3152017973379
 20
-122.128118187784
 11
102.3152017973379
 21
-121.9207234395719
 72
     1
 10
102.3152017973379
 20
-121.9207234395719
 11
102.5143283163853
 21
-121.9207234395719
 72
     1
 10
102.5143283163853
 20
-121.9207234395719
 11
102.5143283163853
 21
-122.128118187784
 97
        0
 92
        1
 93
        3
 72
     1
 10
101.6596001264948
 20
-122.346020477226
 11
102.3152017973379
 21
-122.8028401385701
 72
     1
 10
102.3152017973379
 20
-122.8028401385701
 11
102.3152017973379
 21
-122.346020477226
 72
     1
 10
102.3152017973379
 20
-122.346020477226
 11
101.6596001264948
 21
-122.346020477226
 97
        0
 75
     2
 76
     1
 98
        0
  0
ENDBLK
  5
93
330
90
100
AcDbEntity
  8
0
100
AcDbBlockEnd
  0
BLOCK
  5
AB
330
A9
100
AcDbEntity
  8
0
100
AcDbBlockBegin
  2
block 4
 70
     0
 10
0.0
 20
0.0
 30
0.0
  3
block 4
  1

  0
SPLINE
  5
AD
330
A9
100
AcDbEntity
  8
_U+30EC_U+30A4_U+30E4_U+30FC 1
370
     0
100
AcDbSpline
210
0.0
220
0.0
230
1.0
 70
    11
 71
     3
 72
    26
 73
    22
 74
     0
 42
0.0000000001
 43
0.0000000001
 12
1.0
 22
0.0
 32
0.0
 13
1.0
 23
0.0
 33
0.0
 40
0.0
 40
0.0
 40
0.0
 40
0.0
 40
1.0
 40
1.0
 40
1.0
 40
2.0
 40
2.0
 40
2.0
 40
3.0
 40
3.0
 40
3.0
 40
4.0
 40
4.0
 40
4.0
 40
5.0
 40
5.0
 40
5.0
 40
6.0
 40
6.0
 40
6.0
 40
7.0
 40
7.0
 40
7.0
 40
7.0
 10
102.86124943175
 20
-123.7855536257376
 30
0.0
 10
102.86124943175
 20
-123.7855536257376
 30
0.0
 10
101.7570963287274
 20
-123.7855536257376
 30
0.0
 10
101.7570963287274
 20
-123.7855536257376
 30
0.0
 10
101.7570963287274
 20
-123.7855536257376
 30
0.0
 10
101.7570963287274
 20
-124.1155937732246
 30
0.0
 10
101.7570963287274
 20
-124.1155937732246
 30
0.0
 10
101.7570963287274
 20
-124.1155937732246
 30
0.0
 10
101.6089572228616
 20
-124.1155937732246
 30
0.0
 10
101.6089572228616
 20
-124.1155937732246
 30
0.0
 10
101.5941433122751
 20
-123.7834865684465
 30
0.0
 10
101.4311902958228
 20
-123.7369777793956
 30
0.0
 10
101.3168131257125
 20
-123.7073499582225
 30
0.0
 10
101.3168131257125
 20
-123.7073499582225
 30
0.0
 10
101.3168131257125
 20
-123.5612779096479
 30
0.0
 10
101.3168131257125
 20
-123.5612779096479
 30
0.0
 10
101.3168131257125
 20
-123.5612779096479
 30
0.0
 10
102.86124943175
 20
-123.5612779096479
 30
0.0
 10
102.86124943175
 20
-123.5612779096479
 30
0.0
 10
102.86124943175
 20
-123.5612779096479
 30
0.0
 10
102.86124943175
 20
-123.7855536257376
 30
0.0
 10
102.86124943175
 20
-123.7855536257376
 30
0.0
  0
HATCH
  5
AE
330
A9
100
AcDbEntity
  8
_U+30EC_U+30A4_U+30E4_U+30FC 1
 62
   179
420
  2234388
100
AcDbHatch
 10
0.0
 20
0.0
 30
0.0
210
0.0
220
0.0
230
1.0
  2
SOLID
 70
     1
 71
     0
 91
        1
 92
        1
 93
        1
 72
     4
 94
        3
 73
     0
 74
     1
 95
       26
 96
       22
 40
0.0
 40
0.0
 40
0.0
 40
0.0
 40
1.0
 40
1.0
 40
1.0
 40
2.0
 40
2.0
 40
2.0
 40
3.0
 40
3.0
 40
3.0
 40
4.0
 40
4.0
 40
4.0
 40
5.0
 40
5.0
 40
5.0
 40
6.0
 40
6.0
 40
6.0
 40
7.0
 40
7.0
 40
7.0
 40
7.0
 10
102.86124943175
 20
-123.7855536257376
 10
102.86124943175
 20
-123.7855536257376
 10
101.7570963287274
 20
-123.7855536257376
 10
101.7570963287274
 20
-123.7855536257376
 10
101.7570963287274
 20
-123.7855536257376
 10
101.7570963287274
 20
-124.1155937732246
 10
101.7570963287274
 20
-124.1155937732246
 10
101.7570963287274
 20
-124.1155937732246
 10
101.6089572228616
 20
-124.1155937732246
 10
101.6089572228616
 20
-124.1155937732246
 10
101.5941433122751
 20
-123.7834865684465
 10
101.4311902958228
 20
-123.7369777793956
 10
101.3168131257125
 20
-123.7073499582225
 10
101.3168131257125
 20
-123.7073499582225
 10
101.3168131257125
 20
-123.5612779096479
 10
101.3168131257125
 20
-123.5612779096479
 10
101.3168131257125
 20
-123.5612779096479
 10
102.86124943175
 20
-123.5612779096479
 10
102.86124943175
 20
-123.5612779096479
 10
102.86124943175
 20
-123.5612779096479
 10
102.86124943175
 20
-123.7855536257376
 10
102.86124943175
 20
-123.7855536257376
 97
        0
 97
        0
 75
     2
 76
     1
 98
        0
  0
ENDBLK
  5
AC
330
A9
100
AcDbEntity
  8
0
100
AcDbBlockEnd
  0
BLOCK
  5
B1
330
AF
100
AcDbEntity
  8
0
100
AcDbBlockBegin
  2
block 5
 70
     0
 10
0.0
 20
0.0
 30
0.0
  3
block 5
  1

  0
SPLINE
  5
B3
330
AF
100
AcDbEntity
  8
_U+30EC_U+30A4_U+30E4_U+30FC 1
370
     0
100
AcDbSpline
210
0.0
220
0.0
230
1.0
 70
    11
 71
     3
 72
    53
 73
    49
 74
     0
 42
0.0000000001
 43
0.0000000001
 12
1.0
 22
0.0
 32
0.0
 13
1.0
 23
0.0
 33
0.0
 40
0.0
 40
0.0
 40
0.0
 40
0.0
 40
1.0
 40
1.0
 40
1.0
 40
2.0
 40
2.0
 40
2.0
 40
3.0
 40
3.0
 40
3.0
 40
4.0
 40
4.0
 40
4.0
 40
5.0
 40
5.0
 40
5.0
 40
6.0
 40
6.0
 40
6.0
 40
7.0
 40
7.0
 40
7.0
 40
8.0
 40
8.0
 40
8.0
 40
9.0
 40
9.0
 40
9.0
 40
10.0
 40
10.0
 40
10.0
 40
11.0
 40
11.0
 40
11.0
 40
12.0
 40
12.0
 40
12.0
 40
13.0
 40
13.0
 40
13.0
 40
14.0
 40
14.0
 40
14.0
 40
15.0
 40
15.0
 40
15.0
 40
16.0
 40
16.0
 40
16.0
 40
16.0
 10
102.9125813544802
 20
-129.9035264432186
 30
0.0
 10
102.9125813544802
 20
-129.9820746202823
 30
0.0
 10
102.8953558770539
 20
-130.0833604275486
 30
0.0
 10
102.8319661201253
 20
-130.185335253912
 30
0.0
 10
102.7217230645974
 20
-130.3586235568201
 30
0.0
 10
102.5908094361579
 20
-130.3796386392801
 30
0.0
 10
102.4829779474695
 20
-130.3989311739975
 30
0.0
 10
102.4829779474695
 20
-130.3989311739975
 30
0.0
 10
102.4829779474695
 20
-130.1767225151989
 30
0.0
 10
102.4829779474695
 20
-130.1767225151989
 30
0.0
 10
102.6817599569684
 20
-130.1216009874349
 30
0.0
 10
102.7113877781416
 20
-129.9944769640292
 30
0.0
 10
102.7113877781416
 20
-129.9014593859274
 30
0.0
 10
102.7113877781416
 20
-129.7622775283233
 30
0.0
 10
102.6121690281664
 20
-129.6096597983268
 30
0.0
 10
102.3792805733635
 20
-129.6096597983268
 30
0.0
 10
102.1233099788095
 20
-129.6096597983268
 30
0.0
 10
102.0533745404589
 20
-129.7894937826568
 30
0.0
 10
102.0533745404589
 20
-129.9100721246405
 30
0.0
 10
102.0533745404589
 20
-129.9417670031048
 30
0.0
 10
102.0533745404589
 20
-130.0833604275486
 30
0.0
 10
102.1825656211557
 20
-130.1722438910681
 30
0.0
 10
102.1825656211557
 20
-130.1722438910681
 30
0.0
 10
102.1636175959869
 20
-130.3479437608158
 30
0.0
 10
102.1636175959869
 20
-130.3479437608158
 30
0.0
 10
102.1636175959869
 20
-130.3479437608158
 30
0.0
 10
101.3175021448095
 20
-130.2273654188321
 30
0.0
 10
101.3175021448095
 20
-130.2273654188321
 30
0.0
 10
101.3175021448095
 20
-130.2273654188321
 30
0.0
 10
101.3175021448095
 20
-129.4487738391656
 30
0.0
 10
101.3175021448095
 20
-129.4487738391656
 30
0.0
 10
101.3175021448095
 20
-129.4487738391656
 30
0.0
 10
101.5118055301776
 20
-129.4487738391656
 30
0.0
 10
101.5118055301776
 20
-129.4487738391656
 30
0.0
 10
101.5118055301776
 20
-129.4487738391656
 30
0.0
 10
101.5118055301776
 20
-130.0647569119283
 30
0.0
 10
101.5118055301776
 20
-130.0647569119283
 30
0.0
 10
101.5118055301776
 20
-130.0647569119283
 30
0.0
 10
101.9348632557663
 20
-130.130213726148
 30
0.0
 10
101.9348632557663
 20
-130.130213726148
 30
0.0
 10
101.9011013200108
 20
-130.0688910265106
 30
0.0
 10
101.8611382123819
 20
-129.9862087348646
 30
0.0
 10
101.8611382123819
 20
-129.867697450172
 30
0.0
 10
101.8611382123819
 20
-129.6141384224576
 30
0.0
 10
102.0471733685854
 20
-129.3771158530724
 30
0.0
 10
102.3599880386461
 20
-129.3771158530724
 30
0.0
 10
102.6776258423861
 20
-129.3771158530724
 30
0.0
 10
102.9125813544802
 20
-129.6010470596136
 30
0.0
 10
102.9125813544802
 20
-129.9035264432186
 30
0.0
  0
HATCH
  5
B4
330
AF
100
AcDbEntity
  8
_U+30EC_U+30A4_U+30E4_U+30FC 1
 62
   179
420
  2234388
100
AcDbHatch
 10
0.0
 20
0.0
 30
0.0
210
0.0
220
0.0
230
1.0
  2
SOLID
 70
     1
 71
     0
 91
        1
 92
        1
 93
        1
 72
     4
 94
        3
 73
     0
 74
     1
 95
       53
 96
       49
 40
0.0
 40
0.0
 40
0.0
 40
0.0
 40
1.0
 40
1.0
 40
1.0
 40
2.0
 40
2.0
 40
2.0
 40
3.0
 40
3.0
 40
3.0
 40
4.0
 40
4.0
 40
4.0
 40
5.0
 40
5.0
 40
5.0
 40
6.0
 40
6.0
 40
6.0
 40
7.0
 40
7.0
 40
7.0
 40
8.0
 40
8.0
 40
8.0
 40
9.0
 40
9.0
 40
9.0
 40
10.0
 40
10.0
 40
10.0
 40
11.0
 40
11.0
 40
11.0
 40
12.0
 40
12.0
 40
12.0
 40
13.0
 40
13.0
 40
13.0
 40
14.0
 40
14.0
 40
14.0
 40
15.0
 40
15.0
 40
15.0
 40
16.0
 40
16.0
 40
16.0
 40
16.0
 10
102.9125813544802
 20
-129.9035264432186
 10
102.9125813544802
 20
-129.9820746202823
 10
102.8953558770539
 20
-130.0833604275486
 10
102.8319661201253
 20
-130.185335253912
 10
102.7217230645974
 20
-130.3586235568201
 10
102.5908094361579
 20
-130.3796386392801
 10
102.4829779474695
 20
-130.3989311739975
 10
102.4829779474695
 20
-130.3989311739975
 10
102.4829779474695
 20
-130.1767225151989
 10
102.4829779474695
 20
-130.1767225151989
 10
102.6817599569684
 20
-130.1216009874349
 10
102.7113877781416
 20
-129.9944769640292
 10
102.7113877781416
 20
-129.9014593859274
 10
102.7113877781416
 20
-129.7622775283233
 10
102.6121690281664
 20
-129.6096597983268
 10
102.3792805733635
 20
-129.6096597983268
 10
102.1233099788095
 20
-129.6096597983268
 10
102.0533745404589
 20
-129.7894937826568
 10
102.0533745404589
 20
-129.9100721246405
 10
102.0533745404589
 20
-129.9417670031048
 10
102.0533745404589
 20
-130.0833604275486
 10
102.1825656211557
 20
-130.1722438910681
 10
102.1825656211557
 20
-130.1722438910681
 10
102.1636175959869
 20
-130.3479437608158
 10
102.1636175959869
 20
-130.3479437608158
 10
102.1636175959869
 20
-130.3479437608158
 10
101.3175021448095
 20
-130.2273654188321
 10
101.3175021448095
 20
-130.2273654188321
 10
101.3175021448095
 20
-130.2273654188321
 10
101.3175021448095
 20
-129.4487738391656
 10
101.3175021448095
 20
-129.4487738391656
 10
101.3175021448095
 20
-129.4487738391656
 10
101.5118055301776
 20
-129.4487738391656
 10
101.5118055301776
 20
-129.4487738391656
 10
101.5118055301776
 20
-129.4487738391656
 10
101.5118055301776
 20
-130.0647569119283
 10
101.5118055301776
 20
-130.0647569119283
 10
101.5118055301776
 20
-130.0647569119283
 10
101.9348632557663
 20
-130.130213726148
 10
101.9348632557663
 20
-130.130213726148
 10
101.9011013200108
 20
-130.0688910265106
 10
101.8611382123819
 20
-129.9862087348646
 10
101.8611382123819
 20
-129.867697450172
 10
101.8611382123819
 20
-129.6141384224576
 10
102.0471733685854
 20
-129.3771158530724
 10
102.3599880386461
 20
-129.3771158530724
 10
102.6776258423861
 20
-129.3771158530724
 10
102.9125813544802
 20
-129.6010470596136
 10
102.9125813544802
 20
-129.9035264432186
 97
        0
 97
        0
 75
     2
 76
     1
 98
        0
  0
ENDBLK
  5
B2
330
AF
100
AcDbEntity
  8
0
100
AcDbBlockEnd
  0
BLOCK
  5
B7
330
B5
100
AcDbEntity
  8
0
100
AcDbBlockBegin
  2
block 6
 70
     0
 10
0.0
 20
0.0
 30
0.0
  3
block 6
  1

  0
SPLINE
  5
B9
330
B5
100
AcDbEntity
  8
_U+30EC_U+30A4_U+30E4_U+30FC 1
370
     0
100
AcDbSpline
210
0.0
220
0.0
230
1.0
 70
    11
 71
     3
 72
    26
 73
    22
 74
     0
 42
0.0000000001
 43
0.0000000001
 12
1.0
 22
0.0
 32
0.0
 13
1.0
 23
0.0
 33
0.0
 40
0.0
 40
0.0
 40
0.0
 40
0.0
 40
1.0
 40
1.0
 40
1.0
 40
2.0
 40
2.0
 40
2.0
 40
3.0
 40
3.0
 40
3.0
 40
4.0
 40
4.0
 40
4.0
 40
5.0
 40
5.0
 40
5.0
 40
6.0
 40
6.0
 40
6.0
 40
7.0
 40
7.0
 40
7.0
 40
7.0
 10
82.28489988177253
 20
-135.3391980998458
 30
0.0
 10
82.28489988177253
 20
-135.3391980998458
 30
0.0
 10
82.28489988177253
 20
-134.2347004872747
 30
0.0
 10
82.28489988177253
 20
-134.2347004872747
 30
0.0
 10
82.28489988177253
 20
-134.2347004872747
 30
0.0
 10
81.95485973428559
 20
-134.2347004872747
 30
0.0
 10
81.95485973428559
 20
-134.2347004872747
 30
0.0
 10
81.95485973428559
 20
-134.2347004872747
 30
0.0
 10
81.95485973428559
 20
-134.0869058909574
 30
0.0
 10
81.95485973428559
 20
-134.0869058909574
 30
0.0
 10
82.28696693906367
 20
-134.0720919803709
 30
0.0
 10
82.33347572811455
 20
-133.9091389639186
 30
0.0
 10
82.3631035492877
 20
-133.7951063033568
 30
0.0
 10
82.3631035492877
 20
-133.7951063033568
 30
0.0
 10
82.5091755978623
 20
-133.7951063033568
 30
0.0
 10
82.5091755978623
 20
-133.7951063033568
 30
0.0
 10
82.5091755978623
 20
-133.7951063033568
 30
0.0
 10
82.5091755978623
 20
-135.3391980998458
 30
0.0
 10
82.5091755978623
 20
-135.3391980998458
 30
0.0
 10
82.5091755978623
 20
-135.3391980998458
 30
0.0
 10
82.28489988177253
 20
-135.3391980998458
 30
0.0
 10
82.28489988177253
 20
-135.3391980998458
 30
0.0
  0
HATCH
  5
BA
330
B5
100
AcDbEntity
  8
_U+30EC_U+30A4_U+30E4_U+30FC 1
 62
   179
420
  2234388
100
AcDbHatch
 10
0.0
 20
0.0
 30
0.0
210
0.0
220
0.0
230
1.0
  2
SOLID
 70
     1
 71
     0
 91
        1
 92
        1
 93
        1
 72
     4
 94
        3
 73
     0
 74
     1
 95
       26
 96
       22
 40
0.0
 40
0.0
 40
0.0
 40
0.0
 40
1.0
 40
1.0
 40
1.0
 40
2.0
 40
2.0
 40
2.0
 40
3.0
 40
3.0
 40
3.0
 40
4.0
 40
4.0
 40
4.0
 40
5.0
 40
5.0
 40
5.0
 40
6.0
 40
6.0
 40
6.0
 40
7.0
 40
7.0
 40
7.0
 40
7.0
 10
82.28489988177253
 20
-135.3391980998458
 10
82.28489988177253
 20
-135.3391980998458
 10
82.28489988177253
 20
-134.2347004872747
 10
82.28489988177253
 20
-134.2347004872747
 10
82.28489988177253
 20
-134.2347004872747
 10
81.95485973428559
 20
-134.2347004872747
 10
81.95485973428559
 20
-134.2347004872747
 10
81.95485973428559
 20
-134.2347004872747
 10
81.95485973428559
 20
-134.0869058909574
 10
81.95485973428559
 20
-134.0869058909574
 10
82.28696693906367
 20
-134.0720919803709
 10
82.33347572811455
 20
-133.9091389639186
 10
82.3631035492877
 20
-133.7951063033568
 10
82.3631035492877
 20
-133.7951063033568
 10
82.5091755978623
 20
-133.7951063033568
 10
82.5091755978623
 20
-133.7951063033568
 10
82.5091755978623
 20
-133.7951063033568
 10
82.5091755978623
 20
-135.3391980998458
 10
82.5091755978623
 20
-135.3391980998458
 10
82.5091755978623
 20
-135.3391980998458
 10
82.28489988177253
 20
-135.3391980998458
 10
82.28489988177253
 20
-135.3391980998458
 97
        0
 97
        0
 75
     2
 76
     1
 98
        0
  0
SPLINE
  5
BB
330
B5
100
AcDbEntity
  8
_U+30EC_U+30A4_U+30E4_U+30FC 1
370
     0
100
AcDbSpline
210
0.0
220
0.0
230
1.0
 70
    11
 71
     3
 72
    53
 73
    49
 74
     0
 42
0.0000000001
 43
0.0000000001
 12
1.0
 22
0.0
 32
0.0
 13
1.0
 23
0.0
 33
0.0
 40
0.0
 40
0.0
 40
0.0
 40
0.0
 40
1.0
 40
1.0
 40
1.0
 40
2.0
 40
2.0
 40
2.0
 40
3.0
 40
3.0
 40
3.0
 40
4.0
 40
4.0
 40
4.0
 40
5.0
 40
5.0
 40
5.0
 40
6.0
 40
6.0
 40
6.0
 40
7.0
 40
7.0
 40
7.0
 40
8.0
 40
8.0
 40
8.0
 40
9.0
 40
9.0
 40
9.0
 40
10.0
 40
10.0
 40
10.0
 40
11.0
 40
11.0
 40
11.0
 40
12.0
 40
12.0
 40
12.0
 40
13.0
 40
13.0
 40
13.0
 40
14.0
 40
14.0
 40
14.0
 40
15.0
 40
15.0
 40
15.0
 40
16.0
 40
16.0
 40
16.0
 40
16.0
 10
83.49154457548129
 20
-135.3901855130275
 30
0.0
 10
83.41316865319185
 20
-135.3901855130275
 30
0.0
 10
83.31171059115124
 20
-135.3729600356012
 30
0.0
 10
83.21008027433638
 20
-135.3095702786726
 30
0.0
 10
83.03661971665404
 20
-135.1993272231446
 30
0.0
 10
83.01543237941976
 20
-135.0684135947051
 30
0.0
 10
82.99648435425088
 20
-134.9605821060168
 30
0.0
 10
82.99648435425088
 20
-134.9605821060168
 30
0.0
 10
83.21852075827523
 20
-134.9605821060168
 30
0.0
 10
83.21852075827523
 20
-134.9605821060168
 30
0.0
 10
83.27364228603923
 20
-135.1593641155157
 30
0.0
 10
83.40059405467069
 20
-135.1889919366889
 30
0.0
 10
83.49361163277243
 20
-135.1889919366889
 30
0.0
 10
83.63313799992505
 20
-135.1889919366889
 30
0.0
 10
83.78558347514736
 20
-135.0897731867137
 30
0.0
 10
83.78558347514736
 20
-134.8568847319108
 30
0.0
 10
83.78558347514736
 20
-134.6009141373567
 30
0.0
 10
83.60574949081732
 20
-134.5309786990061
 30
0.0
 10
83.48517114883357
 20
-134.5309786990061
 30
0.0
 10
83.45347627036928
 20
-134.5309786990061
 30
0.0
 10
83.31171059115124
 20
-134.5309786990061
 30
0.0
 10
83.2228271276318
 20
-134.660169779703
 30
0.0
 10
83.2228271276318
 20
-134.660169779703
 30
0.0
 10
83.04729951265831
 20
-134.6412217545341
 30
0.0
 10
83.04729951265831
 20
-134.6412217545341
 30
0.0
 10
83.04729951265831
 20
-134.6412217545341
 30
0.0
 10
83.16787785464206
 20
-133.7951063033568
 30
0.0
 10
83.16787785464206
 20
-133.7951063033568
 30
0.0
 10
83.16787785464206
 20
-133.7951063033568
 30
0.0
 10
83.94629717953427
 20
-133.7951063033568
 30
0.0
 10
83.94629717953427
 20
-133.7951063033568
 30
0.0
 10
83.94629717953427
 20
-133.7951063033568
 30
0.0
 10
83.94629717953427
 20
-133.9894096887249
 30
0.0
 10
83.94629717953427
 20
-133.9894096887249
 30
0.0
 10
83.94629717953427
 20
-133.9894096887249
 30
0.0
 10
83.33065861632012
 20
-133.9894096887249
 30
0.0
 10
83.33065861632012
 20
-133.9894096887249
 30
0.0
 10
83.33065861632012
 20
-133.9894096887249
 30
0.0
 10
83.26520180210036
 20
-134.4124674143136
 30
0.0
 10
83.26520180210036
 20
-134.4124674143136
 30
0.0
 10
83.32652450173782
 20
-134.3787054785581
 30
0.0
 10
83.40903453860955
 20
-134.3387423709292
 30
0.0
 10
83.52737356852788
 20
-134.3387423709292
 30
0.0
 10
83.78127710579079
 20
-134.3387423709292
 30
0.0
 10
84.01829967517598
 20
-134.5247775271327
 30
0.0
 10
84.01829967517598
 20
-134.8375921971934
 30
0.0
 10
84.01829967517598
 20
-135.1552300009334
 30
0.0
 10
83.79402395908622
 20
-135.3901855130275
 30
0.0
 10
83.49154457548129
 20
-135.3901855130275
 30
0.0
  0
HATCH
  5
BC
330
B5
100
AcDbEntity
  8
_U+30EC_U+30A4_U+30E4_U+30FC 1
 62
   179
420
  2234388
100
AcDbHatch
 10
0.0
 20
0.0
 30
0.0
210
0.0
220
0.0
230
1.0
  2
SOLID
 70
     1
 71
     0
 91
        1
 92
        1
 93
        1
 72
     4
 94
        3
 73
     0
 74
     1
 95
       53
 96
       49
 40
0.0
 40
0.0
 40
0.0
 40
0.0
 40
1.0
 40
1.0
 40
1.0
 40
2.0
 40
2.0
 40
2.0
 40
3.0
 40
3.0
 40
3.0
 40
4.0
 40
4.0
 40
4.0
 40
5.0
 40
5.0
 40
5.0
 40
6.0
 40
6.0
 40
6.0
 40
7.0
 40
7.0
 40
7.0
 40
8.0
 40
8.0
 40
8.0
 40
9.0
 40
9.0
 40
9.0
 40
10.0
 40
10.0
 40
10.0
 40
11.0
 40
11.0
 40
11.0
 40
12.0
 40
12.0
 40
12.0
 40
13.0
 40
13.0
 40
13.0
 40
14.0
 40
14.0
 40
14.0
 40
15.0
 40
15.0
 40
15.0
 40
16.0
 40
16.0
 40
16.0
 40
16.0
 10
83.49154457548129
 20
-135.3901855130275
 10
83.41316865319185
 20
-135.3901855130275
 10
83.31171059115124
 20
-135.3729600356012
 10
83.21008027433638
 20
-135.3095702786726
 10
83.03661971665404
 20
-135.1993272231446
 10
83.01543237941976
 20
-135.0684135947051
 10
82.99648435425088
 20
-134.9605821060168
 10
82.99648435425088
 20
-134.9605821060168
 10
83.21852075827523
 20
-134.9605821060168
 10
83.21852075827523
 20
-134.9605821060168
 10
83.27364228603923
 20
-135.1593641155157
 10
83.40059405467069
 20
-135.1889919366889
 10
83.49361163277243
 20
-135.1889919366889
 10
83.63313799992505
 20
-135.1889919366889
 10
83.78558347514736
 20
-135.0897731867137
 10
83.78558347514736
 20
-134.8568847319108
 10
83.78558347514736
 20
-134.6009141373567
 10
83.60574949081732
 20
-134.5309786990061
 10
83.48517114883357
 20
-134.5309786990061
 10
83.45347627036928
 20
-134.5309786990061
 10
83.31171059115124
 20
-134.5309786990061
 10
83.2228271276318
 20
-134.660169779703
 10
83.2228271276318
 20
-134.660169779703
 10
83.04729951265831
 20
-134.6412217545341
 10
83.04729951265831
 20
-134.6412217545341
 10
83.04729951265831
 20
-134.6412217545341
 10
83.16787785464206
 20
-133.7951063033568
 10
83.16787785464206
 20
-133.7951063033568
 10
83.16787785464206
 20
-133.7951063033568
 10
83.94629717953427
 20
-133.7951063033568
 10
83.94629717953427
 20
-133.7951063033568
 10
83.94629717953427
 20
-133.7951063033568
 10
83.94629717953427
 20
-133.9894096887249
 10
83.94629717953427
 20
-133.9894096887249
 10
83.94629717953427
 20
-133.9894096887249
 10
83.33065861632012
 20
-133.9894096887249
 10
83.33065861632012
 20
-133.9894096887249
 10
83.33065861632012
 20
-133.9894096887249
 10
83.26520180210036
 20
-134.4124674143136
 10
83.26520180210036
 20
-134.4124674143136
 10
83.32652450173782
 20
-134.3787054785581
 10
83.40903453860955
 20
-134.3387423709292
 10
83.52737356852788
 20
-134.3387423709292
 10
83.78127710579079
 20
-134.3387423709292
 10
84.01829967517598
 20
-134.5247775271327
 10
84.01829967517598
 20
-134.8375921971934
 10
84.01829967517598
 20
-135.1552300009334
 10
83.79402395908622
 20
-135.3901855130275
 10
83.49154457548129
 20
-135.3901855130275
 97
        0
 97
        0
 75
     2
 76
     1
 98
        0
  0
ENDBLK
  5
B8
330
B5
100
AcDbEntity
  8
0
100
AcDbBlockEnd
  0
ENDSEC
  0
SECTION
  2
ENTITIES
  0
POLYLINE
  5
41
330
1F
100
AcDbEntity
  8
_U+30EC_U+30A4_U+30E4_U+30FC 1
370
     0
100
AcDb2dPolyline
 66
     1
 10
0.0
 20
0.0
 30
0.0
  0
VERTEX
  5
42
330
41
100
AcDbEntity
  8
_U+30EC_U+30A4_U+30E4_U+30FC 1
370
     0
100
AcDbVertex
100
AcDb2dVertex
 10
88.5901177398778
 20
-131.7656044115029
 30
0.0
  0
VERTEX
  5
43
330
41
100
AcDbEntity
  8
_U+30EC_U+30A4_U+30E4_U+30FC 1
370
     0
100
AcDbVertex
100
AcDb2dVertex
 10
77.2138833140298
 20
-131.7656044115029
 30
0.0
  0
VERTEX
  5
44
330
41
100
AcDbEntity
  8
_U+30EC_U+30A4_U+30E4_U+30FC 1
370
     0
100
AcDbVertex
100
AcDb2dVertex
 10
77.2138833140298
 20
-116.4459471931106
 30
0.0
  0
VERTEX
  5
45
330
41
100
AcDbEntity
  8
_U+30EC_U+30A4_U+30E4_U+30FC 1
370
     0
100
AcDbVertex
100
AcDb2dVertex
 10
99.96631883853563
 20
-116.4459471931106
 30
0.0
  0
VERTEX
  5
46
330
41
100
AcDbEntity
  8
_U+30EC_U+30A4_U+30E4_U+30FC 1
370
     0
100
AcDbVertex
100
AcDb2dVertex
 10
99.96631883853563
 20
-117.3559727484387
 30
0.0
  0
VERTEX
  5
47
330
41
100
AcDbEntity
  8
_U+30EC_U+30A4_U+30E4_U+30FC 1
370
     0
100
AcDbVertex
100
AcDb2dVertex
 10
78.12408328466637
 20
-117.3559727484387
 30
0.0
  0
VERTEX
  5
48
330
41
100
AcDbEntity
  8
_U+30EC_U+30A4_U+30E4_U+30FC 1
370
     0
100
AcDbVertex
100
AcDb2dVertex
 10
78.12408328466637
 20
-130.855755245064
 30
0.0
  0
VERTEX
  5
49
330
41
100
AcDbEntity
  8
_U+30EC_U+30A4_U+30E4_U+30FC 1
370
     0
100
AcDbVertex
100
AcDb2dVertex
 10
87.68009442252456
 20
-130.855755245064
 30
0.0
  0
VERTEX
  5
4A
330
41
100
AcDbEntity
  8
_U+30EC_U+30A4_U+30E4_U+30FC 1
370
     0
100
AcDbVertex
100
AcDb2dVertex
 10
87.68009442252456
 20
-127.9737724680065
 30
0.0
  0
VERTEX
  5
4B
330
41
100
AcDbEntity
  8
_U+30EC_U+30A4_U+30E4_U+30FC 1
370
     0
100
AcDbVertex
100
AcDb2dVertex
 10
88.5901177398778
 20
-127.9737724680065
 30
0.0
  0
VERTEX
  5
4C
330
41
100
AcDbEntity
  8
_U+30EC_U+30A4_U+30E4_U+30FC 1
370
     0
100
AcDbVertex
100
AcDb2dVertex
 10
88.5901177398778
 20
-131.7656044115029
 30
0.0
  0
SEQEND
  5
4E
330
41
100
AcDbEntity
  8
_U+30EC_U+30A4_U+30E4_U+30FC 1
370
     0
  0
HATCH
  5
4D
330
1F
100
AcDbEntity
  8
_U+30EC_U+30A4_U+30E4_U+30FC 1
 62
   253
420
 10066329
100
AcDbHatch
 10
0.0
 20
0.0
 30
0.0
210
0.0
220
0.0
230
1.0
  2
SOLID
 70
     1
 71
     0
 91
        1
 92
        1
 93
       10
 72
     1
 10
88.5901177398778
 20
-131.7656044115029
 11
77.21388331402979
 21
-131.7656044115029
 72
     1
 10
77.2138833140298
 20
-131.7656044115029
 11
77.2138833140298
 21
-116.4459471931106
 72
     1
 10
77.2138833140298
 20
-116.4459471931106
 11
99.96631883853563
 21
-116.4459471931106
 72
     1
 10
99.96631883853563
 20
-116.4459471931106
 11
99.96631883853563
 21
-117.3559727484387
 72
     1
 10
99.96631883853563
 20
-117.3559727484387
 11
78.12408328466637
 21
-117.3559727484387
 72
     1
 10
78.12408328466637
 20
-117.3559727484387
 11
78.12408328466637
 21
-130.8557552450641
 72
     1
 10
78.12408328466637
 20
-130.855755245064
 11
87.68009442252456
 21
-130.855755245064
 72
     1
 10
87.68009442252456
 20
-130.855755245064
 11
87.68009442252456
 21
-127.9737724680065
 72
     1
 10
87.68009442252456
 20
-127.9737724680065
 11
88.59011773987781
 21
-127.9737724680065
 72
     1
 10
88.5901177398778
 20
-127.9737724680065
 11
88.5901177398778
 21
-131.7656044115029
 97
        0
 75
     2
 76
     1
 98
        0
  0
POLYLINE
  5
4F
330
1F
100
AcDbEntity
  8
_U+30EC_U+30A4_U+30E4_U+30FC 1
 62
   179
420
  2234388
370
    25
100
AcDb2dPolyline
 66
     1
 10
0.0
 20
0.0
 30
0.0
  0
VERTEX
  5
50
330
4F
100
AcDbEntity
  8
_U+30EC_U+30A4_U+30E4_U+30FC 1
 62
   179
420
  2234388
370
    25
100
AcDbVertex
100
AcDb2dVertex
 10
87.68009442252456
 20
-127.9737724680065
 30
0.0
  0
VERTEX
  5
51
330
4F
100
AcDbEntity
  8
_U+30EC_U+30A4_U+30E4_U+30FC 1
 62
   179
420
  2234388
370
    25
100
AcDbVertex
100
AcDb2dVertex
 10
88.5901177398778
 20
-127.9737724680065
 30
0.0
  0
SEQEND
  5
52
330
4F
100
AcDbEntity
  8
_U+30EC_U+30A4_U+30E4_U+30FC 1
 62
   179
420
  2234388
370
    25
  0
POLYLINE
  5
53
330
1F
100
AcDbEntity
  8
_U+30EC_U+30A4_U+30E4_U+30FC 1
 62
   179
420
  2234388
370
    25
100
AcDb2dPolyline
 66
     1
 10
0.0
 20
0.0
 30
0.0
  0
VERTEX
  5
54
330
53
100
AcDbEntity
  8
_U+30EC_U+30A4_U+30E4_U+30FC 1
 62
   179
420
  2234388
370
    25
100
AcDbVertex
100
AcDb2dVertex
 10
99.96631883853563
 20
-116.4455944153332
 30
0.0
  0
VERTEX
  5
55
330
53
100
AcDbEntity
  8
_U+30EC_U+30A4_U+30E4_U+30FC 1
 62
   179
420
  2234388
370
    25
100
AcDbVertex
100
AcDb2dVertex
 10
99.96631883853563
 20
-117.3559727484387
 30
0.0
  0
SEQEND
  5
56
330
53
100
AcDbEntity
  8
_U+30EC_U+30A4_U+30E4_U+30FC 1
 62
   179
420
  2234388
370
    25
  0
POLYLINE
  5
57
330
1F
100
AcDbEntity
  8
_U+30EC_U+30A4_U+30E4_U+30FC 1
 62
   179
420
  2234388
370
    25
100
AcDb2dPolyline
 66
     1
 10
0.0
 20
0.0
 30
0.0
  0
VERTEX
  5
58
330
57
100
AcDbEntity
  8
_U+30EC_U+30A4_U+30E4_U+30FC 1
 62
   179
420
  2234388
370
    25
100
AcDbVertex
100
AcDb2dVertex
 10
87.68009442252456
 20
-130.855755245064
 30
0.0
  0
VERTEX
  5
59
330
57
100
AcDbEntity
  8
_U+30EC_U+30A4_U+30E4_U+30FC 1
 62
   179
420
  2234388
370
    25
100
AcDbVertex
100
AcDb2dVertex
 10
87.68009442252456
 20
-127.9737724680065
 30
0.0
  0
SEQEND
  5
5A
330
57
100
AcDbEntity
  8
_U+30EC_U+30A4_U+30E4_U+30FC 1
 62
   179
420
  2234388
370
    25
  0
POLYLINE
  5
5B
330
1F
100
AcDbEntity
  8
_U+30EC_U+30A4_U+30E4_U+30FC 1
 62
   179
420
  2234388
370
    25
100
AcDb2dPolyline
 66
     1
 10
0.0
 20
0.0
 30
0.0
  0
VERTEX
  5
5C
330
5B
100
AcDbEntity
  8
_U+30EC_U+30A4_U+30E4_U+30FC 1
 62
   179
420
  2234388
370
    25
100
AcDbVertex
100
AcDb2dVertex
 10
78.12408328466637
 20
-130.855755245064
 30
0.0
  0
VERTEX
  5
5D
330
5B
100
AcDbEntity
  8
_U+30EC_U+30A4_U+30E4_U+30FC 1
 62
   179
420
  2234388
370
    25
100
AcDbVertex
100
AcDb2dVertex
 10
87.68009442252456
 20
-130.855755245064
 30
0.0
  0
SEQEND
  5
5E
330
5B
100
AcDbEntity
  8
_U+30EC_U+30A4_U+30E4_U+30FC 1
 62
   179
420
  2234388
370
    25
  0
POLYLINE
  5
5F
330
1F
100
AcDbEntity
  8
_U+30EC_U+30A4_U+30E4_U+30FC 1
 62
   179
420
  2234388
370
    25
100
AcDb2dPolyline
 66
     1
 10
0.0
 20
0.0
 30
0.0
  0
VERTEX
  5
60
330
5F
100
AcDbEntity
  8
_U+30EC_U+30A4_U+30E4_U+30FC 1
 62
   179
420
  2234388
370
    25
100
AcDbVertex
100
AcDb2dVertex
 10
78.12408328466637
 20
-117.3559727484387
 30
0.0
  0
VERTEX
  5
61
330
5F
100
AcDbEntity
  8
_U+30EC_U+30A4_U+30E4_U+30FC 1
 62
   179
420
  2234388
370
    25
100
AcDbVertex
100
AcDb2dVertex
 10
78.12408328466637
 20
-130.855755245064
 30
0.0
  0
SEQEND
  5
62
330
5F
100
AcDbEntity
  8
_U+30EC_U+30A4_U+30E4_U+30FC 1
 62
   179
420
  2234388
370
    25
  0
POLYLINE
  5
63
330
1F
100
AcDbEntity
  8
_U+30EC_U+30A4_U+30E4_U+30FC 1
 62
   179
420
  2234388
370
    25
100
AcDb2dPolyline
 66
     1
 10
0.0
 20
0.0
 30
0.0
  0
VERTEX
  5
64
330
63
100
AcDbEntity
  8
_U+30EC_U+30A4_U+30E4_U+30FC 1
 62
   179
420
  2234388
370
    25
100
AcDbVertex
100
AcDb2dVertex
 10
99.96631883853563
 20
-117.3559727484387
 30
0.0
  0
VERTEX
  5
65
330
63
100
AcDbEntity
  8
_U+30EC_U+30A4_U+30E4_U+30FC 1
 62
   179
420
  2234388
370
    25
100
AcDbVertex
100
AcDb2dVertex
 10
78.12408328466637
 20
-117.3559727484387
 30
0.0
  0
SEQEND
  5
66
330
63
100
AcDbEntity
  8
_U+30EC_U+30A4_U+30E4_U+30FC 1
 62
   179
420
  2234388
370
    25
  0
POLYLINE
  5
67
330
1F
100
AcDbEntity
  8
_U+30EC_U+30A4_U+30E4_U+30FC 1
 62
   179
420
  2234388
370
    25
100
AcDb2dPolyline
 66
     1
 10
0.0
 20
0.0
 30
0.0
  0
VERTEX
  5
68
330
67
100
AcDbEntity
  8
_U+30EC_U+30A4_U+30E4_U+30FC 1
 62
   179
420
  2234388
370
    25
100
AcDbVertex
100
AcDb2dVertex
 10
88.5901177398778
 20
-131.7656044115029
 30
0.0
  0
VERTEX
  5
69
330
67
100
AcDbEntity
  8
_U+30EC_U+30A4_U+30E4_U+30FC 1
 62
   179
420
  2234388
370
    25
100
AcDbVertex
100
AcDb2dVertex
 10
88.5901177398778
 20
-127.9737724680065
 30
0.0
  0
SEQEND
  5
6A
330
67
100
AcDbEntity
  8
_U+30EC_U+30A4_U+30E4_U+30FC 1
 62
   179
420
  2234388
370
    25
  0
POLYLINE
  5
6B
330
1F
100
AcDbEntity
  8
_U+30EC_U+30A4_U+30E4_U+30FC 1
 62
   179
420
  2234388
370
    25
100
AcDb2dPolyline
 66
     1
 10
0.0
 20
0.0
 30
0.0
  0
VERTEX
  5
6C
330
6B
100
AcDbEntity
  8
_U+30EC_U+30A4_U+30E4_U+30FC 1
 62
   179
420
  2234388
370
    25
100
AcDbVertex
100
AcDb2dVertex
 10
77.2138833140298
 20
-131.7656044115029
 30
0.0
  0
VERTEX
  5
6D
330
6B
100
AcDbEntity
  8
_U+30EC_U+30A4_U+30E4_U+30FC 1
 62
   179
420
  2234388
370
    25
100
AcDbVertex
100
AcDb2dVertex
 10
88.5901177398778
 20
-131.7656044115029
 30
0.0
  0
SEQEND
  5
6E
330
6B
100
AcDbEntity
  8
_U+30EC_U+30A4_U+30E4_U+30FC 1
 62
   179
420
  2234388
370
    25
  0
POLYLINE
  5
6F
330
1F
100
AcDbEntity
  8
_U+30EC_U+30A4_U+30E4_U+30FC 1
 62
   179
420
  2234388
370
    25
100
AcDb2dPolyline
 66
     1
 10
0.0
 20
0.0
 30
0.0
  0
VERTEX
  5
70
330
6F
100
AcDbEntity
  8
_U+30EC_U+30A4_U+30E4_U+30FC 1
 62
   179
420
  2234388
370
    25
100
AcDbVertex
100
AcDb2dVertex
 10
77.2138833140298
 20
-116.4459471931106
 30
0.0
  0
VERTEX
  5
71
330
6F
100
AcDbEntity
  8
_U+30EC_U+30A4_U+30E4_U+30FC 1
 62
   179
420
  2234388
370
    25
100
AcDbVertex
100
AcDb2dVertex
 10
77.2138833140298
 20
-131.7656044115029
 30
0.0
  0
SEQEND
  5
72
330
6F
100
AcDbEntity
  8
_U+30EC_U+30A4_U+30E4_U+30FC 1
 62
   179
420
  2234388
370
    25
  0
POLYLINE
  5
73
330
1F
100
AcDbEntity
  8
_U+30EC_U+30A4_U+30E4_U+30FC 1
 62
   179
420
  2234388
370
    25
100
AcDb2dPolyline
 66
     1
 10
0.0
 20
0.0
 30
0.0
  0
VERTEX
  5
74
330
73
100
AcDbEntity
  8
_U+30EC_U+30A4_U+30E4_U+30FC 1
 62
   179
420
  2234388
370
    25
100
AcDbVertex
100
AcDb2dVertex
 10
77.2138833140298
 20
-116.4459471931106
 30
0.0
  0
VERTEX
  5
75
330
73
100
AcDbEntity
  8
_U+30EC_U+30A4_U+30E4_U+30FC 1
 62
   179
420
  2234388
370
    25
100
AcDbVertex
100
AcDb2dVertex
 10
99.96631883853563
 20
-116.4459471931106
 30
0.0
  0
SEQEND
  5
76
330
73
100
AcDbEntity
  8
_U+30EC_U+30A4_U+30E4_U+30FC 1
 62
   179
420
  2234388
370
    25
  0
POLYLINE
  5
77
330
1F
100
AcDbEntity
  8
_U+30EC_U+30A4_U+30E4_U+30FC 1
 62
   179
420
  2234388
370
     9
100
AcDb2dPolyline
 66
     1
 10
0.0
 20
0.0
 30
0.0
  0
VERTEX
  5
78
330
77
100
AcDbEntity
  8
_U+30EC_U+30A4_U+30E4_U+30FC 1
 62
   179
420
  2234388
370
     9
100
AcDbVertex
100
AcDb2dVertex
 10
77.2138833140298
 20
-135.8180685771567
 30
0.0
  0
VERTEX
  5
79
330
77
100
AcDbEntity
  8
_U+30EC_U+30A4_U+30E4_U+30FC 1
 62
   179
420
  2234388
370
     9
100
AcDbVertex
100
AcDb2dVertex
 10
88.5901177398778
 20
-135.8180685771567
 30
0.0
  0
SEQEND
  5
7A
330
77
100
AcDbEntity
  8
_U+30EC_U+30A4_U+30E4_U+30FC 1
 62
   179
420
  2234388
370
     9
  0
POLYLINE
  5
7B
330
1F
100
AcDbEntity
  8
_U+30EC_U+30A4_U+30E4_U+30FC 1
 62
   179
420
  2234388
370
     9
100
AcDb2dPolyline
 66
     1
 10
0.0
 20
0.0
 30
0.0
  0
VERTEX
  5
7C
330
7B
100
AcDbEntity
  8
_U+30EC_U+30A4_U+30E4_U+30FC 1
 62
   179
420
  2234388
370
     9
100
AcDbVertex
100
AcDb2dVertex
 10
99.96631883853563
 20
-117.8308821927644
 30
0.0
  0
VERTEX
  5
7D
330
7B
100
AcDbEntity
  8
_U+30EC_U+30A4_U+30E4_U+30FC 1
 62
   179
420
  2234388
370
     9
100
AcDbVertex
100
AcDb2dVertex
 10
99.96631883853563
 20
-140.7972799648005
 30
0.0
  0
SEQEND
  5
7E
330
7B
100
AcDbEntity
  8
_U+30EC_U+30A4_U+30E4_U+30FC 1
 62
   179
420
  2234388
370
     9
  0
POLYLINE
  5
7F
330
1F
100
AcDbEntity
  8
_U+30EC_U+30A4_U+30E4_U+30FC 1
 62
   179
420
  2234388
370
     9
100
AcDb2dPolyline
 66
     1
 10
0.0
 20
0.0
 30
0.0
  0
VERTEX
  5
80
330
7F
100
AcDbEntity
  8
_U+30EC_U+30A4_U+30E4_U+30FC 1
 62
   179
420
  2234388
370
     9
100
AcDbVertex
100
AcDb2dVertex
 10
77.2138833140298
 20
-139.9053166316905
 30
0.0
  0
VERTEX
  5
81
330
7F
100
AcDbEntity
  8
_U+30EC_U+30A4_U+30E4_U+30FC 1
 62
   179
420
  2234388
370
     9
100
AcDbVertex
100
AcDb2dVertex
 10
99.96631883853563
 20
-139.9053166316905
 30
0.0
  0
SEQEND
  5
82
330
7F
100
AcDbEntity
  8
_U+30EC_U+30A4_U+30E4_U+30FC 1
 62
   179
420
  2234388
370
     9
  0
POLYLINE
  5
83
330
1F
100
AcDbEntity
  8
_U+30EC_U+30A4_U+30E4_U+30FC 1
 62
   179
420
  2234388
370
     9
100
AcDb2dPolyline
 66
     1
 10
0.0
 20
0.0
 30
0.0
  0
VERTEX
  5
84
330
83
100
AcDbEntity
  8
_U+30EC_U+30A4_U+30E4_U+30FC 1
 62
   179
420
  2234388
370
     9
100
AcDbVertex
100
AcDb2dVertex
 10
89.80381664421569
 20
-131.6998113559639
 30
0.0
  0
VERTEX
  5
85
330
83
100
AcDbEntity
  8
_U+30EC_U+30A4_U+30E4_U+30FC 1
 62
   179
420
  2234388
370
     9
100
AcDbVertex
100
AcDb2dVertex
 10
104.3908576145451
 20
-131.6998113559639
 30
0.0
  0
SEQEND
  5
86
330
83
100
AcDbEntity
  8
_U+30EC_U+30A4_U+30E4_U+30FC 1
 62
   179
420
  2234388
370
     9
  0
INSERT
  5
88
330
1F
100
AcDbEntity
  8
_U+30EC_U+30A4_U+30E4_U+30FC 1
100
AcDbBlockReference
  2
block 2
 10
0.0
 20
0.0
 30
0.0
  0
INSERT
  5
91
330
1F
100
AcDbEntity
  8
_U+30EC_U+30A4_U+30E4_U+30FC 1
100
AcDbBlockReference
  2
block 3
 10
0.0
 20
0.0
 30
0.0
  0
INSERT
  5
AA
330
1F
100
AcDbEntity
  8
_U+30EC_U+30A4_U+30E4_U+30FC 1
100
AcDbBlockReference
  2
block 4
 10
0.0
 20
0.0
 30
0.0
  0
INSERT
  5
B0
330
1F
100
AcDbEntity
  8
_U+30EC_U+30A4_U+30E4_U+30FC 1
100
AcDbBlockReference
  2
block 5
 10
0.0
 20
0.0
 30
0.0
  0
INSERT
  5
B6
330
1F
100
AcDbEntity
  8
_U+30EC_U+30A4_U+30E4_U+30FC 1
100
AcDbBlockReference
  2
block 6
 10
0.0
 20
0.0
 30
0.0
  0
POLYLINE
  5
BD
330
1F
100
AcDbEntity
  8
_U+30EC_U+30A4_U+30E4_U+30FC 1
 62
   179
420
  2234388
370
     9
100
AcDb2dPolyline
 66
     1
 10
0.0
 20
0.0
 30
0.0
  0
VERTEX
  5
BE
330
BD
100
AcDbEntity
  8
_U+30EC_U+30A4_U+30E4_U+30FC 1
 62
   179
420
  2234388
370
     9
100
AcDbVertex
100
AcDb2dVertex
 10
77.2138833140298
 20
-132.9796538556437
 30
0.0
  0
VERTEX
  5
BF
330
BD
100
AcDbEntity
  8
_U+30EC_U+30A4_U+30E4_U+30FC 1
 62
   179
420
  2234388
370
     9
100
AcDbVertex
100
AcDb2dVertex
 10
77.2138833140298
 20
-140.7972799648005
 30
0.0
  0
SEQEND
  5
C0
330
BD
100
AcDbEntity
  8
_U+30EC_U+30A4_U+30E4_U+30FC 1
 62
   179
420
  2234388
370
     9
  0
POLYLINE
  5
C1
330
1F
100
AcDbEntity
  8
_U+30EC_U+30A4_U+30E4_U+30FC 1
 62
   179
420
  2234388
370
     9
100
AcDb2dPolyline
 66
     1
 10
0.0
 20
0.0
 30
0.0
  0
VERTEX
  5
C2
330
C1
100
AcDbEntity
  8
_U+30EC_U+30A4_U+30E4_U+30FC 1
 62
   179
420
  2234388
370
     9
100
AcDbVertex
100
AcDb2dVertex
 10
103.4217770837129
 20
-127.8421510791506
 30
0.0
  0
VERTEX
  5
C3
330
C1
100
AcDbEntity
  8
_U+30EC_U+30A4_U+30E4_U+30FC 1
 62
   179
420
  2234388
370
     9
100
AcDbVertex
100
AcDb2dVertex
 10
103.4217770837129
 20
-131.6339830226473
 30
0.0
  0
SEQEND
  5
C4
330
C1
100
AcDbEntity
  8
_U+30EC_U+30A4_U+30E4_U+30FC 1
 62
   179
420
  2234388
370
     9
  0
POLYLINE
  5
C5
330
1F
100
AcDbEntity
  8
_U+30EC_U+30A4_U+30E4_U+30FC 1
 62
   179
420
  2234388
370
     9
100
AcDb2dPolyline
 66
     1
 10
0.0
 20
0.0
 30
0.0
  0
VERTEX
  5
C6
330
C5
100
AcDbEntity
  8
_U+30EC_U+30A4_U+30E4_U+30FC 1
 62
   179
420
  2234388
370
     9
100
AcDbVertex
100
AcDb2dVertex
 10
89.80381664421569
 20
-127.9077677458008
 30
0.0
  0
VERTEX
  5
C7
330
C5
100
AcDbEntity
  8
_U+30EC_U+30A4_U+30E4_U+30FC 1
 62
   179
420
  2234388
370
     9
100
AcDbVertex
100
AcDb2dVertex
 10
104.3908576145451
 20
-127.9077677458008
 30
0.0
  0
SEQEND
  5
C8
330
C5
100
AcDbEntity
  8
_U+30EC_U+30A4_U+30E4_U+30FC 1
 62
   179
420
  2234388
370
     9
  0
POLYLINE
  5
C9
330
1F
100
AcDbEntity
  8
_U+30EC_U+30A4_U+30E4_U+30FC 1
 62
   179
420
  2234388
370
     9
100
AcDb2dPolyline
 66
     1
 10
0.0
 20
0.0
 30
0.0
  0
VERTEX
  5
CA
330
C9
100
AcDbEntity
  8
_U+30EC_U+30A4_U+30E4_U+30FC 1
 62
   179
420
  2234388
370
     9
100
AcDbVertex
100
AcDb2dVertex
 10
103.4217770837129
 20
-117.2242102484717
 30
0.0
  0
VERTEX
  5
CB
330
C9
100
AcDbEntity
  8
_U+30EC_U+30A4_U+30E4_U+30FC 1
 62
   179
420
  2234388
370
     9
100
AcDbVertex
100
AcDb2dVertex
 10
103.4217770837129
 20
-127.8421510791506
 30
0.0
  0
SEQEND
  5
CC
330
C9
100
AcDbEntity
  8
_U+30EC_U+30A4_U+30E4_U+30FC 1
 62
   179
420
  2234388
370
     9
  0
POLYLINE
  5
CD
330
1F
100
AcDbEntity
  8
_U+30EC_U+30A4_U+30E4_U+30FC 1
 62
   179
420
  2234388
370
     9
100
AcDb2dPolyline
 66
     1
 10
0.0
 20
0.0
 30
0.0
  0
VERTEX
  5
CE
330
CD
100
AcDbEntity
  8
_U+30EC_U+30A4_U+30E4_U+30FC 1
 62
   179
420
  2234388
370
     9
100
AcDbVertex
100
AcDb2dVertex
 10
88.5901177398778
 20
-132.979301077866
 30
0.0
  0
VERTEX
  5
CF
330
CD
100
AcDbEntity
  8
_U+30EC_U+30A4_U+30E4_U+30FC 1
 62
   179
420
  2234388
370
     9
100
AcDbVertex
100
AcDb2dVertex
 10
88.5901177398778
 20
-136.7954394102459
 30
0.0
  0
SEQEND
  5
D0
330
CD
100
AcDbEntity
  8
_U+30EC_U+30A4_U+30E4_U+30FC 1
 62
   179
420
  2234388
370
     9
  0
SPLINE
  5
D1
330
1F
100
AcDbEntity
  8
_U+30EC_U+30A4_U+30E4_U+30FC 1
370
     0
100
AcDbSpline
210
0.0
220
0.0
230
1.0
 70
     8
 71
     3
 72
    17
 73
    13
 74
     0
 42
0.0000000001
 43
0.0000000001
 12
1.0
 22
0.0
 32
0.0
 13
1.0
 23
0.0
 33
0.0
 40
0.0
 40
0.0
 40
0.0
 40
0.0
 40
1.0
 40
1.0
 40
1.0
 40
2.0
 40
2.0
 40
2.0
 40
3.0
 40
3.0
 40
3.0
 40
4.0
 40
4.0
 40
4.0
 40
4.0
 10
77.09383108872807
 20
-135.8363424660408
 30
0.0
 10
77.0933019220749
 20
-135.8669988549221
 30
0.0
 10
77.1053669217671
 20
-135.8976552438034
 30
0.0
 10
77.12639442516293
 20
-135.9193510771312
 30
0.0
 10
77.147241642921
 20
-135.9413996882368
 30
0.0
 10
77.17736886437461
 20
-135.9548405215667
 30
0.0
 10
77.20802525248139
 20
-135.9551932993445
 30
0.0
 10
77.23818775171189
 20
-135.9562163548996
 30
0.0
 10
77.26884413981867
 20
-135.9441513549026
 30
0.0
 10
77.29071636148288
 20
-135.9228082993525
 30
0.0
 10
77.3124121942627
 20
-135.901782743802
 30
0.0
 10
77.32567663836875
 20
-135.8711263549214
 30
0.0
 10
77.32620580502191
 20
-135.8407874660397
 30
0.0
  0
HATCH
  5
D2
330
1F
100
AcDbEntity
  8
_U+30EC_U+30A4_U+30E4_U+30FC 1
 62
   179
420
  2234388
100
AcDbHatch
 10
0.0
 20
0.0
 30
0.0
210
0.0
220
0.0
230
1.0
  2
SOLID
 70
     1
 71
     0
 91
        1
 92
        1
 93
        2
 72
     4
 94
        3
 73
     0
 74
     0
 95
       17
 96
       13
 40
0.0
 40
0.0
 40
0.0
 40
0.0
 40
0.3527777776895833
 40
0.3527777776895833
 40
0.3527777776895833
 40
0.7055555553791667
 40
0.7055555553791667
 40
0.7055555553791667
 40
1.05833333306875
 40
1.05833333306875
 40
1.05833333306875
 40
1.411111110758333
 40
1.411111110758333
 40
1.411111110758333
 40
1.411111110758333
 10
77.09383108872807
 20
-135.8363424660408
 10
77.0933019220749
 20
-135.8669988549221
 10
77.1053669217671
 20
-135.8976552438034
 10
77.12639442516293
 20
-135.9193510771312
 10
77.147241642921
 20
-135.9413996882368
 10
77.17736886437461
 20
-135.9548405215667
 10
77.20802525248139
 20
-135.9551932993445
 10
77.23818775171189
 20
-135.9562163548996
 10
77.26884413981867
 20
-135.9441513549026
 10
77.29071636148288
 20
-135.9228082993525
 10
77.3124121942627
 20
-135.901782743802
 10
77.32567663836875
 20
-135.8711263549214
 10
77.32620580502191
 20
-135.8407874660397
 97
        0
 72
     1
 10
77.32620580502191
 20
-135.8407874660397
 11
77.09383108872807
 21
-135.8363424660408
 97
        0
 75
     2
 76
     1
 98
        0
  0
SPLINE
  5
D3
330
1F
100
AcDbEntity
  8
_U+30EC_U+30A4_U+30E4_U+30FC 1
 62
   179
420
  2234388
370
     9
100
AcDbSpline
210
0.0
220
0.0
230
1.0
 70
     8
 71
     3
 72
    17
 73
    13
 74
     0
 42
0.0000000001
 43
0.0000000001
 12
1.0
 22
0.0
 32
0.0
 13
1.0
 23
0.0
 33
0.0
 40
0.0
 40
0.0
 40
0.0
 40
0.0
 40
1.0
 40
1.0
 40
1.0
 40
2.0
 40
2.0
 40
2.0
 40
3.0
 40
3.0
 40
3.0
 40
4.0
 40
4.0
 40
4.0
 40
4.0
 10
77.09157331100789
 20
-135.8387413549294
 30
0.0
 10
77.09157331100789
 20
-135.869044966033
 30
0.0
 10
77.10416942516844
 20
-135.8997013549143
 30
0.0
 10
77.12604164738516
 20
-135.9210796882419
 30
0.0
 10
77.147241642921
 20
-135.9427755215697
 30
0.0
 10
77.1777216421434
 20
-135.9551932993445
 30
0.0
 10
77.20837803025017
 20
-135.9551932993445
 30
0.0
 10
77.23885802947257
 20
-135.9551932993445
 30
0.0
 10
77.26951441757934
 20
-135.9427755215697
 30
0.0
 10
77.29106913925166
 20
-135.9210796882419
 30
0.0
 10
77.31223580537832
 20
-135.8997013549143
 30
0.0
 10
77.32518274949246
 20
-135.869044966033
 30
0.0
 10
77.32518274949246
 20
-135.8387413549294
 30
0.0
  0
SPLINE
  5
D4
330
1F
100
AcDbEntity
  8
_U+30EC_U+30A4_U+30E4_U+30FC 1
370
     0
100
AcDbSpline
210
0.0
220
0.0
230
1.0
 70
     8
 71
     3
 72
    17
 73
    13
 74
     0
 42
0.0000000001
 43
0.0000000001
 12
1.0
 22
0.0
 32
0.0
 13
1.0
 23
0.0
 33
0.0
 40
0.0
 40
0.0
 40
0.0
 40
0.0
 40
1.0
 40
1.0
 40
1.0
 40
2.0
 40
2.0
 40
2.0
 40
3.0
 40
3.0
 40
3.0
 40
4.0
 40
4.0
 40
4.0
 40
4.0
 10
77.32518274949246
 20
-135.8387413549294
 30
0.0
 10
77.32518274949246
 20
-135.8084377438259
 30
0.0
 10
77.3124121942627
 20
-135.7774285771668
 30
0.0
 10
77.29124552813605
 20
-135.7564030216163
 30
0.0
 10
77.26969080646373
 20
-135.7347071882885
 30
0.0
 10
77.23938719612573
 20
-135.7219366327359
 30
0.0
 10
77.20908358578772
 20
-135.7219366327359
 30
0.0
 10
77.17839191990407
 20
-135.7219366327359
 30
0.0
 10
77.14808830956608
 20
-135.7347071882885
 30
0.0
 10
77.12688636566253
 20
-135.7564030216163
 30
0.0
 10
77.1053669217671
 20
-135.7774285771668
 30
0.0
 10
77.092984422083
 20
-135.8084377438259
 30
0.0
 10
77.092984422083
 20
-135.8387413549294
 30
0.0
  0
HATCH
  5
D5
330
1F
100
AcDbEntity
  8
_U+30EC_U+30A4_U+30E4_U+30FC 1
 62
   179
420
  2234388
100
AcDbHatch
 10
0.0
 20
0.0
 30
0.0
210
0.0
220
0.0
230
1.0
  2
SOLID
 70
     1
 71
     0
 91
        1
 92
        1
 93
        2
 72
     4
 94
        3
 73
     0
 74
     0
 95
       17
 96
       13
 40
0.0
 40
0.0
 40
0.0
 40
0.0
 40
0.3527777776895833
 40
0.3527777776895833
 40
0.3527777776895833
 40
0.7055555553791667
 40
0.7055555553791667
 40
0.7055555553791667
 40
1.05833333306875
 40
1.05833333306875
 40
1.05833333306875
 40
1.411111110758333
 40
1.411111110758333
 40
1.411111110758333
 40
1.411111110758333
 10
77.32518274949246
 20
-135.8387413549294
 10
77.32518274949246
 20
-135.8084377438259
 10
77.3124121942627
 20
-135.7774285771668
 10
77.29124552813605
 20
-135.7564030216163
 10
77.26969080646373
 20
-135.7347071882885
 10
77.23938719612573
 20
-135.7219366327359
 10
77.20908358578772
 20
-135.7219366327359
 10
77.17839191990407
 20
-135.7219366327359
 10
77.14808830956608
 20
-135.7347071882885
 10
77.12688636566253
 20
-135.7564030216163
 10
77.1053669217671
 20
-135.7774285771668
 10
77.092984422083
 20
-135.8084377438259
 10
77.092984422083
 20
-135.8387413549294
 97
        0
 72
     1
 10
77.092984422083
 20
-135.8387413549294
 11
77.32518274949246
 21
-135.8387413549294
 97
        0
 75
     2
 76
     1
 98
        0
  0
SPLINE
  5
D6
330
1F
100
AcDbEntity
  8
_U+30EC_U+30A4_U+30E4_U+30FC 1
 62
   179
420
  2234388
370
     9
100
AcDbSpline
210
0.0
220
0.0
230
1.0
 70
     8
 71
     3
 72
    17
 73
    13
 74
     0
 42
0.0000000001
 43
0.0000000001
 12
1.0
 22
0.0
 32
0.0
 13
1.0
 23
0.0
 33
0.0
 40
0.0
 40
0.0
 40
0.0
 40
0.0
 40
1.0
 40
1.0
 40
1.0
 40
2.0
 40
2.0
 40
2.0
 40
3.0
 40
3.0
 40
3.0
 40
4.0
 40
4.0
 40
4.0
 40
4.0
 10
77.32518274949246
 20
-135.8387413549294
 30
0.0
 10
77.32518274949246
 20
-135.8084377438259
 30
0.0
 10
77.31223580537832
 20
-135.7774285771668
 30
0.0
 10
77.29106913925166
 20
-135.7564030216163
 30
0.0
 10
77.26951441757934
 20
-135.7347071882885
 30
0.0
 10
77.23885802947257
 20
-135.7219366327359
 30
0.0
 10
77.20837803025017
 20
-135.7219366327359
 30
0.0
 10
77.1777216421434
 20
-135.7219366327359
 30
0.0
 10
77.147241642921
 20
-135.7347071882885
 30
0.0
 10
77.12604164738516
 20
-135.7564030216163
 30
0.0
 10
77.10416942516844
 20
-135.7774285771668
 30
0.0
 10
77.09157331100789
 20
-135.8084377438259
 30
0.0
 10
77.09157331100789
 20
-135.8387413549294
 30
0.0
  0
SPLINE
  5
D7
330
1F
100
AcDbEntity
  8
_U+30EC_U+30A4_U+30E4_U+30FC 1
370
     0
100
AcDbSpline
210
0.0
220
0.0
230
1.0
 70
     8
 71
     3
 72
    17
 73
    13
 74
     0
 42
0.0000000001
 43
0.0000000001
 12
1.0
 22
0.0
 32
0.0
 13
1.0
 23
0.0
 33
0.0
 40
0.0
 40
0.0
 40
0.0
 40
0.0
 40
1.0
 40
1.0
 40
1.0
 40
2.0
 40
2.0
 40
2.0
 40
3.0
 40
3.0
 40
3.0
 40
4.0
 40
4.0
 40
4.0
 40
4.0
 10
77.12346442130539
 20
-139.8867252428062
 30
0.0
 10
77.12346442130539
 20
-139.9170288539097
 30
0.0
 10
77.1358469209895
 20
-139.9473677427908
 30
0.0
 10
77.1575780315462
 20
-139.9687107983409
 30
0.0
 10
77.1794502532104
 20
-139.9904066316693
 30
0.0
 10
77.20975386354841
 20
-140.0031771872212
 30
0.0
 10
77.24005747388641
 20
-140.0031771872212
 30
0.0
 10
77.27057275088568
 20
-140.0031771872212
 30
0.0
 10
77.30105275010807
 20
-139.9904066316693
 30
0.0
 10
77.32257219400351
 20
-139.9687107983409
 30
0.0
 10
77.34444441566772
 20
-139.9473677427908
 30
0.0
 10
77.35721497089747
 20
-139.9170288539097
 30
0.0
 10
77.35721497089747
 20
-139.8867252428062
 30
0.0
  0
HATCH
  5
D8
330
1F
100
AcDbEntity
  8
_U+30EC_U+30A4_U+30E4_U+30FC 1
 62
   179
420
  2234388
100
AcDbHatch
 10
0.0
 20
0.0
 30
0.0
210
0.0
220
0.0
230
1.0
  2
SOLID
 70
     1
 71
     0
 91
        1
 92
        1
 93
        2
 72
     4
 94
        3
 73
     0
 74
     0
 95
       17
 96
       13
 40
0.0
 40
0.0
 40
0.0
 40
0.0
 40
0.3527777776895833
 40
0.3527777776895833
 40
0.3527777776895833
 40
0.7055555553791667
 40
0.7055555553791667
 40
0.7055555553791667
 40
1.05833333306875
 40
1.05833333306875
 40
1.05833333306875
 40
1.411111110758333
 40
1.411111110758333
 40
1.411111110758333
 40
1.411111110758333
 10
77.12346442130539
 20
-139.8867252428062
 10
77.12346442130539
 20
-139.9170288539097
 10
77.1358469209895
 20
-139.9473677427908
 10
77.1575780315462
 20
-139.9687107983409
 10
77.1794502532104
 20
-139.9904066316693
 10
77.20975386354841
 20
-140.0031771872212
 10
77.24005747388641
 20
-140.0031771872212
 10
77.27057275088568
 20
-140.0031771872212
 10
77.30105275010807
 20
-139.9904066316693
 10
77.32257219400351
 20
-139.9687107983409
 10
77.34444441566772
 20
-139.9473677427908
 10
77.35721497089747
 20
-139.9170288539097
 10
77.35721497089747
 20
-139.8867252428062
 97
        0
 72
     1
 10
77.35721497089747
 20
-139.8867252428062
 11
77.12346442130539
 21
-139.8867252428062
 97
        0
 75
     2
 76
     1
 98
        0
  0
SPLINE
  5
D9
330
1F
100
AcDbEntity
  8
_U+30EC_U+30A4_U+30E4_U+30FC 1
370
     0
100
AcDbSpline
210
0.0
220
0.0
230
1.0
 70
     8
 71
     3
 72
    17
 73
    13
 74
     0
 42
0.0000000001
 43
0.0000000001
 12
1.0
 22
0.0
 32
0.0
 13
1.0
 23
0.0
 33
0.0
 40
0.0
 40
0.0
 40
0.0
 40
0.0
 40
1.0
 40
1.0
 40
1.0
 40
2.0
 40
2.0
 40
2.0
 40
3.0
 40
3.0
 40
3.0
 40
4.0
 40
4.0
 40
4.0
 40
4.0
 10
77.35721497089747
 20
-139.8867252428062
 30
0.0
 10
77.35721497089747
 20
-139.8560688539249
 30
0.0
 10
77.34444441566772
 20
-139.8254124650435
 30
0.0
 10
77.32257219400351
 20
-139.8036813539382
 30
0.0
 10
77.30105275010807
 20
-139.7823382983875
 30
0.0
 10
77.27057275088568
 20
-139.7696030206131
 30
0.0
 10
77.24005747388641
 20
-139.7696030206131
 30
0.0
 10
77.20975386354841
 20
-139.7696030206131
 30
0.0
 10
77.1794502532104
 20
-139.7823382983875
 30
0.0
 10
77.1575780315462
 20
-139.8036813539382
 30
0.0
 10
77.1358469209895
 20
-139.8254124650435
 30
0.0
 10
77.12346442130539
 20
-139.8560688539249
 30
0.0
 10
77.12346442130539
 20
-139.8867252428062
 30
0.0
  0
HATCH
  5
DA
330
1F
100
AcDbEntity
  8
_U+30EC_U+30A4_U+30E4_U+30FC 1
 62
   179
420
  2234388
100
AcDbHatch
 10
0.0
 20
0.0
 30
0.0
210
0.0
220
0.0
230
1.0
  2
SOLID
 70
     1
 71
     0
 91
        1
 92
        1
 93
        2
 72
     4
 94
        3
 73
     0
 74
     0
 95
       17
 96
       13
 40
0.0
 40
0.0
 40
0.0
 40
0.0
 40
0.3527777776895833
 40
0.3527777776895833
 40
0.3527777776895833
 40
0.7055555553791667
 40
0.7055555553791667
 40
0.7055555553791667
 40
1.05833333306875
 40
1.05833333306875
 40
1.05833333306875
 40
1.411111110758333
 40
1.411111110758333
 40
1.411111110758333
 40
1.411111110758333
 10
77.35721497089747
 20
-139.8867252428062
 10
77.35721497089747
 20
-139.8560688539249
 10
77.34444441566772
 20
-139.8254124650435
 10
77.32257219400351
 20
-139.8036813539382
 10
77.30105275010807
 20
-139.7823382983875
 10
77.27057275088568
 20
-139.7696030206131
 10
77.24005747388641
 20
-139.7696030206131
 10
77.20975386354841
 20
-139.7696030206131
 10
77.1794502532104
 20
-139.7823382983875
 10
77.1575780315462
 20
-139.8036813539382
 10
77.1358469209895
 20
-139.8254124650435
 10
77.12346442130539
 20
-139.8560688539249
 10
77.12346442130539
 20
-139.8867252428062
 97
        0
 72
     1
 10
77.12346442130539
 20
-139.8867252428062
 11
77.35721497089747
 21
-139.8867252428062
 97
        0
 75
     2
 76
     1
 98
        0
  0
SPLINE
  5
DB
330
1F
100
AcDbEntity
  8
_U+30EC_U+30A4_U+30E4_U+30FC 1
370
     0
100
AcDbSpline
210
0.0
220
0.0
230
1.0
 70
     8
 71
     3
 72
    17
 73
    13
 74
     0
 42
0.0000000001
 43
0.0000000001
 12
1.0
 22
0.0
 32
0.0
 13
1.0
 23
0.0
 33
0.0
 40
0.0
 40
0.0
 40
0.0
 40
0.0
 40
1.0
 40
1.0
 40
1.0
 40
2.0
 40
2.0
 40
2.0
 40
3.0
 40
3.0
 40
3.0
 40
4.0
 40
4.0
 40
4.0
 40
4.0
 10
88.47331302063552
 20
-135.8387413549294
 30
0.0
 10
88.47331302063552
 20
-135.869044966033
 30
0.0
 10
88.48608357586527
 20
-135.8997013549143
 30
0.0
 10
88.50795579752949
 20
-135.9210796882419
 30
0.0
 10
88.52947524142492
 20
-135.9427755215697
 30
0.0
 10
88.55995524064731
 20
-135.9551932993445
 30
0.0
 10
88.5901177398778
 20
-135.9551932993445
 30
0.0
 10
88.62077412798459
 20
-135.9551932993445
 30
0.0
 10
88.65143051609137
 20
-135.9427755215697
 30
0.0
 10
88.6729499599868
 20
-135.9210796882419
 30
0.0
 10
88.69415190389034
 20
-135.8997013549143
 30
0.0
 10
88.7070635702276
 20
-135.869044966033
 30
0.0
 10
88.7070635702276
 20
-135.8387413549294
 30
0.0
  0
HATCH
  5
DC
330
1F
100
AcDbEntity
  8
_U+30EC_U+30A4_U+30E4_U+30FC 1
 62
   179
420
  2234388
100
AcDbHatch
 10
0.0
 20
0.0
 30
0.0
210
0.0
220
0.0
230
1.0
  2
SOLID
 70
     1
 71
     0
 91
        1
 92
        1
 93
        2
 72
     4
 94
        3
 73
     0
 74
     0
 95
       17
 96
       13
 40
0.0
 40
0.0
 40
0.0
 40
0.0
 40
0.3527777776895833
 40
0.3527777776895833
 40
0.3527777776895833
 40
0.7055555553791667
 40
0.7055555553791667
 40
0.7055555553791667
 40
1.05833333306875
 40
1.05833333306875
 40
1.05833333306875
 40
1.411111110758333
 40
1.411111110758333
 40
1.411111110758333
 40
1.411111110758333
 10
88.47331302063552
 20
-135.8387413549294
 10
88.47331302063552
 20
-135.869044966033
 10
88.48608357586527
 20
-135.8997013549143
 10
88.50795579752949
 20
-135.9210796882419
 10
88.52947524142492
 20
-135.9427755215697
 10
88.55995524064731
 20
-135.9551932993445
 10
88.5901177398778
 20
-135.9551932993445
 10
88.62077412798459
 20
-135.9551932993445
 10
88.65143051609137
 20
-135.9427755215697
 10
88.6729499599868
 20
-135.9210796882419
 10
88.69415190389034
 20
-135.8997013549143
 10
88.7070635702276
 20
-135.869044966033
 10
88.7070635702276
 20
-135.8387413549294
 97
        0
 72
     1
 10
88.7070635702276
 20
-135.8387413549294
 11
88.47331302063552
 21
-135.8387413549294
 97
        0
 75
     2
 76
     1
 98
        0
  0
SPLINE
  5
DD
330
1F
100
AcDbEntity
  8
_U+30EC_U+30A4_U+30E4_U+30FC 1
370
     0
100
AcDbSpline
210
0.0
220
0.0
230
1.0
 70
     8
 71
     3
 72
    17
 73
    13
 74
     0
 42
0.0000000001
 43
0.0000000001
 12
1.0
 22
0.0
 32
0.0
 13
1.0
 23
0.0
 33
0.0
 40
0.0
 40
0.0
 40
0.0
 40
0.0
 40
1.0
 40
1.0
 40
1.0
 40
2.0
 40
2.0
 40
2.0
 40
3.0
 40
3.0
 40
3.0
 40
4.0
 40
4.0
 40
4.0
 40
4.0
 10
88.7070635702276
 20
-135.8387413549294
 30
0.0
 10
88.7070635702276
 20
-135.8084377438259
 30
0.0
 10
88.69415190389034
 20
-135.7774285771668
 30
0.0
 10
88.6729499599868
 20
-135.7564030216163
 30
0.0
 10
88.65143051609137
 20
-135.7347071882885
 30
0.0
 10
88.62077412798459
 20
-135.7219366327359
 30
0.0
 10
88.5901177398778
 20
-135.7219366327359
 30
0.0
 10
88.55995524064731
 20
-135.7219366327359
 30
0.0
 10
88.52947524142492
 20
-135.7347071882885
 30
0.0
 10
88.50795579752949
 20
-135.7564030216163
 30
0.0
 10
88.48608357586527
 20
-135.7774285771668
 30
0.0
 10
88.47331302063552
 20
-135.8084377438259
 30
0.0
 10
88.47331302063552
 20
-135.8387413549294
 30
0.0
  0
HATCH
  5
DE
330
1F
100
AcDbEntity
  8
_U+30EC_U+30A4_U+30E4_U+30FC 1
 62
   179
420
  2234388
100
AcDbHatch
 10
0.0
 20
0.0
 30
0.0
210
0.0
220
0.0
230
1.0
  2
SOLID
 70
     1
 71
     0
 91
        1
 92
        1
 93
        2
 72
     4
 94
        3
 73
     0
 74
     0
 95
       17
 96
       13
 40
0.0
 40
0.0
 40
0.0
 40
0.0
 40
0.3527777776895833
 40
0.3527777776895833
 40
0.3527777776895833
 40
0.7055555553791667
 40
0.7055555553791667
 40
0.7055555553791667
 40
1.05833333306875
 40
1.05833333306875
 40
1.05833333306875
 40
1.411111110758333
 40
1.411111110758333
 40
1.411111110758333
 40
1.411111110758333
 10
88.7070635702276
 20
-135.8387413549294
 10
88.7070635702276
 20
-135.8084377438259
 10
88.69415190389034
 20
-135.7774285771668
 10
88.6729499599868
 20
-135.7564030216163
 10
88.65143051609137
 20
-135.7347071882885
 10
88.62077412798459
 20
-135.7219366327359
 10
88.5901177398778
 20
-135.7219366327359
 10
88.55995524064731
 20
-135.7219366327359
 10
88.52947524142492
 20
-135.7347071882885
 10
88.50795579752949
 20
-135.7564030216163
 10
88.48608357586527
 20
-135.7774285771668
 10
88.47331302063552
 20
-135.8084377438259
 10
88.47331302063552
 20
-135.8387413549294
 97
        0
 72
     1
 10
88.47331302063552
 20
-135.8387413549294
 11
88.7070635702276
 21
-135.8387413549294
 97
        0
 75
     2
 76
     1
 98
        0
  0
SPLINE
  5
DF
330
1F
100
AcDbEntity
  8
_U+30EC_U+30A4_U+30E4_U+30FC 1
370
     0
100
AcDbSpline
210
0.0
220
0.0
230
1.0
 70
     8
 71
     3
 72
    17
 73
    13
 74
     0
 42
0.0000000001
 43
0.0000000001
 12
1.0
 22
0.0
 32
0.0
 13
1.0
 23
0.0
 33
0.0
 40
0.0
 40
0.0
 40
0.0
 40
0.0
 40
1.0
 40
1.0
 40
1.0
 40
2.0
 40
2.0
 40
2.0
 40
3.0
 40
3.0
 40
3.0
 40
4.0
 40
4.0
 40
4.0
 40
4.0
 10
99.84919661930144
 20
-139.9032705205796
 30
0.0
 10
99.84919661930144
 20
-139.9335741316831
 30
0.0
 10
99.86193189675431
 20
-139.9645832983422
 30
0.0
 10
99.88366300731101
 20
-139.9856088538927
 30
0.0
 10
99.90500606232206
 20
-140.0076574649983
 30
0.0
 10
99.93566245042885
 20
-140.0197224649953
 30
0.0
 10
99.96631883853563
 20
-140.0197224649953
 30
0.0
 10
99.9966577266505
 20
-140.0197224649953
 30
0.0
 10
100.0273166416597
 20
-140.0076574649983
 30
0.0
 10
100.0490099475371
 20
-139.9856088538927
 30
0.0
 10
100.070388280325
 20
-139.9645832983422
 30
0.0
 10
100.0827707800091
 20
-139.9335741316831
 30
0.0
 10
100.0827707800091
 20
-139.9032705205796
 30
0.0
  0
HATCH
  5
E0
330
1F
100
AcDbEntity
  8
_U+30EC_U+30A4_U+30E4_U+30FC 1
 62
   179
420
  2234388
100
AcDbHatch
 10
0.0
 20
0.0
 30
0.0
210
0.0
220
0.0
230
1.0
  2
SOLID
 70
     1
 71
     0
 91
        1
 92
        1
 93
        2
 72
     4
 94
        3
 73
     0
 74
     0
 95
       17
 96
       13
 40
0.0
 40
0.0
 40
0.0
 40
0.0
 40
0.3527777776895833
 40
0.3527777776895833
 40
0.3527777776895833
 40
0.7055555553791667
 40
0.7055555553791667
 40
0.7055555553791667
 40
1.05833333306875
 40
1.05833333306875
 40
1.05833333306875
 40
1.411111110758333
 40
1.411111110758333
 40
1.411111110758333
 40
1.411111110758333
 10
99.84919661930144
 20
-139.9032705205796
 10
99.84919661930144
 20
-139.9335741316831
 10
99.86193189675431
 20
-139.9645832983422
 10
99.88366300731101
 20
-139.9856088538927
 10
99.90500606232206
 20
-140.0076574649983
 10
99.93566245042885
 20
-140.0197224649953
 10
99.96631883853563
 20
-140.0197224649953
 10
99.9966577266505
 20
-140.0197224649953
 10
100.0273166416597
 20
-140.0076574649983
 10
100.0490099475371
 20
-139.9856088538927
 10
100.070388280325
 20
-139.9645832983422
 10
100.0827707800091
 20
-139.9335741316831
 10
100.0827707800091
 20
-139.9032705205796
 97
        0
 72
     1
 10
100.0827707800091
 20
-139.9032705205796
 11
99.84919661930144
 21
-139.9032705205796
 97
        0
 75
     2
 76
     1
 98
        0
  0
SPLINE
  5
E1
330
1F
100
AcDbEntity
  8
_U+30EC_U+30A4_U+30E4_U+30FC 1
370
     0
100
AcDbSpline
210
0.0
220
0.0
230
1.0
 70
     8
 71
     3
 72
    17
 73
    13
 74
     0
 42
0.0000000001
 43
0.0000000001
 12
1.0
 22
0.0
 32
0.0
 13
1.0
 23
0.0
 33
0.0
 40
0.0
 40
0.0
 40
0.0
 40
0.0
 40
1.0
 40
1.0
 40
1.0
 40
2.0
 40
2.0
 40
2.0
 40
3.0
 40
3.0
 40
3.0
 40
4.0
 40
4.0
 40
4.0
 40
4.0
 10
100.0827707800091
 20
-139.9032705205796
 30
0.0
 10
100.0827707800091
 20
-139.8729316316985
 30
0.0
 10
100.070388280325
 20
-139.8419224650394
 30
0.0
 10
100.0490099475371
 20
-139.8209321872671
 30
0.0
 10
100.0273166416597
 20
-139.7992363539393
 30
0.0
 10
99.9966577266505
 20
-139.7864657983868
 30
0.0
 10
99.96631883853563
 20
-139.7864657983868
 30
0.0
 10
99.93566245042885
 20
-139.7864657983868
 30
0.0
 10
99.90500606232206
 20
-139.7992363539393
 30
0.0
 10
99.88366300731101
 20
-139.8209321872671
 30
0.0
 10
99.86193189675431
 20
-139.8419224650394
 30
0.0
 10
99.84919661930144
 20
-139.8729316316985
 30
0.0
 10
99.84919661930144
 20
-139.9032705205796
 30
0.0
  0
HATCH
  5
E2
330
1F
100
AcDbEntity
  8
_U+30EC_U+30A4_U+30E4_U+30FC 1
 62
   179
420
  2234388
100
AcDbHatch
 10
0.0
 20
0.0
 30
0.0
210
0.0
220
0.0
230
1.0
  2
SOLID
 70
     1
 71
     0
 91
        1
 92
        1
 93
        2
 72
     4
 94
        3
 73
     0
 74
     0
 95
       17
 96
       13
 40
0.0
 40
0.0
 40
0.0
 40
0.0
 40
0.3527777776895833
 40
0.3527777776895833
 40
0.3527777776895833
 40
0.7055555553791667
 40
0.7055555553791667
 40
0.7055555553791667
 40
1.05833333306875
 40
1.05833333306875
 40
1.05833333306875
 40
1.411111110758333
 40
1.411111110758333
 40
1.411111110758333
 40
1.411111110758333
 10
100.0827707800091
 20
-139.9032705205796
 10
100.0827707800091
 20
-139.8729316316985
 10
100.070388280325
 20
-139.8419224650394
 10
100.0490099475371
 20
-139.8209321872671
 10
100.0273166416597
 20
-139.7992363539393
 10
99.9966577266505
 20
-139.7864657983868
 10
99.96631883853563
 20
-139.7864657983868
 10
99.93566245042885
 20
-139.7864657983868
 10
99.90500606232206
 20
-139.7992363539393
 10
99.88366300731101
 20
-139.8209321872671
 10
99.86193189675431
 20
-139.8419224650394
 10
99.84919661930144
 20
-139.8729316316985
 10
99.84919661930144
 20
-139.9032705205796
 97
        0
 72
     1
 10
99.84919661930144
 20
-139.9032705205796
 11
100.0827707800091
 21
-139.9032705205796
 97
        0
 75
     2
 76
     1
 98
        0
  0
SPLINE
  5
E3
330
1F
100
AcDbEntity
  8
_U+30EC_U+30A4_U+30E4_U+30FC 1
370
     0
100
AcDbSpline
210
0.0
220
0.0
230
1.0
 70
     8
 71
     3
 72
    17
 73
    13
 74
     0
 42
0.0000000001
 43
0.0000000001
 12
1.0
 22
0.0
 32
0.0
 13
1.0
 23
0.0
 33
0.0
 40
0.0
 40
0.0
 40
0.0
 40
0.0
 40
1.0
 40
1.0
 40
1.0
 40
2.0
 40
2.0
 40
2.0
 40
3.0
 40
3.0
 40
3.0
 40
4.0
 40
4.0
 40
4.0
 40
4.0
 10
103.3049749741739
 20
-131.6928969115213
 30
0.0
 10
103.3049749741739
 20
-131.7232358004024
 30
0.0
 10
103.3177076419235
 20
-131.7535394115059
 30
0.0
 10
103.3394387524802
 20
-131.7755880226115
 30
0.0
 10
103.36113458526
 20
-131.7969663559398
 30
0.0
 10
103.391438195598
 20
-131.8093488559363
 30
0.0
 10
103.4217770837129
 20
-131.8093488559363
 30
0.0
 10
103.4524360852481
 20
-131.8093488559363
 30
0.0
 10
103.4827370821577
 20
-131.7969663559398
 30
0.0
 10
103.5044329149375
 20
-131.7755880226115
 30
0.0
 10
103.5258138630077
 20
-131.7535394115059
 30
0.0
 10
103.5385465251783
 20
-131.7232358004024
 30
0.0
 10
103.5385465251783
 20
-131.6928969115213
 30
0.0
  0
HATCH
  5
E4
330
1F
100
AcDbEntity
  8
_U+30EC_U+30A4_U+30E4_U+30FC 1
 62
   179
420
  2234388
100
AcDbHatch
 10
0.0
 20
0.0
 30
0.0
210
0.0
220
0.0
230
1.0
  2
SOLID
 70
     1
 71
     0
 91
        1
 92
        1
 93
        2
 72
     4
 94
        3
 73
     0
 74
     0
 95
       17
 96
       13
 40
0.0
 40
0.0
 40
0.0
 40
0.0
 40
0.3527777776895833
 40
0.3527777776895833
 40
0.3527777776895833
 40
0.7055555553791667
 40
0.7055555553791667
 40
0.7055555553791667
 40
1.05833333306875
 40
1.05833333306875
 40
1.05833333306875
 40
1.411111110758333
 40
1.411111110758333
 40
1.411111110758333
 40
1.411111110758333
 10
103.3049749741739
 20
-131.6928969115213
 10
103.3049749741739
 20
-131.7232358004024
 10
103.3177076419235
 20
-131.7535394115059
 10
103.3394387524802
 20
-131.7755880226115
 10
103.36113458526
 20
-131.7969663559398
 10
103.391438195598
 20
-131.8093488559363
 10
103.4217770837129
 20
-131.8093488559363
 10
103.4524360852481
 20
-131.8093488559363
 10
103.4827370821577
 20
-131.7969663559398
 10
103.5044329149375
 20
-131.7755880226115
 10
103.5258138630077
 20
-131.7535394115059
 10
103.5385465251783
 20
-131.7232358004024
 10
103.5385465251783
 20
-131.6928969115213
 97
        0
 72
     1
 10
103.5385465251783
 20
-131.6928969115213
 11
103.3049749741739
 21
-131.6928969115213
 97
        0
 75
     2
 76
     1
 98
        0
  0
SPLINE
  5
E5
330
1F
100
AcDbEntity
  8
_U+30EC_U+30A4_U+30E4_U+30FC 1
370
     0
100
AcDbSpline
210
0.0
220
0.0
230
1.0
 70
     8
 71
     3
 72
    17
 73
    13
 74
     0
 42
0.0000000001
 43
0.0000000001
 12
1.0
 22
0.0
 32
0.0
 13
1.0
 23
0.0
 33
0.0
 40
0.0
 40
0.0
 40
0.0
 40
0.0
 40
1.0
 40
1.0
 40
1.0
 40
2.0
 40
2.0
 40
2.0
 40
3.0
 40
3.0
 40
3.0
 40
4.0
 40
4.0
 40
4.0
 40
4.0
 10
103.5385465251783
 20
-131.6928969115213
 30
0.0
 10
103.5385465251783
 20
-131.66224052264
 30
0.0
 10
103.5258138630077
 20
-131.6319369115364
 30
0.0
 10
103.5044329149375
 20
-131.6102410782086
 30
0.0
 10
103.4827370821577
 20
-131.5888627448803
 30
0.0
 10
103.4524360852481
 20
-131.576127467106
 30
0.0
 10
103.4217770837129
 20
-131.576127467106
 30
0.0
 10
103.391438195598
 20
-131.576127467106
 30
0.0
 10
103.36113458526
 20
-131.5888627448803
 30
0.0
 10
103.3394387524802
 20
-131.6102410782086
 30
0.0
 10
103.3177076419235
 20
-131.6319369115364
 30
0.0
 10
103.3049749741739
 20
-131.66224052264
 30
0.0
 10
103.3049749741739
 20
-131.6928969115213
 30
0.0
  0
HATCH
  5
E6
330
1F
100
AcDbEntity
  8
_U+30EC_U+30A4_U+30E4_U+30FC 1
 62
   179
420
  2234388
100
AcDbHatch
 10
0.0
 20
0.0
 30
0.0
210
0.0
220
0.0
230
1.0
  2
SOLID
 70
     1
 71
     0
 91
        1
 92
        1
 93
        2
 72
     4
 94
        3
 73
     0
 74
     0
 95
       17
 96
       13
 40
0.0
 40
0.0
 40
0.0
 40
0.0
 40
0.3527777776895833
 40
0.3527777776895833
 40
0.3527777776895833
 40
0.7055555553791667
 40
0.7055555553791667
 40
0.7055555553791667
 40
1.05833333306875
 40
1.05833333306875
 40
1.05833333306875
 40
1.411111110758333
 40
1.411111110758333
 40
1.411111110758333
 40
1.411111110758333
 10
103.5385465251783
 20
-131.6928969115213
 10
103.5385465251783
 20
-131.66224052264
 10
103.5258138630077
 20
-131.6319369115364
 10
103.5044329149375
 20
-131.6102410782086
 10
103.4827370821577
 20
-131.5888627448803
 10
103.4524360852481
 20
-131.576127467106
 10
103.4217770837129
 20
-131.576127467106
 10
103.391438195598
 20
-131.576127467106
 10
103.36113458526
 20
-131.5888627448803
 10
103.3394387524802
 20
-131.6102410782086
 10
103.3177076419235
 20
-131.6319369115364
 10
103.3049749741739
 20
-131.66224052264
 10
103.3049749741739
 20
-131.6928969115213
 97
        0
 72
     1
 10
103.3049749741739
 20
-131.6928969115213
 11
103.5385465251783
 21
-131.6928969115213
 97
        0
 75
     2
 76
     1
 98
        0
  0
SPLINE
  5
E7
330
1F
100
AcDbEntity
  8
_U+30EC_U+30A4_U+30E4_U+30FC 1
370
     0
100
AcDbSpline
210
0.0
220
0.0
230
1.0
 70
     8
 71
     3
 72
    17
 73
    13
 74
     0
 42
0.0000000001
 43
0.0000000001
 12
1.0
 22
0.0
 32
0.0
 13
1.0
 23
0.0
 33
0.0
 40
0.0
 40
0.0
 40
0.0
 40
0.0
 40
1.0
 40
1.0
 40
1.0
 40
2.0
 40
2.0
 40
2.0
 40
3.0
 40
3.0
 40
3.0
 40
4.0
 40
4.0
 40
4.0
 40
4.0
 10
103.3049749741739
 20
-127.8960555235815
 30
0.0
 10
103.3049749741739
 20
-127.926218023574
 30
0.0
 10
103.3177076419235
 20
-127.9568744124553
 30
0.0
 10
103.3394387524802
 20
-127.9782174680054
 30
0.0
 10
103.36113458526
 20
-128.000124968
 30
0.0
 10
103.391438195598
 20
-128.012331079108
 30
0.0
 10
103.4217770837129
 20
-128.012331079108
 30
0.0
 10
103.4524360852481
 20
-128.012331079108
 30
0.0
 10
103.4827370821577
 20
-128.000124968
 30
0.0
 10
103.5044329149375
 20
-127.9782174680054
 30
0.0
 10
103.5258138630077
 20
-127.9568744124553
 30
0.0
 10
103.5385465251783
 20
-127.926218023574
 30
0.0
 10
103.5385465251783
 20
-127.8960555235815
 30
0.0
  0
HATCH
  5
E8
330
1F
100
AcDbEntity
  8
_U+30EC_U+30A4_U+30E4_U+30FC 1
 62
   179
420
  2234388
100
AcDbHatch
 10
0.0
 20
0.0
 30
0.0
210
0.0
220
0.0
230
1.0
  2
SOLID
 70
     1
 71
     0
 91
        1
 92
        1
 93
        2
 72
     4
 94
        3
 73
     0
 74
     0
 95
       17
 96
       13
 40
0.0
 40
0.0
 40
0.0
 40
0.0
 40
0.3527777776895833
 40
0.3527777776895833
 40
0.3527777776895833
 40
0.7055555553791667
 40
0.7055555553791667
 40
0.7055555553791667
 40
1.05833333306875
 40
1.05833333306875
 40
1.05833333306875
 40
1.411111110758333
 40
1.411111110758333
 40
1.411111110758333
 40
1.411111110758333
 10
103.3049749741739
 20
-127.8960555235815
 10
103.3049749741739
 20
-127.926218023574
 10
103.3177076419235
 20
-127.9568744124553
 10
103.3394387524802
 20
-127.9782174680054
 10
103.36113458526
 20
-128.000124968
 10
103.391438195598
 20
-128.012331079108
 10
103.4217770837129
 20
-128.012331079108
 10
103.4524360852481
 20
-128.012331079108
 10
103.4827370821577
 20
-128.000124968
 10
103.5044329149375
 20
-127.9782174680054
 10
103.5258138630077
 20
-127.9568744124553
 10
103.5385465251783
 20
-127.926218023574
 10
103.5385465251783
 20
-127.8960555235815
 97
        0
 72
     1
 10
103.5385465251783
 20
-127.8960555235815
 11
103.3049749741739
 21
-127.8960555235815
 97
        0
 75
     2
 76
     1
 98
        0
  0
SPLINE
  5
E9
330
1F
100
AcDbEntity
  8
_U+30EC_U+30A4_U+30E4_U+30FC 1
370
     0
100
AcDbSpline
210
0.0
220
0.0
230
1.0
 70
     8
 71
     3
 72
    17
 73
    13
 74
     0
 42
0.0000000001
 43
0.0000000001
 12
1.0
 22
0.0
 32
0.0
 13
1.0
 23
0.0
 33
0.0
 40
0.0
 40
0.0
 40
0.0
 40
0.0
 40
1.0
 40
1.0
 40
1.0
 40
2.0
 40
2.0
 40
2.0
 40
3.0
 40
3.0
 40
3.0
 40
4.0
 40
4.0
 40
4.0
 40
4.0
 10
103.5385465251783
 20
-127.8960555235815
 30
0.0
 10
103.5385465251783
 20
-127.8655755235891
 30
0.0
 10
103.5258138630077
 20
-127.8350955235967
 30
0.0
 10
103.5044329149375
 20
-127.8133996902688
 30
0.0
 10
103.4827370821577
 20
-127.791844968052
 30
0.0
 10
103.4524360852481
 20
-127.7792860791662
 30
0.0
 10
103.4217770837129
 20
-127.7792860791662
 30
0.0
 10
103.391438195598
 20
-127.7792860791662
 30
0.0
 10
103.36113458526
 20
-127.791844968052
 30
0.0
 10
103.3394387524802
 20
-127.8133996902688
 30
0.0
 10
103.3177076419235
 20
-127.8350955235967
 30
0.0
 10
103.3049749741739
 20
-127.8655755235891
 30
0.0
 10
103.3049749741739
 20
-127.8960555235815
 30
0.0
  0
HATCH
  5
EA
330
1F
100
AcDbEntity
  8
_U+30EC_U+30A4_U+30E4_U+30FC 1
 62
   179
420
  2234388
100
AcDbHatch
 10
0.0
 20
0.0
 30
0.0
210
0.0
220
0.0
230
1.0
  2
SOLID
 70
     1
 71
     0
 91
        1
 92
        1
 93
        2
 72
     4
 94
        3
 73
     0
 74
     0
 95
       17
 96
       13
 40
0.0
 40
0.0
 40
0.0
 40
0.0
 40
0.3527777776895833
 40
0.3527777776895833
 40
0.3527777776895833
 40
0.7055555553791667
 40
0.7055555553791667
 40
0.7055555553791667
 40
1.05833333306875
 40
1.05833333306875
 40
1.05833333306875
 40
1.411111110758333
 40
1.411111110758333
 40
1.411111110758333
 40
1.411111110758333
 10
103.5385465251783
 20
-127.8960555235815
 10
103.5385465251783
 20
-127.8655755235891
 10
103.5258138630077
 20
-127.8350955235967
 10
103.5044329149375
 20
-127.8133996902688
 10
103.4827370821577
 20
-127.791844968052
 10
103.4524360852481
 20
-127.7792860791662
 10
103.4217770837129
 20
-127.7792860791662
 10
103.391438195598
 20
-127.7792860791662
 10
103.36113458526
 20
-127.791844968052
 10
103.3394387524802
 20
-127.8133996902688
 10
103.3177076419235
 20
-127.8350955235967
 10
103.3049749741739
 20
-127.8655755235891
 10
103.3049749741739
 20
-127.8960555235815
 97
        0
 72
     1
 10
103.3049749741739
 20
-127.8960555235815
 11
103.5385465251783
 21
-127.8960555235815
 97
        0
 75
     2
 76
     1
 98
        0
  0
SPLINE
  5
EB
330
1F
100
AcDbEntity
  8
_U+30EC_U+30A4_U+30E4_U+30FC 1
370
     0
100
AcDbSpline
210
0.0
220
0.0
230
1.0
 70
     8
 71
     3
 72
    17
 73
    13
 74
     0
 42
0.0000000001
 43
0.0000000001
 12
1.0
 22
0.0
 32
0.0
 13
1.0
 23
0.0
 33
0.0
 40
0.0
 40
0.0
 40
0.0
 40
0.0
 40
1.0
 40
1.0
 40
1.0
 40
2.0
 40
2.0
 40
2.0
 40
3.0
 40
3.0
 40
3.0
 40
4.0
 40
4.0
 40
4.0
 40
4.0
 10
103.3049749741739
 20
-117.5359952483936
 30
0.0
 10
103.3049749741739
 20
-117.5664752483861
 30
0.0
 10
103.3177076419235
 20
-117.5966024706007
 30
0.0
 10
103.3394387524802
 20
-117.6181571928178
 30
0.0
 10
103.36113458526
 20
-117.6398530261457
 30
0.0
 10
103.391438195598
 20
-117.6524119150315
 30
0.0
 10
103.4217770837129
 20
-117.6524119150315
 30
0.0
 10
103.4524360852481
 20
-117.6524119150315
 30
0.0
 10
103.4827370821577
 20
-117.6398530261457
 30
0.0
 10
103.5044329149375
 20
-117.6181571928178
 30
0.0
 10
103.5258138630077
 20
-117.5966024706007
 30
0.0
 10
103.5385465251783
 20
-117.5664752483861
 30
0.0
 10
103.5385465251783
 20
-117.5359952483936
 30
0.0
  0
HATCH
  5
EC
330
1F
100
AcDbEntity
  8
_U+30EC_U+30A4_U+30E4_U+30FC 1
 62
   179
420
  2234388
100
AcDbHatch
 10
0.0
 20
0.0
 30
0.0
210
0.0
220
0.0
230
1.0
  2
SOLID
 70
     1
 71
     0
 91
        1
 92
        1
 93
        2
 72
     4
 94
        3
 73
     0
 74
     0
 95
       17
 96
       13
 40
0.0
 40
0.0
 40
0.0
 40
0.0
 40
0.3527777776895833
 40
0.3527777776895833
 40
0.3527777776895833
 40
0.7055555553791667
 40
0.7055555553791667
 40
0.7055555553791667
 40
1.05833333306875
 40
1.05833333306875
 40
1.05833333306875
 40
1.411111110758333
 40
1.411111110758333
 40
1.411111110758333
 40
1.411111110758333
 10
103.3049749741739
 20
-117.5359952483936
 10
103.3049749741739
 20
-117.5664752483861
 10
103.3177076419235
 20
-117.5966024706007
 10
103.3394387524802
 20
-117.6181571928178
 10
103.36113458526
 20
-117.6398530261457
 10
103.391438195598
 20
-117.6524119150315
 10
103.4217770837129
 20
-117.6524119150315
 10
103.4524360852481
 20
-117.6524119150315
 10
103.4827370821577
 20
-117.6398530261457
 10
103.5044329149375
 20
-117.6181571928178
 10
103.5258138630077
 20
-117.5966024706007
 10
103.5385465251783
 20
-117.5664752483861
 10
103.5385465251783
 20
-117.5359952483936
 97
        0
 72
     1
 10
103.5385465251783
 20
-117.5359952483936
 11
103.3049749741739
 21
-117.5359952483936
 97
        0
 75
     2
 76
     1
 98
        0
  0
SPLINE
  5
ED
330
1F
100
AcDbEntity
  8
_U+30EC_U+30A4_U+30E4_U+30FC 1
370
     0
100
AcDbSpline
210
0.0
220
0.0
230
1.0
 70
     8
 71
     3
 72
    17
 73
    13
 74
     0
 42
0.0000000001
 43
0.0000000001
 12
1.0
 22
0.0
 32
0.0
 13
1.0
 23
0.0
 33
0.0
 40
0.0
 40
0.0
 40
0.0
 40
0.0
 40
1.0
 40
1.0
 40
1.0
 40
2.0
 40
2.0
 40
2.0
 40
3.0
 40
3.0
 40
3.0
 40
4.0
 40
4.0
 40
4.0
 40
4.0
 10
103.5385465251783
 20
-117.5359952483936
 30
0.0
 10
103.5385465251783
 20
-117.5051271928459
 30
0.0
 10
103.5258138630077
 20
-117.4749999706313
 30
0.0
 10
103.5044329149375
 20
-117.4534805261923
 30
0.0
 10
103.4827370821577
 20
-117.4319258039755
 30
0.0
 10
103.4524360852481
 20
-117.4191905262008
 30
0.0
 10
103.4217770837129
 20
-117.4191905262008
 30
0.0
 10
103.391438195598
 20
-117.4191905262008
 30
0.0
 10
103.36113458526
 20
-117.4319258039755
 30
0.0
 10
103.3394387524802
 20
-117.4534805261923
 30
0.0
 10
103.3177076419235
 20
-117.4749999706313
 30
0.0
 10
103.3049749741739
 20
-117.5051271928459
 30
0.0
 10
103.3049749741739
 20
-117.5359952483936
 30
0.0
  0
HATCH
  5
EE
330
1F
100
AcDbEntity
  8
_U+30EC_U+30A4_U+30E4_U+30FC 1
 62
   179
420
  2234388
100
AcDbHatch
 10
0.0
 20
0.0
 30
0.0
210
0.0
220
0.0
230
1.0
  2
SOLID
 70
     1
 71
     0
 91
        1
 92
        1
 93
        2
 72
     4
 94
        3
 73
     0
 74
     0
 95
       17
 96
       13
 40
0.0
 40
0.0
 40
0.0
 40
0.0
 40
0.3527777776895833
 40
0.3527777776895833
 40
0.3527777776895833
 40
0.7055555553791667
 40
0.7055555553791667
 40
0.7055555553791667
 40
1.05833333306875
 40
1.05833333306875
 40
1.05833333306875
 40
1.411111110758333
 40
1.411111110758333
 40
1.411111110758333
 40
1.411111110758333
 10
103.5385465251783
 20
-117.5359952483936
 10
103.5385465251783
 20
-117.5051271928459
 10
103.5258138630077
 20
-117.4749999706313
 10
103.5044329149375
 20
-117.4534805261923
 10
103.4827370821577
 20
-117.4319258039755
 10
103.4524360852481
 20
-117.4191905262008
 10
103.4217770837129
 20
-117.4191905262008
 10
103.391438195598
 20
-117.4191905262008
 10
103.36113458526
 20
-117.4319258039755
 10
103.3394387524802
 20
-117.4534805261923
 10
103.3177076419235
 20
-117.4749999706313
 10
103.3049749741739
 20
-117.5051271928459
 10
103.3049749741739
 20
-117.5359952483936
 97
        0
 72
     1
 10
103.3049749741739
 20
-117.5359952483936
 11
103.5385465251783
 21
-117.5359952483936
 97
        0
 75
     2
 76
     1
 98
        0
  0
POLYLINE
  5
EF
330
1F
100
AcDbEntity
  8
_U+30EC_U+30A4_U+30E4_U+30FC 1
 62
   179
420
  2234388
370
     9
100
AcDb2dPolyline
 66
     1
 10
0.0
 20
0.0
 30
0.0
  0
VERTEX
  5
F0
330
EF
100
AcDbEntity
  8
_U+30EC_U+30A4_U+30E4_U+30FC 1
 62
   179
420
  2234388
370
     9
100
AcDbVertex
100
AcDb2dVertex
 10
100.3246352182831
 20
-117.522201637286
 30
0.0
  0
VERTEX
  5
F1
330
EF
100
AcDbEntity
  8
_U+30EC_U+30A4_U+30E4_U+30FC 1
 62
   179
420
  2234388
370
     9
100
AcDbVertex
100
AcDb2dVertex
 10
104.2310166406091
 20
-117.522201637286
 30
0.0
  0
SEQEND
  5
F2
330
EF
100
AcDbEntity
  8
_U+30EC_U+30A4_U+30E4_U+30FC 1
 62
   179
420
  2234388
370
     9
  0
ENDSEC
  0
SECTION
  2
OBJECTS
  0
DICTIONARY
  5
C
330
0
100
AcDbDictionary
281
     1
  3
ACAD_GROUP
350
D
  3
ACAD_LAYOUT
350
1A
  3
ACAD_MATERIAL
350
3B
  3
ACAD_MLEADERSTYLE
350
F4
  3
ACAD_MLINESTYLE
350
17
  3
ACAD_PLOTSETTINGS
350
19
  3
ACAD_PLOTSTYLENAME
350
E
  3
ACAD_TABLESTYLE
350
F3
  3
ACAD_VISUALSTYLE
350
2A
  0
SUN
  5
3F
330
29
100
AcDbSun
 90
        1
290
     0
 63
     7
421
 16777215
 40
1.0
291
     1
 91
  2455826
 92
 54000000
292
     0
 70
     2
 71
   256
280
     1
  0
DICTIONARY
  5
D
102
{ACAD_REACTORS
330
C
102
}
330
C
100
AcDbDictionary
281
     1
  0
DICTIONARY
  5
1A
102
{ACAD_REACTORS
330
C
102
}
330
C
100
AcDbDictionary
281
     1
  3
Layout1
350
1E
  3
Layout2
350
26
  3
Model
350
22
  0
DICTIONARY
  5
3B
102
{ACAD_REACTORS
330
C
102
}
330
C
100
AcDbDictionary
281
     1
  3
ByBlock
350
3D
  3
ByLayer
350
3C
  3
Global
350
3E
  0
DICTIONARY
  5
F4
102
{ACAD_REACTORS
330
C
102
}
330
C
100
AcDbDictionary
281
     1
  0
DICTIONARY
  5
17
102
{ACAD_REACTORS
330
C
102
}
330
C
100
AcDbDictionary
281
     1
  3
Standard
350
18
  0
DICTIONARY
  5
19
102
{ACAD_REACTORS
330
C
102
}
330
C
100
AcDbDictionary
281
     1
  0
ACDBDICTIONARYWDFLT
  5
E
102
{ACAD_REACTORS
330
C
102
}
330
C
100
AcDbDictionary
281
     1
  3
Normal
350
F
100
AcDbDictionaryWithDefault
340
F
  0
DICTIONARY
  5
F3
102
{ACAD_REACTORS
330
C
102
}
330
C
100
AcDbDictionary
281
     1
  0
DICTIONARY
  5
2A
102
{ACAD_REACTORS
330
C
102
}
330
C
100
AcDbDictionary
281
     1
  3
2dWireframe
350
2F
  3
3D Hidden
350
31
  3
3dWireframe
350
30
  3
Basic
350
32
  3
Brighten
350
36
  3
ColorChange
350
3A
  3
Conceptual
350
34
  3
Dim
350
35
  3
Facepattern
350
39
  3
Flat
350
2B
  3
FlatWithEdges
350
2C
  3
Gouraud
350
2D
  3
GouraudWithEdges
350
2E
  3
Linepattern
350
38
  3
Realistic
350
33
  3
Thicken
350
37
  0
LAYOUT
  5
1E
102
{ACAD_REACTORS
330
1A
102
}
330
1A
100
AcDbPlotSettings
  1

  2
none_device
  4

  6

 40
0.0
 41
0.0
 42
0.0
 43
0.0
 44
0.0
 45
0.0
 46
0.0
 47
0.0
 48
0.0
 49
0.0
140
0.0
141
0.0
142
1.0
143
1.0
 70
   688
 72
     0
 73
     0
 74
     5
  7

 75
    16
 76
     0
 77
     2
 78
   300
147
1.0
148
0.0
149
0.0
100
AcDbLayout
  1
Layout1
 70
     1
 71
     1
 10
0.0
 20
0.0
 11
12.0
 21
9.0
 12
0.0
 22
0.0
 32
0.0
 14
1.000000000000000E+20
 24
1.000000000000000E+20
 34
1.000000000000000E+20
 15
-1.000000000000000E+20
 25
-1.000000000000000E+20
 35
-1.000000000000000E+20
146
0.0
 13
0.0
 23
0.0
 33
0.0
 16
1.0
 26
0.0
 36
0.0
 17
0.0
 27
1.0
 37
0.0
 76
     0
330
1B
  0
LAYOUT
  5
26
102
{ACAD_REACTORS
330
1A
102
}
330
1A
100
AcDbPlotSettings
  1

  2
none_device
  4

  6

 40
0.0
 41
0.0
 42
0.0
 43
0.0
 44
0.0
 45
0.0
 46
0.0
 47
0.0
 48
0.0
 49
0.0
140
0.0
141
0.0
142
1.0
143
1.0
 70
   688
 72
     0
 73
     0
 74
     5
  7

 75
    16
 76
     0
 77
     2
 78
   300
147
1.0
148
0.0
149
0.0
100
AcDbLayout
  1
Layout2
 70
     1
 71
     2
 10
0.0
 20
0.0
 11
0.0
 21
0.0
 12
0.0
 22
0.0
 32
0.0
 14
0.0
 24
0.0
 34
0.0
 15
0.0
 25
0.0
 35
0.0
146
0.0
 13
0.0
 23
0.0
 33
0.0
 16
1.0
 26
0.0
 36
0.0
 17
0.0
 27
1.0
 37
0.0
 76
     0
330
23
  0
LAYOUT
  5
22
102
{ACAD_REACTORS
330
1A
102
}
330
1A
100
AcDbPlotSettings
  1

  2
none_device
  4

  6

 40
0.0
 41
0.0
 42
0.0
 43
0.0
 44
0.0
 45
0.0
 46
0.0
 47
0.0
 48
0.0
 49
0.0
140
0.0
141
0.0
142
1.0
143
1.0
 70
  1712
 72
     0
 73
     0
 74
     0
  7

 75
     0
 76
     0
 77
     2
 78
   300
147
1.0
148
0.0
149
0.0
100
AcDbLayout
  1
Model
 70
     1
 71
     0
 10
0.0
 20
0.0
 11
12.0
 21
9.0
 12
0.0
 22
0.0
 32
0.0
 14
1.000000000000000E+20
 24
1.000000000000000E+20
 34
1.000000000000000E+20
 15
-1.000000000000000E+20
 25
-1.000000000000000E+20
 35
-1.000000000000000E+20
146
0.0
 13
0.0
 23
0.0
 33
0.0
 16
1.0
 26
0.0
 36
0.0
 17
0.0
 27
1.0
 37
0.0
 76
     0
330
1F
331
29
  0
MATERIAL
  5
3D
102
{ACAD_REACTORS
330
3B
102
}
330
3B
100
AcDbMaterial
  1
ByBlock
 72
     1
 94
      127
  0
MATERIAL
  5
3C
102
{ACAD_REACTORS
330
3B
102
}
330
3B
100
AcDbMaterial
  1
ByLayer
 72
     1
 94
      127
  0
MATERIAL
  5
3E
102
{ACAD_REACTORS
330
3B
102
}
330
3B
100
AcDbMaterial
  1
Global
 72
     1
 94
      127
  0
MLINESTYLE
  5
18
102
{ACAD_REACTORS
330
17
102
}
330
17
100
AcDbMlineStyle
  2
Standard
 70
     0
  3

 62
   256
 51
90.0
 52
90.0
 71
     2
 49
0.5
 62
   256
  6
BYLAYER
 49
-0.5
 62
   256
  6
BYLAYER
  0
ACDBPLACEHOLDER
  5
F
102
{ACAD_REACTORS
330
E
102
}
330
E
  0
VISUALSTYLE
  5
2F
102
{ACAD_REACTORS
330
2A
102
}
330
2A
100
AcDbVisualStyle
  2
2dWireframe
 70
     4
177
     2
291
     0
 71
     0
176
     1
 72
     2
176
     1
 73
     0
176
     1
 90
        0
176
     1
 40
-0.6
176
     1
 41
-30.0
176
     1
 62
     5
 63
     7
421
 16777215
176
     1
 74
     1
176
     1
 91
        4
176
     1
 64
     7
176
     1
 65
   257
176
     1
 75
     1
176
     1
175
     1
176
     1
 42
1.0
176
     1
 92
        0
176
     1
 66
   257
176
     1
 43
1.0
176
     1
 76
     1
176
     1
 77
     6
176
     1
 78
     2
176
     1
 67
     7
176
     1
 79
     5
176
     1
170
     0
176
     1
171
     0
176
     1
290
     0
176
     1
 93
        1
176
     1
 44
0.0
176
     1
173
     0
176
     1
  0
VISUALSTYLE
  5
31
102
{ACAD_REACTORS
330
2A
102
}
330
2A
100
AcDbVisualStyle
  2
3D Hidden
 70
     6
177
     2
291
     0
 71
     1
176
     1
 72
     2
176
     1
 73
     2
176
     1
 90
        0
176
     1
 40
-0.6
176
     1
 41
-30.0
176
     1
 62
     5
 63
     7
421
 16777215
176
     1
 74
     2
176
     1
 91
        2
176
     1
 64
     7
176
     1
 65
   257
176
     1
 75
     2
176
     1
175
     1
176
     1
 42
40.0
176
     1
 92
        0
176
     1
 66
   257
176
     1
 43
1.0
176
     1
 76
     1
176
     1
 77
     6
176
     1
 78
     2
176
     1
 67
     7
176
     1
 79
     3
176
     1
170
     0
176
     1
171
     0
176
     1
290
     0
176
     1
 93
        1
176
     1
 44
0.0
176
     1
173
     0
176
     1
  0
VISUALSTYLE
  5
30
102
{ACAD_REACTORS
330
2A
102
}
330
2A
100
AcDbVisualStyle
  2
3dWireframe
 70
     5
177
     2
291
     0
 71
     0
176
     1
 72
     2
176
     1
 73
     0
176
     1
 90
        0
176
     1
 40
-0.6
176
     1
 41
-30.0
176
     1
 62
     5
 63
     7
421
 16777215
176
     1
 74
     1
176
     1
 91
        4
176
     1
 64
     7
176
     1
 65
   257
176
     1
 75
     1
176
     1
175
     1
176
     1
 42
1.0
176
     1
 92
        0
176
     1
 66
   257
176
     1
 43
1.0
176
     1
 76
     1
176
     1
 77
     6
176
     1
 78
     2
176
     1
 67
     7
176
     1
 79
     5
176
     1
170
     0
176
     1
171
     0
176
     1
290
     0
176
     1
 93
        1
176
     1
 44
0.0
176
     1
173
     0
176
     1
  0
VISUALSTYLE
  5
32
102
{ACAD_REACTORS
330
2A
102
}
330
2A
100
AcDbVisualStyle
  2
Basic
 70
     7
177
     2
291
     1
 71
     1
176
     1
 72
     0
176
     1
 73
     1
176
     1
 90
        0
176
     1
 40
-0.6
176
     1
 41
-30.0
176
     1
 62
     5
 63
     7
421
 16777215
176
     1
 74
     0
176
     1
 91
        4
176
     1
 64
     7
176
     1
 65
   257
176
     1
 75
     1
176
     1
175
     1
176
     1
 42
1.0
176
     1
 92
        8
176
     1
 66
     7
176
     1
 43
1.0
176
     1
 76
     1
176
     1
 77
     6
176
     1
 78
     2
176
     1
 67
     7
176
     1
 79
     5
176
     1
170
     0
176
     1
171
     0
176
     1
290
     0
176
     1
 93
        1
176
     1
 44
0.0
176
     1
173
     0
176
     1
  0
VISUALSTYLE
  5
36
102
{ACAD_REACTORS
330
2A
102
}
330
2A
100
AcDbVisualStyle
  2
Brighten
 70
    12
177
     2
291
     1
 71
     2
176
     1
 72
     2
176
     1
 73
     0
176
     1
 90
        0
176
     1
 40
-0.6
176
     1
 41
-30.0
176
     1
 62
     5
 63
     7
421
 16777215
176
     1
 74
     1
176
     1
 91
        4
176
     1
 64
     7
176
     1
 65
   257
176
     1
 75
     1
176
     1
175
     1
176
     1
 42
1.0
176
     1
 92
        8
176
     1
 66
     7
176
     1
 43
1.0
176
     1
 76
     1
176
     1
 77
     6
176
     1
 78
     2
176
     1
 67
     7
176
     1
 79
     5
176
     1
170
     0
176
     1
171
     0
176
     1
290
     0
176
     1
 93
        1
176
     1
 44
50.0
176
     1
173
     0
176
     1
  0
VISUALSTYLE
  5
3A
102
{ACAD_REACTORS
330
2A
102
}
330
2A
100
AcDbVisualStyle
  2
ColorChange
 70
    16
177
     2
291
     1
 71
     2
176
     1
 72
     2
176
     1
 73
     3
176
     1
 90
        0
176
     1
 40
-0.6
176
     1
 41
-30.0
176
     1
 62
     5
 63
     8
421
  8421504
176
     1
 74
     1
176
     1
 91
        4
176
     1
 64
     7
176
     1
 65
   257
176
     1
 75
     1
176
     1
175
     1
176
     1
 42
1.0
176
     1
 92
        8
176
     1
 66
     8
424
  8421504
176
     1
 43
1.0
176
     1
 76
     1
176
     1
 77
     6
176
     1
 78
     2
176
     1
 67
     7
176
     1
 79
     5
176
     1
170
     0
176
     1
171
     0
176
     1
290
     0
176
     1
 93
        1
176
     1
 44
0.0
176
     1
173
     0
176
     1
  0
VISUALSTYLE
  5
34
102
{ACAD_REACTORS
330
2A
102
}
330
2A
100
AcDbVisualStyle
  2
Conceptual
 70
     9
177
     2
291
     0
 71
     3
176
     1
 72
     2
176
     1
 73
     0
176
     1
 90
        0
176
     1
 40
-0.6
176
     1
 41
-30.0
176
     1
 62
     5
 63
     7
421
 16777215
176
     1
 74
     2
176
     1
 91
        2
176
     1
 64
     7
176
     1
 65
   257
176
     1
 75
     1
176
     1
175
     1
176
     1
 42
40.0
176
     1
 92
        8
176
     1
 66
     7
176
     1
 43
1.0
176
     1
 76
     1
176
     1
 77
     6
176
     1
 78
     2
176
     1
 67
     7
176
     1
 79
     3
176
     1
170
     0
176
     1
171
     0
176
     1
290
     0
176
     1
 93
        1
176
     1
 44
0.0
176
     1
173
     0
176
     1
  0
VISUALSTYLE
  5
35
102
{ACAD_REACTORS
330
2A
102
}
330
2A
100
AcDbVisualStyle
  2
Dim
 70
    11
177
     2
291
     1
 71
     2
176
     1
 72
     2
176
     1
 73
     0
176
     1
 90
        0
176
     1
 40
-0.6
176
     1
 41
-30.0
176
     1
 62
     5
 63
     7
421
 16777215
176
     1
 74
     1
176
     1
 91
        4
176
     1
 64
     7
176
     1
 65
   257
176
     1
 75
     1
176
     1
175
     1
176
     1
 42
1.0
176
     1
 92
        8
176
     1
 66
     7
176
     1
 43
1.0
176
     1
 76
     1
176
     1
 77
     6
176
     1
 78
     2
176
     1
 67
     7
176
     1
 79
     5
176
     1
170
     0
176
     1
171
     0
176
     1
290
     0
176
     1
 93
        1
176
     1
 44
-50.0
176
     1
173
     0
176
     1
  0
VISUALSTYLE
  5
39
102
{ACAD_REACTORS
330
2A
102
}
330
2A
100
AcDbVisualStyle
  2
Facepattern
 70
    15
177
     2
291
     1
 71
     2
176
     1
 72
     2
176
     1
 73
     0
176
     1
 90
        0
176
     1
 40
-0.6
176
     1
 41
-30.0
176
     1
 62
     5
 63
     7
421
 16777215
176
     1
 74
     1
176
     1
 91
        4
176
     1
 64
     7
176
     1
 65
   257
176
     1
 75
     1
176
     1
175
     1
176
     1
 42
1.0
176
     1
 92
        8
176
     1
 66
     7
176
     1
 43
1.0
176
     1
 76
     1
176
     1
 77
     6
176
     1
 78
     2
176
     1
 67
     7
176
     1
 79
     5
176
     1
170
     0
176
     1
171
     0
176
     1
290
     0
176
     1
 93
        1
176
     1
 44
0.0
176
     1
173
     0
176
     1
  0
VISUALSTYLE
  5
2B
102
{ACAD_REACTORS
330
2A
102
}
330
2A
100
AcDbVisualStyle
  2
Flat
 70
     0
177
     2
291
     1
 71
     2
176
     1
 72
     1
176
     1
 73
     1
176
     1
 90
        2
176
     1
 40
-0.6
176
     1
 41
30.0
176
     1
 62
     5
 63
     7
421
 16777215
176
     1
 74
     0
176
     1
 91
        4
176
     1
 64
     7
176
     1
 65
   257
176
     1
 75
     1
176
     1
175
     1
176
     1
 42
1.0
176
     1
 92
        8
176
     1
 66
     7
176
     1
 43
1.0
176
     1
 76
     1
176
     1
 77
     6
176
     1
 78
     2
176
     1
 67
     7
176
     1
 79
     5
176
     1
170
     0
176
     1
171
     0
176
     1
290
     0
176
     1
 93
       13
176
     1
 44
0.0
176
     1
173
     0
176
     1
  0
VISUALSTYLE
  5
2C
102
{ACAD_REACTORS
330
2A
102
}
330
2A
100
AcDbVisualStyle
  2
FlatWithEdges
 70
     1
177
     2
291
     1
 71
     2
176
     1
 72
     1
176
     1
 73
     1
176
     1
 90
        2
176
     1
 40
-0.6
176
     1
 41
30.0
176
     1
 62
     5
 63
     7
421
 16777215
176
     1
 74
     1
176
     1
 91
        4
176
     1
 64
     7
176
     1
 65
   257
176
     1
 75
     1
176
     1
175
     1
176
     1
 42
1.0
176
     1
 92
        0
176
     1
 66
   257
176
     1
 43
1.0
176
     1
 76
     1
176
     1
 77
     6
176
     1
 78
     2
176
     1
 67
     7
176
     1
 79
     5
176
     1
170
     0
176
     1
171
     0
176
     1
290
     0
176
     1
 93
       13
176
     1
 44
0.0
176
     1
173
     0
176
     1
  0
VISUALSTYLE
  5
2D
102
{ACAD_REACTORS
330
2A
102
}
330
2A
100
AcDbVisualStyle
  2
Gouraud
 70
     2
177
     2
291
     1
 71
     2
176
     1
 72
     2
176
     1
 73
     1
176
     1
 90
        2
176
     1
 40
-0.6
176
     1
 41
30.0
176
     1
 62
     5
 63
     7
421
 16777215
176
     1
 74
     0
176
     1
 91
        4
176
     1
 64
     7
176
     1
 65
   257
176
     1
 75
     1
176
     1
175
     1
176
     1
 42
1.0
176
     1
 92
        0
176
     1
 66
     7
176
     1
 43
1.0
176
     1
 76
     1
176
     1
 77
     6
176
     1
 78
     2
176
     1
 67
     7
176
     1
 79
     5
176
     1
170
     0
176
     1
171
     0
176
     1
290
     0
176
     1
 93
       13
176
     1
 44
0.0
176
     1
173
     0
176
     1
  0
VISUALSTYLE
  5
2E
102
{ACAD_REACTORS
330
2A
102
}
330
2A
100
AcDbVisualStyle
  2
GouraudWithEdges
 70
     3
177
     2
291
     1
 71
     2
176
     1
 72
     2
176
     1
 73
     1
176
     1
 90
        2
176
     1
 40
-0.6
176
     1
 41
30.0
176
     1
 62
     5
 63
     7
421
 16777215
176
     1
 74
     1
176
     1
 91
        4
176
     1
 64
     7
176
     1
 65
   257
176
     1
 75
     1
176
     1
175
     1
176
     1
 42
1.0
176
     1
 92
        0
176
     1
 66
   257
176
     1
 43
1.0
176
     1
 76
     1
176
     1
 77
     6
176
     1
 78
     2
176
     1
 67
     7
176
     1
 79
     5
176
     1
170
     0
176
     1
171
     0
176
     1
290
     0
176
     1
 93
       13
176
     1
 44
0.0
176
     1
173
     0
176
     1
  0
VISUALSTYLE
  5
38
102
{ACAD_REACTORS
330
2A
102
}
330
2A
100
AcDbVisualStyle
  2
Linepattern
 70
    14
177
     2
291
     1
 71
     2
176
     1
 72
     2
176
     1
 73
     0
176
     1
 90
        0
176
     1
 40
-0.6
176
     1
 41
-30.0
176
     1
 62
     5
 63
     7
421
 16777215
176
     1
 74
     1
176
     1
 91
        4
176
     1
 64
     7
176
     1
 65
   257
176
     1
 75
     7
176
     1
175
     7
176
     1
 42
1.0
176
     1
 92
        8
176
     1
 66
     7
176
     1
 43
1.0
176
     1
 76
     1
176
     1
 77
     6
176
     1
 78
     2
176
     1
 67
     7
176
     1
 79
     5
176
     1
170
     0
176
     1
171
     0
176
     1
290
     0
176
     1
 93
        1
176
     1
 44
0.0
176
     1
173
     0
176
     1
  0
VISUALSTYLE
  5
33
102
{ACAD_REACTORS
330
2A
102
}
330
2A
100
AcDbVisualStyle
  2
Realistic
 70
     8
177
     2
291
     0
 71
     2
176
     1
 72
     2
176
     1
 73
     0
176
     1
 90
        0
176
     1
 40
-0.6
176
     1
 41
-30.0
176
     1
 62
     5
 63
     7
421
 16777215
176
     1
 74
     1
176
     1
 91
        0
176
     1
 64
     7
176
     1
 65
   257
176
     1
 75
     1
176
     1
175
     1
176
     1
 42
1.0
176
     1
 92
        8
176
     1
 66
     8
424
  7895160
176
     1
 43
1.0
176
     1
 76
     1
176
     1
 77
     6
176
     1
 78
     2
176
     1
 67
     7
176
     1
 79
     5
176
     1
170
     0
176
     1
171
     0
176
     1
290
     0
176
     1
 93
       13
176
     1
 44
0.0
176
     1
173
     0
176
     1
  0
VISUALSTYLE
  5
37
102
{ACAD_REACTORS
330
2A
102
}
330
2A
100
AcDbVisualStyle
  2
Thicken
 70
    13
177
     2
291
     1
 71
     2
176
     1
 72
     2
176
     1
 73
     0
176
     1
 90
        0
176
     1
 40
-0.6
176
     1
 41
-30.0
176
     1
 62
     5
 63
     7
421
 16777215
176
     1
 74
     1
176
     1
 91
        4
176
     1
 64
     7
176
     1
 65
   257
176
     1
 75
     1
176
     1
175
     1
176
     1
 42
1.0
176
     1
 92
       12
176
     1
 66
     7
176
     1
 43
1.0
176
     1
 76
     1
176
     1
 77
     6
176
     1
 78
     2
176
     1
 67
     7
176
     1
 79
     5
176
     1
170
     0
176
     1
171
     0
176
     1
290
     0
176
     1
 93
        1
176
     1
 44
0.0
176
     1
173
     0
176
     1
  0
ENDSEC
  0
EOF
