  0
SECTION
  2
HEADER
  9
$ACADVER
  1
AC1024
  9
$ACADMAINTVER
 70
     6
  9
$DWGCODEPAGE
  3
UNDEFINED
  9
$INSBASE
 10
0.0
 20
0.0
 30
0.0
  9
$EXTMIN
 10
1.000000000000000E+20
 20
1.000000000000000E+20
 30
1.000000000000000E+20
  9
$EXTMAX
 10
-1.000000000000000E+20
 20
-1.000000000000000E+20
 30
-1.000000000000000E+20
  9
$LIMMIN
 10
0.0
 20
0.0
  9
$LIMMAX
 10
12.0
 20
9.0
  9
$ORTHOMODE
 70
     0
  9
$REGENMODE
 70
     1
  9
$FILLMODE
 70
     1
  9
$QTEXTMODE
 70
     0
  9
$MIRRTEXT
 70
     1
  9
$LTSCALE
 40
1.0
  9
$ATTMODE
 70
     1
  9
$TEXTSIZE
 40
0.2
  9
$TRACEWID
 40
0.05
  9
$TEXTSTYLE
  7
Standard
  9
$CLAYER
  8
0
  9
$CELTYPE
  6
ByLayer
  9
$CECOLOR
 62
   256
  9
$CELTSCALE
 40
1.0
  9
$DISPSILH
 70
     0
  9
$DIMSCALE
 40
1.0
  9
$DIMASZ
 40
0.18
  9
$DIMEXO
 40
0.0625
  9
$DIMDLI
 40
0.38
  9
$DIMRND
 40
0.0
  9
$DIMDLE
 40
0.0
  9
$DIMEXE
 40
0.18
  9
$DIMTP
 40
0.0
  9
$DIMTM
 40
0.0
  9
$DIMTXT
 40
0.18
  9
$DIMCEN
 40
0.09
  9
$DIMTSZ
 40
0.0
  9
$DIMTOL
 70
     0
  9
$DIMLIM
 70
     0
  9
$DIMTIH
 70
     1
  9
$DIMTOH
 70
     1
  9
$DIMSE1
 70
     0
  9
$DIMSE2
 70
     0
  9
$DIMTAD
 70
     0
  9
$DIMZIN
 70
     0
  9
$DIMBLK
  1

  9
$DIMASO
 70
     1
  9
$DIMSHO
 70
     1
  9
$DIMPOST
  1

  9
$DIMAPOST
  1

  9
$DIMALT
 70
     0
  9
$DIMALTD
 70
     2
  9
$DIMALTF
 40
25.4
  9
$DIMLFAC
 40
1.0
  9
$DIMTOFL
 70
     0
  9
$DIMTVP
 40
0.0
  9
$DIMTIX
 70
     0
  9
$DIMSOXD
 70
     0
  9
$DIMSAH
 70
     0
  9
$DIMBLK1
  1

  9
$DIMBLK2
  1

  9
$DIMSTYLE
  2
Standard
  9
$DIMCLRD
 70
     0
  9
$DIMCLRE
 70
     0
  9
$DIMCLRT
 70
     0
  9
$DIMTFAC
 40
1.0
  9
$DIMGAP
 40
0.09
  9
$DIMJUST
 70
     0
  9
$DIMSD1
 70
     0
  9
$DIMSD2
 70
     0
  9
$DIMTOLJ
 70
     1
  9
$DIMTZIN
 70
     0
  9
$DIMALTZ
 70
     0
  9
$DIMALTTZ
 70
     0
  9
$DIMUPT
 70
     0
  9
$DIMDEC
 70
     4
  9
$DIMTDEC
 70
     4
  9
$DIMALTU
 70
     2
  9
$DIMALTTD
 70
     2
  9
$DIMTXSTY
  7
Standard
  9
$DIMAUNIT
 70
     0
  9
$DIMADEC
 70
     0
  9
$DIMALTRND
 40
0.0
  9
$DIMAZIN
 70
     0
  9
$DIMDSEP
 70
    46
  9
$DIMATFIT
 70
     3
  9
$DIMFRAC
 70
     0
  9
$DIMLDRBLK
  1

  9
$DIMLUNIT
 70
     2
  9
$DIMLWD
 70
    -2
  9
$DIMLWE
 70
    -2
  9
$DIMTMOVE
 70
     0
  9
$DIMFXL
 40
1.0
  9
$DIMFXLON
 70
     0
  9
$DIMJOGANG
 40
0.7853981633974483
  9
$DIMTFILL
 70
     0
  9
$DIMTFILLCLR
 70
     0
  9
$DIMARCSYM
 70
     0
  9
$DIMLTYPE
  6

  9
$DIMLTEX1
  6

  9
$DIMLTEX2
  6

  9
$DIMTXTDIRECTION
 70
     0
  9
$LUNITS
 70
     2
  9
$LUPREC
 70
     4
  9
$SKETCHINC
 40
0.1
  9
$FILLETRAD
 40
0.5
  9
$AUNITS
 70
     0
  9
$AUPREC
 70
     0
  9
$MENU
  1
.
  9
$ELEVATION
 40
0.0
  9
$PELEVATION
 40
0.0
  9
$THICKNESS
 40
0.0
  9
$LIMCHECK
 70
     0
  9
$CHAMFERA
 40
0.5
  9
$CHAMFERB
 40
0.5
  9
$CHAMFERC
 40
1.0
  9
$CHAMFERD
 40
0.0
  9
$SKPOLY
 70
     0
  9
$TDCREATE
 40
2457917.627361111
  9
$TDUCREATE
 40
2457917.252361111
  9
$TDUPDATE
 40
2457917.627361111
  9
$TDUUPDATE
 40
2457917.252361111
  9
$TDINDWG
 40
0.0000000116
  9
$TDUSRTIMER
 40
0.0000000116
  9
$USRTIMER
 70
     1
  9
$ANGBASE
 50
0.0
  9
$ANGDIR
 70
     0
  9
$PDMODE
 70
     0
  9
$PDSIZE
 40
0.0
  9
$PLINEWID
 40
0.0
  9
$SPLFRAME
 70
     0
  9
$SPLINETYPE
 70
     6
  9
$SPLINESEGS
 70
     8
  9
$HANDSEED
  5
18A
  9
$SURFTAB1
 70
     6
  9
$SURFTAB2
 70
     6
  9
$SURFTYPE
 70
     6
  9
$SURFU
 70
     6
  9
$SURFV
 70
     6
  9
$UCSBASE
  2

  9
$UCSNAME
  2

  9
$UCSORG
 10
0.0
 20
0.0
 30
0.0
  9
$UCSXDIR
 10
1.0
 20
0.0
 30
0.0
  9
$UCSYDIR
 10
0.0
 20
1.0
 30
0.0
  9
$UCSORTHOREF
  2

  9
$UCSORTHOVIEW
 70
     0
  9
$UCSORGTOP
 10
0.0
 20
0.0
 30
0.0
  9
$UCSORGBOTTOM
 10
0.0
 20
0.0
 30
0.0
  9
$UCSORGLEFT
 10
0.0
 20
0.0
 30
0.0
  9
$UCSORGRIGHT
 10
0.0
 20
0.0
 30
0.0
  9
$UCSORGFRONT
 10
0.0
 20
0.0
 30
0.0
  9
$UCSORGBACK
 10
0.0
 20
0.0
 30
0.0
  9
$PUCSBASE
  2

  9
$PUCSNAME
  2

  9
$PUCSORG
 10
0.0
 20
0.0
 30
0.0
  9
$PUCSXDIR
 10
1.0
 20
0.0
 30
0.0
  9
$PUCSYDIR
 10
0.0
 20
1.0
 30
0.0
  9
$PUCSORTHOREF
  2

  9
$PUCSORTHOVIEW
 70
     0
  9
$PUCSORGTOP
 10
0.0
 20
0.0
 30
0.0
  9
$PUCSORGBOTTOM
 10
0.0
 20
0.0
 30
0.0
  9
$PUCSORGLEFT
 10
0.0
 20
0.0
 30
0.0
  9
$PUCSORGRIGHT
 10
0.0
 20
0.0
 30
0.0
  9
$PUCSORGFRONT
 10
0.0
 20
0.0
 30
0.0
  9
$PUCSORGBACK
 10
0.0
 20
0.0
 30
0.0
  9
$USERI1
 70
     0
  9
$USERI2
 70
     0
  9
$USERI3
 70
     0
  9
$USERI4
 70
     0
  9
$USERI5
 70
     0
  9
$USERR1
 40
0.0
  9
$USERR2
 40
0.0
  9
$USERR3
 40
0.0
  9
$USERR4
 40
0.0
  9
$USERR5
 40
0.0
  9
$WORLDVIEW
 70
     1
  9
$SHADEDGE
 70
     3
  9
$SHADEDIF
 70
    70
  9
$TILEMODE
 70
     1
  9
$MAXACTVP
 70
    64
  9
$PINSBASE
 10
0.0
 20
0.0
 30
0.0
  9
$PLIMCHECK
 70
     0
  9
$PEXTMIN
 10
1.000000000000000E+20
 20
1.000000000000000E+20
 30
1.000000000000000E+20
  9
$PEXTMAX
 10
-1.000000000000000E+20
 20
-1.000000000000000E+20
 30
-1.000000000000000E+20
  9
$PLIMMIN
 10
0.0
 20
0.0
  9
$PLIMMAX
 10
12.0
 20
9.0
  9
$UNITMODE
 70
     0
  9
$VISRETAIN
 70
     1
  9
$PLINEGEN
 70
     0
  9
$PSLTSCALE
 70
     1
  9
$TREEDEPTH
 70
  3020
  9
$CMLSTYLE
  2
Standard
  9
$CMLJUST
 70
     0
  9
$CMLSCALE
 40
1.0
  9
$PROXYGRAPHICS
 70
     1
  9
$MEASUREMENT
 70
     0
  9
$CELWEIGHT
370
    -1
  9
$ENDCAPS
280
     0
  9
$JOINSTYLE
280
     0
  9
$LWDISPLAY
290
     1
  9
$INSUNITS
 70
     1
  9
$HYPERLINKBASE
  1

  9
$STYLESHEET
  1

  9
$XEDIT
290
     1
  9
$CEPSNTYPE
380
     0
  9
$PSTYLEMODE
290
     1
  9
$FINGERPRINTGUID
  2
{3B1259A0-BE00-132C-D80F-30015472D028}
  9
$VERSIONGUID
  2
{FAEB1C32-E019-11D5-929B-00C0DF256EC4}
  9
$EXTNAMES
290
     1
  9
$PSVPSCALE
 40
0.0
  9
$OLESTARTUP
290
     0
  9
$SORTENTS
280
   127
  9
$INDEXCTL
280
     0
  9
$HIDETEXT
280
     1
  9
$XCLIPFRAME
280
     2
  9
$HALOGAP
280
     0
  9
$OBSCOLOR
 70
   257
  9
$OBSLTYPE
280
     0
  9
$INTERSECTIONDISPLAY
280
     0
  9
$INTERSECTIONCOLOR
 70
   257
  9
$DIMASSOC
280
     2
  9
$PROJECTNAME
  1

  9
$CAMERADISPLAY
290
     0
  9
$LENSLENGTH
 40
50.0
  9
$CAMERAHEIGHT
 40
0.0
  9
$STEPSPERSEC
 40
2.0
  9
$STEPSIZE
 40
6.0
  9
$3DDWFPREC
 40
2.0
  9
$PSOLWIDTH
 40
0.25
  9
$PSOLHEIGHT
 40
4.0
  9
$LOFTANG1
 40
1.570796326794897
  9
$LOFTANG2
 40
1.570796326794897
  9
$LOFTMAG1
 40
0.0
  9
$LOFTMAG2
 40
0.0
  9
$LOFTPARAM
 70
     7
  9
$LOFTNORMALS
280
     1
  9
$LATITUDE
 40
37.795
  9
$LONGITUDE
 40
-122.394
  9
$NORTHDIRECTION
 40
0.0
  9
$TIMEZONE
 70
 -8000
  9
$LIGHTGLYPHDISPLAY
280
     1
  9
$TILEMODELIGHTSYNCH
280
     1
  9
$CMATERIAL
347
3C
  9
$SOLIDHIST
280
     1
  9
$SHOWHIST
280
     1
  9
$DWFFRAME
280
     2
  9
$DGNFRAME
280
     2
  9
$REALWORLDSCALE
290
     1
  9
$INTERFERECOLOR
 62
   256
  9
$CSHADOW
280
     0
  9
$SHADOWPLANELOCATION
 40
0.0
  0
ENDSEC
  0
SECTION
  2
CLASSES
  0
CLASS
  1
ACDBDICTIONARYWDFLT
  2
AcDbDictionaryWithDefault
  3
ObjectDBX Classes
 90
        0
 91
        4
280
     0
281
     0
  0
CLASS
  1
VISUALSTYLE
  2
AcDbVisualStyle
  3
ObjectDBX Classes
 90
     4095
 91
        4
280
     0
281
     0
  0
CLASS
  1
MATERIAL
  2
AcDbMaterial
  3
ObjectDBX Classes
 90
     1153
 91
        4
280
     0
281
     0
  0
CLASS
  1
SUN
  2
AcDbSun
  3
SCENEOE
 90
     1024
 91
        4
280
     0
281
     0
  0
ENDSEC
  0
SECTION
  2
TABLES
  0
TABLE
  2
VPORT
  5
8
330
0
100
AcDbSymbolTable
 70
     1
  0
VPORT
  5
29
330
8
100
AcDbSymbolTableRecord
100
AcDbViewportTableRecord
  2
*Active
 70
     0
 10
0.0
 20
0.0
 11
1.0
 21
1.0
 12
0.0
 22
0.0
 13
0.0
 23
0.0
 14
0.5
 24
0.5
 15
0.5
 25
0.5
 16
0.0
 26
0.0
 36
1.0
 17
91.00082462281999
 27
-128.4993055234307
 37
0.0
 40
256.9986110468615
 41
0.7081814508812795
 42
50.0
 43
0.0
 44
0.0
 50
0.0
 51
0.0
 71
     0
 72
   100
 73
     1
 74
     3
 75
     0
 76
     0
 77
     0
 78
     0
281
     0
 65
     1
110
0.0
120
0.0
130
0.0
111
1.0
121
0.0
131
0.0
112
0.0
122
1.0
132
0.0
 79
     0
146
0.0
 60
     3
 61
     5
292
     1
282
     1
141
0.0
142
0.0
 63
   250
361
3F
  0
ENDTAB
  0
TABLE
  2
LTYPE
  5
5
330
0
100
AcDbSymbolTable
 70
     1
  0
LTYPE
  5
14
330
5
100
AcDbSymbolTableRecord
100
AcDbLinetypeTableRecord
  2
ByBlock
 70
     0
  3

 72
    65
 73
     0
 40
0.0
  0
LTYPE
  5
15
330
5
100
AcDbSymbolTableRecord
100
AcDbLinetypeTableRecord
  2
ByLayer
 70
     0
  3

 72
    65
 73
     0
 40
0.0
  0
LTYPE
  5
16
330
5
100
AcDbSymbolTableRecord
100
AcDbLinetypeTableRecord
  2
Continuous
 70
     0
  3
Solid line
 72
    65
 73
     0
 40
0.0
  0
ENDTAB
  0
TABLE
  2
LAYER
  5
2
330
0
100
AcDbSymbolTable
 70
     2
  0
LAYER
  5
10
330
2
100
AcDbSymbolTableRecord
100
AcDbLayerTableRecord
  2
0
 70
     0
 62
     7
  6
Continuous
370
    -3
390
F
347
3E
  0
LAYER
  5
40
330
2
100
AcDbSymbolTableRecord
100
AcDbLayerTableRecord
  2
_U+30EC_U+30A4_U+30E4_U+30FC 1
 70
     0
 62
     7
  6
Continuous
370
    -3
390
F
347
3E
  0
ENDTAB
  0
TABLE
  2
STYLE
  5
3
330
0
100
AcDbSymbolTable
 70
     1
  0
STYLE
  5
11
330
3
100
AcDbSymbolTableRecord
100
AcDbTextStyleTableRecord
  2
Standard
 70
     0
 40
0.0
 41
1.0
 50
0.0
 71
     0
 42
0.2
  3
txt
  4

  0
ENDTAB
  0
TABLE
  2
VIEW
  5
6
330
0
100
AcDbSymbolTable
 70
     0
  0
ENDTAB
  0
TABLE
  2
UCS
  5
7
330
0
100
AcDbSymbolTable
 70
     0
  0
ENDTAB
  0
TABLE
  2
APPID
  5
9
330
0
100
AcDbSymbolTable
 70
     1
  0
APPID
  5
12
330
9
100
AcDbSymbolTableRecord
100
AcDbRegAppTableRecord
  2
ACAD
 70
     0
  0
ENDTAB
  0
TABLE
  2
DIMSTYLE
  5
A
330
0
100
AcDbSymbolTable
 70
     1
100
AcDbDimStyleTable
  0
DIMSTYLE
105
27
330
A
100
AcDbSymbolTableRecord
100
AcDbDimStyleTableRecord
  2
Standard
 70
     0
178
     0
340
11
  0
ENDTAB
  0
TABLE
  2
BLOCK_RECORD
  5
1
330
0
100
AcDbSymbolTable
 70
    11
  0
BLOCK_RECORD
  5
1F
330
1
100
AcDbSymbolTableRecord
100
AcDbBlockTableRecord
  2
*Model_Space
340
22
 70
     0
280
     1
281
     0
  0
BLOCK_RECORD
  5
1B
330
1
100
AcDbSymbolTableRecord
100
AcDbBlockTableRecord
  2
*Paper_Space
340
1E
 70
     0
280
     1
281
     0
  0
BLOCK_RECORD
  5
23
330
1
100
AcDbSymbolTableRecord
100
AcDbBlockTableRecord
  2
*Paper_Space0
340
26
 70
     0
280
     1
281
     0
  0
BLOCK_RECORD
  5
C6
330
1
100
AcDbSymbolTableRecord
100
AcDbBlockTableRecord
  2
block 2
340
0
102
{BLKREFS
331
C7
102
}
 70
     0
280
     1
281
     0
  0
BLOCK_RECORD
  5
DA
330
1
100
AcDbSymbolTableRecord
100
AcDbBlockTableRecord
  2
block 3
340
0
102
{BLKREFS
331
DB
102
}
 70
     0
280
     1
281
     0
  0
BLOCK_RECORD
  5
EA
330
1
100
AcDbSymbolTableRecord
100
AcDbBlockTableRecord
  2
block 4
340
0
102
{BLKREFS
331
EB
102
}
 70
     0
280
     1
281
     0
  0
BLOCK_RECORD
  5
103
330
1
100
AcDbSymbolTableRecord
100
AcDbBlockTableRecord
  2
block 5
340
0
102
{BLKREFS
331
104
102
}
 70
     0
280
     1
281
     0
  0
BLOCK_RECORD
  5
121
330
1
100
AcDbSymbolTableRecord
100
AcDbBlockTableRecord
  2
block 6
340
0
102
{BLKREFS
331
122
102
}
 70
     0
280
     1
281
     0
  0
BLOCK_RECORD
  5
135
330
1
100
AcDbSymbolTableRecord
100
AcDbBlockTableRecord
  2
block 7
340
0
102
{BLKREFS
331
136
102
}
 70
     0
280
     1
281
     0
  0
BLOCK_RECORD
  5
147
330
1
100
AcDbSymbolTableRecord
100
AcDbBlockTableRecord
  2
block 8
340
0
102
{BLKREFS
331
148
102
}
 70
     0
280
     1
281
     0
  0
BLOCK_RECORD
  5
157
330
1
100
AcDbSymbolTableRecord
100
AcDbBlockTableRecord
  2
block 9
340
0
102
{BLKREFS
331
158
102
}
 70
     0
280
     1
281
     0
  0
BLOCK_RECORD
  5
169
330
1
100
AcDbSymbolTableRecord
100
AcDbBlockTableRecord
  2
block 10
340
0
102
{BLKREFS
331
16A
102
}
 70
     0
280
     1
281
     0
  0
BLOCK_RECORD
  5
17E
330
1
100
AcDbSymbolTableRecord
100
AcDbBlockTableRecord
  2
block 11
340
0
102
{BLKREFS
331
17F
102
}
 70
     0
280
     1
281
     0
  0
ENDTAB
  0
ENDSEC
  0
SECTION
  2
BLOCKS
  0
BLOCK
  5
20
330
1F
100
AcDbEntity
  8
0
100
AcDbBlockBegin
  2
*Model_Space
 70
     0
 10
0.0
 20
0.0
 30
0.0
  3
*Model_Space
  1

  0
ENDBLK
  5
21
330
1F
100
AcDbEntity
  8
0
100
AcDbBlockEnd
  0
BLOCK
  5
1C
330
1B
100
AcDbEntity
 67
     1
  8
0
100
AcDbBlockBegin
  2
*Paper_Space
 70
     0
 10
0.0
 20
0.0
 30
0.0
  3
*Paper_Space
  1

  0
ENDBLK
  5
1D
330
1B
100
AcDbEntity
 67
     1
  8
0
100
AcDbBlockEnd
  0
BLOCK
  5
24
330
23
100
AcDbEntity
  8
0
100
AcDbBlockBegin
  2
*Paper_Space0
 70
     0
 10
0.0
 20
0.0
 30
0.0
  3
*Paper_Space0
  1

  0
ENDBLK
  5
25
330
23
100
AcDbEntity
  8
0
100
AcDbBlockEnd
  0
BLOCK
  5
C8
330
C6
100
AcDbEntity
  8
0
100
AcDbBlockBegin
  2
block 2
 70
     0
 10
0.0
 20
0.0
 30
0.0
  3
block 2
  1

  0
SPLINE
  5
CA
330
C6
100
AcDbEntity
  8
_U+30EC_U+30A4_U+30E4_U+30FC 1
370
     0
100
AcDbSpline
210
0.0
220
0.0
230
1.0
 70
    11
 71
     3
 72
    44
 73
    40
 74
     0
 42
0.0000000001
 43
0.0000000001
 12
1.0
 22
0.0
 32
0.0
 13
1.0
 23
0.0
 33
0.0
 40
0.0
 40
0.0
 40
0.0
 40
0.0
 40
1.0
 40
1.0
 40
1.0
 40
2.0
 40
2.0
 40
2.0
 40
3.0
 40
3.0
 40
3.0
 40
4.0
 40
4.0
 40
4.0
 40
5.0
 40
5.0
 40
5.0
 40
6.0
 40
6.0
 40
6.0
 40
7.0
 40
7.0
 40
7.0
 40
8.0
 40
8.0
 40
8.0
 40
9.0
 40
9.0
 40
9.0
 40
10.0
 40
10.0
 40
10.0
 40
11.0
 40
11.0
 40
11.0
 40
12.0
 40
12.0
 40
12.0
 40
13.0
 40
13.0
 40
13.0
 40
13.0
 10
88.29194062462841
 20
-111.9039360614337
 30
0.0
 10
88.04044865420516
 20
-112.0755018165992
 30
0.0
 10
87.93261716551685
 20
-112.155428031857
 30
0.0
 10
87.87646210910728
 20
-112.3111463477903
 30
0.0
 10
87.87646210910728
 20
-112.3111463477903
 30
0.0
 10
88.775976540306
 20
-112.3111463477903
 30
0.0
 10
88.775976540306
 20
-112.3111463477903
 30
0.0
 10
88.775976540306
 20
-112.3111463477903
 30
0.0
 10
88.775976540306
 20
-112.5330104970404
 30
0.0
 10
88.775976540306
 20
-112.5330104970404
 30
0.0
 10
88.775976540306
 20
-112.5330104970404
 30
0.0
 10
87.58810761699186
 20
-112.5330104970404
 30
0.0
 10
87.58810761699186
 20
-112.5330104970404
 30
0.0
 10
87.62497013868403
 20
-112.1464707835953
 30
0.0
 10
87.70076223935953
 20
-112.0617214346582
 30
0.0
 10
88.14552406650529
 20
-111.7392604972388
 30
0.0
 10
88.44111325913973
 20
-111.5239420294107
 30
0.0
 10
88.51690535981523
 20
-111.4509060051234
 30
0.0
 10
88.51690535981523
 20
-111.3020778801606
 30
0.0
 10
88.51690535981523
 20
-111.1739203281093
 30
0.0
 10
88.4338785586207
 20
-111.0323269036655
 30
0.0
 10
88.2065022565942
 20
-111.0323269036655
 30
0.0
 10
87.9057454207319
 20
-111.0323269036655
 30
0.0
 10
87.8960991533732
 20
-111.2817518167976
 30
0.0
 10
87.89127601969385
 20
-111.4074978020092
 30
0.0
 10
87.89127601969385
 20
-111.4074978020092
 30
0.0
 10
87.63220483920307
 20
-111.4074978020092
 30
0.0
 10
87.63220483920307
 20
-111.4074978020092
 30
0.0
 10
87.64185110656176
 20
-111.2700384921478
 30
0.0
 10
87.65425345030866
 20
-111.148771131067
 30
0.0
 10
87.74692651886188
 20
-111.0209580885642
 30
0.0
 10
87.8740505422676
 20
-110.8469807665591
 30
0.0
 10
88.0890245005472
 20
-110.8104627544154
 30
0.0
 10
88.22372773402046
 20
-110.8104627544154
 30
0.0
 10
88.54377710460017
 20
-110.8104627544154
 30
0.0
 10
88.78321124082504
 20
-111.0092447639144
 30
0.0
 10
88.78321124082504
 20
-111.3044894470003
 30
0.0
 10
88.78321124082504
 20
-111.5515027932927
 30
0.0
 10
88.64885251690029
 20
-111.6589897724325
 30
0.0
 10
88.29194062462841
 20
-111.9039360614337
 30
0.0
  0
HATCH
  5
CB
330
C6
100
AcDbEntity
  8
_U+30EC_U+30A4_U+30E4_U+30FC 1
 62
   179
420
  2234388
100
AcDbHatch
 10
0.0
 20
0.0
 30
0.0
210
0.0
220
0.0
230
1.0
  2
SOLID
 70
     1
 71
     0
 91
        1
 92
        1
 93
        1
 72
     4
 94
        3
 73
     0
 74
     1
 95
       44
 96
       40
 40
0.0
 40
0.0
 40
0.0
 40
0.0
 40
1.0
 40
1.0
 40
1.0
 40
2.0
 40
2.0
 40
2.0
 40
3.0
 40
3.0
 40
3.0
 40
4.0
 40
4.0
 40
4.0
 40
5.0
 40
5.0
 40
5.0
 40
6.0
 40
6.0
 40
6.0
 40
7.0
 40
7.0
 40
7.0
 40
8.0
 40
8.0
 40
8.0
 40
9.0
 40
9.0
 40
9.0
 40
10.0
 40
10.0
 40
10.0
 40
11.0
 40
11.0
 40
11.0
 40
12.0
 40
12.0
 40
12.0
 40
13.0
 40
13.0
 40
13.0
 40
13.0
 10
88.29194062462841
 20
-111.9039360614337
 10
88.04044865420516
 20
-112.0755018165992
 10
87.93261716551685
 20
-112.155428031857
 10
87.87646210910728
 20
-112.3111463477903
 10
87.87646210910728
 20
-112.3111463477903
 10
88.775976540306
 20
-112.3111463477903
 10
88.775976540306
 20
-112.3111463477903
 10
88.775976540306
 20
-112.3111463477903
 10
88.775976540306
 20
-112.5330104970404
 10
88.775976540306
 20
-112.5330104970404
 10
88.775976540306
 20
-112.5330104970404
 10
87.58810761699186
 20
-112.5330104970404
 10
87.58810761699186
 20
-112.5330104970404
 10
87.62497013868403
 20
-112.1464707835953
 10
87.70076223935953
 20
-112.0617214346582
 10
88.14552406650529
 20
-111.7392604972388
 10
88.44111325913973
 20
-111.5239420294107
 10
88.51690535981523
 20
-111.4509060051234
 10
88.51690535981523
 20
-111.3020778801606
 10
88.51690535981523
 20
-111.1739203281093
 10
88.4338785586207
 20
-111.0323269036655
 10
88.2065022565942
 20
-111.0323269036655
 10
87.9057454207319
 20
-111.0323269036655
 10
87.8960991533732
 20
-111.2817518167976
 10
87.89127601969385
 20
-111.4074978020092
 10
87.89127601969385
 20
-111.4074978020092
 10
87.63220483920307
 20
-111.4074978020092
 10
87.63220483920307
 20
-111.4074978020092
 10
87.64185110656176
 20
-111.2700384921478
 10
87.65425345030866
 20
-111.148771131067
 10
87.74692651886188
 20
-111.0209580885642
 10
87.8740505422676
 20
-110.8469807665591
 10
88.0890245005472
 20
-110.8104627544154
 10
88.22372773402046
 20
-110.8104627544154
 10
88.54377710460017
 20
-110.8104627544154
 10
88.78321124082504
 20
-111.0092447639144
 10
88.78321124082504
 20
-111.3044894470003
 10
88.78321124082504
 20
-111.5515027932927
 10
88.64885251690029
 20
-111.6589897724325
 10
88.29194062462841
 20
-111.9039360614337
 97
        0
 97
        0
 75
     2
 76
     1
 98
        0
  0
SPLINE
  5
CC
330
C6
100
AcDbEntity
  8
_U+30EC_U+30A4_U+30E4_U+30FC 1
370
     0
100
AcDbSpline
210
0.0
220
0.0
230
1.0
 70
    11
 71
     3
 72
    53
 73
    49
 74
     0
 42
0.0000000001
 43
0.0000000001
 12
1.0
 22
0.0
 32
0.0
 13
1.0
 23
0.0
 33
0.0
 40
0.0
 40
0.0
 40
0.0
 40
0.0
 40
1.0
 40
1.0
 40
1.0
 40
2.0
 40
2.0
 40
2.0
 40
3.0
 40
3.0
 40
3.0
 40
4.0
 40
4.0
 40
4.0
 40
5.0
 40
5.0
 40
5.0
 40
6.0
 40
6.0
 40
6.0
 40
7.0
 40
7.0
 40
7.0
 40
8.0
 40
8.0
 40
8.0
 40
9.0
 40
9.0
 40
9.0
 40
10.0
 40
10.0
 40
10.0
 40
11.0
 40
11.0
 40
11.0
 40
12.0
 40
12.0
 40
12.0
 40
13.0
 40
13.0
 40
13.0
 40
14.0
 40
14.0
 40
14.0
 40
15.0
 40
15.0
 40
15.0
 40
16.0
 40
16.0
 40
16.0
 40
16.0
 10
89.52080618421702
 20
-112.5877875152558
 30
0.0
 10
89.43054468250348
 20
-112.5877875152558
 30
0.0
 10
89.31306692645646
 20
-112.569528509184
 30
0.0
 10
89.19593367995796
 20
-112.5009711090275
 30
0.0
 10
88.99542912271643
 20
-112.3821153147864
 30
0.0
 10
88.97096894477114
 20
-112.2401773807941
 30
0.0
 10
88.94892033366555
 20
-112.1233886438442
 30
0.0
 10
88.94892033366555
 20
-112.1233886438442
 30
0.0
 10
89.20557994731666
 20
-112.1233886438442
 30
0.0
 10
89.20557994731666
 20
-112.1233886438442
 30
0.0
 10
89.26931421379379
 20
-112.3387071116723
 30
0.0
 10
89.4157307719169
 20
-112.3707464996851
 30
0.0
 10
89.5232177510567
 20
-112.3707464996851
 30
0.0
 10
89.6844482197664
 20
-112.3707464996851
 30
0.0
 10
89.86049259906265
 20
-112.2629150109968
 30
0.0
 10
89.86049259906265
 20
-112.0114230405735
 30
0.0
 10
89.86049259906265
 20
-111.7344373635595
 30
0.0
 10
89.65275334130209
 20
-111.6589897724325
 30
0.0
 10
89.513571483698
 20
-111.6589897724325
 30
0.0
 10
89.47705347155436
 20
-111.6589897724325
 30
0.0
 10
89.31306692645646
 20
-111.6589897724325
 30
0.0
 10
89.21040308099602
 20
-111.7985161395851
 30
0.0
 10
89.21040308099602
 20
-111.7985161395851
 30
0.0
 10
89.00783146646333
 20
-111.7781900762221
 30
0.0
 10
89.00783146646333
 20
-111.7781900762221
 30
0.0
 10
89.00783146646333
 20
-111.7781900762221
 30
0.0
 10
89.14701332406742
 20
-110.8628282057912
 30
0.0
 10
89.14701332406742
 20
-110.8628282057912
 30
0.0
 10
89.14701332406742
 20
-110.8628282057912
 30
0.0
 10
90.04618324571763
 20
-110.8628282057912
 30
0.0
 10
90.04618324571763
 20
-110.8628282057912
 30
0.0
 10
90.04618324571763
 20
-110.8628282057912
 30
0.0
 10
90.04618324571763
 20
-111.07332353994
 30
0.0
 10
90.04618324571763
 20
-111.07332353994
 30
0.0
 10
90.04618324571763
 20
-111.07332353994
 30
0.0
 10
89.33511553756206
 20
-111.07332353994
 30
0.0
 10
89.33511553756206
 20
-111.07332353994
 30
0.0
 10
89.33511553756206
 20
-111.07332353994
 30
0.0
 10
89.25932343688656
 20
-111.5308322203812
 30
0.0
 10
89.25932343688656
 20
-111.5308322203812
 30
0.0
 10
89.33029240388271
 20
-111.4943142082375
 30
0.0
 10
89.42572154882413
 20
-111.4509060051234
 30
0.0
 10
89.56249183958855
 20
-111.4509060051234
 30
0.0
 10
89.85566946538331
 20
-111.4509060051234
 30
0.0
 10
90.12955455646068
 20
-111.652099581462
 30
0.0
 10
90.12955455646068
 20
-111.990752467662
 30
0.0
 10
90.12955455646068
 20
-112.3338839779929
 30
0.0
 10
89.87048337596988
 20
-112.5877875152558
 30
0.0
 10
89.52080618421702
 20
-112.5877875152558
 30
0.0
  0
HATCH
  5
CD
330
C6
100
AcDbEntity
  8
_U+30EC_U+30A4_U+30E4_U+30FC 1
 62
   179
420
  2234388
100
AcDbHatch
 10
0.0
 20
0.0
 30
0.0
210
0.0
220
0.0
230
1.0
  2
SOLID
 70
     1
 71
     0
 91
        1
 92
        1
 93
        1
 72
     4
 94
        3
 73
     0
 74
     1
 95
       53
 96
       49
 40
0.0
 40
0.0
 40
0.0
 40
0.0
 40
1.0
 40
1.0
 40
1.0
 40
2.0
 40
2.0
 40
2.0
 40
3.0
 40
3.0
 40
3.0
 40
4.0
 40
4.0
 40
4.0
 40
5.0
 40
5.0
 40
5.0
 40
6.0
 40
6.0
 40
6.0
 40
7.0
 40
7.0
 40
7.0
 40
8.0
 40
8.0
 40
8.0
 40
9.0
 40
9.0
 40
9.0
 40
10.0
 40
10.0
 40
10.0
 40
11.0
 40
11.0
 40
11.0
 40
12.0
 40
12.0
 40
12.0
 40
13.0
 40
13.0
 40
13.0
 40
14.0
 40
14.0
 40
14.0
 40
15.0
 40
15.0
 40
15.0
 40
16.0
 40
16.0
 40
16.0
 40
16.0
 10
89.52080618421702
 20
-112.5877875152558
 10
89.43054468250348
 20
-112.5877875152558
 10
89.31306692645646
 20
-112.569528509184
 10
89.19593367995796
 20
-112.5009711090275
 10
88.99542912271643
 20
-112.3821153147864
 10
88.97096894477114
 20
-112.2401773807941
 10
88.94892033366555
 20
-112.1233886438442
 10
88.94892033366555
 20
-112.1233886438442
 10
89.20557994731666
 20
-112.1233886438442
 10
89.20557994731666
 20
-112.1233886438442
 10
89.26931421379379
 20
-112.3387071116723
 10
89.4157307719169
 20
-112.3707464996851
 10
89.5232177510567
 20
-112.3707464996851
 10
89.6844482197664
 20
-112.3707464996851
 10
89.86049259906265
 20
-112.2629150109968
 10
89.86049259906265
 20
-112.0114230405735
 10
89.86049259906265
 20
-111.7344373635595
 10
89.65275334130209
 20
-111.6589897724325
 10
89.513571483698
 20
-111.6589897724325
 10
89.47705347155436
 20
-111.6589897724325
 10
89.31306692645646
 20
-111.6589897724325
 10
89.21040308099602
 20
-111.7985161395851
 10
89.21040308099602
 20
-111.7985161395851
 10
89.00783146646333
 20
-111.7781900762221
 10
89.00783146646333
 20
-111.7781900762221
 10
89.00783146646333
 20
-111.7781900762221
 10
89.14701332406742
 20
-110.8628282057912
 10
89.14701332406742
 20
-110.8628282057912
 10
89.14701332406742
 20
-110.8628282057912
 10
90.04618324571763
 20
-110.8628282057912
 10
90.04618324571763
 20
-110.8628282057912
 10
90.04618324571763
 20
-110.8628282057912
 10
90.04618324571763
 20
-111.07332353994
 10
90.04618324571763
 20
-111.07332353994
 10
90.04618324571763
 20
-111.07332353994
 10
89.33511553756206
 20
-111.07332353994
 10
89.33511553756206
 20
-111.07332353994
 10
89.33511553756206
 20
-111.07332353994
 10
89.25932343688656
 20
-111.5308322203812
 10
89.25932343688656
 20
-111.5308322203812
 10
89.33029240388271
 20
-111.4943142082375
 10
89.42572154882413
 20
-111.4509060051234
 10
89.56249183958855
 20
-111.4509060051234
 10
89.85566946538331
 20
-111.4509060051234
 10
90.12955455646068
 20
-111.652099581462
 10
90.12955455646068
 20
-111.990752467662
 10
90.12955455646068
 20
-112.3338839779929
 10
89.87048337596988
 20
-112.5877875152558
 10
89.52080618421702
 20
-112.5877875152558
 97
        0
 97
        0
 75
     2
 76
     1
 98
        0
  0
ENDBLK
  5
C9
330
C6
100
AcDbEntity
  8
0
100
AcDbBlockEnd
  0
BLOCK
  5
DC
330
DA
100
AcDbEntity
  8
0
100
AcDbBlockBegin
  2
block 3
 70
     0
 10
0.0
 20
0.0
 30
0.0
  3
block 3
  1

  0
SPLINE
  5
DE
330
DA
100
AcDbEntity
  8
_U+30EC_U+30A4_U+30E4_U+30FC 1
370
     0
100
AcDbSpline
210
0.0
220
0.0
230
1.0
 70
    11
 71
     3
 72
    44
 73
    40
 74
     0
 42
0.0000000001
 43
0.0000000001
 12
1.0
 22
0.0
 32
0.0
 13
1.0
 23
0.0
 33
0.0
 40
0.0
 40
0.0
 40
0.0
 40
0.0
 40
1.0
 40
1.0
 40
1.0
 40
2.0
 40
2.0
 40
2.0
 40
3.0
 40
3.0
 40
3.0
 40
4.0
 40
4.0
 40
4.0
 40
5.0
 40
5.0
 40
5.0
 40
6.0
 40
6.0
 40
6.0
 40
7.0
 40
7.0
 40
7.0
 40
8.0
 40
8.0
 40
8.0
 40
9.0
 40
9.0
 40
9.0
 40
10.0
 40
10.0
 40
10.0
 40
11.0
 40
11.0
 40
11.0
 40
12.0
 40
12.0
 40
12.0
 40
13.0
 40
13.0
 40
13.0
 40
13.0
 10
88.29194062462841
 20
-145.3155056060322
 30
0.0
 10
88.04044865420516
 20
-145.4870713611977
 30
0.0
 10
87.93261716551685
 20
-145.5669975764555
 30
0.0
 10
87.87646210910728
 20
-145.7227158923888
 30
0.0
 10
87.87646210910728
 20
-145.7227158923888
 30
0.0
 10
88.775976540306
 20
-145.7227158923888
 30
0.0
 10
88.775976540306
 20
-145.7227158923888
 30
0.0
 10
88.775976540306
 20
-145.7227158923888
 30
0.0
 10
88.775976540306
 20
-145.9445800416389
 30
0.0
 10
88.775976540306
 20
-145.9445800416389
 30
0.0
 10
88.775976540306
 20
-145.9445800416389
 30
0.0
 10
87.58810761699186
 20
-145.9445800416389
 30
0.0
 10
87.58810761699186
 20
-145.9445800416389
 30
0.0
 10
87.62497013868403
 20
-145.5580403281938
 30
0.0
 10
87.70076223935953
 20
-145.4732909792567
 30
0.0
 10
88.14552406650529
 20
-145.1508300418373
 30
0.0
 10
88.44111325913973
 20
-144.9355115740092
 30
0.0
 10
88.51690535981523
 20
-144.8624755497219
 30
0.0
 10
88.51690535981523
 20
-144.7136474247591
 30
0.0
 10
88.51690535981523
 20
-144.5854898727078
 30
0.0
 10
88.4338785586207
 20
-144.443896448264
 30
0.0
 10
88.2065022565942
 20
-144.443896448264
 30
0.0
 10
87.9057454207319
 20
-144.443896448264
 30
0.0
 10
87.8960991533732
 20
-144.6933213613961
 30
0.0
 10
87.89127601969385
 20
-144.8190673466077
 30
0.0
 10
87.89127601969385
 20
-144.8190673466077
 30
0.0
 10
87.63220483920307
 20
-144.8190673466077
 30
0.0
 10
87.63220483920307
 20
-144.8190673466077
 30
0.0
 10
87.64185110656176
 20
-144.6816080367463
 30
0.0
 10
87.65425345030866
 20
-144.5603406756655
 30
0.0
 10
87.74692651886188
 20
-144.4325276331627
 30
0.0
 10
87.8740505422676
 20
-144.2585503111576
 30
0.0
 10
88.0890245005472
 20
-144.2220322990139
 30
0.0
 10
88.22372773402046
 20
-144.2220322990139
 30
0.0
 10
88.54377710460017
 20
-144.2220322990139
 30
0.0
 10
88.78321124082504
 20
-144.4208143085129
 30
0.0
 10
88.78321124082504
 20
-144.7160589915988
 30
0.0
 10
88.78321124082504
 20
-144.9630723378912
 30
0.0
 10
88.64885251690029
 20
-145.070559317031
 30
0.0
 10
88.29194062462841
 20
-145.3155056060322
 30
0.0
  0
HATCH
  5
DF
330
DA
100
AcDbEntity
  8
_U+30EC_U+30A4_U+30E4_U+30FC 1
 62
   179
420
  2234388
100
AcDbHatch
 10
0.0
 20
0.0
 30
0.0
210
0.0
220
0.0
230
1.0
  2
SOLID
 70
     1
 71
     0
 91
        1
 92
        1
 93
        1
 72
     4
 94
        3
 73
     0
 74
     1
 95
       44
 96
       40
 40
0.0
 40
0.0
 40
0.0
 40
0.0
 40
1.0
 40
1.0
 40
1.0
 40
2.0
 40
2.0
 40
2.0
 40
3.0
 40
3.0
 40
3.0
 40
4.0
 40
4.0
 40
4.0
 40
5.0
 40
5.0
 40
5.0
 40
6.0
 40
6.0
 40
6.0
 40
7.0
 40
7.0
 40
7.0
 40
8.0
 40
8.0
 40
8.0
 40
9.0
 40
9.0
 40
9.0
 40
10.0
 40
10.0
 40
10.0
 40
11.0
 40
11.0
 40
11.0
 40
12.0
 40
12.0
 40
12.0
 40
13.0
 40
13.0
 40
13.0
 40
13.0
 10
88.29194062462841
 20
-145.3155056060322
 10
88.04044865420516
 20
-145.4870713611977
 10
87.93261716551685
 20
-145.5669975764555
 10
87.87646210910728
 20
-145.7227158923888
 10
87.87646210910728
 20
-145.7227158923888
 10
88.775976540306
 20
-145.7227158923888
 10
88.775976540306
 20
-145.7227158923888
 10
88.775976540306
 20
-145.7227158923888
 10
88.775976540306
 20
-145.9445800416389
 10
88.775976540306
 20
-145.9445800416389
 10
88.775976540306
 20
-145.9445800416389
 10
87.58810761699186
 20
-145.9445800416389
 10
87.58810761699186
 20
-145.9445800416389
 10
87.62497013868403
 20
-145.5580403281938
 10
87.70076223935953
 20
-145.4732909792567
 10
88.14552406650529
 20
-145.1508300418373
 10
88.44111325913973
 20
-144.9355115740092
 10
88.51690535981523
 20
-144.8624755497219
 10
88.51690535981523
 20
-144.7136474247591
 10
88.51690535981523
 20
-144.5854898727078
 10
88.4338785586207
 20
-144.443896448264
 10
88.2065022565942
 20
-144.443896448264
 10
87.9057454207319
 20
-144.443896448264
 10
87.8960991533732
 20
-144.6933213613961
 10
87.89127601969385
 20
-144.8190673466077
 10
87.89127601969385
 20
-144.8190673466077
 10
87.63220483920307
 20
-144.8190673466077
 10
87.63220483920307
 20
-144.8190673466077
 10
87.64185110656176
 20
-144.6816080367463
 10
87.65425345030866
 20
-144.5603406756655
 10
87.74692651886188
 20
-144.4325276331627
 10
87.8740505422676
 20
-144.2585503111576
 10
88.0890245005472
 20
-144.2220322990139
 10
88.22372773402046
 20
-144.2220322990139
 10
88.54377710460017
 20
-144.2220322990139
 10
88.78321124082504
 20
-144.4208143085129
 10
88.78321124082504
 20
-144.7160589915988
 10
88.78321124082504
 20
-144.9630723378912
 10
88.64885251690029
 20
-145.070559317031
 10
88.29194062462841
 20
-145.3155056060322
 97
        0
 97
        0
 75
     2
 76
     1
 98
        0
  0
SPLINE
  5
E0
330
DA
100
AcDbEntity
  8
_U+30EC_U+30A4_U+30E4_U+30FC 1
370
     0
100
AcDbSpline
210
0.0
220
0.0
230
1.0
 70
    11
 71
     3
 72
    53
 73
    49
 74
     0
 42
0.0000000001
 43
0.0000000001
 12
1.0
 22
0.0
 32
0.0
 13
1.0
 23
0.0
 33
0.0
 40
0.0
 40
0.0
 40
0.0
 40
0.0
 40
1.0
 40
1.0
 40
1.0
 40
2.0
 40
2.0
 40
2.0
 40
3.0
 40
3.0
 40
3.0
 40
4.0
 40
4.0
 40
4.0
 40
5.0
 40
5.0
 40
5.0
 40
6.0
 40
6.0
 40
6.0
 40
7.0
 40
7.0
 40
7.0
 40
8.0
 40
8.0
 40
8.0
 40
9.0
 40
9.0
 40
9.0
 40
10.0
 40
10.0
 40
10.0
 40
11.0
 40
11.0
 40
11.0
 40
12.0
 40
12.0
 40
12.0
 40
13.0
 40
13.0
 40
13.0
 40
14.0
 40
14.0
 40
14.0
 40
15.0
 40
15.0
 40
15.0
 40
16.0
 40
16.0
 40
16.0
 40
16.0
 10
89.52080618421702
 20
-145.9993570598543
 30
0.0
 10
89.43054468250348
 20
-145.9993570598543
 30
0.0
 10
89.31306692645646
 20
-145.9810980537825
 30
0.0
 10
89.19593367995796
 20
-145.912540653626
 30
0.0
 10
88.99542912271643
 20
-145.7936848593849
 30
0.0
 10
88.97096894477114
 20
-145.6517469253926
 30
0.0
 10
88.94892033366555
 20
-145.5349581884427
 30
0.0
 10
88.94892033366555
 20
-145.5349581884427
 30
0.0
 10
89.20557994731666
 20
-145.5349581884427
 30
0.0
 10
89.20557994731666
 20
-145.5349581884427
 30
0.0
 10
89.26931421379379
 20
-145.7502766562708
 30
0.0
 10
89.4157307719169
 20
-145.7823160442836
 30
0.0
 10
89.5232177510567
 20
-145.7823160442836
 30
0.0
 10
89.6844482197664
 20
-145.7823160442836
 30
0.0
 10
89.86049259906265
 20
-145.6744845555953
 30
0.0
 10
89.86049259906265
 20
-145.422992585172
 30
0.0
 10
89.86049259906265
 20
-145.1460069081579
 30
0.0
 10
89.65275334130209
 20
-145.070559317031
 30
0.0
 10
89.513571483698
 20
-145.070559317031
 30
0.0
 10
89.47705347155436
 20
-145.070559317031
 30
0.0
 10
89.31306692645646
 20
-145.070559317031
 30
0.0
 10
89.21040308099602
 20
-145.2100856841836
 30
0.0
 10
89.21040308099602
 20
-145.2100856841836
 30
0.0
 10
89.00783146646333
 20
-145.1897596208206
 30
0.0
 10
89.00783146646333
 20
-145.1897596208206
 30
0.0
 10
89.00783146646333
 20
-145.1897596208206
 30
0.0
 10
89.14701332406742
 20
-144.2743977503897
 30
0.0
 10
89.14701332406742
 20
-144.2743977503897
 30
0.0
 10
89.14701332406742
 20
-144.2743977503897
 30
0.0
 10
90.04618324571763
 20
-144.2743977503897
 30
0.0
 10
90.04618324571763
 20
-144.2743977503897
 30
0.0
 10
90.04618324571763
 20
-144.2743977503897
 30
0.0
 10
90.04618324571763
 20
-144.4848930845385
 30
0.0
 10
90.04618324571763
 20
-144.4848930845385
 30
0.0
 10
90.04618324571763
 20
-144.4848930845385
 30
0.0
 10
89.33511553756206
 20
-144.4848930845385
 30
0.0
 10
89.33511553756206
 20
-144.4848930845385
 30
0.0
 10
89.33511553756206
 20
-144.4848930845385
 30
0.0
 10
89.25932343688656
 20
-144.9424017649797
 30
0.0
 10
89.25932343688656
 20
-144.9424017649797
 30
0.0
 10
89.33029240388271
 20
-144.905883752836
 30
0.0
 10
89.42572154882413
 20
-144.8624755497219
 30
0.0
 10
89.56249183958855
 20
-144.8624755497219
 30
0.0
 10
89.85566946538331
 20
-144.8624755497219
 30
0.0
 10
90.12955455646068
 20
-145.0636691260605
 30
0.0
 10
90.12955455646068
 20
-145.4023220122605
 30
0.0
 10
90.12955455646068
 20
-145.7454535225914
 30
0.0
 10
89.87048337596988
 20
-145.9993570598543
 30
0.0
 10
89.52080618421702
 20
-145.9993570598543
 30
0.0
  0
HATCH
  5
E1
330
DA
100
AcDbEntity
  8
_U+30EC_U+30A4_U+30E4_U+30FC 1
 62
   179
420
  2234388
100
AcDbHatch
 10
0.0
 20
0.0
 30
0.0
210
0.0
220
0.0
230
1.0
  2
SOLID
 70
     1
 71
     0
 91
        1
 92
        1
 93
        1
 72
     4
 94
        3
 73
     0
 74
     1
 95
       53
 96
       49
 40
0.0
 40
0.0
 40
0.0
 40
0.0
 40
1.0
 40
1.0
 40
1.0
 40
2.0
 40
2.0
 40
2.0
 40
3.0
 40
3.0
 40
3.0
 40
4.0
 40
4.0
 40
4.0
 40
5.0
 40
5.0
 40
5.0
 40
6.0
 40
6.0
 40
6.0
 40
7.0
 40
7.0
 40
7.0
 40
8.0
 40
8.0
 40
8.0
 40
9.0
 40
9.0
 40
9.0
 40
10.0
 40
10.0
 40
10.0
 40
11.0
 40
11.0
 40
11.0
 40
12.0
 40
12.0
 40
12.0
 40
13.0
 40
13.0
 40
13.0
 40
14.0
 40
14.0
 40
14.0
 40
15.0
 40
15.0
 40
15.0
 40
16.0
 40
16.0
 40
16.0
 40
16.0
 10
89.52080618421702
 20
-145.9993570598543
 10
89.43054468250348
 20
-145.9993570598543
 10
89.31306692645646
 20
-145.9810980537825
 10
89.19593367995796
 20
-145.912540653626
 10
88.99542912271643
 20
-145.7936848593849
 10
88.97096894477114
 20
-145.6517469253926
 10
88.94892033366555
 20
-145.5349581884427
 10
88.94892033366555
 20
-145.5349581884427
 10
89.20557994731666
 20
-145.5349581884427
 10
89.20557994731666
 20
-145.5349581884427
 10
89.26931421379379
 20
-145.7502766562708
 10
89.4157307719169
 20
-145.7823160442836
 10
89.5232177510567
 20
-145.7823160442836
 10
89.6844482197664
 20
-145.7823160442836
 10
89.86049259906265
 20
-145.6744845555953
 10
89.86049259906265
 20
-145.422992585172
 10
89.86049259906265
 20
-145.1460069081579
 10
89.65275334130209
 20
-145.070559317031
 10
89.513571483698
 20
-145.070559317031
 10
89.47705347155436
 20
-145.070559317031
 10
89.31306692645646
 20
-145.070559317031
 10
89.21040308099602
 20
-145.2100856841836
 10
89.21040308099602
 20
-145.2100856841836
 10
89.00783146646333
 20
-145.1897596208206
 10
89.00783146646333
 20
-145.1897596208206
 10
89.00783146646333
 20
-145.1897596208206
 10
89.14701332406742
 20
-144.2743977503897
 10
89.14701332406742
 20
-144.2743977503897
 10
89.14701332406742
 20
-144.2743977503897
 10
90.04618324571763
 20
-144.2743977503897
 10
90.04618324571763
 20
-144.2743977503897
 10
90.04618324571763
 20
-144.2743977503897
 10
90.04618324571763
 20
-144.4848930845385
 10
90.04618324571763
 20
-144.4848930845385
 10
90.04618324571763
 20
-144.4848930845385
 10
89.33511553756206
 20
-144.4848930845385
 10
89.33511553756206
 20
-144.4848930845385
 10
89.33511553756206
 20
-144.4848930845385
 10
89.25932343688656
 20
-144.9424017649797
 10
89.25932343688656
 20
-144.9424017649797
 10
89.33029240388271
 20
-144.905883752836
 10
89.42572154882413
 20
-144.8624755497219
 10
89.56249183958855
 20
-144.8624755497219
 10
89.85566946538331
 20
-144.8624755497219
 10
90.12955455646068
 20
-145.0636691260605
 10
90.12955455646068
 20
-145.4023220122605
 10
90.12955455646068
 20
-145.7454535225914
 10
89.87048337596988
 20
-145.9993570598543
 10
89.52080618421702
 20
-145.9993570598543
 97
        0
 97
        0
 75
     2
 76
     1
 98
        0
  0
ENDBLK
  5
DD
330
DA
100
AcDbEntity
  8
0
100
AcDbBlockEnd
  0
BLOCK
  5
EC
330
EA
100
AcDbEntity
  8
0
100
AcDbBlockBegin
  2
block 4
 70
     0
 10
0.0
 20
0.0
 30
0.0
  3
block 4
  1

  0
SPLINE
  5
EE
330
EA
100
AcDbEntity
  8
_U+30EC_U+30A4_U+30E4_U+30FC 1
370
     0
100
AcDbSpline
210
0.0
220
0.0
230
1.0
 70
    11
 71
     3
 72
    44
 73
    40
 74
     0
 42
0.0000000001
 43
0.0000000001
 12
1.0
 22
0.0
 32
0.0
 13
1.0
 23
0.0
 33
0.0
 40
0.0
 40
0.0
 40
0.0
 40
0.0
 40
1.0
 40
1.0
 40
1.0
 40
2.0
 40
2.0
 40
2.0
 40
3.0
 40
3.0
 40
3.0
 40
4.0
 40
4.0
 40
4.0
 40
5.0
 40
5.0
 40
5.0
 40
6.0
 40
6.0
 40
6.0
 40
7.0
 40
7.0
 40
7.0
 40
8.0
 40
8.0
 40
8.0
 40
9.0
 40
9.0
 40
9.0
 40
10.0
 40
10.0
 40
10.0
 40
11.0
 40
11.0
 40
11.0
 40
12.0
 40
12.0
 40
12.0
 40
13.0
 40
13.0
 40
13.0
 40
13.0
 10
99.54189993171175
 20
-145.3155056060322
 30
0.0
 10
99.29040796128851
 20
-145.4870713611977
 30
0.0
 10
99.18257647260019
 20
-145.5669975764555
 30
0.0
 10
99.12642141619062
 20
-145.7227158923888
 30
0.0
 10
99.12642141619062
 20
-145.7227158923888
 30
0.0
 10
100.0259358473893
 20
-145.7227158923888
 30
0.0
 10
100.0259358473893
 20
-145.7227158923888
 30
0.0
 10
100.0259358473893
 20
-145.7227158923888
 30
0.0
 10
100.0259358473893
 20
-145.9445800416389
 30
0.0
 10
100.0259358473893
 20
-145.9445800416389
 30
0.0
 10
100.0259358473893
 20
-145.9445800416389
 30
0.0
 10
98.8380669240752
 20
-145.9445800416389
 30
0.0
 10
98.8380669240752
 20
-145.9445800416389
 30
0.0
 10
98.87492944576738
 20
-145.5580403281938
 30
0.0
 10
98.95037703689435
 20
-145.4732909792567
 30
0.0
 10
99.39548337358863
 20
-145.1508300418373
 30
0.0
 10
99.69107256622307
 20
-144.9355115740092
 30
0.0
 10
99.76686466689857
 20
-144.8624755497219
 30
0.0
 10
99.76686466689857
 20
-144.7136474247591
 30
0.0
 10
99.76686466689857
 20
-144.5854898727078
 30
0.0
 10
99.68383786570405
 20
-144.443896448264
 30
0.0
 10
99.45646156367755
 20
-144.443896448264
 30
0.0
 10
99.15570472781525
 20
-144.443896448264
 30
0.0
 10
99.14605846045654
 20
-144.6933213613961
 30
0.0
 10
99.14123532677719
 20
-144.8190673466077
 30
0.0
 10
99.14123532677719
 20
-144.8190673466077
 30
0.0
 10
98.88216414628641
 20
-144.8190673466077
 30
0.0
 10
98.88216414628641
 20
-144.8190673466077
 30
0.0
 10
98.8918104136451
 20
-144.6816080367463
 30
0.0
 10
98.904212757392
 20
-144.5603406756655
 30
0.0
 10
98.99688582594523
 20
-144.4325276331627
 30
0.0
 10
99.12400984935094
 20
-144.2585503111576
 30
0.0
 10
99.33898380763054
 20
-144.2220322990139
 30
0.0
 10
99.4736870411038
 20
-144.2220322990139
 30
0.0
 10
99.79373641168351
 20
-144.2220322990139
 30
0.0
 10
100.0331705479084
 20
-144.4208143085129
 30
0.0
 10
100.0331705479084
 20
-144.7160589915988
 30
0.0
 10
100.0331705479084
 20
-144.9630723378912
 30
0.0
 10
99.89881182398364
 20
-145.070559317031
 30
0.0
 10
99.54189993171175
 20
-145.3155056060322
 30
0.0
  0
HATCH
  5
EF
330
EA
100
AcDbEntity
  8
_U+30EC_U+30A4_U+30E4_U+30FC 1
 62
   179
420
  2234388
100
AcDbHatch
 10
0.0
 20
0.0
 30
0.0
210
0.0
220
0.0
230
1.0
  2
SOLID
 70
     1
 71
     0
 91
        1
 92
        1
 93
        1
 72
     4
 94
        3
 73
     0
 74
     1
 95
       44
 96
       40
 40
0.0
 40
0.0
 40
0.0
 40
0.0
 40
1.0
 40
1.0
 40
1.0
 40
2.0
 40
2.0
 40
2.0
 40
3.0
 40
3.0
 40
3.0
 40
4.0
 40
4.0
 40
4.0
 40
5.0
 40
5.0
 40
5.0
 40
6.0
 40
6.0
 40
6.0
 40
7.0
 40
7.0
 40
7.0
 40
8.0
 40
8.0
 40
8.0
 40
9.0
 40
9.0
 40
9.0
 40
10.0
 40
10.0
 40
10.0
 40
11.0
 40
11.0
 40
11.0
 40
12.0
 40
12.0
 40
12.0
 40
13.0
 40
13.0
 40
13.0
 40
13.0
 10
99.54189993171175
 20
-145.3155056060322
 10
99.29040796128851
 20
-145.4870713611977
 10
99.18257647260019
 20
-145.5669975764555
 10
99.12642141619062
 20
-145.7227158923888
 10
99.12642141619062
 20
-145.7227158923888
 10
100.0259358473893
 20
-145.7227158923888
 10
100.0259358473893
 20
-145.7227158923888
 10
100.0259358473893
 20
-145.7227158923888
 10
100.0259358473893
 20
-145.9445800416389
 10
100.0259358473893
 20
-145.9445800416389
 10
100.0259358473893
 20
-145.9445800416389
 10
98.8380669240752
 20
-145.9445800416389
 10
98.8380669240752
 20
-145.9445800416389
 10
98.87492944576738
 20
-145.5580403281938
 10
98.95037703689435
 20
-145.4732909792567
 10
99.39548337358863
 20
-145.1508300418373
 10
99.69107256622307
 20
-144.9355115740092
 10
99.76686466689857
 20
-144.8624755497219
 10
99.76686466689857
 20
-144.7136474247591
 10
99.76686466689857
 20
-144.5854898727078
 10
99.68383786570405
 20
-144.443896448264
 10
99.45646156367755
 20
-144.443896448264
 10
99.15570472781525
 20
-144.443896448264
 10
99.14605846045654
 20
-144.6933213613961
 10
99.14123532677719
 20
-144.8190673466077
 10
99.14123532677719
 20
-144.8190673466077
 10
98.88216414628641
 20
-144.8190673466077
 10
98.88216414628641
 20
-144.8190673466077
 10
98.8918104136451
 20
-144.6816080367463
 10
98.904212757392
 20
-144.5603406756655
 10
98.99688582594523
 20
-144.4325276331627
 10
99.12400984935094
 20
-144.2585503111576
 10
99.33898380763054
 20
-144.2220322990139
 10
99.4736870411038
 20
-144.2220322990139
 10
99.79373641168351
 20
-144.2220322990139
 10
100.0331705479084
 20
-144.4208143085129
 10
100.0331705479084
 20
-144.7160589915988
 10
100.0331705479084
 20
-144.9630723378912
 10
99.89881182398364
 20
-145.070559317031
 10
99.54189993171175
 20
-145.3155056060322
 97
        0
 97
        0
 75
     2
 76
     1
 98
        0
  0
SPLINE
  5
F0
330
EA
100
AcDbEntity
  8
_U+30EC_U+30A4_U+30E4_U+30FC 1
370
     0
100
AcDbSpline
210
0.0
220
0.0
230
1.0
 70
    11
 71
     3
 72
    29
 73
    25
 74
     0
 42
0.0000000001
 43
0.0000000001
 12
1.0
 22
0.0
 32
0.0
 13
1.0
 23
0.0
 33
0.0
 40
0.0
 40
0.0
 40
0.0
 40
0.0
 40
1.0
 40
1.0
 40
1.0
 40
2.0
 40
2.0
 40
2.0
 40
3.0
 40
3.0
 40
3.0
 40
4.0
 40
4.0
 40
4.0
 40
5.0
 40
5.0
 40
5.0
 40
6.0
 40
6.0
 40
6.0
 40
7.0
 40
7.0
 40
7.0
 40
8.0
 40
8.0
 40
8.0
 40
8.0
 10
101.2523898401383
 20
-145.7523437135619
 30
0.0
 10
101.1276773835722
 20
-145.9790309964914
 30
0.0
 10
100.9271728263307
 20
-145.9993570598543
 30
0.0
 10
100.792814102406
 20
-145.9993570598543
 30
0.0
 10
100.607123455751
 20
-145.9993570598543
 30
0.0
 10
100.4434814202016
 20
-145.9490586657697
 30
0.0
 10
100.3332383646736
 20
-145.7523437135619
 30
0.0
 10
100.2136935513355
 20
-145.5418483794132
 30
0.0
 10
100.1916449402299
 20
-145.2855332753106
 30
0.0
 10
100.1916449402299
 20
-145.1094888960143
 30
0.0
 10
100.1916449402299
 20
-144.9541150896295
 30
0.0
 10
100.2112819844958
 20
-144.6816080367463
 30
0.0
 10
100.3332383646736
 20
-144.4666340784667
 30
0.0
 10
100.4579508212397
 20
-144.2471814960563
 30
0.0
 10
100.6436414678947
 20
-144.2220322990139
 30
0.0
 10
100.792814102406
 20
-144.2220322990139
 30
0.0
 10
100.9760931822213
 20
-144.2220322990139
 30
0.0
 10
101.1421467846103
 20
-144.2699191262589
 30
0.0
 10
101.2523898401383
 20
-144.4666340784667
 30
0.0
 10
101.3671115197971
 20
-144.6747178457758
 30
0.0
 10
101.3939832645821
 20
-144.9220757016167
 30
0.0
 10
101.3939832645821
 20
-145.1094888960143
 30
0.0
 10
101.3939832645821
 20
-145.2948350331207
 30
0.0
 10
101.3695230866368
 20
-145.5442599462528
 30
0.0
 10
101.2523898401383
 20
-145.7523437135619
 30
0.0
  0
SPLINE
  5
F1
330
EA
100
AcDbEntity
  8
_U+30EC_U+30A4_U+30E4_U+30FC 1
370
     0
100
AcDbSpline
210
0.0
220
0.0
230
1.0
 70
    11
 71
     3
 72
    17
 73
    13
 74
     0
 42
0.0000000001
 43
0.0000000001
 12
1.0
 22
0.0
 32
0.0
 13
1.0
 23
0.0
 33
0.0
 40
0.0
 40
0.0
 40
0.0
 40
0.0
 40
1.0
 40
1.0
 40
1.0
 40
2.0
 40
2.0
 40
2.0
 40
3.0
 40
3.0
 40
3.0
 40
4.0
 40
4.0
 40
4.0
 40
4.0
 10
100.792814102406
 20
-144.430116066323
 30
0.0
 10
100.5044596102906
 20
-144.430116066323
 30
0.0
 10
100.4507161207207
 20
-144.7367295645103
 30
0.0
 10
100.4507161207207
 20
-145.1094888960143
 30
0.0
 10
100.4507161207207
 20
-145.4550319731849
 30
0.0
 10
100.4924017760922
 20
-145.7888617257056
 30
0.0
 10
100.792814102406
 20
-145.7888617257056
 30
0.0
 10
101.0787570276817
 20
-145.7888617257056
 30
0.0
 10
101.1349120840913
 20
-145.484659794358
 30
0.0
 10
101.1349120840913
 20
-145.1094888960143
 30
0.0
 10
101.1349120840913
 20
-144.7639458188438
 30
0.0
 10
101.0911593714286
 20
-144.430116066323
 30
0.0
 10
100.792814102406
 20
-144.430116066323
 30
0.0
  0
HATCH
  5
F2
330
EA
100
AcDbEntity
  8
_U+30EC_U+30A4_U+30E4_U+30FC 1
 62
   179
420
  2234388
100
AcDbHatch
 10
0.0
 20
0.0
 30
0.0
210
0.0
220
0.0
230
1.0
  2
SOLID
 70
     1
 71
     0
 91
        2
 92
        1
 93
        1
 72
     4
 94
        3
 73
     0
 74
     1
 95
       29
 96
       25
 40
0.0
 40
0.0
 40
0.0
 40
0.0
 40
1.0
 40
1.0
 40
1.0
 40
2.0
 40
2.0
 40
2.0
 40
3.0
 40
3.0
 40
3.0
 40
4.0
 40
4.0
 40
4.0
 40
5.0
 40
5.0
 40
5.0
 40
6.0
 40
6.0
 40
6.0
 40
7.0
 40
7.0
 40
7.0
 40
8.0
 40
8.0
 40
8.0
 40
8.0
 10
101.2523898401383
 20
-145.7523437135619
 10
101.1276773835722
 20
-145.9790309964914
 10
100.9271728263307
 20
-145.9993570598543
 10
100.792814102406
 20
-145.9993570598543
 10
100.607123455751
 20
-145.9993570598543
 10
100.4434814202016
 20
-145.9490586657697
 10
100.3332383646736
 20
-145.7523437135619
 10
100.2136935513355
 20
-145.5418483794132
 10
100.1916449402299
 20
-145.2855332753106
 10
100.1916449402299
 20
-145.1094888960143
 10
100.1916449402299
 20
-144.9541150896295
 10
100.2112819844958
 20
-144.6816080367463
 10
100.3332383646736
 20
-144.4666340784667
 10
100.4579508212397
 20
-144.2471814960563
 10
100.6436414678947
 20
-144.2220322990139
 10
100.792814102406
 20
-144.2220322990139
 10
100.9760931822213
 20
-144.2220322990139
 10
101.1421467846103
 20
-144.2699191262589
 10
101.2523898401383
 20
-144.4666340784667
 10
101.3671115197971
 20
-144.6747178457758
 10
101.3939832645821
 20
-144.9220757016167
 10
101.3939832645821
 20
-145.1094888960143
 10
101.3939832645821
 20
-145.2948350331207
 10
101.3695230866368
 20
-145.5442599462528
 10
101.2523898401383
 20
-145.7523437135619
 97
        0
 97
        0
 92
        1
 93
        1
 72
     4
 94
        3
 73
     0
 74
     1
 95
       17
 96
       13
 40
0.0
 40
0.0
 40
0.0
 40
0.0
 40
1.0
 40
1.0
 40
1.0
 40
2.0
 40
2.0
 40
2.0
 40
3.0
 40
3.0
 40
3.0
 40
4.0
 40
4.0
 40
4.0
 40
4.0
 10
100.792814102406
 20
-144.430116066323
 10
100.5044596102906
 20
-144.430116066323
 10
100.4507161207207
 20
-144.7367295645103
 10
100.4507161207207
 20
-145.1094888960143
 10
100.4507161207207
 20
-145.4550319731849
 10
100.4924017760922
 20
-145.7888617257056
 10
100.792814102406
 20
-145.7888617257056
 10
101.0787570276817
 20
-145.7888617257056
 10
101.1349120840913
 20
-145.484659794358
 10
101.1349120840913
 20
-145.1094888960143
 10
101.1349120840913
 20
-144.7639458188438
 10
101.0911593714286
 20
-144.430116066323
 10
100.792814102406
 20
-144.430116066323
 97
        0
 97
        0
 75
     2
 76
     1
 98
        0
  0
ENDBLK
  5
ED
330
EA
100
AcDbEntity
  8
0
100
AcDbBlockEnd
  0
BLOCK
  5
105
330
103
100
AcDbEntity
  8
0
100
AcDbBlockBegin
  2
block 5
 70
     0
 10
0.0
 20
0.0
 30
0.0
  3
block 5
  1

  0
SPLINE
  5
107
330
103
100
AcDbEntity
  8
_U+30EC_U+30A4_U+30E4_U+30FC 1
370
     0
100
AcDbSpline
210
0.0
220
0.0
230
1.0
 70
    11
 71
     3
 72
    62
 73
    58
 74
     0
 42
0.0000000001
 43
0.0000000001
 12
1.0
 22
0.0
 32
0.0
 13
1.0
 23
0.0
 33
0.0
 40
0.0
 40
0.0
 40
0.0
 40
0.0
 40
1.0
 40
1.0
 40
1.0
 40
2.0
 40
2.0
 40
2.0
 40
3.0
 40
3.0
 40
3.0
 40
4.0
 40
4.0
 40
4.0
 40
5.0
 40
5.0
 40
5.0
 40
6.0
 40
6.0
 40
6.0
 40
7.0
 40
7.0
 40
7.0
 40
8.0
 40
8.0
 40
8.0
 40
9.0
 40
9.0
 40
9.0
 40
10.0
 40
10.0
 40
10.0
 40
11.0
 40
11.0
 40
11.0
 40
12.0
 40
12.0
 40
12.0
 40
13.0
 40
13.0
 40
13.0
 40
14.0
 40
14.0
 40
14.0
 40
15.0
 40
15.0
 40
15.0
 40
16.0
 40
16.0
 40
16.0
 40
17.0
 40
17.0
 40
17.0
 40
18.0
 40
18.0
 40
18.0
 40
19.0
 40
19.0
 40
19.0
 40
19.0
 10
100.3556314853278
 20
-137.7642008119131
 30
0.0
 10
100.2453884297998
 20
-137.7642008119131
 30
0.0
 10
99.99389645937653
 20
-137.7414631817105
 30
0.0
 10
99.84954695854456
 20
-137.5402696053719
 30
0.0
 10
99.76410859051036
 20
-137.4190022442911
 30
0.0
 10
99.75928545683102
 20
-137.3115152651513
 30
0.0
 10
99.75446232315167
 20
-137.2198757252436
 30
0.0
 10
99.75446232315167
 20
-137.2198757252436
 30
0.0
 10
100.0083658604146
 20
-137.2198757252436
 30
0.0
 10
100.0083658604146
 20
-137.2198757252436
 30
0.0
 10
100.0107774272543
 20
-137.2998019405015
 30
0.0
 10
100.0231797710012
 20
-137.5537054777644
 30
0.0
 10
100.3504638420999
 20
-137.5537054777644
 30
0.0
 10
100.5096272535184
 20
-137.5537054777644
 30
0.0
 10
100.6853271232662
 20
-137.4782578866374
 30
0.0
 10
100.6853271232662
 20
-137.231244540345
 30
0.0
 10
100.6853271232662
 20
-137.1054985551334
 30
0.0
 10
100.6415744106035
 20
-137.052788594209
 30
0.0
 10
100.6047118889113
 20
-137.0186821489051
 30
0.0
 10
100.5192735208771
 20
-136.9384114240987
 30
0.0
 10
100.3849147969524
 20
-136.9246310421577
 30
0.0
 10
100.3211805304753
 20
-136.9246310421577
 30
0.0
 10
100.2994764289182
 20
-136.9246310421577
 30
0.0
 10
100.2577907735467
 20
-136.9270426089974
 30
0.0
 10
100.2260958950824
 20
-136.9315212331283
 30
0.0
 10
100.2260958950824
 20
-136.9315212331283
 30
0.0
 10
100.2260958950824
 20
-136.7210258989795
 30
0.0
 10
100.2260958950824
 20
-136.7210258989795
 30
0.0
 10
100.269848607745
 20
-136.72791608995
 30
0.0
 10
100.3187689636356
 20
-136.7303276567897
 30
0.0
 10
100.3263481737031
 20
-136.7303276567897
 30
0.0
 10
100.4017957648301
 20
-136.7303276567897
 30
0.0
 10
100.6315836336963
 20
-136.7072455170385
 30
0.0
 10
100.6315836336963
 20
-136.4512749224844
 30
0.0
 10
100.6315836336963
 20
-136.2590385944075
 30
0.0
 10
100.4799994323453
 20
-136.1994384425126
 30
0.0
 10
100.3532199184881
 20
-136.1994384425126
 30
0.0
 10
100.0476399489464
 20
-136.1994384425126
 30
0.0
 10
100.0376491720392
 20
-136.4512749224844
 30
0.0
 10
100.0328260383599
 20
-136.5287895709025
 30
0.0
 10
100.0328260383599
 20
-136.5287895709025
 30
0.0
 10
99.79821503581434
 20
-136.5287895709025
 30
0.0
 10
99.79821503581434
 20
-136.5287895709025
 30
0.0
 10
99.80820581272157
 20
-136.3940863374293
 30
0.0
 10
99.83990069118586
 20
-135.9868760510727
 30
0.0
 10
100.3676893195261
 20
-135.9868760510727
 30
0.0
 10
100.6267605000169
 20
-135.9868760510727
 30
0.0
 10
100.9054687247736
 20
-136.1239908513857
 30
0.0
 10
100.9054687247736
 20
-136.4443847315139
 30
0.0
 10
100.9054687247736
 20
-136.6455783078525
 30
0.0
 10
100.7955701787942
 20
-136.7348062809205
 30
0.0
 10
100.6805039895868
 20
-136.8012966237858
 30
0.0
 10
100.751472956583
 20
-136.830924444959
 30
0.0
 10
100.9616237811832
 20
-136.9177408511872
 30
0.0
 10
100.9616237811832
 20
-137.217464158404
 30
0.0
 10
100.9616237811832
 20
-137.583677808486
 30
0.0
 10
100.6756808559075
 20
-137.7642008119131
 30
0.0
 10
100.3556314853278
 20
-137.7642008119131
 30
0.0
  0
HATCH
  5
108
330
103
100
AcDbEntity
  8
_U+30EC_U+30A4_U+30E4_U+30FC 1
 62
   179
420
  2234388
100
AcDbHatch
 10
0.0
 20
0.0
 30
0.0
210
0.0
220
0.0
230
1.0
  2
SOLID
 70
     1
 71
     0
 91
        1
 92
        1
 93
        1
 72
     4
 94
        3
 73
     0
 74
     1
 95
       62
 96
       58
 40
0.0
 40
0.0
 40
0.0
 40
0.0
 40
1.0
 40
1.0
 40
1.0
 40
2.0
 40
2.0
 40
2.0
 40
3.0
 40
3.0
 40
3.0
 40
4.0
 40
4.0
 40
4.0
 40
5.0
 40
5.0
 40
5.0
 40
6.0
 40
6.0
 40
6.0
 40
7.0
 40
7.0
 40
7.0
 40
8.0
 40
8.0
 40
8.0
 40
9.0
 40
9.0
 40
9.0
 40
10.0
 40
10.0
 40
10.0
 40
11.0
 40
11.0
 40
11.0
 40
12.0
 40
12.0
 40
12.0
 40
13.0
 40
13.0
 40
13.0
 40
14.0
 40
14.0
 40
14.0
 40
15.0
 40
15.0
 40
15.0
 40
16.0
 40
16.0
 40
16.0
 40
17.0
 40
17.0
 40
17.0
 40
18.0
 40
18.0
 40
18.0
 40
19.0
 40
19.0
 40
19.0
 40
19.0
 10
100.3556314853278
 20
-137.7642008119131
 10
100.2453884297998
 20
-137.7642008119131
 10
99.99389645937653
 20
-137.7414631817105
 10
99.84954695854456
 20
-137.5402696053719
 10
99.76410859051036
 20
-137.4190022442911
 10
99.75928545683102
 20
-137.3115152651513
 10
99.75446232315167
 20
-137.2198757252436
 10
99.75446232315167
 20
-137.2198757252436
 10
100.0083658604146
 20
-137.2198757252436
 10
100.0083658604146
 20
-137.2198757252436
 10
100.0107774272543
 20
-137.2998019405015
 10
100.0231797710012
 20
-137.5537054777644
 10
100.3504638420999
 20
-137.5537054777644
 10
100.5096272535184
 20
-137.5537054777644
 10
100.6853271232662
 20
-137.4782578866374
 10
100.6853271232662
 20
-137.231244540345
 10
100.6853271232662
 20
-137.1054985551334
 10
100.6415744106035
 20
-137.052788594209
 10
100.6047118889113
 20
-137.0186821489051
 10
100.5192735208771
 20
-136.9384114240987
 10
100.3849147969524
 20
-136.9246310421577
 10
100.3211805304753
 20
-136.9246310421577
 10
100.2994764289182
 20
-136.9246310421577
 10
100.2577907735467
 20
-136.9270426089974
 10
100.2260958950824
 20
-136.9315212331283
 10
100.2260958950824
 20
-136.9315212331283
 10
100.2260958950824
 20
-136.7210258989795
 10
100.2260958950824
 20
-136.7210258989795
 10
100.269848607745
 20
-136.72791608995
 10
100.3187689636356
 20
-136.7303276567897
 10
100.3263481737031
 20
-136.7303276567897
 10
100.4017957648301
 20
-136.7303276567897
 10
100.6315836336963
 20
-136.7072455170385
 10
100.6315836336963
 20
-136.4512749224844
 10
100.6315836336963
 20
-136.2590385944075
 10
100.4799994323453
 20
-136.1994384425126
 10
100.3532199184881
 20
-136.1994384425126
 10
100.0476399489464
 20
-136.1994384425126
 10
100.0376491720392
 20
-136.4512749224844
 10
100.0328260383599
 20
-136.5287895709025
 10
100.0328260383599
 20
-136.5287895709025
 10
99.79821503581434
 20
-136.5287895709025
 10
99.79821503581434
 20
-136.5287895709025
 10
99.80820581272157
 20
-136.3940863374293
 10
99.83990069118586
 20
-135.9868760510727
 10
100.3676893195261
 20
-135.9868760510727
 10
100.6267605000169
 20
-135.9868760510727
 10
100.9054687247736
 20
-136.1239908513857
 10
100.9054687247736
 20
-136.4443847315139
 10
100.9054687247736
 20
-136.6455783078525
 10
100.7955701787942
 20
-136.7348062809205
 10
100.6805039895868
 20
-136.8012966237858
 10
100.751472956583
 20
-136.830924444959
 10
100.9616237811832
 20
-136.9177408511872
 10
100.9616237811832
 20
-137.217464158404
 10
100.9616237811832
 20
-137.583677808486
 10
100.6756808559075
 20
-137.7642008119131
 10
100.3556314853278
 20
-137.7642008119131
 97
        0
 97
        0
 75
     2
 76
     1
 98
        0
  0
POLYLINE
  5
109
330
103
100
AcDbEntity
  8
_U+30EC_U+30A4_U+30E4_U+30FC 1
370
     0
100
AcDb2dPolyline
 66
     1
 10
0.0
 20
0.0
 30
0.0
  0
VERTEX
  5
10A
330
109
100
AcDbEntity
  8
_U+30EC_U+30A4_U+30E4_U+30FC 1
370
     0
100
AcDbVertex
100
AcDb2dVertex
 10
101.2155273184461
 20
-137.7094237936977
 30
0.0
  0
VERTEX
  5
10B
330
109
100
AcDbEntity
  8
_U+30EC_U+30A4_U+30E4_U+30FC 1
370
     0
100
AcDbVertex
100
AcDb2dVertex
 10
101.2155273184461
 20
-137.4372612503629
 30
0.0
  0
VERTEX
  5
10C
330
109
100
AcDbEntity
  8
_U+30EC_U+30A4_U+30E4_U+30FC 1
370
     0
100
AcDbVertex
100
AcDb2dVertex
 10
101.5062933774012
 20
-137.4372612503629
 30
0.0
  0
VERTEX
  5
10D
330
109
100
AcDbEntity
  8
_U+30EC_U+30A4_U+30E4_U+30FC 1
370
     0
100
AcDbVertex
100
AcDb2dVertex
 10
101.5062933774012
 20
-137.7094237936977
 30
0.0
  0
VERTEX
  5
10E
330
109
100
AcDbEntity
  8
_U+30EC_U+30A4_U+30E4_U+30FC 1
370
     0
100
AcDbVertex
100
AcDb2dVertex
 10
101.2155273184461
 20
-137.7094237936977
 30
0.0
  0
SEQEND
  5
10F
330
109
100
AcDbEntity
  8
_U+30EC_U+30A4_U+30E4_U+30FC 1
370
     0
  0
HATCH
  5
110
330
103
100
AcDbEntity
  8
_U+30EC_U+30A4_U+30E4_U+30FC 1
 62
   179
420
  2234388
100
AcDbHatch
 10
0.0
 20
0.0
 30
0.0
210
0.0
220
0.0
230
1.0
  2
SOLID
 70
     1
 71
     0
 91
        1
 92
        1
 93
        4
 72
     1
 10
101.2155273184461
 20
-137.7094237936977
 11
101.2155273184461
 21
-137.4372612503629
 72
     1
 10
101.2155273184461
 20
-137.4372612503629
 11
101.5062933774012
 21
-137.4372612503629
 72
     1
 10
101.5062933774012
 20
-137.4372612503629
 11
101.5062933774012
 21
-137.7094237936977
 72
     1
 10
101.5062933774012
 20
-137.7094237936977
 11
101.2155273184461
 21
-137.7094237936977
 97
        0
 75
     2
 76
     1
 98
        0
  0
SPLINE
  5
111
330
103
100
AcDbEntity
  8
_U+30EC_U+30A4_U+30E4_U+30FC 1
370
     0
100
AcDbSpline
210
0.0
220
0.0
230
1.0
 70
    11
 71
     3
 72
    29
 73
    25
 74
     0
 42
0.0000000001
 43
0.0000000001
 12
1.0
 22
0.0
 32
0.0
 13
1.0
 23
0.0
 33
0.0
 40
0.0
 40
0.0
 40
0.0
 40
0.0
 40
1.0
 40
1.0
 40
1.0
 40
2.0
 40
2.0
 40
2.0
 40
3.0
 40
3.0
 40
3.0
 40
4.0
 40
4.0
 40
4.0
 40
5.0
 40
5.0
 40
5.0
 40
6.0
 40
6.0
 40
6.0
 40
7.0
 40
7.0
 40
7.0
 40
8.0
 40
8.0
 40
8.0
 40
8.0
 10
102.3565429431609
 20
-137.7642008119131
 30
0.0
 10
102.0485514067795
 20
-137.7642008119131
 30
0.0
 10
101.7553737809848
 20
-137.6157171964988
 30
0.0
 10
101.7553737809848
 20
-137.2381347313155
 30
0.0
 10
101.7553737809848
 20
-136.9614935638499
 30
0.0
 10
101.9190158165341
 20
-136.8584852088409
 30
0.0
 10
102.0413167062605
 20
-136.7919948659756
 30
0.0
 10
101.8969672054285
 20
-136.72791608995
 30
0.0
 10
101.8091172705547
 20
-136.604581671578
 30
0.0
 10
101.8091172705547
 20
-136.4306043495729
 30
0.0
 10
101.8091172705547
 20
-136.1332926091958
 30
0.0
 10
102.0389051394208
 20
-135.9868760510727
 30
0.0
 10
102.3565429431609
 20
-135.9868760510727
 30
0.0
 10
102.6841715238081
 20
-135.9868760510727
 30
0.0
 10
102.9039686157671
 20
-136.1422498574575
 30
0.0
 10
102.9039686157671
 20
-136.4306043495729
 30
0.0
 10
102.9039686157671
 20
-136.604581671578
 30
0.0
 10
102.8137071140535
 20
-136.72791608995
 30
0.0
 10
102.6693576132215
 20
-136.7919948659756
 30
0.0
 10
102.772021458682
 20
-136.8467718841911
 30
0.0
 10
102.9553005384973
 20
-136.9497802392001
 30
0.0
 10
102.9553005384973
 20
-137.2336561071847
 30
0.0
 10
102.9553005384973
 20
-137.6384548267015
 30
0.0
 10
102.6328396010779
 20
-137.7642008119131
 30
0.0
 10
102.3565429431609
 20
-137.7642008119131
 30
0.0
  0
SPLINE
  5
112
330
103
100
AcDbEntity
  8
_U+30EC_U+30A4_U+30E4_U+30FC 1
370
     0
100
AcDbSpline
210
0.0
220
0.0
230
1.0
 70
    11
 71
     3
 72
    17
 73
    13
 74
     0
 42
0.0000000001
 43
0.0000000001
 12
1.0
 22
0.0
 32
0.0
 13
1.0
 23
0.0
 33
0.0
 40
0.0
 40
0.0
 40
0.0
 40
0.0
 40
1.0
 40
1.0
 40
1.0
 40
2.0
 40
2.0
 40
2.0
 40
3.0
 40
3.0
 40
3.0
 40
4.0
 40
4.0
 40
4.0
 40
4.0
 10
102.3565429431609
 20
-136.9087836029256
 30
0.0
 10
102.1904893407718
 20
-136.9087836029256
 30
0.0
 10
102.0144449614756
 20
-137.0024902001244
 30
0.0
 10
102.0144449614756
 20
-137.2222872920833
 30
0.0
 10
102.0144449614756
 20
-137.4441514413334
 30
0.0
 10
102.1612060291472
 20
-137.5537054777644
 30
0.0
 10
102.3565429431609
 20
-137.5537054777644
 30
0.0
 10
102.5715169014405
 20
-137.5537054777644
 30
0.0
 10
102.6986409248462
 20
-137.4210693015822
 30
0.0
 10
102.6986409248462
 20
-137.2288329735053
 30
0.0
 10
102.6986409248462
 20
-136.9887098181834
 30
0.0
 10
102.5105387113515
 20
-136.9087836029256
 30
0.0
 10
102.3565429431609
 20
-136.9087836029256
 30
0.0
  0
SPLINE
  5
113
330
103
100
AcDbEntity
  8
_U+30EC_U+30A4_U+30E4_U+30FC 1
370
     0
100
AcDbSpline
210
0.0
220
0.0
230
1.0
 70
    11
 71
     3
 72
    17
 73
    13
 74
     0
 42
0.0000000001
 43
0.0000000001
 12
1.0
 22
0.0
 32
0.0
 13
1.0
 23
0.0
 33
0.0
 40
0.0
 40
0.0
 40
0.0
 40
0.0
 40
1.0
 40
1.0
 40
1.0
 40
2.0
 40
2.0
 40
2.0
 40
3.0
 40
3.0
 40
3.0
 40
4.0
 40
4.0
 40
4.0
 40
4.0
 10
102.3565429431609
 20
-136.1949598183818
 30
0.0
 10
102.1660291628265
 20
-136.1949598183818
 30
0.0
 10
102.0681884510455
 20
-136.2979681733908
 30
0.0
 10
102.0681884510455
 20
-136.4443847315139
 30
0.0
 10
102.0681884510455
 20
-136.577020907696
 30
0.0
 10
102.15121525224
 20
-136.7051784597473
 30
0.0
 10
102.3565429431609
 20
-136.7051784597473
 30
0.0
 10
102.5618706340818
 20
-136.7051784597473
 30
0.0
 10
102.6448974352763
 20
-136.577020907696
 30
0.0
 10
102.6448974352763
 20
-136.4443847315139
 30
0.0
 10
102.6448974352763
 20
-136.2979681733908
 30
0.0
 10
102.5446451566555
 20
-136.1949598183818
 30
0.0
 10
102.3565429431609
 20
-136.1949598183818
 30
0.0
  0
HATCH
  5
114
330
103
100
AcDbEntity
  8
_U+30EC_U+30A4_U+30E4_U+30FC 1
 62
   179
420
  2234388
100
AcDbHatch
 10
0.0
 20
0.0
 30
0.0
210
0.0
220
0.0
230
1.0
  2
SOLID
 70
     1
 71
     0
 91
        3
 92
        1
 93
        1
 72
     4
 94
        3
 73
     0
 74
     1
 95
       29
 96
       25
 40
0.0
 40
0.0
 40
0.0
 40
0.0
 40
1.0
 40
1.0
 40
1.0
 40
2.0
 40
2.0
 40
2.0
 40
3.0
 40
3.0
 40
3.0
 40
4.0
 40
4.0
 40
4.0
 40
5.0
 40
5.0
 40
5.0
 40
6.0
 40
6.0
 40
6.0
 40
7.0
 40
7.0
 40
7.0
 40
8.0
 40
8.0
 40
8.0
 40
8.0
 10
102.3565429431609
 20
-137.7642008119131
 10
102.0485514067795
 20
-137.7642008119131
 10
101.7553737809848
 20
-137.6157171964988
 10
101.7553737809848
 20
-137.2381347313155
 10
101.7553737809848
 20
-136.9614935638499
 10
101.9190158165341
 20
-136.8584852088409
 10
102.0413167062605
 20
-136.7919948659756
 10
101.8969672054285
 20
-136.72791608995
 10
101.8091172705547
 20
-136.604581671578
 10
101.8091172705547
 20
-136.4306043495729
 10
101.8091172705547
 20
-136.1332926091958
 10
102.0389051394208
 20
-135.9868760510727
 10
102.3565429431609
 20
-135.9868760510727
 10
102.6841715238081
 20
-135.9868760510727
 10
102.9039686157671
 20
-136.1422498574575
 10
102.9039686157671
 20
-136.4306043495729
 10
102.9039686157671
 20
-136.604581671578
 10
102.8137071140535
 20
-136.72791608995
 10
102.6693576132215
 20
-136.7919948659756
 10
102.772021458682
 20
-136.8467718841911
 10
102.9553005384973
 20
-136.9497802392001
 10
102.9553005384973
 20
-137.2336561071847
 10
102.9553005384973
 20
-137.6384548267015
 10
102.6328396010779
 20
-137.7642008119131
 10
102.3565429431609
 20
-137.7642008119131
 97
        0
 97
        0
 92
        1
 93
        1
 72
     4
 94
        3
 73
     0
 74
     1
 95
       17
 96
       13
 40
0.0
 40
0.0
 40
0.0
 40
0.0
 40
1.0
 40
1.0
 40
1.0
 40
2.0
 40
2.0
 40
2.0
 40
3.0
 40
3.0
 40
3.0
 40
4.0
 40
4.0
 40
4.0
 40
4.0
 10
102.3565429431609
 20
-136.9087836029256
 10
102.1904893407718
 20
-136.9087836029256
 10
102.0144449614756
 20
-137.0024902001244
 10
102.0144449614756
 20
-137.2222872920833
 10
102.0144449614756
 20
-137.4441514413334
 10
102.1612060291472
 20
-137.5537054777644
 10
102.3565429431609
 20
-137.5537054777644
 10
102.5715169014405
 20
-137.5537054777644
 10
102.6986409248462
 20
-137.4210693015822
 10
102.6986409248462
 20
-137.2288329735053
 10
102.6986409248462
 20
-136.9887098181834
 10
102.5105387113515
 20
-136.9087836029256
 10
102.3565429431609
 20
-136.9087836029256
 97
        0
 97
        0
 92
        1
 93
        1
 72
     4
 94
        3
 73
     0
 74
     1
 95
       17
 96
       13
 40
0.0
 40
0.0
 40
0.0
 40
0.0
 40
1.0
 40
1.0
 40
1.0
 40
2.0
 40
2.0
 40
2.0
 40
3.0
 40
3.0
 40
3.0
 40
4.0
 40
4.0
 40
4.0
 40
4.0
 10
102.3565429431609
 20
-136.1949598183818
 10
102.1660291628265
 20
-136.1949598183818
 10
102.0681884510455
 20
-136.2979681733908
 10
102.0681884510455
 20
-136.4443847315139
 10
102.0681884510455
 20
-136.577020907696
 10
102.15121525224
 20
-136.7051784597473
 10
102.3565429431609
 20
-136.7051784597473
 10
102.5618706340818
 20
-136.7051784597473
 10
102.6448974352763
 20
-136.577020907696
 10
102.6448974352763
 20
-136.4443847315139
 10
102.6448974352763
 20
-136.2979681733908
 10
102.5446451566555
 20
-136.1949598183818
 10
102.3565429431609
 20
-136.1949598183818
 97
        0
 97
        0
 75
     2
 76
     1
 98
        0
  0
ENDBLK
  5
106
330
103
100
AcDbEntity
  8
0
100
AcDbBlockEnd
  0
BLOCK
  5
123
330
121
100
AcDbEntity
  8
0
100
AcDbBlockBegin
  2
block 6
 70
     0
 10
0.0
 20
0.0
 30
0.0
  3
block 6
  1

  0
SPLINE
  5
125
330
121
100
AcDbEntity
  8
_U+30EC_U+30A4_U+30E4_U+30FC 1
370
     0
100
AcDbSpline
210
0.0
220
0.0
230
1.0
 70
    11
 71
     3
 72
    29
 73
    25
 74
     0
 42
0.0000000001
 43
0.0000000001
 12
1.0
 22
0.0
 32
0.0
 13
1.0
 23
0.0
 33
0.0
 40
0.0
 40
0.0
 40
0.0
 40
0.0
 40
1.0
 40
1.0
 40
1.0
 40
2.0
 40
2.0
 40
2.0
 40
3.0
 40
3.0
 40
3.0
 40
4.0
 40
4.0
 40
4.0
 40
5.0
 40
5.0
 40
5.0
 40
6.0
 40
6.0
 40
6.0
 40
7.0
 40
7.0
 40
7.0
 40
8.0
 40
8.0
 40
8.0
 40
8.0
 10
107.0435953508433
 20
-142.0691921302813
 30
0.0
 10
107.0435953508433
 20
-142.3771836666627
 30
0.0
 10
106.895111735429
 20
-142.6703612924574
 30
0.0
 10
106.5175292702456
 20
-142.6703612924574
 30
0.0
 10
106.2408881027801
 20
-142.6703612924574
 30
0.0
 10
106.1378797477711
 20
-142.506719256908
 30
0.0
 10
106.0713894049058
 20
-142.3844183671817
 30
0.0
 10
106.0073106288801
 20
-142.5287678680137
 30
0.0
 10
105.8839762105082
 20
-142.6166178028875
 30
0.0
 10
105.7099988885031
 20
-142.6166178028875
 30
0.0
 10
105.412687148126
 20
-142.6166178028875
 30
0.0
 10
105.2662705900029
 20
-142.3868299340214
 30
0.0
 10
105.2662705900029
 20
-142.0691921302813
 30
0.0
 10
105.2662705900029
 20
-141.7415635496341
 30
0.0
 10
105.4216443963876
 20
-141.5217664576751
 30
0.0
 10
105.7099988885031
 20
-141.5217664576751
 30
0.0
 10
105.8839762105082
 20
-141.5217664576751
 30
0.0
 10
106.0073106288801
 20
-141.6120279593887
 30
0.0
 10
106.0713894049058
 20
-141.7563774602206
 30
0.0
 10
106.1261664231212
 20
-141.6537136147602
 30
0.0
 10
106.2291747781302
 20
-141.4704345349449
 30
0.0
 10
106.5130506461148
 20
-141.4704345349449
 30
0.0
 10
106.9178493656317
 20
-141.4704345349449
 30
0.0
 10
107.0435953508433
 20
-141.7928954723643
 30
0.0
 10
107.0435953508433
 20
-142.0691921302813
 30
0.0
  0
SPLINE
  5
126
330
121
100
AcDbEntity
  8
_U+30EC_U+30A4_U+30E4_U+30FC 1
370
     0
100
AcDbSpline
210
0.0
220
0.0
230
1.0
 70
    11
 71
     3
 72
    17
 73
    13
 74
     0
 42
0.0000000001
 43
0.0000000001
 12
1.0
 22
0.0
 32
0.0
 13
1.0
 23
0.0
 33
0.0
 40
0.0
 40
0.0
 40
0.0
 40
0.0
 40
1.0
 40
1.0
 40
1.0
 40
2.0
 40
2.0
 40
2.0
 40
3.0
 40
3.0
 40
3.0
 40
4.0
 40
4.0
 40
4.0
 40
4.0
 10
105.474354357312
 20
-142.0691921302813
 30
0.0
 10
105.474354357312
 20
-142.2597059106156
 30
0.0
 10
105.5773627123209
 20
-142.3575466223967
 30
0.0
 10
105.7237792704441
 20
-142.3575466223967
 30
0.0
 10
105.8564154466262
 20
-142.3575466223967
 30
0.0
 10
105.9845729986775
 20
-142.2745198212022
 30
0.0
 10
105.9845729986775
 20
-142.0691921302813
 30
0.0
 10
105.9845729986775
 20
-141.8638644393604
 30
0.0
 10
105.8564154466262
 20
-141.7808376381659
 30
0.0
 10
105.7237792704441
 20
-141.7808376381659
 30
0.0
 10
105.5773627123209
 20
-141.7808376381659
 30
0.0
 10
105.474354357312
 20
-141.8810899167867
 30
0.0
 10
105.474354357312
 20
-142.0691921302813
 30
0.0
  0
SPLINE
  5
127
330
121
100
AcDbEntity
  8
_U+30EC_U+30A4_U+30E4_U+30FC 1
370
     0
100
AcDbSpline
210
0.0
220
0.0
230
1.0
 70
    11
 71
     3
 72
    17
 73
    13
 74
     0
 42
0.0000000001
 43
0.0000000001
 12
1.0
 22
0.0
 32
0.0
 13
1.0
 23
0.0
 33
0.0
 40
0.0
 40
0.0
 40
0.0
 40
0.0
 40
1.0
 40
1.0
 40
1.0
 40
2.0
 40
2.0
 40
2.0
 40
3.0
 40
3.0
 40
3.0
 40
4.0
 40
4.0
 40
4.0
 40
4.0
 10
106.1881781418557
 20
-142.0691921302813
 30
0.0
 10
106.1881781418557
 20
-142.2352457326704
 30
0.0
 10
106.2818847390545
 20
-142.4112901119666
 30
0.0
 10
106.5016818310135
 20
-142.4112901119666
 30
0.0
 10
106.7235459802636
 20
-142.4112901119666
 30
0.0
 10
106.8331000166945
 20
-142.264529044295
 30
0.0
 10
106.8331000166945
 20
-142.0691921302813
 30
0.0
 10
106.8331000166945
 20
-141.8542181720017
 30
0.0
 10
106.7004638405124
 20
-141.727094148596
 30
0.0
 10
106.5082275124355
 20
-141.727094148596
 30
0.0
 10
106.2681043571135
 20
-141.727094148596
 30
0.0
 10
106.1881781418557
 20
-141.9151963620907
 30
0.0
 10
106.1881781418557
 20
-142.0691921302813
 30
0.0
  0
HATCH
  5
128
330
121
100
AcDbEntity
  8
_U+30EC_U+30A4_U+30E4_U+30FC 1
 62
   179
420
  2234388
100
AcDbHatch
 10
0.0
 20
0.0
 30
0.0
210
0.0
220
0.0
230
1.0
  2
SOLID
 70
     1
 71
     0
 91
        3
 92
        1
 93
        1
 72
     4
 94
        3
 73
     0
 74
     1
 95
       29
 96
       25
 40
0.0
 40
0.0
 40
0.0
 40
0.0
 40
1.0
 40
1.0
 40
1.0
 40
2.0
 40
2.0
 40
2.0
 40
3.0
 40
3.0
 40
3.0
 40
4.0
 40
4.0
 40
4.0
 40
5.0
 40
5.0
 40
5.0
 40
6.0
 40
6.0
 40
6.0
 40
7.0
 40
7.0
 40
7.0
 40
8.0
 40
8.0
 40
8.0
 40
8.0
 10
107.0435953508433
 20
-142.0691921302813
 10
107.0435953508433
 20
-142.3771836666627
 10
106.895111735429
 20
-142.6703612924574
 10
106.5175292702456
 20
-142.6703612924574
 10
106.2408881027801
 20
-142.6703612924574
 10
106.1378797477711
 20
-142.506719256908
 10
106.0713894049058
 20
-142.3844183671817
 10
106.0073106288801
 20
-142.5287678680137
 10
105.8839762105082
 20
-142.6166178028875
 10
105.7099988885031
 20
-142.6166178028875
 10
105.412687148126
 20
-142.6166178028875
 10
105.2662705900029
 20
-142.3868299340214
 10
105.2662705900029
 20
-142.0691921302813
 10
105.2662705900029
 20
-141.7415635496341
 10
105.4216443963876
 20
-141.5217664576751
 10
105.7099988885031
 20
-141.5217664576751
 10
105.8839762105082
 20
-141.5217664576751
 10
106.0073106288801
 20
-141.6120279593887
 10
106.0713894049058
 20
-141.7563774602206
 10
106.1261664231212
 20
-141.6537136147602
 10
106.2291747781302
 20
-141.4704345349449
 10
106.5130506461148
 20
-141.4704345349449
 10
106.9178493656317
 20
-141.4704345349449
 10
107.0435953508433
 20
-141.7928954723643
 10
107.0435953508433
 20
-142.0691921302813
 97
        0
 97
        0
 92
        1
 93
        1
 72
     4
 94
        3
 73
     0
 74
     1
 95
       17
 96
       13
 40
0.0
 40
0.0
 40
0.0
 40
0.0
 40
1.0
 40
1.0
 40
1.0
 40
2.0
 40
2.0
 40
2.0
 40
3.0
 40
3.0
 40
3.0
 40
4.0
 40
4.0
 40
4.0
 40
4.0
 10
105.474354357312
 20
-142.0691921302813
 10
105.474354357312
 20
-142.2597059106156
 10
105.5773627123209
 20
-142.3575466223967
 10
105.7237792704441
 20
-142.3575466223967
 10
105.8564154466262
 20
-142.3575466223967
 10
105.9845729986775
 20
-142.2745198212022
 10
105.9845729986775
 20
-142.0691921302813
 10
105.9845729986775
 20
-141.8638644393604
 10
105.8564154466262
 20
-141.7808376381659
 10
105.7237792704441
 20
-141.7808376381659
 10
105.5773627123209
 20
-141.7808376381659
 10
105.474354357312
 20
-141.8810899167867
 10
105.474354357312
 20
-142.0691921302813
 97
        0
 97
        0
 92
        1
 93
        1
 72
     4
 94
        3
 73
     0
 74
     1
 95
       17
 96
       13
 40
0.0
 40
0.0
 40
0.0
 40
0.0
 40
1.0
 40
1.0
 40
1.0
 40
2.0
 40
2.0
 40
2.0
 40
3.0
 40
3.0
 40
3.0
 40
4.0
 40
4.0
 40
4.0
 40
4.0
 10
106.1881781418557
 20
-142.0691921302813
 10
106.1881781418557
 20
-142.2352457326704
 10
106.2818847390545
 20
-142.4112901119666
 10
106.5016818310135
 20
-142.4112901119666
 10
106.7235459802636
 20
-142.4112901119666
 10
106.8331000166945
 20
-142.264529044295
 10
106.8331000166945
 20
-142.0691921302813
 10
106.8331000166945
 20
-141.8542181720017
 10
106.7004638405124
 20
-141.727094148596
 10
106.5082275124355
 20
-141.727094148596
 10
106.2681043571135
 20
-141.727094148596
 10
106.1881781418557
 20
-141.9151963620907
 10
106.1881781418557
 20
-142.0691921302813
 97
        0
 97
        0
 75
     2
 76
     1
 98
        0
  0
ENDBLK
  5
124
330
121
100
AcDbEntity
  8
0
100
AcDbBlockEnd
  0
BLOCK
  5
137
330
135
100
AcDbEntity
  8
0
100
AcDbBlockBegin
  2
block 7
 70
     0
 10
0.0
 20
0.0
 30
0.0
  3
block 7
  1

  0
SPLINE
  5
139
330
135
100
AcDbEntity
  8
_U+30EC_U+30A4_U+30E4_U+30FC 1
370
     0
100
AcDbSpline
210
0.0
220
0.0
230
1.0
 70
    11
 71
     3
 72
    53
 73
    49
 74
     0
 42
0.0000000001
 43
0.0000000001
 12
1.0
 22
0.0
 32
0.0
 13
1.0
 23
0.0
 33
0.0
 40
0.0
 40
0.0
 40
0.0
 40
0.0
 40
1.0
 40
1.0
 40
1.0
 40
2.0
 40
2.0
 40
2.0
 40
3.0
 40
3.0
 40
3.0
 40
4.0
 40
4.0
 40
4.0
 40
5.0
 40
5.0
 40
5.0
 40
6.0
 40
6.0
 40
6.0
 40
7.0
 40
7.0
 40
7.0
 40
8.0
 40
8.0
 40
8.0
 40
9.0
 40
9.0
 40
9.0
 40
10.0
 40
10.0
 40
10.0
 40
11.0
 40
11.0
 40
11.0
 40
12.0
 40
12.0
 40
12.0
 40
13.0
 40
13.0
 40
13.0
 40
14.0
 40
14.0
 40
14.0
 40
15.0
 40
15.0
 40
15.0
 40
16.0
 40
16.0
 40
16.0
 40
16.0
 10
80.543576368753
 20
-142.8412380285258
 30
0.0
 10
80.543576368753
 20
-142.9314995302394
 30
0.0
 10
80.52531736268118
 20
-143.0489772862864
 30
0.0
 10
80.4567599625247
 20
-143.1661105327849
 30
0.0
 10
80.33790416828359
 20
-143.3666150900264
 30
0.0
 10
80.19596623429129
 20
-143.3910752679717
 30
0.0
 10
80.07917749734132
 20
-143.4131238790773
 30
0.0
 10
80.07917749734132
 20
-143.4131238790773
 30
0.0
 10
80.07917749734132
 20
-143.1564642654262
 30
0.0
 10
80.07917749734132
 20
-143.1564642654262
 30
0.0
 10
80.29449596516943
 20
-143.092729998949
 30
0.0
 10
80.32653535318227
 20
-142.9463134408259
 30
0.0
 10
80.32653535318227
 20
-142.8388264616861
 30
0.0
 10
80.32653535318227
 20
-142.6775959929764
 30
0.0
 10
80.21870386449393
 20
-142.5015516136802
 30
0.0
 10
79.9672118940707
 20
-142.5015516136802
 30
0.0
 10
79.69039847183087
 20
-142.5015516136802
 30
0.0
 10
79.6149508807039
 20
-142.7092908714407
 30
0.0
 10
79.6149508807039
 20
-142.8484727290448
 30
0.0
 10
79.6149508807039
 20
-142.8849907411885
 30
0.0
 10
79.6149508807039
 20
-143.0489772862864
 30
0.0
 10
79.75447724785653
 20
-143.1516411317468
 30
0.0
 10
79.75447724785653
 20
-143.1516411317468
 30
0.0
 10
79.73380667494503
 20
-143.3542127462795
 30
0.0
 10
79.73380667494503
 20
-143.3542127462795
 30
0.0
 10
79.73380667494503
 20
-143.3542127462795
 30
0.0
 10
78.81878931406267
 20
-143.2150308886754
 30
0.0
 10
78.81878931406267
 20
-143.2150308886754
 30
0.0
 10
78.81878931406267
 20
-143.2150308886754
 30
0.0
 10
78.81878931406267
 20
-142.3158609670252
 30
0.0
 10
78.81878931406267
 20
-142.3158609670252
 30
0.0
 10
78.81878931406267
 20
-142.3158609670252
 30
0.0
 10
79.02928464821143
 20
-142.3158609670252
 30
0.0
 10
79.02928464821143
 20
-142.3158609670252
 30
0.0
 10
79.02928464821143
 20
-142.3158609670252
 30
0.0
 10
79.02928464821143
 20
-143.0269286751808
 30
0.0
 10
79.02928464821143
 20
-143.0269286751808
 30
0.0
 10
79.02928464821143
 20
-143.0269286751808
 30
0.0
 10
79.48679332865261
 20
-143.1027207758563
 30
0.0
 10
79.48679332865261
 20
-143.1027207758563
 30
0.0
 10
79.4501030617347
 20
-143.0317518088601
 30
0.0
 10
79.40669485862055
 20
-142.9363226639187
 30
0.0
 10
79.40669485862055
 20
-142.7995523731543
 30
0.0
 10
79.40669485862055
 20
-142.5063747473595
 30
0.0
 10
79.6080606897334
 20
-142.2324896562822
 30
0.0
 10
79.9465413211592
 20
-142.2324896562822
 30
0.0
 10
80.28967283149008
 20
-142.2324896562822
 30
0.0
 10
80.543576368753
 20
-142.4915608367729
 30
0.0
 10
80.543576368753
 20
-142.8412380285258
 30
0.0
  0
HATCH
  5
13A
330
135
100
AcDbEntity
  8
_U+30EC_U+30A4_U+30E4_U+30FC 1
 62
   179
420
  2234388
100
AcDbHatch
 10
0.0
 20
0.0
 30
0.0
210
0.0
220
0.0
230
1.0
  2
SOLID
 70
     1
 71
     0
 91
        1
 92
        1
 93
        1
 72
     4
 94
        3
 73
     0
 74
     1
 95
       53
 96
       49
 40
0.0
 40
0.0
 40
0.0
 40
0.0
 40
1.0
 40
1.0
 40
1.0
 40
2.0
 40
2.0
 40
2.0
 40
3.0
 40
3.0
 40
3.0
 40
4.0
 40
4.0
 40
4.0
 40
5.0
 40
5.0
 40
5.0
 40
6.0
 40
6.0
 40
6.0
 40
7.0
 40
7.0
 40
7.0
 40
8.0
 40
8.0
 40
8.0
 40
9.0
 40
9.0
 40
9.0
 40
10.0
 40
10.0
 40
10.0
 40
11.0
 40
11.0
 40
11.0
 40
12.0
 40
12.0
 40
12.0
 40
13.0
 40
13.0
 40
13.0
 40
14.0
 40
14.0
 40
14.0
 40
15.0
 40
15.0
 40
15.0
 40
16.0
 40
16.0
 40
16.0
 40
16.0
 10
80.543576368753
 20
-142.8412380285258
 10
80.543576368753
 20
-142.9314995302394
 10
80.52531736268118
 20
-143.0489772862864
 10
80.4567599625247
 20
-143.1661105327849
 10
80.33790416828359
 20
-143.3666150900264
 10
80.19596623429129
 20
-143.3910752679717
 10
80.07917749734132
 20
-143.4131238790773
 10
80.07917749734132
 20
-143.4131238790773
 10
80.07917749734132
 20
-143.1564642654262
 10
80.07917749734132
 20
-143.1564642654262
 10
80.29449596516943
 20
-143.092729998949
 10
80.32653535318227
 20
-142.9463134408259
 10
80.32653535318227
 20
-142.8388264616861
 10
80.32653535318227
 20
-142.6775959929764
 10
80.21870386449393
 20
-142.5015516136802
 10
79.9672118940707
 20
-142.5015516136802
 10
79.69039847183087
 20
-142.5015516136802
 10
79.6149508807039
 20
-142.7092908714407
 10
79.6149508807039
 20
-142.8484727290448
 10
79.6149508807039
 20
-142.8849907411885
 10
79.6149508807039
 20
-143.0489772862864
 10
79.75447724785653
 20
-143.1516411317468
 10
79.75447724785653
 20
-143.1516411317468
 10
79.73380667494503
 20
-143.3542127462795
 10
79.73380667494503
 20
-143.3542127462795
 10
79.73380667494503
 20
-143.3542127462795
 10
78.81878931406267
 20
-143.2150308886754
 10
78.81878931406267
 20
-143.2150308886754
 10
78.81878931406267
 20
-143.2150308886754
 10
78.81878931406267
 20
-142.3158609670252
 10
78.81878931406267
 20
-142.3158609670252
 10
78.81878931406267
 20
-142.3158609670252
 10
79.02928464821143
 20
-142.3158609670252
 10
79.02928464821143
 20
-142.3158609670252
 10
79.02928464821143
 20
-142.3158609670252
 10
79.02928464821143
 20
-143.0269286751808
 10
79.02928464821143
 20
-143.0269286751808
 10
79.02928464821143
 20
-143.0269286751808
 10
79.48679332865261
 20
-143.1027207758563
 10
79.48679332865261
 20
-143.1027207758563
 10
79.4501030617347
 20
-143.0317518088601
 10
79.40669485862055
 20
-142.9363226639187
 10
79.40669485862055
 20
-142.7995523731543
 10
79.40669485862055
 20
-142.5063747473595
 10
79.6080606897334
 20
-142.2324896562822
 10
79.9465413211592
 20
-142.2324896562822
 10
80.28967283149008
 20
-142.2324896562822
 10
80.543576368753
 20
-142.4915608367729
 10
80.543576368753
 20
-142.8412380285258
 97
        0
 97
        0
 75
     2
 76
     1
 98
        0
  0
ENDBLK
  5
138
330
135
100
AcDbEntity
  8
0
100
AcDbBlockEnd
  0
BLOCK
  5
149
330
147
100
AcDbEntity
  8
0
100
AcDbBlockBegin
  2
block 8
 70
     0
 10
0.0
 20
0.0
 30
0.0
  3
block 8
  1

  0
SPLINE
  5
14B
330
147
100
AcDbEntity
  8
_U+30EC_U+30A4_U+30E4_U+30FC 1
370
     0
100
AcDbSpline
210
0.0
220
0.0
230
1.0
 70
    11
 71
     3
 72
    44
 73
    40
 74
     0
 42
0.0000000001
 43
0.0000000001
 12
1.0
 22
0.0
 32
0.0
 13
1.0
 23
0.0
 33
0.0
 40
0.0
 40
0.0
 40
0.0
 40
0.0
 40
1.0
 40
1.0
 40
1.0
 40
2.0
 40
2.0
 40
2.0
 40
3.0
 40
3.0
 40
3.0
 40
4.0
 40
4.0
 40
4.0
 40
5.0
 40
5.0
 40
5.0
 40
6.0
 40
6.0
 40
6.0
 40
7.0
 40
7.0
 40
7.0
 40
8.0
 40
8.0
 40
8.0
 40
9.0
 40
9.0
 40
9.0
 40
10.0
 40
10.0
 40
10.0
 40
11.0
 40
11.0
 40
11.0
 40
12.0
 40
12.0
 40
12.0
 40
13.0
 40
13.0
 40
13.0
 40
13.0
 10
77.85967473096912
 20
-138.3908636806801
 30
0.0
 10
78.03124048613455
 20
-138.6423556511033
 30
0.0
 10
78.11133895616662
 20
-138.7501871397916
 30
0.0
 10
78.26688501732565
 20
-138.8063421962012
 30
0.0
 10
78.26688501732565
 20
-138.8063421962012
 30
0.0
 10
78.26688501732565
 20
-137.9068277650025
 30
0.0
 10
78.26688501732565
 20
-137.9068277650025
 30
0.0
 10
78.26688501732565
 20
-137.9068277650025
 30
0.0
 10
78.48874916657573
 20
-137.9068277650025
 30
0.0
 10
78.48874916657573
 20
-137.9068277650025
 30
0.0
 10
78.48874916657573
 20
-137.9068277650025
 30
0.0
 10
78.48874916657573
 20
-139.0946966883166
 30
0.0
 10
78.48874916657573
 20
-139.0946966883166
 30
0.0
 10
78.10203719835644
 20
-139.0578341666244
 30
0.0
 10
78.01746010419356
 20
-138.9823865754975
 30
0.0
 10
77.69482691199991
 20
-138.5372802388032
 30
0.0
 10
77.47985295372033
 20
-138.2416910461687
 30
0.0
 10
77.40664467465876
 20
-138.1658989454933
 30
0.0
 10
77.25798880447023
 20
-138.1658989454933
 30
0.0
 10
77.12983125241894
 20
-138.1658989454933
 30
0.0
 10
76.98789331842664
 20
-138.2489257466878
 30
0.0
 10
76.98789331842664
 20
-138.4763020487143
 30
0.0
 10
76.98789331842664
 20
-138.7770588845766
 30
0.0
 10
77.23731823155873
 20
-138.7867051519353
 30
0.0
 10
77.36323647154461
 20
-138.7915282856146
 30
0.0
 10
77.36323647154461
 20
-138.7915282856146
 30
0.0
 10
77.36323647154461
 20
-139.0505994661054
 30
0.0
 10
77.36323647154461
 20
-139.0505994661054
 30
0.0
 10
77.22594941645741
 20
-139.0409531987467
 30
0.0
 10
77.10468205537661
 20
-139.0285508549998
 30
0.0
 10
76.97652450332532
 20
-138.9358777864466
 30
0.0
 10
76.80271943609446
 20
-138.8087537630409
 30
0.0
 10
76.76602916917655
 20
-138.5937798047613
 30
0.0
 10
76.76602916917655
 20
-138.459076571288
 30
0.0
 10
76.76602916917655
 20
-138.1390272007083
 30
0.0
 10
76.96515568822399
 20
-137.8995930644834
 30
0.0
 10
77.26022811653564
 20
-137.8995930644834
 30
0.0
 10
77.50724146282805
 20
-137.8995930644834
 30
0.0
 10
77.61490069674211
 20
-138.0339517884082
 30
0.0
 10
77.85967473096912
 20
-138.3908636806801
 30
0.0
  0
HATCH
  5
14C
330
147
100
AcDbEntity
  8
_U+30EC_U+30A4_U+30E4_U+30FC 1
 62
   179
420
  2234388
100
AcDbHatch
 10
0.0
 20
0.0
 30
0.0
210
0.0
220
0.0
230
1.0
  2
SOLID
 70
     1
 71
     0
 91
        1
 92
        1
 93
        1
 72
     4
 94
        3
 73
     0
 74
     1
 95
       44
 96
       40
 40
0.0
 40
0.0
 40
0.0
 40
0.0
 40
1.0
 40
1.0
 40
1.0
 40
2.0
 40
2.0
 40
2.0
 40
3.0
 40
3.0
 40
3.0
 40
4.0
 40
4.0
 40
4.0
 40
5.0
 40
5.0
 40
5.0
 40
6.0
 40
6.0
 40
6.0
 40
7.0
 40
7.0
 40
7.0
 40
8.0
 40
8.0
 40
8.0
 40
9.0
 40
9.0
 40
9.0
 40
10.0
 40
10.0
 40
10.0
 40
11.0
 40
11.0
 40
11.0
 40
12.0
 40
12.0
 40
12.0
 40
13.0
 40
13.0
 40
13.0
 40
13.0
 10
77.85967473096912
 20
-138.3908636806801
 10
78.03124048613455
 20
-138.6423556511033
 10
78.11133895616662
 20
-138.7501871397916
 10
78.26688501732565
 20
-138.8063421962012
 10
78.26688501732565
 20
-138.8063421962012
 10
78.26688501732565
 20
-137.9068277650025
 10
78.26688501732565
 20
-137.9068277650025
 10
78.26688501732565
 20
-137.9068277650025
 10
78.48874916657573
 20
-137.9068277650025
 10
78.48874916657573
 20
-137.9068277650025
 10
78.48874916657573
 20
-137.9068277650025
 10
78.48874916657573
 20
-139.0946966883166
 10
78.48874916657573
 20
-139.0946966883166
 10
78.10203719835644
 20
-139.0578341666244
 10
78.01746010419356
 20
-138.9823865754975
 10
77.69482691199991
 20
-138.5372802388032
 10
77.47985295372033
 20
-138.2416910461687
 10
77.40664467465876
 20
-138.1658989454933
 10
77.25798880447023
 20
-138.1658989454933
 10
77.12983125241894
 20
-138.1658989454933
 10
76.98789331842664
 20
-138.2489257466878
 10
76.98789331842664
 20
-138.4763020487143
 10
76.98789331842664
 20
-138.7770588845766
 10
77.23731823155873
 20
-138.7867051519353
 10
77.36323647154461
 20
-138.7915282856146
 10
77.36323647154461
 20
-138.7915282856146
 10
77.36323647154461
 20
-139.0505994661054
 10
77.36323647154461
 20
-139.0505994661054
 10
77.22594941645741
 20
-139.0409531987467
 10
77.10468205537661
 20
-139.0285508549998
 10
76.97652450332532
 20
-138.9358777864466
 10
76.80271943609446
 20
-138.8087537630409
 10
76.76602916917655
 20
-138.5937798047613
 10
76.76602916917655
 20
-138.459076571288
 10
76.76602916917655
 20
-138.1390272007083
 10
76.96515568822399
 20
-137.8995930644834
 10
77.26022811653564
 20
-137.8995930644834
 10
77.50724146282805
 20
-137.8995930644834
 10
77.61490069674211
 20
-138.0339517884082
 10
77.85967473096912
 20
-138.3908636806801
 97
        0
 97
        0
 75
     2
 76
     1
 98
        0
  0
SPLINE
  5
14D
330
147
100
AcDbEntity
  8
_U+30EC_U+30A4_U+30E4_U+30FC 1
370
     0
100
AcDbSpline
210
0.0
220
0.0
230
1.0
 70
    11
 71
     3
 72
    53
 73
    49
 74
     0
 42
0.0000000001
 43
0.0000000001
 12
1.0
 22
0.0
 32
0.0
 13
1.0
 23
0.0
 33
0.0
 40
0.0
 40
0.0
 40
0.0
 40
0.0
 40
1.0
 40
1.0
 40
1.0
 40
2.0
 40
2.0
 40
2.0
 40
3.0
 40
3.0
 40
3.0
 40
4.0
 40
4.0
 40
4.0
 40
5.0
 40
5.0
 40
5.0
 40
6.0
 40
6.0
 40
6.0
 40
7.0
 40
7.0
 40
7.0
 40
8.0
 40
8.0
 40
8.0
 40
9.0
 40
9.0
 40
9.0
 40
10.0
 40
10.0
 40
10.0
 40
11.0
 40
11.0
 40
11.0
 40
12.0
 40
12.0
 40
12.0
 40
13.0
 40
13.0
 40
13.0
 40
14.0
 40
14.0
 40
14.0
 40
15.0
 40
15.0
 40
15.0
 40
16.0
 40
16.0
 40
16.0
 40
16.0
 10
78.54369843956547
 20
-137.1619981210914
 30
0.0
 10
78.54369843956547
 20
-137.252259622805
 30
0.0
 10
78.52543943349364
 20
-137.369737378852
 30
0.0
 10
78.45670977856291
 20
-137.4868706253505
 30
0.0
 10
78.33768172954753
 20
-137.6873751825921
 30
0.0
 10
78.1959160503295
 20
-137.7118353605373
 30
0.0
 10
78.07929956815379
 20
-137.7338839716429
 30
0.0
 10
78.07929956815379
 20
-137.7338839716429
 30
0.0
 10
78.07929956815379
 20
-137.4772243579918
 30
0.0
 10
78.07929956815379
 20
-137.4772243579918
 30
0.0
 10
78.29427352643339
 20
-137.4134900915147
 30
0.0
 10
78.3263129144462
 20
-137.2670735333916
 30
0.0
 10
78.3263129144462
 20
-137.1595865542518
 30
0.0
 10
78.3263129144462
 20
-136.9980115759936
 30
0.0
 10
78.21882593530641
 20
-136.8223117062458
 30
0.0
 10
77.96716171010891
 20
-136.8223117062458
 30
0.0
 10
77.69034828786909
 20
-136.8223117062458
 30
0.0
 10
77.61490069674211
 20
-137.0300509640064
 30
0.0
 10
77.61490069674211
 20
-137.1692328216105
 30
0.0
 10
77.61490069674211
 20
-137.2057508337541
 30
0.0
 10
77.61490069674211
 20
-137.369737378852
 30
0.0
 10
77.75442706389472
 20
-137.4724012243124
 30
0.0
 10
77.75442706389472
 20
-137.4724012243124
 30
0.0
 10
77.73375649098323
 20
-137.6749728388452
 30
0.0
 10
77.73375649098323
 20
-137.6749728388452
 30
0.0
 10
77.73375649098323
 20
-137.6749728388452
 30
0.0
 10
76.81873913010088
 20
-137.5357909812411
 30
0.0
 10
76.81873913010088
 20
-137.5357909812411
 30
0.0
 10
76.81873913010088
 20
-137.5357909812411
 30
0.0
 10
76.81873913010088
 20
-136.6366210595909
 30
0.0
 10
76.81873913010088
 20
-136.6366210595909
 30
0.0
 10
76.81873913010088
 20
-136.6366210595909
 30
0.0
 10
77.02923446424964
 20
-136.6366210595909
 30
0.0
 10
77.02923446424964
 20
-136.6366210595909
 30
0.0
 10
77.02923446424964
 20
-136.6366210595909
 30
0.0
 10
77.02923446424964
 20
-137.3476887677464
 30
0.0
 10
77.02923446424964
 20
-137.3476887677464
 30
0.0
 10
77.02923446424964
 20
-137.3476887677464
 30
0.0
 10
77.48674314469082
 20
-137.4234808684219
 30
0.0
 10
77.48674314469082
 20
-137.4234808684219
 30
0.0
 10
77.4500528777729
 20
-137.3525119014258
 30
0.0
 10
77.40664467465876
 20
-137.2570827564844
 30
0.0
 10
77.40664467465876
 20
-137.1203124657199
 30
0.0
 10
77.40664467465876
 20
-136.8271348399252
 30
0.0
 10
77.60801050577162
 20
-136.5532497488478
 30
0.0
 10
77.94649113719741
 20
-136.5532497488478
 30
0.0
 10
78.28979490230256
 20
-136.5532497488478
 30
0.0
 10
78.54369843956547
 20
-136.8123209293386
 30
0.0
 10
78.54369843956547
 20
-137.1619981210914
 30
0.0
  0
HATCH
  5
14E
330
147
100
AcDbEntity
  8
_U+30EC_U+30A4_U+30E4_U+30FC 1
 62
   179
420
  2234388
100
AcDbHatch
 10
0.0
 20
0.0
 30
0.0
210
0.0
220
0.0
230
1.0
  2
SOLID
 70
     1
 71
     0
 91
        1
 92
        1
 93
        1
 72
     4
 94
        3
 73
     0
 74
     1
 95
       53
 96
       49
 40
0.0
 40
0.0
 40
0.0
 40
0.0
 40
1.0
 40
1.0
 40
1.0
 40
2.0
 40
2.0
 40
2.0
 40
3.0
 40
3.0
 40
3.0
 40
4.0
 40
4.0
 40
4.0
 40
5.0
 40
5.0
 40
5.0
 40
6.0
 40
6.0
 40
6.0
 40
7.0
 40
7.0
 40
7.0
 40
8.0
 40
8.0
 40
8.0
 40
9.0
 40
9.0
 40
9.0
 40
10.0
 40
10.0
 40
10.0
 40
11.0
 40
11.0
 40
11.0
 40
12.0
 40
12.0
 40
12.0
 40
13.0
 40
13.0
 40
13.0
 40
14.0
 40
14.0
 40
14.0
 40
15.0
 40
15.0
 40
15.0
 40
16.0
 40
16.0
 40
16.0
 40
16.0
 10
78.54369843956547
 20
-137.1619981210914
 10
78.54369843956547
 20
-137.252259622805
 10
78.52543943349364
 20
-137.369737378852
 10
78.45670977856291
 20
-137.4868706253505
 10
78.33768172954753
 20
-137.6873751825921
 10
78.1959160503295
 20
-137.7118353605373
 10
78.07929956815379
 20
-137.7338839716429
 10
78.07929956815379
 20
-137.7338839716429
 10
78.07929956815379
 20
-137.4772243579918
 10
78.07929956815379
 20
-137.4772243579918
 10
78.29427352643339
 20
-137.4134900915147
 10
78.3263129144462
 20
-137.2670735333916
 10
78.3263129144462
 20
-137.1595865542518
 10
78.3263129144462
 20
-136.9980115759936
 10
78.21882593530641
 20
-136.8223117062458
 10
77.96716171010891
 20
-136.8223117062458
 10
77.69034828786909
 20
-136.8223117062458
 10
77.61490069674211
 20
-137.0300509640064
 10
77.61490069674211
 20
-137.1692328216105
 10
77.61490069674211
 20
-137.2057508337541
 10
77.61490069674211
 20
-137.369737378852
 10
77.75442706389472
 20
-137.4724012243124
 10
77.75442706389472
 20
-137.4724012243124
 10
77.73375649098323
 20
-137.6749728388452
 10
77.73375649098323
 20
-137.6749728388452
 10
77.73375649098323
 20
-137.6749728388452
 10
76.81873913010088
 20
-137.5357909812411
 10
76.81873913010088
 20
-137.5357909812411
 10
76.81873913010088
 20
-137.5357909812411
 10
76.81873913010088
 20
-136.6366210595909
 10
76.81873913010088
 20
-136.6366210595909
 10
76.81873913010088
 20
-136.6366210595909
 10
77.02923446424964
 20
-136.6366210595909
 10
77.02923446424964
 20
-136.6366210595909
 10
77.02923446424964
 20
-136.6366210595909
 10
77.02923446424964
 20
-137.3476887677464
 10
77.02923446424964
 20
-137.3476887677464
 10
77.02923446424964
 20
-137.3476887677464
 10
77.48674314469082
 20
-137.4234808684219
 10
77.48674314469082
 20
-137.4234808684219
 10
77.4500528777729
 20
-137.3525119014258
 10
77.40664467465876
 20
-137.2570827564844
 10
77.40664467465876
 20
-137.1203124657199
 10
77.40664467465876
 20
-136.8271348399252
 10
77.60801050577162
 20
-136.5532497488478
 10
77.94649113719741
 20
-136.5532497488478
 10
78.28979490230256
 20
-136.5532497488478
 10
78.54369843956547
 20
-136.8123209293386
 10
78.54369843956547
 20
-137.1619981210914
 97
        0
 97
        0
 75
     2
 76
     1
 98
        0
  0
ENDBLK
  5
14A
330
147
100
AcDbEntity
  8
0
100
AcDbBlockEnd
  0
BLOCK
  5
159
330
157
100
AcDbEntity
  8
0
100
AcDbBlockBegin
  2
block 9
 70
     0
 10
0.0
 20
0.0
 30
0.0
  3
block 9
  1

  0
SPLINE
  5
15B
330
157
100
AcDbEntity
  8
_U+30EC_U+30A4_U+30E4_U+30FC 1
370
     0
100
AcDbSpline
210
0.0
220
0.0
230
1.0
 70
    11
 71
     3
 72
    62
 73
    58
 74
     0
 42
0.0000000001
 43
0.0000000001
 12
1.0
 22
0.0
 32
0.0
 13
1.0
 23
0.0
 33
0.0
 40
0.0
 40
0.0
 40
0.0
 40
0.0
 40
1.0
 40
1.0
 40
1.0
 40
2.0
 40
2.0
 40
2.0
 40
3.0
 40
3.0
 40
3.0
 40
4.0
 40
4.0
 40
4.0
 40
5.0
 40
5.0
 40
5.0
 40
6.0
 40
6.0
 40
6.0
 40
7.0
 40
7.0
 40
7.0
 40
8.0
 40
8.0
 40
8.0
 40
9.0
 40
9.0
 40
9.0
 40
10.0
 40
10.0
 40
10.0
 40
11.0
 40
11.0
 40
11.0
 40
12.0
 40
12.0
 40
12.0
 40
13.0
 40
13.0
 40
13.0
 40
14.0
 40
14.0
 40
14.0
 40
15.0
 40
15.0
 40
15.0
 40
16.0
 40
16.0
 40
16.0
 40
17.0
 40
17.0
 40
17.0
 40
18.0
 40
18.0
 40
18.0
 40
19.0
 40
19.0
 40
19.0
 40
19.0
 10
78.54369843956547
 20
-130.8278455619111
 30
0.0
 10
78.54369843956547
 20
-130.9308539169201
 30
0.0
 10
78.52078855458856
 20
-131.1664984481112
 30
0.0
 10
78.3194227234757
 20
-131.301546191133
 30
0.0
 10
78.19815536239491
 20
-131.3818169159393
 30
0.0
 10
78.09066838325512
 20
-131.3862955400701
 30
0.0
 10
77.99920109812173
 20
-131.3907741642009
 30
0.0
 10
77.99920109812173
 20
-131.3907741642009
 30
0.0
 10
77.99920109812173
 20
-131.1527180661702
 30
0.0
 10
77.99920109812173
 20
-131.1527180661702
 30
0.0
 10
78.07929956815379
 20
-131.150651008879
 30
0.0
 10
78.3332031054167
 20
-131.1392821937777
 30
0.0
 10
78.3332031054167
 20
-130.8326686955905
 30
0.0
 10
78.3332031054167
 20
-130.6838405706277
 30
0.0
 10
78.25775551428973
 20
-130.5191650064327
 30
0.0
 10
78.01056991322305
 20
-130.5191650064327
 30
0.0
 10
77.88482392801144
 20
-130.5191650064327
 30
0.0
 10
77.83211396708711
 20
-130.5605061522557
 30
0.0
 10
77.79783526700888
 20
-130.5946125975597
 30
0.0
 10
77.71773679697682
 20
-130.674883322366
 30
0.0
 10
77.70412866981009
 20
-130.8006293075776
 30
0.0
 10
77.70412866981009
 20
-130.8598849499239
 30
0.0
 10
77.70412866981009
 20
-130.8805555228354
 30
0.0
 10
77.7063679818755
 20
-130.9194851018187
 30
0.0
 10
77.71084660600631
 20
-130.9491129229919
 30
0.0
 10
77.71084660600631
 20
-130.9491129229919
 30
0.0
 10
77.50052352663182
 20
-130.9491129229919
 30
0.0
 10
77.50052352663182
 20
-130.9491129229919
 30
0.0
 10
77.50724146282805
 20
-130.9081162867174
 30
0.0
 10
77.50965302966773
 20
-130.8622965167636
 30
0.0
 10
77.50965302966773
 20
-130.8554063257931
 30
0.0
 10
77.50965302966773
 20
-130.784437358797
 30
0.0
 10
77.48674314469082
 20
-130.5694634005173
 30
0.0
 10
77.23042804058824
 20
-130.5694634005173
 30
0.0
 10
77.03836396728555
 20
-130.5694634005173
 30
0.0
 10
76.97876381539074
 20
-130.7114013345096
 30
0.0
 10
76.97876381539074
 20
-130.8302571287508
 30
0.0
 10
76.97876381539074
 20
-131.1162000540265
 30
0.0
 10
77.23042804058824
 20
-131.1255018118367
 30
0.0
 10
77.30828719855488
 20
-131.1299804359675
 30
0.0
 10
77.30828719855488
 20
-131.1299804359675
 30
0.0
 10
77.30828719855488
 20
-131.3497775279264
 30
0.0
 10
77.30828719855488
 20
-131.3497775279264
 30
0.0
 10
77.17323945553308
 20
-131.3404757701163
 30
0.0
 10
76.76602916917655
 20
-131.3108479489431
 30
0.0
 10
76.76602916917655
 20
-130.8164767468098
 30
0.0
 10
76.76602916917655
 20
-130.5739420246482
 30
0.0
 10
76.90331622426376
 20
-130.3131482964148
 30
0.0
 10
77.22353784961773
 20
-130.3131482964148
 30
0.0
 10
77.42490368073058
 20
-130.3131482964148
 30
0.0
 10
77.51413165379856
 20
-130.4161566514237
 30
0.0
 10
77.58044974188961
 20
-130.5236436305635
 30
0.0
 10
77.61024981783703
 20
-130.4574977972467
 30
0.0
 10
77.69723847883958
 20
-130.260782845039
 30
0.0
 10
77.99696178605632
 20
-130.260782845039
 30
0.0
 10
78.3630031813641
 20
-130.260782845039
 30
0.0
 10
78.54369843956547
 20
-130.5284667642429
 30
0.0
 10
78.54369843956547
 20
-130.8278455619111
 30
0.0
  0
HATCH
  5
15C
330
157
100
AcDbEntity
  8
_U+30EC_U+30A4_U+30E4_U+30FC 1
 62
   179
420
  2234388
100
AcDbHatch
 10
0.0
 20
0.0
 30
0.0
210
0.0
220
0.0
230
1.0
  2
SOLID
 70
     1
 71
     0
 91
        1
 92
        1
 93
        1
 72
     4
 94
        3
 73
     0
 74
     1
 95
       62
 96
       58
 40
0.0
 40
0.0
 40
0.0
 40
0.0
 40
1.0
 40
1.0
 40
1.0
 40
2.0
 40
2.0
 40
2.0
 40
3.0
 40
3.0
 40
3.0
 40
4.0
 40
4.0
 40
4.0
 40
5.0
 40
5.0
 40
5.0
 40
6.0
 40
6.0
 40
6.0
 40
7.0
 40
7.0
 40
7.0
 40
8.0
 40
8.0
 40
8.0
 40
9.0
 40
9.0
 40
9.0
 40
10.0
 40
10.0
 40
10.0
 40
11.0
 40
11.0
 40
11.0
 40
12.0
 40
12.0
 40
12.0
 40
13.0
 40
13.0
 40
13.0
 40
14.0
 40
14.0
 40
14.0
 40
15.0
 40
15.0
 40
15.0
 40
16.0
 40
16.0
 40
16.0
 40
17.0
 40
17.0
 40
17.0
 40
18.0
 40
18.0
 40
18.0
 40
19.0
 40
19.0
 40
19.0
 40
19.0
 10
78.54369843956547
 20
-130.8278455619111
 10
78.54369843956547
 20
-130.9308539169201
 10
78.52078855458856
 20
-131.1664984481112
 10
78.3194227234757
 20
-131.301546191133
 10
78.19815536239491
 20
-131.3818169159393
 10
78.09066838325512
 20
-131.3862955400701
 10
77.99920109812173
 20
-131.3907741642009
 10
77.99920109812173
 20
-131.3907741642009
 10
77.99920109812173
 20
-131.1527180661702
 10
77.99920109812173
 20
-131.1527180661702
 10
78.07929956815379
 20
-131.150651008879
 10
78.3332031054167
 20
-131.1392821937777
 10
78.3332031054167
 20
-130.8326686955905
 10
78.3332031054167
 20
-130.6838405706277
 10
78.25775551428973
 20
-130.5191650064327
 10
78.01056991322305
 20
-130.5191650064327
 10
77.88482392801144
 20
-130.5191650064327
 10
77.83211396708711
 20
-130.5605061522557
 10
77.79783526700888
 20
-130.5946125975597
 10
77.71773679697682
 20
-130.674883322366
 10
77.70412866981009
 20
-130.8006293075776
 10
77.70412866981009
 20
-130.8598849499239
 10
77.70412866981009
 20
-130.8805555228354
 10
77.7063679818755
 20
-130.9194851018187
 10
77.71084660600631
 20
-130.9491129229919
 10
77.71084660600631
 20
-130.9491129229919
 10
77.50052352663182
 20
-130.9491129229919
 10
77.50052352663182
 20
-130.9491129229919
 10
77.50724146282805
 20
-130.9081162867174
 10
77.50965302966773
 20
-130.8622965167636
 10
77.50965302966773
 20
-130.8554063257931
 10
77.50965302966773
 20
-130.784437358797
 10
77.48674314469082
 20
-130.5694634005173
 10
77.23042804058824
 20
-130.5694634005173
 10
77.03836396728555
 20
-130.5694634005173
 10
76.97876381539074
 20
-130.7114013345096
 10
76.97876381539074
 20
-130.8302571287508
 10
76.97876381539074
 20
-131.1162000540265
 10
77.23042804058824
 20
-131.1255018118367
 10
77.30828719855488
 20
-131.1299804359675
 10
77.30828719855488
 20
-131.1299804359675
 10
77.30828719855488
 20
-131.3497775279264
 10
77.30828719855488
 20
-131.3497775279264
 10
77.17323945553308
 20
-131.3404757701163
 10
76.76602916917655
 20
-131.3108479489431
 10
76.76602916917655
 20
-130.8164767468098
 10
76.76602916917655
 20
-130.5739420246482
 10
76.90331622426376
 20
-130.3131482964148
 10
77.22353784961773
 20
-130.3131482964148
 10
77.42490368073058
 20
-130.3131482964148
 10
77.51413165379856
 20
-130.4161566514237
 10
77.58044974188961
 20
-130.5236436305635
 10
77.61024981783703
 20
-130.4574977972467
 10
77.69723847883958
 20
-130.260782845039
 10
77.99696178605632
 20
-130.260782845039
 10
78.3630031813641
 20
-130.260782845039
 10
78.54369843956547
 20
-130.5284667642429
 10
78.54369843956547
 20
-130.8278455619111
 97
        0
 97
        0
 75
     2
 76
     1
 98
        0
  0
ENDBLK
  5
15A
330
157
100
AcDbEntity
  8
0
100
AcDbBlockEnd
  0
BLOCK
  5
16B
330
169
100
AcDbEntity
  8
0
100
AcDbBlockBegin
  2
block 10
 70
     0
 10
0.0
 20
0.0
 30
0.0
  3
block 10
  1

  0
SPLINE
  5
16D
330
169
100
AcDbEntity
  8
_U+30EC_U+30A4_U+30E4_U+30FC 1
370
     0
100
AcDbSpline
210
0.0
220
0.0
230
1.0
 70
    11
 71
     3
 72
    62
 73
    58
 74
     0
 42
0.0000000001
 43
0.0000000001
 12
1.0
 22
0.0
 32
0.0
 13
1.0
 23
0.0
 33
0.0
 40
0.0
 40
0.0
 40
0.0
 40
0.0
 40
1.0
 40
1.0
 40
1.0
 40
2.0
 40
2.0
 40
2.0
 40
3.0
 40
3.0
 40
3.0
 40
4.0
 40
4.0
 40
4.0
 40
5.0
 40
5.0
 40
5.0
 40
6.0
 40
6.0
 40
6.0
 40
7.0
 40
7.0
 40
7.0
 40
8.0
 40
8.0
 40
8.0
 40
9.0
 40
9.0
 40
9.0
 40
10.0
 40
10.0
 40
10.0
 40
11.0
 40
11.0
 40
11.0
 40
12.0
 40
12.0
 40
12.0
 40
13.0
 40
13.0
 40
13.0
 40
14.0
 40
14.0
 40
14.0
 40
15.0
 40
15.0
 40
15.0
 40
16.0
 40
16.0
 40
16.0
 40
17.0
 40
17.0
 40
17.0
 40
18.0
 40
18.0
 40
18.0
 40
19.0
 40
19.0
 40
19.0
 40
19.0
 10
78.54369843956547
 20
-123.2579372521716
 30
0.0
 10
78.54369843956547
 20
-123.3681803076996
 30
0.0
 10
78.52078855458856
 20
-123.6196722781229
 30
0.0
 10
78.3194227234757
 20
-123.7640217789548
 30
0.0
 10
78.19815536239491
 20
-123.849460146989
 30
0.0
 10
78.09066838325512
 20
-123.8542832806684
 30
0.0
 10
77.99920109812173
 20
-123.8591064143477
 30
0.0
 10
77.99920109812173
 20
-123.8591064143477
 30
0.0
 10
77.99920109812173
 20
-123.6052028770848
 30
0.0
 10
77.99920109812173
 20
-123.6052028770848
 30
0.0
 10
78.07929956815379
 20
-123.6027913102451
 30
0.0
 10
78.3332031054167
 20
-123.5903889664982
 30
0.0
 10
78.3332031054167
 20
-123.2631048953995
 30
0.0
 10
78.3332031054167
 20
-123.103941483981
 30
0.0
 10
78.25775551428973
 20
-122.9282416142332
 30
0.0
 10
78.01056991322305
 20
-122.9282416142332
 30
0.0
 10
77.88482392801144
 20
-122.9282416142332
 30
0.0
 10
77.83211396708711
 20
-122.9719943268959
 30
0.0
 10
77.79783526700888
 20
-123.0088568485881
 30
0.0
 10
77.71773679697682
 20
-123.0942952166223
 30
0.0
 10
77.70412866981009
 20
-123.228653940547
 30
0.0
 10
77.70412866981009
 20
-123.2923882070241
 30
0.0
 10
77.70412866981009
 20
-123.3140923085812
 30
0.0
 10
77.7063679818755
 20
-123.3557779639527
 30
0.0
 10
77.71084660600631
 20
-123.387472842417
 30
0.0
 10
77.71084660600631
 20
-123.387472842417
 30
0.0
 10
77.50052352663182
 20
-123.387472842417
 30
0.0
 10
77.50052352663182
 20
-123.387472842417
 30
0.0
 10
77.50724146282805
 20
-123.3437201297544
 30
0.0
 10
77.50965302966773
 20
-123.2947997738638
 30
0.0
 10
77.50965302966773
 20
-123.2872205637963
 30
0.0
 10
77.50965302966773
 20
-123.2117729726693
 30
0.0
 10
77.48674314469082
 20
-122.9819851038031
 30
0.0
 10
77.23042804058824
 20
-122.9819851038031
 30
0.0
 10
77.03836396728555
 20
-122.9819851038031
 30
0.0
 10
76.97876381539074
 20
-123.1335693051541
 30
0.0
 10
76.97876381539074
 20
-123.2603488190113
 30
0.0
 10
76.97876381539074
 20
-123.565928788553
 30
0.0
 10
77.23042804058824
 20
-123.5759195654602
 30
0.0
 10
77.30828719855488
 20
-123.5807426991395
 30
0.0
 10
77.30828719855488
 20
-123.5807426991395
 30
0.0
 10
77.30828719855488
 20
-123.8153537016851
 30
0.0
 10
77.30828719855488
 20
-123.8153537016851
 30
0.0
 10
77.17323945553308
 20
-123.8053629247778
 30
0.0
 10
76.76602916917655
 20
-123.7736680463135
 30
0.0
 10
76.76602916917655
 20
-123.2458794179733
 30
0.0
 10
76.76602916917655
 20
-122.9868082374825
 30
0.0
 10
76.90331622426376
 20
-122.7081000127258
 30
0.0
 10
77.22353784961773
 20
-122.7081000127258
 30
0.0
 10
77.42490368073058
 20
-122.7081000127258
 30
0.0
 10
77.51413165379856
 20
-122.8179985587052
 30
0.0
 10
77.58044974188961
 20
-122.9330647479126
 30
0.0
 10
77.61024981783703
 20
-122.8620957809164
 30
0.0
 10
77.69723847883958
 20
-122.6519449563162
 30
0.0
 10
77.99696178605632
 20
-122.6519449563162
 30
0.0
 10
78.3630031813641
 20
-122.6519449563162
 30
0.0
 10
78.54369843956547
 20
-122.9378878815919
 30
0.0
 10
78.54369843956547
 20
-123.2579372521716
 30
0.0
  0
HATCH
  5
16E
330
169
100
AcDbEntity
  8
_U+30EC_U+30A4_U+30E4_U+30FC 1
 62
   179
420
  2234388
100
AcDbHatch
 10
0.0
 20
0.0
 30
0.0
210
0.0
220
0.0
230
1.0
  2
SOLID
 70
     1
 71
     0
 91
        1
 92
        1
 93
        1
 72
     4
 94
        3
 73
     0
 74
     1
 95
       62
 96
       58
 40
0.0
 40
0.0
 40
0.0
 40
0.0
 40
1.0
 40
1.0
 40
1.0
 40
2.0
 40
2.0
 40
2.0
 40
3.0
 40
3.0
 40
3.0
 40
4.0
 40
4.0
 40
4.0
 40
5.0
 40
5.0
 40
5.0
 40
6.0
 40
6.0
 40
6.0
 40
7.0
 40
7.0
 40
7.0
 40
8.0
 40
8.0
 40
8.0
 40
9.0
 40
9.0
 40
9.0
 40
10.0
 40
10.0
 40
10.0
 40
11.0
 40
11.0
 40
11.0
 40
12.0
 40
12.0
 40
12.0
 40
13.0
 40
13.0
 40
13.0
 40
14.0
 40
14.0
 40
14.0
 40
15.0
 40
15.0
 40
15.0
 40
16.0
 40
16.0
 40
16.0
 40
17.0
 40
17.0
 40
17.0
 40
18.0
 40
18.0
 40
18.0
 40
19.0
 40
19.0
 40
19.0
 40
19.0
 10
78.54369843956547
 20
-123.2579372521716
 10
78.54369843956547
 20
-123.3681803076996
 10
78.52078855458856
 20
-123.6196722781229
 10
78.3194227234757
 20
-123.7640217789548
 10
78.19815536239491
 20
-123.849460146989
 10
78.09066838325512
 20
-123.8542832806684
 10
77.99920109812173
 20
-123.8591064143477
 10
77.99920109812173
 20
-123.8591064143477
 10
77.99920109812173
 20
-123.6052028770848
 10
77.99920109812173
 20
-123.6052028770848
 10
78.07929956815379
 20
-123.6027913102451
 10
78.3332031054167
 20
-123.5903889664982
 10
78.3332031054167
 20
-123.2631048953995
 10
78.3332031054167
 20
-123.103941483981
 10
78.25775551428973
 20
-122.9282416142332
 10
78.01056991322305
 20
-122.9282416142332
 10
77.88482392801144
 20
-122.9282416142332
 10
77.83211396708711
 20
-122.9719943268959
 10
77.79783526700888
 20
-123.0088568485881
 10
77.71773679697682
 20
-123.0942952166223
 10
77.70412866981009
 20
-123.228653940547
 10
77.70412866981009
 20
-123.2923882070241
 10
77.70412866981009
 20
-123.3140923085812
 10
77.7063679818755
 20
-123.3557779639527
 10
77.71084660600631
 20
-123.387472842417
 10
77.71084660600631
 20
-123.387472842417
 10
77.50052352663182
 20
-123.387472842417
 10
77.50052352663182
 20
-123.387472842417
 10
77.50724146282805
 20
-123.3437201297544
 10
77.50965302966773
 20
-123.2947997738638
 10
77.50965302966773
 20
-123.2872205637963
 10
77.50965302966773
 20
-123.2117729726693
 10
77.48674314469082
 20
-122.9819851038031
 10
77.23042804058824
 20
-122.9819851038031
 10
77.03836396728555
 20
-122.9819851038031
 10
76.97876381539074
 20
-123.1335693051541
 10
76.97876381539074
 20
-123.2603488190113
 10
76.97876381539074
 20
-123.565928788553
 10
77.23042804058824
 20
-123.5759195654602
 10
77.30828719855488
 20
-123.5807426991395
 10
77.30828719855488
 20
-123.5807426991395
 10
77.30828719855488
 20
-123.8153537016851
 10
77.30828719855488
 20
-123.8153537016851
 10
77.17323945553308
 20
-123.8053629247778
 10
76.76602916917655
 20
-123.7736680463135
 10
76.76602916917655
 20
-123.2458794179733
 10
76.76602916917655
 20
-122.9868082374825
 10
76.90331622426376
 20
-122.7081000127258
 10
77.22353784961773
 20
-122.7081000127258
 10
77.42490368073058
 20
-122.7081000127258
 10
77.51413165379856
 20
-122.8179985587052
 10
77.58044974188961
 20
-122.9330647479126
 10
77.61024981783703
 20
-122.8620957809164
 10
77.69723847883958
 20
-122.6519449563162
 10
77.99696178605632
 20
-122.6519449563162
 10
78.3630031813641
 20
-122.6519449563162
 10
78.54369843956547
 20
-122.9378878815919
 10
78.54369843956547
 20
-123.2579372521716
 97
        0
 97
        0
 75
     2
 76
     1
 98
        0
  0
SPLINE
  5
16F
330
169
100
AcDbEntity
  8
_U+30EC_U+30A4_U+30E4_U+30FC 1
370
     0
100
AcDbSpline
210
0.0
220
0.0
230
1.0
 70
    11
 71
     3
 72
    29
 73
    25
 74
     0
 42
0.0000000001
 43
0.0000000001
 12
1.0
 22
0.0
 32
0.0
 13
1.0
 23
0.0
 33
0.0
 40
0.0
 40
0.0
 40
0.0
 40
0.0
 40
1.0
 40
1.0
 40
1.0
 40
2.0
 40
2.0
 40
2.0
 40
3.0
 40
3.0
 40
3.0
 40
4.0
 40
4.0
 40
4.0
 40
5.0
 40
5.0
 40
5.0
 40
6.0
 40
6.0
 40
6.0
 40
7.0
 40
7.0
 40
7.0
 40
8.0
 40
8.0
 40
8.0
 40
8.0
 10
78.29651283849878
 20
-121.4303140972466
 30
0.0
 10
78.52302786665396
 20
-121.5550265538126
 30
0.0
 10
78.54369843956547
 20
-121.7555311110542
 30
0.0
 10
78.54369843956547
 20
-121.8898898349789
 30
0.0
 10
78.54369843956547
 20
-122.0755804816339
 30
0.0
 10
78.49340004548083
 20
-122.2392225171833
 30
0.0
 10
78.29651283849878
 20
-122.3494655727113
 30
0.0
 10
78.0861897591243
 20
-122.4690103860494
 30
0.0
 10
77.8298746550217
 20
-122.491058997155
 30
0.0
 10
77.65365802095117
 20
-122.491058997155
 30
0.0
 10
77.49811195979214
 20
-122.491058997155
 30
0.0
 10
77.22594941645741
 20
-122.4714219528891
 30
0.0
 10
77.01080320340355
 20
-122.3494655727113
 30
0.0
 10
76.79117836621887
 20
-122.2247531161452
 30
0.0
 10
76.76602916917655
 20
-122.0390624694902
 30
0.0
 10
76.76602916917655
 20
-121.8898898349789
 30
0.0
 10
76.76602916917655
 20
-121.7066107551636
 30
0.0
 10
76.81408825119578
 20
-121.5405571527746
 30
0.0
 10
77.01080320340355
 20
-121.4303140972466
 30
0.0
 10
77.2190592254869
 20
-121.3155924175878
 30
0.0
 10
77.46607257177932
 20
-121.2887206728028
 30
0.0
 10
77.65365802095117
 20
-121.2887206728028
 30
0.0
 10
77.83900415805762
 20
-121.2887206728028
 30
0.0
 10
78.08842907118971
 20
-121.3131808507481
 30
0.0
 10
78.29651283849878
 20
-121.4303140972466
 30
0.0
  0
SPLINE
  5
170
330
169
100
AcDbEntity
  8
_U+30EC_U+30A4_U+30E4_U+30FC 1
370
     0
100
AcDbSpline
210
0.0
220
0.0
230
1.0
 70
    11
 71
     3
 72
    17
 73
    13
 74
     0
 42
0.0000000001
 43
0.0000000001
 12
1.0
 22
0.0
 32
0.0
 13
1.0
 23
0.0
 33
0.0
 40
0.0
 40
0.0
 40
0.0
 40
0.0
 40
1.0
 40
1.0
 40
1.0
 40
2.0
 40
2.0
 40
2.0
 40
3.0
 40
3.0
 40
3.0
 40
4.0
 40
4.0
 40
4.0
 40
4.0
 10
76.97428519125991
 20
-121.8898898349789
 30
0.0
 10
76.97428519125991
 20
-122.1782443270943
 30
0.0
 10
77.28072643467287
 20
-122.2319878166642
 30
0.0
 10
77.65365802095117
 20
-122.2319878166642
 30
0.0
 10
77.99920109812173
 20
-122.2319878166642
 30
0.0
 10
78.3332031054167
 20
-122.1903021612927
 30
0.0
 10
78.3332031054167
 20
-121.8898898349789
 30
0.0
 10
78.3332031054167
 20
-121.6039469097032
 30
0.0
 10
78.02882891929488
 20
-121.5477918532936
 30
0.0
 10
77.65365802095117
 20
-121.5477918532936
 30
0.0
 10
77.30828719855488
 20
-121.5477918532936
 30
0.0
 10
76.97428519125991
 20
-121.5915445659563
 30
0.0
 10
76.97428519125991
 20
-121.8898898349789
 30
0.0
  0
HATCH
  5
171
330
169
100
AcDbEntity
  8
_U+30EC_U+30A4_U+30E4_U+30FC 1
 62
   179
420
  2234388
100
AcDbHatch
 10
0.0
 20
0.0
 30
0.0
210
0.0
220
0.0
230
1.0
  2
SOLID
 70
     1
 71
     0
 91
        2
 92
        1
 93
        1
 72
     4
 94
        3
 73
     0
 74
     1
 95
       29
 96
       25
 40
0.0
 40
0.0
 40
0.0
 40
0.0
 40
1.0
 40
1.0
 40
1.0
 40
2.0
 40
2.0
 40
2.0
 40
3.0
 40
3.0
 40
3.0
 40
4.0
 40
4.0
 40
4.0
 40
5.0
 40
5.0
 40
5.0
 40
6.0
 40
6.0
 40
6.0
 40
7.0
 40
7.0
 40
7.0
 40
8.0
 40
8.0
 40
8.0
 40
8.0
 10
78.29651283849878
 20
-121.4303140972466
 10
78.52302786665396
 20
-121.5550265538126
 10
78.54369843956547
 20
-121.7555311110542
 10
78.54369843956547
 20
-121.8898898349789
 10
78.54369843956547
 20
-122.0755804816339
 10
78.49340004548083
 20
-122.2392225171833
 10
78.29651283849878
 20
-122.3494655727113
 10
78.0861897591243
 20
-122.4690103860494
 10
77.8298746550217
 20
-122.491058997155
 10
77.65365802095117
 20
-122.491058997155
 10
77.49811195979214
 20
-122.491058997155
 10
77.22594941645741
 20
-122.4714219528891
 10
77.01080320340355
 20
-122.3494655727113
 10
76.79117836621887
 20
-122.2247531161452
 10
76.76602916917655
 20
-122.0390624694902
 10
76.76602916917655
 20
-121.8898898349789
 10
76.76602916917655
 20
-121.7066107551636
 10
76.81408825119578
 20
-121.5405571527746
 10
77.01080320340355
 20
-121.4303140972466
 10
77.2190592254869
 20
-121.3155924175878
 10
77.46607257177932
 20
-121.2887206728028
 10
77.65365802095117
 20
-121.2887206728028
 10
77.83900415805762
 20
-121.2887206728028
 10
78.08842907118971
 20
-121.3131808507481
 10
78.29651283849878
 20
-121.4303140972466
 97
        0
 97
        0
 92
        1
 93
        1
 72
     4
 94
        3
 73
     0
 74
     1
 95
       17
 96
       13
 40
0.0
 40
0.0
 40
0.0
 40
0.0
 40
1.0
 40
1.0
 40
1.0
 40
2.0
 40
2.0
 40
2.0
 40
3.0
 40
3.0
 40
3.0
 40
4.0
 40
4.0
 40
4.0
 40
4.0
 10
76.97428519125991
 20
-121.8898898349789
 10
76.97428519125991
 20
-122.1782443270943
 10
77.28072643467287
 20
-122.2319878166642
 10
77.65365802095117
 20
-122.2319878166642
 10
77.99920109812173
 20
-122.2319878166642
 10
78.3332031054167
 20
-122.1903021612927
 10
78.3332031054167
 20
-121.8898898349789
 10
78.3332031054167
 20
-121.6039469097032
 10
78.02882891929488
 20
-121.5477918532936
 10
77.65365802095117
 20
-121.5477918532936
 10
77.30828719855488
 20
-121.5477918532936
 10
76.97428519125991
 20
-121.5915445659563
 10
76.97428519125991
 20
-121.8898898349789
 97
        0
 97
        0
 75
     2
 76
     1
 98
        0
  0
ENDBLK
  5
16C
330
169
100
AcDbEntity
  8
0
100
AcDbBlockEnd
  0
BLOCK
  5
180
330
17E
100
AcDbEntity
  8
0
100
AcDbBlockBegin
  2
block 11
 70
     0
 10
0.0
 20
0.0
 30
0.0
  3
block 11
  1

  0
SPLINE
  5
182
330
17E
100
AcDbEntity
  8
_U+30EC_U+30A4_U+30E4_U+30FC 1
370
     0
100
AcDbSpline
210
0.0
220
0.0
230
1.0
 70
    11
 71
     3
 72
    53
 73
    49
 74
     0
 42
0.0000000001
 43
0.0000000001
 12
1.0
 22
0.0
 32
0.0
 13
1.0
 23
0.0
 33
0.0
 40
0.0
 40
0.0
 40
0.0
 40
0.0
 40
1.0
 40
1.0
 40
1.0
 40
2.0
 40
2.0
 40
2.0
 40
3.0
 40
3.0
 40
3.0
 40
4.0
 40
4.0
 40
4.0
 40
5.0
 40
5.0
 40
5.0
 40
6.0
 40
6.0
 40
6.0
 40
7.0
 40
7.0
 40
7.0
 40
8.0
 40
8.0
 40
8.0
 40
9.0
 40
9.0
 40
9.0
 40
10.0
 40
10.0
 40
10.0
 40
11.0
 40
11.0
 40
11.0
 40
12.0
 40
12.0
 40
12.0
 40
13.0
 40
13.0
 40
13.0
 40
14.0
 40
14.0
 40
14.0
 40
15.0
 40
15.0
 40
15.0
 40
16.0
 40
16.0
 40
16.0
 40
16.0
 10
76.07322046709281
 20
-130.2704291123977
 30
0.0
 10
76.07322046709281
 20
-130.3606906141112
 30
0.0
 10
76.05478920624672
 20
-130.4781683701582
 30
0.0
 10
75.98623180609025
 20
-130.5953016166567
 30
0.0
 10
75.86720375707488
 20
-130.7958061738983
 30
0.0
 10
75.72543807785684
 20
-130.8202663518435
 30
0.0
 10
75.60882159568114
 20
-130.8423149629492
 30
0.0
 10
75.60882159568114
 20
-130.8423149629492
 30
0.0
 10
75.60882159568114
 20
-130.585655349298
 30
0.0
 10
75.60882159568114
 20
-130.585655349298
 30
0.0
 10
75.82379555396072
 20
-130.5219210828209
 30
0.0
 10
75.85583494197354
 20
-130.3755045246978
 30
0.0
 10
75.85583494197354
 20
-130.268017545558
 30
0.0
 10
75.85583494197354
 20
-130.1064425672998
 30
0.0
 10
75.74834796283375
 20
-129.930742697552
 30
0.0
 10
75.49668373763625
 20
-129.930742697552
 30
0.0
 10
75.21987031539642
 20
-129.930742697552
 30
0.0
 10
75.14442272426945
 20
-130.1384819553126
 30
0.0
 10
75.14442272426945
 20
-130.2776638129167
 30
0.0
 10
75.14442272426945
 20
-130.3141818250604
 30
0.0
 10
75.14442272426945
 20
-130.4781683701582
 30
0.0
 10
75.28394909142207
 20
-130.5808322156187
 30
0.0
 10
75.28394909142207
 20
-130.5808322156187
 30
0.0
 10
75.26327851851057
 20
-130.7834038301514
 30
0.0
 10
75.26327851851057
 20
-130.7834038301514
 30
0.0
 10
75.26327851851057
 20
-130.7834038301514
 30
0.0
 10
74.34826115762822
 20
-130.6442219725473
 30
0.0
 10
74.34826115762822
 20
-130.6442219725473
 30
0.0
 10
74.34826115762822
 20
-130.6442219725473
 30
0.0
 10
74.34826115762822
 20
-129.7450520508971
 30
0.0
 10
74.34826115762822
 20
-129.7450520508971
 30
0.0
 10
74.34826115762822
 20
-129.7450520508971
 30
0.0
 10
74.55875649177698
 20
-129.7450520508971
 30
0.0
 10
74.55875649177698
 20
-129.7450520508971
 30
0.0
 10
74.55875649177698
 20
-129.7450520508971
 30
0.0
 10
74.55875649177698
 20
-130.4561197590527
 30
0.0
 10
74.55875649177698
 20
-130.4561197590527
 30
0.0
 10
74.55875649177698
 20
-130.4561197590527
 30
0.0
 10
75.01626517221816
 20
-130.5319118597281
 30
0.0
 10
75.01626517221816
 20
-130.5319118597281
 30
0.0
 10
74.97957490530025
 20
-130.460942892732
 30
0.0
 10
74.9361667021861
 20
-130.3655137477906
 30
0.0
 10
74.9361667021861
 20
-130.2287434570262
 30
0.0
 10
74.9361667021861
 20
-129.9355658312314
 30
0.0
 10
75.13753253329895
 20
-129.661680740154
 30
0.0
 10
75.47601316472475
 20
-129.661680740154
 30
0.0
 10
75.8193169298299
 20
-129.661680740154
 30
0.0
 10
76.07322046709281
 20
-129.9207519206448
 30
0.0
 10
76.07322046709281
 20
-130.2704291123977
 30
0.0
  0
HATCH
  5
183
330
17E
100
AcDbEntity
  8
_U+30EC_U+30A4_U+30E4_U+30FC 1
 62
   179
420
  2234388
100
AcDbHatch
 10
0.0
 20
0.0
 30
0.0
210
0.0
220
0.0
230
1.0
  2
SOLID
 70
     1
 71
     0
 91
        1
 92
        1
 93
        1
 72
     4
 94
        3
 73
     0
 74
     1
 95
       53
 96
       49
 40
0.0
 40
0.0
 40
0.0
 40
0.0
 40
1.0
 40
1.0
 40
1.0
 40
2.0
 40
2.0
 40
2.0
 40
3.0
 40
3.0
 40
3.0
 40
4.0
 40
4.0
 40
4.0
 40
5.0
 40
5.0
 40
5.0
 40
6.0
 40
6.0
 40
6.0
 40
7.0
 40
7.0
 40
7.0
 40
8.0
 40
8.0
 40
8.0
 40
9.0
 40
9.0
 40
9.0
 40
10.0
 40
10.0
 40
10.0
 40
11.0
 40
11.0
 40
11.0
 40
12.0
 40
12.0
 40
12.0
 40
13.0
 40
13.0
 40
13.0
 40
14.0
 40
14.0
 40
14.0
 40
15.0
 40
15.0
 40
15.0
 40
16.0
 40
16.0
 40
16.0
 40
16.0
 10
76.07322046709281
 20
-130.2704291123977
 10
76.07322046709281
 20
-130.3606906141112
 10
76.05478920624672
 20
-130.4781683701582
 10
75.98623180609025
 20
-130.5953016166567
 10
75.86720375707488
 20
-130.7958061738983
 10
75.72543807785684
 20
-130.8202663518435
 10
75.60882159568114
 20
-130.8423149629492
 10
75.60882159568114
 20
-130.8423149629492
 10
75.60882159568114
 20
-130.585655349298
 10
75.60882159568114
 20
-130.585655349298
 10
75.82379555396072
 20
-130.5219210828209
 10
75.85583494197354
 20
-130.3755045246978
 10
75.85583494197354
 20
-130.268017545558
 10
75.85583494197354
 20
-130.1064425672998
 10
75.74834796283375
 20
-129.930742697552
 10
75.49668373763625
 20
-129.930742697552
 10
75.21987031539642
 20
-129.930742697552
 10
75.14442272426945
 20
-130.1384819553126
 10
75.14442272426945
 20
-130.2776638129167
 10
75.14442272426945
 20
-130.3141818250604
 10
75.14442272426945
 20
-130.4781683701582
 10
75.28394909142207
 20
-130.5808322156187
 10
75.28394909142207
 20
-130.5808322156187
 10
75.26327851851057
 20
-130.7834038301514
 10
75.26327851851057
 20
-130.7834038301514
 10
75.26327851851057
 20
-130.7834038301514
 10
74.34826115762822
 20
-130.6442219725473
 10
74.34826115762822
 20
-130.6442219725473
 10
74.34826115762822
 20
-130.6442219725473
 10
74.34826115762822
 20
-129.7450520508971
 10
74.34826115762822
 20
-129.7450520508971
 10
74.34826115762822
 20
-129.7450520508971
 10
74.55875649177698
 20
-129.7450520508971
 10
74.55875649177698
 20
-129.7450520508971
 10
74.55875649177698
 20
-129.7450520508971
 10
74.55875649177698
 20
-130.4561197590527
 10
74.55875649177698
 20
-130.4561197590527
 10
74.55875649177698
 20
-130.4561197590527
 10
75.01626517221816
 20
-130.5319118597281
 10
75.01626517221816
 20
-130.5319118597281
 10
74.97957490530025
 20
-130.460942892732
 10
74.9361667021861
 20
-130.3655137477906
 10
74.9361667021861
 20
-130.2287434570262
 10
74.9361667021861
 20
-129.9355658312314
 10
75.13753253329895
 20
-129.661680740154
 10
75.47601316472475
 20
-129.661680740154
 10
75.8193169298299
 20
-129.661680740154
 10
76.07322046709281
 20
-129.9207519206448
 10
76.07322046709281
 20
-130.2704291123977
 97
        0
 97
        0
 75
     2
 76
     1
 98
        0
  0
SPLINE
  5
184
330
17E
100
AcDbEntity
  8
_U+30EC_U+30A4_U+30E4_U+30FC 1
370
     0
100
AcDbSpline
210
0.0
220
0.0
230
1.0
 70
    11
 71
     3
 72
    29
 73
    25
 74
     0
 42
0.0000000001
 43
0.0000000001
 12
1.0
 22
0.0
 32
0.0
 13
1.0
 23
0.0
 33
0.0
 40
0.0
 40
0.0
 40
0.0
 40
0.0
 40
1.0
 40
1.0
 40
1.0
 40
2.0
 40
2.0
 40
2.0
 40
3.0
 40
3.0
 40
3.0
 40
4.0
 40
4.0
 40
4.0
 40
5.0
 40
5.0
 40
5.0
 40
6.0
 40
6.0
 40
6.0
 40
7.0
 40
7.0
 40
7.0
 40
8.0
 40
8.0
 40
8.0
 40
8.0
 10
76.07322046709281
 20
-128.8899793514581
 30
0.0
 10
76.07322046709281
 20
-129.1979708878394
 30
0.0
 10
75.92439234213002
 20
-129.4911485136342
 30
0.0
 10
75.5469821317209
 20
-129.4911485136342
 30
0.0
 10
75.27016870948107
 20
-129.4911485136342
 30
0.0
 10
75.1671603544721
 20
-129.3275064780848
 30
0.0
 10
75.10084226638104
 20
-129.2052055883584
 30
0.0
 10
75.0367634903554
 20
-129.3495550891904
 30
0.0
 10
74.91325681720919
 20
-129.4374050240643
 30
0.0
 10
74.73945174997833
 20
-129.4374050240643
 30
0.0
 10
74.441967754827
 20
-129.4374050240643
 30
0.0
 10
74.2955511967039
 20
-129.2076171551981
 30
0.0
 10
74.2955511967039
 20
-128.8899793514581
 30
0.0
 10
74.2955511967039
 20
-128.5623507708108
 30
0.0
 10
74.45109725786293
 20
-128.3425536788519
 30
0.0
 10
74.73945174997833
 20
-128.3425536788519
 30
0.0
 10
74.91325681720919
 20
-128.3425536788519
 30
0.0
 10
75.0367634903554
 20
-128.4328151805654
 30
0.0
 10
75.10084226638104
 20
-128.5771646813974
 30
0.0
 10
75.15579153937078
 20
-128.4745008359369
 30
0.0
 10
75.25879989437975
 20
-128.2912217561216
 30
0.0
 10
75.54250350759007
 20
-128.2912217561216
 30
0.0
 10
75.94730222710693
 20
-128.2912217561216
 30
0.0
 10
76.07322046709281
 20
-128.613682693541
 30
0.0
 10
76.07322046709281
 20
-128.8899793514581
 30
0.0
  0
SPLINE
  5
185
330
17E
100
AcDbEntity
  8
_U+30EC_U+30A4_U+30E4_U+30FC 1
370
     0
100
AcDbSpline
210
0.0
220
0.0
230
1.0
 70
    11
 71
     3
 72
    17
 73
    13
 74
     0
 42
0.0000000001
 43
0.0000000001
 12
1.0
 22
0.0
 32
0.0
 13
1.0
 23
0.0
 33
0.0
 40
0.0
 40
0.0
 40
0.0
 40
0.0
 40
1.0
 40
1.0
 40
1.0
 40
2.0
 40
2.0
 40
2.0
 40
3.0
 40
3.0
 40
3.0
 40
4.0
 40
4.0
 40
4.0
 40
4.0
 10
74.50380721878724
 20
-128.8899793514581
 30
0.0
 10
74.50380721878724
 20
-129.0804931317924
 30
0.0
 10
74.60664331902196
 20
-129.1783338435735
 30
0.0
 10
74.75305987714508
 20
-129.1783338435735
 30
0.0
 10
74.88586830810145
 20
-129.1783338435735
 30
0.0
 10
75.01402586015274
 20
-129.0953070423789
 30
0.0
 10
75.01402586015274
 20
-128.8899793514581
 30
0.0
 10
75.01402586015274
 20
-128.6846516605372
 30
0.0
 10
74.88586830810145
 20
-128.6016248593426
 30
0.0
 10
74.75305987714508
 20
-128.6016248593426
 30
0.0
 10
74.60664331902196
 20
-128.6016248593426
 30
0.0
 10
74.50380721878724
 20
-128.7018771379634
 30
0.0
 10
74.50380721878724
 20
-128.8899793514581
 30
0.0
  0
SPLINE
  5
186
330
17E
100
AcDbEntity
  8
_U+30EC_U+30A4_U+30E4_U+30FC 1
370
     0
100
AcDbSpline
210
0.0
220
0.0
230
1.0
 70
    11
 71
     3
 72
    17
 73
    13
 74
     0
 42
0.0000000001
 43
0.0000000001
 12
1.0
 22
0.0
 32
0.0
 13
1.0
 23
0.0
 33
0.0
 40
0.0
 40
0.0
 40
0.0
 40
0.0
 40
1.0
 40
1.0
 40
1.0
 40
2.0
 40
2.0
 40
2.0
 40
3.0
 40
3.0
 40
3.0
 40
4.0
 40
4.0
 40
4.0
 40
4.0
 10
75.21763100333101
 20
-128.8899793514581
 30
0.0
 10
75.21763100333101
 20
-129.0560329538471
 30
0.0
 10
75.31133760052981
 20
-129.2320773331434
 30
0.0
 10
75.53096243771448
 20
-129.2320773331434
 30
0.0
 10
75.75282658696457
 20
-129.2320773331434
 30
0.0
 10
75.86272513294405
 20
-129.0853162654717
 30
0.0
 10
75.86272513294405
 20
-128.8899793514581
 30
0.0
 10
75.86272513294405
 20
-128.6750053931785
 30
0.0
 10
75.73008895676193
 20
-128.5478813697728
 30
0.0
 10
75.53785262868499
 20
-128.5478813697728
 30
0.0
 10
75.2975572185888
 20
-128.5478813697728
 30
0.0
 10
75.21763100333101
 20
-128.7359835832674
 30
0.0
 10
75.21763100333101
 20
-128.8899793514581
 30
0.0
  0
HATCH
  5
187
330
17E
100
AcDbEntity
  8
_U+30EC_U+30A4_U+30E4_U+30FC 1
 62
   179
420
  2234388
100
AcDbHatch
 10
0.0
 20
0.0
 30
0.0
210
0.0
220
0.0
230
1.0
  2
SOLID
 70
     1
 71
     0
 91
        3
 92
        1
 93
        1
 72
     4
 94
        3
 73
     0
 74
     1
 95
       29
 96
       25
 40
0.0
 40
0.0
 40
0.0
 40
0.0
 40
1.0
 40
1.0
 40
1.0
 40
2.0
 40
2.0
 40
2.0
 40
3.0
 40
3.0
 40
3.0
 40
4.0
 40
4.0
 40
4.0
 40
5.0
 40
5.0
 40
5.0
 40
6.0
 40
6.0
 40
6.0
 40
7.0
 40
7.0
 40
7.0
 40
8.0
 40
8.0
 40
8.0
 40
8.0
 10
76.07322046709281
 20
-128.8899793514581
 10
76.07322046709281
 20
-129.1979708878394
 10
75.92439234213002
 20
-129.4911485136342
 10
75.5469821317209
 20
-129.4911485136342
 10
75.27016870948107
 20
-129.4911485136342
 10
75.1671603544721
 20
-129.3275064780848
 10
75.10084226638104
 20
-129.2052055883584
 10
75.0367634903554
 20
-129.3495550891904
 10
74.91325681720919
 20
-129.4374050240643
 10
74.73945174997833
 20
-129.4374050240643
 10
74.441967754827
 20
-129.4374050240643
 10
74.2955511967039
 20
-129.2076171551981
 10
74.2955511967039
 20
-128.8899793514581
 10
74.2955511967039
 20
-128.5623507708108
 10
74.45109725786293
 20
-128.3425536788519
 10
74.73945174997833
 20
-128.3425536788519
 10
74.91325681720919
 20
-128.3425536788519
 10
75.0367634903554
 20
-128.4328151805654
 10
75.10084226638104
 20
-128.5771646813974
 10
75.15579153937078
 20
-128.4745008359369
 10
75.25879989437975
 20
-128.2912217561216
 10
75.54250350759007
 20
-128.2912217561216
 10
75.94730222710693
 20
-128.2912217561216
 10
76.07322046709281
 20
-128.613682693541
 10
76.07322046709281
 20
-128.8899793514581
 97
        0
 97
        0
 92
        1
 93
        1
 72
     4
 94
        3
 73
     0
 74
     1
 95
       17
 96
       13
 40
0.0
 40
0.0
 40
0.0
 40
0.0
 40
1.0
 40
1.0
 40
1.0
 40
2.0
 40
2.0
 40
2.0
 40
3.0
 40
3.0
 40
3.0
 40
4.0
 40
4.0
 40
4.0
 40
4.0
 10
74.50380721878724
 20
-128.8899793514581
 10
74.50380721878724
 20
-129.0804931317924
 10
74.60664331902196
 20
-129.1783338435735
 10
74.75305987714508
 20
-129.1783338435735
 10
74.88586830810145
 20
-129.1783338435735
 10
75.01402586015274
 20
-129.0953070423789
 10
75.01402586015274
 20
-128.8899793514581
 10
75.01402586015274
 20
-128.6846516605372
 10
74.88586830810145
 20
-128.6016248593426
 10
74.75305987714508
 20
-128.6016248593426
 10
74.60664331902196
 20
-128.6016248593426
 10
74.50380721878724
 20
-128.7018771379634
 10
74.50380721878724
 20
-128.8899793514581
 97
        0
 97
        0
 92
        1
 93
        1
 72
     4
 94
        3
 73
     0
 74
     1
 95
       17
 96
       13
 40
0.0
 40
0.0
 40
0.0
 40
0.0
 40
1.0
 40
1.0
 40
1.0
 40
2.0
 40
2.0
 40
2.0
 40
3.0
 40
3.0
 40
3.0
 40
4.0
 40
4.0
 40
4.0
 40
4.0
 10
75.21763100333101
 20
-128.8899793514581
 10
75.21763100333101
 20
-129.0560329538471
 10
75.31133760052981
 20
-129.2320773331434
 10
75.53096243771448
 20
-129.2320773331434
 10
75.75282658696457
 20
-129.2320773331434
 10
75.86272513294405
 20
-129.0853162654717
 10
75.86272513294405
 20
-128.8899793514581
 10
75.86272513294405
 20
-128.6750053931785
 10
75.73008895676193
 20
-128.5478813697728
 10
75.53785262868499
 20
-128.5478813697728
 10
75.2975572185888
 20
-128.5478813697728
 10
75.21763100333101
 20
-128.7359835832674
 10
75.21763100333101
 20
-128.8899793514581
 97
        0
 97
        0
 75
     2
 76
     1
 98
        0
  0
ENDBLK
  5
181
330
17E
100
AcDbEntity
  8
0
100
AcDbBlockEnd
  0
ENDSEC
  0
SECTION
  2
ENTITIES
  0
POLYLINE
  5
41
330
1F
100
AcDbEntity
  8
_U+30EC_U+30A4_U+30E4_U+30FC 1
370
     0
100
AcDb2dPolyline
 66
     1
 10
0.0
 20
0.0
 30
0.0
  0
VERTEX
  5
42
330
41
100
AcDbEntity
  8
_U+30EC_U+30A4_U+30E4_U+30FC 1
370
     0
100
AcDbVertex
100
AcDb2dVertex
 10
95.13217219843892
 20
-130.0058430230543
 30
0.0
  0
VERTEX
  5
43
330
41
100
AcDbEntity
  8
_U+30EC_U+30A4_U+30E4_U+30FC 1
370
     0
100
AcDbVertex
100
AcDb2dVertex
 10
95.13217219843892
 20
-115.071701360121
 30
0.0
  0
VERTEX
  5
44
330
41
100
AcDbEntity
  8
_U+30EC_U+30A4_U+30E4_U+30FC 1
370
     0
100
AcDbVertex
100
AcDb2dVertex
 10
95.72060553162567
 20
-115.071701360121
 30
0.0
  0
VERTEX
  5
45
330
41
100
AcDbEntity
  8
_U+30EC_U+30A4_U+30E4_U+30FC 1
370
     0
100
AcDbVertex
100
AcDb2dVertex
 10
95.72060553162567
 20
-130.5939235784626
 30
0.0
  0
VERTEX
  5
46
330
41
100
AcDbEntity
  8
_U+30EC_U+30A4_U+30E4_U+30FC 1
370
     0
100
AcDbVertex
100
AcDb2dVertex
 10
83.25555553474167
 20
-132.1814235780658
 30
0.0
  0
VERTEX
  5
47
330
41
100
AcDbEntity
  8
_U+30EC_U+30A4_U+30E4_U+30FC 1
370
     0
100
AcDbVertex
100
AcDb2dVertex
 10
83.25555553474167
 20
-141.5885957979359
 30
0.0
  0
VERTEX
  5
48
330
41
100
AcDbEntity
  8
_U+30EC_U+30A4_U+30E4_U+30FC 1
370
     0
100
AcDbVertex
100
AcDb2dVertex
 10
95.72060553162567
 20
-141.5885957979359
 30
0.0
  0
VERTEX
  5
49
330
41
100
AcDbEntity
  8
_U+30EC_U+30A4_U+30E4_U+30FC 1
370
     0
100
AcDbVertex
100
AcDb2dVertex
 10
95.72060553162567
 20
-143.4113985752585
 30
0.0
  0
VERTEX
  5
4A
330
41
100
AcDbEntity
  8
_U+30EC_U+30A4_U+30E4_U+30FC 1
370
     0
100
AcDbVertex
100
AcDb2dVertex
 10
104.5400499738653
 20
-143.4113985752585
 30
0.0
  0
VERTEX
  5
4B
330
41
100
AcDbEntity
  8
_U+30EC_U+30A4_U+30E4_U+30FC 1
370
     0
100
AcDbVertex
100
AcDb2dVertex
 10
104.5400499738653
 20
-140.706651353712
 30
0.0
  0
VERTEX
  5
4C
330
41
100
AcDbEntity
  8
_U+30EC_U+30A4_U+30E4_U+30FC 1
370
     0
100
AcDbVertex
100
AcDb2dVertex
 10
103.3053277519517
 20
-140.706651353712
 30
0.0
  0
VERTEX
  5
4D
330
41
100
AcDbEntity
  8
_U+30EC_U+30A4_U+30E4_U+30FC 1
370
     0
100
AcDbVertex
100
AcDb2dVertex
 10
103.3053277519517
 20
-140.0600096872074
 30
0.0
  0
VERTEX
  5
4E
330
41
100
AcDbEntity
  8
_U+30EC_U+30A4_U+30E4_U+30FC 1
370
     0
100
AcDbVertex
100
AcDb2dVertex
 10
105.1277777514958
 20
-140.0600096872074
 30
0.0
  0
VERTEX
  5
4F
330
41
100
AcDbEntity
  8
_U+30EC_U+30A4_U+30E4_U+30FC 1
370
     0
100
AcDbVertex
100
AcDb2dVertex
 10
105.1277777514958
 20
-143.9994791306668
 30
0.0
  0
VERTEX
  5
50
330
41
100
AcDbEntity
  8
_U+30EC_U+30A4_U+30E4_U+30FC 1
370
     0
100
AcDbVertex
100
AcDb2dVertex
 10
95.1914388650913
 20
-143.9994791306668
 30
0.0
  0
VERTEX
  5
51
330
41
100
AcDbEntity
  8
_U+30EC_U+30A4_U+30E4_U+30FC 1
370
     0
100
AcDbVertex
100
AcDb2dVertex
 10
95.1914388650913
 20
-142.1177624644703
 30
0.0
  0
VERTEX
  5
52
330
41
100
AcDbEntity
  8
_U+30EC_U+30A4_U+30E4_U+30FC 1
370
     0
100
AcDbVertex
100
AcDb2dVertex
 10
83.25555553474167
 20
-142.1177624644703
 30
0.0
  0
VERTEX
  5
53
330
41
100
AcDbEntity
  8
_U+30EC_U+30A4_U+30E4_U+30FC 1
370
     0
100
AcDbVertex
100
AcDb2dVertex
 10
83.25555553474167
 20
-143.9405652417928
 30
0.0
  0
VERTEX
  5
54
330
41
100
AcDbEntity
  8
_U+30EC_U+30A4_U+30E4_U+30FC 1
370
     0
100
AcDbVertex
100
AcDb2dVertex
 10
82.60873539247558
 20
-143.9405652417928
 30
0.0
  0
VERTEX
  5
55
330
41
100
AcDbEntity
  8
_U+30EC_U+30A4_U+30E4_U+30FC 1
370
     0
100
AcDbVertex
100
AcDb2dVertex
 10
82.60873539247558
 20
-131.5933430226574
 30
0.0
  0
VERTEX
  5
56
330
41
100
AcDbEntity
  8
_U+30EC_U+30A4_U+30E4_U+30FC 1
370
     0
100
AcDbVertex
100
AcDb2dVertex
 10
95.13217219843892
 20
-130.0058430230543
 30
0.0
  0
SEQEND
  5
58
330
41
100
AcDbEntity
  8
_U+30EC_U+30A4_U+30E4_U+30FC 1
370
     0
  0
HATCH
  5
57
330
1F
100
AcDbEntity
  8
_U+30EC_U+30A4_U+30E4_U+30FC 1
 62
   253
420
 10066329
100
AcDbHatch
 10
0.0
 20
0.0
 30
0.0
210
0.0
220
0.0
230
1.0
  2
SOLID
 70
     1
 71
     0
 91
        1
 92
        1
 93
       20
 72
     1
 10
95.13217219843892
 20
-130.0058430230543
 11
95.13217219843892
 21
-115.071701360121
 72
     1
 10
95.13217219843892
 20
-115.071701360121
 11
95.72060553162567
 21
-115.071701360121
 72
     1
 10
95.72060553162567
 20
-115.071701360121
 11
95.72060553162567
 21
-130.5939235784626
 72
     1
 10
95.72060553162567
 20
-130.5939235784626
 11
83.25555553474167
 21
-132.1814235780658
 72
     1
 10
83.25555553474167
 20
-132.1814235780658
 11
83.25555553474167
 21
-141.5885957979359
 72
     1
 10
83.25555553474167
 20
-141.5885957979359
 11
95.72060553162567
 21
-141.5885957979359
 72
     1
 10
95.72060553162567
 20
-141.5885957979359
 11
95.72060553162567
 21
-143.4113985752585
 72
     1
 10
95.72060553162567
 20
-143.4113985752585
 11
104.5400499738653
 21
-143.4113985752585
 72
     1
 10
104.5400499738653
 20
-143.4113985752585
 11
104.5400499738653
 21
-140.706651353712
 72
     1
 10
104.5400499738653
 20
-140.706651353712
 11
103.3053277519517
 21
-140.706651353712
 72
     1
 10
103.3053277519517
 20
-140.706651353712
 11
103.3053277519517
 21
-140.0600096872074
 72
     1
 10
103.3053277519517
 20
-140.0600096872074
 11
105.1277777514958
 21
-140.0600096872074
 72
     1
 10
105.1277777514958
 20
-140.0600096872074
 11
105.1277777514958
 21
-143.9994791306668
 72
     1
 10
105.1277777514958
 20
-143.9994791306668
 11
95.1914388650913
 21
-143.9994791306668
 72
     1
 10
95.1914388650913
 20
-143.9994791306668
 11
95.1914388650913
 21
-142.1177624644703
 72
     1
 10
95.1914388650913
 20
-142.1177624644703
 11
83.25555553474167
 21
-142.1177624644703
 72
     1
 10
83.25555553474167
 20
-142.1177624644703
 11
83.25555553474167
 21
-143.9405652417928
 72
     1
 10
83.25555553474167
 20
-143.9405652417928
 11
82.60873539247558
 21
-143.9405652417928
 72
     1
 10
82.60873539247558
 20
-143.9405652417928
 11
82.60873539247558
 21
-131.5933430226574
 72
     1
 10
82.60873539247558
 20
-131.5933430226574
 11
95.13217219843892
 21
-130.0058430230543
 97
        0
 75
     2
 76
     1
 98
        0
  0
POLYLINE
  5
59
330
1F
100
AcDbEntity
  8
_U+30EC_U+30A4_U+30E4_U+30FC 1
 62
   179
420
  2234388
370
    25
100
AcDb2dPolyline
 66
     1
 10
0.0
 20
0.0
 30
0.0
  0
VERTEX
  5
5A
330
59
100
AcDbEntity
  8
_U+30EC_U+30A4_U+30E4_U+30FC 1
 62
   179
420
  2234388
370
    25
100
AcDbVertex
100
AcDb2dVertex
 10
82.61339205902344
 20
-131.5692130226634
 30
0.0
  0
VERTEX
  5
5B
330
59
100
AcDbEntity
  8
_U+30EC_U+30A4_U+30E4_U+30FC 1
 62
   179
420
  2234388
370
    25
100
AcDbVertex
100
AcDb2dVertex
 10
82.61339205902344
 20
-144.0693996862051
 30
0.0
  0
SEQEND
  5
5C
330
59
100
AcDbEntity
  8
_U+30EC_U+30A4_U+30E4_U+30FC 1
 62
   179
420
  2234388
370
    25
  0
POLYLINE
  5
5D
330
1F
100
AcDbEntity
  8
_U+30EC_U+30A4_U+30E4_U+30FC 1
 62
   179
420
  2234388
370
    25
100
AcDb2dPolyline
 66
     1
 10
0.0
 20
0.0
 30
0.0
  0
VERTEX
  5
5E
330
5D
100
AcDbEntity
  8
_U+30EC_U+30A4_U+30E4_U+30FC 1
 62
   179
420
  2234388
370
    25
100
AcDbVertex
100
AcDb2dVertex
 10
95.11322562901502
 20
-115.0693024712326
 30
0.0
  0
VERTEX
  5
5F
330
5D
100
AcDbEntity
  8
_U+30EC_U+30A4_U+30E4_U+30FC 1
 62
   179
420
  2234388
370
    25
100
AcDbVertex
100
AcDb2dVertex
 10
95.11322562901502
 20
-130.0692371897047
 30
0.0
  0
SEQEND
  5
60
330
5D
100
AcDbEntity
  8
_U+30EC_U+30A4_U+30E4_U+30FC 1
 62
   179
420
  2234388
370
    25
  0
POLYLINE
  5
61
330
1F
100
AcDbEntity
  8
_U+30EC_U+30A4_U+30E4_U+30FC 1
 62
   179
420
  2234388
370
    25
100
AcDb2dPolyline
 66
     1
 10
0.0
 20
0.0
 30
0.0
  0
VERTEX
  5
62
330
61
100
AcDbEntity
  8
_U+30EC_U+30A4_U+30E4_U+30FC 1
 62
   179
420
  2234388
370
    25
100
AcDbVertex
100
AcDb2dVertex
 10
95.71337116925957
 20
-115.0693024712326
 30
0.0
  0
VERTEX
  5
63
330
61
100
AcDbEntity
  8
_U+30EC_U+30A4_U+30E4_U+30FC 1
 62
   179
420
  2234388
370
    25
100
AcDbVertex
100
AcDb2dVertex
 10
95.71337116925957
 20
-130.6018610784603
 30
0.0
  0
SEQEND
  5
64
330
61
100
AcDbEntity
  8
_U+30EC_U+30A4_U+30E4_U+30FC 1
 62
   179
420
  2234388
370
    25
  0
POLYLINE
  5
65
330
1F
100
AcDbEntity
  8
_U+30EC_U+30A4_U+30E4_U+30FC 1
 62
   179
420
  2234388
370
    25
100
AcDb2dPolyline
 66
     1
 10
0.0
 20
0.0
 30
0.0
  0
VERTEX
  5
66
330
65
100
AcDbEntity
  8
_U+30EC_U+30A4_U+30E4_U+30FC 1
 62
   179
420
  2234388
370
    25
100
AcDbVertex
100
AcDb2dVertex
 10
83.21318482149924
 20
-132.1018369114191
 30
0.0
  0
VERTEX
  5
67
330
65
100
AcDbEntity
  8
_U+30EC_U+30A4_U+30E4_U+30FC 1
 62
   179
420
  2234388
370
    25
100
AcDbVertex
100
AcDb2dVertex
 10
83.21318482149924
 20
-141.5692988534967
 30
0.0
  0
SEQEND
  5
68
330
65
100
AcDbEntity
  8
_U+30EC_U+30A4_U+30E4_U+30FC 1
 62
   179
420
  2234388
370
    25
  0
POLYLINE
  5
69
330
1F
100
AcDbEntity
  8
_U+30EC_U+30A4_U+30E4_U+30FC 1
 62
   179
420
  2234388
370
    25
100
AcDb2dPolyline
 66
     1
 10
0.0
 20
0.0
 30
0.0
  0
VERTEX
  5
6A
330
69
100
AcDbEntity
  8
_U+30EC_U+30A4_U+30E4_U+30FC 1
 62
   179
420
  2234388
370
    25
100
AcDbVertex
100
AcDb2dVertex
 10
95.11322562901502
 20
-115.0693024712326
 30
0.0
  0
VERTEX
  5
6B
330
69
100
AcDbEntity
  8
_U+30EC_U+30A4_U+30E4_U+30FC 1
 62
   179
420
  2234388
370
    25
100
AcDbVertex
100
AcDb2dVertex
 10
95.71337116925957
 20
-115.0693024712326
 30
0.0
  0
SEQEND
  5
6C
330
69
100
AcDbEntity
  8
_U+30EC_U+30A4_U+30E4_U+30FC 1
 62
   179
420
  2234388
370
    25
  0
POLYLINE
  5
6D
330
1F
100
AcDbEntity
  8
_U+30EC_U+30A4_U+30E4_U+30FC 1
 62
   179
420
  2234388
370
    25
100
AcDb2dPolyline
 66
     1
 10
0.0
 20
0.0
 30
0.0
  0
VERTEX
  5
6E
330
6D
100
AcDbEntity
  8
_U+30EC_U+30A4_U+30E4_U+30FC 1
 62
   179
420
  2234388
370
    25
100
AcDbVertex
100
AcDb2dVertex
 10
82.61339205902344
 20
-131.5692130226634
 30
0.0
  0
VERTEX
  5
6F
330
6D
100
AcDbEntity
  8
_U+30EC_U+30A4_U+30E4_U+30FC 1
 62
   179
420
  2234388
370
    25
100
AcDbVertex
100
AcDb2dVertex
 10
95.11322562901502
 20
-130.0692371897047
 30
0.0
  0
SEQEND
  5
70
330
6D
100
AcDbEntity
  8
_U+30EC_U+30A4_U+30E4_U+30FC 1
 62
   179
420
  2234388
370
    25
  0
POLYLINE
  5
71
330
1F
100
AcDbEntity
  8
_U+30EC_U+30A4_U+30E4_U+30FC 1
 62
   179
420
  2234388
370
    25
100
AcDb2dPolyline
 66
     1
 10
0.0
 20
0.0
 30
0.0
  0
VERTEX
  5
72
330
71
100
AcDbEntity
  8
_U+30EC_U+30A4_U+30E4_U+30FC 1
 62
   179
420
  2234388
370
    25
100
AcDbVertex
100
AcDb2dVertex
 10
83.21318482149924
 20
-132.1018369114191
 30
0.0
  0
VERTEX
  5
73
330
71
100
AcDbEntity
  8
_U+30EC_U+30A4_U+30E4_U+30FC 1
 62
   179
420
  2234388
370
    25
100
AcDbVertex
100
AcDb2dVertex
 10
95.71337116925957
 20
-130.6018610784603
 30
0.0
  0
SEQEND
  5
74
330
71
100
AcDbEntity
  8
_U+30EC_U+30A4_U+30E4_U+30FC 1
 62
   179
420
  2234388
370
    25
  0
POLYLINE
  5
75
330
1F
100
AcDbEntity
  8
_U+30EC_U+30A4_U+30E4_U+30FC 1
 62
   179
420
  2234388
370
    25
100
AcDb2dPolyline
 66
     1
 10
0.0
 20
0.0
 30
0.0
  0
VERTEX
  5
76
330
75
100
AcDbEntity
  8
_U+30EC_U+30A4_U+30E4_U+30FC 1
 62
   179
420
  2234388
370
    25
100
AcDbVertex
100
AcDb2dVertex
 10
82.61339205902344
 20
-144.0693996862051
 30
0.0
  0
VERTEX
  5
77
330
75
100
AcDbEntity
  8
_U+30EC_U+30A4_U+30E4_U+30FC 1
 62
   179
420
  2234388
370
    25
100
AcDbVertex
100
AcDb2dVertex
 10
83.21318482149924
 20
-144.0693996862051
 30
0.0
  0
SEQEND
  5
78
330
75
100
AcDbEntity
  8
_U+30EC_U+30A4_U+30E4_U+30FC 1
 62
   179
420
  2234388
370
    25
  0
POLYLINE
  5
79
330
1F
100
AcDbEntity
  8
_U+30EC_U+30A4_U+30E4_U+30FC 1
 62
   179
420
  2234388
370
    25
100
AcDb2dPolyline
 66
     1
 10
0.0
 20
0.0
 30
0.0
  0
VERTEX
  5
7A
330
79
100
AcDbEntity
  8
_U+30EC_U+30A4_U+30E4_U+30FC 1
 62
   179
420
  2234388
370
    25
100
AcDbVertex
100
AcDb2dVertex
 10
83.21318482149924
 20
-141.5692988534967
 30
0.0
  0
VERTEX
  5
7B
330
79
100
AcDbEntity
  8
_U+30EC_U+30A4_U+30E4_U+30FC 1
 62
   179
420
  2234388
370
    25
100
AcDbVertex
100
AcDb2dVertex
 10
95.71337116925957
 20
-141.5692988534967
 30
0.0
  0
SEQEND
  5
7C
330
79
100
AcDbEntity
  8
_U+30EC_U+30A4_U+30E4_U+30FC 1
 62
   179
420
  2234388
370
    25
  0
POLYLINE
  5
7D
330
1F
100
AcDbEntity
  8
_U+30EC_U+30A4_U+30E4_U+30FC 1
 62
   179
420
  2234388
370
    25
100
AcDb2dPolyline
 66
     1
 10
0.0
 20
0.0
 30
0.0
  0
VERTEX
  5
7E
330
7D
100
AcDbEntity
  8
_U+30EC_U+30A4_U+30E4_U+30FC 1
 62
   179
420
  2234388
370
    25
100
AcDbVertex
100
AcDb2dVertex
 10
83.21318482149924
 20
-142.1694444089021
 30
0.0
  0
VERTEX
  5
7F
330
7D
100
AcDbEntity
  8
_U+30EC_U+30A4_U+30E4_U+30FC 1
 62
   179
420
  2234388
370
    25
100
AcDbVertex
100
AcDb2dVertex
 10
95.11322562901502
 20
-142.1694444089021
 30
0.0
  0
SEQEND
  5
80
330
7D
100
AcDbEntity
  8
_U+30EC_U+30A4_U+30E4_U+30FC 1
 62
   179
420
  2234388
370
    25
  0
POLYLINE
  5
81
330
1F
100
AcDbEntity
  8
_U+30EC_U+30A4_U+30E4_U+30FC 1
 62
   179
420
  2234388
370
    25
100
AcDb2dPolyline
 66
     1
 10
0.0
 20
0.0
 30
0.0
  0
VERTEX
  5
82
330
81
100
AcDbEntity
  8
_U+30EC_U+30A4_U+30E4_U+30FC 1
 62
   179
420
  2234388
370
    25
100
AcDbVertex
100
AcDb2dVertex
 10
95.11322562901502
 20
-142.1694444089021
 30
0.0
  0
VERTEX
  5
83
330
81
100
AcDbEntity
  8
_U+30EC_U+30A4_U+30E4_U+30FC 1
 62
   179
420
  2234388
370
    25
100
AcDbVertex
100
AcDb2dVertex
 10
95.11322562901502
 20
-144.0693996862051
 30
0.0
  0
SEQEND
  5
84
330
81
100
AcDbEntity
  8
_U+30EC_U+30A4_U+30E4_U+30FC 1
 62
   179
420
  2234388
370
    25
  0
POLYLINE
  5
85
330
1F
100
AcDbEntity
  8
_U+30EC_U+30A4_U+30E4_U+30FC 1
 62
   179
420
  2234388
370
    25
100
AcDb2dPolyline
 66
     1
 10
0.0
 20
0.0
 30
0.0
  0
VERTEX
  5
86
330
85
100
AcDbEntity
  8
_U+30EC_U+30A4_U+30E4_U+30FC 1
 62
   179
420
  2234388
370
    25
100
AcDbVertex
100
AcDb2dVertex
 10
95.71337116925957
 20
-141.5692988534967
 30
0.0
  0
VERTEX
  5
87
330
85
100
AcDbEntity
  8
_U+30EC_U+30A4_U+30E4_U+30FC 1
 62
   179
420
  2234388
370
    25
100
AcDbVertex
100
AcDb2dVertex
 10
95.71337116925957
 20
-143.4692894085773
 30
0.0
  0
SEQEND
  5
88
330
85
100
AcDbEntity
  8
_U+30EC_U+30A4_U+30E4_U+30FC 1
 62
   179
420
  2234388
370
    25
  0
POLYLINE
  5
89
330
1F
100
AcDbEntity
  8
_U+30EC_U+30A4_U+30E4_U+30FC 1
 62
   179
420
  2234388
370
    25
100
AcDb2dPolyline
 66
     1
 10
0.0
 20
0.0
 30
0.0
  0
VERTEX
  5
8A
330
89
100
AcDbEntity
  8
_U+30EC_U+30A4_U+30E4_U+30FC 1
 62
   179
420
  2234388
370
    25
100
AcDbVertex
100
AcDb2dVertex
 10
105.1133138626108
 20
-140.069323020538
 30
0.0
  0
VERTEX
  5
8B
330
89
100
AcDbEntity
  8
_U+30EC_U+30A4_U+30E4_U+30FC 1
 62
   179
420
  2234388
370
    25
100
AcDbVertex
100
AcDb2dVertex
 10
105.1133138626108
 20
-144.0693996862051
 30
0.0
  0
SEQEND
  5
8C
330
89
100
AcDbEntity
  8
_U+30EC_U+30A4_U+30E4_U+30FC 1
 62
   179
420
  2234388
370
    25
  0
POLYLINE
  5
8D
330
1F
100
AcDbEntity
  8
_U+30EC_U+30A4_U+30E4_U+30FC 1
 62
   179
420
  2234388
370
    25
100
AcDb2dPolyline
 66
     1
 10
0.0
 20
0.0
 30
0.0
  0
VERTEX
  5
8E
330
8D
100
AcDbEntity
  8
_U+30EC_U+30A4_U+30E4_U+30FC 1
 62
   179
420
  2234388
370
    25
100
AcDbVertex
100
AcDb2dVertex
 10
104.5135184447491
 20
-140.6694332981658
 30
0.0
  0
VERTEX
  5
8F
330
8D
100
AcDbEntity
  8
_U+30EC_U+30A4_U+30E4_U+30FC 1
 62
   179
420
  2234388
370
    25
100
AcDbVertex
100
AcDb2dVertex
 10
104.5135184447491
 20
-143.4692894085773
 30
0.0
  0
SEQEND
  5
90
330
8D
100
AcDbEntity
  8
_U+30EC_U+30A4_U+30E4_U+30FC 1
 62
   179
420
  2234388
370
    25
  0
POLYLINE
  5
91
330
1F
100
AcDbEntity
  8
_U+30EC_U+30A4_U+30E4_U+30FC 1
 62
   179
420
  2234388
370
    25
100
AcDb2dPolyline
 66
     1
 10
0.0
 20
0.0
 30
0.0
  0
VERTEX
  5
92
330
91
100
AcDbEntity
  8
_U+30EC_U+30A4_U+30E4_U+30FC 1
 62
   179
420
  2234388
370
    25
100
AcDbVertex
100
AcDb2dVertex
 10
95.11322562901502
 20
-144.0693996862051
 30
0.0
  0
VERTEX
  5
93
330
91
100
AcDbEntity
  8
_U+30EC_U+30A4_U+30E4_U+30FC 1
 62
   179
420
  2234388
370
    25
100
AcDbVertex
100
AcDb2dVertex
 10
105.1133138626108
 20
-144.0693996862051
 30
0.0
  0
SEQEND
  5
94
330
91
100
AcDbEntity
  8
_U+30EC_U+30A4_U+30E4_U+30FC 1
 62
   179
420
  2234388
370
    25
  0
POLYLINE
  5
95
330
1F
100
AcDbEntity
  8
_U+30EC_U+30A4_U+30E4_U+30FC 1
 62
   179
420
  2234388
370
    25
100
AcDb2dPolyline
 66
     1
 10
0.0
 20
0.0
 30
0.0
  0
VERTEX
  5
96
330
95
100
AcDbEntity
  8
_U+30EC_U+30A4_U+30E4_U+30FC 1
 62
   179
420
  2234388
370
    25
100
AcDbVertex
100
AcDb2dVertex
 10
95.71337116925957
 20
-143.4692894085773
 30
0.0
  0
VERTEX
  5
97
330
95
100
AcDbEntity
  8
_U+30EC_U+30A4_U+30E4_U+30FC 1
 62
   179
420
  2234388
370
    25
100
AcDbVertex
100
AcDb2dVertex
 10
104.5135184447491
 20
-143.4692894085773
 30
0.0
  0
SEQEND
  5
98
330
95
100
AcDbEntity
  8
_U+30EC_U+30A4_U+30E4_U+30FC 1
 62
   179
420
  2234388
370
    25
  0
POLYLINE
  5
99
330
1F
100
AcDbEntity
  8
_U+30EC_U+30A4_U+30E4_U+30FC 1
 62
   179
420
  2234388
370
    25
100
AcDb2dPolyline
 66
     1
 10
0.0
 20
0.0
 30
0.0
  0
VERTEX
  5
9A
330
99
100
AcDbEntity
  8
_U+30EC_U+30A4_U+30E4_U+30FC 1
 62
   179
420
  2234388
370
    25
100
AcDbVertex
100
AcDb2dVertex
 10
103.2133207001421
 20
-140.069323020538
 30
0.0
  0
VERTEX
  5
9B
330
99
100
AcDbEntity
  8
_U+30EC_U+30A4_U+30E4_U+30FC 1
 62
   179
420
  2234388
370
    25
100
AcDbVertex
100
AcDb2dVertex
 10
105.1133138626108
 20
-140.069323020538
 30
0.0
  0
SEQEND
  5
9C
330
99
100
AcDbEntity
  8
_U+30EC_U+30A4_U+30E4_U+30FC 1
 62
   179
420
  2234388
370
    25
  0
POLYLINE
  5
9D
330
1F
100
AcDbEntity
  8
_U+30EC_U+30A4_U+30E4_U+30FC 1
 62
   179
420
  2234388
370
    25
100
AcDb2dPolyline
 66
     1
 10
0.0
 20
0.0
 30
0.0
  0
VERTEX
  5
9E
330
9D
100
AcDbEntity
  8
_U+30EC_U+30A4_U+30E4_U+30FC 1
 62
   179
420
  2234388
370
    25
100
AcDbVertex
100
AcDb2dVertex
 10
103.2133207001421
 20
-140.069323020538
 30
0.0
  0
VERTEX
  5
9F
330
9D
100
AcDbEntity
  8
_U+30EC_U+30A4_U+30E4_U+30FC 1
 62
   179
420
  2234388
370
    25
100
AcDbVertex
100
AcDb2dVertex
 10
103.2133207001421
 20
-140.6694332981658
 30
0.0
  0
SEQEND
  5
A0
330
9D
100
AcDbEntity
  8
_U+30EC_U+30A4_U+30E4_U+30FC 1
 62
   179
420
  2234388
370
    25
  0
POLYLINE
  5
A1
330
1F
100
AcDbEntity
  8
_U+30EC_U+30A4_U+30E4_U+30FC 1
 62
   179
420
  2234388
370
    25
100
AcDb2dPolyline
 66
     1
 10
0.0
 20
0.0
 30
0.0
  0
VERTEX
  5
A2
330
A1
100
AcDbEntity
  8
_U+30EC_U+30A4_U+30E4_U+30FC 1
 62
   179
420
  2234388
370
    25
100
AcDbVertex
100
AcDb2dVertex
 10
103.2133207001421
 20
-140.6694332981658
 30
0.0
  0
VERTEX
  5
A3
330
A1
100
AcDbEntity
  8
_U+30EC_U+30A4_U+30E4_U+30FC 1
 62
   179
420
  2234388
370
    25
100
AcDbVertex
100
AcDb2dVertex
 10
104.5135184447491
 20
-140.6694332981658
 30
0.0
  0
SEQEND
  5
A4
330
A1
100
AcDbEntity
  8
_U+30EC_U+30A4_U+30E4_U+30FC 1
 62
   179
420
  2234388
370
    25
  0
POLYLINE
  5
A5
330
1F
100
AcDbEntity
  8
_U+30EC_U+30A4_U+30E4_U+30FC 1
 62
   179
420
  2234388
370
    25
100
AcDb2dPolyline
 66
     1
 10
0.0
 20
0.0
 30
0.0
  0
VERTEX
  5
A6
330
A5
100
AcDbEntity
  8
_U+30EC_U+30A4_U+30E4_U+30FC 1
 62
   179
420
  2234388
370
    25
100
AcDbVertex
100
AcDb2dVertex
 10
83.21318482149924
 20
-142.1694444089021
 30
0.0
  0
VERTEX
  5
A7
330
A5
100
AcDbEntity
  8
_U+30EC_U+30A4_U+30E4_U+30FC 1
 62
   179
420
  2234388
370
    25
100
AcDbVertex
100
AcDb2dVertex
 10
83.21318482149924
 20
-144.0693996862051
 30
0.0
  0
SEQEND
  5
A8
330
A5
100
AcDbEntity
  8
_U+30EC_U+30A4_U+30E4_U+30FC 1
 62
   179
420
  2234388
370
    25
  0
SPLINE
  5
A9
330
1F
100
AcDbEntity
  8
_U+30EC_U+30A4_U+30E4_U+30FC 1
 62
   179
420
  2234388
370
     9
100
AcDbSpline
210
0.0
220
0.0
230
1.0
 70
    11
 71
     3
 72
    17
 73
    13
 74
     0
 42
0.0000000001
 43
0.0000000001
 12
1.0
 22
0.0
 32
0.0
 13
1.0
 23
0.0
 33
0.0
 40
0.0
 40
0.0
 40
0.0
 40
0.0
 40
1.0
 40
1.0
 40
1.0
 40
2.0
 40
2.0
 40
2.0
 40
3.0
 40
3.0
 40
3.0
 40
4.0
 40
4.0
 40
4.0
 40
4.0
 10
103.2632740322011
 20
-138.0694257988158
 30
0.0
 10
103.2632740322011
 20
-138.0418738543787
 30
0.0
 10
103.2409079216606
 20
-138.0191549654951
 30
0.0
 10
103.2133207001421
 20
-138.0191549654951
 30
0.0
 10
103.1857687564006
 20
-138.0191549654951
 30
0.0
 10
103.1633673680832
 20
-138.0418738543787
 30
0.0
 10
103.1633673680832
 20
-138.0694257988158
 30
0.0
 10
103.1633673680832
 20
-138.0970130210311
 30
0.0
 10
103.1857687564006
 20
-138.1193791321369
 30
0.0
 10
103.2133207001421
 20
-138.1193791321369
 30
0.0
 10
103.2409079216606
 20
-138.1193791321369
 30
0.0
 10
103.2632740322011
 20
-138.0970130210311
 30
0.0
 10
103.2632740322011
 20
-138.0694257988158
 30
0.0
  0
SPLINE
  5
AA
330
1F
100
AcDbEntity
  8
_U+30EC_U+30A4_U+30E4_U+30FC 1
 62
   179
420
  2234388
370
     9
100
AcDbSpline
210
0.0
220
0.0
230
1.0
 70
    11
 71
     3
 72
    17
 73
    13
 74
     0
 42
0.0000000001
 43
0.0000000001
 12
1.0
 22
0.0
 32
0.0
 13
1.0
 23
0.0
 33
0.0
 40
0.0
 40
0.0
 40
0.0
 40
0.0
 40
1.0
 40
1.0
 40
1.0
 40
2.0
 40
2.0
 40
2.0
 40
3.0
 40
3.0
 40
3.0
 40
4.0
 40
4.0
 40
4.0
 40
4.0
 10
105.1632645392838
 20
-138.0694257988158
 30
0.0
 10
105.1632645392838
 20
-138.0418738543787
 30
0.0
 10
105.1408631509664
 20
-138.0191549654951
 30
0.0
 10
105.1133138626108
 20
-138.0191549654951
 30
0.0
 10
105.0857592634834
 20
-138.0191549654951
 30
0.0
 10
105.063357875166
 20
-138.0418738543787
 30
0.0
 10
105.063357875166
 20
-138.0694257988158
 30
0.0
 10
105.063357875166
 20
-138.0970130210311
 30
0.0
 10
105.0857592634834
 20
-138.1193791321369
 30
0.0
 10
105.1133138626108
 20
-138.1193791321369
 30
0.0
 10
105.1408631509664
 20
-138.1193791321369
 30
0.0
 10
105.1632645392838
 20
-138.0970130210311
 30
0.0
 10
105.1632645392838
 20
-138.0694257988158
 30
0.0
  0
SPLINE
  5
AB
330
1F
100
AcDbEntity
  8
_U+30EC_U+30A4_U+30E4_U+30FC 1
 62
   179
420
  2234388
370
     9
100
AcDbSpline
210
0.0
220
0.0
230
1.0
 70
    11
 71
     3
 72
    17
 73
    13
 74
     0
 42
0.0000000001
 43
0.0000000001
 12
1.0
 22
0.0
 32
0.0
 13
1.0
 23
0.0
 33
0.0
 40
0.0
 40
0.0
 40
0.0
 40
0.0
 40
1.0
 40
1.0
 40
1.0
 40
2.0
 40
2.0
 40
2.0
 40
3.0
 40
3.0
 40
3.0
 40
4.0
 40
4.0
 40
4.0
 40
4.0
 10
107.1634792104763
 20
-140.069323020538
 30
0.0
 10
107.1634792104763
 20
-140.0417710761009
 30
0.0
 10
107.140760322167
 20
-140.0193696872175
 30
0.0
 10
107.1131731006486
 20
-140.0193696872175
 30
0.0
 10
107.0856211569071
 20
-140.0193696872175
 30
0.0
 10
107.0632197685897
 20
-140.0417710761009
 30
0.0
 10
107.0632197685897
 20
-140.069323020538
 30
0.0
 10
107.0632197685897
 20
-140.0972277427535
 30
0.0
 10
107.0856211569071
 20
-140.1192763538591
 30
0.0
 10
107.1131731006486
 20
-140.1192763538591
 30
0.0
 10
107.140760322167
 20
-140.1192763538591
 30
0.0
 10
107.1634792104763
 20
-140.0972277427535
 30
0.0
 10
107.1634792104763
 20
-140.069323020538
 30
0.0
  0
SPLINE
  5
AC
330
1F
100
AcDbEntity
  8
_U+30EC_U+30A4_U+30E4_U+30FC 1
 62
   179
420
  2234388
370
     9
100
AcDbSpline
210
0.0
220
0.0
230
1.0
 70
    11
 71
     3
 72
    17
 73
    13
 74
     0
 42
0.0000000001
 43
0.0000000001
 12
1.0
 22
0.0
 32
0.0
 13
1.0
 23
0.0
 33
0.0
 40
0.0
 40
0.0
 40
0.0
 40
0.0
 40
1.0
 40
1.0
 40
1.0
 40
2.0
 40
2.0
 40
2.0
 40
3.0
 40
3.0
 40
3.0
 40
4.0
 40
4.0
 40
4.0
 40
4.0
 10
107.1634792104763
 20
-144.0693996862051
 30
0.0
 10
107.1634792104763
 20
-144.0418477417674
 30
0.0
 10
107.140760322167
 20
-144.019446352884
 30
0.0
 10
107.1131731006486
 20
-144.019446352884
 30
0.0
 10
107.0856211569071
 20
-144.019446352884
 30
0.0
 10
107.0632197685897
 20
-144.0418477417674
 30
0.0
 10
107.0632197685897
 20
-144.0693996862051
 30
0.0
 10
107.0632197685897
 20
-144.0969869084204
 30
0.0
 10
107.0856211569071
 20
-144.1193530195256
 30
0.0
 10
107.1131731006486
 20
-144.1193530195256
 30
0.0
 10
107.140760322167
 20
-144.1193530195256
 30
0.0
 10
107.1634792104763
 20
-144.0969869084204
 30
0.0
 10
107.1634792104763
 20
-144.0693996862051
 30
0.0
  0
SPLINE
  5
AD
330
1F
100
AcDbEntity
  8
_U+30EC_U+30A4_U+30E4_U+30FC 1
 62
   179
420
  2234388
370
     9
100
AcDbSpline
210
0.0
220
0.0
230
1.0
 70
    11
 71
     3
 72
    17
 73
    13
 74
     0
 42
0.0000000001
 43
0.0000000001
 12
1.0
 22
0.0
 32
0.0
 13
1.0
 23
0.0
 33
0.0
 40
0.0
 40
0.0
 40
0.0
 40
0.0
 40
1.0
 40
1.0
 40
1.0
 40
2.0
 40
2.0
 40
2.0
 40
3.0
 40
3.0
 40
3.0
 40
4.0
 40
4.0
 40
4.0
 40
4.0
 10
105.1632645392838
 20
-146.0696496857051
 30
0.0
 10
105.1632645392838
 20
-146.0417449634895
 30
0.0
 10
105.1408631509664
 20
-146.0193435746062
 30
0.0
 10
105.1133138626108
 20
-146.0193435746062
 30
0.0
 10
105.0857592634834
 20
-146.0193435746062
 30
0.0
 10
105.063357875166
 20
-146.0417449634895
 30
0.0
 10
105.063357875166
 20
-146.0696496857051
 30
0.0
 10
105.063357875166
 20
-146.0972016301422
 30
0.0
 10
105.0857592634834
 20
-146.1192502412478
 30
0.0
 10
105.1133138626108
 20
-146.1192502412478
 30
0.0
 10
105.1408631509664
 20
-146.1192502412478
 30
0.0
 10
105.1632645392838
 20
-146.0972016301422
 30
0.0
 10
105.1632645392838
 20
-146.0696496857051
 30
0.0
  0
SPLINE
  5
AE
330
1F
100
AcDbEntity
  8
_U+30EC_U+30A4_U+30E4_U+30FC 1
 62
   179
420
  2234388
370
     9
100
AcDbSpline
210
0.0
220
0.0
230
1.0
 70
    11
 71
     3
 72
    17
 73
    13
 74
     0
 42
0.0000000001
 43
0.0000000001
 12
1.0
 22
0.0
 32
0.0
 13
1.0
 23
0.0
 33
0.0
 40
0.0
 40
0.0
 40
0.0
 40
0.0
 40
1.0
 40
1.0
 40
1.0
 40
2.0
 40
2.0
 40
2.0
 40
3.0
 40
3.0
 40
3.0
 40
4.0
 40
4.0
 40
4.0
 40
4.0
 10
95.1635317388427
 20
-146.0696496857051
 30
0.0
 10
95.1635317388427
 20
-146.0417449634895
 30
0.0
 10
95.14077757275655
 20
-146.0193435746062
 30
0.0
 10
95.11322562901502
 20
-146.0193435746062
 30
0.0
 10
95.08567368527348
 20
-146.0193435746062
 30
0.0
 10
95.0632722969561
 20
-146.0417449634895
 30
0.0
 10
95.0632722969561
 20
-146.0696496857051
 30
0.0
 10
95.0632722969561
 20
-146.0972016301422
 30
0.0
 10
95.08567368527348
 20
-146.1192502412478
 30
0.0
 10
95.11322562901502
 20
-146.1192502412478
 30
0.0
 10
95.14077757275655
 20
-146.1192502412478
 30
0.0
 10
95.1635317388427
 20
-146.0972016301422
 30
0.0
 10
95.1635317388427
 20
-146.0696496857051
 30
0.0
  0
SPLINE
  5
AF
330
1F
100
AcDbEntity
  8
_U+30EC_U+30A4_U+30E4_U+30FC 1
 62
   179
420
  2234388
370
     9
100
AcDbSpline
210
0.0
220
0.0
230
1.0
 70
    11
 71
     3
 72
    17
 73
    13
 74
     0
 42
0.0000000001
 43
0.0000000001
 12
1.0
 22
0.0
 32
0.0
 13
1.0
 23
0.0
 33
0.0
 40
0.0
 40
0.0
 40
0.0
 40
0.0
 40
1.0
 40
1.0
 40
1.0
 40
2.0
 40
2.0
 40
2.0
 40
3.0
 40
3.0
 40
3.0
 40
4.0
 40
4.0
 40
4.0
 40
4.0
 10
82.66334539108236
 20
-146.0696496857051
 30
0.0
 10
82.66334539108236
 20
-146.0417449634895
 30
0.0
 10
82.64094400276498
 20
-146.0193435746062
 30
0.0
 10
82.61339205902344
 20
-146.0193435746062
 30
0.0
 10
82.58584011528191
 20
-146.0193435746062
 30
0.0
 10
82.56343872696453
 20
-146.0417449634895
 30
0.0
 10
82.56343872696453
 20
-146.0696496857051
 30
0.0
 10
82.56343872696453
 20
-146.0972016301422
 30
0.0
 10
82.58584011528191
 20
-146.1192502412478
 30
0.0
 10
82.61339205902344
 20
-146.1192502412478
 30
0.0
 10
82.64094400276498
 20
-146.1192502412478
 30
0.0
 10
82.66334539108236
 20
-146.0972016301422
 30
0.0
 10
82.66334539108236
 20
-146.0696496857051
 30
0.0
  0
SPLINE
  5
B0
330
1F
100
AcDbEntity
  8
_U+30EC_U+30A4_U+30E4_U+30FC 1
 62
   179
420
  2234388
370
     9
100
AcDbSpline
210
0.0
220
0.0
230
1.0
 70
    11
 71
     3
 72
    17
 73
    13
 74
     0
 42
0.0000000001
 43
0.0000000001
 12
1.0
 22
0.0
 32
0.0
 13
1.0
 23
0.0
 33
0.0
 40
0.0
 40
0.0
 40
0.0
 40
0.0
 40
1.0
 40
1.0
 40
1.0
 40
2.0
 40
2.0
 40
2.0
 40
3.0
 40
3.0
 40
3.0
 40
4.0
 40
4.0
 40
4.0
 40
4.0
 10
80.66313071988986
 20
-141.5692988534967
 30
0.0
 10
80.66313071988986
 20
-141.541746909059
 30
0.0
 10
80.64108210934127
 20
-141.5193455201756
 30
0.0
 10
80.61349488782285
 20
-141.5193455201756
 30
0.0
 10
80.58559016631254
 20
-141.5193455201756
 30
0.0
 10
80.56322405577204
 20
-141.541746909059
 30
0.0
 10
80.56322405577204
 20
-141.5692988534967
 30
0.0
 10
80.56322405577204
 20
-141.5972035757116
 30
0.0
 10
80.58559016631254
 20
-141.6192521868172
 30
0.0
 10
80.61349488782285
 20
-141.6192521868172
 30
0.0
 10
80.64108210934127
 20
-141.6192521868172
 30
0.0
 10
80.66313071988986
 20
-141.5972035757116
 30
0.0
 10
80.66313071988986
 20
-141.5692988534967
 30
0.0
  0
SPLINE
  5
B1
330
1F
100
AcDbEntity
  8
_U+30EC_U+30A4_U+30E4_U+30FC 1
 62
   179
420
  2234388
370
     9
100
AcDbSpline
210
0.0
220
0.0
230
1.0
 70
    11
 71
     3
 72
    17
 73
    13
 74
     0
 42
0.0000000001
 43
0.0000000001
 12
1.0
 22
0.0
 32
0.0
 13
1.0
 23
0.0
 33
0.0
 40
0.0
 40
0.0
 40
0.0
 40
0.0
 40
1.0
 40
1.0
 40
1.0
 40
2.0
 40
2.0
 40
2.0
 40
3.0
 40
3.0
 40
3.0
 40
4.0
 40
4.0
 40
4.0
 40
4.0
 10
80.66313071988986
 20
-144.0693996862051
 30
0.0
 10
80.66313071988986
 20
-144.0418477417674
 30
0.0
 10
80.64108210934127
 20
-144.019446352884
 30
0.0
 10
80.61349488782285
 20
-144.019446352884
 30
0.0
 10
80.58559016631254
 20
-144.019446352884
 30
0.0
 10
80.56322405577204
 20
-144.0418477417674
 30
0.0
 10
80.56322405577204
 20
-144.0693996862051
 30
0.0
 10
80.56322405577204
 20
-144.0969869084204
 30
0.0
 10
80.58559016631254
 20
-144.1193530195256
 30
0.0
 10
80.61349488782285
 20
-144.1193530195256
 30
0.0
 10
80.64108210934127
 20
-144.1193530195256
 30
0.0
 10
80.66313071988986
 20
-144.0969869084204
 30
0.0
 10
80.66313071988986
 20
-144.0693996862051
 30
0.0
  0
SPLINE
  5
B2
330
1F
100
AcDbEntity
  8
_U+30EC_U+30A4_U+30E4_U+30FC 1
 62
   179
420
  2234388
370
     9
100
AcDbSpline
210
0.0
220
0.0
230
1.0
 70
    11
 71
     3
 72
    17
 73
    13
 74
     0
 42
0.0000000001
 43
0.0000000001
 12
1.0
 22
0.0
 32
0.0
 13
1.0
 23
0.0
 33
0.0
 40
0.0
 40
0.0
 40
0.0
 40
0.0
 40
1.0
 40
1.0
 40
1.0
 40
2.0
 40
2.0
 40
2.0
 40
3.0
 40
3.0
 40
3.0
 40
4.0
 40
4.0
 40
4.0
 40
4.0
 10
76.66337165526556
 20
-144.0693996862051
 30
0.0
 10
76.66337165526556
 20
-144.0418477417674
 30
0.0
 10
76.64097220306198
 20
-144.019446352884
 30
0.0
 10
76.61341832320664
 20
-144.019446352884
 30
0.0
 10
76.58568999058072
 20
-144.019446352884
 30
0.0
 10
76.56328860226333
 20
-144.0418477417674
 30
0.0
 10
76.56328860226333
 20
-144.0693996862051
 30
0.0
 10
76.56328860226333
 20
-144.0969869084204
 30
0.0
 10
76.58568999058072
 20
-144.1193530195256
 30
0.0
 10
76.61341832320664
 20
-144.1193530195256
 30
0.0
 10
76.64097220306198
 20
-144.1193530195256
 30
0.0
 10
76.66337165526556
 20
-144.0969869084204
 30
0.0
 10
76.66337165526556
 20
-144.0693996862051
 30
0.0
  0
SPLINE
  5
B3
330
1F
100
AcDbEntity
  8
_U+30EC_U+30A4_U+30E4_U+30FC 1
 62
   179
420
  2234388
370
     9
100
AcDbSpline
210
0.0
220
0.0
230
1.0
 70
    11
 71
     3
 72
    17
 73
    13
 74
     0
 42
0.0000000001
 43
0.0000000001
 12
1.0
 22
0.0
 32
0.0
 13
1.0
 23
0.0
 33
0.0
 40
0.0
 40
0.0
 40
0.0
 40
0.0
 40
1.0
 40
1.0
 40
1.0
 40
2.0
 40
2.0
 40
2.0
 40
3.0
 40
3.0
 40
3.0
 40
4.0
 40
4.0
 40
4.0
 40
4.0
 10
78.66323354868928
 20
-144.0693996862051
 30
0.0
 10
78.66323354868928
 20
-144.0418477417674
 30
0.0
 10
78.64083216037189
 20
-144.019446352884
 30
0.0
 10
78.61328021663036
 20
-144.019446352884
 30
0.0
 10
78.58572827288882
 20
-144.019446352884
 30
0.0
 10
78.56332688457144
 20
-144.0418477417674
 30
0.0
 10
78.56332688457144
 20
-144.0693996862051
 30
0.0
 10
78.56332688457144
 20
-144.0969869084204
 30
0.0
 10
78.58572827288882
 20
-144.1193530195256
 30
0.0
 10
78.61328021663036
 20
-144.1193530195256
 30
0.0
 10
78.64083216037189
 20
-144.1193530195256
 30
0.0
 10
78.66323354868928
 20
-144.0969869084204
 30
0.0
 10
78.66323354868928
 20
-144.0693996862051
 30
0.0
  0
SPLINE
  5
B4
330
1F
100
AcDbEntity
  8
_U+30EC_U+30A4_U+30E4_U+30FC 1
 62
   179
420
  2234388
370
     9
100
AcDbSpline
210
0.0
220
0.0
230
1.0
 70
    11
 71
     3
 72
    17
 73
    13
 74
     0
 42
0.0000000001
 43
0.0000000001
 12
1.0
 22
0.0
 32
0.0
 13
1.0
 23
0.0
 33
0.0
 40
0.0
 40
0.0
 40
0.0
 40
0.0
 40
1.0
 40
1.0
 40
1.0
 40
2.0
 40
2.0
 40
2.0
 40
3.0
 40
3.0
 40
3.0
 40
4.0
 40
4.0
 40
4.0
 40
4.0
 10
78.66323354868928
 20
-130.0692371897047
 30
0.0
 10
78.66323354868928
 20
-130.0416852452675
 30
0.0
 10
78.64083216037189
 20
-130.0192838563842
 30
0.0
 10
78.61328021663036
 20
-130.0192838563842
 30
0.0
 10
78.58572827288882
 20
-130.0192838563842
 30
0.0
 10
78.56332688457144
 20
-130.0416852452675
 30
0.0
 10
78.56332688457144
 20
-130.0692371897047
 30
0.0
 10
78.56332688457144
 20
-130.0967891341425
 30
0.0
 10
78.58572827288882
 20
-130.1195433008036
 30
0.0
 10
78.61328021663036
 20
-130.1195433008036
 30
0.0
 10
78.64083216037189
 20
-130.1195433008036
 30
0.0
 10
78.66323354868928
 20
-130.0967891341425
 30
0.0
 10
78.66323354868928
 20
-130.0692371897047
 30
0.0
  0
SPLINE
  5
B5
330
1F
100
AcDbEntity
  8
_U+30EC_U+30A4_U+30E4_U+30FC 1
 62
   179
420
  2234388
370
     9
100
AcDbSpline
210
0.0
220
0.0
230
1.0
 70
    11
 71
     3
 72
    17
 73
    13
 74
     0
 42
0.0000000001
 43
0.0000000001
 12
1.0
 22
0.0
 32
0.0
 13
1.0
 23
0.0
 33
0.0
 40
0.0
 40
0.0
 40
0.0
 40
0.0
 40
1.0
 40
1.0
 40
1.0
 40
2.0
 40
2.0
 40
2.0
 40
3.0
 40
3.0
 40
3.0
 40
4.0
 40
4.0
 40
4.0
 40
4.0
 10
78.66323354868928
 20
-131.5692130226634
 30
0.0
 10
78.66323354868928
 20
-131.5416610782256
 30
0.0
 10
78.64083216037189
 20
-131.51961246712
 30
0.0
 10
78.61328021663036
 20
-131.51961246712
 30
0.0
 10
78.58572827288882
 20
-131.51961246712
 30
0.0
 10
78.56332688457144
 20
-131.5416610782256
 30
0.0
 10
78.56332688457144
 20
-131.5692130226634
 30
0.0
 10
78.56332688457144
 20
-131.5968002448787
 30
0.0
 10
78.58572827288882
 20
-131.6195191337617
 30
0.0
 10
78.61328021663036
 20
-131.6195191337617
 30
0.0
 10
78.64083216037189
 20
-131.6195191337617
 30
0.0
 10
78.66323354868928
 20
-131.5968002448787
 30
0.0
 10
78.66323354868928
 20
-131.5692130226634
 30
0.0
  0
SPLINE
  5
B6
330
1F
100
AcDbEntity
  8
_U+30EC_U+30A4_U+30E4_U+30FC 1
 62
   179
420
  2234388
370
     9
100
AcDbSpline
210
0.0
220
0.0
230
1.0
 70
    11
 71
     3
 72
    17
 73
    13
 74
     0
 42
0.0000000001
 43
0.0000000001
 12
1.0
 22
0.0
 32
0.0
 13
1.0
 23
0.0
 33
0.0
 40
0.0
 40
0.0
 40
0.0
 40
0.0
 40
1.0
 40
1.0
 40
1.0
 40
2.0
 40
2.0
 40
2.0
 40
3.0
 40
3.0
 40
3.0
 40
4.0
 40
4.0
 40
4.0
 40
4.0
 10
76.66337165526556
 20
-115.0693024712326
 30
0.0
 10
76.66337165526556
 20
-115.0417152490173
 30
0.0
 10
76.64097220306198
 20
-115.0193491379118
 30
0.0
 10
76.61341832320664
 20
-115.0193491379118
 30
0.0
 10
76.58568999058072
 20
-115.0193491379118
 30
0.0
 10
76.56328860226333
 20
-115.0417152490173
 30
0.0
 10
76.56328860226333
 20
-115.0693024712326
 30
0.0
 10
76.56328860226333
 20
-115.0968544156701
 30
0.0
 10
76.58568999058072
 20
-115.1195733045534
 30
0.0
 10
76.61341832320664
 20
-115.1195733045534
 30
0.0
 10
76.64097220306198
 20
-115.1195733045534
 30
0.0
 10
76.66337165526556
 20
-115.0968544156701
 30
0.0
 10
76.66337165526556
 20
-115.0693024712326
 30
0.0
  0
SPLINE
  5
B7
330
1F
100
AcDbEntity
  8
_U+30EC_U+30A4_U+30E4_U+30FC 1
 62
   179
420
  2234388
370
     9
100
AcDbSpline
210
0.0
220
0.0
230
1.0
 70
    11
 71
     3
 72
    17
 73
    13
 74
     0
 42
0.0000000001
 43
0.0000000001
 12
1.0
 22
0.0
 32
0.0
 13
1.0
 23
0.0
 33
0.0
 40
0.0
 40
0.0
 40
0.0
 40
0.0
 40
1.0
 40
1.0
 40
1.0
 40
2.0
 40
2.0
 40
2.0
 40
3.0
 40
3.0
 40
3.0
 40
4.0
 40
4.0
 40
4.0
 40
4.0
 10
78.66323354868928
 20
-115.0693024712326
 30
0.0
 10
78.66323354868928
 20
-115.0417152490173
 30
0.0
 10
78.64083216037189
 20
-115.0193491379118
 30
0.0
 10
78.61328021663036
 20
-115.0193491379118
 30
0.0
 10
78.58572827288882
 20
-115.0193491379118
 30
0.0
 10
78.56332688457144
 20
-115.0417152490173
 30
0.0
 10
78.56332688457144
 20
-115.0693024712326
 30
0.0
 10
78.56332688457144
 20
-115.0968544156701
 30
0.0
 10
78.58572827288882
 20
-115.1195733045534
 30
0.0
 10
78.61328021663036
 20
-115.1195733045534
 30
0.0
 10
78.64083216037189
 20
-115.1195733045534
 30
0.0
 10
78.66323354868928
 20
-115.0968544156701
 30
0.0
 10
78.66323354868928
 20
-115.0693024712326
 30
0.0
  0
SPLINE
  5
B8
330
1F
100
AcDbEntity
  8
_U+30EC_U+30A4_U+30E4_U+30FC 1
 62
   179
420
  2234388
370
     9
100
AcDbSpline
210
0.0
220
0.0
230
1.0
 70
    11
 71
     3
 72
    17
 73
    13
 74
     0
 42
0.0000000001
 43
0.0000000001
 12
1.0
 22
0.0
 32
0.0
 13
1.0
 23
0.0
 33
0.0
 40
0.0
 40
0.0
 40
0.0
 40
0.0
 40
1.0
 40
1.0
 40
1.0
 40
2.0
 40
2.0
 40
2.0
 40
3.0
 40
3.0
 40
3.0
 40
4.0
 40
4.0
 40
4.0
 40
4.0
 10
82.66334539108236
 20
-113.0694052495104
 30
0.0
 10
82.66334539108236
 20
-113.041853305073
 30
0.0
 10
82.64094400276498
 20
-113.0194519161896
 30
0.0
 10
82.61339205902344
 20
-113.0194519161896
 30
0.0
 10
82.58584011528191
 20
-113.0194519161896
 30
0.0
 10
82.56343872696453
 20
-113.041853305073
 30
0.0
 10
82.56343872696453
 20
-113.0694052495104
 30
0.0
 10
82.56343872696453
 20
-113.0969571939479
 30
0.0
 10
82.58584011528191
 20
-113.1193585828313
 30
0.0
 10
82.61339205902344
 20
-113.1193585828313
 30
0.0
 10
82.64094400276498
 20
-113.1193585828313
 30
0.0
 10
82.66334539108236
 20
-113.0969571939479
 30
0.0
 10
82.66334539108236
 20
-113.0694052495104
 30
0.0
  0
SPLINE
  5
B9
330
1F
100
AcDbEntity
  8
_U+30EC_U+30A4_U+30E4_U+30FC 1
 62
   179
420
  2234388
370
     9
100
AcDbSpline
210
0.0
220
0.0
230
1.0
 70
    11
 71
     3
 72
    17
 73
    13
 74
     0
 42
0.0000000001
 43
0.0000000001
 12
1.0
 22
0.0
 32
0.0
 13
1.0
 23
0.0
 33
0.0
 40
0.0
 40
0.0
 40
0.0
 40
0.0
 40
1.0
 40
1.0
 40
1.0
 40
2.0
 40
2.0
 40
2.0
 40
3.0
 40
3.0
 40
3.0
 40
4.0
 40
4.0
 40
4.0
 40
4.0
 10
95.1635317388427
 20
-113.0694052495104
 30
0.0
 10
95.1635317388427
 20
-113.041853305073
 30
0.0
 10
95.14077757275655
 20
-113.0194519161896
 30
0.0
 10
95.11322562901502
 20
-113.0194519161896
 30
0.0
 10
95.08567368527348
 20
-113.0194519161896
 30
0.0
 10
95.0632722969561
 20
-113.041853305073
 30
0.0
 10
95.0632722969561
 20
-113.0694052495104
 30
0.0
 10
95.0632722969561
 20
-113.0969571939479
 30
0.0
 10
95.08567368527348
 20
-113.1193585828313
 30
0.0
 10
95.11322562901502
 20
-113.1193585828313
 30
0.0
 10
95.14077757275655
 20
-113.1193585828313
 30
0.0
 10
95.1635317388427
 20
-113.0969571939479
 30
0.0
 10
95.1635317388427
 20
-113.0694052495104
 30
0.0
  0
POLYLINE
  5
BA
330
1F
100
AcDbEntity
  8
_U+30EC_U+30A4_U+30E4_U+30FC 1
 62
   179
420
  2234388
370
     9
100
AcDb2dPolyline
 66
     1
 10
0.0
 20
0.0
 30
0.0
  0
VERTEX
  5
BB
330
BA
100
AcDbEntity
  8
_U+30EC_U+30A4_U+30E4_U+30FC 1
 62
   179
420
  2234388
370
     9
100
AcDbVertex
100
AcDb2dVertex
 10
95.11322562901502
 20
-113.0694052495104
 30
0.0
  0
VERTEX
  5
BC
330
BA
100
AcDbEntity
  8
_U+30EC_U+30A4_U+30E4_U+30FC 1
 62
   179
420
  2234388
370
     9
100
AcDbVertex
100
AcDb2dVertex
 10
82.61339205902344
 20
-113.0694052495104
 30
0.0
  0
SEQEND
  5
BD
330
BA
100
AcDbEntity
  8
_U+30EC_U+30A4_U+30E4_U+30FC 1
 62
   179
420
  2234388
370
     9
  0
POLYLINE
  5
BE
330
1F
100
AcDbEntity
  8
_U+30EC_U+30A4_U+30E4_U+30FC 1
 62
   179
420
  2234388
370
     9
100
AcDb2dPolyline
 66
     1
 10
0.0
 20
0.0
 30
0.0
  0
VERTEX
  5
BF
330
BE
100
AcDbEntity
  8
_U+30EC_U+30A4_U+30E4_U+30FC 1
 62
   179
420
  2234388
370
     9
100
AcDbVertex
100
AcDb2dVertex
 10
95.11322562901502
 20
-113.7994435826614
 30
0.0
  0
VERTEX
  5
C0
330
BE
100
AcDbEntity
  8
_U+30EC_U+30A4_U+30E4_U+30FC 1
 62
   179
420
  2234388
370
     9
100
AcDbVertex
100
AcDb2dVertex
 10
95.11322562901502
 20
-112.5695191385242
 30
0.0
  0
SEQEND
  5
C1
330
BE
100
AcDbEntity
  8
_U+30EC_U+30A4_U+30E4_U+30FC 1
 62
   179
420
  2234388
370
     9
  0
POLYLINE
  5
C2
330
1F
100
AcDbEntity
  8
_U+30EC_U+30A4_U+30E4_U+30FC 1
 62
   179
420
  2234388
370
     9
100
AcDb2dPolyline
 66
     1
 10
0.0
 20
0.0
 30
0.0
  0
VERTEX
  5
C3
330
C2
100
AcDbEntity
  8
_U+30EC_U+30A4_U+30E4_U+30FC 1
 62
   179
420
  2234388
370
     9
100
AcDbVertex
100
AcDb2dVertex
 10
82.61339205902344
 20
-130.2993541340921
 30
0.0
  0
VERTEX
  5
C4
330
C2
100
AcDbEntity
  8
_U+30EC_U+30A4_U+30E4_U+30FC 1
 62
   179
420
  2234388
370
     9
100
AcDbVertex
100
AcDb2dVertex
 10
82.61339205902344
 20
-112.5695191385242
 30
0.0
  0
SEQEND
  5
C5
330
C2
100
AcDbEntity
  8
_U+30EC_U+30A4_U+30E4_U+30FC 1
 62
   179
420
  2234388
370
     9
  0
INSERT
  5
C7
330
1F
100
AcDbEntity
  8
_U+30EC_U+30A4_U+30E4_U+30FC 1
100
AcDbBlockReference
  2
block 2
 10
0.0
 20
0.0
 30
0.0
  0
POLYLINE
  5
CE
330
1F
100
AcDbEntity
  8
_U+30EC_U+30A4_U+30E4_U+30FC 1
 62
   179
420
  2234388
370
     9
100
AcDb2dPolyline
 66
     1
 10
0.0
 20
0.0
 30
0.0
  0
VERTEX
  5
CF
330
CE
100
AcDbEntity
  8
_U+30EC_U+30A4_U+30E4_U+30FC 1
 62
   179
420
  2234388
370
     9
100
AcDbVertex
100
AcDb2dVertex
 10
82.61339205902344
 20
-146.0696496857051
 30
0.0
  0
VERTEX
  5
D0
330
CE
100
AcDbEntity
  8
_U+30EC_U+30A4_U+30E4_U+30FC 1
 62
   179
420
  2234388
370
     9
100
AcDbVertex
100
AcDb2dVertex
 10
95.11322562901502
 20
-146.0696496857051
 30
0.0
  0
SEQEND
  5
D1
330
CE
100
AcDbEntity
  8
_U+30EC_U+30A4_U+30E4_U+30FC 1
 62
   179
420
  2234388
370
     9
  0
POLYLINE
  5
D2
330
1F
100
AcDbEntity
  8
_U+30EC_U+30A4_U+30E4_U+30FC 1
 62
   179
420
  2234388
370
     9
100
AcDb2dPolyline
 66
     1
 10
0.0
 20
0.0
 30
0.0
  0
VERTEX
  5
D3
330
D2
100
AcDbEntity
  8
_U+30EC_U+30A4_U+30E4_U+30FC 1
 62
   179
420
  2234388
370
     9
100
AcDbVertex
100
AcDb2dVertex
 10
82.61339205902344
 20
-145.3392938525539
 30
0.0
  0
VERTEX
  5
D4
330
D2
100
AcDbEntity
  8
_U+30EC_U+30A4_U+30E4_U+30FC 1
 62
   179
420
  2234388
370
     9
100
AcDbVertex
100
AcDb2dVertex
 10
82.61339205902344
 20
-146.5691830189133
 30
0.0
  0
SEQEND
  5
D5
330
D2
100
AcDbEntity
  8
_U+30EC_U+30A4_U+30E4_U+30FC 1
 62
   179
420
  2234388
370
     9
  0
POLYLINE
  5
D6
330
1F
100
AcDbEntity
  8
_U+30EC_U+30A4_U+30E4_U+30FC 1
 62
   179
420
  2234388
370
     9
100
AcDb2dPolyline
 66
     1
 10
0.0
 20
0.0
 30
0.0
  0
VERTEX
  5
D7
330
D6
100
AcDbEntity
  8
_U+30EC_U+30A4_U+30E4_U+30FC 1
 62
   179
420
  2234388
370
     9
100
AcDbVertex
100
AcDb2dVertex
 10
95.11322562901502
 20
-145.3392938525539
 30
0.0
  0
VERTEX
  5
D8
330
D6
100
AcDbEntity
  8
_U+30EC_U+30A4_U+30E4_U+30FC 1
 62
   179
420
  2234388
370
     9
100
AcDbVertex
100
AcDb2dVertex
 10
95.11322562901502
 20
-146.5691830189133
 30
0.0
  0
SEQEND
  5
D9
330
D6
100
AcDbEntity
  8
_U+30EC_U+30A4_U+30E4_U+30FC 1
 62
   179
420
  2234388
370
     9
  0
INSERT
  5
DB
330
1F
100
AcDbEntity
  8
_U+30EC_U+30A4_U+30E4_U+30FC 1
100
AcDbBlockReference
  2
block 3
 10
0.0
 20
0.0
 30
0.0
  0
POLYLINE
  5
E2
330
1F
100
AcDbEntity
  8
_U+30EC_U+30A4_U+30E4_U+30FC 1
 62
   179
420
  2234388
370
     9
100
AcDb2dPolyline
 66
     1
 10
0.0
 20
0.0
 30
0.0
  0
VERTEX
  5
E3
330
E2
100
AcDbEntity
  8
_U+30EC_U+30A4_U+30E4_U+30FC 1
 62
   179
420
  2234388
370
     9
100
AcDbVertex
100
AcDb2dVertex
 10
95.11322562901502
 20
-146.0696496857051
 30
0.0
  0
VERTEX
  5
E4
330
E2
100
AcDbEntity
  8
_U+30EC_U+30A4_U+30E4_U+30FC 1
 62
   179
420
  2234388
370
     9
100
AcDbVertex
100
AcDb2dVertex
 10
105.1133138626108
 20
-146.0696496857051
 30
0.0
  0
SEQEND
  5
E5
330
E2
100
AcDbEntity
  8
_U+30EC_U+30A4_U+30E4_U+30FC 1
 62
   179
420
  2234388
370
     9
  0
POLYLINE
  5
E6
330
1F
100
AcDbEntity
  8
_U+30EC_U+30A4_U+30E4_U+30FC 1
 62
   179
420
  2234388
370
     9
100
AcDb2dPolyline
 66
     1
 10
0.0
 20
0.0
 30
0.0
  0
VERTEX
  5
E7
330
E6
100
AcDbEntity
  8
_U+30EC_U+30A4_U+30E4_U+30FC 1
 62
   179
420
  2234388
370
     9
100
AcDbVertex
100
AcDb2dVertex
 10
105.1133138626108
 20
-145.3392938525539
 30
0.0
  0
VERTEX
  5
E8
330
E6
100
AcDbEntity
  8
_U+30EC_U+30A4_U+30E4_U+30FC 1
 62
   179
420
  2234388
370
     9
100
AcDbVertex
100
AcDb2dVertex
 10
105.1133138626108
 20
-146.5691830189133
 30
0.0
  0
SEQEND
  5
E9
330
E6
100
AcDbEntity
  8
_U+30EC_U+30A4_U+30E4_U+30FC 1
 62
   179
420
  2234388
370
     9
  0
INSERT
  5
EB
330
1F
100
AcDbEntity
  8
_U+30EC_U+30A4_U+30E4_U+30FC 1
100
AcDbBlockReference
  2
block 4
 10
0.0
 20
0.0
 30
0.0
  0
POLYLINE
  5
F3
330
1F
100
AcDbEntity
  8
_U+30EC_U+30A4_U+30E4_U+30FC 1
 62
   179
420
  2234388
370
     9
100
AcDb2dPolyline
 66
     1
 10
0.0
 20
0.0
 30
0.0
  0
VERTEX
  5
F4
330
F3
100
AcDbEntity
  8
_U+30EC_U+30A4_U+30E4_U+30FC 1
 62
   179
420
  2234388
370
     9
100
AcDbVertex
100
AcDb2dVertex
 10
103.2133207001421
 20
-138.0694257988158
 30
0.0
  0
VERTEX
  5
F5
330
F3
100
AcDbEntity
  8
_U+30EC_U+30A4_U+30E4_U+30FC 1
 62
   179
420
  2234388
370
     9
100
AcDbVertex
100
AcDb2dVertex
 10
100.5843854894341
 20
-138.0694257988158
 30
0.0
  0
SEQEND
  5
F6
330
F3
100
AcDbEntity
  8
_U+30EC_U+30A4_U+30E4_U+30FC 1
 62
   179
420
  2234388
370
     9
  0
POLYLINE
  5
F7
330
1F
100
AcDbEntity
  8
_U+30EC_U+30A4_U+30E4_U+30FC 1
 62
   179
420
  2234388
370
     9
100
AcDb2dPolyline
 66
     1
 10
0.0
 20
0.0
 30
0.0
  0
VERTEX
  5
F8
330
F7
100
AcDbEntity
  8
_U+30EC_U+30A4_U+30E4_U+30FC 1
 62
   179
420
  2234388
370
     9
100
AcDbVertex
100
AcDb2dVertex
 10
103.2133207001421
 20
-138.0694257988158
 30
0.0
  0
VERTEX
  5
F9
330
F7
100
AcDbEntity
  8
_U+30EC_U+30A4_U+30E4_U+30FC 1
 62
   179
420
  2234388
370
     9
100
AcDbVertex
100
AcDb2dVertex
 10
105.1133138626108
 20
-138.0694257988158
 30
0.0
  0
SEQEND
  5
FA
330
F7
100
AcDbEntity
  8
_U+30EC_U+30A4_U+30E4_U+30FC 1
 62
   179
420
  2234388
370
     9
  0
POLYLINE
  5
FB
330
1F
100
AcDbEntity
  8
_U+30EC_U+30A4_U+30E4_U+30FC 1
 62
   179
420
  2234388
370
     9
100
AcDb2dPolyline
 66
     1
 10
0.0
 20
0.0
 30
0.0
  0
VERTEX
  5
FC
330
FB
100
AcDbEntity
  8
_U+30EC_U+30A4_U+30E4_U+30FC 1
 62
   179
420
  2234388
370
     9
100
AcDbVertex
100
AcDb2dVertex
 10
103.2133207001421
 20
-138.7994641319667
 30
0.0
  0
VERTEX
  5
FD
330
FB
100
AcDbEntity
  8
_U+30EC_U+30A4_U+30E4_U+30FC 1
 62
   179
420
  2234388
370
     9
100
AcDbVertex
100
AcDb2dVertex
 10
103.2133207001421
 20
-137.5692221878296
 30
0.0
  0
SEQEND
  5
FE
330
FB
100
AcDbEntity
  8
_U+30EC_U+30A4_U+30E4_U+30FC 1
 62
   179
420
  2234388
370
     9
  0
POLYLINE
  5
FF
330
1F
100
AcDbEntity
  8
_U+30EC_U+30A4_U+30E4_U+30FC 1
 62
   179
420
  2234388
370
     9
100
AcDb2dPolyline
 66
     1
 10
0.0
 20
0.0
 30
0.0
  0
VERTEX
  5
100
330
FF
100
AcDbEntity
  8
_U+30EC_U+30A4_U+30E4_U+30FC 1
 62
   179
420
  2234388
370
     9
100
AcDbVertex
100
AcDb2dVertex
 10
105.1133138626108
 20
-138.7994641319667
 30
0.0
  0
VERTEX
  5
101
330
FF
100
AcDbEntity
  8
_U+30EC_U+30A4_U+30E4_U+30FC 1
 62
   179
420
  2234388
370
     9
100
AcDbVertex
100
AcDb2dVertex
 10
105.1133138626108
 20
-137.5692221878296
 30
0.0
  0
SEQEND
  5
102
330
FF
100
AcDbEntity
  8
_U+30EC_U+30A4_U+30E4_U+30FC 1
 62
   179
420
  2234388
370
     9
  0
INSERT
  5
104
330
1F
100
AcDbEntity
  8
_U+30EC_U+30A4_U+30E4_U+30FC 1
100
AcDbBlockReference
  2
block 5
 10
0.0
 20
0.0
 30
0.0
  0
POLYLINE
  5
115
330
1F
100
AcDbEntity
  8
_U+30EC_U+30A4_U+30E4_U+30FC 1
 62
   179
420
  2234388
370
     9
100
AcDb2dPolyline
 66
     1
 10
0.0
 20
0.0
 30
0.0
  0
VERTEX
  5
116
330
115
100
AcDbEntity
  8
_U+30EC_U+30A4_U+30E4_U+30FC 1
 62
   179
420
  2234388
370
     9
100
AcDbVertex
100
AcDb2dVertex
 10
107.1131731006486
 20
-140.069323020538
 30
0.0
  0
VERTEX
  5
117
330
115
100
AcDbEntity
  8
_U+30EC_U+30A4_U+30E4_U+30FC 1
 62
   179
420
  2234388
370
     9
100
AcDbVertex
100
AcDb2dVertex
 10
107.1131731006486
 20
-144.0693996862051
 30
0.0
  0
SEQEND
  5
118
330
115
100
AcDbEntity
  8
_U+30EC_U+30A4_U+30E4_U+30FC 1
 62
   179
420
  2234388
370
     9
  0
POLYLINE
  5
119
330
1F
100
AcDbEntity
  8
_U+30EC_U+30A4_U+30E4_U+30FC 1
 62
   179
420
  2234388
370
     9
100
AcDb2dPolyline
 66
     1
 10
0.0
 20
0.0
 30
0.0
  0
VERTEX
  5
11A
330
119
100
AcDbEntity
  8
_U+30EC_U+30A4_U+30E4_U+30FC 1
 62
   179
420
  2234388
370
     9
100
AcDbVertex
100
AcDb2dVertex
 10
106.3835228414858
 20
-140.069323020538
 30
0.0
  0
VERTEX
  5
11B
330
119
100
AcDbEntity
  8
_U+30EC_U+30A4_U+30E4_U+30FC 1
 62
   179
420
  2234388
370
     9
100
AcDbVertex
100
AcDb2dVertex
 10
107.6134119767754
 20
-140.069323020538
 30
0.0
  0
SEQEND
  5
11C
330
119
100
AcDbEntity
  8
_U+30EC_U+30A4_U+30E4_U+30FC 1
 62
   179
420
  2234388
370
     9
  0
POLYLINE
  5
11D
330
1F
100
AcDbEntity
  8
_U+30EC_U+30A4_U+30E4_U+30FC 1
 62
   179
420
  2234388
370
     9
100
AcDb2dPolyline
 66
     1
 10
0.0
 20
0.0
 30
0.0
  0
VERTEX
  5
11E
330
11D
100
AcDbEntity
  8
_U+30EC_U+30A4_U+30E4_U+30FC 1
 62
   179
420
  2234388
370
     9
100
AcDbVertex
100
AcDb2dVertex
 10
106.3835228414858
 20
-144.0693996862051
 30
0.0
  0
VERTEX
  5
11F
330
11D
100
AcDbEntity
  8
_U+30EC_U+30A4_U+30E4_U+30FC 1
 62
   179
420
  2234388
370
     9
100
AcDbVertex
100
AcDb2dVertex
 10
107.6134119767754
 20
-144.0693996862051
 30
0.0
  0
SEQEND
  5
120
330
11D
100
AcDbEntity
  8
_U+30EC_U+30A4_U+30E4_U+30FC 1
 62
   179
420
  2234388
370
     9
  0
INSERT
  5
122
330
1F
100
AcDbEntity
  8
_U+30EC_U+30A4_U+30E4_U+30FC 1
100
AcDbBlockReference
  2
block 6
 10
0.0
 20
0.0
 30
0.0
  0
POLYLINE
  5
129
330
1F
100
AcDbEntity
  8
_U+30EC_U+30A4_U+30E4_U+30FC 1
 62
   179
420
  2234388
370
     9
100
AcDb2dPolyline
 66
     1
 10
0.0
 20
0.0
 30
0.0
  0
VERTEX
  5
12A
330
129
100
AcDbEntity
  8
_U+30EC_U+30A4_U+30E4_U+30FC 1
 62
   179
420
  2234388
370
     9
100
AcDbVertex
100
AcDb2dVertex
 10
80.61349488782285
 20
-144.0693996862051
 30
0.0
  0
VERTEX
  5
12B
330
129
100
AcDbEntity
  8
_U+30EC_U+30A4_U+30E4_U+30FC 1
 62
   179
420
  2234388
370
     9
100
AcDbVertex
100
AcDb2dVertex
 10
80.61349488782285
 20
-141.5692988534967
 30
0.0
  0
SEQEND
  5
12C
330
129
100
AcDbEntity
  8
_U+30EC_U+30A4_U+30E4_U+30FC 1
 62
   179
420
  2234388
370
     9
  0
POLYLINE
  5
12D
330
1F
100
AcDbEntity
  8
_U+30EC_U+30A4_U+30E4_U+30FC 1
 62
   179
420
  2234388
370
     9
100
AcDb2dPolyline
 66
     1
 10
0.0
 20
0.0
 30
0.0
  0
VERTEX
  5
12E
330
12D
100
AcDbEntity
  8
_U+30EC_U+30A4_U+30E4_U+30FC 1
 62
   179
420
  2234388
370
     9
100
AcDbVertex
100
AcDb2dVertex
 10
81.34318042476258
 20
-144.0693996862051
 30
0.0
  0
VERTEX
  5
12F
330
12D
100
AcDbEntity
  8
_U+30EC_U+30A4_U+30E4_U+30FC 1
 62
   179
420
  2234388
370
     9
100
AcDbVertex
100
AcDb2dVertex
 10
80.113291289473
 20
-144.0693996862051
 30
0.0
  0
SEQEND
  5
130
330
12D
100
AcDbEntity
  8
_U+30EC_U+30A4_U+30E4_U+30FC 1
 62
   179
420
  2234388
370
     9
  0
POLYLINE
  5
131
330
1F
100
AcDbEntity
  8
_U+30EC_U+30A4_U+30E4_U+30FC 1
 62
   179
420
  2234388
370
     9
100
AcDb2dPolyline
 66
     1
 10
0.0
 20
0.0
 30
0.0
  0
VERTEX
  5
132
330
131
100
AcDbEntity
  8
_U+30EC_U+30A4_U+30E4_U+30FC 1
 62
   179
420
  2234388
370
     9
100
AcDbVertex
100
AcDb2dVertex
 10
81.94332596500715
 20
-141.5692988534967
 30
0.0
  0
VERTEX
  5
133
330
131
100
AcDbEntity
  8
_U+30EC_U+30A4_U+30E4_U+30FC 1
 62
   179
420
  2234388
370
     9
100
AcDbVertex
100
AcDb2dVertex
 10
80.113291289473
 20
-141.5692988534967
 30
0.0
  0
SEQEND
  5
134
330
131
100
AcDbEntity
  8
_U+30EC_U+30A4_U+30E4_U+30FC 1
 62
   179
420
  2234388
370
     9
  0
INSERT
  5
136
330
1F
100
AcDbEntity
  8
_U+30EC_U+30A4_U+30E4_U+30FC 1
100
AcDbBlockReference
  2
block 7
 10
0.0
 20
0.0
 30
0.0
  0
POLYLINE
  5
13B
330
1F
100
AcDbEntity
  8
_U+30EC_U+30A4_U+30E4_U+30FC 1
 62
   179
420
  2234388
370
     9
100
AcDb2dPolyline
 66
     1
 10
0.0
 20
0.0
 30
0.0
  0
VERTEX
  5
13C
330
13B
100
AcDbEntity
  8
_U+30EC_U+30A4_U+30E4_U+30FC 1
 62
   179
420
  2234388
370
     9
100
AcDbVertex
100
AcDb2dVertex
 10
78.61328021663036
 20
-144.0693996862051
 30
0.0
  0
VERTEX
  5
13D
330
13B
100
AcDbEntity
  8
_U+30EC_U+30A4_U+30E4_U+30FC 1
 62
   179
420
  2234388
370
     9
100
AcDbVertex
100
AcDb2dVertex
 10
78.61328021663036
 20
-131.5692130226634
 30
0.0
  0
SEQEND
  5
13E
330
13B
100
AcDbEntity
  8
_U+30EC_U+30A4_U+30E4_U+30FC 1
 62
   179
420
  2234388
370
     9
  0
POLYLINE
  5
13F
330
1F
100
AcDbEntity
  8
_U+30EC_U+30A4_U+30E4_U+30FC 1
 62
   179
420
  2234388
370
     9
100
AcDb2dPolyline
 66
     1
 10
0.0
 20
0.0
 30
0.0
  0
VERTEX
  5
140
330
13F
100
AcDbEntity
  8
_U+30EC_U+30A4_U+30E4_U+30FC 1
 62
   179
420
  2234388
370
     9
100
AcDbVertex
100
AcDb2dVertex
 10
81.34318042476258
 20
-144.0693996862051
 30
0.0
  0
VERTEX
  5
141
330
13F
100
AcDbEntity
  8
_U+30EC_U+30A4_U+30E4_U+30FC 1
 62
   179
420
  2234388
370
     9
100
AcDbVertex
100
AcDb2dVertex
 10
78.1133941182724
 20
-144.0693996862051
 30
0.0
  0
SEQEND
  5
142
330
13F
100
AcDbEntity
  8
_U+30EC_U+30A4_U+30E4_U+30FC 1
 62
   179
420
  2234388
370
     9
  0
POLYLINE
  5
143
330
1F
100
AcDbEntity
  8
_U+30EC_U+30A4_U+30E4_U+30FC 1
 62
   179
420
  2234388
370
     9
100
AcDb2dPolyline
 66
     1
 10
0.0
 20
0.0
 30
0.0
  0
VERTEX
  5
144
330
143
100
AcDbEntity
  8
_U+30EC_U+30A4_U+30E4_U+30FC 1
 62
   179
420
  2234388
370
     9
100
AcDbVertex
100
AcDb2dVertex
 10
81.34318042476258
 20
-131.5692130226634
 30
0.0
  0
VERTEX
  5
145
330
143
100
AcDbEntity
  8
_U+30EC_U+30A4_U+30E4_U+30FC 1
 62
   179
420
  2234388
370
     9
100
AcDbVertex
100
AcDb2dVertex
 10
78.1133941182724
 20
-131.5692130226634
 30
0.0
  0
SEQEND
  5
146
330
143
100
AcDbEntity
  8
_U+30EC_U+30A4_U+30E4_U+30FC 1
 62
   179
420
  2234388
370
     9
  0
INSERT
  5
148
330
1F
100
AcDbEntity
  8
_U+30EC_U+30A4_U+30E4_U+30FC 1
100
AcDbBlockReference
  2
block 8
 10
0.0
 20
0.0
 30
0.0
  0
POLYLINE
  5
14F
330
1F
100
AcDbEntity
  8
_U+30EC_U+30A4_U+30E4_U+30FC 1
 62
   179
420
  2234388
370
     9
100
AcDb2dPolyline
 66
     1
 10
0.0
 20
0.0
 30
0.0
  0
VERTEX
  5
150
330
14F
100
AcDbEntity
  8
_U+30EC_U+30A4_U+30E4_U+30FC 1
 62
   179
420
  2234388
370
     9
100
AcDbVertex
100
AcDb2dVertex
 10
78.61328021663036
 20
-131.5692130226634
 30
0.0
  0
VERTEX
  5
151
330
14F
100
AcDbEntity
  8
_U+30EC_U+30A4_U+30E4_U+30FC 1
 62
   179
420
  2234388
370
     9
100
AcDbVertex
100
AcDb2dVertex
 10
78.61328021663036
 20
-130.0692371897047
 30
0.0
  0
SEQEND
  5
152
330
14F
100
AcDbEntity
  8
_U+30EC_U+30A4_U+30E4_U+30FC 1
 62
   179
420
  2234388
370
     9
  0
POLYLINE
  5
153
330
1F
100
AcDbEntity
  8
_U+30EC_U+30A4_U+30E4_U+30FC 1
 62
   179
420
  2234388
370
     9
100
AcDb2dPolyline
 66
     1
 10
0.0
 20
0.0
 30
0.0
  0
VERTEX
  5
154
330
153
100
AcDbEntity
  8
_U+30EC_U+30A4_U+30E4_U+30FC 1
 62
   179
420
  2234388
370
     9
100
AcDbVertex
100
AcDb2dVertex
 10
93.84336677252293
 20
-130.0692371897047
 30
0.0
  0
VERTEX
  5
155
330
153
100
AcDbEntity
  8
_U+30EC_U+30A4_U+30E4_U+30FC 1
 62
   179
420
  2234388
370
     9
100
AcDbVertex
100
AcDb2dVertex
 10
78.1133941182724
 20
-130.0692371897047
 30
0.0
  0
SEQEND
  5
156
330
153
100
AcDbEntity
  8
_U+30EC_U+30A4_U+30E4_U+30FC 1
 62
   179
420
  2234388
370
     9
  0
INSERT
  5
158
330
1F
100
AcDbEntity
  8
_U+30EC_U+30A4_U+30E4_U+30FC 1
100
AcDbBlockReference
  2
block 9
 10
0.0
 20
0.0
 30
0.0
  0
POLYLINE
  5
15D
330
1F
100
AcDbEntity
  8
_U+30EC_U+30A4_U+30E4_U+30FC 1
 62
   179
420
  2234388
370
     9
100
AcDb2dPolyline
 66
     1
 10
0.0
 20
0.0
 30
0.0
  0
VERTEX
  5
15E
330
15D
100
AcDbEntity
  8
_U+30EC_U+30A4_U+30E4_U+30FC 1
 62
   179
420
  2234388
370
     9
100
AcDbVertex
100
AcDb2dVertex
 10
78.61328021663036
 20
-115.0693024712326
 30
0.0
  0
VERTEX
  5
15F
330
15D
100
AcDbEntity
  8
_U+30EC_U+30A4_U+30E4_U+30FC 1
 62
   179
420
  2234388
370
     9
100
AcDbVertex
100
AcDb2dVertex
 10
78.61328021663036
 20
-130.0692371897047
 30
0.0
  0
SEQEND
  5
160
330
15D
100
AcDbEntity
  8
_U+30EC_U+30A4_U+30E4_U+30FC 1
 62
   179
420
  2234388
370
     9
  0
POLYLINE
  5
161
330
1F
100
AcDbEntity
  8
_U+30EC_U+30A4_U+30E4_U+30FC 1
 62
   179
420
  2234388
370
     9
100
AcDb2dPolyline
 66
     1
 10
0.0
 20
0.0
 30
0.0
  0
VERTEX
  5
162
330
161
100
AcDbEntity
  8
_U+30EC_U+30A4_U+30E4_U+30FC 1
 62
   179
420
  2234388
370
     9
100
AcDbVertex
100
AcDb2dVertex
 10
93.84336677252293
 20
-115.0693024712326
 30
0.0
  0
VERTEX
  5
163
330
161
100
AcDbEntity
  8
_U+30EC_U+30A4_U+30E4_U+30FC 1
 62
   179
420
  2234388
370
     9
100
AcDbVertex
100
AcDb2dVertex
 10
78.1133941182724
 20
-115.0693024712326
 30
0.0
  0
SEQEND
  5
164
330
161
100
AcDbEntity
  8
_U+30EC_U+30A4_U+30E4_U+30FC 1
 62
   179
420
  2234388
370
     9
  0
POLYLINE
  5
165
330
1F
100
AcDbEntity
  8
_U+30EC_U+30A4_U+30E4_U+30FC 1
 62
   179
420
  2234388
370
     9
100
AcDb2dPolyline
 66
     1
 10
0.0
 20
0.0
 30
0.0
  0
VERTEX
  5
166
330
165
100
AcDbEntity
  8
_U+30EC_U+30A4_U+30E4_U+30FC 1
 62
   179
420
  2234388
370
     9
100
AcDbVertex
100
AcDb2dVertex
 10
93.84336677252293
 20
-130.0692371897047
 30
0.0
  0
VERTEX
  5
167
330
165
100
AcDbEntity
  8
_U+30EC_U+30A4_U+30E4_U+30FC 1
 62
   179
420
  2234388
370
     9
100
AcDbVertex
100
AcDb2dVertex
 10
78.1133941182724
 20
-130.0692371897047
 30
0.0
  0
SEQEND
  5
168
330
165
100
AcDbEntity
  8
_U+30EC_U+30A4_U+30E4_U+30FC 1
 62
   179
420
  2234388
370
     9
  0
INSERT
  5
16A
330
1F
100
AcDbEntity
  8
_U+30EC_U+30A4_U+30E4_U+30FC 1
100
AcDbBlockReference
  2
block 10
 10
0.0
 20
0.0
 30
0.0
  0
POLYLINE
  5
172
330
1F
100
AcDbEntity
  8
_U+30EC_U+30A4_U+30E4_U+30FC 1
 62
   179
420
  2234388
370
     9
100
AcDb2dPolyline
 66
     1
 10
0.0
 20
0.0
 30
0.0
  0
VERTEX
  5
173
330
172
100
AcDbEntity
  8
_U+30EC_U+30A4_U+30E4_U+30FC 1
 62
   179
420
  2234388
370
     9
100
AcDbVertex
100
AcDb2dVertex
 10
76.61341832320664
 20
-115.0693024712326
 30
0.0
  0
VERTEX
  5
174
330
172
100
AcDbEntity
  8
_U+30EC_U+30A4_U+30E4_U+30FC 1
 62
   179
420
  2234388
370
     9
100
AcDbVertex
100
AcDb2dVertex
 10
76.61341832320664
 20
-144.0693996862051
 30
0.0
  0
SEQEND
  5
175
330
172
100
AcDbEntity
  8
_U+30EC_U+30A4_U+30E4_U+30FC 1
 62
   179
420
  2234388
370
     9
  0
POLYLINE
  5
176
330
1F
100
AcDbEntity
  8
_U+30EC_U+30A4_U+30E4_U+30FC 1
 62
   179
420
  2234388
370
     9
100
AcDb2dPolyline
 66
     1
 10
0.0
 20
0.0
 30
0.0
  0
VERTEX
  5
177
330
176
100
AcDbEntity
  8
_U+30EC_U+30A4_U+30E4_U+30FC 1
 62
   179
420
  2234388
370
     9
100
AcDbVertex
100
AcDb2dVertex
 10
93.84336677252293
 20
-115.0693024712326
 30
0.0
  0
VERTEX
  5
178
330
176
100
AcDbEntity
  8
_U+30EC_U+30A4_U+30E4_U+30FC 1
 62
   179
420
  2234388
370
     9
100
AcDbVertex
100
AcDb2dVertex
 10
76.1133558359643
 20
-115.0693024712326
 30
0.0
  0
SEQEND
  5
179
330
176
100
AcDbEntity
  8
_U+30EC_U+30A4_U+30E4_U+30FC 1
 62
   179
420
  2234388
370
     9
  0
POLYLINE
  5
17A
330
1F
100
AcDbEntity
  8
_U+30EC_U+30A4_U+30E4_U+30FC 1
 62
   179
420
  2234388
370
     9
100
AcDb2dPolyline
 66
     1
 10
0.0
 20
0.0
 30
0.0
  0
VERTEX
  5
17B
330
17A
100
AcDbEntity
  8
_U+30EC_U+30A4_U+30E4_U+30FC 1
 62
   179
420
  2234388
370
     9
100
AcDbVertex
100
AcDb2dVertex
 10
81.34318042476258
 20
-144.0693996862051
 30
0.0
  0
VERTEX
  5
17C
330
17A
100
AcDbEntity
  8
_U+30EC_U+30A4_U+30E4_U+30FC 1
 62
   179
420
  2234388
370
     9
100
AcDbVertex
100
AcDb2dVertex
 10
76.1133558359643
 20
-144.0693996862051
 30
0.0
  0
SEQEND
  5
17D
330
17A
100
AcDbEntity
  8
_U+30EC_U+30A4_U+30E4_U+30FC 1
 62
   179
420
  2234388
370
     9
  0
INSERT
  5
17F
330
1F
100
AcDbEntity
  8
_U+30EC_U+30A4_U+30E4_U+30FC 1
100
AcDbBlockReference
  2
block 11
 10
0.0
 20
0.0
 30
0.0
  0
ENDSEC
  0
SECTION
  2
OBJECTS
  0
DICTIONARY
  5
C
330
0
100
AcDbDictionary
281
     1
  3
ACAD_GROUP
350
D
  3
ACAD_LAYOUT
350
1A
  3
ACAD_MATERIAL
350
3B
  3
ACAD_MLEADERSTYLE
350
189
  3
ACAD_MLINESTYLE
350
17
  3
ACAD_PLOTSETTINGS
350
19
  3
ACAD_PLOTSTYLENAME
350
E
  3
ACAD_TABLESTYLE
350
188
  3
ACAD_VISUALSTYLE
350
2A
  0
SUN
  5
3F
330
29
100
AcDbSun
 90
        1
290
     0
 63
     7
421
 16777215
 40
1.0
291
     1
 91
  2455826
 92
 54000000
292
     0
 70
     2
 71
   256
280
     1
  0
DICTIONARY
  5
D
102
{ACAD_REACTORS
330
C
102
}
330
C
100
AcDbDictionary
281
     1
  0
DICTIONARY
  5
1A
102
{ACAD_REACTORS
330
C
102
}
330
C
100
AcDbDictionary
281
     1
  3
Layout1
350
1E
  3
Layout2
350
26
  3
Model
350
22
  0
DICTIONARY
  5
3B
102
{ACAD_REACTORS
330
C
102
}
330
C
100
AcDbDictionary
281
     1
  3
ByBlock
350
3D
  3
ByLayer
350
3C
  3
Global
350
3E
  0
DICTIONARY
  5
189
102
{ACAD_REACTORS
330
C
102
}
330
C
100
AcDbDictionary
281
     1
  0
DICTIONARY
  5
17
102
{ACAD_REACTORS
330
C
102
}
330
C
100
AcDbDictionary
281
     1
  3
Standard
350
18
  0
DICTIONARY
  5
19
102
{ACAD_REACTORS
330
C
102
}
330
C
100
AcDbDictionary
281
     1
  0
ACDBDICTIONARYWDFLT
  5
E
102
{ACAD_REACTORS
330
C
102
}
330
C
100
AcDbDictionary
281
     1
  3
Normal
350
F
100
AcDbDictionaryWithDefault
340
F
  0
DICTIONARY
  5
188
102
{ACAD_REACTORS
330
C
102
}
330
C
100
AcDbDictionary
281
     1
  0
DICTIONARY
  5
2A
102
{ACAD_REACTORS
330
C
102
}
330
C
100
AcDbDictionary
281
     1
  3
2dWireframe
350
2F
  3
3D Hidden
350
31
  3
3dWireframe
350
30
  3
Basic
350
32
  3
Brighten
350
36
  3
ColorChange
350
3A
  3
Conceptual
350
34
  3
Dim
350
35
  3
Facepattern
350
39
  3
Flat
350
2B
  3
FlatWithEdges
350
2C
  3
Gouraud
350
2D
  3
GouraudWithEdges
350
2E
  3
Linepattern
350
38
  3
Realistic
350
33
  3
Thicken
350
37
  0
LAYOUT
  5
1E
102
{ACAD_REACTORS
330
1A
102
}
330
1A
100
AcDbPlotSettings
  1

  2
none_device
  4

  6

 40
0.0
 41
0.0
 42
0.0
 43
0.0
 44
0.0
 45
0.0
 46
0.0
 47
0.0
 48
0.0
 49
0.0
140
0.0
141
0.0
142
1.0
143
1.0
 70
   688
 72
     0
 73
     0
 74
     5
  7

 75
    16
 76
     0
 77
     2
 78
   300
147
1.0
148
0.0
149
0.0
100
AcDbLayout
  1
Layout1
 70
     1
 71
     1
 10
0.0
 20
0.0
 11
12.0
 21
9.0
 12
0.0
 22
0.0
 32
0.0
 14
1.000000000000000E+20
 24
1.000000000000000E+20
 34
1.000000000000000E+20
 15
-1.000000000000000E+20
 25
-1.000000000000000E+20
 35
-1.000000000000000E+20
146
0.0
 13
0.0
 23
0.0
 33
0.0
 16
1.0
 26
0.0
 36
0.0
 17
0.0
 27
1.0
 37
0.0
 76
     0
330
1B
  0
LAYOUT
  5
26
102
{ACAD_REACTORS
330
1A
102
}
330
1A
100
AcDbPlotSettings
  1

  2
none_device
  4

  6

 40
0.0
 41
0.0
 42
0.0
 43
0.0
 44
0.0
 45
0.0
 46
0.0
 47
0.0
 48
0.0
 49
0.0
140
0.0
141
0.0
142
1.0
143
1.0
 70
   688
 72
     0
 73
     0
 74
     5
  7

 75
    16
 76
     0
 77
     2
 78
   300
147
1.0
148
0.0
149
0.0
100
AcDbLayout
  1
Layout2
 70
     1
 71
     2
 10
0.0
 20
0.0
 11
0.0
 21
0.0
 12
0.0
 22
0.0
 32
0.0
 14
0.0
 24
0.0
 34
0.0
 15
0.0
 25
0.0
 35
0.0
146
0.0
 13
0.0
 23
0.0
 33
0.0
 16
1.0
 26
0.0
 36
0.0
 17
0.0
 27
1.0
 37
0.0
 76
     0
330
23
  0
LAYOUT
  5
22
102
{ACAD_REACTORS
330
1A
102
}
330
1A
100
AcDbPlotSettings
  1

  2
none_device
  4

  6

 40
0.0
 41
0.0
 42
0.0
 43
0.0
 44
0.0
 45
0.0
 46
0.0
 47
0.0
 48
0.0
 49
0.0
140
0.0
141
0.0
142
1.0
143
1.0
 70
  1712
 72
     0
 73
     0
 74
     0
  7

 75
     0
 76
     0
 77
     2
 78
   300
147
1.0
148
0.0
149
0.0
100
AcDbLayout
  1
Model
 70
     1
 71
     0
 10
0.0
 20
0.0
 11
12.0
 21
9.0
 12
0.0
 22
0.0
 32
0.0
 14
1.000000000000000E+20
 24
1.000000000000000E+20
 34
1.000000000000000E+20
 15
-1.000000000000000E+20
 25
-1.000000000000000E+20
 35
-1.000000000000000E+20
146
0.0
 13
0.0
 23
0.0
 33
0.0
 16
1.0
 26
0.0
 36
0.0
 17
0.0
 27
1.0
 37
0.0
 76
     0
330
1F
331
29
  0
MATERIAL
  5
3D
102
{ACAD_REACTORS
330
3B
102
}
330
3B
100
AcDbMaterial
  1
ByBlock
 72
     1
 94
      127
  0
MATERIAL
  5
3C
102
{ACAD_REACTORS
330
3B
102
}
330
3B
100
AcDbMaterial
  1
ByLayer
 72
     1
 94
      127
  0
MATERIAL
  5
3E
102
{ACAD_REACTORS
330
3B
102
}
330
3B
100
AcDbMaterial
  1
Global
 72
     1
 94
      127
  0
MLINESTYLE
  5
18
102
{ACAD_REACTORS
330
17
102
}
330
17
100
AcDbMlineStyle
  2
Standard
 70
     0
  3

 62
   256
 51
90.0
 52
90.0
 71
     2
 49
0.5
 62
   256
  6
BYLAYER
 49
-0.5
 62
   256
  6
BYLAYER
  0
ACDBPLACEHOLDER
  5
F
102
{ACAD_REACTORS
330
E
102
}
330
E
  0
VISUALSTYLE
  5
2F
102
{ACAD_REACTORS
330
2A
102
}
330
2A
100
AcDbVisualStyle
  2
2dWireframe
 70
     4
177
     2
291
     0
 71
     0
176
     1
 72
     2
176
     1
 73
     0
176
     1
 90
        0
176
     1
 40
-0.6
176
     1
 41
-30.0
176
     1
 62
     5
 63
     7
421
 16777215
176
     1
 74
     1
176
     1
 91
        4
176
     1
 64
     7
176
     1
 65
   257
176
     1
 75
     1
176
     1
175
     1
176
     1
 42
1.0
176
     1
 92
        0
176
     1
 66
   257
176
     1
 43
1.0
176
     1
 76
     1
176
     1
 77
     6
176
     1
 78
     2
176
     1
 67
     7
176
     1
 79
     5
176
     1
170
     0
176
     1
171
     0
176
     1
290
     0
176
     1
 93
        1
176
     1
 44
0.0
176
     1
173
     0
176
     1
  0
VISUALSTYLE
  5
31
102
{ACAD_REACTORS
330
2A
102
}
330
2A
100
AcDbVisualStyle
  2
3D Hidden
 70
     6
177
     2
291
     0
 71
     1
176
     1
 72
     2
176
     1
 73
     2
176
     1
 90
        0
176
     1
 40
-0.6
176
     1
 41
-30.0
176
     1
 62
     5
 63
     7
421
 16777215
176
     1
 74
     2
176
     1
 91
        2
176
     1
 64
     7
176
     1
 65
   257
176
     1
 75
     2
176
     1
175
     1
176
     1
 42
40.0
176
     1
 92
        0
176
     1
 66
   257
176
     1
 43
1.0
176
     1
 76
     1
176
     1
 77
     6
176
     1
 78
     2
176
     1
 67
     7
176
     1
 79
     3
176
     1
170
     0
176
     1
171
     0
176
     1
290
     0
176
     1
 93
        1
176
     1
 44
0.0
176
     1
173
     0
176
     1
  0
VISUALSTYLE
  5
30
102
{ACAD_REACTORS
330
2A
102
}
330
2A
100
AcDbVisualStyle
  2
3dWireframe
 70
     5
177
     2
291
     0
 71
     0
176
     1
 72
     2
176
     1
 73
     0
176
     1
 90
        0
176
     1
 40
-0.6
176
     1
 41
-30.0
176
     1
 62
     5
 63
     7
421
 16777215
176
     1
 74
     1
176
     1
 91
        4
176
     1
 64
     7
176
     1
 65
   257
176
     1
 75
     1
176
     1
175
     1
176
     1
 42
1.0
176
     1
 92
        0
176
     1
 66
   257
176
     1
 43
1.0
176
     1
 76
     1
176
     1
 77
     6
176
     1
 78
     2
176
     1
 67
     7
176
     1
 79
     5
176
     1
170
     0
176
     1
171
     0
176
     1
290
     0
176
     1
 93
        1
176
     1
 44
0.0
176
     1
173
     0
176
     1
  0
VISUALSTYLE
  5
32
102
{ACAD_REACTORS
330
2A
102
}
330
2A
100
AcDbVisualStyle
  2
Basic
 70
     7
177
     2
291
     1
 71
     1
176
     1
 72
     0
176
     1
 73
     1
176
     1
 90
        0
176
     1
 40
-0.6
176
     1
 41
-30.0
176
     1
 62
     5
 63
     7
421
 16777215
176
     1
 74
     0
176
     1
 91
        4
176
     1
 64
     7
176
     1
 65
   257
176
     1
 75
     1
176
     1
175
     1
176
     1
 42
1.0
176
     1
 92
        8
176
     1
 66
     7
176
     1
 43
1.0
176
     1
 76
     1
176
     1
 77
     6
176
     1
 78
     2
176
     1
 67
     7
176
     1
 79
     5
176
     1
170
     0
176
     1
171
     0
176
     1
290
     0
176
     1
 93
        1
176
     1
 44
0.0
176
     1
173
     0
176
     1
  0
VISUALSTYLE
  5
36
102
{ACAD_REACTORS
330
2A
102
}
330
2A
100
AcDbVisualStyle
  2
Brighten
 70
    12
177
     2
291
     1
 71
     2
176
     1
 72
     2
176
     1
 73
     0
176
     1
 90
        0
176
     1
 40
-0.6
176
     1
 41
-30.0
176
     1
 62
     5
 63
     7
421
 16777215
176
     1
 74
     1
176
     1
 91
        4
176
     1
 64
     7
176
     1
 65
   257
176
     1
 75
     1
176
     1
175
     1
176
     1
 42
1.0
176
     1
 92
        8
176
     1
 66
     7
176
     1
 43
1.0
176
     1
 76
     1
176
     1
 77
     6
176
     1
 78
     2
176
     1
 67
     7
176
     1
 79
     5
176
     1
170
     0
176
     1
171
     0
176
     1
290
     0
176
     1
 93
        1
176
     1
 44
50.0
176
     1
173
     0
176
     1
  0
VISUALSTYLE
  5
3A
102
{ACAD_REACTORS
330
2A
102
}
330
2A
100
AcDbVisualStyle
  2
ColorChange
 70
    16
177
     2
291
     1
 71
     2
176
     1
 72
     2
176
     1
 73
     3
176
     1
 90
        0
176
     1
 40
-0.6
176
     1
 41
-30.0
176
     1
 62
     5
 63
     8
421
  8421504
176
     1
 74
     1
176
     1
 91
        4
176
     1
 64
     7
176
     1
 65
   257
176
     1
 75
     1
176
     1
175
     1
176
     1
 42
1.0
176
     1
 92
        8
176
     1
 66
     8
424
  8421504
176
     1
 43
1.0
176
     1
 76
     1
176
     1
 77
     6
176
     1
 78
     2
176
     1
 67
     7
176
     1
 79
     5
176
     1
170
     0
176
     1
171
     0
176
     1
290
     0
176
     1
 93
        1
176
     1
 44
0.0
176
     1
173
     0
176
     1
  0
VISUALSTYLE
  5
34
102
{ACAD_REACTORS
330
2A
102
}
330
2A
100
AcDbVisualStyle
  2
Conceptual
 70
     9
177
     2
291
     0
 71
     3
176
     1
 72
     2
176
     1
 73
     0
176
     1
 90
        0
176
     1
 40
-0.6
176
     1
 41
-30.0
176
     1
 62
     5
 63
     7
421
 16777215
176
     1
 74
     2
176
     1
 91
        2
176
     1
 64
     7
176
     1
 65
   257
176
     1
 75
     1
176
     1
175
     1
176
     1
 42
40.0
176
     1
 92
        8
176
     1
 66
     7
176
     1
 43
1.0
176
     1
 76
     1
176
     1
 77
     6
176
     1
 78
     2
176
     1
 67
     7
176
     1
 79
     3
176
     1
170
     0
176
     1
171
     0
176
     1
290
     0
176
     1
 93
        1
176
     1
 44
0.0
176
     1
173
     0
176
     1
  0
VISUALSTYLE
  5
35
102
{ACAD_REACTORS
330
2A
102
}
330
2A
100
AcDbVisualStyle
  2
Dim
 70
    11
177
     2
291
     1
 71
     2
176
     1
 72
     2
176
     1
 73
     0
176
     1
 90
        0
176
     1
 40
-0.6
176
     1
 41
-30.0
176
     1
 62
     5
 63
     7
421
 16777215
176
     1
 74
     1
176
     1
 91
        4
176
     1
 64
     7
176
     1
 65
   257
176
     1
 75
     1
176
     1
175
     1
176
     1
 42
1.0
176
     1
 92
        8
176
     1
 66
     7
176
     1
 43
1.0
176
     1
 76
     1
176
     1
 77
     6
176
     1
 78
     2
176
     1
 67
     7
176
     1
 79
     5
176
     1
170
     0
176
     1
171
     0
176
     1
290
     0
176
     1
 93
        1
176
     1
 44
-50.0
176
     1
173
     0
176
     1
  0
VISUALSTYLE
  5
39
102
{ACAD_REACTORS
330
2A
102
}
330
2A
100
AcDbVisualStyle
  2
Facepattern
 70
    15
177
     2
291
     1
 71
     2
176
     1
 72
     2
176
     1
 73
     0
176
     1
 90
        0
176
     1
 40
-0.6
176
     1
 41
-30.0
176
     1
 62
     5
 63
     7
421
 16777215
176
     1
 74
     1
176
     1
 91
        4
176
     1
 64
     7
176
     1
 65
   257
176
     1
 75
     1
176
     1
175
     1
176
     1
 42
1.0
176
     1
 92
        8
176
     1
 66
     7
176
     1
 43
1.0
176
     1
 76
     1
176
     1
 77
     6
176
     1
 78
     2
176
     1
 67
     7
176
     1
 79
     5
176
     1
170
     0
176
     1
171
     0
176
     1
290
     0
176
     1
 93
        1
176
     1
 44
0.0
176
     1
173
     0
176
     1
  0
VISUALSTYLE
  5
2B
102
{ACAD_REACTORS
330
2A
102
}
330
2A
100
AcDbVisualStyle
  2
Flat
 70
     0
177
     2
291
     1
 71
     2
176
     1
 72
     1
176
     1
 73
     1
176
     1
 90
        2
176
     1
 40
-0.6
176
     1
 41
30.0
176
     1
 62
     5
 63
     7
421
 16777215
176
     1
 74
     0
176
     1
 91
        4
176
     1
 64
     7
176
     1
 65
   257
176
     1
 75
     1
176
     1
175
     1
176
     1
 42
1.0
176
     1
 92
        8
176
     1
 66
     7
176
     1
 43
1.0
176
     1
 76
     1
176
     1
 77
     6
176
     1
 78
     2
176
     1
 67
     7
176
     1
 79
     5
176
     1
170
     0
176
     1
171
     0
176
     1
290
     0
176
     1
 93
       13
176
     1
 44
0.0
176
     1
173
     0
176
     1
  0
VISUALSTYLE
  5
2C
102
{ACAD_REACTORS
330
2A
102
}
330
2A
100
AcDbVisualStyle
  2
FlatWithEdges
 70
     1
177
     2
291
     1
 71
     2
176
     1
 72
     1
176
     1
 73
     1
176
     1
 90
        2
176
     1
 40
-0.6
176
     1
 41
30.0
176
     1
 62
     5
 63
     7
421
 16777215
176
     1
 74
     1
176
     1
 91
        4
176
     1
 64
     7
176
     1
 65
   257
176
     1
 75
     1
176
     1
175
     1
176
     1
 42
1.0
176
     1
 92
        0
176
     1
 66
   257
176
     1
 43
1.0
176
     1
 76
     1
176
     1
 77
     6
176
     1
 78
     2
176
     1
 67
     7
176
     1
 79
     5
176
     1
170
     0
176
     1
171
     0
176
     1
290
     0
176
     1
 93
       13
176
     1
 44
0.0
176
     1
173
     0
176
     1
  0
VISUALSTYLE
  5
2D
102
{ACAD_REACTORS
330
2A
102
}
330
2A
100
AcDbVisualStyle
  2
Gouraud
 70
     2
177
     2
291
     1
 71
     2
176
     1
 72
     2
176
     1
 73
     1
176
     1
 90
        2
176
     1
 40
-0.6
176
     1
 41
30.0
176
     1
 62
     5
 63
     7
421
 16777215
176
     1
 74
     0
176
     1
 91
        4
176
     1
 64
     7
176
     1
 65
   257
176
     1
 75
     1
176
     1
175
     1
176
     1
 42
1.0
176
     1
 92
        0
176
     1
 66
     7
176
     1
 43
1.0
176
     1
 76
     1
176
     1
 77
     6
176
     1
 78
     2
176
     1
 67
     7
176
     1
 79
     5
176
     1
170
     0
176
     1
171
     0
176
     1
290
     0
176
     1
 93
       13
176
     1
 44
0.0
176
     1
173
     0
176
     1
  0
VISUALSTYLE
  5
2E
102
{ACAD_REACTORS
330
2A
102
}
330
2A
100
AcDbVisualStyle
  2
GouraudWithEdges
 70
     3
177
     2
291
     1
 71
     2
176
     1
 72
     2
176
     1
 73
     1
176
     1
 90
        2
176
     1
 40
-0.6
176
     1
 41
30.0
176
     1
 62
     5
 63
     7
421
 16777215
176
     1
 74
     1
176
     1
 91
        4
176
     1
 64
     7
176
     1
 65
   257
176
     1
 75
     1
176
     1
175
     1
176
     1
 42
1.0
176
     1
 92
        0
176
     1
 66
   257
176
     1
 43
1.0
176
     1
 76
     1
176
     1
 77
     6
176
     1
 78
     2
176
     1
 67
     7
176
     1
 79
     5
176
     1
170
     0
176
     1
171
     0
176
     1
290
     0
176
     1
 93
       13
176
     1
 44
0.0
176
     1
173
     0
176
     1
  0
VISUALSTYLE
  5
38
102
{ACAD_REACTORS
330
2A
102
}
330
2A
100
AcDbVisualStyle
  2
Linepattern
 70
    14
177
     2
291
     1
 71
     2
176
     1
 72
     2
176
     1
 73
     0
176
     1
 90
        0
176
     1
 40
-0.6
176
     1
 41
-30.0
176
     1
 62
     5
 63
     7
421
 16777215
176
     1
 74
     1
176
     1
 91
        4
176
     1
 64
     7
176
     1
 65
   257
176
     1
 75
     7
176
     1
175
     7
176
     1
 42
1.0
176
     1
 92
        8
176
     1
 66
     7
176
     1
 43
1.0
176
     1
 76
     1
176
     1
 77
     6
176
     1
 78
     2
176
     1
 67
     7
176
     1
 79
     5
176
     1
170
     0
176
     1
171
     0
176
     1
290
     0
176
     1
 93
        1
176
     1
 44
0.0
176
     1
173
     0
176
     1
  0
VISUALSTYLE
  5
33
102
{ACAD_REACTORS
330
2A
102
}
330
2A
100
AcDbVisualStyle
  2
Realistic
 70
     8
177
     2
291
     0
 71
     2
176
     1
 72
     2
176
     1
 73
     0
176
     1
 90
        0
176
     1
 40
-0.6
176
     1
 41
-30.0
176
     1
 62
     5
 63
     7
421
 16777215
176
     1
 74
     1
176
     1
 91
        0
176
     1
 64
     7
176
     1
 65
   257
176
     1
 75
     1
176
     1
175
     1
176
     1
 42
1.0
176
     1
 92
        8
176
     1
 66
     8
424
  7895160
176
     1
 43
1.0
176
     1
 76
     1
176
     1
 77
     6
176
     1
 78
     2
176
     1
 67
     7
176
     1
 79
     5
176
     1
170
     0
176
     1
171
     0
176
     1
290
     0
176
     1
 93
       13
176
     1
 44
0.0
176
     1
173
     0
176
     1
  0
VISUALSTYLE
  5
37
102
{ACAD_REACTORS
330
2A
102
}
330
2A
100
AcDbVisualStyle
  2
Thicken
 70
    13
177
     2
291
     1
 71
     2
176
     1
 72
     2
176
     1
 73
     0
176
     1
 90
        0
176
     1
 40
-0.6
176
     1
 41
-30.0
176
     1
 62
     5
 63
     7
421
 16777215
176
     1
 74
     1
176
     1
 91
        4
176
     1
 64
     7
176
     1
 65
   257
176
     1
 75
     1
176
     1
175
     1
176
     1
 42
1.0
176
     1
 92
       12
176
     1
 66
     7
176
     1
 43
1.0
176
     1
 76
     1
176
     1
 77
     6
176
     1
 78
     2
176
     1
 67
     7
176
     1
 79
     5
176
     1
170
     0
176
     1
171
     0
176
     1
290
     0
176
     1
 93
        1
176
     1
 44
0.0
176
     1
173
     0
176
     1
  0
ENDSEC
  0
EOF
