  0
SECTION
  2
HEADER
  9
$ACADVER
  1
AC1024
  9
$ACADMAINTVER
 70
     6
  9
$DWGCODEPAGE
  3
UNDEFINED
  9
$INSBASE
 10
0.0
 20
0.0
 30
0.0
  9
$EXTMIN
 10
1.000000000000000E+20
 20
1.000000000000000E+20
 30
1.000000000000000E+20
  9
$EXTMAX
 10
-1.000000000000000E+20
 20
-1.000000000000000E+20
 30
-1.000000000000000E+20
  9
$LIMMIN
 10
0.0
 20
0.0
  9
$LIMMAX
 10
12.0
 20
9.0
  9
$ORTHOMODE
 70
     0
  9
$REGENMODE
 70
     1
  9
$FILLMODE
 70
     1
  9
$QTEXTMODE
 70
     0
  9
$MIRRTEXT
 70
     1
  9
$LTSCALE
 40
1.0
  9
$ATTMODE
 70
     1
  9
$TEXTSIZE
 40
0.2
  9
$TRACEWID
 40
0.05
  9
$TEXTSTYLE
  7
Standard
  9
$CLAYER
  8
0
  9
$CELTYPE
  6
ByLayer
  9
$CECOLOR
 62
   256
  9
$CELTSCALE
 40
1.0
  9
$DISPSILH
 70
     0
  9
$DIMSCALE
 40
1.0
  9
$DIMASZ
 40
0.18
  9
$DIMEXO
 40
0.0625
  9
$DIMDLI
 40
0.38
  9
$DIMRND
 40
0.0
  9
$DIMDLE
 40
0.0
  9
$DIMEXE
 40
0.18
  9
$DIMTP
 40
0.0
  9
$DIMTM
 40
0.0
  9
$DIMTXT
 40
0.18
  9
$DIMCEN
 40
0.09
  9
$DIMTSZ
 40
0.0
  9
$DIMTOL
 70
     0
  9
$DIMLIM
 70
     0
  9
$DIMTIH
 70
     1
  9
$DIMTOH
 70
     1
  9
$DIMSE1
 70
     0
  9
$DIMSE2
 70
     0
  9
$DIMTAD
 70
     0
  9
$DIMZIN
 70
     0
  9
$DIMBLK
  1

  9
$DIMASO
 70
     1
  9
$DIMSHO
 70
     1
  9
$DIMPOST
  1

  9
$DIMAPOST
  1

  9
$DIMALT
 70
     0
  9
$DIMALTD
 70
     2
  9
$DIMALTF
 40
25.4
  9
$DIMLFAC
 40
1.0
  9
$DIMTOFL
 70
     0
  9
$DIMTVP
 40
0.0
  9
$DIMTIX
 70
     0
  9
$DIMSOXD
 70
     0
  9
$DIMSAH
 70
     0
  9
$DIMBLK1
  1

  9
$DIMBLK2
  1

  9
$DIMSTYLE
  2
Standard
  9
$DIMCLRD
 70
     0
  9
$DIMCLRE
 70
     0
  9
$DIMCLRT
 70
     0
  9
$DIMTFAC
 40
1.0
  9
$DIMGAP
 40
0.09
  9
$DIMJUST
 70
     0
  9
$DIMSD1
 70
     0
  9
$DIMSD2
 70
     0
  9
$DIMTOLJ
 70
     1
  9
$DIMTZIN
 70
     0
  9
$DIMALTZ
 70
     0
  9
$DIMALTTZ
 70
     0
  9
$DIMUPT
 70
     0
  9
$DIMDEC
 70
     4
  9
$DIMTDEC
 70
     4
  9
$DIMALTU
 70
     2
  9
$DIMALTTD
 70
     2
  9
$DIMTXSTY
  7
Standard
  9
$DIMAUNIT
 70
     0
  9
$DIMADEC
 70
     0
  9
$DIMALTRND
 40
0.0
  9
$DIMAZIN
 70
     0
  9
$DIMDSEP
 70
    46
  9
$DIMATFIT
 70
     3
  9
$DIMFRAC
 70
     0
  9
$DIMLDRBLK
  1

  9
$DIMLUNIT
 70
     2
  9
$DIMLWD
 70
    -2
  9
$DIMLWE
 70
    -2
  9
$DIMTMOVE
 70
     0
  9
$DIMFXL
 40
1.0
  9
$DIMFXLON
 70
     0
  9
$DIMJOGANG
 40
0.7853981633974483
  9
$DIMTFILL
 70
     0
  9
$DIMTFILLCLR
 70
     0
  9
$DIMARCSYM
 70
     0
  9
$DIMLTYPE
  6

  9
$DIMLTEX1
  6

  9
$DIMLTEX2
  6

  9
$DIMTXTDIRECTION
 70
     0
  9
$LUNITS
 70
     2
  9
$LUPREC
 70
     4
  9
$SKETCHINC
 40
0.1
  9
$FILLETRAD
 40
0.5
  9
$AUNITS
 70
     0
  9
$AUPREC
 70
     0
  9
$MENU
  1
.
  9
$ELEVATION
 40
0.0
  9
$PELEVATION
 40
0.0
  9
$THICKNESS
 40
0.0
  9
$LIMCHECK
 70
     0
  9
$CHAMFERA
 40
0.5
  9
$CHAMFERB
 40
0.5
  9
$CHAMFERC
 40
1.0
  9
$CHAMFERD
 40
0.0
  9
$SKPOLY
 70
     0
  9
$TDCREATE
 40
2457917.627337951
  9
$TDUCREATE
 40
2457917.252337963
  9
$TDUPDATE
 40
2457917.627337951
  9
$TDUUPDATE
 40
2457917.252337963
  9
$TDINDWG
 40
0.0000000116
  9
$TDUSRTIMER
 40
0.0000000116
  9
$USRTIMER
 70
     1
  9
$ANGBASE
 50
0.0
  9
$ANGDIR
 70
     0
  9
$PDMODE
 70
     0
  9
$PDSIZE
 40
0.0
  9
$PLINEWID
 40
0.0
  9
$SPLFRAME
 70
     0
  9
$SPLINETYPE
 70
     6
  9
$SPLINESEGS
 70
     8
  9
$HANDSEED
  5
138
  9
$SURFTAB1
 70
     6
  9
$SURFTAB2
 70
     6
  9
$SURFTYPE
 70
     6
  9
$SURFU
 70
     6
  9
$SURFV
 70
     6
  9
$UCSBASE
  2

  9
$UCSNAME
  2

  9
$UCSORG
 10
0.0
 20
0.0
 30
0.0
  9
$UCSXDIR
 10
1.0
 20
0.0
 30
0.0
  9
$UCSYDIR
 10
0.0
 20
1.0
 30
0.0
  9
$UCSORTHOREF
  2

  9
$UCSORTHOVIEW
 70
     0
  9
$UCSORGTOP
 10
0.0
 20
0.0
 30
0.0
  9
$UCSORGBOTTOM
 10
0.0
 20
0.0
 30
0.0
  9
$UCSORGLEFT
 10
0.0
 20
0.0
 30
0.0
  9
$UCSORGRIGHT
 10
0.0
 20
0.0
 30
0.0
  9
$UCSORGFRONT
 10
0.0
 20
0.0
 30
0.0
  9
$UCSORGBACK
 10
0.0
 20
0.0
 30
0.0
  9
$PUCSBASE
  2

  9
$PUCSNAME
  2

  9
$PUCSORG
 10
0.0
 20
0.0
 30
0.0
  9
$PUCSXDIR
 10
1.0
 20
0.0
 30
0.0
  9
$PUCSYDIR
 10
0.0
 20
1.0
 30
0.0
  9
$PUCSORTHOREF
  2

  9
$PUCSORTHOVIEW
 70
     0
  9
$PUCSORGTOP
 10
0.0
 20
0.0
 30
0.0
  9
$PUCSORGBOTTOM
 10
0.0
 20
0.0
 30
0.0
  9
$PUCSORGLEFT
 10
0.0
 20
0.0
 30
0.0
  9
$PUCSORGRIGHT
 10
0.0
 20
0.0
 30
0.0
  9
$PUCSORGFRONT
 10
0.0
 20
0.0
 30
0.0
  9
$PUCSORGBACK
 10
0.0
 20
0.0
 30
0.0
  9
$USERI1
 70
     0
  9
$USERI2
 70
     0
  9
$USERI3
 70
     0
  9
$USERI4
 70
     0
  9
$USERI5
 70
     0
  9
$USERR1
 40
0.0
  9
$USERR2
 40
0.0
  9
$USERR3
 40
0.0
  9
$USERR4
 40
0.0
  9
$USERR5
 40
0.0
  9
$WORLDVIEW
 70
     1
  9
$SHADEDGE
 70
     3
  9
$SHADEDIF
 70
    70
  9
$TILEMODE
 70
     1
  9
$MAXACTVP
 70
    64
  9
$PINSBASE
 10
0.0
 20
0.0
 30
0.0
  9
$PLIMCHECK
 70
     0
  9
$PEXTMIN
 10
1.000000000000000E+20
 20
1.000000000000000E+20
 30
1.000000000000000E+20
  9
$PEXTMAX
 10
-1.000000000000000E+20
 20
-1.000000000000000E+20
 30
-1.000000000000000E+20
  9
$PLIMMIN
 10
0.0
 20
0.0
  9
$PLIMMAX
 10
12.0
 20
9.0
  9
$UNITMODE
 70
     0
  9
$VISRETAIN
 70
     1
  9
$PLINEGEN
 70
     0
  9
$PSLTSCALE
 70
     1
  9
$TREEDEPTH
 70
  3020
  9
$CMLSTYLE
  2
Standard
  9
$CMLJUST
 70
     0
  9
$CMLSCALE
 40
1.0
  9
$PROXYGRAPHICS
 70
     1
  9
$MEASUREMENT
 70
     0
  9
$CELWEIGHT
370
    -1
  9
$ENDCAPS
280
     0
  9
$JOINSTYLE
280
     0
  9
$LWDISPLAY
290
     1
  9
$INSUNITS
 70
     1
  9
$HYPERLINKBASE
  1

  9
$STYLESHEET
  1

  9
$XEDIT
290
     1
  9
$CEPSNTYPE
380
     0
  9
$PSTYLEMODE
290
     1
  9
$FINGERPRINTGUID
  2
{C788E470-6D58-4377-941D-88FC925E6AAC}
  9
$VERSIONGUID
  2
{FAEB1C32-E019-11D5-929B-00C0DF256EC4}
  9
$EXTNAMES
290
     1
  9
$PSVPSCALE
 40
0.0
  9
$OLESTARTUP
290
     0
  9
$SORTENTS
280
   127
  9
$INDEXCTL
280
     0
  9
$HIDETEXT
280
     1
  9
$XCLIPFRAME
280
     2
  9
$HALOGAP
280
     0
  9
$OBSCOLOR
 70
   257
  9
$OBSLTYPE
280
     0
  9
$INTERSECTIONDISPLAY
280
     0
  9
$INTERSECTIONCOLOR
 70
   257
  9
$DIMASSOC
280
     2
  9
$PROJECTNAME
  1

  9
$CAMERADISPLAY
290
     0
  9
$LENSLENGTH
 40
50.0
  9
$CAMERAHEIGHT
 40
0.0
  9
$STEPSPERSEC
 40
2.0
  9
$STEPSIZE
 40
6.0
  9
$3DDWFPREC
 40
2.0
  9
$PSOLWIDTH
 40
0.25
  9
$PSOLHEIGHT
 40
4.0
  9
$LOFTANG1
 40
1.570796326794897
  9
$LOFTANG2
 40
1.570796326794897
  9
$LOFTMAG1
 40
0.0
  9
$LOFTMAG2
 40
0.0
  9
$LOFTPARAM
 70
     7
  9
$LOFTNORMALS
280
     1
  9
$LATITUDE
 40
37.795
  9
$LONGITUDE
 40
-122.394
  9
$NORTHDIRECTION
 40
0.0
  9
$TIMEZONE
 70
 -8000
  9
$LIGHTGLYPHDISPLAY
280
     1
  9
$TILEMODELIGHTSYNCH
280
     1
  9
$CMATERIAL
347
3C
  9
$SOLIDHIST
280
     1
  9
$SHOWHIST
280
     1
  9
$DWFFRAME
280
     2
  9
$DGNFRAME
280
     2
  9
$REALWORLDSCALE
290
     1
  9
$INTERFERECOLOR
 62
   256
  9
$CSHADOW
280
     0
  9
$SHADOWPLANELOCATION
 40
0.0
  0
ENDSEC
  0
SECTION
  2
CLASSES
  0
CLASS
  1
ACDBDICTIONARYWDFLT
  2
AcDbDictionaryWithDefault
  3
ObjectDBX Classes
 90
        0
 91
        4
280
     0
281
     0
  0
CLASS
  1
VISUALSTYLE
  2
AcDbVisualStyle
  3
ObjectDBX Classes
 90
     4095
 91
        4
280
     0
281
     0
  0
CLASS
  1
MATERIAL
  2
AcDbMaterial
  3
ObjectDBX Classes
 90
     1153
 91
        4
280
     0
281
     0
  0
CLASS
  1
SUN
  2
AcDbSun
  3
SCENEOE
 90
     1024
 91
        4
280
     0
281
     0
  0
ENDSEC
  0
SECTION
  2
TABLES
  0
TABLE
  2
VPORT
  5
8
330
0
100
AcDbSymbolTable
 70
     1
  0
VPORT
  5
29
330
8
100
AcDbSymbolTableRecord
100
AcDbViewportTableRecord
  2
*Active
 70
     0
 10
0.0
 20
0.0
 11
1.0
 21
1.0
 12
0.0
 22
0.0
 13
0.0
 23
0.0
 14
0.5
 24
0.5
 15
0.5
 25
0.5
 16
0.0
 26
0.0
 36
1.0
 17
91.00082462281999
 27
-128.4993055234307
 37
0.0
 40
256.9986110468615
 41
0.7081814508812795
 42
50.0
 43
0.0
 44
0.0
 50
0.0
 51
0.0
 71
     0
 72
   100
 73
     1
 74
     3
 75
     0
 76
     0
 77
     0
 78
     0
281
     0
 65
     1
110
0.0
120
0.0
130
0.0
111
1.0
121
0.0
131
0.0
112
0.0
122
1.0
132
0.0
 79
     0
146
0.0
 60
     3
 61
     5
292
     1
282
     1
141
0.0
142
0.0
 63
   250
361
3F
  0
ENDTAB
  0
TABLE
  2
LTYPE
  5
5
330
0
100
AcDbSymbolTable
 70
     1
  0
LTYPE
  5
14
330
5
100
AcDbSymbolTableRecord
100
AcDbLinetypeTableRecord
  2
ByBlock
 70
     0
  3

 72
    65
 73
     0
 40
0.0
  0
LTYPE
  5
15
330
5
100
AcDbSymbolTableRecord
100
AcDbLinetypeTableRecord
  2
ByLayer
 70
     0
  3

 72
    65
 73
     0
 40
0.0
  0
LTYPE
  5
16
330
5
100
AcDbSymbolTableRecord
100
AcDbLinetypeTableRecord
  2
Continuous
 70
     0
  3
Solid line
 72
    65
 73
     0
 40
0.0
  0
ENDTAB
  0
TABLE
  2
LAYER
  5
2
330
0
100
AcDbSymbolTable
 70
     2
  0
LAYER
  5
10
330
2
100
AcDbSymbolTableRecord
100
AcDbLayerTableRecord
  2
0
 70
     0
 62
     7
  6
Continuous
370
    -3
390
F
347
3E
  0
LAYER
  5
40
330
2
100
AcDbSymbolTableRecord
100
AcDbLayerTableRecord
  2
_U+30EC_U+30A4_U+30E4_U+30FC 1
 70
     0
 62
     7
  6
Continuous
370
    -3
390
F
347
3E
  0
ENDTAB
  0
TABLE
  2
STYLE
  5
3
330
0
100
AcDbSymbolTable
 70
     1
  0
STYLE
  5
11
330
3
100
AcDbSymbolTableRecord
100
AcDbTextStyleTableRecord
  2
Standard
 70
     0
 40
0.0
 41
1.0
 50
0.0
 71
     0
 42
0.2
  3
txt
  4

  0
ENDTAB
  0
TABLE
  2
VIEW
  5
6
330
0
100
AcDbSymbolTable
 70
     0
  0
ENDTAB
  0
TABLE
  2
UCS
  5
7
330
0
100
AcDbSymbolTable
 70
     0
  0
ENDTAB
  0
TABLE
  2
APPID
  5
9
330
0
100
AcDbSymbolTable
 70
     1
  0
APPID
  5
12
330
9
100
AcDbSymbolTableRecord
100
AcDbRegAppTableRecord
  2
ACAD
 70
     0
  0
ENDTAB
  0
TABLE
  2
DIMSTYLE
  5
A
330
0
100
AcDbSymbolTable
 70
     1
100
AcDbDimStyleTable
  0
DIMSTYLE
105
27
330
A
100
AcDbSymbolTableRecord
100
AcDbDimStyleTableRecord
  2
Standard
 70
     0
178
     0
340
11
  0
ENDTAB
  0
TABLE
  2
BLOCK_RECORD
  5
1
330
0
100
AcDbSymbolTable
 70
    10
  0
BLOCK_RECORD
  5
1F
330
1
100
AcDbSymbolTableRecord
100
AcDbBlockTableRecord
  2
*Model_Space
340
22
 70
     0
280
     1
281
     0
  0
BLOCK_RECORD
  5
1B
330
1
100
AcDbSymbolTableRecord
100
AcDbBlockTableRecord
  2
*Paper_Space
340
1E
 70
     0
280
     1
281
     0
  0
BLOCK_RECORD
  5
23
330
1
100
AcDbSymbolTableRecord
100
AcDbBlockTableRecord
  2
*Paper_Space0
340
26
 70
     0
280
     1
281
     0
  0
BLOCK_RECORD
  5
AE
330
1
100
AcDbSymbolTableRecord
100
AcDbBlockTableRecord
  2
block 2
340
0
102
{BLKREFS
331
AF
102
}
 70
     0
280
     1
281
     0
  0
BLOCK_RECORD
  5
B7
330
1
100
AcDbSymbolTableRecord
100
AcDbBlockTableRecord
  2
block 3
340
0
102
{BLKREFS
331
B8
102
}
 70
     0
280
     1
281
     0
  0
BLOCK_RECORD
  5
C7
330
1
100
AcDbSymbolTableRecord
100
AcDbBlockTableRecord
  2
block 4
340
0
102
{BLKREFS
331
C8
102
}
 70
     0
280
     1
281
     0
  0
BLOCK_RECORD
  5
E3
330
1
100
AcDbSymbolTableRecord
100
AcDbBlockTableRecord
  2
block 5
340
0
102
{BLKREFS
331
E4
102
}
 70
     0
280
     1
281
     0
  0
BLOCK_RECORD
  5
ED
330
1
100
AcDbSymbolTableRecord
100
AcDbBlockTableRecord
  2
block 6
340
0
102
{BLKREFS
331
EE
102
}
 70
     0
280
     1
281
     0
  0
BLOCK_RECORD
  5
F3
330
1
100
AcDbSymbolTableRecord
100
AcDbBlockTableRecord
  2
block 7
340
0
102
{BLKREFS
331
F4
102
}
 70
     0
280
     1
281
     0
  0
BLOCK_RECORD
  5
FB
330
1
100
AcDbSymbolTableRecord
100
AcDbBlockTableRecord
  2
block 8
340
0
102
{BLKREFS
331
FC
102
}
 70
     0
280
     1
281
     0
  0
BLOCK_RECORD
  5
101
330
1
100
AcDbSymbolTableRecord
100
AcDbBlockTableRecord
  2
block 9
340
0
102
{BLKREFS
331
102
102
}
 70
     0
280
     1
281
     0
  0
BLOCK_RECORD
  5
109
330
1
100
AcDbSymbolTableRecord
100
AcDbBlockTableRecord
  2
block 10
340
0
102
{BLKREFS
331
10A
102
}
 70
     0
280
     1
281
     0
  0
ENDTAB
  0
ENDSEC
  0
SECTION
  2
BLOCKS
  0
BLOCK
  5
20
330
1F
100
AcDbEntity
  8
0
100
AcDbBlockBegin
  2
*Model_Space
 70
     0
 10
0.0
 20
0.0
 30
0.0
  3
*Model_Space
  1

  0
ENDBLK
  5
21
330
1F
100
AcDbEntity
  8
0
100
AcDbBlockEnd
  0
BLOCK
  5
1C
330
1B
100
AcDbEntity
 67
     1
  8
0
100
AcDbBlockBegin
  2
*Paper_Space
 70
     0
 10
0.0
 20
0.0
 30
0.0
  3
*Paper_Space
  1

  0
ENDBLK
  5
1D
330
1B
100
AcDbEntity
 67
     1
  8
0
100
AcDbBlockEnd
  0
BLOCK
  5
24
330
23
100
AcDbEntity
  8
0
100
AcDbBlockBegin
  2
*Paper_Space0
 70
     0
 10
0.0
 20
0.0
 30
0.0
  3
*Paper_Space0
  1

  0
ENDBLK
  5
25
330
23
100
AcDbEntity
  8
0
100
AcDbBlockEnd
  0
BLOCK
  5
B0
330
AE
100
AcDbEntity
  8
0
100
AcDbBlockBegin
  2
block 2
 70
     0
 10
0.0
 20
0.0
 30
0.0
  3
block 2
  1

  0
SPLINE
  5
B2
330
AE
100
AcDbEntity
  8
_U+30EC_U+30A4_U+30E4_U+30FC 1
370
     0
100
AcDbSpline
210
0.0
220
0.0
230
1.0
 70
    11
 71
     3
 72
    26
 73
    22
 74
     0
 42
0.0000000001
 43
0.0000000001
 12
1.0
 22
0.0
 32
0.0
 13
1.0
 23
0.0
 33
0.0
 40
0.0
 40
0.0
 40
0.0
 40
0.0
 40
1.0
 40
1.0
 40
1.0
 40
2.0
 40
2.0
 40
2.0
 40
3.0
 40
3.0
 40
3.0
 40
4.0
 40
4.0
 40
4.0
 40
5.0
 40
5.0
 40
5.0
 40
6.0
 40
6.0
 40
6.0
 40
7.0
 40
7.0
 40
7.0
 40
7.0
 10
95.02537975054922
 20
-113.9944200018833
 30
0.0
 10
95.02537975054922
 20
-113.9944200018833
 30
0.0
 10
95.02537975054922
 20
-112.8902668988608
 30
0.0
 10
95.02537975054922
 20
-112.8902668988608
 30
0.0
 10
95.02537975054922
 20
-112.8902668988608
 30
0.0
 10
94.69533960306228
 20
-112.8902668988608
 30
0.0
 10
94.69533960306228
 20
-112.8902668988608
 30
0.0
 10
94.69533960306228
 20
-112.8902668988608
 30
0.0
 10
94.69533960306228
 20
-112.742127792995
 30
0.0
 10
94.69533960306228
 20
-112.742127792995
 30
0.0
 10
95.02744680784036
 20
-112.7273138824085
 30
0.0
 10
95.07395559689124
 20
-112.5643608659561
 30
0.0
 10
95.10358341806439
 20
-112.4499836958458
 30
0.0
 10
95.10358341806439
 20
-112.4499836958458
 30
0.0
 10
95.24965546663898
 20
-112.4499836958458
 30
0.0
 10
95.24965546663898
 20
-112.4499836958458
 30
0.0
 10
95.24965546663898
 20
-112.4499836958458
 30
0.0
 10
95.24965546663898
 20
-113.9944200018833
 30
0.0
 10
95.24965546663898
 20
-113.9944200018833
 30
0.0
 10
95.24965546663898
 20
-113.9944200018833
 30
0.0
 10
95.02537975054922
 20
-113.9944200018833
 30
0.0
 10
95.02537975054922
 20
-113.9944200018833
 30
0.0
  0
HATCH
  5
B3
330
AE
100
AcDbEntity
  8
_U+30EC_U+30A4_U+30E4_U+30FC 1
 62
   179
420
  2234388
100
AcDbHatch
 10
0.0
 20
0.0
 30
0.0
210
0.0
220
0.0
230
1.0
  2
SOLID
 70
     1
 71
     0
 91
        1
 92
        1
 93
        1
 72
     4
 94
        3
 73
     0
 74
     1
 95
       26
 96
       22
 40
0.0
 40
0.0
 40
0.0
 40
0.0
 40
1.0
 40
1.0
 40
1.0
 40
2.0
 40
2.0
 40
2.0
 40
3.0
 40
3.0
 40
3.0
 40
4.0
 40
4.0
 40
4.0
 40
5.0
 40
5.0
 40
5.0
 40
6.0
 40
6.0
 40
6.0
 40
7.0
 40
7.0
 40
7.0
 40
7.0
 10
95.02537975054922
 20
-113.9944200018833
 10
95.02537975054922
 20
-113.9944200018833
 10
95.02537975054922
 20
-112.8902668988608
 10
95.02537975054922
 20
-112.8902668988608
 10
95.02537975054922
 20
-112.8902668988608
 10
94.69533960306228
 20
-112.8902668988608
 10
94.69533960306228
 20
-112.8902668988608
 10
94.69533960306228
 20
-112.8902668988608
 10
94.69533960306228
 20
-112.742127792995
 10
94.69533960306228
 20
-112.742127792995
 10
95.02744680784036
 20
-112.7273138824085
 10
95.07395559689124
 20
-112.5643608659561
 10
95.10358341806439
 20
-112.4499836958458
 10
95.10358341806439
 20
-112.4499836958458
 10
95.24965546663898
 20
-112.4499836958458
 10
95.24965546663898
 20
-112.4499836958458
 10
95.24965546663898
 20
-112.4499836958458
 10
95.24965546663898
 20
-113.9944200018833
 10
95.24965546663898
 20
-113.9944200018833
 10
95.24965546663898
 20
-113.9944200018833
 10
95.02537975054922
 20
-113.9944200018833
 10
95.02537975054922
 20
-113.9944200018833
 97
        0
 97
        0
 75
     2
 76
     1
 98
        0
  0
SPLINE
  5
B4
330
AE
100
AcDbEntity
  8
_U+30EC_U+30A4_U+30E4_U+30FC 1
370
     0
100
AcDbSpline
210
0.0
220
0.0
230
1.0
 70
    11
 71
     3
 72
    29
 73
    25
 74
     0
 42
0.0000000001
 43
0.0000000001
 12
1.0
 22
0.0
 32
0.0
 13
1.0
 23
0.0
 33
0.0
 40
0.0
 40
0.0
 40
0.0
 40
0.0
 40
1.0
 40
1.0
 40
1.0
 40
2.0
 40
2.0
 40
2.0
 40
3.0
 40
3.0
 40
3.0
 40
4.0
 40
4.0
 40
4.0
 40
5.0
 40
5.0
 40
5.0
 40
6.0
 40
6.0
 40
6.0
 40
7.0
 40
7.0
 40
7.0
 40
8.0
 40
8.0
 40
8.0
 40
8.0
 10
96.64870874319894
 20
-113.8166530748445
 30
0.0
 10
96.54053274496209
 20
-114.0261148803476
 30
0.0
 10
96.36724444205403
 20
-114.0450629055165
 30
0.0
 10
96.25080021465259
 20
-114.0450629055165
 30
0.0
 10
96.08991425549141
 20
-114.0450629055165
 30
0.0
 10
95.94832083104765
 20
-113.9985541164656
 30
0.0
 10
95.85289168610623
 20
-113.8166530748445
 30
0.0
 10
95.74953882154873
 20
-113.6220051799278
 30
0.0
 10
95.73024628683133
 20
-113.3853271200912
 30
0.0
 10
95.73024628683133
 20
-113.2223741036389
 30
0.0
 10
95.73024628683133
 20
-113.0783691123554
 30
0.0
 10
95.74747176425758
 20
-112.8265326323836
 30
0.0
 10
95.85289168610623
 20
-112.6277506228847
 30
0.0
 10
95.96106768434306
 20
-112.4248344988035
 30
0.0
 10
96.12160913395572
 20
-112.4014078495038
 30
0.0
 10
96.25080021465259
 20
-112.4014078495038
 30
0.0
 10
96.4096191165226
 20
-112.4014078495038
 30
0.0
 10
96.55327959825752
 20
-112.4458495812635
 30
0.0
 10
96.64870874319894
 20
-112.6277506228847
 30
0.0
 10
96.74792749317413
 20
-112.8203314605102
 30
0.0
 10
96.77135414247384
 20
-113.0487412911823
 30
0.0
 10
96.77135414247384
 20
-113.2223741036389
 30
0.0
 10
96.77135414247384
 20
-113.3935953492558
 30
0.0
 10
96.74999455046529
 20
-113.624072237219
 30
0.0
 10
96.64870874319894
 20
-113.8166530748445
 30
0.0
  0
SPLINE
  5
B5
330
AE
100
AcDbEntity
  8
_U+30EC_U+30A4_U+30E4_U+30FC 1
370
     0
100
AcDbSpline
210
0.0
220
0.0
230
1.0
 70
    11
 71
     3
 72
    17
 73
    13
 74
     0
 42
0.0000000001
 43
0.0000000001
 12
1.0
 22
0.0
 32
0.0
 13
1.0
 23
0.0
 33
0.0
 40
0.0
 40
0.0
 40
0.0
 40
0.0
 40
1.0
 40
1.0
 40
1.0
 40
2.0
 40
2.0
 40
2.0
 40
3.0
 40
3.0
 40
3.0
 40
4.0
 40
4.0
 40
4.0
 40
4.0
 10
96.25080021465259
 20
-112.5939886871293
 30
0.0
 10
96.00103079197197
 20
-112.5939886871293
 30
0.0
 10
95.95486651246962
 20
-112.8775200455653
 30
0.0
 10
95.95486651246962
 20
-113.2223741036389
 30
0.0
 10
95.95486651246962
 20
-113.5417344551215
 30
0.0
 10
95.99069550551621
 20
-113.8504150105999
 30
0.0
 10
96.25080021465259
 20
-113.8504150105999
 30
0.0
 10
96.49850258004204
 20
-113.8504150105999
 30
0.0
 10
96.54707842638406
 20
-113.5692952190035
 30
0.0
 10
96.54707842638406
 20
-113.2223741036389
 30
0.0
 10
96.54707842638406
 20
-112.9026692426077
 30
0.0
 10
96.5088378664978
 20
-112.5939886871293
 30
0.0
 10
96.25080021465259
 20
-112.5939886871293
 30
0.0
  0
HATCH
  5
B6
330
AE
100
AcDbEntity
  8
_U+30EC_U+30A4_U+30E4_U+30FC 1
 62
   179
420
  2234388
100
AcDbHatch
 10
0.0
 20
0.0
 30
0.0
210
0.0
220
0.0
230
1.0
  2
SOLID
 70
     1
 71
     0
 91
        2
 92
        1
 93
        1
 72
     4
 94
        3
 73
     0
 74
     1
 95
       29
 96
       25
 40
0.0
 40
0.0
 40
0.0
 40
0.0
 40
1.0
 40
1.0
 40
1.0
 40
2.0
 40
2.0
 40
2.0
 40
3.0
 40
3.0
 40
3.0
 40
4.0
 40
4.0
 40
4.0
 40
5.0
 40
5.0
 40
5.0
 40
6.0
 40
6.0
 40
6.0
 40
7.0
 40
7.0
 40
7.0
 40
8.0
 40
8.0
 40
8.0
 40
8.0
 10
96.64870874319894
 20
-113.8166530748445
 10
96.54053274496209
 20
-114.0261148803476
 10
96.36724444205403
 20
-114.0450629055165
 10
96.25080021465259
 20
-114.0450629055165
 10
96.08991425549141
 20
-114.0450629055165
 10
95.94832083104765
 20
-113.9985541164656
 10
95.85289168610623
 20
-113.8166530748445
 10
95.74953882154873
 20
-113.6220051799278
 10
95.73024628683133
 20
-113.3853271200912
 10
95.73024628683133
 20
-113.2223741036389
 10
95.73024628683133
 20
-113.0783691123554
 10
95.74747176425758
 20
-112.8265326323836
 10
95.85289168610623
 20
-112.6277506228847
 10
95.96106768434306
 20
-112.4248344988035
 10
96.12160913395572
 20
-112.4014078495038
 10
96.25080021465259
 20
-112.4014078495038
 10
96.4096191165226
 20
-112.4014078495038
 10
96.55327959825752
 20
-112.4458495812635
 10
96.64870874319894
 20
-112.6277506228847
 10
96.74792749317413
 20
-112.8203314605102
 10
96.77135414247384
 20
-113.0487412911823
 10
96.77135414247384
 20
-113.2223741036389
 10
96.77135414247384
 20
-113.3935953492558
 10
96.74999455046529
 20
-113.624072237219
 10
96.64870874319894
 20
-113.8166530748445
 97
        0
 97
        0
 92
        1
 93
        1
 72
     4
 94
        3
 73
     0
 74
     1
 95
       17
 96
       13
 40
0.0
 40
0.0
 40
0.0
 40
0.0
 40
1.0
 40
1.0
 40
1.0
 40
2.0
 40
2.0
 40
2.0
 40
3.0
 40
3.0
 40
3.0
 40
4.0
 40
4.0
 40
4.0
 40
4.0
 10
96.25080021465259
 20
-112.5939886871293
 10
96.00103079197197
 20
-112.5939886871293
 10
95.95486651246962
 20
-112.8775200455653
 10
95.95486651246962
 20
-113.2223741036389
 10
95.95486651246962
 20
-113.5417344551215
 10
95.99069550551621
 20
-113.8504150105999
 10
96.25080021465259
 20
-113.8504150105999
 10
96.49850258004204
 20
-113.8504150105999
 10
96.54707842638406
 20
-113.5692952190035
 10
96.54707842638406
 20
-113.2223741036389
 10
96.54707842638406
 20
-112.9026692426077
 10
96.5088378664978
 20
-112.5939886871293
 10
96.25080021465259
 20
-112.5939886871293
 97
        0
 97
        0
 75
     2
 76
     1
 98
        0
  0
ENDBLK
  5
B1
330
AE
100
AcDbEntity
  8
0
100
AcDbBlockEnd
  0
BLOCK
  5
B9
330
B7
100
AcDbEntity
  8
0
100
AcDbBlockBegin
  2
block 3
 70
     0
 10
0.0
 20
0.0
 30
0.0
  3
block 3
  1

  0
SPLINE
  5
BB
330
B7
100
AcDbEntity
  8
_U+30EC_U+30A4_U+30E4_U+30FC 1
370
     0
100
AcDbSpline
210
0.0
220
0.0
230
1.0
 70
    11
 71
     3
 72
    26
 73
    22
 74
     0
 42
0.0000000001
 43
0.0000000001
 12
1.0
 22
0.0
 32
0.0
 13
1.0
 23
0.0
 33
0.0
 40
0.0
 40
0.0
 40
0.0
 40
0.0
 40
1.0
 40
1.0
 40
1.0
 40
2.0
 40
2.0
 40
2.0
 40
3.0
 40
3.0
 40
3.0
 40
4.0
 40
4.0
 40
4.0
 40
5.0
 40
5.0
 40
5.0
 40
6.0
 40
6.0
 40
6.0
 40
7.0
 40
7.0
 40
7.0
 40
7.0
 10
102.5873643406726
 20
-109.7014865177135
 30
0.0
 10
102.5873643406726
 20
-109.7014865177135
 30
0.0
 10
102.5873643406726
 20
-108.597333414691
 30
0.0
 10
102.5873643406726
 20
-108.597333414691
 30
0.0
 10
102.5873643406726
 20
-108.597333414691
 30
0.0
 10
102.2573241931857
 20
-108.597333414691
 30
0.0
 10
102.2573241931857
 20
-108.597333414691
 30
0.0
 10
102.2573241931857
 20
-108.597333414691
 30
0.0
 10
102.2573241931857
 20
-108.4491943088252
 30
0.0
 10
102.2573241931857
 20
-108.4491943088252
 30
0.0
 10
102.5894313979638
 20
-108.4343803982386
 30
0.0
 10
102.6359401870146
 20
-108.2714273817863
 30
0.0
 10
102.6655680081878
 20
-108.157050211676
 30
0.0
 10
102.6655680081878
 20
-108.157050211676
 30
0.0
 10
102.8116400567624
 20
-108.157050211676
 30
0.0
 10
102.8116400567624
 20
-108.157050211676
 30
0.0
 10
102.8116400567624
 20
-108.157050211676
 30
0.0
 10
102.8116400567624
 20
-109.7014865177135
 30
0.0
 10
102.8116400567624
 20
-109.7014865177135
 30
0.0
 10
102.8116400567624
 20
-109.7014865177135
 30
0.0
 10
102.5873643406726
 20
-109.7014865177135
 30
0.0
 10
102.5873643406726
 20
-109.7014865177135
 30
0.0
  0
HATCH
  5
BC
330
B7
100
AcDbEntity
  8
_U+30EC_U+30A4_U+30E4_U+30FC 1
 62
   179
420
  2234388
100
AcDbHatch
 10
0.0
 20
0.0
 30
0.0
210
0.0
220
0.0
230
1.0
  2
SOLID
 70
     1
 71
     0
 91
        1
 92
        1
 93
        1
 72
     4
 94
        3
 73
     0
 74
     1
 95
       26
 96
       22
 40
0.0
 40
0.0
 40
0.0
 40
0.0
 40
1.0
 40
1.0
 40
1.0
 40
2.0
 40
2.0
 40
2.0
 40
3.0
 40
3.0
 40
3.0
 40
4.0
 40
4.0
 40
4.0
 40
5.0
 40
5.0
 40
5.0
 40
6.0
 40
6.0
 40
6.0
 40
7.0
 40
7.0
 40
7.0
 40
7.0
 10
102.5873643406726
 20
-109.7014865177135
 10
102.5873643406726
 20
-109.7014865177135
 10
102.5873643406726
 20
-108.597333414691
 10
102.5873643406726
 20
-108.597333414691
 10
102.5873643406726
 20
-108.597333414691
 10
102.2573241931857
 20
-108.597333414691
 10
102.2573241931857
 20
-108.597333414691
 10
102.2573241931857
 20
-108.597333414691
 10
102.2573241931857
 20
-108.4491943088252
 10
102.2573241931857
 20
-108.4491943088252
 10
102.5894313979638
 20
-108.4343803982386
 10
102.6359401870146
 20
-108.2714273817863
 10
102.6655680081878
 20
-108.157050211676
 10
102.6655680081878
 20
-108.157050211676
 10
102.8116400567624
 20
-108.157050211676
 10
102.8116400567624
 20
-108.157050211676
 10
102.8116400567624
 20
-108.157050211676
 10
102.8116400567624
 20
-109.7014865177135
 10
102.8116400567624
 20
-109.7014865177135
 10
102.8116400567624
 20
-109.7014865177135
 10
102.5873643406726
 20
-109.7014865177135
 10
102.5873643406726
 20
-109.7014865177135
 97
        0
 97
        0
 75
     2
 76
     1
 98
        0
  0
POLYLINE
  5
BD
330
B7
100
AcDbEntity
  8
_U+30EC_U+30A4_U+30E4_U+30FC 1
370
     0
100
AcDb2dPolyline
 66
     1
 10
0.0
 20
0.0
 30
0.0
  0
VERTEX
  5
BE
330
BD
100
AcDbEntity
  8
_U+30EC_U+30A4_U+30E4_U+30FC 1
370
     0
100
AcDbVertex
100
AcDb2dVertex
 10
103.3728461113096
 20
-109.7014865177135
 30
0.0
  0
VERTEX
  5
BF
330
BD
100
AcDbEntity
  8
_U+30EC_U+30A4_U+30E4_U+30FC 1
370
     0
100
AcDbVertex
100
AcDb2dVertex
 10
103.3728461113096
 20
-109.4496500377418
 30
0.0
  0
VERTEX
  5
C0
330
BD
100
AcDbEntity
  8
_U+30EC_U+30A4_U+30E4_U+30FC 1
370
     0
100
AcDbVertex
100
AcDb2dVertex
 10
103.6243380817328
 20
-109.4496500377418
 30
0.0
  0
VERTEX
  5
C1
330
BD
100
AcDbEntity
  8
_U+30EC_U+30A4_U+30E4_U+30FC 1
370
     0
100
AcDbVertex
100
AcDb2dVertex
 10
103.6243380817328
 20
-109.7014865177135
 30
0.0
  0
VERTEX
  5
C2
330
BD
100
AcDbEntity
  8
_U+30EC_U+30A4_U+30E4_U+30FC 1
370
     0
100
AcDbVertex
100
AcDb2dVertex
 10
103.3728461113096
 20
-109.7014865177135
 30
0.0
  0
SEQEND
  5
C3
330
BD
100
AcDbEntity
  8
_U+30EC_U+30A4_U+30E4_U+30FC 1
370
     0
  0
HATCH
  5
C4
330
B7
100
AcDbEntity
  8
_U+30EC_U+30A4_U+30E4_U+30FC 1
 62
   179
420
  2234388
100
AcDbHatch
 10
0.0
 20
0.0
 30
0.0
210
0.0
220
0.0
230
1.0
  2
SOLID
 70
     1
 71
     0
 91
        1
 92
        1
 93
        4
 72
     1
 10
103.3728461113096
 20
-109.7014865177135
 11
103.3728461113096
 21
-109.4496500377418
 72
     1
 10
103.3728461113096
 20
-109.4496500377418
 11
103.6243380817328
 21
-109.4496500377418
 72
     1
 10
103.6243380817328
 20
-109.4496500377418
 11
103.6243380817328
 21
-109.7014865177135
 72
     1
 10
103.6243380817328
 20
-109.7014865177135
 11
103.3728461113096
 21
-109.7014865177135
 97
        0
 75
     2
 76
     1
 98
        0
  0
SPLINE
  5
C5
330
B7
100
AcDbEntity
  8
_U+30EC_U+30A4_U+30E4_U+30FC 1
370
     0
100
AcDbSpline
210
0.0
220
0.0
230
1.0
 70
    11
 71
     3
 72
    62
 73
    58
 74
     0
 42
0.0000000001
 43
0.0000000001
 12
1.0
 22
0.0
 32
0.0
 13
1.0
 23
0.0
 33
0.0
 40
0.0
 40
0.0
 40
0.0
 40
0.0
 40
1.0
 40
1.0
 40
1.0
 40
2.0
 40
2.0
 40
2.0
 40
3.0
 40
3.0
 40
3.0
 40
4.0
 40
4.0
 40
4.0
 40
5.0
 40
5.0
 40
5.0
 40
6.0
 40
6.0
 40
6.0
 40
7.0
 40
7.0
 40
7.0
 40
8.0
 40
8.0
 40
8.0
 40
9.0
 40
9.0
 40
9.0
 40
10.0
 40
10.0
 40
10.0
 40
11.0
 40
11.0
 40
11.0
 40
12.0
 40
12.0
 40
12.0
 40
13.0
 40
13.0
 40
13.0
 40
14.0
 40
14.0
 40
14.0
 40
15.0
 40
15.0
 40
15.0
 40
16.0
 40
16.0
 40
16.0
 40
17.0
 40
17.0
 40
17.0
 40
18.0
 40
18.0
 40
18.0
 40
19.0
 40
19.0
 40
19.0
 40
19.0
 10
104.3526312673146
 20
-109.7521294213467
 30
0.0
 10
104.2575466319217
 20
-109.7521294213467
 30
0.0
 10
104.0394720877054
 20
-109.7311143388867
 30
0.0
 10
103.9147596311394
 20
-109.5450791826832
 30
0.0
 10
103.8406900782065
 20
-109.432769069864
 30
0.0
 10
103.8365559636242
 20
-109.3335503198888
 30
0.0
 10
103.8324218490419
 20
-109.2488009709517
 30
0.0
 10
103.8324218490419
 20
-109.2488009709517
 30
0.0
 10
104.0522189410008
 20
-109.2488009709517
 30
0.0
 10
104.0522189410008
 20
-109.2488009709517
 30
0.0
 10
104.054285998292
 20
-109.3228705238846
 30
0.0
 10
104.0649657942963
 20
-109.5574815264301
 30
0.0
 10
104.3484971527323
 20
-109.5574815264301
 30
0.0
 10
104.4859564625938
 20
-109.5574815264301
 30
0.0
 10
104.6382296830418
 20
-109.487890597628
 30
0.0
 10
104.6382296830418
 20
-109.259480766956
 30
0.0
 10
104.6382296830418
 20
-109.1430365395545
 30
0.0
 10
104.5999891231556
 20
-109.0944606932125
 30
0.0
 10
104.5682942446913
 20
-109.0627658147482
 30
0.0
 10
104.4945692013069
 20
-108.9886962618153
 30
0.0
 10
104.3781249739055
 20
-108.9759494085199
 30
0.0
 10
104.3230034461415
 20
-108.9759494085199
 30
0.0
 10
104.3040554209726
 20
-108.9759494085199
 30
0.0
 10
104.2678819183775
 20
-108.9780164658111
 30
0.0
 10
104.2403211544955
 20
-108.9821505803934
 30
0.0
 10
104.2403211544955
 20
-108.9821505803934
 30
0.0
 10
104.2403211544955
 20
-108.7875026854767
 30
0.0
 10
104.2403211544955
 20
-108.7875026854767
 30
0.0
 10
104.2785617143818
 20
-108.7940483668987
 30
0.0
 10
104.3209363888503
 20
-108.7961154241899
 30
0.0
 10
104.3271375607238
 20
-108.7961154241899
 30
0.0
 10
104.3925943749435
 20
-108.7961154241899
 30
0.0
 10
104.591720893991
 20
-108.7747558321813
 30
0.0
 10
104.591720893991
 20
-108.5380777723446
 30
0.0
 10
104.591720893991
 20
-108.3603108453058
 30
0.0
 10
104.4604627560029
 20
-108.3051893175418
 30
0.0
 10
104.3505642100235
 20
-108.3051893175418
 30
0.0
 10
104.0859808767563
 20
-108.3051893175418
 30
0.0
 10
104.0777126475917
 20
-108.5380777723446
 30
0.0
 10
104.0735785330094
 20
-108.6097357584378
 30
0.0
 10
104.0735785330094
 20
-108.6097357584378
 30
0.0
 10
103.8703178993796
 20
-108.6097357584378
 30
0.0
 10
103.8703178993796
 20
-108.6097357584378
 30
0.0
 10
103.8785861285442
 20
-108.4850233018718
 30
0.0
 10
103.9061468924262
 20
-108.108474365334
 30
0.0
 10
104.3629665537704
 20
-108.108474365334
 30
0.0
 10
104.5875867794087
 20
-108.108474365334
 30
0.0
 10
104.8287434633762
 20
-108.2355983887397
 30
0.0
 10
104.8287434633762
 20
-108.5315320909227
 30
0.0
 10
104.8287434633762
 20
-108.7179117566747
 30
0.0
 10
104.7336588279833
 20
-108.8002495387722
 30
0.0
 10
104.633751058911
 20
-108.8615722384096
 30
0.0
 10
104.695418268097
 20
-108.8891330022916
 30
0.0
 10
104.8773193097182
 20
-108.9694037270979
 30
0.0
 10
104.8773193097182
 20
-109.2467339136605
 30
0.0
 10
104.8773193097182
 20
-109.5850422903121
 30
0.0
 10
104.6296169443287
 20
-109.7521294213467
 30
0.0
 10
104.3526312673146
 20
-109.7521294213467
 30
0.0
  0
HATCH
  5
C6
330
B7
100
AcDbEntity
  8
_U+30EC_U+30A4_U+30E4_U+30FC 1
 62
   179
420
  2234388
100
AcDbHatch
 10
0.0
 20
0.0
 30
0.0
210
0.0
220
0.0
230
1.0
  2
SOLID
 70
     1
 71
     0
 91
        1
 92
        1
 93
        1
 72
     4
 94
        3
 73
     0
 74
     1
 95
       62
 96
       58
 40
0.0
 40
0.0
 40
0.0
 40
0.0
 40
1.0
 40
1.0
 40
1.0
 40
2.0
 40
2.0
 40
2.0
 40
3.0
 40
3.0
 40
3.0
 40
4.0
 40
4.0
 40
4.0
 40
5.0
 40
5.0
 40
5.0
 40
6.0
 40
6.0
 40
6.0
 40
7.0
 40
7.0
 40
7.0
 40
8.0
 40
8.0
 40
8.0
 40
9.0
 40
9.0
 40
9.0
 40
10.0
 40
10.0
 40
10.0
 40
11.0
 40
11.0
 40
11.0
 40
12.0
 40
12.0
 40
12.0
 40
13.0
 40
13.0
 40
13.0
 40
14.0
 40
14.0
 40
14.0
 40
15.0
 40
15.0
 40
15.0
 40
16.0
 40
16.0
 40
16.0
 40
17.0
 40
17.0
 40
17.0
 40
18.0
 40
18.0
 40
18.0
 40
19.0
 40
19.0
 40
19.0
 40
19.0
 10
104.3526312673146
 20
-109.7521294213467
 10
104.2575466319217
 20
-109.7521294213467
 10
104.0394720877054
 20
-109.7311143388867
 10
103.9147596311394
 20
-109.5450791826832
 10
103.8406900782065
 20
-109.432769069864
 10
103.8365559636242
 20
-109.3335503198888
 10
103.8324218490419
 20
-109.2488009709517
 10
103.8324218490419
 20
-109.2488009709517
 10
104.0522189410008
 20
-109.2488009709517
 10
104.0522189410008
 20
-109.2488009709517
 10
104.054285998292
 20
-109.3228705238846
 10
104.0649657942963
 20
-109.5574815264301
 10
104.3484971527323
 20
-109.5574815264301
 10
104.4859564625938
 20
-109.5574815264301
 10
104.6382296830418
 20
-109.487890597628
 10
104.6382296830418
 20
-109.259480766956
 10
104.6382296830418
 20
-109.1430365395545
 10
104.5999891231556
 20
-109.0944606932125
 10
104.5682942446913
 20
-109.0627658147482
 10
104.4945692013069
 20
-108.9886962618153
 10
104.3781249739055
 20
-108.9759494085199
 10
104.3230034461415
 20
-108.9759494085199
 10
104.3040554209726
 20
-108.9759494085199
 10
104.2678819183775
 20
-108.9780164658111
 10
104.2403211544955
 20
-108.9821505803934
 10
104.2403211544955
 20
-108.9821505803934
 10
104.2403211544955
 20
-108.7875026854767
 10
104.2403211544955
 20
-108.7875026854767
 10
104.2785617143818
 20
-108.7940483668987
 10
104.3209363888503
 20
-108.7961154241899
 10
104.3271375607238
 20
-108.7961154241899
 10
104.3925943749435
 20
-108.7961154241899
 10
104.591720893991
 20
-108.7747558321813
 10
104.591720893991
 20
-108.5380777723446
 10
104.591720893991
 20
-108.3603108453058
 10
104.4604627560029
 20
-108.3051893175418
 10
104.3505642100235
 20
-108.3051893175418
 10
104.0859808767563
 20
-108.3051893175418
 10
104.0777126475917
 20
-108.5380777723446
 10
104.0735785330094
 20
-108.6097357584378
 10
104.0735785330094
 20
-108.6097357584378
 10
103.8703178993796
 20
-108.6097357584378
 10
103.8703178993796
 20
-108.6097357584378
 10
103.8785861285442
 20
-108.4850233018718
 10
103.9061468924262
 20
-108.108474365334
 10
104.3629665537704
 20
-108.108474365334
 10
104.5875867794087
 20
-108.108474365334
 10
104.8287434633762
 20
-108.2355983887397
 10
104.8287434633762
 20
-108.5315320909227
 10
104.8287434633762
 20
-108.7179117566747
 10
104.7336588279833
 20
-108.8002495387722
 10
104.633751058911
 20
-108.8615722384096
 10
104.695418268097
 20
-108.8891330022916
 10
104.8773193097182
 20
-108.9694037270979
 10
104.8773193097182
 20
-109.2467339136605
 10
104.8773193097182
 20
-109.5850422903121
 10
104.6296169443287
 20
-109.7521294213467
 10
104.3526312673146
 20
-109.7521294213467
 97
        0
 97
        0
 75
     2
 76
     1
 98
        0
  0
ENDBLK
  5
BA
330
B7
100
AcDbEntity
  8
0
100
AcDbBlockEnd
  0
BLOCK
  5
C9
330
C7
100
AcDbEntity
  8
0
100
AcDbBlockBegin
  2
block 4
 70
     0
 10
0.0
 20
0.0
 30
0.0
  3
block 4
  1

  0
POLYLINE
  5
CB
330
C7
100
AcDbEntity
  8
_U+30EC_U+30A4_U+30E4_U+30FC 1
370
     0
100
AcDb2dPolyline
 66
     1
 10
0.0
 20
0.0
 30
0.0
  0
VERTEX
  5
CC
330
CB
100
AcDbEntity
  8
_U+30EC_U+30A4_U+30E4_U+30FC 1
370
     0
100
AcDbVertex
100
AcDb2dVertex
 10
83.08777938461
 20
-121.4613199566138
 30
0.0
  0
VERTEX
  5
CD
330
CB
100
AcDbEntity
  8
_U+30EC_U+30A4_U+30E4_U+30FC 1
370
     0
100
AcDbVertex
100
AcDb2dVertex
 10
83.08777938461
 20
-121.8082410719785
 30
0.0
  0
VERTEX
  5
CE
330
CB
100
AcDbEntity
  8
_U+30EC_U+30A4_U+30E4_U+30FC 1
370
     0
100
AcDbVertex
100
AcDb2dVertex
 10
82.86987709516795
 20
-121.8082410719785
 30
0.0
  0
VERTEX
  5
CF
330
CB
100
AcDbEntity
  8
_U+30EC_U+30A4_U+30E4_U+30FC 1
370
     0
100
AcDbVertex
100
AcDb2dVertex
 10
82.86987709516795
 20
-121.4613199566138
 30
0.0
  0
VERTEX
  5
D0
330
CB
100
AcDbEntity
  8
_U+30EC_U+30A4_U+30E4_U+30FC 1
370
     0
100
AcDbVertex
100
AcDb2dVertex
 10
82.21410316955064
 20
-121.4613199566138
 30
0.0
  0
VERTEX
  5
D1
330
CB
100
AcDbEntity
  8
_U+30EC_U+30A4_U+30E4_U+30FC 1
370
     0
100
AcDbVertex
100
AcDb2dVertex
 10
82.21410316955064
 20
-121.2370442405241
 30
0.0
  0
VERTEX
  5
D2
330
CB
100
AcDbEntity
  8
_U+30EC_U+30A4_U+30E4_U+30FC 1
370
     0
100
AcDbVertex
100
AcDb2dVertex
 10
82.89313148969339
 20
-120.263804765941
 30
0.0
  0
VERTEX
  5
D3
330
CB
100
AcDbEntity
  8
_U+30EC_U+30A4_U+30E4_U+30FC 1
370
     0
100
AcDbVertex
100
AcDb2dVertex
 10
83.08777938461
 20
-120.263804765941
 30
0.0
  0
VERTEX
  5
D4
330
CB
100
AcDbEntity
  8
_U+30EC_U+30A4_U+30E4_U+30FC 1
370
     0
100
AcDbVertex
100
AcDb2dVertex
 10
83.08777938461
 20
-121.2625379471149
 30
0.0
  0
VERTEX
  5
D5
330
CB
100
AcDbEntity
  8
_U+30EC_U+30A4_U+30E4_U+30FC 1
370
     0
100
AcDbVertex
100
AcDb2dVertex
 10
83.29517413282204
 20
-121.2625379471149
 30
0.0
  0
VERTEX
  5
D6
330
CB
100
AcDbEntity
  8
_U+30EC_U+30A4_U+30E4_U+30FC 1
370
     0
100
AcDbVertex
100
AcDb2dVertex
 10
83.29517413282204
 20
-121.4613199566138
 30
0.0
  0
VERTEX
  5
D7
330
CB
100
AcDbEntity
  8
_U+30EC_U+30A4_U+30E4_U+30FC 1
370
     0
100
AcDbVertex
100
AcDb2dVertex
 10
83.08777938461
 20
-121.4613199566138
 30
0.0
  0
SEQEND
  5
D8
330
CB
100
AcDbEntity
  8
_U+30EC_U+30A4_U+30E4_U+30FC 1
370
     0
  0
POLYLINE
  5
D9
330
C7
100
AcDbEntity
  8
_U+30EC_U+30A4_U+30E4_U+30FC 1
370
     0
100
AcDb2dPolyline
 66
     1
 10
0.0
 20
0.0
 30
0.0
  0
VERTEX
  5
DA
330
D9
100
AcDbEntity
  8
_U+30EC_U+30A4_U+30E4_U+30FC 1
370
     0
100
AcDbVertex
100
AcDb2dVertex
 10
82.86987709516795
 20
-120.6065917667234
 30
0.0
  0
VERTEX
  5
DB
330
D9
100
AcDbEntity
  8
_U+30EC_U+30A4_U+30E4_U+30FC 1
370
     0
100
AcDbVertex
100
AcDb2dVertex
 10
82.41305743382382
 20
-121.2625379471149
 30
0.0
  0
VERTEX
  5
DC
330
D9
100
AcDbEntity
  8
_U+30EC_U+30A4_U+30E4_U+30FC 1
370
     0
100
AcDbVertex
100
AcDb2dVertex
 10
82.86987709516795
 20
-121.2625379471149
 30
0.0
  0
VERTEX
  5
DD
330
D9
100
AcDbEntity
  8
_U+30EC_U+30A4_U+30E4_U+30FC 1
370
     0
100
AcDbVertex
100
AcDb2dVertex
 10
82.86987709516795
 20
-120.6065917667234
 30
0.0
  0
SEQEND
  5
DE
330
D9
100
AcDbEntity
  8
_U+30EC_U+30A4_U+30E4_U+30FC 1
370
     0
  0
HATCH
  5
DF
330
C7
100
AcDbEntity
  8
_U+30EC_U+30A4_U+30E4_U+30FC 1
 62
   179
420
  2234388
100
AcDbHatch
 10
0.0
 20
0.0
 30
0.0
210
0.0
220
0.0
230
1.0
  2
SOLID
 70
     1
 71
     0
 91
        2
 92
        1
 93
       11
 72
     1
 10
83.08777938461
 20
-121.4613199566138
 11
83.08777938461
 21
-121.8082410719785
 72
     1
 10
83.08777938461
 20
-121.8082410719785
 11
82.86987709516795
 21
-121.8082410719785
 72
     1
 10
82.86987709516795
 20
-121.8082410719785
 11
82.86987709516795
 21
-121.4613199566138
 72
     1
 10
82.86987709516795
 20
-121.4613199566138
 11
82.21410316955064
 21
-121.4613199566138
 72
     1
 10
82.21410316955064
 20
-121.4613199566138
 11
82.21410316955064
 21
-121.2370442405241
 72
     1
 10
82.21410316955064
 20
-121.2370442405241
 11
82.89313148969339
 21
-120.263804765941
 72
     1
 10
82.89313148969339
 20
-120.263804765941
 11
83.08777938461
 21
-120.263804765941
 72
     1
 10
83.08777938461
 20
-120.263804765941
 11
83.08777938461
 21
-121.2625379471149
 72
     1
 10
83.08777938461
 20
-121.2625379471149
 11
83.29517413282204
 21
-121.2625379471149
 72
     1
 10
83.29517413282204
 20
-121.2625379471149
 11
83.29517413282204
 21
-121.4613199566138
 72
     1
 10
83.29517413282204
 20
-121.4613199566138
 11
83.08777938461
 21
-121.4613199566138
 97
        0
 92
        1
 93
        3
 72
     1
 10
82.86987709516795
 20
-120.6065917667234
 11
82.41305743382382
 21
-121.2625379471149
 72
     1
 10
82.41305743382382
 20
-121.2625379471149
 11
82.86987709516795
 21
-121.2625379471149
 72
     1
 10
82.86987709516795
 20
-121.2625379471149
 11
82.86987709516795
 21
-120.6065917667234
 97
        0
 75
     2
 76
     1
 98
        0
  0
SPLINE
  5
E0
330
C7
100
AcDbEntity
  8
_U+30EC_U+30A4_U+30E4_U+30FC 1
370
     0
100
AcDbSpline
210
0.0
220
0.0
230
1.0
 70
    11
 71
     3
 72
    29
 73
    25
 74
     0
 42
0.0000000001
 43
0.0000000001
 12
1.0
 22
0.0
 32
0.0
 13
1.0
 23
0.0
 33
0.0
 40
0.0
 40
0.0
 40
0.0
 40
0.0
 40
1.0
 40
1.0
 40
1.0
 40
2.0
 40
2.0
 40
2.0
 40
3.0
 40
3.0
 40
3.0
 40
4.0
 40
4.0
 40
4.0
 40
5.0
 40
5.0
 40
5.0
 40
6.0
 40
6.0
 40
6.0
 40
7.0
 40
7.0
 40
7.0
 40
8.0
 40
8.0
 40
8.0
 40
8.0
 10
84.33025307136536
 20
-121.6304741449396
 30
0.0
 10
84.22242158267704
 20
-121.8399359504428
 30
0.0
 10
84.04896102499471
 20
-121.8588839756117
 30
0.0
 10
83.93251679759327
 20
-121.8588839756117
 30
0.0
 10
83.77180309320636
 20
-121.8588839756117
 30
0.0
 10
83.63003741398833
 20
-121.8123751865608
 30
0.0
 10
83.53478052382117
 20
-121.6304741449396
 30
0.0
 10
83.4312554044894
 20
-121.435826250023
 30
0.0
 10
83.41213512454628
 20
-121.1988036806378
 30
0.0
 10
83.41213512454628
 20
-121.036195173734
 30
0.0
 10
83.41213512454628
 20
-120.8921901824506
 30
0.0
 10
83.42901609242399
 20
-120.6403537024788
 30
0.0
 10
83.53478052382117
 20
-120.4415716929799
 30
0.0
 10
83.64278426728376
 20
-120.2386555688987
 30
0.0
 10
83.80349797167065
 20
-120.215228919599
 30
0.0
 10
83.93251679759327
 20
-120.215228919599
 30
0.0
 10
84.09116344468902
 20
-120.215228919599
 30
0.0
 10
84.2349961811982
 20
-120.2596706513587
 30
0.0
 10
84.33025307136536
 20
-120.4415716929799
 30
0.0
 10
84.42964407611481
 20
-120.6341525306054
 30
0.0
 10
84.45289847064025
 20
-120.8625623612774
 30
0.0
 10
84.45289847064025
 20
-121.036195173734
 30
0.0
 10
84.45289847064025
 20
-121.2074164193509
 30
0.0
 10
84.43188338818022
 20
-121.4378933073141
 30
0.0
 10
84.33025307136536
 20
-121.6304741449396
 30
0.0
  0
SPLINE
  5
E1
330
C7
100
AcDbEntity
  8
_U+30EC_U+30A4_U+30E4_U+30FC 1
370
     0
100
AcDbSpline
210
0.0
220
0.0
230
1.0
 70
    11
 71
     3
 72
    17
 73
    13
 74
     0
 42
0.0000000001
 43
0.0000000001
 12
1.0
 22
0.0
 32
0.0
 13
1.0
 23
0.0
 33
0.0
 40
0.0
 40
0.0
 40
0.0
 40
0.0
 40
1.0
 40
1.0
 40
1.0
 40
2.0
 40
2.0
 40
2.0
 40
3.0
 40
3.0
 40
3.0
 40
4.0
 40
4.0
 40
4.0
 40
4.0
 10
83.93251679759327
 20
-120.4078097572244
 30
0.0
 10
83.68291962968691
 20
-120.4078097572244
 30
0.0
 10
83.63641084063605
 20
-120.6913411156605
 30
0.0
 10
83.63641084063605
 20
-121.036195173734
 30
0.0
 10
83.63641084063605
 20
-121.3555555252167
 30
0.0
 10
83.6724120884569
 20
-121.6642360806951
 30
0.0
 10
83.93251679759327
 20
-121.6642360806951
 30
0.0
 10
84.18004690820847
 20
-121.6642360806951
 30
0.0
 10
84.22879500932476
 20
-121.3831162890987
 30
0.0
 10
84.22879500932476
 20
-121.036195173734
 30
0.0
 10
84.22879500932476
 20
-120.7164903127028
 30
0.0
 10
84.19055444943848
 20
-120.4078097572244
 30
0.0
 10
83.93251679759327
 20
-120.4078097572244
 30
0.0
  0
HATCH
  5
E2
330
C7
100
AcDbEntity
  8
_U+30EC_U+30A4_U+30E4_U+30FC 1
 62
   179
420
  2234388
100
AcDbHatch
 10
0.0
 20
0.0
 30
0.0
210
0.0
220
0.0
230
1.0
  2
SOLID
 70
     1
 71
     0
 91
        2
 92
        1
 93
        1
 72
     4
 94
        3
 73
     0
 74
     1
 95
       29
 96
       25
 40
0.0
 40
0.0
 40
0.0
 40
0.0
 40
1.0
 40
1.0
 40
1.0
 40
2.0
 40
2.0
 40
2.0
 40
3.0
 40
3.0
 40
3.0
 40
4.0
 40
4.0
 40
4.0
 40
5.0
 40
5.0
 40
5.0
 40
6.0
 40
6.0
 40
6.0
 40
7.0
 40
7.0
 40
7.0
 40
8.0
 40
8.0
 40
8.0
 40
8.0
 10
84.33025307136536
 20
-121.6304741449396
 10
84.22242158267704
 20
-121.8399359504428
 10
84.04896102499471
 20
-121.8588839756117
 10
83.93251679759327
 20
-121.8588839756117
 10
83.77180309320636
 20
-121.8588839756117
 10
83.63003741398833
 20
-121.8123751865608
 10
83.53478052382117
 20
-121.6304741449396
 10
83.4312554044894
 20
-121.435826250023
 10
83.41213512454628
 20
-121.1988036806378
 10
83.41213512454628
 20
-121.036195173734
 10
83.41213512454628
 20
-120.8921901824506
 10
83.42901609242399
 20
-120.6403537024788
 10
83.53478052382117
 20
-120.4415716929799
 10
83.64278426728376
 20
-120.2386555688987
 10
83.80349797167065
 20
-120.215228919599
 10
83.93251679759327
 20
-120.215228919599
 10
84.09116344468902
 20
-120.215228919599
 10
84.2349961811982
 20
-120.2596706513587
 10
84.33025307136536
 20
-120.4415716929799
 10
84.42964407611481
 20
-120.6341525306054
 10
84.45289847064025
 20
-120.8625623612774
 10
84.45289847064025
 20
-121.036195173734
 10
84.45289847064025
 20
-121.2074164193509
 10
84.43188338818022
 20
-121.4378933073141
 10
84.33025307136536
 20
-121.6304741449396
 97
        0
 97
        0
 92
        1
 93
        1
 72
     4
 94
        3
 73
     0
 74
     1
 95
       17
 96
       13
 40
0.0
 40
0.0
 40
0.0
 40
0.0
 40
1.0
 40
1.0
 40
1.0
 40
2.0
 40
2.0
 40
2.0
 40
3.0
 40
3.0
 40
3.0
 40
4.0
 40
4.0
 40
4.0
 40
4.0
 10
83.93251679759327
 20
-120.4078097572244
 10
83.68291962968691
 20
-120.4078097572244
 10
83.63641084063605
 20
-120.6913411156605
 10
83.63641084063605
 20
-121.036195173734
 10
83.63641084063605
 20
-121.3555555252167
 10
83.6724120884569
 20
-121.6642360806951
 10
83.93251679759327
 20
-121.6642360806951
 10
84.18004690820847
 20
-121.6642360806951
 10
84.22879500932476
 20
-121.3831162890987
 10
84.22879500932476
 20
-121.036195173734
 10
84.22879500932476
 20
-120.7164903127028
 10
84.19055444943848
 20
-120.4078097572244
 10
83.93251679759327
 20
-120.4078097572244
 97
        0
 97
        0
 75
     2
 76
     1
 98
        0
  0
ENDBLK
  5
CA
330
C7
100
AcDbEntity
  8
0
100
AcDbBlockEnd
  0
BLOCK
  5
E5
330
E3
100
AcDbEntity
  8
0
100
AcDbBlockBegin
  2
block 5
 70
     0
 10
0.0
 20
0.0
 30
0.0
  3
block 5
  1

  0
SPLINE
  5
E7
330
E3
100
AcDbEntity
  8
_U+30EC_U+30A4_U+30E4_U+30FC 1
370
     0
100
AcDbSpline
210
0.0
220
0.0
230
1.0
 70
    11
 71
     3
 72
    32
 73
    28
 74
     0
 42
0.0000000001
 43
0.0000000001
 12
1.0
 22
0.0
 32
0.0
 13
1.0
 23
0.0
 33
0.0
 40
0.0
 40
0.0
 40
0.0
 40
0.0
 40
1.0
 40
1.0
 40
1.0
 40
2.0
 40
2.0
 40
2.0
 40
3.0
 40
3.0
 40
3.0
 40
4.0
 40
4.0
 40
4.0
 40
5.0
 40
5.0
 40
5.0
 40
6.0
 40
6.0
 40
6.0
 40
7.0
 40
7.0
 40
7.0
 40
8.0
 40
8.0
 40
8.0
 40
9.0
 40
9.0
 40
9.0
 40
9.0
 10
76.19965547140148
 20
-127.4671549160499
 30
0.0
 10
75.68340791293679
 20
-127.4671549160499
 30
0.0
 10
75.67496742899793
 20
-126.9131835620217
 30
0.0
 10
75.67496742899793
 20
-126.6992431323877
 30
0.0
 10
75.67496742899793
 20
-126.4687662444245
 30
0.0
 10
75.69408770894107
 20
-125.821432802746
 30
0.0
 10
76.23772377651349
 20
-125.821432802746
 30
0.0
 10
76.41118433419582
 20
-125.821432802746
 30
0.0
 10
76.65664738751987
 20
-125.8913682410966
 30
0.0
 10
76.69471569263187
 20
-126.2234754458747
 30
0.0
 10
76.69471569263187
 20
-126.2234754458747
 30
0.0
 10
76.48094751777212
 20
-126.2234754458747
 30
0.0
 10
76.48094751777212
 20
-126.2234754458747
 30
0.0
 10
76.47043997654211
 20
-126.1662868608195
 30
0.0
 10
76.43874509807782
 20
-126.0181477549538
 30
0.0
 10
76.23565671922233
 20
-126.0181477549538
 30
0.0
 10
75.94368487684741
 20
-126.0181477549538
 30
0.0
 10
75.90337725967
 20
-126.3461208451496
 30
0.0
 10
75.89080266114883
 20
-126.551104026522
 30
0.0
 10
75.98382023925058
 20
-126.4729003590068
 30
0.0
 10
76.05151636553573
 20
-126.4136447166605
 30
0.0
 10
76.23341740715692
 20
-126.4136447166605
 30
0.0
 10
76.41325139148697
 20
-126.4136447166605
 30
0.0
 10
76.7157307750919
 20
-126.5218207148973
 30
0.0
 10
76.7157307750919
 20
-126.9279974726083
 30
0.0
 10
76.7157307750919
 20
-127.2473578240909
 30
0.0
 10
76.51694876559299
 20
-127.4671549160499
 30
0.0
 10
76.19965547140148
 20
-127.4671549160499
 30
0.0
  0
SPLINE
  5
E8
330
E3
100
AcDbEntity
  8
_U+30EC_U+30A4_U+30E4_U+30FC 1
370
     0
100
AcDbSpline
210
0.0
220
0.0
230
1.0
 70
    11
 71
     3
 72
    17
 73
    13
 74
     0
 42
0.0000000001
 43
0.0000000001
 12
1.0
 22
0.0
 32
0.0
 13
1.0
 23
0.0
 33
0.0
 40
0.0
 40
0.0
 40
0.0
 40
0.0
 40
1.0
 40
1.0
 40
1.0
 40
2.0
 40
2.0
 40
2.0
 40
3.0
 40
3.0
 40
3.0
 40
4.0
 40
4.0
 40
4.0
 40
4.0
 10
76.2165364392792
 20
-126.6082926115771
 30
0.0
 10
75.95419241807743
 20
-126.6082926115771
 30
0.0
 10
75.91612411296542
 20
-126.8198214743714
 30
0.0
 10
75.91612411296542
 20
-126.9362657017729
 30
0.0
 10
75.91612411296542
 20
-127.1119655715206
 30
0.0
 10
76.01138100313257
 20
-127.2749185879729
 30
0.0
 10
76.19534910204491
 20
-127.2749185879729
 30
0.0
 10
76.31592744402866
 20
-127.2749185879729
 30
0.0
 10
76.4916273137764
 20
-127.2156629456266
 30
0.0
 10
76.4916273137764
 20
-126.9300645298994
 30
0.0
 10
76.4916273137764
 20
-126.7057888138097
 30
0.0
 10
76.35192869184952
 20
-126.6082926115771
 30
0.0
 10
76.2165364392792
 20
-126.6082926115771
 30
0.0
  0
HATCH
  5
E9
330
E3
100
AcDbEntity
  8
_U+30EC_U+30A4_U+30E4_U+30FC 1
 62
   179
420
  2234388
100
AcDbHatch
 10
0.0
 20
0.0
 30
0.0
210
0.0
220
0.0
230
1.0
  2
SOLID
 70
     1
 71
     0
 91
        2
 92
        1
 93
        1
 72
     4
 94
        3
 73
     0
 74
     1
 95
       32
 96
       28
 40
0.0
 40
0.0
 40
0.0
 40
0.0
 40
1.0
 40
1.0
 40
1.0
 40
2.0
 40
2.0
 40
2.0
 40
3.0
 40
3.0
 40
3.0
 40
4.0
 40
4.0
 40
4.0
 40
5.0
 40
5.0
 40
5.0
 40
6.0
 40
6.0
 40
6.0
 40
7.0
 40
7.0
 40
7.0
 40
8.0
 40
8.0
 40
8.0
 40
9.0
 40
9.0
 40
9.0
 40
9.0
 10
76.19965547140148
 20
-127.4671549160499
 10
75.68340791293679
 20
-127.4671549160499
 10
75.67496742899793
 20
-126.9131835620217
 10
75.67496742899793
 20
-126.6992431323877
 10
75.67496742899793
 20
-126.4687662444245
 10
75.69408770894107
 20
-125.821432802746
 10
76.23772377651349
 20
-125.821432802746
 10
76.41118433419582
 20
-125.821432802746
 10
76.65664738751987
 20
-125.8913682410966
 10
76.69471569263187
 20
-126.2234754458747
 10
76.69471569263187
 20
-126.2234754458747
 10
76.48094751777212
 20
-126.2234754458747
 10
76.48094751777212
 20
-126.2234754458747
 10
76.47043997654211
 20
-126.1662868608195
 10
76.43874509807782
 20
-126.0181477549538
 10
76.23565671922233
 20
-126.0181477549538
 10
75.94368487684741
 20
-126.0181477549538
 10
75.90337725967
 20
-126.3461208451496
 10
75.89080266114883
 20
-126.551104026522
 10
75.98382023925058
 20
-126.4729003590068
 10
76.05151636553573
 20
-126.4136447166605
 10
76.23341740715692
 20
-126.4136447166605
 10
76.41325139148697
 20
-126.4136447166605
 10
76.7157307750919
 20
-126.5218207148973
 10
76.7157307750919
 20
-126.9279974726083
 10
76.7157307750919
 20
-127.2473578240909
 10
76.51694876559299
 20
-127.4671549160499
 10
76.19965547140148
 20
-127.4671549160499
 97
        0
 97
        0
 92
        1
 93
        1
 72
     4
 94
        3
 73
     0
 74
     1
 95
       17
 96
       13
 40
0.0
 40
0.0
 40
0.0
 40
0.0
 40
1.0
 40
1.0
 40
1.0
 40
2.0
 40
2.0
 40
2.0
 40
3.0
 40
3.0
 40
3.0
 40
4.0
 40
4.0
 40
4.0
 40
4.0
 10
76.2165364392792
 20
-126.6082926115771
 10
75.95419241807743
 20
-126.6082926115771
 10
75.91612411296542
 20
-126.8198214743714
 10
75.91612411296542
 20
-126.9362657017729
 10
75.91612411296542
 20
-127.1119655715206
 10
76.01138100313257
 20
-127.2749185879729
 10
76.19534910204491
 20
-127.2749185879729
 10
76.31592744402866
 20
-127.2749185879729
 10
76.4916273137764
 20
-127.2156629456266
 10
76.4916273137764
 20
-126.9300645298994
 10
76.4916273137764
 20
-126.7057888138097
 10
76.35192869184952
 20
-126.6082926115771
 10
76.2165364392792
 20
-126.6082926115771
 97
        0
 97
        0
 75
     2
 76
     1
 98
        0
  0
SPLINE
  5
EA
330
E3
100
AcDbEntity
  8
_U+30EC_U+30A4_U+30E4_U+30FC 1
370
     0
100
AcDbSpline
210
0.0
220
0.0
230
1.0
 70
    11
 71
     3
 72
    32
 73
    28
 74
     0
 42
0.0000000001
 43
0.0000000001
 12
1.0
 22
0.0
 32
0.0
 13
1.0
 23
0.0
 33
0.0
 40
0.0
 40
0.0
 40
0.0
 40
0.0
 40
1.0
 40
1.0
 40
1.0
 40
2.0
 40
2.0
 40
2.0
 40
3.0
 40
3.0
 40
3.0
 40
4.0
 40
4.0
 40
4.0
 40
5.0
 40
5.0
 40
5.0
 40
6.0
 40
6.0
 40
6.0
 40
7.0
 40
7.0
 40
7.0
 40
8.0
 40
8.0
 40
8.0
 40
9.0
 40
9.0
 40
9.0
 40
9.0
 10
77.37650008916282
 20
-127.4671549160499
 30
0.0
 10
76.86025253069813
 20
-127.4671549160499
 30
0.0
 10
76.85181204675928
 20
-126.9131835620217
 30
0.0
 10
76.85181204675928
 20
-126.6992431323877
 30
0.0
 10
76.85181204675928
 20
-126.4687662444245
 30
0.0
 10
76.87093232670242
 20
-125.821432802746
 30
0.0
 10
77.41456839427484
 20
-125.821432802746
 30
0.0
 10
77.58802895195716
 20
-125.821432802746
 30
0.0
 10
77.83349200528122
 20
-125.8913682410966
 30
0.0
 10
77.87156031039322
 20
-126.2234754458747
 30
0.0
 10
77.87156031039322
 20
-126.2234754458747
 30
0.0
 10
77.65779213553347
 20
-126.2234754458747
 30
0.0
 10
77.65779213553347
 20
-126.2234754458747
 30
0.0
 10
77.64728459430346
 20
-126.1662868608195
 30
0.0
 10
77.61558971583916
 20
-126.0181477549538
 30
0.0
 10
77.41250133698368
 20
-126.0181477549538
 30
0.0
 10
77.12052949460876
 20
-126.0181477549538
 30
0.0
 10
77.08022187743134
 20
-126.3461208451496
 30
0.0
 10
77.06764727891017
 20
-126.551104026522
 30
0.0
 10
77.16066485701192
 20
-126.4729003590068
 30
0.0
 10
77.22836098329708
 20
-126.4136447166605
 30
0.0
 10
77.41026202491827
 20
-126.4136447166605
 30
0.0
 10
77.59009600924831
 20
-126.4136447166605
 30
0.0
 10
77.89257539285325
 20
-126.5218207148973
 30
0.0
 10
77.89257539285325
 20
-126.9279974726083
 30
0.0
 10
77.89257539285325
 20
-127.2473578240909
 30
0.0
 10
77.69379338335433
 20
-127.4671549160499
 30
0.0
 10
77.37650008916282
 20
-127.4671549160499
 30
0.0
  0
SPLINE
  5
EB
330
E3
100
AcDbEntity
  8
_U+30EC_U+30A4_U+30E4_U+30FC 1
370
     0
100
AcDbSpline
210
0.0
220
0.0
230
1.0
 70
    11
 71
     3
 72
    17
 73
    13
 74
     0
 42
0.0000000001
 43
0.0000000001
 12
1.0
 22
0.0
 32
0.0
 13
1.0
 23
0.0
 33
0.0
 40
0.0
 40
0.0
 40
0.0
 40
0.0
 40
1.0
 40
1.0
 40
1.0
 40
2.0
 40
2.0
 40
2.0
 40
3.0
 40
3.0
 40
3.0
 40
4.0
 40
4.0
 40
4.0
 40
4.0
 10
77.39338105704054
 20
-126.6082926115771
 30
0.0
 10
77.13103703583877
 20
-126.6082926115771
 30
0.0
 10
77.09296873072677
 20
-126.8198214743714
 30
0.0
 10
77.09296873072677
 20
-126.9362657017729
 30
0.0
 10
77.09296873072677
 20
-127.1119655715206
 30
0.0
 10
77.18822562089392
 20
-127.2749185879729
 30
0.0
 10
77.37219371980626
 20
-127.2749185879729
 30
0.0
 10
77.49277206179
 20
-127.2749185879729
 30
0.0
 10
77.66847193153775
 20
-127.2156629456266
 30
0.0
 10
77.66847193153775
 20
-126.9300645298994
 30
0.0
 10
77.66847193153775
 20
-126.7057888138097
 30
0.0
 10
77.52877330961087
 20
-126.6082926115771
 30
0.0
 10
77.39338105704054
 20
-126.6082926115771
 30
0.0
  0
HATCH
  5
EC
330
E3
100
AcDbEntity
  8
_U+30EC_U+30A4_U+30E4_U+30FC 1
 62
   179
420
  2234388
100
AcDbHatch
 10
0.0
 20
0.0
 30
0.0
210
0.0
220
0.0
230
1.0
  2
SOLID
 70
     1
 71
     0
 91
        2
 92
        1
 93
        1
 72
     4
 94
        3
 73
     0
 74
     1
 95
       32
 96
       28
 40
0.0
 40
0.0
 40
0.0
 40
0.0
 40
1.0
 40
1.0
 40
1.0
 40
2.0
 40
2.0
 40
2.0
 40
3.0
 40
3.0
 40
3.0
 40
4.0
 40
4.0
 40
4.0
 40
5.0
 40
5.0
 40
5.0
 40
6.0
 40
6.0
 40
6.0
 40
7.0
 40
7.0
 40
7.0
 40
8.0
 40
8.0
 40
8.0
 40
9.0
 40
9.0
 40
9.0
 40
9.0
 10
77.37650008916282
 20
-127.4671549160499
 10
76.86025253069813
 20
-127.4671549160499
 10
76.85181204675928
 20
-126.9131835620217
 10
76.85181204675928
 20
-126.6992431323877
 10
76.85181204675928
 20
-126.4687662444245
 10
76.87093232670242
 20
-125.821432802746
 10
77.41456839427484
 20
-125.821432802746
 10
77.58802895195716
 20
-125.821432802746
 10
77.83349200528122
 20
-125.8913682410966
 10
77.87156031039322
 20
-126.2234754458747
 10
77.87156031039322
 20
-126.2234754458747
 10
77.65779213553347
 20
-126.2234754458747
 10
77.65779213553347
 20
-126.2234754458747
 10
77.64728459430346
 20
-126.1662868608195
 10
77.61558971583916
 20
-126.0181477549538
 10
77.41250133698368
 20
-126.0181477549538
 10
77.12052949460876
 20
-126.0181477549538
 10
77.08022187743134
 20
-126.3461208451496
 10
77.06764727891017
 20
-126.551104026522
 10
77.16066485701192
 20
-126.4729003590068
 10
77.22836098329708
 20
-126.4136447166605
 10
77.41026202491827
 20
-126.4136447166605
 10
77.59009600924831
 20
-126.4136447166605
 10
77.89257539285325
 20
-126.5218207148973
 10
77.89257539285325
 20
-126.9279974726083
 10
77.89257539285325
 20
-127.2473578240909
 10
77.69379338335433
 20
-127.4671549160499
 10
77.37650008916282
 20
-127.4671549160499
 97
        0
 97
        0
 92
        1
 93
        1
 72
     4
 94
        3
 73
     0
 74
     1
 95
       17
 96
       13
 40
0.0
 40
0.0
 40
0.0
 40
0.0
 40
1.0
 40
1.0
 40
1.0
 40
2.0
 40
2.0
 40
2.0
 40
3.0
 40
3.0
 40
3.0
 40
4.0
 40
4.0
 40
4.0
 40
4.0
 10
77.39338105704054
 20
-126.6082926115771
 10
77.13103703583877
 20
-126.6082926115771
 10
77.09296873072677
 20
-126.8198214743714
 10
77.09296873072677
 20
-126.9362657017729
 10
77.09296873072677
 20
-127.1119655715206
 10
77.18822562089392
 20
-127.2749185879729
 10
77.37219371980626
 20
-127.2749185879729
 10
77.49277206179
 20
-127.2749185879729
 10
77.66847193153775
 20
-127.2156629456266
 10
77.66847193153775
 20
-126.9300645298994
 10
77.66847193153775
 20
-126.7057888138097
 10
77.52877330961087
 20
-126.6082926115771
 10
77.39338105704054
 20
-126.6082926115771
 97
        0
 97
        0
 75
     2
 76
     1
 98
        0
  0
ENDBLK
  5
E6
330
E3
100
AcDbEntity
  8
0
100
AcDbBlockEnd
  0
BLOCK
  5
EF
330
ED
100
AcDbEntity
  8
0
100
AcDbBlockBegin
  2
block 6
 70
     0
 10
0.0
 20
0.0
 30
0.0
  3
block 6
  1

  0
SPLINE
  5
F1
330
ED
100
AcDbEntity
  8
_U+30EC_U+30A4_U+30E4_U+30FC 1
370
     0
100
AcDbSpline
210
0.0
220
0.0
230
1.0
 70
    11
 71
     3
 72
    26
 73
    22
 74
     0
 42
0.0000000001
 43
0.0000000001
 12
1.0
 22
0.0
 32
0.0
 13
1.0
 23
0.0
 33
0.0
 40
0.0
 40
0.0
 40
0.0
 40
0.0
 40
1.0
 40
1.0
 40
1.0
 40
2.0
 40
2.0
 40
2.0
 40
3.0
 40
3.0
 40
3.0
 40
4.0
 40
4.0
 40
4.0
 40
5.0
 40
5.0
 40
5.0
 40
6.0
 40
6.0
 40
6.0
 40
7.0
 40
7.0
 40
7.0
 40
7.0
 10
80.5270399104238
 20
-130.8564398544387
 30
0.0
 10
80.5270399104238
 20
-130.8564398544387
 30
0.0
 10
80.5270399104238
 20
-129.7522867514161
 30
0.0
 10
80.5270399104238
 20
-129.7522867514161
 30
0.0
 10
80.5270399104238
 20
-129.7522867514161
 30
0.0
 10
80.19699976293687
 20
-129.7522867514161
 30
0.0
 10
80.19699976293687
 20
-129.7522867514161
 30
0.0
 10
80.19699976293687
 20
-129.7522867514161
 30
0.0
 10
80.19699976293687
 20
-129.6041476455504
 30
0.0
 10
80.19699976293687
 20
-129.6041476455504
 30
0.0
 10
80.52910696771495
 20
-129.5893337349638
 30
0.0
 10
80.57561575676583
 20
-129.4263807185115
 30
0.0
 10
80.60524357793896
 20
-129.3120035484012
 30
0.0
 10
80.60524357793896
 20
-129.3120035484012
 30
0.0
 10
80.75131562651356
 20
-129.3120035484012
 30
0.0
 10
80.75131562651356
 20
-129.3120035484012
 30
0.0
 10
80.75131562651356
 20
-129.3120035484012
 30
0.0
 10
80.75131562651356
 20
-130.8564398544387
 30
0.0
 10
80.75131562651356
 20
-130.8564398544387
 30
0.0
 10
80.75131562651356
 20
-130.8564398544387
 30
0.0
 10
80.5270399104238
 20
-130.8564398544387
 30
0.0
 10
80.5270399104238
 20
-130.8564398544387
 30
0.0
  0
HATCH
  5
F2
330
ED
100
AcDbEntity
  8
_U+30EC_U+30A4_U+30E4_U+30FC 1
 62
   179
420
  2234388
100
AcDbHatch
 10
0.0
 20
0.0
 30
0.0
210
0.0
220
0.0
230
1.0
  2
SOLID
 70
     1
 71
     0
 91
        1
 92
        1
 93
        1
 72
     4
 94
        3
 73
     0
 74
     1
 95
       26
 96
       22
 40
0.0
 40
0.0
 40
0.0
 40
0.0
 40
1.0
 40
1.0
 40
1.0
 40
2.0
 40
2.0
 40
2.0
 40
3.0
 40
3.0
 40
3.0
 40
4.0
 40
4.0
 40
4.0
 40
5.0
 40
5.0
 40
5.0
 40
6.0
 40
6.0
 40
6.0
 40
7.0
 40
7.0
 40
7.0
 40
7.0
 10
80.5270399104238
 20
-130.8564398544387
 10
80.5270399104238
 20
-130.8564398544387
 10
80.5270399104238
 20
-129.7522867514161
 10
80.5270399104238
 20
-129.7522867514161
 10
80.5270399104238
 20
-129.7522867514161
 10
80.19699976293687
 20
-129.7522867514161
 10
80.19699976293687
 20
-129.7522867514161
 10
80.19699976293687
 20
-129.7522867514161
 10
80.19699976293687
 20
-129.6041476455504
 10
80.19699976293687
 20
-129.6041476455504
 10
80.52910696771495
 20
-129.5893337349638
 10
80.57561575676583
 20
-129.4263807185115
 10
80.60524357793896
 20
-129.3120035484012
 10
80.60524357793896
 20
-129.3120035484012
 10
80.75131562651356
 20
-129.3120035484012
 10
80.75131562651356
 20
-129.3120035484012
 10
80.75131562651356
 20
-129.3120035484012
 10
80.75131562651356
 20
-130.8564398544387
 10
80.75131562651356
 20
-130.8564398544387
 10
80.75131562651356
 20
-130.8564398544387
 10
80.5270399104238
 20
-130.8564398544387
 10
80.5270399104238
 20
-130.8564398544387
 97
        0
 97
        0
 75
     2
 76
     1
 98
        0
  0
ENDBLK
  5
F0
330
ED
100
AcDbEntity
  8
0
100
AcDbBlockEnd
  0
BLOCK
  5
F5
330
F3
100
AcDbEntity
  8
0
100
AcDbBlockBegin
  2
block 7
 70
     0
 10
0.0
 20
0.0
 30
0.0
  3
block 7
  1

  0
SPLINE
  5
F7
330
F3
100
AcDbEntity
  8
_U+30EC_U+30A4_U+30E4_U+30FC 1
370
     0
100
AcDbSpline
210
0.0
220
0.0
230
1.0
 70
    11
 71
     3
 72
    44
 73
    40
 74
     0
 42
0.0000000001
 43
0.0000000001
 12
1.0
 22
0.0
 32
0.0
 13
1.0
 23
0.0
 33
0.0
 40
0.0
 40
0.0
 40
0.0
 40
0.0
 40
1.0
 40
1.0
 40
1.0
 40
2.0
 40
2.0
 40
2.0
 40
3.0
 40
3.0
 40
3.0
 40
4.0
 40
4.0
 40
4.0
 40
5.0
 40
5.0
 40
5.0
 40
6.0
 40
6.0
 40
6.0
 40
7.0
 40
7.0
 40
7.0
 40
8.0
 40
8.0
 40
8.0
 40
9.0
 40
9.0
 40
9.0
 40
10.0
 40
10.0
 40
10.0
 40
11.0
 40
11.0
 40
11.0
 40
12.0
 40
12.0
 40
12.0
 40
13.0
 40
13.0
 40
13.0
 40
13.0
 10
82.6381944237849
 20
-135.9128064981399
 30
0.0
 10
82.42029213434284
 20
-136.0716254000099
 30
0.0
 10
82.32710230146684
 20
-136.1456949529428
 30
0.0
 10
82.27852645512482
 20
-136.2893554346777
 30
0.0
 10
82.27852645512482
 20
-136.2893554346777
 30
0.0
 10
83.05694578001702
 20
-136.2893554346777
 30
0.0
 10
83.05694578001702
 20
-136.2893554346777
 30
0.0
 10
83.05694578001702
 20
-136.2893554346777
 30
0.0
 10
83.05694578001702
 20
-136.4946831255986
 30
0.0
 10
83.05694578001702
 20
-136.4946831255986
 30
0.0
 10
83.05694578001702
 20
-136.4946831255986
 30
0.0
 10
82.02892928721846
 20
-136.4946831255986
 30
0.0
 10
82.02892928721846
 20
-136.4946831255986
 30
0.0
 10
82.06062416568277
 20
-136.1370822142296
 30
0.0
 10
82.12608097990251
 20
-136.0588785467145
 30
0.0
 10
82.51124265515344
 20
-135.7605332776918
 30
0.0
 10
82.76721324970751
 20
-135.5617512681929
 30
0.0
 10
82.83267006392725
 20
-135.4938828871335
 30
0.0
 10
82.83267006392725
 20
-135.356423577272
 30
0.0
 10
82.83267006392725
 20
-135.2379122925794
 30
0.0
 10
82.7608398230598
 20
-135.1069986641399
 30
0.0
 10
82.56412487085203
 20
-135.1069986641399
 30
0.0
 10
82.3038479069414
 20
-135.1069986641399
 30
0.0
 10
82.29540742300254
 20
-135.3374755521031
 30
0.0
 10
82.29110105364597
 20
-135.4539197795046
 30
0.0
 10
82.29110105364597
 20
-135.4539197795046
 30
0.0
 10
82.06699759233048
 20
-135.4539197795046
 30
0.0
 10
82.06699759233048
 20
-135.4539197795046
 30
0.0
 10
82.07543807626934
 20
-135.3267957560989
 30
0.0
 10
82.08594561749935
 20
-135.2148301528283
 30
0.0
 10
82.16638859707993
 20
-135.0963188681357
 30
0.0
 10
82.2762871430594
 20
-134.9354329089745
 30
0.0
 10
82.46249455403716
 20
-134.901670973219
 30
0.0
 10
82.57893878143861
 20
-134.901670973219
 30
0.0
 10
82.85609671322695
 20
-134.901670973219
 30
0.0
 10
83.06331920666473
 20
-135.0856390721314
 30
0.0
 10
83.06331920666473
 20
-135.3584906345632
 30
0.0
 10
83.06331920666473
 20
-135.5872449747837
 30
0.0
 10
82.94704723403754
 20
-135.6864637247589
 30
0.0
 10
82.6381944237849
 20
-135.9128064981399
 30
0.0
  0
HATCH
  5
F8
330
F3
100
AcDbEntity
  8
_U+30EC_U+30A4_U+30E4_U+30FC 1
 62
   179
420
  2234388
100
AcDbHatch
 10
0.0
 20
0.0
 30
0.0
210
0.0
220
0.0
230
1.0
  2
SOLID
 70
     1
 71
     0
 91
        1
 92
        1
 93
        1
 72
     4
 94
        3
 73
     0
 74
     1
 95
       44
 96
       40
 40
0.0
 40
0.0
 40
0.0
 40
0.0
 40
1.0
 40
1.0
 40
1.0
 40
2.0
 40
2.0
 40
2.0
 40
3.0
 40
3.0
 40
3.0
 40
4.0
 40
4.0
 40
4.0
 40
5.0
 40
5.0
 40
5.0
 40
6.0
 40
6.0
 40
6.0
 40
7.0
 40
7.0
 40
7.0
 40
8.0
 40
8.0
 40
8.0
 40
9.0
 40
9.0
 40
9.0
 40
10.0
 40
10.0
 40
10.0
 40
11.0
 40
11.0
 40
11.0
 40
12.0
 40
12.0
 40
12.0
 40
13.0
 40
13.0
 40
13.0
 40
13.0
 10
82.6381944237849
 20
-135.9128064981399
 10
82.42029213434284
 20
-136.0716254000099
 10
82.32710230146684
 20
-136.1456949529428
 10
82.27852645512482
 20
-136.2893554346777
 10
82.27852645512482
 20
-136.2893554346777
 10
83.05694578001702
 20
-136.2893554346777
 10
83.05694578001702
 20
-136.2893554346777
 10
83.05694578001702
 20
-136.2893554346777
 10
83.05694578001702
 20
-136.4946831255986
 10
83.05694578001702
 20
-136.4946831255986
 10
83.05694578001702
 20
-136.4946831255986
 10
82.02892928721846
 20
-136.4946831255986
 10
82.02892928721846
 20
-136.4946831255986
 10
82.06062416568277
 20
-136.1370822142296
 10
82.12608097990251
 20
-136.0588785467145
 10
82.51124265515344
 20
-135.7605332776918
 10
82.76721324970751
 20
-135.5617512681929
 10
82.83267006392725
 20
-135.4938828871335
 10
82.83267006392725
 20
-135.356423577272
 10
82.83267006392725
 20
-135.2379122925794
 10
82.7608398230598
 20
-135.1069986641399
 10
82.56412487085203
 20
-135.1069986641399
 10
82.3038479069414
 20
-135.1069986641399
 10
82.29540742300254
 20
-135.3374755521031
 10
82.29110105364597
 20
-135.4539197795046
 10
82.29110105364597
 20
-135.4539197795046
 10
82.06699759233048
 20
-135.4539197795046
 10
82.06699759233048
 20
-135.4539197795046
 10
82.07543807626934
 20
-135.3267957560989
 10
82.08594561749935
 20
-135.2148301528283
 10
82.16638859707993
 20
-135.0963188681357
 10
82.2762871430594
 20
-134.9354329089745
 10
82.46249455403716
 20
-134.901670973219
 10
82.57893878143861
 20
-134.901670973219
 10
82.85609671322695
 20
-134.901670973219
 10
83.06331920666473
 20
-135.0856390721314
 10
83.06331920666473
 20
-135.3584906345632
 10
83.06331920666473
 20
-135.5872449747837
 10
82.94704723403754
 20
-135.6864637247589
 10
82.6381944237849
 20
-135.9128064981399
 97
        0
 97
        0
 75
     2
 76
     1
 98
        0
  0
SPLINE
  5
F9
330
F3
100
AcDbEntity
  8
_U+30EC_U+30A4_U+30E4_U+30FC 1
370
     0
100
AcDbSpline
210
0.0
220
0.0
230
1.0
 70
    11
 71
     3
 72
    53
 73
    49
 74
     0
 42
0.0000000001
 43
0.0000000001
 12
1.0
 22
0.0
 32
0.0
 13
1.0
 23
0.0
 33
0.0
 40
0.0
 40
0.0
 40
0.0
 40
0.0
 40
1.0
 40
1.0
 40
1.0
 40
2.0
 40
2.0
 40
2.0
 40
3.0
 40
3.0
 40
3.0
 40
4.0
 40
4.0
 40
4.0
 40
5.0
 40
5.0
 40
5.0
 40
6.0
 40
6.0
 40
6.0
 40
7.0
 40
7.0
 40
7.0
 40
8.0
 40
8.0
 40
8.0
 40
9.0
 40
9.0
 40
9.0
 40
10.0
 40
10.0
 40
10.0
 40
11.0
 40
11.0
 40
11.0
 40
12.0
 40
12.0
 40
12.0
 40
13.0
 40
13.0
 40
13.0
 40
14.0
 40
14.0
 40
14.0
 40
15.0
 40
15.0
 40
15.0
 40
16.0
 40
16.0
 40
16.0
 40
16.0
 10
83.70290118350137
 20
-136.5453260292317
 30
0.0
 10
83.62452526121193
 20
-136.5453260292317
 30
0.0
 10
83.52306719917132
 20
-136.528445061354
 30
0.0
 10
83.42143688235645
 20
-136.4650553044254
 30
0.0
 10
83.24797632467413
 20
-136.3551567584459
 30
0.0
 10
83.22678898743983
 20
-136.2238986204579
 30
0.0
 10
83.20784096227096
 20
-136.1160671317696
 30
0.0
 10
83.20784096227096
 20
-136.1160671317696
 30
0.0
 10
83.42987736629532
 20
-136.1160671317696
 30
0.0
 10
83.42987736629532
 20
-136.1160671317696
 30
0.0
 10
83.48499889405932
 20
-136.3148491412685
 30
0.0
 10
83.61195066269076
 20
-136.3444769624417
 30
0.0
 10
83.70496824079251
 20
-136.3444769624417
 30
0.0
 10
83.84449460794514
 20
-136.3444769624417
 30
0.0
 10
83.99694008316743
 20
-136.244913702918
 30
0.0
 10
83.99694008316743
 20
-136.0123697576636
 30
0.0
 10
83.99694008316743
 20
-135.7563991631095
 30
0.0
 10
83.8171060988374
 20
-135.6864637247589
 30
0.0
 10
83.69652775685365
 20
-135.6864637247589
 30
0.0
 10
83.66483287838935
 20
-135.6864637247589
 30
0.0
 10
83.52306719917132
 20
-135.6864637247589
 30
0.0
 10
83.43418373565187
 20
-135.8156548054558
 30
0.0
 10
83.43418373565187
 20
-135.8156548054558
 30
0.0
 10
83.2586561206784
 20
-135.7967067802869
 30
0.0
 10
83.2586561206784
 20
-135.7967067802869
 30
0.0
 10
83.2586561206784
 20
-135.7967067802869
 30
0.0
 10
83.37923446266214
 20
-134.950246819561
 30
0.0
 10
83.37923446266214
 20
-134.950246819561
 30
0.0
 10
83.37923446266214
 20
-134.950246819561
 30
0.0
 10
84.15765378755434
 20
-134.950246819561
 30
0.0
 10
84.15765378755434
 20
-134.950246819561
 30
0.0
 10
84.15765378755434
 20
-134.950246819561
 30
0.0
 10
84.15765378755434
 20
-135.1448947144777
 30
0.0
 10
84.15765378755434
 20
-135.1448947144777
 30
0.0
 10
84.15765378755434
 20
-135.1448947144777
 30
0.0
 10
83.54201522434019
 20
-135.1448947144777
 30
0.0
 10
83.54201522434019
 20
-135.1448947144777
 30
0.0
 10
83.54201522434019
 20
-135.1448947144777
 30
0.0
 10
83.47655841012045
 20
-135.5679524400664
 30
0.0
 10
83.47655841012045
 20
-135.5679524400664
 30
0.0
 10
83.53788110975789
 20
-135.5341905043109
 30
0.0
 10
83.62039114662963
 20
-135.4938828871335
 30
0.0
 10
83.73873017654796
 20
-135.4938828871335
 30
0.0
 10
83.99263371381087
 20
-135.4938828871335
 30
0.0
 10
84.22965628319606
 20
-135.6802625528855
 30
0.0
 10
84.22965628319606
 20
-135.9934217324947
 30
0.0
 10
84.22965628319606
 20
-136.3107150266862
 30
0.0
 10
84.0053805671063
 20
-136.5453260292317
 30
0.0
 10
83.70290118350137
 20
-136.5453260292317
 30
0.0
  0
HATCH
  5
FA
330
F3
100
AcDbEntity
  8
_U+30EC_U+30A4_U+30E4_U+30FC 1
 62
   179
420
  2234388
100
AcDbHatch
 10
0.0
 20
0.0
 30
0.0
210
0.0
220
0.0
230
1.0
  2
SOLID
 70
     1
 71
     0
 91
        1
 92
        1
 93
        1
 72
     4
 94
        3
 73
     0
 74
     1
 95
       53
 96
       49
 40
0.0
 40
0.0
 40
0.0
 40
0.0
 40
1.0
 40
1.0
 40
1.0
 40
2.0
 40
2.0
 40
2.0
 40
3.0
 40
3.0
 40
3.0
 40
4.0
 40
4.0
 40
4.0
 40
5.0
 40
5.0
 40
5.0
 40
6.0
 40
6.0
 40
6.0
 40
7.0
 40
7.0
 40
7.0
 40
8.0
 40
8.0
 40
8.0
 40
9.0
 40
9.0
 40
9.0
 40
10.0
 40
10.0
 40
10.0
 40
11.0
 40
11.0
 40
11.0
 40
12.0
 40
12.0
 40
12.0
 40
13.0
 40
13.0
 40
13.0
 40
14.0
 40
14.0
 40
14.0
 40
15.0
 40
15.0
 40
15.0
 40
16.0
 40
16.0
 40
16.0
 40
16.0
 10
83.70290118350137
 20
-136.5453260292317
 10
83.62452526121193
 20
-136.5453260292317
 10
83.52306719917132
 20
-136.528445061354
 10
83.42143688235645
 20
-136.4650553044254
 10
83.24797632467413
 20
-136.3551567584459
 10
83.22678898743983
 20
-136.2238986204579
 10
83.20784096227096
 20
-136.1160671317696
 10
83.20784096227096
 20
-136.1160671317696
 10
83.42987736629532
 20
-136.1160671317696
 10
83.42987736629532
 20
-136.1160671317696
 10
83.48499889405932
 20
-136.3148491412685
 10
83.61195066269076
 20
-136.3444769624417
 10
83.70496824079251
 20
-136.3444769624417
 10
83.84449460794514
 20
-136.3444769624417
 10
83.99694008316743
 20
-136.244913702918
 10
83.99694008316743
 20
-136.0123697576636
 10
83.99694008316743
 20
-135.7563991631095
 10
83.8171060988374
 20
-135.6864637247589
 10
83.69652775685365
 20
-135.6864637247589
 10
83.66483287838935
 20
-135.6864637247589
 10
83.52306719917132
 20
-135.6864637247589
 10
83.43418373565187
 20
-135.8156548054558
 10
83.43418373565187
 20
-135.8156548054558
 10
83.2586561206784
 20
-135.7967067802869
 10
83.2586561206784
 20
-135.7967067802869
 10
83.2586561206784
 20
-135.7967067802869
 10
83.37923446266214
 20
-134.950246819561
 10
83.37923446266214
 20
-134.950246819561
 10
83.37923446266214
 20
-134.950246819561
 10
84.15765378755434
 20
-134.950246819561
 10
84.15765378755434
 20
-134.950246819561
 10
84.15765378755434
 20
-134.950246819561
 10
84.15765378755434
 20
-135.1448947144777
 10
84.15765378755434
 20
-135.1448947144777
 10
84.15765378755434
 20
-135.1448947144777
 10
83.54201522434019
 20
-135.1448947144777
 10
83.54201522434019
 20
-135.1448947144777
 10
83.54201522434019
 20
-135.1448947144777
 10
83.47655841012045
 20
-135.5679524400664
 10
83.47655841012045
 20
-135.5679524400664
 10
83.53788110975789
 20
-135.5341905043109
 10
83.62039114662963
 20
-135.4938828871335
 10
83.73873017654796
 20
-135.4938828871335
 10
83.99263371381087
 20
-135.4938828871335
 10
84.22965628319606
 20
-135.6802625528855
 10
84.22965628319606
 20
-135.9934217324947
 10
84.22965628319606
 20
-136.3107150266862
 10
84.0053805671063
 20
-136.5453260292317
 10
83.70290118350137
 20
-136.5453260292317
 97
        0
 97
        0
 75
     2
 76
     1
 98
        0
  0
ENDBLK
  5
F6
330
F3
100
AcDbEntity
  8
0
100
AcDbBlockEnd
  0
BLOCK
  5
FD
330
FB
100
AcDbEntity
  8
0
100
AcDbBlockBegin
  2
block 8
 70
     0
 10
0.0
 20
0.0
 30
0.0
  3
block 8
  1

  0
SPLINE
  5
FF
330
FB
100
AcDbEntity
  8
_U+30EC_U+30A4_U+30E4_U+30FC 1
370
     0
100
AcDbSpline
210
0.0
220
0.0
230
1.0
 70
    11
 71
     3
 72
    62
 73
    58
 74
     0
 42
0.0000000001
 43
0.0000000001
 12
1.0
 22
0.0
 32
0.0
 13
1.0
 23
0.0
 33
0.0
 40
0.0
 40
0.0
 40
0.0
 40
0.0
 40
1.0
 40
1.0
 40
1.0
 40
2.0
 40
2.0
 40
2.0
 40
3.0
 40
3.0
 40
3.0
 40
4.0
 40
4.0
 40
4.0
 40
5.0
 40
5.0
 40
5.0
 40
6.0
 40
6.0
 40
6.0
 40
7.0
 40
7.0
 40
7.0
 40
8.0
 40
8.0
 40
8.0
 40
9.0
 40
9.0
 40
9.0
 40
10.0
 40
10.0
 40
10.0
 40
11.0
 40
11.0
 40
11.0
 40
12.0
 40
12.0
 40
12.0
 40
13.0
 40
13.0
 40
13.0
 40
14.0
 40
14.0
 40
14.0
 40
15.0
 40
15.0
 40
15.0
 40
16.0
 40
16.0
 40
16.0
 40
17.0
 40
17.0
 40
17.0
 40
18.0
 40
18.0
 40
18.0
 40
19.0
 40
19.0
 40
19.0
 40
19.0
 10
103.8913329818397
 20
-142.2955349036622
 30
0.0
 10
103.7959038368982
 20
-142.2955349036622
 30
0.0
 10
103.5781738022305
 20
-142.2745198212022
 30
0.0
 10
103.4534613456644
 20
-142.0884846649987
 30
0.0
 10
103.3793917927315
 20
-141.9761745521796
 30
0.0
 10
103.3749131686007
 20
-141.8769558022044
 30
0.0
 10
103.3707790540184
 20
-141.7922064532672
 30
0.0
 10
103.3707790540184
 20
-141.7922064532672
 30
0.0
 10
103.5909206555259
 20
-141.7922064532672
 30
0.0
 10
103.5909206555259
 20
-141.7922064532672
 30
0.0
 10
103.592987712817
 20
-141.8662760062001
 30
0.0
 10
103.6036675088213
 20
-142.1008870087456
 30
0.0
 10
103.8868543577088
 20
-142.1008870087456
 30
0.0
 10
104.0246581771188
 20
-142.1008870087456
 30
0.0
 10
104.1769313975669
 20
-142.0312960799436
 30
0.0
 10
104.1769313975669
 20
-141.8028862492715
 30
0.0
 10
104.1769313975669
 20
-141.6864420218701
 30
0.0
 10
104.1390353472291
 20
-141.637866175528
 30
0.0
 10
104.1073404687648
 20
-141.6061712970638
 30
0.0
 10
104.0329264062834
 20
-141.5321017441309
 30
0.0
 10
103.916482178882
 20
-141.5193548908354
 30
0.0
 10
103.8617051606665
 20
-141.5193548908354
 30
0.0
 10
103.8427571354976
 20
-141.5193548908354
 30
0.0
 10
103.8069281424511
 20
-141.5214219481266
 30
0.0
 10
103.779367378569
 20
-141.5255560627089
 30
0.0
 10
103.779367378569
 20
-141.5255560627089
 30
0.0
 10
103.779367378569
 20
-141.3309081677923
 30
0.0
 10
103.779367378569
 20
-141.3309081677923
 30
0.0
 10
103.8172634289068
 20
-141.3374538492143
 30
0.0
 10
103.8596381033754
 20
-141.3395209065054
 30
0.0
 10
103.8661837847973
 20
-141.3395209065054
 30
0.0
 10
103.9316405990171
 20
-141.3395209065054
 30
0.0
 10
104.130422608516
 20
-141.3181613144968
 30
0.0
 10
104.130422608516
 20
-141.0814832546602
 30
0.0
 10
104.130422608516
 20
-140.9037163276213
 30
0.0
 10
103.999164470528
 20
-140.8485947998573
 30
0.0
 10
103.8892659245485
 20
-140.8485947998573
 30
0.0
 10
103.6250271008299
 20
-140.8485947998573
 30
0.0
 10
103.6160698525682
 20
-141.0814832546602
 30
0.0
 10
103.6119357379859
 20
-141.1531412407534
 30
0.0
 10
103.6119357379859
 20
-141.1531412407534
 30
0.0
 10
103.4090196139047
 20
-141.1531412407534
 30
0.0
 10
103.4090196139047
 20
-141.1531412407534
 30
0.0
 10
103.4176323526178
 20
-141.0284287841874
 30
0.0
 10
103.4451931164998
 20
-140.6518798476495
 30
0.0
 10
103.902012777844
 20
-140.6518798476495
 30
0.0
 10
104.1259439843852
 20
-140.6518798476495
 30
0.0
 10
104.3671006683527
 20
-140.7790038710553
 30
0.0
 10
104.3671006683527
 20
-141.0749375732382
 30
0.0
 10
104.3671006683527
 20
-141.2613172389902
 30
0.0
 10
104.2720160329598
 20
-141.3436550210877
 30
0.0
 10
104.1727972829846
 20
-141.4049777207252
 30
0.0
 10
104.234119982622
 20
-141.4325384846071
 30
0.0
 10
104.4160210242432
 20
-141.5128092094135
 30
0.0
 10
104.4160210242432
 20
-141.7901393959761
 30
0.0
 10
104.4160210242432
 20
-142.1284477726276
 30
0.0
 10
104.1686631684023
 20
-142.2955349036622
 30
0.0
 10
103.8913329818397
 20
-142.2955349036622
 30
0.0
  0
HATCH
  5
100
330
FB
100
AcDbEntity
  8
_U+30EC_U+30A4_U+30E4_U+30FC 1
 62
   179
420
  2234388
100
AcDbHatch
 10
0.0
 20
0.0
 30
0.0
210
0.0
220
0.0
230
1.0
  2
SOLID
 70
     1
 71
     0
 91
        1
 92
        1
 93
        1
 72
     4
 94
        3
 73
     0
 74
     1
 95
       62
 96
       58
 40
0.0
 40
0.0
 40
0.0
 40
0.0
 40
1.0
 40
1.0
 40
1.0
 40
2.0
 40
2.0
 40
2.0
 40
3.0
 40
3.0
 40
3.0
 40
4.0
 40
4.0
 40
4.0
 40
5.0
 40
5.0
 40
5.0
 40
6.0
 40
6.0
 40
6.0
 40
7.0
 40
7.0
 40
7.0
 40
8.0
 40
8.0
 40
8.0
 40
9.0
 40
9.0
 40
9.0
 40
10.0
 40
10.0
 40
10.0
 40
11.0
 40
11.0
 40
11.0
 40
12.0
 40
12.0
 40
12.0
 40
13.0
 40
13.0
 40
13.0
 40
14.0
 40
14.0
 40
14.0
 40
15.0
 40
15.0
 40
15.0
 40
16.0
 40
16.0
 40
16.0
 40
17.0
 40
17.0
 40
17.0
 40
18.0
 40
18.0
 40
18.0
 40
19.0
 40
19.0
 40
19.0
 40
19.0
 10
103.8913329818397
 20
-142.2955349036622
 10
103.7959038368982
 20
-142.2955349036622
 10
103.5781738022305
 20
-142.2745198212022
 10
103.4534613456644
 20
-142.0884846649987
 10
103.3793917927315
 20
-141.9761745521796
 10
103.3749131686007
 20
-141.8769558022044
 10
103.3707790540184
 20
-141.7922064532672
 10
103.3707790540184
 20
-141.7922064532672
 10
103.5909206555259
 20
-141.7922064532672
 10
103.5909206555259
 20
-141.7922064532672
 10
103.592987712817
 20
-141.8662760062001
 10
103.6036675088213
 20
-142.1008870087456
 10
103.8868543577088
 20
-142.1008870087456
 10
104.0246581771188
 20
-142.1008870087456
 10
104.1769313975669
 20
-142.0312960799436
 10
104.1769313975669
 20
-141.8028862492715
 10
104.1769313975669
 20
-141.6864420218701
 10
104.1390353472291
 20
-141.637866175528
 10
104.1073404687648
 20
-141.6061712970638
 10
104.0329264062834
 20
-141.5321017441309
 10
103.916482178882
 20
-141.5193548908354
 10
103.8617051606665
 20
-141.5193548908354
 10
103.8427571354976
 20
-141.5193548908354
 10
103.8069281424511
 20
-141.5214219481266
 10
103.779367378569
 20
-141.5255560627089
 10
103.779367378569
 20
-141.5255560627089
 10
103.779367378569
 20
-141.3309081677923
 10
103.779367378569
 20
-141.3309081677923
 10
103.8172634289068
 20
-141.3374538492143
 10
103.8596381033754
 20
-141.3395209065054
 10
103.8661837847973
 20
-141.3395209065054
 10
103.9316405990171
 20
-141.3395209065054
 10
104.130422608516
 20
-141.3181613144968
 10
104.130422608516
 20
-141.0814832546602
 10
104.130422608516
 20
-140.9037163276213
 10
103.999164470528
 20
-140.8485947998573
 10
103.8892659245485
 20
-140.8485947998573
 10
103.6250271008299
 20
-140.8485947998573
 10
103.6160698525682
 20
-141.0814832546602
 10
103.6119357379859
 20
-141.1531412407534
 10
103.6119357379859
 20
-141.1531412407534
 10
103.4090196139047
 20
-141.1531412407534
 10
103.4090196139047
 20
-141.1531412407534
 10
103.4176323526178
 20
-141.0284287841874
 10
103.4451931164998
 20
-140.6518798476495
 10
103.902012777844
 20
-140.6518798476495
 10
104.1259439843852
 20
-140.6518798476495
 10
104.3671006683527
 20
-140.7790038710553
 10
104.3671006683527
 20
-141.0749375732382
 10
104.3671006683527
 20
-141.2613172389902
 10
104.2720160329598
 20
-141.3436550210877
 10
104.1727972829846
 20
-141.4049777207252
 10
104.234119982622
 20
-141.4325384846071
 10
104.4160210242432
 20
-141.5128092094135
 10
104.4160210242432
 20
-141.7901393959761
 10
104.4160210242432
 20
-142.1284477726276
 10
104.1686631684023
 20
-142.2955349036622
 10
103.8913329818397
 20
-142.2955349036622
 97
        0
 97
        0
 75
     2
 76
     1
 98
        0
  0
ENDBLK
  5
FE
330
FB
100
AcDbEntity
  8
0
100
AcDbBlockEnd
  0
BLOCK
  5
103
330
101
100
AcDbEntity
  8
0
100
AcDbBlockBegin
  2
block 9
 70
     0
 10
0.0
 20
0.0
 30
0.0
  3
block 9
  1

  0
SPLINE
  5
105
330
101
100
AcDbEntity
  8
_U+30EC_U+30A4_U+30E4_U+30FC 1
370
     0
100
AcDbSpline
210
0.0
220
0.0
230
1.0
 70
    11
 71
     3
 72
    26
 73
    22
 74
     0
 42
0.0000000001
 43
0.0000000001
 12
1.0
 22
0.0
 32
0.0
 13
1.0
 23
0.0
 33
0.0
 40
0.0
 40
0.0
 40
0.0
 40
0.0
 40
1.0
 40
1.0
 40
1.0
 40
2.0
 40
2.0
 40
2.0
 40
3.0
 40
3.0
 40
3.0
 40
4.0
 40
4.0
 40
4.0
 40
5.0
 40
5.0
 40
5.0
 40
6.0
 40
6.0
 40
6.0
 40
7.0
 40
7.0
 40
7.0
 40
7.0
 10
96.00206432061755
 20
-145.7671576241485
 30
0.0
 10
96.00206432061755
 20
-145.7671576241485
 30
0.0
 10
96.00206432061755
 20
-144.6630045211259
 30
0.0
 10
96.00206432061755
 20
-144.6630045211259
 30
0.0
 10
96.00206432061755
 20
-144.6630045211259
 30
0.0
 10
95.67202417313061
 20
-144.6630045211259
 30
0.0
 10
95.67202417313061
 20
-144.6630045211259
 30
0.0
 10
95.67202417313061
 20
-144.6630045211259
 30
0.0
 10
95.67202417313061
 20
-144.5148654152602
 30
0.0
 10
95.67202417313061
 20
-144.5148654152602
 30
0.0
 10
96.00413137790869
 20
-144.5000515046736
 30
0.0
 10
96.05064016695957
 20
-144.3370984882213
 30
0.0
 10
96.08026798813272
 20
-144.222721318111
 30
0.0
 10
96.08026798813272
 20
-144.222721318111
 30
0.0
 10
96.22634003670731
 20
-144.222721318111
 30
0.0
 10
96.22634003670731
 20
-144.222721318111
 30
0.0
 10
96.22634003670731
 20
-144.222721318111
 30
0.0
 10
96.22634003670731
 20
-145.7671576241485
 30
0.0
 10
96.22634003670731
 20
-145.7671576241485
 30
0.0
 10
96.22634003670731
 20
-145.7671576241485
 30
0.0
 10
96.00206432061755
 20
-145.7671576241485
 30
0.0
 10
96.00206432061755
 20
-145.7671576241485
 30
0.0
  0
HATCH
  5
106
330
101
100
AcDbEntity
  8
_U+30EC_U+30A4_U+30E4_U+30FC 1
 62
   179
420
  2234388
100
AcDbHatch
 10
0.0
 20
0.0
 30
0.0
210
0.0
220
0.0
230
1.0
  2
SOLID
 70
     1
 71
     0
 91
        1
 92
        1
 93
        1
 72
     4
 94
        3
 73
     0
 74
     1
 95
       26
 96
       22
 40
0.0
 40
0.0
 40
0.0
 40
0.0
 40
1.0
 40
1.0
 40
1.0
 40
2.0
 40
2.0
 40
2.0
 40
3.0
 40
3.0
 40
3.0
 40
4.0
 40
4.0
 40
4.0
 40
5.0
 40
5.0
 40
5.0
 40
6.0
 40
6.0
 40
6.0
 40
7.0
 40
7.0
 40
7.0
 40
7.0
 10
96.00206432061755
 20
-145.7671576241485
 10
96.00206432061755
 20
-145.7671576241485
 10
96.00206432061755
 20
-144.6630045211259
 10
96.00206432061755
 20
-144.6630045211259
 10
96.00206432061755
 20
-144.6630045211259
 10
95.67202417313061
 20
-144.6630045211259
 10
95.67202417313061
 20
-144.6630045211259
 10
95.67202417313061
 20
-144.6630045211259
 10
95.67202417313061
 20
-144.5148654152602
 10
95.67202417313061
 20
-144.5148654152602
 10
96.00413137790869
 20
-144.5000515046736
 10
96.05064016695957
 20
-144.3370984882213
 10
96.08026798813272
 20
-144.222721318111
 10
96.08026798813272
 20
-144.222721318111
 10
96.22634003670731
 20
-144.222721318111
 10
96.22634003670731
 20
-144.222721318111
 10
96.22634003670731
 20
-144.222721318111
 10
96.22634003670731
 20
-145.7671576241485
 10
96.22634003670731
 20
-145.7671576241485
 10
96.22634003670731
 20
-145.7671576241485
 10
96.00206432061755
 20
-145.7671576241485
 10
96.00206432061755
 20
-145.7671576241485
 97
        0
 97
        0
 75
     2
 76
     1
 98
        0
  0
SPLINE
  5
107
330
101
100
AcDbEntity
  8
_U+30EC_U+30A4_U+30E4_U+30FC 1
370
     0
100
AcDbSpline
210
0.0
220
0.0
230
1.0
 70
    11
 71
     3
 72
    53
 73
    49
 74
     0
 42
0.0000000001
 43
0.0000000001
 12
1.0
 22
0.0
 32
0.0
 13
1.0
 23
0.0
 33
0.0
 40
0.0
 40
0.0
 40
0.0
 40
0.0
 40
1.0
 40
1.0
 40
1.0
 40
2.0
 40
2.0
 40
2.0
 40
3.0
 40
3.0
 40
3.0
 40
4.0
 40
4.0
 40
4.0
 40
5.0
 40
5.0
 40
5.0
 40
6.0
 40
6.0
 40
6.0
 40
7.0
 40
7.0
 40
7.0
 40
8.0
 40
8.0
 40
8.0
 40
9.0
 40
9.0
 40
9.0
 40
10.0
 40
10.0
 40
10.0
 40
11.0
 40
11.0
 40
11.0
 40
12.0
 40
12.0
 40
12.0
 40
13.0
 40
13.0
 40
13.0
 40
14.0
 40
14.0
 40
14.0
 40
15.0
 40
15.0
 40
15.0
 40
16.0
 40
16.0
 40
16.0
 40
16.0
 10
97.20853675955203
 20
-145.8178005277817
 30
0.0
 10
97.13033309203686
 20
-145.8178005277817
 30
0.0
 10
97.028702775222
 20
-145.8009195599039
 30
0.0
 10
96.92707245840712
 20
-145.7375298029754
 30
0.0
 10
96.75343964595054
 20
-145.6276312569959
 30
0.0
 10
96.73242456349051
 20
-145.4963731190079
 30
0.0
 10
96.71347653832163
 20
-145.3885416303195
 30
0.0
 10
96.71347653832163
 20
-145.3885416303195
 30
0.0
 10
96.93534068757172
 20
-145.3885416303195
 30
0.0
 10
96.93534068757172
 20
-145.3885416303195
 30
0.0
 10
96.99046221533573
 20
-145.5873236398185
 30
0.0
 10
97.11758623874144
 20
-145.6169514609916
 30
0.0
 10
97.21060381684319
 20
-145.6169514609916
 30
0.0
 10
97.3501301839958
 20
-145.6169514609916
 30
0.0
 10
97.50240340444385
 20
-145.5173882014679
 30
0.0
 10
97.50240340444385
 20
-145.2848442562135
 30
0.0
 10
97.50240340444385
 20
-145.0288736616594
 30
0.0
 10
97.32256942011381
 20
-144.9589382233089
 30
0.0
 10
97.20199107813006
 20
-144.9589382233089
 30
0.0
 10
97.17029619966577
 20
-144.9589382233089
 30
0.0
 10
97.028702775222
 20
-144.9589382233089
 30
0.0
 10
96.93981931170255
 20
-145.0881293040057
 30
0.0
 10
96.93981931170255
 20
-145.0881293040057
 30
0.0
 10
96.76446395150333
 20
-145.0691812788369
 30
0.0
 10
96.76446395150333
 20
-145.0691812788369
 30
0.0
 10
96.76446395150333
 20
-145.0691812788369
 30
0.0
 10
96.88504229348707
 20
-144.222721318111
 30
0.0
 10
96.88504229348707
 20
-144.222721318111
 30
0.0
 10
96.88504229348707
 20
-144.222721318111
 30
0.0
 10
97.66328936360502
 20
-144.222721318111
 30
0.0
 10
97.66328936360502
 20
-144.222721318111
 30
0.0
 10
97.66328936360502
 20
-144.222721318111
 30
0.0
 10
97.66328936360502
 20
-144.4173692130276
 30
0.0
 10
97.66328936360502
 20
-144.4173692130276
 30
0.0
 10
97.66328936360502
 20
-144.4173692130276
 30
0.0
 10
97.04765080039087
 20
-144.4173692130276
 30
0.0
 10
97.04765080039087
 20
-144.4173692130276
 30
0.0
 10
97.04765080039087
 20
-144.4173692130276
 30
0.0
 10
96.98219398617113
 20
-144.8404269386163
 30
0.0
 10
96.98219398617113
 20
-144.8404269386163
 30
0.0
 10
97.04351668580857
 20
-144.8066650028609
 30
0.0
 10
97.12619897745456
 20
-144.7663573856834
 30
0.0
 10
97.24436575259864
 20
-144.7663573856834
 30
0.0
 10
97.49826928986155
 20
-144.7663573856834
 30
0.0
 10
97.73529185924674
 20
-144.9527370514354
 30
0.0
 10
97.73529185924674
 20
-145.2658962310446
 30
0.0
 10
97.73529185924674
 20
-145.5831895252362
 30
0.0
 10
97.51101614315698
 20
-145.8178005277817
 30
0.0
 10
97.20853675955203
 20
-145.8178005277817
 30
0.0
  0
HATCH
  5
108
330
101
100
AcDbEntity
  8
_U+30EC_U+30A4_U+30E4_U+30FC 1
 62
   179
420
  2234388
100
AcDbHatch
 10
0.0
 20
0.0
 30
0.0
210
0.0
220
0.0
230
1.0
  2
SOLID
 70
     1
 71
     0
 91
        1
 92
        1
 93
        1
 72
     4
 94
        3
 73
     0
 74
     1
 95
       53
 96
       49
 40
0.0
 40
0.0
 40
0.0
 40
0.0
 40
1.0
 40
1.0
 40
1.0
 40
2.0
 40
2.0
 40
2.0
 40
3.0
 40
3.0
 40
3.0
 40
4.0
 40
4.0
 40
4.0
 40
5.0
 40
5.0
 40
5.0
 40
6.0
 40
6.0
 40
6.0
 40
7.0
 40
7.0
 40
7.0
 40
8.0
 40
8.0
 40
8.0
 40
9.0
 40
9.0
 40
9.0
 40
10.0
 40
10.0
 40
10.0
 40
11.0
 40
11.0
 40
11.0
 40
12.0
 40
12.0
 40
12.0
 40
13.0
 40
13.0
 40
13.0
 40
14.0
 40
14.0
 40
14.0
 40
15.0
 40
15.0
 40
15.0
 40
16.0
 40
16.0
 40
16.0
 40
16.0
 10
97.20853675955203
 20
-145.8178005277817
 10
97.13033309203686
 20
-145.8178005277817
 10
97.028702775222
 20
-145.8009195599039
 10
96.92707245840712
 20
-145.7375298029754
 10
96.75343964595054
 20
-145.6276312569959
 10
96.73242456349051
 20
-145.4963731190079
 10
96.71347653832163
 20
-145.3885416303195
 10
96.71347653832163
 20
-145.3885416303195
 10
96.93534068757172
 20
-145.3885416303195
 10
96.93534068757172
 20
-145.3885416303195
 10
96.99046221533573
 20
-145.5873236398185
 10
97.11758623874144
 20
-145.6169514609916
 10
97.21060381684319
 20
-145.6169514609916
 10
97.3501301839958
 20
-145.6169514609916
 10
97.50240340444385
 20
-145.5173882014679
 10
97.50240340444385
 20
-145.2848442562135
 10
97.50240340444385
 20
-145.0288736616594
 10
97.32256942011381
 20
-144.9589382233089
 10
97.20199107813006
 20
-144.9589382233089
 10
97.17029619966577
 20
-144.9589382233089
 10
97.028702775222
 20
-144.9589382233089
 10
96.93981931170255
 20
-145.0881293040057
 10
96.93981931170255
 20
-145.0881293040057
 10
96.76446395150333
 20
-145.0691812788369
 10
96.76446395150333
 20
-145.0691812788369
 10
96.76446395150333
 20
-145.0691812788369
 10
96.88504229348707
 20
-144.222721318111
 10
96.88504229348707
 20
-144.222721318111
 10
96.88504229348707
 20
-144.222721318111
 10
97.66328936360502
 20
-144.222721318111
 10
97.66328936360502
 20
-144.222721318111
 10
97.66328936360502
 20
-144.222721318111
 10
97.66328936360502
 20
-144.4173692130276
 10
97.66328936360502
 20
-144.4173692130276
 10
97.66328936360502
 20
-144.4173692130276
 10
97.04765080039087
 20
-144.4173692130276
 10
97.04765080039087
 20
-144.4173692130276
 10
97.04765080039087
 20
-144.4173692130276
 10
96.98219398617113
 20
-144.8404269386163
 10
96.98219398617113
 20
-144.8404269386163
 10
97.04351668580857
 20
-144.8066650028609
 10
97.12619897745456
 20
-144.7663573856834
 10
97.24436575259864
 20
-144.7663573856834
 10
97.49826928986155
 20
-144.7663573856834
 10
97.73529185924674
 20
-144.9527370514354
 10
97.73529185924674
 20
-145.2658962310446
 10
97.73529185924674
 20
-145.5831895252362
 10
97.51101614315698
 20
-145.8178005277817
 10
97.20853675955203
 20
-145.8178005277817
 97
        0
 97
        0
 75
     2
 76
     1
 98
        0
  0
ENDBLK
  5
104
330
101
100
AcDbEntity
  8
0
100
AcDbBlockEnd
  0
BLOCK
  5
10B
330
109
100
AcDbEntity
  8
0
100
AcDbBlockBegin
  2
block 10
 70
     0
 10
0.0
 20
0.0
 30
0.0
  3
block 10
  1

  0
SPLINE
  5
10D
330
109
100
AcDbEntity
  8
_U+30EC_U+30A4_U+30E4_U+30FC 1
370
     0
100
AcDbSpline
210
0.0
220
0.0
230
1.0
 70
    11
 71
     3
 72
    62
 73
    58
 74
     0
 42
0.0000000001
 43
0.0000000001
 12
1.0
 22
0.0
 32
0.0
 13
1.0
 23
0.0
 33
0.0
 40
0.0
 40
0.0
 40
0.0
 40
0.0
 40
1.0
 40
1.0
 40
1.0
 40
2.0
 40
2.0
 40
2.0
 40
3.0
 40
3.0
 40
3.0
 40
4.0
 40
4.0
 40
4.0
 40
5.0
 40
5.0
 40
5.0
 40
6.0
 40
6.0
 40
6.0
 40
7.0
 40
7.0
 40
7.0
 40
8.0
 40
8.0
 40
8.0
 40
9.0
 40
9.0
 40
9.0
 40
10.0
 40
10.0
 40
10.0
 40
11.0
 40
11.0
 40
11.0
 40
12.0
 40
12.0
 40
12.0
 40
13.0
 40
13.0
 40
13.0
 40
14.0
 40
14.0
 40
14.0
 40
15.0
 40
15.0
 40
15.0
 40
16.0
 40
16.0
 40
16.0
 40
17.0
 40
17.0
 40
17.0
 40
18.0
 40
18.0
 40
18.0
 40
19.0
 40
19.0
 40
19.0
 40
19.0
 10
92.64344073204748
 20
-148.3809515688075
 30
0.0
 10
92.54835609665459
 20
-148.3809515688075
 30
0.0
 10
92.33062606198679
 20
-148.3599364863475
 30
0.0
 10
92.20591360542075
 20
-148.173901330144
 30
0.0
 10
92.13149954293935
 20
-148.0615912173249
 30
0.0
 10
92.12736542835705
 20
-147.9623724673497
 30
0.0
 10
92.12323131377475
 20
-147.8776231184125
 30
0.0
 10
92.12323131377475
 20
-147.8776231184125
 30
0.0
 10
92.34302840573369
 20
-147.8776231184125
 30
0.0
 10
92.34302840573369
 20
-147.8776231184125
 30
0.0
 10
92.34509546302485
 20
-147.9516926713454
 30
0.0
 10
92.35611976857764
 20
-148.1863036738909
 30
0.0
 10
92.63930661746518
 20
-148.1863036738909
 30
0.0
 10
92.77711043687518
 20
-148.1863036738909
 30
0.0
 10
92.92938365732321
 20
-148.1167127450889
 30
0.0
 10
92.92938365732321
 20
-147.8883029144168
 30
0.0
 10
92.92938365732321
 20
-147.7718586870154
 30
0.0
 10
92.89114309743694
 20
-147.7232828406734
 30
0.0
 10
92.85944821897264
 20
-147.691587962209
 30
0.0
 10
92.78537866603978
 20
-147.6175184092762
 30
0.0
 10
92.66893443863833
 20
-147.6047715559808
 30
0.0
 10
92.61381291087433
 20
-147.6047715559808
 30
0.0
 10
92.59520939525397
 20
-147.6047715559808
 30
0.0
 10
92.55903589265886
 20
-147.6068386132719
 30
0.0
 10
92.53147512877686
 20
-147.6109727278542
 30
0.0
 10
92.53147512877686
 20
-147.6109727278542
 30
0.0
 10
92.53147512877686
 20
-147.4163248329376
 30
0.0
 10
92.53147512877686
 20
-147.4163248329376
 30
0.0
 10
92.56971568866314
 20
-147.4228705143596
 30
0.0
 10
92.61174585358317
 20
-147.4249375716507
 30
0.0
 10
92.61829153500516
 20
-147.4249375716507
 30
0.0
 10
92.6837483492249
 20
-147.4249375716507
 30
0.0
 10
92.88253035872381
 20
-147.4035779796422
 30
0.0
 10
92.88253035872381
 20
-147.1668999198055
 30
0.0
 10
92.88253035872381
 20
-146.9891329927666
 30
0.0
 10
92.75161673028433
 20
-146.9340114650026
 30
0.0
 10
92.64137367475632
 20
-146.9340114650026
 30
0.0
 10
92.37713485103767
 20
-146.9340114650026
 30
0.0
 10
92.36852211232454
 20
-147.1668999198055
 30
0.0
 10
92.36438799774224
 20
-147.2385579058987
 30
0.0
 10
92.36438799774224
 20
-147.2385579058987
 30
0.0
 10
92.1611273641125
 20
-147.2385579058987
 30
0.0
 10
92.1611273641125
 20
-147.2385579058987
 30
0.0
 10
92.16974010282563
 20
-147.1138454493326
 30
0.0
 10
92.19730086670762
 20
-146.7372965127948
 30
0.0
 10
92.65412052805175
 20
-146.7372965127948
 30
0.0
 10
92.87839624414151
 20
-146.7372965127948
 30
0.0
 10
93.119552928109
 20
-146.8644205362006
 30
0.0
 10
93.119552928109
 20
-147.1603542383835
 30
0.0
 10
93.119552928109
 20
-147.3467339041355
 30
0.0
 10
93.02446829271611
 20
-147.429071686233
 30
0.0
 10
92.92490503319239
 20
-147.4903943858705
 30
0.0
 10
92.98657224237836
 20
-147.5179551497525
 30
0.0
 10
93.16847328399955
 20
-147.5982258745588
 30
0.0
 10
93.16847328399955
 20
-147.8755560611214
 30
0.0
 10
93.16847328399955
 20
-148.2138644377729
 30
0.0
 10
92.92077091861009
 20
-148.3809515688075
 30
0.0
 10
92.64344073204748
 20
-148.3809515688075
 30
0.0
  0
HATCH
  5
10E
330
109
100
AcDbEntity
  8
_U+30EC_U+30A4_U+30E4_U+30FC 1
 62
   179
420
  2234388
100
AcDbHatch
 10
0.0
 20
0.0
 30
0.0
210
0.0
220
0.0
230
1.0
  2
SOLID
 70
     1
 71
     0
 91
        1
 92
        1
 93
        1
 72
     4
 94
        3
 73
     0
 74
     1
 95
       62
 96
       58
 40
0.0
 40
0.0
 40
0.0
 40
0.0
 40
1.0
 40
1.0
 40
1.0
 40
2.0
 40
2.0
 40
2.0
 40
3.0
 40
3.0
 40
3.0
 40
4.0
 40
4.0
 40
4.0
 40
5.0
 40
5.0
 40
5.0
 40
6.0
 40
6.0
 40
6.0
 40
7.0
 40
7.0
 40
7.0
 40
8.0
 40
8.0
 40
8.0
 40
9.0
 40
9.0
 40
9.0
 40
10.0
 40
10.0
 40
10.0
 40
11.0
 40
11.0
 40
11.0
 40
12.0
 40
12.0
 40
12.0
 40
13.0
 40
13.0
 40
13.0
 40
14.0
 40
14.0
 40
14.0
 40
15.0
 40
15.0
 40
15.0
 40
16.0
 40
16.0
 40
16.0
 40
17.0
 40
17.0
 40
17.0
 40
18.0
 40
18.0
 40
18.0
 40
19.0
 40
19.0
 40
19.0
 40
19.0
 10
92.64344073204748
 20
-148.3809515688075
 10
92.54835609665459
 20
-148.3809515688075
 10
92.33062606198679
 20
-148.3599364863475
 10
92.20591360542075
 20
-148.173901330144
 10
92.13149954293935
 20
-148.0615912173249
 10
92.12736542835705
 20
-147.9623724673497
 10
92.12323131377475
 20
-147.8776231184125
 10
92.12323131377475
 20
-147.8776231184125
 10
92.34302840573369
 20
-147.8776231184125
 10
92.34302840573369
 20
-147.8776231184125
 10
92.34509546302485
 20
-147.9516926713454
 10
92.35611976857764
 20
-148.1863036738909
 10
92.63930661746518
 20
-148.1863036738909
 10
92.77711043687518
 20
-148.1863036738909
 10
92.92938365732321
 20
-148.1167127450889
 10
92.92938365732321
 20
-147.8883029144168
 10
92.92938365732321
 20
-147.7718586870154
 10
92.89114309743694
 20
-147.7232828406734
 10
92.85944821897264
 20
-147.691587962209
 10
92.78537866603978
 20
-147.6175184092762
 10
92.66893443863833
 20
-147.6047715559808
 10
92.61381291087433
 20
-147.6047715559808
 10
92.59520939525397
 20
-147.6047715559808
 10
92.55903589265886
 20
-147.6068386132719
 10
92.53147512877686
 20
-147.6109727278542
 10
92.53147512877686
 20
-147.6109727278542
 10
92.53147512877686
 20
-147.4163248329376
 10
92.53147512877686
 20
-147.4163248329376
 10
92.56971568866314
 20
-147.4228705143596
 10
92.61174585358317
 20
-147.4249375716507
 10
92.61829153500516
 20
-147.4249375716507
 10
92.6837483492249
 20
-147.4249375716507
 10
92.88253035872381
 20
-147.4035779796422
 10
92.88253035872381
 20
-147.1668999198055
 10
92.88253035872381
 20
-146.9891329927666
 10
92.75161673028433
 20
-146.9340114650026
 10
92.64137367475632
 20
-146.9340114650026
 10
92.37713485103767
 20
-146.9340114650026
 10
92.36852211232454
 20
-147.1668999198055
 10
92.36438799774224
 20
-147.2385579058987
 10
92.36438799774224
 20
-147.2385579058987
 10
92.1611273641125
 20
-147.2385579058987
 10
92.1611273641125
 20
-147.2385579058987
 10
92.16974010282563
 20
-147.1138454493326
 10
92.19730086670762
 20
-146.7372965127948
 10
92.65412052805175
 20
-146.7372965127948
 10
92.87839624414151
 20
-146.7372965127948
 10
93.119552928109
 20
-146.8644205362006
 10
93.119552928109
 20
-147.1603542383835
 10
93.119552928109
 20
-147.3467339041355
 10
93.02446829271611
 20
-147.429071686233
 10
92.92490503319239
 20
-147.4903943858705
 10
92.98657224237836
 20
-147.5179551497525
 10
93.16847328399955
 20
-147.5982258745588
 10
93.16847328399955
 20
-147.8755560611214
 10
93.16847328399955
 20
-148.2138644377729
 10
92.92077091861009
 20
-148.3809515688075
 10
92.64344073204748
 20
-148.3809515688075
 97
        0
 97
        0
 75
     2
 76
     1
 98
        0
  0
SPLINE
  5
10F
330
109
100
AcDbEntity
  8
_U+30EC_U+30A4_U+30E4_U+30FC 1
370
     0
100
AcDbSpline
210
0.0
220
0.0
230
1.0
 70
    11
 71
     3
 72
    29
 73
    25
 74
     0
 42
0.0000000001
 43
0.0000000001
 12
1.0
 22
0.0
 32
0.0
 13
1.0
 23
0.0
 33
0.0
 40
0.0
 40
0.0
 40
0.0
 40
0.0
 40
1.0
 40
1.0
 40
1.0
 40
2.0
 40
2.0
 40
2.0
 40
3.0
 40
3.0
 40
3.0
 40
4.0
 40
4.0
 40
4.0
 40
5.0
 40
5.0
 40
5.0
 40
6.0
 40
6.0
 40
6.0
 40
7.0
 40
7.0
 40
7.0
 40
8.0
 40
8.0
 40
8.0
 40
8.0
 10
94.2268066170683
 20
-148.1525417381355
 30
0.0
 10
94.11863061883146
 20
-148.3620035436387
 30
0.0
 10
93.9453423159234
 20
-148.3809515688075
 30
0.0
 10
93.82889808852195
 20
-148.3809515688075
 30
0.0
 10
93.66801212936078
 20
-148.3809515688075
 30
0.0
 10
93.526418704917
 20
-148.3344427797567
 30
0.0
 10
93.43098955997559
 20
-148.1525417381355
 30
0.0
 10
93.3276366954181
 20
-147.9578938432189
 30
0.0
 10
93.3083441607007
 20
-147.7212157833822
 30
0.0
 10
93.3083441607007
 20
-147.5582627669299
 30
0.0
 10
93.3083441607007
 20
-147.4142577756464
 30
0.0
 10
93.32556963812695
 20
-147.1624212956747
 30
0.0
 10
93.43098955997559
 20
-146.9636392861758
 30
0.0
 10
93.53916555821243
 20
-146.7607231620945
 30
0.0
 10
93.69970700782508
 20
-146.7372965127948
 30
0.0
 10
93.82889808852195
 20
-146.7372965127948
 30
0.0
 10
93.98771699039196
 20
-146.7372965127948
 30
0.0
 10
94.13137747212689
 20
-146.7817382445546
 30
0.0
 10
94.2268066170683
 20
-146.9636392861758
 30
0.0
 10
94.3260253670435
 20
-147.1562201238012
 30
0.0
 10
94.3494520163432
 20
-147.3846299544733
 30
0.0
 10
94.3494520163432
 20
-147.5582627669299
 30
0.0
 10
94.3494520163432
 20
-147.7294840125468
 30
0.0
 10
94.32809242433464
 20
-147.95996090051
 30
0.0
 10
94.2268066170683
 20
-148.1525417381355
 30
0.0
  0
SPLINE
  5
110
330
109
100
AcDbEntity
  8
_U+30EC_U+30A4_U+30E4_U+30FC 1
370
     0
100
AcDbSpline
210
0.0
220
0.0
230
1.0
 70
    11
 71
     3
 72
    17
 73
    13
 74
     0
 42
0.0000000001
 43
0.0000000001
 12
1.0
 22
0.0
 32
0.0
 13
1.0
 23
0.0
 33
0.0
 40
0.0
 40
0.0
 40
0.0
 40
0.0
 40
1.0
 40
1.0
 40
1.0
 40
2.0
 40
2.0
 40
2.0
 40
3.0
 40
3.0
 40
3.0
 40
4.0
 40
4.0
 40
4.0
 40
4.0
 10
93.82889808852195
 20
-146.9298773504203
 30
0.0
 10
93.57912866584134
 20
-146.9298773504203
 30
0.0
 10
93.53296438633899
 20
-147.2134087088564
 30
0.0
 10
93.53296438633899
 20
-147.5582627669299
 30
0.0
 10
93.53296438633899
 20
-147.8776231184125
 30
0.0
 10
93.56879337938558
 20
-148.1863036738909
 30
0.0
 10
93.82889808852195
 20
-148.1863036738909
 30
0.0
 10
94.07660045391141
 20
-148.1863036738909
 30
0.0
 10
94.12517630025343
 20
-147.9051838822946
 30
0.0
 10
94.12517630025343
 20
-147.5582627669299
 30
0.0
 10
94.12517630025343
 20
-147.2385579058987
 30
0.0
 10
94.08693574036715
 20
-146.9298773504203
 30
0.0
 10
93.82889808852195
 20
-146.9298773504203
 30
0.0
  0
HATCH
  5
111
330
109
100
AcDbEntity
  8
_U+30EC_U+30A4_U+30E4_U+30FC 1
 62
   179
420
  2234388
100
AcDbHatch
 10
0.0
 20
0.0
 30
0.0
210
0.0
220
0.0
230
1.0
  2
SOLID
 70
     1
 71
     0
 91
        2
 92
        1
 93
        1
 72
     4
 94
        3
 73
     0
 74
     1
 95
       29
 96
       25
 40
0.0
 40
0.0
 40
0.0
 40
0.0
 40
1.0
 40
1.0
 40
1.0
 40
2.0
 40
2.0
 40
2.0
 40
3.0
 40
3.0
 40
3.0
 40
4.0
 40
4.0
 40
4.0
 40
5.0
 40
5.0
 40
5.0
 40
6.0
 40
6.0
 40
6.0
 40
7.0
 40
7.0
 40
7.0
 40
8.0
 40
8.0
 40
8.0
 40
8.0
 10
94.2268066170683
 20
-148.1525417381355
 10
94.11863061883146
 20
-148.3620035436387
 10
93.9453423159234
 20
-148.3809515688075
 10
93.82889808852195
 20
-148.3809515688075
 10
93.66801212936078
 20
-148.3809515688075
 10
93.526418704917
 20
-148.3344427797567
 10
93.43098955997559
 20
-148.1525417381355
 10
93.3276366954181
 20
-147.9578938432189
 10
93.3083441607007
 20
-147.7212157833822
 10
93.3083441607007
 20
-147.5582627669299
 10
93.3083441607007
 20
-147.4142577756464
 10
93.32556963812695
 20
-147.1624212956747
 10
93.43098955997559
 20
-146.9636392861758
 10
93.53916555821243
 20
-146.7607231620945
 10
93.69970700782508
 20
-146.7372965127948
 10
93.82889808852195
 20
-146.7372965127948
 10
93.98771699039196
 20
-146.7372965127948
 10
94.13137747212689
 20
-146.7817382445546
 10
94.2268066170683
 20
-146.9636392861758
 10
94.3260253670435
 20
-147.1562201238012
 10
94.3494520163432
 20
-147.3846299544733
 10
94.3494520163432
 20
-147.5582627669299
 10
94.3494520163432
 20
-147.7294840125468
 10
94.32809242433464
 20
-147.95996090051
 10
94.2268066170683
 20
-148.1525417381355
 97
        0
 97
        0
 92
        1
 93
        1
 72
     4
 94
        3
 73
     0
 74
     1
 95
       17
 96
       13
 40
0.0
 40
0.0
 40
0.0
 40
0.0
 40
1.0
 40
1.0
 40
1.0
 40
2.0
 40
2.0
 40
2.0
 40
3.0
 40
3.0
 40
3.0
 40
4.0
 40
4.0
 40
4.0
 40
4.0
 10
93.82889808852195
 20
-146.9298773504203
 10
93.57912866584134
 20
-146.9298773504203
 10
93.53296438633899
 20
-147.2134087088564
 10
93.53296438633899
 20
-147.5582627669299
 10
93.53296438633899
 20
-147.8776231184125
 10
93.56879337938558
 20
-148.1863036738909
 10
93.82889808852195
 20
-148.1863036738909
 10
94.07660045391141
 20
-148.1863036738909
 10
94.12517630025343
 20
-147.9051838822946
 10
94.12517630025343
 20
-147.5582627669299
 10
94.12517630025343
 20
-147.2385579058987
 10
94.08693574036715
 20
-146.9298773504203
 10
93.82889808852195
 20
-146.9298773504203
 97
        0
 97
        0
 75
     2
 76
     1
 98
        0
  0
ENDBLK
  5
10C
330
109
100
AcDbEntity
  8
0
100
AcDbBlockEnd
  0
ENDSEC
  0
SECTION
  2
ENTITIES
  0
POLYLINE
  5
41
330
1F
100
AcDbEntity
  8
_U+30EC_U+30A4_U+30E4_U+30FC 1
 62
   179
420
  2234388
370
    25
100
AcDb2dPolyline
 66
     1
 10
0.0
 20
0.0
 30
0.0
  0
VERTEX
  5
42
330
41
100
AcDbEntity
  8
_U+30EC_U+30A4_U+30E4_U+30FC 1
 62
   179
420
  2234388
370
    25
100
AcDbVertex
100
AcDb2dVertex
 10
99.88366300731101
 20
-129.6389541342568
 30
0.0
  0
VERTEX
  5
43
330
41
100
AcDbEntity
  8
_U+30EC_U+30A4_U+30E4_U+30FC 1
 62
   179
420
  2234388
370
    25
100
AcDbVertex
100
AcDb2dVertex
 10
99.88366300731101
 20
-110.8535374722865
 30
0.0
  0
VERTEX
  5
44
330
41
100
AcDbEntity
  8
_U+30EC_U+30A4_U+30E4_U+30FC 1
 62
   179
420
  2234388
370
    25
100
AcDbVertex
100
AcDb2dVertex
 10
100.4658874369017
 20
-110.8535374722865
 30
0.0
  0
VERTEX
  5
45
330
41
100
AcDbEntity
  8
_U+30EC_U+30A4_U+30E4_U+30FC 1
 62
   179
420
  2234388
370
    25
100
AcDbVertex
100
AcDb2dVertex
 10
100.4128296604775
 20
-130.2742363563205
 30
0.0
  0
VERTEX
  5
46
330
41
100
AcDbEntity
  8
_U+30EC_U+30A4_U+30E4_U+30FC 1
 62
   179
420
  2234388
370
    25
100
AcDbVertex
100
AcDb2dVertex
 10
86.86651611718388
 20
-130.8561080228418
 30
0.0
  0
VERTEX
  5
47
330
41
100
AcDbEntity
  8
_U+30EC_U+30A4_U+30E4_U+30FC 1
 62
   179
420
  2234388
370
    25
100
AcDbVertex
100
AcDb2dVertex
 10
86.86651611718388
 20
-141.4394413535293
 30
0.0
  0
VERTEX
  5
48
330
41
100
AcDbEntity
  8
_U+30EC_U+30A4_U+30E4_U+30FC 1
 62
   179
420
  2234388
370
    25
100
AcDbVertex
100
AcDb2dVertex
 10
92.89905124105886
 20
-141.3867363535424
 30
0.0
  0
VERTEX
  5
49
330
41
100
AcDbEntity
  8
_U+30EC_U+30A4_U+30E4_U+30FC 1
 62
   179
420
  2234388
370
    25
100
AcDbVertex
100
AcDb2dVertex
 10
93.69280122080862
 20
-140.7514541314787
 30
0.0
  0
VERTEX
  5
4A
330
41
100
AcDbEntity
  8
_U+30EC_U+30A4_U+30E4_U+30FC 1
 62
   179
420
  2234388
370
    25
100
AcDbVertex
100
AcDb2dVertex
 10
100.4128296604775
 20
-140.7514541314787
 30
0.0
  0
VERTEX
  5
4B
330
41
100
AcDbEntity
  8
_U+30EC_U+30A4_U+30E4_U+30FC 1
 62
   179
420
  2234388
370
    25
100
AcDbVertex
100
AcDb2dVertex
 10
100.4128296604775
 20
-141.9686080200637
 30
0.0
  0
VERTEX
  5
4C
330
41
100
AcDbEntity
  8
_U+30EC_U+30A4_U+30E4_U+30FC 1
 62
   179
420
  2234388
370
    25
100
AcDbVertex
100
AcDb2dVertex
 10
86.39008974044964
 20
-142.0216657978277
 30
0.0
  0
VERTEX
  5
4D
330
41
100
AcDbEntity
  8
_U+30EC_U+30A4_U+30E4_U+30FC 1
 62
   179
420
  2234388
370
    25
100
AcDbVertex
100
AcDb2dVertex
 10
86.39008974044964
 20
-130.3799991340715
 30
0.0
  0
VERTEX
  5
4E
330
41
100
AcDbEntity
  8
_U+30EC_U+30A4_U+30E4_U+30FC 1
 62
   179
420
  2234388
370
    25
100
AcDbVertex
100
AcDb2dVertex
 10
99.88366300731101
 20
-129.6389541342568
 30
0.0
  0
SEQEND
  5
50
330
41
100
AcDbEntity
  8
_U+30EC_U+30A4_U+30E4_U+30FC 1
 62
   179
420
  2234388
370
    25
  0
HATCH
  5
4F
330
1F
100
AcDbEntity
  8
_U+30EC_U+30A4_U+30E4_U+30FC 1
 62
   253
420
 10066329
100
AcDbHatch
 10
0.0
 20
0.0
 30
0.0
210
0.0
220
0.0
230
1.0
  2
SOLID
 70
     1
 71
     0
 91
        1
 92
        1
 93
       12
 72
     1
 10
99.88366300731101
 20
-129.6389541342568
 11
99.88366300731101
 21
-110.8535374722865
 72
     1
 10
99.88366300731101
 20
-110.8535374722865
 11
100.4658874369017
 21
-110.8535374722865
 72
     1
 10
100.4658874369017
 20
-110.8535374722865
 11
100.4128296604775
 21
-130.2742363563205
 72
     1
 10
100.4128296604775
 20
-130.2742363563205
 11
86.86651611718388
 21
-130.8561080228418
 72
     1
 10
86.86651611718388
 20
-130.8561080228418
 11
86.86651611718388
 21
-141.4394413535293
 72
     1
 10
86.86651611718388
 20
-141.4394413535293
 11
92.89905124105886
 21
-141.3867363535424
 72
     1
 10
92.89905124105886
 20
-141.3867363535424
 11
93.69280122080862
 21
-140.7514541314787
 72
     1
 10
93.69280122080862
 20
-140.7514541314787
 11
100.4128296604775
 21
-140.7514541314787
 72
     1
 10
100.4128296604775
 20
-140.7514541314787
 11
100.4128296604775
 21
-141.9686080200637
 72
     1
 10
100.4128296604775
 20
-141.9686080200637
 11
86.39008974044964
 21
-142.0216657978277
 72
     1
 10
86.39008974044964
 20
-142.0216657978277
 11
86.39008974044964
 21
-130.3799991340715
 72
     1
 10
86.39008974044964
 20
-130.3799991340715
 11
99.88366300731101
 21
-129.6389541342568
 97
        0
 75
     2
 76
     1
 98
        0
  0
POLYLINE
  5
51
330
1F
100
AcDbEntity
  8
_U+30EC_U+30A4_U+30E4_U+30FC 1
 62
   179
420
  2234388
370
     9
100
AcDb2dPolyline
 66
     1
 10
0.0
 20
0.0
 30
0.0
  0
VERTEX
  5
52
330
51
100
AcDbEntity
  8
_U+30EC_U+30A4_U+30E4_U+30FC 1
 62
   179
420
  2234388
370
     9
100
AcDbVertex
100
AcDb2dVertex
 10
86.44311223909692
 20
-148.107082462973
 30
0.0
  0
VERTEX
  5
53
330
51
100
AcDbEntity
  8
_U+30EC_U+30A4_U+30E4_U+30FC 1
 62
   179
420
  2234388
370
     9
100
AcDbVertex
100
AcDb2dVertex
 10
86.44311223909692
 20
-142.4977746865981
 30
0.0
  0
SEQEND
  5
54
330
51
100
AcDbEntity
  8
_U+30EC_U+30A4_U+30E4_U+30FC 1
 62
   179
420
  2234388
370
     9
  0
POLYLINE
  5
55
330
1F
100
AcDbEntity
  8
_U+30EC_U+30A4_U+30E4_U+30FC 1
 62
   179
420
  2234388
370
     9
100
AcDb2dPolyline
 66
     1
 10
0.0
 20
0.0
 30
0.0
  0
VERTEX
  5
56
330
55
100
AcDbEntity
  8
_U+30EC_U+30A4_U+30E4_U+30FC 1
 62
   179
420
  2234388
370
     9
100
AcDbVertex
100
AcDb2dVertex
 10
86.44311223909692
 20
-147.1545119076559
 30
0.0
  0
VERTEX
  5
57
330
55
100
AcDbEntity
  8
_U+30EC_U+30A4_U+30E4_U+30FC 1
 62
   179
420
  2234388
370
     9
100
AcDbVertex
100
AcDb2dVertex
 10
91.52307683171846
 20
-147.1545119076559
 30
0.0
  0
SEQEND
  5
58
330
55
100
AcDbEntity
  8
_U+30EC_U+30A4_U+30E4_U+30FC 1
 62
   179
420
  2234388
370
     9
  0
POLYLINE
  5
59
330
1F
100
AcDbEntity
  8
_U+30EC_U+30A4_U+30E4_U+30FC 1
 62
   179
420
  2234388
370
     9
100
AcDb2dPolyline
 66
     1
 10
0.0
 20
0.0
 30
0.0
  0
VERTEX
  5
5A
330
59
100
AcDbEntity
  8
_U+30EC_U+30A4_U+30E4_U+30FC 1
 62
   179
420
  2234388
370
     9
100
AcDbVertex
100
AcDb2dVertex
 10
95.28030118030811
 20
-147.3133324631715
 30
0.0
  0
VERTEX
  5
5B
330
59
100
AcDbEntity
  8
_U+30EC_U+30A4_U+30E4_U+30FC 1
 62
   179
420
  2234388
370
     9
100
AcDbVertex
100
AcDb2dVertex
 10
100.5719677119731
 20
-147.3133324631715
 30
0.0
  0
SEQEND
  5
5C
330
59
100
AcDbEntity
  8
_U+30EC_U+30A4_U+30E4_U+30FC 1
 62
   179
420
  2234388
370
     9
  0
POLYLINE
  5
5D
330
1F
100
AcDbEntity
  8
_U+30EC_U+30A4_U+30E4_U+30FC 1
 62
   179
420
  2234388
370
     9
100
AcDb2dPolyline
 66
     1
 10
0.0
 20
0.0
 30
0.0
  0
VERTEX
  5
5E
330
5D
100
AcDbEntity
  8
_U+30EC_U+30A4_U+30E4_U+30FC 1
 62
   179
420
  2234388
370
     9
100
AcDbVertex
100
AcDb2dVertex
 10
100.518909935549
 20
-142.4977746865981
 30
0.0
  0
VERTEX
  5
5F
330
5D
100
AcDbEntity
  8
_U+30EC_U+30A4_U+30E4_U+30FC 1
 62
   179
420
  2234388
370
     9
100
AcDbVertex
100
AcDb2dVertex
 10
100.518909935549
 20
-148.107082462973
 30
0.0
  0
SEQEND
  5
60
330
5D
100
AcDbEntity
  8
_U+30EC_U+30A4_U+30E4_U+30FC 1
 62
   179
420
  2234388
370
     9
  0
POLYLINE
  5
61
330
1F
100
AcDbEntity
  8
_U+30EC_U+30A4_U+30E4_U+30FC 1
 62
   179
420
  2234388
370
     9
100
AcDb2dPolyline
 66
     1
 10
0.0
 20
0.0
 30
0.0
  0
VERTEX
  5
62
330
61
100
AcDbEntity
  8
_U+30EC_U+30A4_U+30E4_U+30FC 1
 62
   179
420
  2234388
370
     9
100
AcDbVertex
100
AcDb2dVertex
 10
93.48127567064952
 20
-142.4450696866112
 30
0.0
  0
VERTEX
  5
63
330
61
100
AcDbEntity
  8
_U+30EC_U+30A4_U+30E4_U+30FC 1
 62
   179
420
  2234388
370
     9
100
AcDbVertex
100
AcDb2dVertex
 10
93.48127567064952
 20
-145.7258324635683
 30
0.0
  0
SEQEND
  5
64
330
61
100
AcDbEntity
  8
_U+30EC_U+30A4_U+30E4_U+30FC 1
 62
   179
420
  2234388
370
     9
  0
POLYLINE
  5
65
330
1F
100
AcDbEntity
  8
_U+30EC_U+30A4_U+30E4_U+30FC 1
 62
   179
420
  2234388
370
     9
100
AcDb2dPolyline
 66
     1
 10
0.0
 20
0.0
 30
0.0
  0
VERTEX
  5
66
330
65
100
AcDbEntity
  8
_U+30EC_U+30A4_U+30E4_U+30FC 1
 62
   179
420
  2234388
370
     9
100
AcDbVertex
100
AcDb2dVertex
 10
93.48127567064952
 20
-144.8263196860158
 30
0.0
  0
VERTEX
  5
67
330
65
100
AcDbEntity
  8
_U+30EC_U+30A4_U+30E4_U+30FC 1
 62
   179
420
  2234388
370
     9
100
AcDbVertex
100
AcDb2dVertex
 10
95.12116312881251
 20
-144.8263196860158
 30
0.0
  0
SEQEND
  5
68
330
65
100
AcDbEntity
  8
_U+30EC_U+30A4_U+30E4_U+30FC 1
 62
   179
420
  2234388
370
     9
  0
POLYLINE
  5
69
330
1F
100
AcDbEntity
  8
_U+30EC_U+30A4_U+30E4_U+30FC 1
 62
   179
420
  2234388
370
     9
100
AcDb2dPolyline
 66
     1
 10
0.0
 20
0.0
 30
0.0
  0
VERTEX
  5
6A
330
69
100
AcDbEntity
  8
_U+30EC_U+30A4_U+30E4_U+30FC 1
 62
   179
420
  2234388
370
     9
100
AcDbVertex
100
AcDb2dVertex
 10
98.50835887573128
 20
-144.8790246860028
 30
0.0
  0
VERTEX
  5
6B
330
69
100
AcDbEntity
  8
_U+30EC_U+30A4_U+30E4_U+30FC 1
 62
   179
420
  2234388
370
     9
100
AcDbVertex
100
AcDb2dVertex
 10
100.518909935549
 20
-144.8790246860028
 30
0.0
  0
SEQEND
  5
6C
330
69
100
AcDbEntity
  8
_U+30EC_U+30A4_U+30E4_U+30FC 1
 62
   179
420
  2234388
370
     9
  0
POLYLINE
  5
6D
330
1F
100
AcDbEntity
  8
_U+30EC_U+30A4_U+30E4_U+30FC 1
 62
   179
420
  2234388
370
     9
100
AcDb2dPolyline
 66
     1
 10
0.0
 20
0.0
 30
0.0
  0
VERTEX
  5
6E
330
6D
100
AcDbEntity
  8
_U+30EC_U+30A4_U+30E4_U+30FC 1
 62
   179
420
  2234388
370
     9
100
AcDbVertex
100
AcDb2dVertex
 10
101.1011343651396
 20
-140.6456913537278
 30
0.0
  0
VERTEX
  5
6F
330
6D
100
AcDbEntity
  8
_U+30EC_U+30A4_U+30E4_U+30FC 1
 62
   179
420
  2234388
370
     9
100
AcDbVertex
100
AcDb2dVertex
 10
102.9532176512224
 20
-140.6456913537278
 30
0.0
  0
SEQEND
  5
70
330
6D
100
AcDbEntity
  8
_U+30EC_U+30A4_U+30E4_U+30FC 1
 62
   179
420
  2234388
370
     9
  0
POLYLINE
  5
71
330
1F
100
AcDbEntity
  8
_U+30EC_U+30A4_U+30E4_U+30FC 1
 62
   179
420
  2234388
370
     9
100
AcDb2dPolyline
 66
     1
 10
0.0
 20
0.0
 30
0.0
  0
VERTEX
  5
72
330
71
100
AcDbEntity
  8
_U+30EC_U+30A4_U+30E4_U+30FC 1
 62
   179
420
  2234388
370
     9
100
AcDbVertex
100
AcDb2dVertex
 10
101.0480765887155
 20
-141.9686080200637
 30
0.0
  0
VERTEX
  5
73
330
71
100
AcDbEntity
  8
_U+30EC_U+30A4_U+30E4_U+30FC 1
 62
   179
420
  2234388
370
     9
100
AcDbVertex
100
AcDb2dVertex
 10
103.0062754276465
 20
-141.9686080200637
 30
0.0
  0
SEQEND
  5
74
330
71
100
AcDbEntity
  8
_U+30EC_U+30A4_U+30E4_U+30FC 1
 62
   179
420
  2234388
370
     9
  0
SPLINE
  5
75
330
1F
100
AcDbEntity
  8
_U+30EC_U+30A4_U+30E4_U+30FC 1
 62
   179
420
  2234388
370
     9
100
AcDbSpline
210
0.0
220
0.0
230
1.0
 70
     8
 71
     3
 72
     8
 73
     4
 74
     0
 42
0.0000000001
 43
0.0000000001
 12
1.0
 22
0.0
 32
0.0
 13
1.0
 23
0.0
 33
0.0
 40
0.0
 40
0.0
 40
0.0
 40
0.0
 40
1.0
 40
1.0
 40
1.0
 40
1.0
 10
102.2649129465603
 20
-143.1857619086481
 30
0.0
 10
102.3709932216317
 20
-142.7096530198783
 30
0.0
 10
102.2649129465603
 20
-139.5346530206721
 30
0.0
 10
102.2649129465603
 20
-139.5346530206721
 30
0.0
  0
POLYLINE
  5
76
330
1F
100
AcDbEntity
  8
_U+30EC_U+30A4_U+30E4_U+30FC 1
 62
   179
420
  2234388
370
     9
100
AcDb2dPolyline
 66
     1
 10
0.0
 20
0.0
 30
0.0
  0
VERTEX
  5
77
330
76
100
AcDbEntity
  8
_U+30EC_U+30A4_U+30E4_U+30FC 1
 62
   179
420
  2234388
370
     9
100
AcDbVertex
100
AcDb2dVertex
 10
98.45530109930712
 20
-108.736870806149
 30
0.0
  0
VERTEX
  5
78
330
76
100
AcDbEntity
  8
_U+30EC_U+30A4_U+30E4_U+30FC 1
 62
   179
420
  2234388
370
     9
100
AcDbVertex
100
AcDb2dVertex
 10
101.6303010183061
 20
-108.736870806149
 30
0.0
  0
SEQEND
  5
79
330
76
100
AcDbEntity
  8
_U+30EC_U+30A4_U+30E4_U+30FC 1
 62
   179
420
  2234388
370
     9
  0
POLYLINE
  5
7A
330
1F
100
AcDbEntity
  8
_U+30EC_U+30A4_U+30E4_U+30FC 1
 62
   179
420
  2234388
370
     9
100
AcDb2dPolyline
 66
     1
 10
0.0
 20
0.0
 30
0.0
  0
VERTEX
  5
7B
330
7A
100
AcDbEntity
  8
_U+30EC_U+30A4_U+30E4_U+30FC 1
 62
   179
420
  2234388
370
     9
100
AcDbVertex
100
AcDb2dVertex
 10
99.98974328238246
 20
-107.7846530286093
 30
0.0
  0
VERTEX
  5
7C
330
7A
100
AcDbEntity
  8
_U+30EC_U+30A4_U+30E4_U+30FC 1
 62
   179
420
  2234388
370
     9
100
AcDbVertex
100
AcDb2dVertex
 10
99.98974328238246
 20
-110.2186080280009
 30
0.0
  0
SEQEND
  5
7D
330
7A
100
AcDbEntity
  8
_U+30EC_U+30A4_U+30E4_U+30FC 1
 62
   179
420
  2234388
370
     9
  0
POLYLINE
  5
7E
330
1F
100
AcDbEntity
  8
_U+30EC_U+30A4_U+30E4_U+30FC 1
 62
   179
420
  2234388
370
     9
100
AcDb2dPolyline
 66
     1
 10
0.0
 20
0.0
 30
0.0
  0
VERTEX
  5
7F
330
7E
100
AcDbEntity
  8
_U+30EC_U+30A4_U+30E4_U+30FC 1
 62
   179
420
  2234388
370
     9
100
AcDbVertex
100
AcDb2dVertex
 10
100.4658874369017
 20
-107.7315952508449
 30
0.0
  0
VERTEX
  5
80
330
7E
100
AcDbEntity
  8
_U+30EC_U+30A4_U+30E4_U+30FC 1
 62
   179
420
  2234388
370
     9
100
AcDbVertex
100
AcDb2dVertex
 10
100.4658874369017
 20
-110.2716658057655
 30
0.0
  0
SEQEND
  5
81
330
7E
100
AcDbEntity
  8
_U+30EC_U+30A4_U+30E4_U+30FC 1
 62
   179
420
  2234388
370
     9
  0
POLYLINE
  5
82
330
1F
100
AcDbEntity
  8
_U+30EC_U+30A4_U+30E4_U+30FC 1
 62
   179
420
  2234388
370
     9
100
AcDb2dPolyline
 66
     1
 10
0.0
 20
0.0
 30
0.0
  0
VERTEX
  5
83
330
82
100
AcDbEntity
  8
_U+30EC_U+30A4_U+30E4_U+30FC 1
 62
   179
420
  2234388
370
     9
100
AcDbVertex
100
AcDb2dVertex
 10
94.80419230356577
 20
-115.6160374710959
 30
0.0
  0
VERTEX
  5
84
330
82
100
AcDbEntity
  8
_U+30EC_U+30A4_U+30E4_U+30FC 1
 62
   179
420
  2234388
370
     9
100
AcDbVertex
100
AcDb2dVertex
 10
99.30210885548104
 20
-115.6160374710959
 30
0.0
  0
SEQEND
  5
85
330
82
100
AcDbEntity
  8
_U+30EC_U+30A4_U+30E4_U+30FC 1
 62
   179
420
  2234388
370
     9
  0
POLYLINE
  5
86
330
1F
100
AcDbEntity
  8
_U+30EC_U+30A4_U+30E4_U+30FC 1
 62
   179
420
  2234388
370
     9
100
AcDb2dPolyline
 66
     1
 10
0.0
 20
0.0
 30
0.0
  0
VERTEX
  5
87
330
86
100
AcDbEntity
  8
_U+30EC_U+30A4_U+30E4_U+30FC 1
 62
   179
420
  2234388
370
     9
100
AcDbVertex
100
AcDb2dVertex
 10
95.91491310856226
 20
-115.5633324711093
 30
0.0
  0
VERTEX
  5
88
330
86
100
AcDbEntity
  8
_U+30EC_U+30A4_U+30E4_U+30FC 1
 62
   179
420
  2234388
370
     9
100
AcDbVertex
100
AcDb2dVertex
 10
95.91491310856226
 20
-114.4519413602759
 30
0.0
  0
SEQEND
  5
89
330
86
100
AcDbEntity
  8
_U+30EC_U+30A4_U+30E4_U+30FC 1
 62
   179
420
  2234388
370
     9
  0
POLYLINE
  5
8A
330
1F
100
AcDbEntity
  8
_U+30EC_U+30A4_U+30E4_U+30FC 1
 62
   179
420
  2234388
370
     9
100
AcDb2dPolyline
 66
     1
 10
0.0
 20
0.0
 30
0.0
  0
VERTEX
  5
8B
330
8A
100
AcDbEntity
  8
_U+30EC_U+30A4_U+30E4_U+30FC 1
 62
   179
420
  2234388
370
     9
100
AcDbVertex
100
AcDb2dVertex
 10
99.08991302756127
 20
-110.9065952500512
 30
0.0
  0
VERTEX
  5
8C
330
8A
100
AcDbEntity
  8
_U+30EC_U+30A4_U+30E4_U+30FC 1
 62
   179
420
  2234388
370
     9
100
AcDbVertex
100
AcDb2dVertex
 10
76.17742220317776
 20
-110.9065952500512
 30
0.0
  0
SEQEND
  5
8D
330
8A
100
AcDbEntity
  8
_U+30EC_U+30A4_U+30E4_U+30FC 1
 62
   179
420
  2234388
370
     9
  0
POLYLINE
  5
8E
330
1F
100
AcDbEntity
  8
_U+30EC_U+30A4_U+30E4_U+30FC 1
 62
   179
420
  2234388
370
     9
100
AcDb2dPolyline
 66
     1
 10
0.0
 20
0.0
 30
0.0
  0
VERTEX
  5
8F
330
8E
100
AcDbEntity
  8
_U+30EC_U+30A4_U+30E4_U+30FC 1
 62
   179
420
  2234388
370
     9
100
AcDbVertex
100
AcDb2dVertex
 10
83.16234954501837
 20
-110.8008324722999
 30
0.0
  0
VERTEX
  5
90
330
8E
100
AcDbEntity
  8
_U+30EC_U+30A4_U+30E4_U+30FC 1
 62
   179
420
  2234388
370
     9
100
AcDbVertex
100
AcDb2dVertex
 10
83.16234954501837
 20
-119.6378452478684
 30
0.0
  0
SEQEND
  5
91
330
8E
100
AcDbEntity
  8
_U+30EC_U+30A4_U+30E4_U+30FC 1
 62
   179
420
  2234388
370
     9
  0
POLYLINE
  5
92
330
1F
100
AcDbEntity
  8
_U+30EC_U+30A4_U+30E4_U+30FC 1
 62
   179
420
  2234388
370
     9
100
AcDb2dPolyline
 66
     1
 10
0.0
 20
0.0
 30
0.0
  0
VERTEX
  5
93
330
92
100
AcDbEntity
  8
_U+30EC_U+30A4_U+30E4_U+30FC 1
 62
   179
420
  2234388
370
     9
100
AcDbVertex
100
AcDb2dVertex
 10
76.81234970702036
 20
-110.9065952500512
 30
0.0
  0
VERTEX
  5
94
330
92
100
AcDbEntity
  8
_U+30EC_U+30A4_U+30E4_U+30FC 1
 62
   179
420
  2234388
370
     9
100
AcDbVertex
100
AcDb2dVertex
 10
76.81234970702036
 20
-125.1410374687146
 30
0.0
  0
SEQEND
  5
95
330
92
100
AcDbEntity
  8
_U+30EC_U+30A4_U+30E4_U+30FC 1
 62
   179
420
  2234388
370
     9
  0
POLYLINE
  5
96
330
1F
100
AcDbEntity
  8
_U+30EC_U+30A4_U+30E4_U+30FC 1
 62
   179
420
  2234388
370
     9
100
AcDb2dPolyline
 66
     1
 10
0.0
 20
0.0
 30
0.0
  0
VERTEX
  5
97
330
96
100
AcDbEntity
  8
_U+30EC_U+30A4_U+30E4_U+30FC 1
 62
   179
420
  2234388
370
     9
100
AcDbVertex
100
AcDb2dVertex
 10
76.7592919305962
 20
-127.8929863569155
 30
0.0
  0
VERTEX
  5
98
330
96
100
AcDbEntity
  8
_U+30EC_U+30A4_U+30E4_U+30FC 1
 62
   179
420
  2234388
370
     9
100
AcDbVertex
100
AcDb2dVertex
 10
76.7592919305962
 20
-142.0216657978277
 30
0.0
  0
SEQEND
  5
99
330
96
100
AcDbEntity
  8
_U+30EC_U+30A4_U+30E4_U+30FC 1
 62
   179
420
  2234388
370
     9
  0
POLYLINE
  5
9A
330
1F
100
AcDbEntity
  8
_U+30EC_U+30A4_U+30E4_U+30FC 1
 62
   179
420
  2234388
370
     9
100
AcDb2dPolyline
 66
     1
 10
0.0
 20
0.0
 30
0.0
  0
VERTEX
  5
9B
330
9A
100
AcDbEntity
  8
_U+30EC_U+30A4_U+30E4_U+30FC 1
 62
   179
420
  2234388
370
     9
100
AcDbVertex
100
AcDb2dVertex
 10
76.07134000370287
 20
-141.9686080200637
 30
0.0
  0
VERTEX
  5
9C
330
9A
100
AcDbEntity
  8
_U+30EC_U+30A4_U+30E4_U+30FC 1
 62
   179
420
  2234388
370
     9
100
AcDbVertex
100
AcDb2dVertex
 10
85.64936225934717
 20
-141.9686080200637
 30
0.0
  0
SEQEND
  5
9D
330
9A
100
AcDbEntity
  8
_U+30EC_U+30A4_U+30E4_U+30FC 1
 62
   179
420
  2234388
370
     9
  0
POLYLINE
  5
9E
330
1F
100
AcDbEntity
  8
_U+30EC_U+30A4_U+30E4_U+30FC 1
 62
   179
420
  2234388
370
     9
100
AcDb2dPolyline
 66
     1
 10
0.0
 20
0.0
 30
0.0
  0
VERTEX
  5
9F
330
9E
100
AcDbEntity
  8
_U+30EC_U+30A4_U+30E4_U+30FC 1
 62
   179
420
  2234388
370
     9
100
AcDbVertex
100
AcDb2dVertex
 10
83.21508982145063
 20
-141.9159030200768
 30
0.0
  0
VERTEX
  5
A0
330
9E
100
AcDbEntity
  8
_U+30EC_U+30A4_U+30E4_U+30FC 1
 62
   179
420
  2234388
370
     9
100
AcDbVertex
100
AcDb2dVertex
 10
83.21508982145063
 20
-137.1534030212674
 30
0.0
  0
SEQEND
  5
A1
330
9E
100
AcDbEntity
  8
_U+30EC_U+30A4_U+30E4_U+30FC 1
 62
   179
420
  2234388
370
     9
  0
POLYLINE
  5
A2
330
1F
100
AcDbEntity
  8
_U+30EC_U+30A4_U+30E4_U+30FC 1
 62
   179
420
  2234388
370
     9
100
AcDb2dPolyline
 66
     1
 10
0.0
 20
0.0
 30
0.0
  0
VERTEX
  5
A3
330
A2
100
AcDbEntity
  8
_U+30EC_U+30A4_U+30E4_U+30FC 1
 62
   179
420
  2234388
370
     9
100
AcDbVertex
100
AcDb2dVertex
 10
83.16234954501837
 20
-134.3487491330793
 30
0.0
  0
VERTEX
  5
A4
330
A2
100
AcDbEntity
  8
_U+30EC_U+30A4_U+30E4_U+30FC 1
 62
   179
420
  2234388
370
     9
100
AcDbVertex
100
AcDb2dVertex
 10
83.16234954501837
 20
-122.177915802789
 30
0.0
  0
SEQEND
  5
A5
330
A2
100
AcDbEntity
  8
_U+30EC_U+30A4_U+30E4_U+30FC 1
 62
   179
420
  2234388
370
     9
  0
POLYLINE
  5
A6
330
1F
100
AcDbEntity
  8
_U+30EC_U+30A4_U+30E4_U+30FC 1
 62
   179
420
  2234388
370
     9
100
AcDb2dPolyline
 66
     1
 10
0.0
 20
0.0
 30
0.0
  0
VERTEX
  5
A7
330
A6
100
AcDbEntity
  8
_U+30EC_U+30A4_U+30E4_U+30FC 1
 62
   179
420
  2234388
370
     9
100
AcDbVertex
100
AcDb2dVertex
 10
82.0509584622612
 20
-129.5331913565059
 30
0.0
  0
VERTEX
  5
A8
330
A6
100
AcDbEntity
  8
_U+30EC_U+30A4_U+30E4_U+30FC 1
 62
   179
420
  2234388
370
     9
100
AcDbVertex
100
AcDb2dVertex
 10
99.24905107905687
 20
-129.5331913565059
 30
0.0
  0
SEQEND
  5
A9
330
A6
100
AcDbEntity
  8
_U+30EC_U+30A4_U+30E4_U+30FC 1
 62
   179
420
  2234388
370
     9
  0
POLYLINE
  5
AA
330
1F
100
AcDbEntity
  8
_U+30EC_U+30A4_U+30E4_U+30FC 1
 62
   179
420
  2234388
370
     9
100
AcDb2dPolyline
 66
     1
 10
0.0
 20
0.0
 30
0.0
  0
VERTEX
  5
AB
330
AA
100
AcDbEntity
  8
_U+30EC_U+30A4_U+30E4_U+30FC 1
 62
   179
420
  2234388
370
     9
100
AcDbVertex
100
AcDb2dVertex
 10
81.89217318853439
 20
-130.2742363563205
 30
0.0
  0
VERTEX
  5
AC
330
AA
100
AcDbEntity
  8
_U+30EC_U+30A4_U+30E4_U+30FC 1
 62
   179
420
  2234388
370
     9
100
AcDbVertex
100
AcDb2dVertex
 10
85.91394558593042
 20
-130.2742363563205
 30
0.0
  0
SEQEND
  5
AD
330
AA
100
AcDbEntity
  8
_U+30EC_U+30A4_U+30E4_U+30FC 1
 62
   179
420
  2234388
370
     9
  0
INSERT
  5
AF
330
1F
100
AcDbEntity
  8
_U+30EC_U+30A4_U+30E4_U+30FC 1
100
AcDbBlockReference
  2
block 2
 10
0.0
 20
0.0
 30
0.0
  0
INSERT
  5
B8
330
1F
100
AcDbEntity
  8
_U+30EC_U+30A4_U+30E4_U+30FC 1
100
AcDbBlockReference
  2
block 3
 10
0.0
 20
0.0
 30
0.0
  0
INSERT
  5
C8
330
1F
100
AcDbEntity
  8
_U+30EC_U+30A4_U+30E4_U+30FC 1
100
AcDbBlockReference
  2
block 4
 10
0.0
 20
0.0
 30
0.0
  0
INSERT
  5
E4
330
1F
100
AcDbEntity
  8
_U+30EC_U+30A4_U+30E4_U+30FC 1
100
AcDbBlockReference
  2
block 5
 10
0.0
 20
0.0
 30
0.0
  0
INSERT
  5
EE
330
1F
100
AcDbEntity
  8
_U+30EC_U+30A4_U+30E4_U+30FC 1
100
AcDbBlockReference
  2
block 6
 10
0.0
 20
0.0
 30
0.0
  0
INSERT
  5
F4
330
1F
100
AcDbEntity
  8
_U+30EC_U+30A4_U+30E4_U+30FC 1
100
AcDbBlockReference
  2
block 7
 10
0.0
 20
0.0
 30
0.0
  0
INSERT
  5
FC
330
1F
100
AcDbEntity
  8
_U+30EC_U+30A4_U+30E4_U+30FC 1
100
AcDbBlockReference
  2
block 8
 10
0.0
 20
0.0
 30
0.0
  0
INSERT
  5
102
330
1F
100
AcDbEntity
  8
_U+30EC_U+30A4_U+30E4_U+30FC 1
100
AcDbBlockReference
  2
block 9
 10
0.0
 20
0.0
 30
0.0
  0
INSERT
  5
10A
330
1F
100
AcDbEntity
  8
_U+30EC_U+30A4_U+30E4_U+30FC 1
100
AcDbBlockReference
  2
block 10
 10
0.0
 20
0.0
 30
0.0
  0
SPLINE
  5
112
330
1F
100
AcDbEntity
  8
_U+30EC_U+30A4_U+30E4_U+30FC 1
370
     0
100
AcDbSpline
210
0.0
220
0.0
230
1.0
 70
    11
 71
     3
 72
    17
 73
    13
 74
     0
 42
0.0000000001
 43
0.0000000001
 12
1.0
 22
0.0
 32
0.0
 13
1.0
 23
0.0
 33
0.0
 40
0.0
 40
0.0
 40
0.0
 40
0.0
 40
1.0
 40
1.0
 40
1.0
 40
2.0
 40
2.0
 40
2.0
 40
3.0
 40
3.0
 40
3.0
 40
4.0
 40
4.0
 40
4.0
 40
4.0
 10
102.47710877448
 20
-140.6987491314918
 30
0.0
 10
102.47710877448
 20
-140.7814049648045
 30
0.0
 10
102.409587109536
 20
-140.8482563536768
 30
0.0
 10
102.3268960005345
 20
-140.8482563536768
 30
0.0
 10
102.2442401693099
 20
-140.8482563536768
 30
0.0
 10
102.1773887821265
 20
-140.7814049648045
 30
0.0
 10
102.1773887821265
 20
-140.6987491314918
 30
0.0
 10
102.1773887821265
 20
-140.6160580204016
 30
0.0
 10
102.2442401693099
 20
-140.5485363537519
 30
0.0
 10
102.3268960005345
 20
-140.5485363537519
 30
0.0
 10
102.409587109536
 20
-140.5485363537519
 30
0.0
 10
102.47710877448
 20
-140.6160580204016
 30
0.0
 10
102.47710877448
 20
-140.6987491314918
 30
0.0
  0
HATCH
  5
113
330
1F
100
AcDbEntity
  8
_U+30EC_U+30A4_U+30E4_U+30FC 1
 62
   179
420
  2234388
100
AcDbHatch
 10
0.0
 20
0.0
 30
0.0
210
0.0
220
0.0
230
1.0
  2
SOLID
 70
     1
 71
     0
 91
        1
 92
        1
 93
        1
 72
     4
 94
        3
 73
     0
 74
     1
 95
       17
 96
       13
 40
0.0
 40
0.0
 40
0.0
 40
0.0
 40
1.0
 40
1.0
 40
1.0
 40
2.0
 40
2.0
 40
2.0
 40
3.0
 40
3.0
 40
3.0
 40
4.0
 40
4.0
 40
4.0
 40
4.0
 10
102.47710877448
 20
-140.6987491314918
 10
102.47710877448
 20
-140.7814049648045
 10
102.409587109536
 20
-140.8482563536768
 10
102.3268960005345
 20
-140.8482563536768
 10
102.2442401693099
 20
-140.8482563536768
 10
102.1773887821265
 20
-140.7814049648045
 10
102.1773887821265
 20
-140.6987491314918
 10
102.1773887821265
 20
-140.6160580204016
 10
102.2442401693099
 20
-140.5485363537519
 10
102.3268960005345
 20
-140.5485363537519
 10
102.409587109536
 20
-140.5485363537519
 10
102.47710877448
 20
-140.6160580204016
 10
102.47710877448
 20
-140.6987491314918
 97
        0
 97
        0
 75
     2
 76
     1
 98
        0
  0
SPLINE
  5
114
330
1F
100
AcDbEntity
  8
_U+30EC_U+30A4_U+30E4_U+30FC 1
370
     0
100
AcDbSpline
210
0.0
220
0.0
230
1.0
 70
    11
 71
     3
 72
    17
 73
    13
 74
     0
 42
0.0000000001
 43
0.0000000001
 12
1.0
 22
0.0
 32
0.0
 13
1.0
 23
0.0
 33
0.0
 40
0.0
 40
0.0
 40
0.0
 40
0.0
 40
1.0
 40
1.0
 40
1.0
 40
2.0
 40
2.0
 40
2.0
 40
3.0
 40
3.0
 40
3.0
 40
4.0
 40
4.0
 40
4.0
 40
4.0
 10
102.47710877448
 20
-141.9686080200637
 30
0.0
 10
102.47710877448
 20
-142.0512638533764
 30
0.0
 10
102.409587109536
 20
-142.1184680200258
 30
0.0
 10
102.3268960005345
 20
-142.1184680200258
 30
0.0
 10
102.2442401693099
 20
-142.1184680200258
 30
0.0
 10
102.1773887821265
 20
-142.0512638533764
 30
0.0
 10
102.1773887821265
 20
-141.9686080200637
 30
0.0
 10
102.1773887821265
 20
-141.8859169089728
 30
0.0
 10
102.2442401693099
 20
-141.8187480201009
 30
0.0
 10
102.3268960005345
 20
-141.8187480201009
 30
0.0
 10
102.409587109536
 20
-141.8187480201009
 30
0.0
 10
102.47710877448
 20
-141.8859169089728
 30
0.0
 10
102.47710877448
 20
-141.9686080200637
 30
0.0
  0
HATCH
  5
115
330
1F
100
AcDbEntity
  8
_U+30EC_U+30A4_U+30E4_U+30FC 1
 62
   179
420
  2234388
100
AcDbHatch
 10
0.0
 20
0.0
 30
0.0
210
0.0
220
0.0
230
1.0
  2
SOLID
 70
     1
 71
     0
 91
        1
 92
        1
 93
        1
 72
     4
 94
        3
 73
     0
 74
     1
 95
       17
 96
       13
 40
0.0
 40
0.0
 40
0.0
 40
0.0
 40
1.0
 40
1.0
 40
1.0
 40
2.0
 40
2.0
 40
2.0
 40
3.0
 40
3.0
 40
3.0
 40
4.0
 40
4.0
 40
4.0
 40
4.0
 10
102.47710877448
 20
-141.9686080200637
 10
102.47710877448
 20
-142.0512638533764
 10
102.409587109536
 20
-142.1184680200258
 10
102.3268960005345
 20
-142.1184680200258
 10
102.2442401693099
 20
-142.1184680200258
 10
102.1773887821265
 20
-142.0512638533764
 10
102.1773887821265
 20
-141.9686080200637
 10
102.1773887821265
 20
-141.8859169089728
 10
102.2442401693099
 20
-141.8187480201009
 10
102.3268960005345
 20
-141.8187480201009
 10
102.409587109536
 20
-141.8187480201009
 10
102.47710877448
 20
-141.8859169089728
 10
102.47710877448
 20
-141.9686080200637
 97
        0
 97
        0
 75
     2
 76
     1
 98
        0
  0
SPLINE
  5
116
330
1F
100
AcDbEntity
  8
_U+30EC_U+30A4_U+30E4_U+30FC 1
370
     0
100
AcDbSpline
210
0.0
220
0.0
230
1.0
 70
    11
 71
     3
 72
    17
 73
    13
 74
     0
 42
0.0000000001
 43
0.0000000001
 12
1.0
 22
0.0
 32
0.0
 13
1.0
 23
0.0
 33
0.0
 40
0.0
 40
0.0
 40
0.0
 40
0.0
 40
1.0
 40
1.0
 40
1.0
 40
2.0
 40
2.0
 40
2.0
 40
3.0
 40
3.0
 40
3.0
 40
4.0
 40
4.0
 40
4.0
 40
4.0
 10
100.6774129870608
 20
-147.3133324631715
 30
0.0
 10
100.6774129870608
 20
-147.3959882964842
 30
0.0
 10
100.6105615998774
 20
-147.4628396853565
 30
0.0
 10
100.5278704908759
 20
-147.4628396853565
 30
0.0
 10
100.4452146596513
 20
-147.4628396853565
 30
0.0
 10
100.3776929947073
 20
-147.3959882964842
 30
0.0
 10
100.3776929947073
 20
-147.3133324631715
 30
0.0
 10
100.3776929947073
 20
-147.2306413520812
 30
0.0
 10
100.4452146596513
 20
-147.1631196854316
 30
0.0
 10
100.5278704908759
 20
-147.1631196854316
 30
0.0
 10
100.6105615998774
 20
-147.1631196854316
 30
0.0
 10
100.6774129870608
 20
-147.2306413520812
 30
0.0
 10
100.6774129870608
 20
-147.3133324631715
 30
0.0
  0
HATCH
  5
117
330
1F
100
AcDbEntity
  8
_U+30EC_U+30A4_U+30E4_U+30FC 1
 62
   179
420
  2234388
100
AcDbHatch
 10
0.0
 20
0.0
 30
0.0
210
0.0
220
0.0
230
1.0
  2
SOLID
 70
     1
 71
     0
 91
        1
 92
        1
 93
        1
 72
     4
 94
        3
 73
     0
 74
     1
 95
       17
 96
       13
 40
0.0
 40
0.0
 40
0.0
 40
0.0
 40
1.0
 40
1.0
 40
1.0
 40
2.0
 40
2.0
 40
2.0
 40
3.0
 40
3.0
 40
3.0
 40
4.0
 40
4.0
 40
4.0
 40
4.0
 10
100.6774129870608
 20
-147.3133324631715
 10
100.6774129870608
 20
-147.3959882964842
 10
100.6105615998774
 20
-147.4628396853565
 10
100.5278704908759
 20
-147.4628396853565
 10
100.4452146596513
 20
-147.4628396853565
 10
100.3776929947073
 20
-147.3959882964842
 10
100.3776929947073
 20
-147.3133324631715
 10
100.3776929947073
 20
-147.2306413520812
 10
100.4452146596513
 20
-147.1631196854316
 10
100.5278704908759
 20
-147.1631196854316
 10
100.6105615998774
 20
-147.1631196854316
 10
100.6774129870608
 20
-147.2306413520812
 10
100.6774129870608
 20
-147.3133324631715
 97
        0
 97
        0
 75
     2
 76
     1
 98
        0
  0
SPLINE
  5
118
330
1F
100
AcDbEntity
  8
_U+30EC_U+30A4_U+30E4_U+30FC 1
370
     0
100
AcDbSpline
210
0.0
220
0.0
230
1.0
 70
    11
 71
     3
 72
    17
 73
    13
 74
     0
 42
0.0000000001
 43
0.0000000001
 12
1.0
 22
0.0
 32
0.0
 13
1.0
 23
0.0
 33
0.0
 40
0.0
 40
0.0
 40
0.0
 40
0.0
 40
1.0
 40
1.0
 40
1.0
 40
2.0
 40
2.0
 40
2.0
 40
3.0
 40
3.0
 40
3.0
 40
4.0
 40
4.0
 40
4.0
 40
4.0
 10
86.60193279060063
 20
-147.1545119076559
 30
0.0
 10
86.60193279060063
 20
-147.2316644076364
 30
0.0
 10
86.53063640353066
 20
-147.2947057965096
 30
0.0
 10
86.44311223909692
 20
-147.2947057965096
 30
0.0
 10
86.3549177969025
 20
-147.2947057965096
 30
0.0
 10
86.28362140983253
 20
-147.2316644076364
 30
0.0
 10
86.28362140983253
 20
-147.1545119076559
 30
0.0
 10
86.28362140983253
 20
-147.0766538521198
 30
0.0
 10
86.3549177969025
 20
-147.0139299632468
 30
0.0
 10
86.44311223909692
 20
-147.0139299632468
 30
0.0
 10
86.53063640353066
 20
-147.0139299632468
 30
0.0
 10
86.60193279060063
 20
-147.0766538521198
 30
0.0
 10
86.60193279060063
 20
-147.1545119076559
 30
0.0
  0
HATCH
  5
119
330
1F
100
AcDbEntity
  8
_U+30EC_U+30A4_U+30E4_U+30FC 1
 62
   179
420
  2234388
100
AcDbHatch
 10
0.0
 20
0.0
 30
0.0
210
0.0
220
0.0
230
1.0
  2
SOLID
 70
     1
 71
     0
 91
        1
 92
        1
 93
        1
 72
     4
 94
        3
 73
     0
 74
     1
 95
       17
 96
       13
 40
0.0
 40
0.0
 40
0.0
 40
0.0
 40
1.0
 40
1.0
 40
1.0
 40
2.0
 40
2.0
 40
2.0
 40
3.0
 40
3.0
 40
3.0
 40
4.0
 40
4.0
 40
4.0
 40
4.0
 10
86.60193279060063
 20
-147.1545119076559
 10
86.60193279060063
 20
-147.2316644076364
 10
86.53063640353066
 20
-147.2947057965096
 10
86.44311223909692
 20
-147.2947057965096
 10
86.3549177969025
 20
-147.2947057965096
 10
86.28362140983253
 20
-147.2316644076364
 10
86.28362140983253
 20
-147.1545119076559
 10
86.28362140983253
 20
-147.0766538521198
 10
86.3549177969025
 20
-147.0139299632468
 10
86.44311223909692
 20
-147.0139299632468
 10
86.53063640353066
 20
-147.0139299632468
 10
86.60193279060063
 20
-147.0766538521198
 10
86.60193279060063
 20
-147.1545119076559
 97
        0
 97
        0
 75
     2
 76
     1
 98
        0
  0
SPLINE
  5
11A
330
1F
100
AcDbEntity
  8
_U+30EC_U+30A4_U+30E4_U+30FC 1
370
     0
100
AcDbSpline
210
0.0
220
0.0
230
1.0
 70
    11
 71
     3
 72
    17
 73
    13
 74
     0
 42
0.0000000001
 43
0.0000000001
 12
1.0
 22
0.0
 32
0.0
 13
1.0
 23
0.0
 33
0.0
 40
0.0
 40
0.0
 40
0.0
 40
0.0
 40
1.0
 40
1.0
 40
1.0
 40
2.0
 40
2.0
 40
2.0
 40
3.0
 40
3.0
 40
3.0
 40
4.0
 40
4.0
 40
4.0
 40
4.0
 10
83.37387509517747
 20
-141.9871994089474
 30
0.0
 10
83.37387509517747
 20
-142.0647046867063
 30
0.0
 10
83.30293148587627
 20
-142.1274285755793
 30
0.0
 10
83.21508982145063
 20
-142.1274285755793
 30
0.0
 10
83.1275656570169
 20
-142.1274285755793
 30
0.0
 10
83.05556371440937
 20
-142.0647046867063
 30
0.0
 10
83.05556371440937
 20
-141.9871994089474
 30
0.0
 10
83.05556371440937
 20
-141.9096941311891
 30
0.0
 10
83.1275656570169
 20
-141.8466527423158
 30
0.0
 10
83.21508982145063
 20
-141.8466527423158
 30
0.0
 10
83.30293148587627
 20
-141.8466527423158
 30
0.0
 10
83.37387509517747
 20
-141.9096941311891
 30
0.0
 10
83.37387509517747
 20
-141.9871994089474
 30
0.0
  0
HATCH
  5
11B
330
1F
100
AcDbEntity
  8
_U+30EC_U+30A4_U+30E4_U+30FC 1
 62
   179
420
  2234388
100
AcDbHatch
 10
0.0
 20
0.0
 30
0.0
210
0.0
220
0.0
230
1.0
  2
SOLID
 70
     1
 71
     0
 91
        1
 92
        1
 93
        1
 72
     4
 94
        3
 73
     0
 74
     1
 95
       17
 96
       13
 40
0.0
 40
0.0
 40
0.0
 40
0.0
 40
1.0
 40
1.0
 40
1.0
 40
2.0
 40
2.0
 40
2.0
 40
3.0
 40
3.0
 40
3.0
 40
4.0
 40
4.0
 40
4.0
 40
4.0
 10
83.37387509517747
 20
-141.9871994089474
 10
83.37387509517747
 20
-142.0647046867063
 10
83.30293148587627
 20
-142.1274285755793
 10
83.21508982145063
 20
-142.1274285755793
 10
83.1275656570169
 20
-142.1274285755793
 10
83.05556371440937
 20
-142.0647046867063
 10
83.05556371440937
 20
-141.9871994089474
 10
83.05556371440937
 20
-141.9096941311891
 10
83.1275656570169
 20
-141.8466527423158
 10
83.21508982145063
 20
-141.8466527423158
 10
83.30293148587627
 20
-141.8466527423158
 10
83.37387509517747
 20
-141.9096941311891
 10
83.37387509517747
 20
-141.9871994089474
 97
        0
 97
        0
 75
     2
 76
     1
 98
        0
  0
SPLINE
  5
11C
330
1F
100
AcDbEntity
  8
_U+30EC_U+30A4_U+30E4_U+30FC 1
370
     0
100
AcDbSpline
210
0.0
220
0.0
230
1.0
 70
    11
 71
     3
 72
    17
 73
    13
 74
     0
 42
0.0000000001
 43
0.0000000001
 12
1.0
 22
0.0
 32
0.0
 13
1.0
 23
0.0
 33
0.0
 40
0.0
 40
0.0
 40
0.0
 40
0.0
 40
1.0
 40
1.0
 40
1.0
 40
2.0
 40
2.0
 40
2.0
 40
3.0
 40
3.0
 40
3.0
 40
4.0
 40
4.0
 40
4.0
 40
4.0
 10
83.37387509517747
 20
-130.3985905229558
 30
0.0
 10
83.37387509517747
 20
-130.4757430229369
 30
0.0
 10
83.30293148587627
 20
-130.5388196895877
 30
0.0
 10
83.21508982145063
 20
-130.5388196895877
 30
0.0
 10
83.1275656570169
 20
-130.5388196895877
 30
0.0
 10
83.05556371440937
 20
-130.4757430229369
 30
0.0
 10
83.05556371440937
 20
-130.3985905229558
 30
0.0
 10
83.05556371440937
 20
-130.3207324674197
 30
0.0
 10
83.1275656570169
 20
-130.2580438563242
 30
0.0
 10
83.21508982145063
 20
-130.2580438563242
 30
0.0
 10
83.30293148587627
 20
-130.2580438563242
 30
0.0
 10
83.37387509517747
 20
-130.3207324674197
 30
0.0
 10
83.37387509517747
 20
-130.3985905229558
 30
0.0
  0
HATCH
  5
11D
330
1F
100
AcDbEntity
  8
_U+30EC_U+30A4_U+30E4_U+30FC 1
 62
   179
420
  2234388
100
AcDbHatch
 10
0.0
 20
0.0
 30
0.0
210
0.0
220
0.0
230
1.0
  2
SOLID
 70
     1
 71
     0
 91
        1
 92
        1
 93
        1
 72
     4
 94
        3
 73
     0
 74
     1
 95
       17
 96
       13
 40
0.0
 40
0.0
 40
0.0
 40
0.0
 40
1.0
 40
1.0
 40
1.0
 40
2.0
 40
2.0
 40
2.0
 40
3.0
 40
3.0
 40
3.0
 40
4.0
 40
4.0
 40
4.0
 40
4.0
 10
83.37387509517747
 20
-130.3985905229558
 10
83.37387509517747
 20
-130.4757430229369
 10
83.30293148587627
 20
-130.5388196895877
 10
83.21508982145063
 20
-130.5388196895877
 10
83.1275656570169
 20
-130.5388196895877
 10
83.05556371440937
 20
-130.4757430229369
 10
83.05556371440937
 20
-130.3985905229558
 10
83.05556371440937
 20
-130.3207324674197
 10
83.1275656570169
 20
-130.2580438563242
 10
83.21508982145063
 20
-130.2580438563242
 10
83.30293148587627
 20
-130.2580438563242
 10
83.37387509517747
 20
-130.3207324674197
 10
83.37387509517747
 20
-130.3985905229558
 97
        0
 97
        0
 75
     2
 76
     1
 98
        0
  0
SPLINE
  5
11E
330
1F
100
AcDbEntity
  8
_U+30EC_U+30A4_U+30E4_U+30FC 1
370
     0
100
AcDbSpline
210
0.0
220
0.0
230
1.0
 70
    11
 71
     3
 72
    17
 73
    13
 74
     0
 42
0.0000000001
 43
0.0000000001
 12
1.0
 22
0.0
 32
0.0
 13
1.0
 23
0.0
 33
0.0
 40
0.0
 40
0.0
 40
0.0
 40
0.0
 40
1.0
 40
1.0
 40
1.0
 40
2.0
 40
2.0
 40
2.0
 40
3.0
 40
3.0
 40
3.0
 40
4.0
 40
4.0
 40
4.0
 40
4.0
 10
83.37387509517747
 20
-129.5149174676212
 30
0.0
 10
83.37387509517747
 20
-129.5924227453795
 30
0.0
 10
83.30293148587627
 20
-129.6551466342531
 30
0.0
 10
83.21508982145063
 20
-129.6551466342531
 30
0.0
 10
83.1275656570169
 20
-129.6551466342531
 30
0.0
 10
83.05556371440937
 20
-129.5924227453795
 30
0.0
 10
83.05556371440937
 20
-129.5149174676212
 30
0.0
 10
83.05556371440937
 20
-129.4374121898629
 30
0.0
 10
83.1275656570169
 20
-129.3743708009896
 30
0.0
 10
83.21508982145063
 20
-129.3743708009896
 30
0.0
 10
83.30293148587627
 20
-129.3743708009896
 30
0.0
 10
83.37387509517747
 20
-129.4374121898629
 30
0.0
 10
83.37387509517747
 20
-129.5149174676212
 30
0.0
  0
HATCH
  5
11F
330
1F
100
AcDbEntity
  8
_U+30EC_U+30A4_U+30E4_U+30FC 1
 62
   179
420
  2234388
100
AcDbHatch
 10
0.0
 20
0.0
 30
0.0
210
0.0
220
0.0
230
1.0
  2
SOLID
 70
     1
 71
     0
 91
        1
 92
        1
 93
        1
 72
     4
 94
        3
 73
     0
 74
     1
 95
       17
 96
       13
 40
0.0
 40
0.0
 40
0.0
 40
0.0
 40
1.0
 40
1.0
 40
1.0
 40
2.0
 40
2.0
 40
2.0
 40
3.0
 40
3.0
 40
3.0
 40
4.0
 40
4.0
 40
4.0
 40
4.0
 10
83.37387509517747
 20
-129.5149174676212
 10
83.37387509517747
 20
-129.5924227453795
 10
83.30293148587627
 20
-129.6551466342531
 10
83.21508982145063
 20
-129.6551466342531
 10
83.1275656570169
 20
-129.6551466342531
 10
83.05556371440937
 20
-129.5924227453795
 10
83.05556371440937
 20
-129.5149174676212
 10
83.05556371440937
 20
-129.4374121898629
 10
83.1275656570169
 20
-129.3743708009896
 10
83.21508982145063
 20
-129.3743708009896
 10
83.30293148587627
 20
-129.3743708009896
 10
83.37387509517747
 20
-129.4374121898629
 10
83.37387509517747
 20
-129.5149174676212
 97
        0
 97
        0
 75
     2
 76
     1
 98
        0
  0
SPLINE
  5
120
330
1F
100
AcDbEntity
  8
_U+30EC_U+30A4_U+30E4_U+30FC 1
370
     0
100
AcDbSpline
210
0.0
220
0.0
230
1.0
 70
    11
 71
     3
 72
    17
 73
    13
 74
     0
 42
0.0000000001
 43
0.0000000001
 12
1.0
 22
0.0
 32
0.0
 13
1.0
 23
0.0
 33
0.0
 40
0.0
 40
0.0
 40
0.0
 40
0.0
 40
1.0
 40
1.0
 40
1.0
 40
2.0
 40
2.0
 40
2.0
 40
3.0
 40
3.0
 40
3.0
 40
4.0
 40
4.0
 40
4.0
 40
4.0
 10
96.12710893648203
 20
-115.6346288599802
 30
0.0
 10
96.12710893648203
 20
-115.7121341377388
 30
0.0
 10
96.05545977164329
 20
-115.7748580266118
 30
0.0
 10
95.96797088498643
 20
-115.7748580266118
 30
0.0
 10
95.88044672055268
 20
-115.7748580266118
 30
0.0
 10
95.80879997604806
 20
-115.7121341377388
 30
0.0
 10
95.80879997604806
 20
-115.6346288599802
 30
0.0
 10
95.80879997604806
 20
-115.5571235822219
 30
0.0
 10
95.88044672055268
 20
-115.4940821933486
 30
0.0
 10
95.96797088498643
 20
-115.4940821933486
 30
0.0
 10
96.05545977164329
 20
-115.4940821933486
 30
0.0
 10
96.12710893648203
 20
-115.5571235822219
 30
0.0
 10
96.12710893648203
 20
-115.6346288599802
 30
0.0
  0
HATCH
  5
121
330
1F
100
AcDbEntity
  8
_U+30EC_U+30A4_U+30E4_U+30FC 1
 62
   179
420
  2234388
100
AcDbHatch
 10
0.0
 20
0.0
 30
0.0
210
0.0
220
0.0
230
1.0
  2
SOLID
 70
     1
 71
     0
 91
        1
 92
        1
 93
        1
 72
     4
 94
        3
 73
     0
 74
     1
 95
       17
 96
       13
 40
0.0
 40
0.0
 40
0.0
 40
0.0
 40
1.0
 40
1.0
 40
1.0
 40
2.0
 40
2.0
 40
2.0
 40
3.0
 40
3.0
 40
3.0
 40
4.0
 40
4.0
 40
4.0
 40
4.0
 10
96.12710893648203
 20
-115.6346288599802
 10
96.12710893648203
 20
-115.7121341377388
 10
96.05545977164329
 20
-115.7748580266118
 10
95.96797088498643
 20
-115.7748580266118
 10
95.88044672055268
 20
-115.7748580266118
 10
95.80879997604806
 20
-115.7121341377388
 10
95.80879997604806
 20
-115.6346288599802
 10
95.80879997604806
 20
-115.5571235822219
 10
95.88044672055268
 20
-115.4940821933486
 10
95.96797088498643
 20
-115.4940821933486
 10
96.05545977164329
 20
-115.4940821933486
 10
96.12710893648203
 20
-115.5571235822219
 10
96.12710893648203
 20
-115.6346288599802
 97
        0
 97
        0
 75
     2
 76
     1
 98
        0
  0
SPLINE
  5
122
330
1F
100
AcDbEntity
  8
_U+30EC_U+30A4_U+30E4_U+30FC 1
370
     0
100
AcDbSpline
210
0.0
220
0.0
230
1.0
 70
    11
 71
     3
 72
    17
 73
    13
 74
     0
 42
0.0000000001
 43
0.0000000001
 12
1.0
 22
0.0
 32
0.0
 13
1.0
 23
0.0
 33
0.0
 40
0.0
 40
0.0
 40
0.0
 40
0.0
 40
1.0
 40
1.0
 40
1.0
 40
2.0
 40
2.0
 40
2.0
 40
3.0
 40
3.0
 40
3.0
 40
4.0
 40
4.0
 40
4.0
 40
4.0
 10
100.6257310439348
 20
-108.7899285839137
 30
0.0
 10
100.6257310439348
 20
-108.8670810838942
 30
0.0
 10
100.5547521568568
 20
-108.9301224727675
 30
0.0
 10
100.4665577146624
 20
-108.9301224727675
 30
0.0
 10
100.3790688280055
 20
-108.9301224727675
 30
0.0
 10
100.3073843853899
 20
-108.8670810838942
 30
0.0
 10
100.3073843853899
 20
-108.7899285839137
 30
0.0
 10
100.3073843853899
 20
-108.7120705283776
 30
0.0
 10
100.3790688280055
 20
-108.6493466395043
 30
0.0
 10
100.4665577146624
 20
-108.6493466395043
 30
0.0
 10
100.5547521568568
 20
-108.6493466395043
 30
0.0
 10
100.6257310439348
 20
-108.7120705283776
 30
0.0
 10
100.6257310439348
 20
-108.7899285839137
 30
0.0
  0
HATCH
  5
123
330
1F
100
AcDbEntity
  8
_U+30EC_U+30A4_U+30E4_U+30FC 1
 62
   179
420
  2234388
100
AcDbHatch
 10
0.0
 20
0.0
 30
0.0
210
0.0
220
0.0
230
1.0
  2
SOLID
 70
     1
 71
     0
 91
        1
 92
        1
 93
        1
 72
     4
 94
        3
 73
     0
 74
     1
 95
       17
 96
       13
 40
0.0
 40
0.0
 40
0.0
 40
0.0
 40
1.0
 40
1.0
 40
1.0
 40
2.0
 40
2.0
 40
2.0
 40
3.0
 40
3.0
 40
3.0
 40
4.0
 40
4.0
 40
4.0
 40
4.0
 10
100.6257310439348
 20
-108.7899285839137
 10
100.6257310439348
 20
-108.8670810838942
 10
100.5547521568568
 20
-108.9301224727675
 10
100.4665577146624
 20
-108.9301224727675
 10
100.3790688280055
 20
-108.9301224727675
 10
100.3073843853899
 20
-108.8670810838942
 10
100.3073843853899
 20
-108.7899285839137
 10
100.3073843853899
 20
-108.7120705283776
 10
100.3790688280055
 20
-108.6493466395043
 10
100.4665577146624
 20
-108.6493466395043
 10
100.5547521568568
 20
-108.6493466395043
 10
100.6257310439348
 20
-108.7120705283776
 10
100.6257310439348
 20
-108.7899285839137
 97
        0
 97
        0
 75
     2
 76
     1
 98
        0
  0
SPLINE
  5
124
330
1F
100
AcDbEntity
  8
_U+30EC_U+30A4_U+30E4_U+30FC 1
370
     0
100
AcDbSpline
210
0.0
220
0.0
230
1.0
 70
    11
 71
     3
 72
    17
 73
    13
 74
     0
 42
0.0000000001
 43
0.0000000001
 12
1.0
 22
0.0
 32
0.0
 13
1.0
 23
0.0
 33
0.0
 40
0.0
 40
0.0
 40
0.0
 40
0.0
 40
1.0
 40
1.0
 40
1.0
 40
2.0
 40
2.0
 40
2.0
 40
3.0
 40
3.0
 40
3.0
 40
4.0
 40
4.0
 40
4.0
 40
4.0
 10
100.1489166116549
 20
-108.7899285839137
 30
0.0
 10
100.1489166116549
 20
-108.8670810838942
 30
0.0
 10
100.0779377245769
 20
-108.9301224727675
 30
0.0
 10
99.99044883792001
 20
-108.9301224727675
 30
0.0
 10
99.90225439572559
 20
-108.9301224727675
 30
0.0
 10
99.83060523088686
 20
-108.8670810838942
 30
0.0
 10
99.83060523088686
 20
-108.7899285839137
 30
0.0
 10
99.83060523088686
 20
-108.7120705283776
 30
0.0
 10
99.90225439572559
 20
-108.6493466395043
 30
0.0
 10
99.99044883792001
 20
-108.6493466395043
 30
0.0
 10
100.0779377245769
 20
-108.6493466395043
 30
0.0
 10
100.1489166116549
 20
-108.7120705283776
 30
0.0
 10
100.1489166116549
 20
-108.7899285839137
 30
0.0
  0
HATCH
  5
125
330
1F
100
AcDbEntity
  8
_U+30EC_U+30A4_U+30E4_U+30FC 1
 62
   179
420
  2234388
100
AcDbHatch
 10
0.0
 20
0.0
 30
0.0
210
0.0
220
0.0
230
1.0
  2
SOLID
 70
     1
 71
     0
 91
        1
 92
        1
 93
        1
 72
     4
 94
        3
 73
     0
 74
     1
 95
       17
 96
       13
 40
0.0
 40
0.0
 40
0.0
 40
0.0
 40
1.0
 40
1.0
 40
1.0
 40
2.0
 40
2.0
 40
2.0
 40
3.0
 40
3.0
 40
3.0
 40
4.0
 40
4.0
 40
4.0
 40
4.0
 10
100.1489166116549
 20
-108.7899285839137
 10
100.1489166116549
 20
-108.8670810838942
 10
100.0779377245769
 20
-108.9301224727675
 10
99.99044883792001
 20
-108.9301224727675
 10
99.90225439572559
 20
-108.9301224727675
 10
99.83060523088686
 20
-108.8670810838942
 10
99.83060523088686
 20
-108.7899285839137
 10
99.83060523088686
 20
-108.7120705283776
 10
99.90225439572559
 20
-108.6493466395043
 10
99.99044883792001
 20
-108.6493466395043
 10
100.0779377245769
 20
-108.6493466395043
 10
100.1489166116549
 20
-108.7120705283776
 10
100.1489166116549
 20
-108.7899285839137
 97
        0
 97
        0
 75
     2
 76
     1
 98
        0
  0
SPLINE
  5
126
330
1F
100
AcDbEntity
  8
_U+30EC_U+30A4_U+30E4_U+30FC 1
370
     0
100
AcDbSpline
210
0.0
220
0.0
230
1.0
 70
    11
 71
     3
 72
    17
 73
    13
 74
     0
 42
0.0000000001
 43
0.0000000001
 12
1.0
 22
0.0
 32
0.0
 13
1.0
 23
0.0
 33
0.0
 40
0.0
 40
0.0
 40
0.0
 40
0.0
 40
1.0
 40
1.0
 40
1.0
 40
2.0
 40
2.0
 40
2.0
 40
3.0
 40
3.0
 40
3.0
 40
4.0
 40
4.0
 40
4.0
 40
4.0
 10
76.97117220297932
 20
-110.9596530278155
 30
0.0
 10
76.97117220297932
 20
-111.0368055277964
 30
0.0
 10
76.8998738714541
 20
-111.0994941388919
 30
0.0
 10
76.81234970702036
 20
-111.0994941388919
 30
0.0
 10
76.72450804259472
 20
-111.0994941388919
 30
0.0
 10
76.65285887775599
 20
-111.0368055277964
 30
0.0
 10
76.65285887775599
 20
-110.9596530278155
 30
0.0
 10
76.65285887775599
 20
-110.8817596945016
 30
0.0
 10
76.72450804259472
 20
-110.8190710834065
 30
0.0
 10
76.81234970702036
 20
-110.8190710834065
 30
0.0
 10
76.8998738714541
 20
-110.8190710834065
 30
0.0
 10
76.97117220297932
 20
-110.8817596945016
 30
0.0
 10
76.97117220297932
 20
-110.9596530278155
 30
0.0
  0
HATCH
  5
127
330
1F
100
AcDbEntity
  8
_U+30EC_U+30A4_U+30E4_U+30FC 1
 62
   179
420
  2234388
100
AcDbHatch
 10
0.0
 20
0.0
 30
0.0
210
0.0
220
0.0
230
1.0
  2
SOLID
 70
     1
 71
     0
 91
        1
 92
        1
 93
        1
 72
     4
 94
        3
 73
     0
 74
     1
 95
       17
 96
       13
 40
0.0
 40
0.0
 40
0.0
 40
0.0
 40
1.0
 40
1.0
 40
1.0
 40
2.0
 40
2.0
 40
2.0
 40
3.0
 40
3.0
 40
3.0
 40
4.0
 40
4.0
 40
4.0
 40
4.0
 10
76.97117220297932
 20
-110.9596530278155
 10
76.97117220297932
 20
-111.0368055277964
 10
76.8998738714541
 20
-111.0994941388919
 10
76.81234970702036
 20
-111.0994941388919
 10
76.72450804259472
 20
-111.0994941388919
 10
76.65285887775599
 20
-111.0368055277964
 10
76.65285887775599
 20
-110.9596530278155
 10
76.65285887775599
 20
-110.8817596945016
 10
76.72450804259472
 20
-110.8190710834065
 10
76.81234970702036
 20
-110.8190710834065
 10
76.8998738714541
 20
-110.8190710834065
 10
76.97117220297932
 20
-110.8817596945016
 10
76.97117220297932
 20
-110.9596530278155
 97
        0
 97
        0
 75
     2
 76
     1
 98
        0
  0
SPLINE
  5
128
330
1F
100
AcDbEntity
  8
_U+30EC_U+30A4_U+30E4_U+30FC 1
370
     0
100
AcDbSpline
210
0.0
220
0.0
230
1.0
 70
    11
 71
     3
 72
    17
 73
    13
 74
     0
 42
0.0000000001
 43
0.0000000001
 12
1.0
 22
0.0
 32
0.0
 13
1.0
 23
0.0
 33
0.0
 40
0.0
 40
0.0
 40
0.0
 40
0.0
 40
1.0
 40
1.0
 40
1.0
 40
2.0
 40
2.0
 40
2.0
 40
3.0
 40
3.0
 40
3.0
 40
4.0
 40
4.0
 40
4.0
 40
4.0
 10
83.37387509517747
 20
-110.9596530278155
 30
0.0
 10
83.37387509517747
 20
-111.0368055277964
 30
0.0
 10
83.30293148587627
 20
-111.0994941388919
 30
0.0
 10
83.21508982145063
 20
-111.0994941388919
 30
0.0
 10
83.12721287924812
 20
-111.0994941388919
 30
0.0
 10
83.05556371440937
 20
-111.0368055277964
 30
0.0
 10
83.05556371440937
 20
-110.9596530278155
 30
0.0
 10
83.05556371440937
 20
-110.8817596945016
 30
0.0
 10
83.12721287924812
 20
-110.8190710834065
 30
0.0
 10
83.21508982145063
 20
-110.8190710834065
 30
0.0
 10
83.30293148587627
 20
-110.8190710834065
 30
0.0
 10
83.37387509517747
 20
-110.8817596945016
 30
0.0
 10
83.37387509517747
 20
-110.9596530278155
 30
0.0
  0
HATCH
  5
129
330
1F
100
AcDbEntity
  8
_U+30EC_U+30A4_U+30E4_U+30FC 1
 62
   179
420
  2234388
100
AcDbHatch
 10
0.0
 20
0.0
 30
0.0
210
0.0
220
0.0
230
1.0
  2
SOLID
 70
     1
 71
     0
 91
        1
 92
        1
 93
        1
 72
     4
 94
        3
 73
     0
 74
     1
 95
       17
 96
       13
 40
0.0
 40
0.0
 40
0.0
 40
0.0
 40
1.0
 40
1.0
 40
1.0
 40
2.0
 40
2.0
 40
2.0
 40
3.0
 40
3.0
 40
3.0
 40
4.0
 40
4.0
 40
4.0
 40
4.0
 10
83.37387509517747
 20
-110.9596530278155
 10
83.37387509517747
 20
-111.0368055277964
 10
83.30293148587627
 20
-111.0994941388919
 10
83.21508982145063
 20
-111.0994941388919
 10
83.12721287924812
 20
-111.0994941388919
 10
83.05556371440937
 20
-111.0368055277964
 10
83.05556371440937
 20
-110.9596530278155
 10
83.05556371440937
 20
-110.8817596945016
 10
83.12721287924812
 20
-110.8190710834065
 10
83.21508982145063
 20
-110.8190710834065
 10
83.30293148587627
 20
-110.8190710834065
 10
83.37387509517747
 20
-110.8817596945016
 10
83.37387509517747
 20
-110.9596530278155
 97
        0
 97
        0
 75
     2
 76
     1
 98
        0
  0
SPLINE
  5
12A
330
1F
100
AcDbEntity
  8
_U+30EC_U+30A4_U+30E4_U+30FC 1
370
     0
100
AcDbSpline
210
0.0
220
0.0
230
1.0
 70
    11
 71
     3
 72
    17
 73
    13
 74
     0
 42
0.0000000001
 43
0.0000000001
 12
1.0
 22
0.0
 32
0.0
 13
1.0
 23
0.0
 33
0.0
 40
0.0
 40
0.0
 40
0.0
 40
0.0
 40
1.0
 40
1.0
 40
1.0
 40
2.0
 40
2.0
 40
2.0
 40
3.0
 40
3.0
 40
3.0
 40
4.0
 40
4.0
 40
4.0
 40
4.0
 10
96.07405116005786
 20
-110.9596530278155
 30
0.0
 10
96.07405116005786
 20
-111.0368055277964
 30
0.0
 10
96.00310755075668
 20
-111.0994941388919
 30
0.0
 10
95.91491310856226
 20
-111.0994941388919
 30
0.0
 10
95.82738894412851
 20
-111.0994941388919
 30
0.0
 10
95.75573977928978
 20
-111.0368055277964
 30
0.0
 10
95.75573977928978
 20
-110.9596530278155
 30
0.0
 10
95.75573977928978
 20
-110.8817596945016
 30
0.0
 10
95.82738894412851
 20
-110.8190710834065
 30
0.0
 10
95.91491310856226
 20
-110.8190710834065
 30
0.0
 10
96.00310755075668
 20
-110.8190710834065
 30
0.0
 10
96.07405116005786
 20
-110.8817596945016
 30
0.0
 10
96.07405116005786
 20
-110.9596530278155
 30
0.0
  0
HATCH
  5
12B
330
1F
100
AcDbEntity
  8
_U+30EC_U+30A4_U+30E4_U+30FC 1
 62
   179
420
  2234388
100
AcDbHatch
 10
0.0
 20
0.0
 30
0.0
210
0.0
220
0.0
230
1.0
  2
SOLID
 70
     1
 71
     0
 91
        1
 92
        1
 93
        1
 72
     4
 94
        3
 73
     0
 74
     1
 95
       17
 96
       13
 40
0.0
 40
0.0
 40
0.0
 40
0.0
 40
1.0
 40
1.0
 40
1.0
 40
2.0
 40
2.0
 40
2.0
 40
3.0
 40
3.0
 40
3.0
 40
4.0
 40
4.0
 40
4.0
 40
4.0
 10
96.07405116005786
 20
-110.9596530278155
 10
96.07405116005786
 20
-111.0368055277964
 10
96.00310755075668
 20
-111.0994941388919
 10
95.91491310856226
 20
-111.0994941388919
 10
95.82738894412851
 20
-111.0994941388919
 10
95.75573977928978
 20
-111.0368055277964
 10
95.75573977928978
 20
-110.9596530278155
 10
95.75573977928978
 20
-110.8817596945016
 10
95.82738894412851
 20
-110.8190710834065
 10
95.91491310856226
 20
-110.8190710834065
 10
96.00310755075668
 20
-110.8190710834065
 10
96.07405116005786
 20
-110.8817596945016
 10
96.07405116005786
 20
-110.9596530278155
 97
        0
 97
        0
 75
     2
 76
     1
 98
        0
  0
SPLINE
  5
12C
330
1F
100
AcDbEntity
  8
_U+30EC_U+30A4_U+30E4_U+30FC 1
370
     0
100
AcDbSpline
210
0.0
220
0.0
230
1.0
 70
    11
 71
     3
 72
    17
 73
    13
 74
     0
 42
0.0000000001
 43
0.0000000001
 12
1.0
 22
0.0
 32
0.0
 13
1.0
 23
0.0
 33
0.0
 40
0.0
 40
0.0
 40
0.0
 40
0.0
 40
1.0
 40
1.0
 40
1.0
 40
2.0
 40
2.0
 40
2.0
 40
3.0
 40
3.0
 40
3.0
 40
4.0
 40
4.0
 40
4.0
 40
4.0
 10
76.97117220297932
 20
-141.9871994089474
 30
0.0
 10
76.97117220297932
 20
-142.0647046867063
 30
0.0
 10
76.8998738714541
 20
-142.1274285755793
 30
0.0
 10
76.81234970702036
 20
-142.1274285755793
 30
0.0
 10
76.72450804259472
 20
-142.1274285755793
 30
0.0
 10
76.65285887775599
 20
-142.0647046867063
 30
0.0
 10
76.65285887775599
 20
-141.9871994089474
 30
0.0
 10
76.65285887775599
 20
-141.9096941311891
 30
0.0
 10
76.72450804259472
 20
-141.8466527423158
 30
0.0
 10
76.81234970702036
 20
-141.8466527423158
 30
0.0
 10
76.8998738714541
 20
-141.8466527423158
 30
0.0
 10
76.97117220297932
 20
-141.9096941311891
 30
0.0
 10
76.97117220297932
 20
-141.9871994089474
 30
0.0
  0
HATCH
  5
12D
330
1F
100
AcDbEntity
  8
_U+30EC_U+30A4_U+30E4_U+30FC 1
 62
   179
420
  2234388
100
AcDbHatch
 10
0.0
 20
0.0
 30
0.0
210
0.0
220
0.0
230
1.0
  2
SOLID
 70
     1
 71
     0
 91
        1
 92
        1
 93
        1
 72
     4
 94
        3
 73
     0
 74
     1
 95
       17
 96
       13
 40
0.0
 40
0.0
 40
0.0
 40
0.0
 40
1.0
 40
1.0
 40
1.0
 40
2.0
 40
2.0
 40
2.0
 40
3.0
 40
3.0
 40
3.0
 40
4.0
 40
4.0
 40
4.0
 40
4.0
 10
76.97117220297932
 20
-141.9871994089474
 10
76.97117220297932
 20
-142.0647046867063
 10
76.8998738714541
 20
-142.1274285755793
 10
76.81234970702036
 20
-142.1274285755793
 10
76.72450804259472
 20
-142.1274285755793
 10
76.65285887775599
 20
-142.0647046867063
 10
76.65285887775599
 20
-141.9871994089474
 10
76.65285887775599
 20
-141.9096941311891
 10
76.72450804259472
 20
-141.8466527423158
 10
76.81234970702036
 20
-141.8466527423158
 10
76.8998738714541
 20
-141.8466527423158
 10
76.97117220297932
 20
-141.9096941311891
 10
76.97117220297932
 20
-141.9871994089474
 97
        0
 97
        0
 75
     2
 76
     1
 98
        0
  0
SPLINE
  5
12E
330
1F
100
AcDbEntity
  8
_U+30EC_U+30A4_U+30E4_U+30FC 1
370
     0
100
AcDbSpline
210
0.0
220
0.0
230
1.0
 70
    11
 71
     3
 72
    17
 73
    13
 74
     0
 42
0.0000000001
 43
0.0000000001
 12
1.0
 22
0.0
 32
0.0
 13
1.0
 23
0.0
 33
0.0
 40
0.0
 40
0.0
 40
0.0
 40
0.0
 40
1.0
 40
1.0
 40
1.0
 40
2.0
 40
2.0
 40
2.0
 40
3.0
 40
3.0
 40
3.0
 40
4.0
 40
4.0
 40
4.0
 40
4.0
 10
100.6774129870608
 20
-144.8790246860028
 30
0.0
 10
100.6774129870608
 20
-144.9616805193155
 30
0.0
 10
100.6105615998774
 20
-145.0288846859649
 30
0.0
 10
100.5278704908759
 20
-145.0288846859649
 30
0.0
 10
100.4452146596513
 20
-145.0288846859649
 30
0.0
 10
100.3776929947073
 20
-144.9616805193155
 30
0.0
 10
100.3776929947073
 20
-144.8790246860028
 30
0.0
 10
100.3776929947073
 20
-144.7963335749119
 30
0.0
 10
100.4452146596513
 20
-144.72916468604
 30
0.0
 10
100.5278704908759
 20
-144.72916468604
 30
0.0
 10
100.6105615998774
 20
-144.72916468604
 30
0.0
 10
100.6774129870608
 20
-144.7963335749119
 30
0.0
 10
100.6774129870608
 20
-144.8790246860028
 30
0.0
  0
HATCH
  5
12F
330
1F
100
AcDbEntity
  8
_U+30EC_U+30A4_U+30E4_U+30FC 1
 62
   179
420
  2234388
100
AcDbHatch
 10
0.0
 20
0.0
 30
0.0
210
0.0
220
0.0
230
1.0
  2
SOLID
 70
     1
 71
     0
 91
        1
 92
        1
 93
        1
 72
     4
 94
        3
 73
     0
 74
     1
 95
       17
 96
       13
 40
0.0
 40
0.0
 40
0.0
 40
0.0
 40
1.0
 40
1.0
 40
1.0
 40
2.0
 40
2.0
 40
2.0
 40
3.0
 40
3.0
 40
3.0
 40
4.0
 40
4.0
 40
4.0
 40
4.0
 10
100.6774129870608
 20
-144.8790246860028
 10
100.6774129870608
 20
-144.9616805193155
 10
100.6105615998774
 20
-145.0288846859649
 10
100.5278704908759
 20
-145.0288846859649
 10
100.4452146596513
 20
-145.0288846859649
 10
100.3776929947073
 20
-144.9616805193155
 10
100.3776929947073
 20
-144.8790246860028
 10
100.3776929947073
 20
-144.7963335749119
 10
100.4452146596513
 20
-144.72916468604
 10
100.5278704908759
 20
-144.72916468604
 10
100.6105615998774
 20
-144.72916468604
 10
100.6774129870608
 20
-144.7963335749119
 10
100.6774129870608
 20
-144.8790246860028
 97
        0
 97
        0
 75
     2
 76
     1
 98
        0
  0
SPLINE
  5
130
330
1F
100
AcDbEntity
  8
_U+30EC_U+30A4_U+30E4_U+30FC 1
370
     0
100
AcDbSpline
210
0.0
220
0.0
230
1.0
 70
    11
 71
     3
 72
    17
 73
    13
 74
     0
 42
0.0000000001
 43
0.0000000001
 12
1.0
 22
0.0
 32
0.0
 13
1.0
 23
0.0
 33
0.0
 40
0.0
 40
0.0
 40
0.0
 40
0.0
 40
1.0
 40
1.0
 40
1.0
 40
2.0
 40
2.0
 40
2.0
 40
3.0
 40
3.0
 40
3.0
 40
4.0
 40
4.0
 40
4.0
 40
4.0
 10
93.63974344438445
 20
-144.8790246860028
 30
0.0
 10
93.63974344438445
 20
-144.9616805193155
 30
0.0
 10
93.57292733497796
 20
-145.0288846859649
 30
0.0
 10
93.49023622597647
 20
-145.0288846859649
 30
0.0
 10
93.40754511697499
 20
-145.0288846859649
 30
0.0
 10
93.34002345203095
 20
-144.9616805193155
 30
0.0
 10
93.34002345203095
 20
-144.8790246860028
 30
0.0
 10
93.34002345203095
 20
-144.7963335749119
 30
0.0
 10
93.40754511697499
 20
-144.72916468604
 30
0.0
 10
93.49023622597647
 20
-144.72916468604
 30
0.0
 10
93.57292733497796
 20
-144.72916468604
 30
0.0
 10
93.63974344438445
 20
-144.7963335749119
 30
0.0
 10
93.63974344438445
 20
-144.8790246860028
 30
0.0
  0
HATCH
  5
131
330
1F
100
AcDbEntity
  8
_U+30EC_U+30A4_U+30E4_U+30FC 1
 62
   179
420
  2234388
100
AcDbHatch
 10
0.0
 20
0.0
 30
0.0
210
0.0
220
0.0
230
1.0
  2
SOLID
 70
     1
 71
     0
 91
        1
 92
        1
 93
        1
 72
     4
 94
        3
 73
     0
 74
     1
 95
       17
 96
       13
 40
0.0
 40
0.0
 40
0.0
 40
0.0
 40
1.0
 40
1.0
 40
1.0
 40
2.0
 40
2.0
 40
2.0
 40
3.0
 40
3.0
 40
3.0
 40
4.0
 40
4.0
 40
4.0
 40
4.0
 10
93.63974344438445
 20
-144.8790246860028
 10
93.63974344438445
 20
-144.9616805193155
 10
93.57292733497796
 20
-145.0288846859649
 10
93.49023622597647
 20
-145.0288846859649
 10
93.40754511697499
 20
-145.0288846859649
 10
93.34002345203095
 20
-144.9616805193155
 10
93.34002345203095
 20
-144.8790246860028
 10
93.34002345203095
 20
-144.7963335749119
 10
93.40754511697499
 20
-144.72916468604
 10
93.49023622597647
 20
-144.72916468604
 10
93.57292733497796
 20
-144.72916468604
 10
93.63974344438445
 20
-144.7963335749119
 10
93.63974344438445
 20
-144.8790246860028
 97
        0
 97
        0
 75
     2
 76
     1
 98
        0
  0
POLYLINE
  5
132
330
1F
100
AcDbEntity
  8
_U+30EC_U+30A4_U+30E4_U+30FC 1
 62
   179
420
  2234388
370
     9
100
AcDb2dPolyline
 66
     1
 10
0.0
 20
0.0
 30
0.0
  0
VERTEX
  5
133
330
132
100
AcDbEntity
  8
_U+30EC_U+30A4_U+30E4_U+30FC 1
 62
   179
420
  2234388
370
     9
100
AcDbVertex
100
AcDb2dVertex
 10
95.86252560989878
 20
-111.8591658053687
 30
0.0
  0
VERTEX
  5
134
330
132
100
AcDbEntity
  8
_U+30EC_U+30A4_U+30E4_U+30FC 1
 62
   179
420
  2234388
370
     9
100
AcDbVertex
100
AcDb2dVertex
 10
95.86252560989878
 20
-110.9065952500512
 30
0.0
  0
SEQEND
  5
135
330
132
100
AcDbEntity
  8
_U+30EC_U+30A4_U+30E4_U+30FC 1
 62
   179
420
  2234388
370
     9
  0
ENDSEC
  0
SECTION
  2
OBJECTS
  0
DICTIONARY
  5
C
330
0
100
AcDbDictionary
281
     1
  3
ACAD_GROUP
350
D
  3
ACAD_LAYOUT
350
1A
  3
ACAD_MATERIAL
350
3B
  3
ACAD_MLEADERSTYLE
350
137
  3
ACAD_MLINESTYLE
350
17
  3
ACAD_PLOTSETTINGS
350
19
  3
ACAD_PLOTSTYLENAME
350
E
  3
ACAD_TABLESTYLE
350
136
  3
ACAD_VISUALSTYLE
350
2A
  0
SUN
  5
3F
330
29
100
AcDbSun
 90
        1
290
     0
 63
     7
421
 16777215
 40
1.0
291
     1
 91
  2455826
 92
 54000000
292
     0
 70
     2
 71
   256
280
     1
  0
DICTIONARY
  5
D
102
{ACAD_REACTORS
330
C
102
}
330
C
100
AcDbDictionary
281
     1
  0
DICTIONARY
  5
1A
102
{ACAD_REACTORS
330
C
102
}
330
C
100
AcDbDictionary
281
     1
  3
Layout1
350
1E
  3
Layout2
350
26
  3
Model
350
22
  0
DICTIONARY
  5
3B
102
{ACAD_REACTORS
330
C
102
}
330
C
100
AcDbDictionary
281
     1
  3
ByBlock
350
3D
  3
ByLayer
350
3C
  3
Global
350
3E
  0
DICTIONARY
  5
137
102
{ACAD_REACTORS
330
C
102
}
330
C
100
AcDbDictionary
281
     1
  0
DICTIONARY
  5
17
102
{ACAD_REACTORS
330
C
102
}
330
C
100
AcDbDictionary
281
     1
  3
Standard
350
18
  0
DICTIONARY
  5
19
102
{ACAD_REACTORS
330
C
102
}
330
C
100
AcDbDictionary
281
     1
  0
ACDBDICTIONARYWDFLT
  5
E
102
{ACAD_REACTORS
330
C
102
}
330
C
100
AcDbDictionary
281
     1
  3
Normal
350
F
100
AcDbDictionaryWithDefault
340
F
  0
DICTIONARY
  5
136
102
{ACAD_REACTORS
330
C
102
}
330
C
100
AcDbDictionary
281
     1
  0
DICTIONARY
  5
2A
102
{ACAD_REACTORS
330
C
102
}
330
C
100
AcDbDictionary
281
     1
  3
2dWireframe
350
2F
  3
3D Hidden
350
31
  3
3dWireframe
350
30
  3
Basic
350
32
  3
Brighten
350
36
  3
ColorChange
350
3A
  3
Conceptual
350
34
  3
Dim
350
35
  3
Facepattern
350
39
  3
Flat
350
2B
  3
FlatWithEdges
350
2C
  3
Gouraud
350
2D
  3
GouraudWithEdges
350
2E
  3
Linepattern
350
38
  3
Realistic
350
33
  3
Thicken
350
37
  0
LAYOUT
  5
1E
102
{ACAD_REACTORS
330
1A
102
}
330
1A
100
AcDbPlotSettings
  1

  2
none_device
  4

  6

 40
0.0
 41
0.0
 42
0.0
 43
0.0
 44
0.0
 45
0.0
 46
0.0
 47
0.0
 48
0.0
 49
0.0
140
0.0
141
0.0
142
1.0
143
1.0
 70
   688
 72
     0
 73
     0
 74
     5
  7

 75
    16
 76
     0
 77
     2
 78
   300
147
1.0
148
0.0
149
0.0
100
AcDbLayout
  1
Layout1
 70
     1
 71
     1
 10
0.0
 20
0.0
 11
12.0
 21
9.0
 12
0.0
 22
0.0
 32
0.0
 14
1.000000000000000E+20
 24
1.000000000000000E+20
 34
1.000000000000000E+20
 15
-1.000000000000000E+20
 25
-1.000000000000000E+20
 35
-1.000000000000000E+20
146
0.0
 13
0.0
 23
0.0
 33
0.0
 16
1.0
 26
0.0
 36
0.0
 17
0.0
 27
1.0
 37
0.0
 76
     0
330
1B
  0
LAYOUT
  5
26
102
{ACAD_REACTORS
330
1A
102
}
330
1A
100
AcDbPlotSettings
  1

  2
none_device
  4

  6

 40
0.0
 41
0.0
 42
0.0
 43
0.0
 44
0.0
 45
0.0
 46
0.0
 47
0.0
 48
0.0
 49
0.0
140
0.0
141
0.0
142
1.0
143
1.0
 70
   688
 72
     0
 73
     0
 74
     5
  7

 75
    16
 76
     0
 77
     2
 78
   300
147
1.0
148
0.0
149
0.0
100
AcDbLayout
  1
Layout2
 70
     1
 71
     2
 10
0.0
 20
0.0
 11
0.0
 21
0.0
 12
0.0
 22
0.0
 32
0.0
 14
0.0
 24
0.0
 34
0.0
 15
0.0
 25
0.0
 35
0.0
146
0.0
 13
0.0
 23
0.0
 33
0.0
 16
1.0
 26
0.0
 36
0.0
 17
0.0
 27
1.0
 37
0.0
 76
     0
330
23
  0
LAYOUT
  5
22
102
{ACAD_REACTORS
330
1A
102
}
330
1A
100
AcDbPlotSettings
  1

  2
none_device
  4

  6

 40
0.0
 41
0.0
 42
0.0
 43
0.0
 44
0.0
 45
0.0
 46
0.0
 47
0.0
 48
0.0
 49
0.0
140
0.0
141
0.0
142
1.0
143
1.0
 70
  1712
 72
     0
 73
     0
 74
     0
  7

 75
     0
 76
     0
 77
     2
 78
   300
147
1.0
148
0.0
149
0.0
100
AcDbLayout
  1
Model
 70
     1
 71
     0
 10
0.0
 20
0.0
 11
12.0
 21
9.0
 12
0.0
 22
0.0
 32
0.0
 14
1.000000000000000E+20
 24
1.000000000000000E+20
 34
1.000000000000000E+20
 15
-1.000000000000000E+20
 25
-1.000000000000000E+20
 35
-1.000000000000000E+20
146
0.0
 13
0.0
 23
0.0
 33
0.0
 16
1.0
 26
0.0
 36
0.0
 17
0.0
 27
1.0
 37
0.0
 76
     0
330
1F
331
29
  0
MATERIAL
  5
3D
102
{ACAD_REACTORS
330
3B
102
}
330
3B
100
AcDbMaterial
  1
ByBlock
 72
     1
 94
      127
  0
MATERIAL
  5
3C
102
{ACAD_REACTORS
330
3B
102
}
330
3B
100
AcDbMaterial
  1
ByLayer
 72
     1
 94
      127
  0
MATERIAL
  5
3E
102
{ACAD_REACTORS
330
3B
102
}
330
3B
100
AcDbMaterial
  1
Global
 72
     1
 94
      127
  0
MLINESTYLE
  5
18
102
{ACAD_REACTORS
330
17
102
}
330
17
100
AcDbMlineStyle
  2
Standard
 70
     0
  3

 62
   256
 51
90.0
 52
90.0
 71
     2
 49
0.5
 62
   256
  6
BYLAYER
 49
-0.5
 62
   256
  6
BYLAYER
  0
ACDBPLACEHOLDER
  5
F
102
{ACAD_REACTORS
330
E
102
}
330
E
  0
VISUALSTYLE
  5
2F
102
{ACAD_REACTORS
330
2A
102
}
330
2A
100
AcDbVisualStyle
  2
2dWireframe
 70
     4
177
     2
291
     0
 71
     0
176
     1
 72
     2
176
     1
 73
     0
176
     1
 90
        0
176
     1
 40
-0.6
176
     1
 41
-30.0
176
     1
 62
     5
 63
     7
421
 16777215
176
     1
 74
     1
176
     1
 91
        4
176
     1
 64
     7
176
     1
 65
   257
176
     1
 75
     1
176
     1
175
     1
176
     1
 42
1.0
176
     1
 92
        0
176
     1
 66
   257
176
     1
 43
1.0
176
     1
 76
     1
176
     1
 77
     6
176
     1
 78
     2
176
     1
 67
     7
176
     1
 79
     5
176
     1
170
     0
176
     1
171
     0
176
     1
290
     0
176
     1
 93
        1
176
     1
 44
0.0
176
     1
173
     0
176
     1
  0
VISUALSTYLE
  5
31
102
{ACAD_REACTORS
330
2A
102
}
330
2A
100
AcDbVisualStyle
  2
3D Hidden
 70
     6
177
     2
291
     0
 71
     1
176
     1
 72
     2
176
     1
 73
     2
176
     1
 90
        0
176
     1
 40
-0.6
176
     1
 41
-30.0
176
     1
 62
     5
 63
     7
421
 16777215
176
     1
 74
     2
176
     1
 91
        2
176
     1
 64
     7
176
     1
 65
   257
176
     1
 75
     2
176
     1
175
     1
176
     1
 42
40.0
176
     1
 92
        0
176
     1
 66
   257
176
     1
 43
1.0
176
     1
 76
     1
176
     1
 77
     6
176
     1
 78
     2
176
     1
 67
     7
176
     1
 79
     3
176
     1
170
     0
176
     1
171
     0
176
     1
290
     0
176
     1
 93
        1
176
     1
 44
0.0
176
     1
173
     0
176
     1
  0
VISUALSTYLE
  5
30
102
{ACAD_REACTORS
330
2A
102
}
330
2A
100
AcDbVisualStyle
  2
3dWireframe
 70
     5
177
     2
291
     0
 71
     0
176
     1
 72
     2
176
     1
 73
     0
176
     1
 90
        0
176
     1
 40
-0.6
176
     1
 41
-30.0
176
     1
 62
     5
 63
     7
421
 16777215
176
     1
 74
     1
176
     1
 91
        4
176
     1
 64
     7
176
     1
 65
   257
176
     1
 75
     1
176
     1
175
     1
176
     1
 42
1.0
176
     1
 92
        0
176
     1
 66
   257
176
     1
 43
1.0
176
     1
 76
     1
176
     1
 77
     6
176
     1
 78
     2
176
     1
 67
     7
176
     1
 79
     5
176
     1
170
     0
176
     1
171
     0
176
     1
290
     0
176
     1
 93
        1
176
     1
 44
0.0
176
     1
173
     0
176
     1
  0
VISUALSTYLE
  5
32
102
{ACAD_REACTORS
330
2A
102
}
330
2A
100
AcDbVisualStyle
  2
Basic
 70
     7
177
     2
291
     1
 71
     1
176
     1
 72
     0
176
     1
 73
     1
176
     1
 90
        0
176
     1
 40
-0.6
176
     1
 41
-30.0
176
     1
 62
     5
 63
     7
421
 16777215
176
     1
 74
     0
176
     1
 91
        4
176
     1
 64
     7
176
     1
 65
   257
176
     1
 75
     1
176
     1
175
     1
176
     1
 42
1.0
176
     1
 92
        8
176
     1
 66
     7
176
     1
 43
1.0
176
     1
 76
     1
176
     1
 77
     6
176
     1
 78
     2
176
     1
 67
     7
176
     1
 79
     5
176
     1
170
     0
176
     1
171
     0
176
     1
290
     0
176
     1
 93
        1
176
     1
 44
0.0
176
     1
173
     0
176
     1
  0
VISUALSTYLE
  5
36
102
{ACAD_REACTORS
330
2A
102
}
330
2A
100
AcDbVisualStyle
  2
Brighten
 70
    12
177
     2
291
     1
 71
     2
176
     1
 72
     2
176
     1
 73
     0
176
     1
 90
        0
176
     1
 40
-0.6
176
     1
 41
-30.0
176
     1
 62
     5
 63
     7
421
 16777215
176
     1
 74
     1
176
     1
 91
        4
176
     1
 64
     7
176
     1
 65
   257
176
     1
 75
     1
176
     1
175
     1
176
     1
 42
1.0
176
     1
 92
        8
176
     1
 66
     7
176
     1
 43
1.0
176
     1
 76
     1
176
     1
 77
     6
176
     1
 78
     2
176
     1
 67
     7
176
     1
 79
     5
176
     1
170
     0
176
     1
171
     0
176
     1
290
     0
176
     1
 93
        1
176
     1
 44
50.0
176
     1
173
     0
176
     1
  0
VISUALSTYLE
  5
3A
102
{ACAD_REACTORS
330
2A
102
}
330
2A
100
AcDbVisualStyle
  2
ColorChange
 70
    16
177
     2
291
     1
 71
     2
176
     1
 72
     2
176
     1
 73
     3
176
     1
 90
        0
176
     1
 40
-0.6
176
     1
 41
-30.0
176
     1
 62
     5
 63
     8
421
  8421504
176
     1
 74
     1
176
     1
 91
        4
176
     1
 64
     7
176
     1
 65
   257
176
     1
 75
     1
176
     1
175
     1
176
     1
 42
1.0
176
     1
 92
        8
176
     1
 66
     8
424
  8421504
176
     1
 43
1.0
176
     1
 76
     1
176
     1
 77
     6
176
     1
 78
     2
176
     1
 67
     7
176
     1
 79
     5
176
     1
170
     0
176
     1
171
     0
176
     1
290
     0
176
     1
 93
        1
176
     1
 44
0.0
176
     1
173
     0
176
     1
  0
VISUALSTYLE
  5
34
102
{ACAD_REACTORS
330
2A
102
}
330
2A
100
AcDbVisualStyle
  2
Conceptual
 70
     9
177
     2
291
     0
 71
     3
176
     1
 72
     2
176
     1
 73
     0
176
     1
 90
        0
176
     1
 40
-0.6
176
     1
 41
-30.0
176
     1
 62
     5
 63
     7
421
 16777215
176
     1
 74
     2
176
     1
 91
        2
176
     1
 64
     7
176
     1
 65
   257
176
     1
 75
     1
176
     1
175
     1
176
     1
 42
40.0
176
     1
 92
        8
176
     1
 66
     7
176
     1
 43
1.0
176
     1
 76
     1
176
     1
 77
     6
176
     1
 78
     2
176
     1
 67
     7
176
     1
 79
     3
176
     1
170
     0
176
     1
171
     0
176
     1
290
     0
176
     1
 93
        1
176
     1
 44
0.0
176
     1
173
     0
176
     1
  0
VISUALSTYLE
  5
35
102
{ACAD_REACTORS
330
2A
102
}
330
2A
100
AcDbVisualStyle
  2
Dim
 70
    11
177
     2
291
     1
 71
     2
176
     1
 72
     2
176
     1
 73
     0
176
     1
 90
        0
176
     1
 40
-0.6
176
     1
 41
-30.0
176
     1
 62
     5
 63
     7
421
 16777215
176
     1
 74
     1
176
     1
 91
        4
176
     1
 64
     7
176
     1
 65
   257
176
     1
 75
     1
176
     1
175
     1
176
     1
 42
1.0
176
     1
 92
        8
176
     1
 66
     7
176
     1
 43
1.0
176
     1
 76
     1
176
     1
 77
     6
176
     1
 78
     2
176
     1
 67
     7
176
     1
 79
     5
176
     1
170
     0
176
     1
171
     0
176
     1
290
     0
176
     1
 93
        1
176
     1
 44
-50.0
176
     1
173
     0
176
     1
  0
VISUALSTYLE
  5
39
102
{ACAD_REACTORS
330
2A
102
}
330
2A
100
AcDbVisualStyle
  2
Facepattern
 70
    15
177
     2
291
     1
 71
     2
176
     1
 72
     2
176
     1
 73
     0
176
     1
 90
        0
176
     1
 40
-0.6
176
     1
 41
-30.0
176
     1
 62
     5
 63
     7
421
 16777215
176
     1
 74
     1
176
     1
 91
        4
176
     1
 64
     7
176
     1
 65
   257
176
     1
 75
     1
176
     1
175
     1
176
     1
 42
1.0
176
     1
 92
        8
176
     1
 66
     7
176
     1
 43
1.0
176
     1
 76
     1
176
     1
 77
     6
176
     1
 78
     2
176
     1
 67
     7
176
     1
 79
     5
176
     1
170
     0
176
     1
171
     0
176
     1
290
     0
176
     1
 93
        1
176
     1
 44
0.0
176
     1
173
     0
176
     1
  0
VISUALSTYLE
  5
2B
102
{ACAD_REACTORS
330
2A
102
}
330
2A
100
AcDbVisualStyle
  2
Flat
 70
     0
177
     2
291
     1
 71
     2
176
     1
 72
     1
176
     1
 73
     1
176
     1
 90
        2
176
     1
 40
-0.6
176
     1
 41
30.0
176
     1
 62
     5
 63
     7
421
 16777215
176
     1
 74
     0
176
     1
 91
        4
176
     1
 64
     7
176
     1
 65
   257
176
     1
 75
     1
176
     1
175
     1
176
     1
 42
1.0
176
     1
 92
        8
176
     1
 66
     7
176
     1
 43
1.0
176
     1
 76
     1
176
     1
 77
     6
176
     1
 78
     2
176
     1
 67
     7
176
     1
 79
     5
176
     1
170
     0
176
     1
171
     0
176
     1
290
     0
176
     1
 93
       13
176
     1
 44
0.0
176
     1
173
     0
176
     1
  0
VISUALSTYLE
  5
2C
102
{ACAD_REACTORS
330
2A
102
}
330
2A
100
AcDbVisualStyle
  2
FlatWithEdges
 70
     1
177
     2
291
     1
 71
     2
176
     1
 72
     1
176
     1
 73
     1
176
     1
 90
        2
176
     1
 40
-0.6
176
     1
 41
30.0
176
     1
 62
     5
 63
     7
421
 16777215
176
     1
 74
     1
176
     1
 91
        4
176
     1
 64
     7
176
     1
 65
   257
176
     1
 75
     1
176
     1
175
     1
176
     1
 42
1.0
176
     1
 92
        0
176
     1
 66
   257
176
     1
 43
1.0
176
     1
 76
     1
176
     1
 77
     6
176
     1
 78
     2
176
     1
 67
     7
176
     1
 79
     5
176
     1
170
     0
176
     1
171
     0
176
     1
290
     0
176
     1
 93
       13
176
     1
 44
0.0
176
     1
173
     0
176
     1
  0
VISUALSTYLE
  5
2D
102
{ACAD_REACTORS
330
2A
102
}
330
2A
100
AcDbVisualStyle
  2
Gouraud
 70
     2
177
     2
291
     1
 71
     2
176
     1
 72
     2
176
     1
 73
     1
176
     1
 90
        2
176
     1
 40
-0.6
176
     1
 41
30.0
176
     1
 62
     5
 63
     7
421
 16777215
176
     1
 74
     0
176
     1
 91
        4
176
     1
 64
     7
176
     1
 65
   257
176
     1
 75
     1
176
     1
175
     1
176
     1
 42
1.0
176
     1
 92
        0
176
     1
 66
     7
176
     1
 43
1.0
176
     1
 76
     1
176
     1
 77
     6
176
     1
 78
     2
176
     1
 67
     7
176
     1
 79
     5
176
     1
170
     0
176
     1
171
     0
176
     1
290
     0
176
     1
 93
       13
176
     1
 44
0.0
176
     1
173
     0
176
     1
  0
VISUALSTYLE
  5
2E
102
{ACAD_REACTORS
330
2A
102
}
330
2A
100
AcDbVisualStyle
  2
GouraudWithEdges
 70
     3
177
     2
291
     1
 71
     2
176
     1
 72
     2
176
     1
 73
     1
176
     1
 90
        2
176
     1
 40
-0.6
176
     1
 41
30.0
176
     1
 62
     5
 63
     7
421
 16777215
176
     1
 74
     1
176
     1
 91
        4
176
     1
 64
     7
176
     1
 65
   257
176
     1
 75
     1
176
     1
175
     1
176
     1
 42
1.0
176
     1
 92
        0
176
     1
 66
   257
176
     1
 43
1.0
176
     1
 76
     1
176
     1
 77
     6
176
     1
 78
     2
176
     1
 67
     7
176
     1
 79
     5
176
     1
170
     0
176
     1
171
     0
176
     1
290
     0
176
     1
 93
       13
176
     1
 44
0.0
176
     1
173
     0
176
     1
  0
VISUALSTYLE
  5
38
102
{ACAD_REACTORS
330
2A
102
}
330
2A
100
AcDbVisualStyle
  2
Linepattern
 70
    14
177
     2
291
     1
 71
     2
176
     1
 72
     2
176
     1
 73
     0
176
     1
 90
        0
176
     1
 40
-0.6
176
     1
 41
-30.0
176
     1
 62
     5
 63
     7
421
 16777215
176
     1
 74
     1
176
     1
 91
        4
176
     1
 64
     7
176
     1
 65
   257
176
     1
 75
     7
176
     1
175
     7
176
     1
 42
1.0
176
     1
 92
        8
176
     1
 66
     7
176
     1
 43
1.0
176
     1
 76
     1
176
     1
 77
     6
176
     1
 78
     2
176
     1
 67
     7
176
     1
 79
     5
176
     1
170
     0
176
     1
171
     0
176
     1
290
     0
176
     1
 93
        1
176
     1
 44
0.0
176
     1
173
     0
176
     1
  0
VISUALSTYLE
  5
33
102
{ACAD_REACTORS
330
2A
102
}
330
2A
100
AcDbVisualStyle
  2
Realistic
 70
     8
177
     2
291
     0
 71
     2
176
     1
 72
     2
176
     1
 73
     0
176
     1
 90
        0
176
     1
 40
-0.6
176
     1
 41
-30.0
176
     1
 62
     5
 63
     7
421
 16777215
176
     1
 74
     1
176
     1
 91
        0
176
     1
 64
     7
176
     1
 65
   257
176
     1
 75
     1
176
     1
175
     1
176
     1
 42
1.0
176
     1
 92
        8
176
     1
 66
     8
424
  7895160
176
     1
 43
1.0
176
     1
 76
     1
176
     1
 77
     6
176
     1
 78
     2
176
     1
 67
     7
176
     1
 79
     5
176
     1
170
     0
176
     1
171
     0
176
     1
290
     0
176
     1
 93
       13
176
     1
 44
0.0
176
     1
173
     0
176
     1
  0
VISUALSTYLE
  5
37
102
{ACAD_REACTORS
330
2A
102
}
330
2A
100
AcDbVisualStyle
  2
Thicken
 70
    13
177
     2
291
     1
 71
     2
176
     1
 72
     2
176
     1
 73
     0
176
     1
 90
        0
176
     1
 40
-0.6
176
     1
 41
-30.0
176
     1
 62
     5
 63
     7
421
 16777215
176
     1
 74
     1
176
     1
 91
        4
176
     1
 64
     7
176
     1
 65
   257
176
     1
 75
     1
176
     1
175
     1
176
     1
 42
1.0
176
     1
 92
       12
176
     1
 66
     7
176
     1
 43
1.0
176
     1
 76
     1
176
     1
 77
     6
176
     1
 78
     2
176
     1
 67
     7
176
     1
 79
     5
176
     1
170
     0
176
     1
171
     0
176
     1
290
     0
176
     1
 93
        1
176
     1
 44
0.0
176
     1
173
     0
176
     1
  0
ENDSEC
  0
EOF
