  0
SECTION
  2
HEADER
  9
$ACADVER
  1
AC1024
  9
$ACADMAINTVER
 70
     6
  9
$DWGCODEPAGE
  3
UNDEFINED
  9
$INSBASE
 10
0.0
 20
0.0
 30
0.0
  9
$EXTMIN
 10
1.000000000000000E+20
 20
1.000000000000000E+20
 30
1.000000000000000E+20
  9
$EXTMAX
 10
-1.000000000000000E+20
 20
-1.000000000000000E+20
 30
-1.000000000000000E+20
  9
$LIMMIN
 10
0.0
 20
0.0
  9
$LIMMAX
 10
12.0
 20
9.0
  9
$ORTHOMODE
 70
     0
  9
$REGENMODE
 70
     1
  9
$FILLMODE
 70
     1
  9
$QTEXTMODE
 70
     0
  9
$MIRRTEXT
 70
     1
  9
$LTSCALE
 40
1.0
  9
$ATTMODE
 70
     1
  9
$TEXTSIZE
 40
0.2
  9
$TRACEWID
 40
0.05
  9
$TEXTSTYLE
  7
Standard
  9
$CLAYER
  8
0
  9
$CELTYPE
  6
ByLayer
  9
$CECOLOR
 62
   256
  9
$CELTSCALE
 40
1.0
  9
$DISPSILH
 70
     0
  9
$DIMSCALE
 40
1.0
  9
$DIMASZ
 40
0.18
  9
$DIMEXO
 40
0.0625
  9
$DIMDLI
 40
0.38
  9
$DIMRND
 40
0.0
  9
$DIMDLE
 40
0.0
  9
$DIMEXE
 40
0.18
  9
$DIMTP
 40
0.0
  9
$DIMTM
 40
0.0
  9
$DIMTXT
 40
0.18
  9
$DIMCEN
 40
0.09
  9
$DIMTSZ
 40
0.0
  9
$DIMTOL
 70
     0
  9
$DIMLIM
 70
     0
  9
$DIMTIH
 70
     1
  9
$DIMTOH
 70
     1
  9
$DIMSE1
 70
     0
  9
$DIMSE2
 70
     0
  9
$DIMTAD
 70
     0
  9
$DIMZIN
 70
     0
  9
$DIMBLK
  1

  9
$DIMASO
 70
     1
  9
$DIMSHO
 70
     1
  9
$DIMPOST
  1

  9
$DIMAPOST
  1

  9
$DIMALT
 70
     0
  9
$DIMALTD
 70
     2
  9
$DIMALTF
 40
25.4
  9
$DIMLFAC
 40
1.0
  9
$DIMTOFL
 70
     0
  9
$DIMTVP
 40
0.0
  9
$DIMTIX
 70
     0
  9
$DIMSOXD
 70
     0
  9
$DIMSAH
 70
     0
  9
$DIMBLK1
  1

  9
$DIMBLK2
  1

  9
$DIMSTYLE
  2
Standard
  9
$DIMCLRD
 70
     0
  9
$DIMCLRE
 70
     0
  9
$DIMCLRT
 70
     0
  9
$DIMTFAC
 40
1.0
  9
$DIMGAP
 40
0.09
  9
$DIMJUST
 70
     0
  9
$DIMSD1
 70
     0
  9
$DIMSD2
 70
     0
  9
$DIMTOLJ
 70
     1
  9
$DIMTZIN
 70
     0
  9
$DIMALTZ
 70
     0
  9
$DIMALTTZ
 70
     0
  9
$DIMUPT
 70
     0
  9
$DIMDEC
 70
     4
  9
$DIMTDEC
 70
     4
  9
$DIMALTU
 70
     2
  9
$DIMALTTD
 70
     2
  9
$DIMTXSTY
  7
Standard
  9
$DIMAUNIT
 70
     0
  9
$DIMADEC
 70
     0
  9
$DIMALTRND
 40
0.0
  9
$DIMAZIN
 70
     0
  9
$DIMDSEP
 70
    46
  9
$DIMATFIT
 70
     3
  9
$DIMFRAC
 70
     0
  9
$DIMLDRBLK
  1

  9
$DIMLUNIT
 70
     2
  9
$DIMLWD
 70
    -2
  9
$DIMLWE
 70
    -2
  9
$DIMTMOVE
 70
     0
  9
$DIMFXL
 40
1.0
  9
$DIMFXLON
 70
     0
  9
$DIMJOGANG
 40
0.7853981633974483
  9
$DIMTFILL
 70
     0
  9
$DIMTFILLCLR
 70
     0
  9
$DIMARCSYM
 70
     0
  9
$DIMLTYPE
  6

  9
$DIMLTEX1
  6

  9
$DIMLTEX2
  6

  9
$DIMTXTDIRECTION
 70
     0
  9
$LUNITS
 70
     2
  9
$LUPREC
 70
     4
  9
$SKETCHINC
 40
0.1
  9
$FILLETRAD
 40
0.5
  9
$AUNITS
 70
     0
  9
$AUPREC
 70
     0
  9
$MENU
  1
.
  9
$ELEVATION
 40
0.0
  9
$PELEVATION
 40
0.0
  9
$THICKNESS
 40
0.0
  9
$LIMCHECK
 70
     0
  9
$CHAMFERA
 40
0.5
  9
$CHAMFERB
 40
0.5
  9
$CHAMFERC
 40
1.0
  9
$CHAMFERD
 40
0.0
  9
$SKPOLY
 70
     0
  9
$TDCREATE
 40
2457917.62716434
  9
$TDUCREATE
 40
2457917.252164352
  9
$TDUPDATE
 40
2457917.62716434
  9
$TDUUPDATE
 40
2457917.252164352
  9
$TDINDWG
 40
0.0000000116
  9
$TDUSRTIMER
 40
0.0000000116
  9
$USRTIMER
 70
     1
  9
$ANGBASE
 50
0.0
  9
$ANGDIR
 70
     0
  9
$PDMODE
 70
     0
  9
$PDSIZE
 40
0.0
  9
$PLINEWID
 40
0.0
  9
$SPLFRAME
 70
     0
  9
$SPLINETYPE
 70
     6
  9
$SPLINESEGS
 70
     8
  9
$HANDSEED
  5
143
  9
$SURFTAB1
 70
     6
  9
$SURFTAB2
 70
     6
  9
$SURFTYPE
 70
     6
  9
$SURFU
 70
     6
  9
$SURFV
 70
     6
  9
$UCSBASE
  2

  9
$UCSNAME
  2

  9
$UCSORG
 10
0.0
 20
0.0
 30
0.0
  9
$UCSXDIR
 10
1.0
 20
0.0
 30
0.0
  9
$UCSYDIR
 10
0.0
 20
1.0
 30
0.0
  9
$UCSORTHOREF
  2

  9
$UCSORTHOVIEW
 70
     0
  9
$UCSORGTOP
 10
0.0
 20
0.0
 30
0.0
  9
$UCSORGBOTTOM
 10
0.0
 20
0.0
 30
0.0
  9
$UCSORGLEFT
 10
0.0
 20
0.0
 30
0.0
  9
$UCSORGRIGHT
 10
0.0
 20
0.0
 30
0.0
  9
$UCSORGFRONT
 10
0.0
 20
0.0
 30
0.0
  9
$UCSORGBACK
 10
0.0
 20
0.0
 30
0.0
  9
$PUCSBASE
  2

  9
$PUCSNAME
  2

  9
$PUCSORG
 10
0.0
 20
0.0
 30
0.0
  9
$PUCSXDIR
 10
1.0
 20
0.0
 30
0.0
  9
$PUCSYDIR
 10
0.0
 20
1.0
 30
0.0
  9
$PUCSORTHOREF
  2

  9
$PUCSORTHOVIEW
 70
     0
  9
$PUCSORGTOP
 10
0.0
 20
0.0
 30
0.0
  9
$PUCSORGBOTTOM
 10
0.0
 20
0.0
 30
0.0
  9
$PUCSORGLEFT
 10
0.0
 20
0.0
 30
0.0
  9
$PUCSORGRIGHT
 10
0.0
 20
0.0
 30
0.0
  9
$PUCSORGFRONT
 10
0.0
 20
0.0
 30
0.0
  9
$PUCSORGBACK
 10
0.0
 20
0.0
 30
0.0
  9
$USERI1
 70
     0
  9
$USERI2
 70
     0
  9
$USERI3
 70
     0
  9
$USERI4
 70
     0
  9
$USERI5
 70
     0
  9
$USERR1
 40
0.0
  9
$USERR2
 40
0.0
  9
$USERR3
 40
0.0
  9
$USERR4
 40
0.0
  9
$USERR5
 40
0.0
  9
$WORLDVIEW
 70
     1
  9
$SHADEDGE
 70
     3
  9
$SHADEDIF
 70
    70
  9
$TILEMODE
 70
     1
  9
$MAXACTVP
 70
    64
  9
$PINSBASE
 10
0.0
 20
0.0
 30
0.0
  9
$PLIMCHECK
 70
     0
  9
$PEXTMIN
 10
1.000000000000000E+20
 20
1.000000000000000E+20
 30
1.000000000000000E+20
  9
$PEXTMAX
 10
-1.000000000000000E+20
 20
-1.000000000000000E+20
 30
-1.000000000000000E+20
  9
$PLIMMIN
 10
0.0
 20
0.0
  9
$PLIMMAX
 10
12.0
 20
9.0
  9
$UNITMODE
 70
     0
  9
$VISRETAIN
 70
     1
  9
$PLINEGEN
 70
     0
  9
$PSLTSCALE
 70
     1
  9
$TREEDEPTH
 70
  3020
  9
$CMLSTYLE
  2
Standard
  9
$CMLJUST
 70
     0
  9
$CMLSCALE
 40
1.0
  9
$PROXYGRAPHICS
 70
     1
  9
$MEASUREMENT
 70
     0
  9
$CELWEIGHT
370
    -1
  9
$ENDCAPS
280
     0
  9
$JOINSTYLE
280
     0
  9
$LWDISPLAY
290
     1
  9
$INSUNITS
 70
     1
  9
$HYPERLINKBASE
  1

  9
$STYLESHEET
  1

  9
$XEDIT
290
     1
  9
$CEPSNTYPE
380
     0
  9
$PSTYLEMODE
290
     1
  9
$FINGERPRINTGUID
  2
{22EE6957-7FFF-ED0E-3C70-8B95F7852EE1}
  9
$VERSIONGUID
  2
{FAEB1C32-E019-11D5-929B-00C0DF256EC4}
  9
$EXTNAMES
290
     1
  9
$PSVPSCALE
 40
0.0
  9
$OLESTARTUP
290
     0
  9
$SORTENTS
280
   127
  9
$INDEXCTL
280
     0
  9
$HIDETEXT
280
     1
  9
$XCLIPFRAME
280
     2
  9
$HALOGAP
280
     0
  9
$OBSCOLOR
 70
   257
  9
$OBSLTYPE
280
     0
  9
$INTERSECTIONDISPLAY
280
     0
  9
$INTERSECTIONCOLOR
 70
   257
  9
$DIMASSOC
280
     2
  9
$PROJECTNAME
  1

  9
$CAMERADISPLAY
290
     0
  9
$LENSLENGTH
 40
50.0
  9
$CAMERAHEIGHT
 40
0.0
  9
$STEPSPERSEC
 40
2.0
  9
$STEPSIZE
 40
6.0
  9
$3DDWFPREC
 40
2.0
  9
$PSOLWIDTH
 40
0.25
  9
$PSOLHEIGHT
 40
4.0
  9
$LOFTANG1
 40
1.570796326794897
  9
$LOFTANG2
 40
1.570796326794897
  9
$LOFTMAG1
 40
0.0
  9
$LOFTMAG2
 40
0.0
  9
$LOFTPARAM
 70
     7
  9
$LOFTNORMALS
280
     1
  9
$LATITUDE
 40
37.795
  9
$LONGITUDE
 40
-122.394
  9
$NORTHDIRECTION
 40
0.0
  9
$TIMEZONE
 70
 -8000
  9
$LIGHTGLYPHDISPLAY
280
     1
  9
$TILEMODELIGHTSYNCH
280
     1
  9
$CMATERIAL
347
3C
  9
$SOLIDHIST
280
     1
  9
$SHOWHIST
280
     1
  9
$DWFFRAME
280
     2
  9
$DGNFRAME
280
     2
  9
$REALWORLDSCALE
290
     1
  9
$INTERFERECOLOR
 62
   256
  9
$CSHADOW
280
     0
  9
$SHADOWPLANELOCATION
 40
0.0
  0
ENDSEC
  0
SECTION
  2
CLASSES
  0
CLASS
  1
ACDBDICTIONARYWDFLT
  2
AcDbDictionaryWithDefault
  3
ObjectDBX Classes
 90
        0
 91
        4
280
     0
281
     0
  0
CLASS
  1
VISUALSTYLE
  2
AcDbVisualStyle
  3
ObjectDBX Classes
 90
     4095
 91
        4
280
     0
281
     0
  0
CLASS
  1
MATERIAL
  2
AcDbMaterial
  3
ObjectDBX Classes
 90
     1153
 91
        4
280
     0
281
     0
  0
CLASS
  1
SUN
  2
AcDbSun
  3
SCENEOE
 90
     1024
 91
        4
280
     0
281
     0
  0
ENDSEC
  0
SECTION
  2
TABLES
  0
TABLE
  2
VPORT
  5
8
330
0
100
AcDbSymbolTable
 70
     1
  0
VPORT
  5
29
330
8
100
AcDbSymbolTableRecord
100
AcDbViewportTableRecord
  2
*Active
 70
     0
 10
0.0
 20
0.0
 11
1.0
 21
1.0
 12
0.0
 22
0.0
 13
0.0
 23
0.0
 14
0.5
 24
0.5
 15
0.5
 25
0.5
 16
0.0
 26
0.0
 36
1.0
 17
91.00082462281999
 27
-128.4993055234307
 37
0.0
 40
256.9986110468615
 41
0.7081814508812795
 42
50.0
 43
0.0
 44
0.0
 50
0.0
 51
0.0
 71
     0
 72
   100
 73
     1
 74
     3
 75
     0
 76
     0
 77
     0
 78
     0
281
     0
 65
     1
110
0.0
120
0.0
130
0.0
111
1.0
121
0.0
131
0.0
112
0.0
122
1.0
132
0.0
 79
     0
146
0.0
 60
     3
 61
     5
292
     1
282
     1
141
0.0
142
0.0
 63
   250
361
3F
  0
ENDTAB
  0
TABLE
  2
LTYPE
  5
5
330
0
100
AcDbSymbolTable
 70
     1
  0
LTYPE
  5
14
330
5
100
AcDbSymbolTableRecord
100
AcDbLinetypeTableRecord
  2
ByBlock
 70
     0
  3

 72
    65
 73
     0
 40
0.0
  0
LTYPE
  5
15
330
5
100
AcDbSymbolTableRecord
100
AcDbLinetypeTableRecord
  2
ByLayer
 70
     0
  3

 72
    65
 73
     0
 40
0.0
  0
LTYPE
  5
16
330
5
100
AcDbSymbolTableRecord
100
AcDbLinetypeTableRecord
  2
Continuous
 70
     0
  3
Solid line
 72
    65
 73
     0
 40
0.0
  0
ENDTAB
  0
TABLE
  2
LAYER
  5
2
330
0
100
AcDbSymbolTable
 70
     2
  0
LAYER
  5
10
330
2
100
AcDbSymbolTableRecord
100
AcDbLayerTableRecord
  2
0
 70
     0
 62
     7
  6
Continuous
370
    -3
390
F
347
3E
  0
LAYER
  5
40
330
2
100
AcDbSymbolTableRecord
100
AcDbLayerTableRecord
  2
_U+30EC_U+30A4_U+30E4_U+30FC 1
 70
     0
 62
     7
  6
Continuous
370
    -3
390
F
347
3E
  0
ENDTAB
  0
TABLE
  2
STYLE
  5
3
330
0
100
AcDbSymbolTable
 70
     1
  0
STYLE
  5
11
330
3
100
AcDbSymbolTableRecord
100
AcDbTextStyleTableRecord
  2
Standard
 70
     0
 40
0.0
 41
1.0
 50
0.0
 71
     0
 42
0.2
  3
txt
  4

  0
ENDTAB
  0
TABLE
  2
VIEW
  5
6
330
0
100
AcDbSymbolTable
 70
     0
  0
ENDTAB
  0
TABLE
  2
UCS
  5
7
330
0
100
AcDbSymbolTable
 70
     0
  0
ENDTAB
  0
TABLE
  2
APPID
  5
9
330
0
100
AcDbSymbolTable
 70
     1
  0
APPID
  5
12
330
9
100
AcDbSymbolTableRecord
100
AcDbRegAppTableRecord
  2
ACAD
 70
     0
  0
ENDTAB
  0
TABLE
  2
DIMSTYLE
  5
A
330
0
100
AcDbSymbolTable
 70
     1
100
AcDbDimStyleTable
  0
DIMSTYLE
105
27
330
A
100
AcDbSymbolTableRecord
100
AcDbDimStyleTableRecord
  2
Standard
 70
     0
178
     0
340
11
  0
ENDTAB
  0
TABLE
  2
BLOCK_RECORD
  5
1
330
0
100
AcDbSymbolTable
 70
     7
  0
BLOCK_RECORD
  5
1F
330
1
100
AcDbSymbolTableRecord
100
AcDbBlockTableRecord
  2
*Model_Space
340
22
 70
     0
280
     1
281
     0
  0
BLOCK_RECORD
  5
1B
330
1
100
AcDbSymbolTableRecord
100
AcDbBlockTableRecord
  2
*Paper_Space
340
1E
 70
     0
280
     1
281
     0
  0
BLOCK_RECORD
  5
23
330
1
100
AcDbSymbolTableRecord
100
AcDbBlockTableRecord
  2
*Paper_Space0
340
26
 70
     0
280
     1
281
     0
  0
BLOCK_RECORD
  5
B4
330
1
100
AcDbSymbolTableRecord
100
AcDbBlockTableRecord
  2
block 2
340
0
102
{BLKREFS
331
B5
102
}
 70
     0
280
     1
281
     0
  0
BLOCK_RECORD
  5
C8
330
1
100
AcDbSymbolTableRecord
100
AcDbBlockTableRecord
  2
block 3
340
0
102
{BLKREFS
331
C9
102
}
 70
     0
280
     1
281
     0
  0
BLOCK_RECORD
  5
E0
330
1
100
AcDbSymbolTableRecord
100
AcDbBlockTableRecord
  2
block 4
340
0
102
{BLKREFS
331
E1
102
}
 70
     0
280
     1
281
     0
  0
BLOCK_RECORD
  5
FE
330
1
100
AcDbSymbolTableRecord
100
AcDbBlockTableRecord
  2
block 5
340
0
102
{BLKREFS
331
FF
102
}
 70
     0
280
     1
281
     0
  0
BLOCK_RECORD
  5
10E
330
1
100
AcDbSymbolTableRecord
100
AcDbBlockTableRecord
  2
block 6
340
0
102
{BLKREFS
331
10F
102
}
 70
     0
280
     1
281
     0
  0
BLOCK_RECORD
  5
131
330
1
100
AcDbSymbolTableRecord
100
AcDbBlockTableRecord
  2
block 7
340
0
102
{BLKREFS
331
132
102
}
 70
     0
280
     1
281
     0
  0
ENDTAB
  0
ENDSEC
  0
SECTION
  2
BLOCKS
  0
BLOCK
  5
20
330
1F
100
AcDbEntity
  8
0
100
AcDbBlockBegin
  2
*Model_Space
 70
     0
 10
0.0
 20
0.0
 30
0.0
  3
*Model_Space
  1

  0
ENDBLK
  5
21
330
1F
100
AcDbEntity
  8
0
100
AcDbBlockEnd
  0
BLOCK
  5
1C
330
1B
100
AcDbEntity
 67
     1
  8
0
100
AcDbBlockBegin
  2
*Paper_Space
 70
     0
 10
0.0
 20
0.0
 30
0.0
  3
*Paper_Space
  1

  0
ENDBLK
  5
1D
330
1B
100
AcDbEntity
 67
     1
  8
0
100
AcDbBlockEnd
  0
BLOCK
  5
24
330
23
100
AcDbEntity
  8
0
100
AcDbBlockBegin
  2
*Paper_Space0
 70
     0
 10
0.0
 20
0.0
 30
0.0
  3
*Paper_Space0
  1

  0
ENDBLK
  5
25
330
23
100
AcDbEntity
  8
0
100
AcDbBlockEnd
  0
BLOCK
  5
B6
330
B4
100
AcDbEntity
  8
0
100
AcDbBlockBegin
  2
block 2
 70
     0
 10
0.0
 20
0.0
 30
0.0
  3
block 2
  1

  0
SPLINE
  5
B8
330
B4
100
AcDbEntity
  8
_U+30EC_U+30A4_U+30E4_U+30FC 1
370
     0
100
AcDbSpline
210
0.0
220
0.0
230
1.0
 70
    11
 71
     3
 72
    62
 73
    58
 74
     0
 42
0.0000000001
 43
0.0000000001
 12
1.0
 22
0.0
 32
0.0
 13
1.0
 23
0.0
 33
0.0
 40
0.0
 40
0.0
 40
0.0
 40
0.0
 40
1.0
 40
1.0
 40
1.0
 40
2.0
 40
2.0
 40
2.0
 40
3.0
 40
3.0
 40
3.0
 40
4.0
 40
4.0
 40
4.0
 40
5.0
 40
5.0
 40
5.0
 40
6.0
 40
6.0
 40
6.0
 40
7.0
 40
7.0
 40
7.0
 40
8.0
 40
8.0
 40
8.0
 40
9.0
 40
9.0
 40
9.0
 40
10.0
 40
10.0
 40
10.0
 40
11.0
 40
11.0
 40
11.0
 40
12.0
 40
12.0
 40
12.0
 40
13.0
 40
13.0
 40
13.0
 40
14.0
 40
14.0
 40
14.0
 40
15.0
 40
15.0
 40
15.0
 40
16.0
 40
16.0
 40
16.0
 40
17.0
 40
17.0
 40
17.0
 40
18.0
 40
18.0
 40
18.0
 40
19.0
 40
19.0
 40
19.0
 40
19.0
 10
75.89493677573113
 20
-131.688774923675
 30
0.0
 10
75.89493677573113
 20
-131.799017979203
 30
0.0
 10
75.87202689075421
 20
-132.0505099496263
 30
0.0
 10
75.67066105964136
 20
-132.1945149409097
 30
0.0
 10
75.54939369856058
 20
-132.2802978184924
 30
0.0
 10
75.44190671942077
 20
-132.2851209521718
 30
0.0
 10
75.3504394342874
 20
-132.2902885953997
 30
0.0
 10
75.3504394342874
 20
-132.2902885953997
 30
0.0
 10
75.3504394342874
 20
-132.0360405485882
 30
0.0
 10
75.3504394342874
 20
-132.0360405485882
 30
0.0
 10
75.43053790431945
 20
-132.0332844722
 30
0.0
 10
75.68444144158236
 20
-132.0212266380017
 30
0.0
 10
75.68444144158236
 20
-131.6935980573544
 30
0.0
 10
75.68444144158236
 20
-131.5351236650329
 30
0.0
 10
75.60899385045539
 20
-131.3587347761881
 30
0.0
 10
75.36180824938872
 20
-131.3587347761881
 30
0.0
 10
75.2360622641771
 20
-131.3587347761881
 30
0.0
 10
75.18335230325278
 20
-131.4028319983993
 30
0.0
 10
75.14907360317454
 20
-131.4396945200915
 30
0.0
 10
75.06897513314249
 20
-131.5251328881257
 30
0.0
 10
75.05536700597574
 20
-131.6594916120504
 30
0.0
 10
75.05536700597574
 20
-131.7232258785275
 30
0.0
 10
75.05536700597574
 20
-131.7452744896331
 30
0.0
 10
75.05760631804115
 20
-131.7866156354561
 30
0.0
 10
75.06208494217198
 20
-131.8183105139204
 30
0.0
 10
75.06208494217198
 20
-131.8183105139204
 30
0.0
 10
74.85158960802322
 20
-131.8183105139204
 30
0.0
 10
74.85158960802322
 20
-131.8183105139204
 30
0.0
 10
74.85847979899371
 20
-131.7742132917092
 30
0.0
 10
74.8608913658334
 20
-131.7252929358187
 30
0.0
 10
74.8608913658334
 20
-131.7184027448482
 30
0.0
 10
74.8608913658334
 20
-131.6426106441727
 30
0.0
 10
74.83798148085648
 20
-131.412478265758
 30
0.0
 10
74.58166637675389
 20
-131.412478265758
 30
0.0
 10
74.38960230345121
 20
-131.412478265758
 30
0.0
 10
74.33000215155639
 20
-131.564062467109
 30
0.0
 10
74.33000215155639
 20
-131.6915310000632
 30
0.0
 10
74.33000215155639
 20
-131.9967664600564
 30
0.0
 10
74.58166637675389
 20
-132.0064127274151
 30
0.0
 10
74.65952553472054
 20
-132.0112358610944
 30
0.0
 10
74.65952553472054
 20
-132.0112358610944
 30
0.0
 10
74.65952553472054
 20
-132.2461913731885
 30
0.0
 10
74.65952553472054
 20
-132.2461913731885
 30
0.0
 10
74.52447779169874
 20
-132.2365451058297
 30
0.0
 10
74.11726750534221
 20
-132.2045057178169
 30
0.0
 10
74.11726750534221
 20
-131.6767170894767
 30
0.0
 10
74.11726750534221
 20
-131.4176459089859
 30
0.0
 10
74.25455456042943
 20
-131.1389376842291
 30
0.0
 10
74.57477618578339
 20
-131.1389376842291
 30
0.0
 10
74.77614201689624
 20
-131.1389376842291
 30
0.0
 10
74.86536998996422
 20
-131.2491807397572
 30
0.0
 10
74.93168807805527
 20
-131.363902419416
 30
0.0
 10
74.96148815400268
 20
-131.2929334524198
 30
0.0
 10
75.04847681500524
 20
-131.0827826278196
 30
0.0
 10
75.34820012222198
 20
-131.0827826278196
 30
0.0
 10
75.71424151752977
 20
-131.0827826278196
 30
0.0
 10
75.89493677573113
 20
-131.3687255530953
 30
0.0
 10
75.89493677573113
 20
-131.688774923675
 30
0.0
  0
HATCH
  5
B9
330
B4
100
AcDbEntity
  8
_U+30EC_U+30A4_U+30E4_U+30FC 1
 62
   179
420
  2234388
100
AcDbHatch
 10
0.0
 20
0.0
 30
0.0
210
0.0
220
0.0
230
1.0
  2
SOLID
 70
     1
 71
     0
 91
        1
 92
        1
 93
        1
 72
     4
 94
        3
 73
     0
 74
     1
 95
       62
 96
       58
 40
0.0
 40
0.0
 40
0.0
 40
0.0
 40
1.0
 40
1.0
 40
1.0
 40
2.0
 40
2.0
 40
2.0
 40
3.0
 40
3.0
 40
3.0
 40
4.0
 40
4.0
 40
4.0
 40
5.0
 40
5.0
 40
5.0
 40
6.0
 40
6.0
 40
6.0
 40
7.0
 40
7.0
 40
7.0
 40
8.0
 40
8.0
 40
8.0
 40
9.0
 40
9.0
 40
9.0
 40
10.0
 40
10.0
 40
10.0
 40
11.0
 40
11.0
 40
11.0
 40
12.0
 40
12.0
 40
12.0
 40
13.0
 40
13.0
 40
13.0
 40
14.0
 40
14.0
 40
14.0
 40
15.0
 40
15.0
 40
15.0
 40
16.0
 40
16.0
 40
16.0
 40
17.0
 40
17.0
 40
17.0
 40
18.0
 40
18.0
 40
18.0
 40
19.0
 40
19.0
 40
19.0
 40
19.0
 10
75.89493677573113
 20
-131.688774923675
 10
75.89493677573113
 20
-131.799017979203
 10
75.87202689075421
 20
-132.0505099496263
 10
75.67066105964136
 20
-132.1945149409097
 10
75.54939369856058
 20
-132.2802978184924
 10
75.44190671942077
 20
-132.2851209521718
 10
75.3504394342874
 20
-132.2902885953997
 10
75.3504394342874
 20
-132.2902885953997
 10
75.3504394342874
 20
-132.0360405485882
 10
75.3504394342874
 20
-132.0360405485882
 10
75.43053790431945
 20
-132.0332844722
 10
75.68444144158236
 20
-132.0212266380017
 10
75.68444144158236
 20
-131.6935980573544
 10
75.68444144158236
 20
-131.5351236650329
 10
75.60899385045539
 20
-131.3587347761881
 10
75.36180824938872
 20
-131.3587347761881
 10
75.2360622641771
 20
-131.3587347761881
 10
75.18335230325278
 20
-131.4028319983993
 10
75.14907360317454
 20
-131.4396945200915
 10
75.06897513314249
 20
-131.5251328881257
 10
75.05536700597574
 20
-131.6594916120504
 10
75.05536700597574
 20
-131.7232258785275
 10
75.05536700597574
 20
-131.7452744896331
 10
75.05760631804115
 20
-131.7866156354561
 10
75.06208494217198
 20
-131.8183105139204
 10
75.06208494217198
 20
-131.8183105139204
 10
74.85158960802322
 20
-131.8183105139204
 10
74.85158960802322
 20
-131.8183105139204
 10
74.85847979899371
 20
-131.7742132917092
 10
74.8608913658334
 20
-131.7252929358187
 10
74.8608913658334
 20
-131.7184027448482
 10
74.8608913658334
 20
-131.6426106441727
 10
74.83798148085648
 20
-131.412478265758
 10
74.58166637675389
 20
-131.412478265758
 10
74.38960230345121
 20
-131.412478265758
 10
74.33000215155639
 20
-131.564062467109
 10
74.33000215155639
 20
-131.6915310000632
 10
74.33000215155639
 20
-131.9967664600564
 10
74.58166637675389
 20
-132.0064127274151
 10
74.65952553472054
 20
-132.0112358610944
 10
74.65952553472054
 20
-132.0112358610944
 10
74.65952553472054
 20
-132.2461913731885
 10
74.65952553472054
 20
-132.2461913731885
 10
74.52447779169874
 20
-132.2365451058297
 10
74.11726750534221
 20
-132.2045057178169
 10
74.11726750534221
 20
-131.6767170894767
 10
74.11726750534221
 20
-131.4176459089859
 10
74.25455456042943
 20
-131.1389376842291
 10
74.57477618578339
 20
-131.1389376842291
 10
74.77614201689624
 20
-131.1389376842291
 10
74.86536998996422
 20
-131.2491807397572
 10
74.93168807805527
 20
-131.363902419416
 10
74.96148815400268
 20
-131.2929334524198
 10
75.04847681500524
 20
-131.0827826278196
 10
75.34820012222198
 20
-131.0827826278196
 10
75.71424151752977
 20
-131.0827826278196
 10
75.89493677573113
 20
-131.3687255530953
 10
75.89493677573113
 20
-131.688774923675
 97
        0
 97
        0
 75
     2
 76
     1
 98
        0
  0
SPLINE
  5
BA
330
B4
100
AcDbEntity
  8
_U+30EC_U+30A4_U+30E4_U+30FC 1
370
     0
100
AcDbSpline
210
0.0
220
0.0
230
1.0
 70
    11
 71
     3
 72
    53
 73
    49
 74
     0
 42
0.0000000001
 43
0.0000000001
 12
1.0
 22
0.0
 32
0.0
 13
1.0
 23
0.0
 33
0.0
 40
0.0
 40
0.0
 40
0.0
 40
0.0
 40
1.0
 40
1.0
 40
1.0
 40
2.0
 40
2.0
 40
2.0
 40
3.0
 40
3.0
 40
3.0
 40
4.0
 40
4.0
 40
4.0
 40
5.0
 40
5.0
 40
5.0
 40
6.0
 40
6.0
 40
6.0
 40
7.0
 40
7.0
 40
7.0
 40
8.0
 40
8.0
 40
8.0
 40
9.0
 40
9.0
 40
9.0
 40
10.0
 40
10.0
 40
10.0
 40
11.0
 40
11.0
 40
11.0
 40
12.0
 40
12.0
 40
12.0
 40
13.0
 40
13.0
 40
13.0
 40
14.0
 40
14.0
 40
14.0
 40
15.0
 40
15.0
 40
15.0
 40
16.0
 40
16.0
 40
16.0
 40
16.0
 10
75.89493677573113
 20
-130.3427761175879
 30
0.0
 10
75.89493677573113
 20
-130.4330376193015
 30
0.0
 10
75.87650551488504
 20
-130.5505153753485
 30
0.0
 10
75.80794811472857
 20
-130.667648621847
 30
0.0
 10
75.68892006571319
 20
-130.8681531790885
 30
0.0
 10
75.54715438649517
 20
-130.8926133570338
 30
0.0
 10
75.43053790431945
 20
-130.9143174585909
 30
0.0
 10
75.43053790431945
 20
-130.9143174585909
 30
0.0
 10
75.43053790431945
 20
-130.6580023544883
 30
0.0
 10
75.43053790431945
 20
-130.6580023544883
 30
0.0
 10
75.64551186259904
 20
-130.5946125975597
 30
0.0
 10
75.67755125061187
 20
-130.4478515298881
 30
0.0
 10
75.67755125061187
 20
-130.3403645507483
 30
0.0
 10
75.67755125061187
 20
-130.1791340820386
 30
0.0
 10
75.57006427147208
 20
-130.0030897027423
 30
0.0
 10
75.31840004627458
 20
-130.0030897027423
 30
0.0
 10
75.04158662403475
 20
-130.0030897027423
 30
0.0
 10
74.96613903290778
 20
-130.2108289605029
 30
0.0
 10
74.96613903290778
 20
-130.3500108181069
 30
0.0
 10
74.96613903290778
 20
-130.3865288302506
 30
0.0
 10
74.96613903290778
 20
-130.5505153753485
 30
0.0
 10
75.10566540006039
 20
-130.6531792208089
 30
0.0
 10
75.10566540006039
 20
-130.6531792208089
 30
0.0
 10
75.08499482714889
 20
-130.8557508353416
 30
0.0
 10
75.08499482714889
 20
-130.8557508353416
 30
0.0
 10
75.08499482714889
 20
-130.8557508353416
 30
0.0
 10
74.16997746626653
 20
-130.7165689777375
 30
0.0
 10
74.16997746626653
 20
-130.7165689777375
 30
0.0
 10
74.16997746626653
 20
-130.7165689777375
 30
0.0
 10
74.16997746626653
 20
-129.8173990560873
 30
0.0
 10
74.16997746626653
 20
-129.8173990560873
 30
0.0
 10
74.16997746626653
 20
-129.8173990560873
 30
0.0
 10
74.3804728004153
 20
-129.8173990560873
 30
0.0
 10
74.3804728004153
 20
-129.8173990560873
 30
0.0
 10
74.3804728004153
 20
-129.8173990560873
 30
0.0
 10
74.3804728004153
 20
-130.5284667642429
 30
0.0
 10
74.3804728004153
 20
-130.5284667642429
 30
0.0
 10
74.3804728004153
 20
-130.5284667642429
 30
0.0
 10
74.83798148085648
 20
-130.6042588649184
 30
0.0
 10
74.83798148085648
 20
-130.6042588649184
 30
0.0
 10
74.80129121393857
 20
-130.5332898979222
 30
0.0
 10
74.75788301082441
 20
-130.4382052625294
 30
0.0
 10
74.75788301082441
 20
-130.3010904622164
 30
0.0
 10
74.75788301082441
 20
-130.0079128364216
 30
0.0
 10
74.95924884193728
 20
-129.7340277453443
 30
0.0
 10
75.29772947336308
 20
-129.7340277453443
 30
0.0
 10
75.64103323846821
 20
-129.7340277453443
 30
0.0
 10
75.89493677573113
 20
-129.9930989258351
 30
0.0
 10
75.89493677573113
 20
-130.3427761175879
 30
0.0
  0
HATCH
  5
BB
330
B4
100
AcDbEntity
  8
_U+30EC_U+30A4_U+30E4_U+30FC 1
 62
   179
420
  2234388
100
AcDbHatch
 10
0.0
 20
0.0
 30
0.0
210
0.0
220
0.0
230
1.0
  2
SOLID
 70
     1
 71
     0
 91
        1
 92
        1
 93
        1
 72
     4
 94
        3
 73
     0
 74
     1
 95
       53
 96
       49
 40
0.0
 40
0.0
 40
0.0
 40
0.0
 40
1.0
 40
1.0
 40
1.0
 40
2.0
 40
2.0
 40
2.0
 40
3.0
 40
3.0
 40
3.0
 40
4.0
 40
4.0
 40
4.0
 40
5.0
 40
5.0
 40
5.0
 40
6.0
 40
6.0
 40
6.0
 40
7.0
 40
7.0
 40
7.0
 40
8.0
 40
8.0
 40
8.0
 40
9.0
 40
9.0
 40
9.0
 40
10.0
 40
10.0
 40
10.0
 40
11.0
 40
11.0
 40
11.0
 40
12.0
 40
12.0
 40
12.0
 40
13.0
 40
13.0
 40
13.0
 40
14.0
 40
14.0
 40
14.0
 40
15.0
 40
15.0
 40
15.0
 40
16.0
 40
16.0
 40
16.0
 40
16.0
 10
75.89493677573113
 20
-130.3427761175879
 10
75.89493677573113
 20
-130.4330376193015
 10
75.87650551488504
 20
-130.5505153753485
 10
75.80794811472857
 20
-130.667648621847
 10
75.68892006571319
 20
-130.8681531790885
 10
75.54715438649517
 20
-130.8926133570338
 10
75.43053790431945
 20
-130.9143174585909
 10
75.43053790431945
 20
-130.9143174585909
 10
75.43053790431945
 20
-130.6580023544883
 10
75.43053790431945
 20
-130.6580023544883
 10
75.64551186259904
 20
-130.5946125975597
 10
75.67755125061187
 20
-130.4478515298881
 10
75.67755125061187
 20
-130.3403645507483
 10
75.67755125061187
 20
-130.1791340820386
 10
75.57006427147208
 20
-130.0030897027423
 10
75.31840004627458
 20
-130.0030897027423
 10
75.04158662403475
 20
-130.0030897027423
 10
74.96613903290778
 20
-130.2108289605029
 10
74.96613903290778
 20
-130.3500108181069
 10
74.96613903290778
 20
-130.3865288302506
 10
74.96613903290778
 20
-130.5505153753485
 10
75.10566540006039
 20
-130.6531792208089
 10
75.10566540006039
 20
-130.6531792208089
 10
75.08499482714889
 20
-130.8557508353416
 10
75.08499482714889
 20
-130.8557508353416
 10
75.08499482714889
 20
-130.8557508353416
 10
74.16997746626653
 20
-130.7165689777375
 10
74.16997746626653
 20
-130.7165689777375
 10
74.16997746626653
 20
-130.7165689777375
 10
74.16997746626653
 20
-129.8173990560873
 10
74.16997746626653
 20
-129.8173990560873
 10
74.16997746626653
 20
-129.8173990560873
 10
74.3804728004153
 20
-129.8173990560873
 10
74.3804728004153
 20
-129.8173990560873
 10
74.3804728004153
 20
-129.8173990560873
 10
74.3804728004153
 20
-130.5284667642429
 10
74.3804728004153
 20
-130.5284667642429
 10
74.3804728004153
 20
-130.5284667642429
 10
74.83798148085648
 20
-130.6042588649184
 10
74.83798148085648
 20
-130.6042588649184
 10
74.80129121393857
 20
-130.5332898979222
 10
74.75788301082441
 20
-130.4382052625294
 10
74.75788301082441
 20
-130.3010904622164
 10
74.75788301082441
 20
-130.0079128364216
 10
74.95924884193728
 20
-129.7340277453443
 10
75.29772947336308
 20
-129.7340277453443
 10
75.64103323846821
 20
-129.7340277453443
 10
75.89493677573113
 20
-129.9930989258351
 10
75.89493677573113
 20
-130.3427761175879
 97
        0
 97
        0
 75
     2
 76
     1
 98
        0
  0
ENDBLK
  5
B7
330
B4
100
AcDbEntity
  8
0
100
AcDbBlockEnd
  0
BLOCK
  5
CA
330
C8
100
AcDbEntity
  8
0
100
AcDbBlockBegin
  2
block 3
 70
     0
 10
0.0
 20
0.0
 30
0.0
  3
block 3
  1

  0
SPLINE
  5
CC
330
C8
100
AcDbEntity
  8
_U+30EC_U+30A4_U+30E4_U+30FC 1
370
     0
100
AcDbSpline
210
0.0
220
0.0
230
1.0
 70
    11
 71
     3
 72
    26
 73
    22
 74
     0
 42
0.0000000001
 43
0.0000000001
 12
1.0
 22
0.0
 32
0.0
 13
1.0
 23
0.0
 33
0.0
 40
0.0
 40
0.0
 40
0.0
 40
0.0
 40
1.0
 40
1.0
 40
1.0
 40
2.0
 40
2.0
 40
2.0
 40
3.0
 40
3.0
 40
3.0
 40
4.0
 40
4.0
 40
4.0
 40
5.0
 40
5.0
 40
5.0
 40
6.0
 40
6.0
 40
6.0
 40
7.0
 40
7.0
 40
7.0
 40
7.0
 10
107.2689045955786
 20
-134.8355251399022
 30
0.0
 10
107.2689045955786
 20
-134.8355251399022
 30
0.0
 10
106.074834500391
 20
-134.8355251399022
 30
0.0
 10
106.074834500391
 20
-134.8355251399022
 30
0.0
 10
106.074834500391
 20
-134.8355251399022
 30
0.0
 10
106.074834500391
 20
-135.2165527005709
 30
0.0
 10
106.074834500391
 20
-135.2165527005709
 30
0.0
 10
106.074834500391
 20
-135.2165527005709
 30
0.0
 10
105.9146375603269
 20
-135.2165527005709
 30
0.0
 10
105.9146375603269
 20
-135.2165527005709
 30
0.0
 10
105.8984456115462
 20
-134.832769063514
 30
0.0
 10
105.72240123225
 20
-134.7790255739441
 30
0.0
 10
105.5987223043295
 20
-134.7449191286402
 30
0.0
 10
105.5987223043295
 20
-134.7449191286402
 30
0.0
 10
105.5987223043295
 20
-134.5764539594115
 30
0.0
 10
105.5987223043295
 20
-134.5764539594115
 30
0.0
 10
105.5987223043295
 20
-134.5764539594115
 30
0.0
 10
107.2689045955786
 20
-134.5764539594115
 30
0.0
 10
107.2689045955786
 20
-134.5764539594115
 30
0.0
 10
107.2689045955786
 20
-134.5764539594115
 30
0.0
 10
107.2689045955786
 20
-134.8355251399022
 30
0.0
 10
107.2689045955786
 20
-134.8355251399022
 30
0.0
  0
HATCH
  5
CD
330
C8
100
AcDbEntity
  8
_U+30EC_U+30A4_U+30E4_U+30FC 1
 62
   179
420
  2234388
100
AcDbHatch
 10
0.0
 20
0.0
 30
0.0
210
0.0
220
0.0
230
1.0
  2
SOLID
 70
     1
 71
     0
 91
        1
 92
        1
 93
        1
 72
     4
 94
        3
 73
     0
 74
     1
 95
       26
 96
       22
 40
0.0
 40
0.0
 40
0.0
 40
0.0
 40
1.0
 40
1.0
 40
1.0
 40
2.0
 40
2.0
 40
2.0
 40
3.0
 40
3.0
 40
3.0
 40
4.0
 40
4.0
 40
4.0
 40
5.0
 40
5.0
 40
5.0
 40
6.0
 40
6.0
 40
6.0
 40
7.0
 40
7.0
 40
7.0
 40
7.0
 10
107.2689045955786
 20
-134.8355251399022
 10
107.2689045955786
 20
-134.8355251399022
 10
106.074834500391
 20
-134.8355251399022
 10
106.074834500391
 20
-134.8355251399022
 10
106.074834500391
 20
-134.8355251399022
 10
106.074834500391
 20
-135.2165527005709
 10
106.074834500391
 20
-135.2165527005709
 10
106.074834500391
 20
-135.2165527005709
 10
105.9146375603269
 20
-135.2165527005709
 10
105.9146375603269
 20
-135.2165527005709
 10
105.8984456115462
 20
-134.832769063514
 10
105.72240123225
 20
-134.7790255739441
 10
105.5987223043295
 20
-134.7449191286402
 10
105.5987223043295
 20
-134.7449191286402
 10
105.5987223043295
 20
-134.5764539594115
 10
105.5987223043295
 20
-134.5764539594115
 10
105.5987223043295
 20
-134.5764539594115
 10
107.2689045955786
 20
-134.5764539594115
 10
107.2689045955786
 20
-134.5764539594115
 10
107.2689045955786
 20
-134.5764539594115
 10
107.2689045955786
 20
-134.8355251399022
 10
107.2689045955786
 20
-134.8355251399022
 97
        0
 97
        0
 75
     2
 76
     1
 98
        0
  0
SPLINE
  5
CE
330
C8
100
AcDbEntity
  8
_U+30EC_U+30A4_U+30E4_U+30FC 1
370
     0
100
AcDbSpline
210
0.0
220
0.0
230
1.0
 70
    11
 71
     3
 72
    53
 73
    49
 74
     0
 42
0.0000000001
 43
0.0000000001
 12
1.0
 22
0.0
 32
0.0
 13
1.0
 23
0.0
 33
0.0
 40
0.0
 40
0.0
 40
0.0
 40
0.0
 40
1.0
 40
1.0
 40
1.0
 40
2.0
 40
2.0
 40
2.0
 40
3.0
 40
3.0
 40
3.0
 40
4.0
 40
4.0
 40
4.0
 40
5.0
 40
5.0
 40
5.0
 40
6.0
 40
6.0
 40
6.0
 40
7.0
 40
7.0
 40
7.0
 40
8.0
 40
8.0
 40
8.0
 40
9.0
 40
9.0
 40
9.0
 40
10.0
 40
10.0
 40
10.0
 40
11.0
 40
11.0
 40
11.0
 40
12.0
 40
12.0
 40
12.0
 40
13.0
 40
13.0
 40
13.0
 40
14.0
 40
14.0
 40
14.0
 40
15.0
 40
15.0
 40
15.0
 40
16.0
 40
16.0
 40
16.0
 40
16.0
 10
107.3236816137941
 20
-133.4430175447642
 30
0.0
 10
107.3236816137941
 20
-133.5332790464778
 30
0.0
 10
107.3054226077223
 20
-133.6504122929763
 30
0.0
 10
107.2368652075658
 20
-133.7678900490233
 30
0.0
 10
107.1180094133247
 20
-133.9680500967163
 30
0.0
 10
106.9760714793324
 20
-133.9928547842101
 30
0.0
 10
106.8592827423824
 20
-134.0145588857672
 30
0.0
 10
106.8592827423824
 20
-134.0145588857672
 30
0.0
 10
106.8592827423824
 20
-133.7578992721161
 30
0.0
 10
106.8592827423824
 20
-133.7578992721161
 30
0.0
 10
107.0746012102105
 20
-133.6945095151875
 30
0.0
 10
107.1066405982234
 20
-133.5477484475159
 30
0.0
 10
107.1066405982234
 20
-133.4402614683761
 30
0.0
 10
107.1066405982234
 20
-133.2790309996664
 30
0.0
 10
106.998809109535
 20
-133.1029866203701
 30
0.0
 10
106.7473171391118
 20
-133.1029866203701
 30
0.0
 10
106.4703314620977
 20
-133.1029866203701
 30
0.0
 10
106.3948838709707
 20
-133.3107258781307
 30
0.0
 10
106.3948838709707
 20
-133.4499077357347
 30
0.0
 10
106.3948838709707
 20
-133.4867702574269
 30
0.0
 10
106.3948838709707
 20
-133.6504122929763
 30
0.0
 10
106.5344102381233
 20
-133.7530761384367
 30
0.0
 10
106.5344102381233
 20
-133.7530761384367
 30
0.0
 10
106.5140841747604
 20
-133.955992262518
 30
0.0
 10
106.5140841747604
 20
-133.955992262518
 30
0.0
 10
106.5140841747604
 20
-133.955992262518
 30
0.0
 10
105.5987223043295
 20
-133.8164658953653
 30
0.0
 10
105.5987223043295
 20
-133.8164658953653
 30
0.0
 10
105.5987223043295
 20
-133.8164658953653
 30
0.0
 10
105.5987223043295
 20
-132.9172959737151
 30
0.0
 10
105.5987223043295
 20
-132.9172959737151
 30
0.0
 10
105.5987223043295
 20
-132.9172959737151
 30
0.0
 10
105.8092176384783
 20
-132.9172959737151
 30
0.0
 10
105.8092176384783
 20
-132.9172959737151
 30
0.0
 10
105.8092176384783
 20
-132.9172959737151
 30
0.0
 10
105.8092176384783
 20
-133.6283636818707
 30
0.0
 10
105.8092176384783
 20
-133.6283636818707
 30
0.0
 10
105.8092176384783
 20
-133.6283636818707
 30
0.0
 10
106.2667263189194
 20
-133.7041557825462
 30
0.0
 10
106.2667263189194
 20
-133.7041557825462
 30
0.0
 10
106.2302083067758
 20
-133.63318681555
 30
0.0
 10
106.1868001036616
 20
-133.5381021801572
 30
0.0
 10
106.1868001036616
 20
-133.4009873798442
 30
0.0
 10
106.1868001036616
 20
-133.108154263598
 30
0.0
 10
106.3879936800002
 20
-132.8342691725206
 30
0.0
 10
106.7266465662003
 20
-132.8342691725206
 30
0.0
 10
107.0697780765312
 20
-132.8342691725206
 30
0.0
 10
107.3236816137941
 20
-133.0933403530114
 30
0.0
 10
107.3236816137941
 20
-133.4430175447642
 30
0.0
  0
HATCH
  5
CF
330
C8
100
AcDbEntity
  8
_U+30EC_U+30A4_U+30E4_U+30FC 1
 62
   179
420
  2234388
100
AcDbHatch
 10
0.0
 20
0.0
 30
0.0
210
0.0
220
0.0
230
1.0
  2
SOLID
 70
     1
 71
     0
 91
        1
 92
        1
 93
        1
 72
     4
 94
        3
 73
     0
 74
     1
 95
       53
 96
       49
 40
0.0
 40
0.0
 40
0.0
 40
0.0
 40
1.0
 40
1.0
 40
1.0
 40
2.0
 40
2.0
 40
2.0
 40
3.0
 40
3.0
 40
3.0
 40
4.0
 40
4.0
 40
4.0
 40
5.0
 40
5.0
 40
5.0
 40
6.0
 40
6.0
 40
6.0
 40
7.0
 40
7.0
 40
7.0
 40
8.0
 40
8.0
 40
8.0
 40
9.0
 40
9.0
 40
9.0
 40
10.0
 40
10.0
 40
10.0
 40
11.0
 40
11.0
 40
11.0
 40
12.0
 40
12.0
 40
12.0
 40
13.0
 40
13.0
 40
13.0
 40
14.0
 40
14.0
 40
14.0
 40
15.0
 40
15.0
 40
15.0
 40
16.0
 40
16.0
 40
16.0
 40
16.0
 10
107.3236816137941
 20
-133.4430175447642
 10
107.3236816137941
 20
-133.5332790464778
 10
107.3054226077223
 20
-133.6504122929763
 10
107.2368652075658
 20
-133.7678900490233
 10
107.1180094133247
 20
-133.9680500967163
 10
106.9760714793324
 20
-133.9928547842101
 10
106.8592827423824
 20
-134.0145588857672
 10
106.8592827423824
 20
-134.0145588857672
 10
106.8592827423824
 20
-133.7578992721161
 10
106.8592827423824
 20
-133.7578992721161
 10
107.0746012102105
 20
-133.6945095151875
 10
107.1066405982234
 20
-133.5477484475159
 10
107.1066405982234
 20
-133.4402614683761
 10
107.1066405982234
 20
-133.2790309996664
 10
106.998809109535
 20
-133.1029866203701
 10
106.7473171391118
 20
-133.1029866203701
 10
106.4703314620977
 20
-133.1029866203701
 10
106.3948838709707
 20
-133.3107258781307
 10
106.3948838709707
 20
-133.4499077357347
 10
106.3948838709707
 20
-133.4867702574269
 10
106.3948838709707
 20
-133.6504122929763
 10
106.5344102381233
 20
-133.7530761384367
 10
106.5344102381233
 20
-133.7530761384367
 10
106.5140841747604
 20
-133.955992262518
 10
106.5140841747604
 20
-133.955992262518
 10
106.5140841747604
 20
-133.955992262518
 10
105.5987223043295
 20
-133.8164658953653
 10
105.5987223043295
 20
-133.8164658953653
 10
105.5987223043295
 20
-133.8164658953653
 10
105.5987223043295
 20
-132.9172959737151
 10
105.5987223043295
 20
-132.9172959737151
 10
105.5987223043295
 20
-132.9172959737151
 10
105.8092176384783
 20
-132.9172959737151
 10
105.8092176384783
 20
-132.9172959737151
 10
105.8092176384783
 20
-132.9172959737151
 10
105.8092176384783
 20
-133.6283636818707
 10
105.8092176384783
 20
-133.6283636818707
 10
105.8092176384783
 20
-133.6283636818707
 10
106.2667263189194
 20
-133.7041557825462
 10
106.2667263189194
 20
-133.7041557825462
 10
106.2302083067758
 20
-133.63318681555
 10
106.1868001036616
 20
-133.5381021801572
 10
106.1868001036616
 20
-133.4009873798442
 10
106.1868001036616
 20
-133.108154263598
 10
106.3879936800002
 20
-132.8342691725206
 10
106.7266465662003
 20
-132.8342691725206
 10
107.0697780765312
 20
-132.8342691725206
 10
107.3236816137941
 20
-133.0933403530114
 10
107.3236816137941
 20
-133.4430175447642
 97
        0
 97
        0
 75
     2
 76
     1
 98
        0
  0
ENDBLK
  5
CB
330
C8
100
AcDbEntity
  8
0
100
AcDbBlockEnd
  0
BLOCK
  5
E2
330
E0
100
AcDbEntity
  8
0
100
AcDbBlockBegin
  2
block 4
 70
     0
 10
0.0
 20
0.0
 30
0.0
  3
block 4
  1

  0
SPLINE
  5
E4
330
E0
100
AcDbEntity
  8
_U+30EC_U+30A4_U+30E4_U+30FC 1
370
     0
100
AcDbSpline
210
0.0
220
0.0
230
1.0
 70
    11
 71
     3
 72
    62
 73
    58
 74
     0
 42
0.0000000001
 43
0.0000000001
 12
1.0
 22
0.0
 32
0.0
 13
1.0
 23
0.0
 33
0.0
 40
0.0
 40
0.0
 40
0.0
 40
0.0
 40
1.0
 40
1.0
 40
1.0
 40
2.0
 40
2.0
 40
2.0
 40
3.0
 40
3.0
 40
3.0
 40
4.0
 40
4.0
 40
4.0
 40
5.0
 40
5.0
 40
5.0
 40
6.0
 40
6.0
 40
6.0
 40
7.0
 40
7.0
 40
7.0
 40
8.0
 40
8.0
 40
8.0
 40
9.0
 40
9.0
 40
9.0
 40
10.0
 40
10.0
 40
10.0
 40
11.0
 40
11.0
 40
11.0
 40
12.0
 40
12.0
 40
12.0
 40
13.0
 40
13.0
 40
13.0
 40
14.0
 40
14.0
 40
14.0
 40
15.0
 40
15.0
 40
15.0
 40
16.0
 40
16.0
 40
16.0
 40
17.0
 40
17.0
 40
17.0
 40
18.0
 40
18.0
 40
18.0
 40
19.0
 40
19.0
 40
19.0
 40
19.0
 10
97.65949975857124
 20
-137.287055087206
 30
0.0
 10
97.65949975857124
 20
-137.3897189326665
 30
0.0
 10
97.63676212836859
 20
-137.6239854256634
 30
0.0
 10
97.43522404248148
 20
-137.7583441495882
 30
0.0
 10
97.31395668140068
 20
-137.838270364846
 30
0.0
 10
97.20646970226089
 20
-137.8424044794283
 30
0.0
 10
97.11517467190177
 20
-137.8472276131076
 30
0.0
 10
97.11517467190177
 20
-137.8472276131076
 30
0.0
 10
97.11517467190177
 20
-137.6102050437225
 30
0.0
 10
97.11517467190177
 20
-137.6102050437225
 30
0.0
 10
97.19510088715957
 20
-137.6081379864313
 30
0.0
 10
97.44900442442247
 20
-137.59676917133
 30
0.0
 10
97.44900442442247
 20
-137.2915337113369
 30
0.0
 10
97.44900442442247
 20
-137.1437391150196
 30
0.0
 10
97.37355683329551
 20
-136.9797525699217
 30
0.0
 10
97.12619897745456
 20
-136.9797525699217
 30
0.0
 10
97.00079750179147
 20
-136.9797525699217
 30
0.0
 10
96.94774303131862
 20
-137.0204046966477
 30
0.0
 10
96.91363658601465
 20
-137.0548556515002
 30
0.0
 10
96.83336586120834
 20
-137.1344373572095
 30
0.0
 10
96.81992998881586
 20
-137.259494323324
 30
0.0
 10
96.81992998881586
 20
-137.3187499656703
 30
0.0
 10
96.81992998881586
 20
-137.3394205385818
 30
0.0
 10
96.82234155565553
 20
-137.3780056080166
 30
0.0
 10
96.82647567023783
 20
-137.4076334291898
 30
0.0
 10
96.82647567023783
 20
-137.4076334291898
 30
0.0
 10
96.61632484563759
 20
-137.4076334291898
 30
0.0
 10
96.61632484563759
 20
-137.4076334291898
 30
0.0
 10
96.62321503660809
 20
-137.3669813024638
 30
0.0
 10
96.62528209389924
 20
-137.32116153251
 30
0.0
 10
96.62528209389924
 20
-137.314615851088
 30
0.0
 10
96.62528209389924
 20
-137.2436468840919
 30
0.0
 10
96.60254446369659
 20
-137.0297064544579
 30
0.0
 10
96.346229359594
 20
-137.0297064544579
 30
0.0
 10
96.15399303151706
 20
-137.0297064544579
 30
0.0
 10
96.09473738917076
 20
-137.1709553693531
 30
0.0
 10
96.09473738917076
 20
-137.2891221444972
 30
0.0
 10
96.09473738917076
 20
-137.5740315411273
 30
0.0
 10
96.346229359594
 20
-137.582988789389
 30
0.0
 10
96.42408851756065
 20
-137.5874674135198
 30
0.0
 10
96.42408851756065
 20
-137.5874674135198
 30
0.0
 10
96.42408851756065
 20
-137.8062309768332
 30
0.0
 10
96.42408851756065
 20
-137.8062309768332
 30
0.0
 10
96.28904077453886
 20
-137.796929219023
 30
0.0
 10
95.88183048818233
 20
-137.7673013978498
 30
0.0
 10
95.88183048818233
 20
-137.2756862721047
 30
0.0
 10
95.88183048818233
 20
-137.0341850785887
 30
0.0
 10
96.01894528849527
 20
-136.7747693885494
 30
0.0
 10
96.3393391686235
 20
-136.7747693885494
 30
0.0
 10
96.54053274496209
 20
-136.7747693885494
 30
0.0
 10
96.63010522757858
 20
-136.8770887244613
 30
0.0
 10
96.69625106089539
 20
-136.9842311940526
 30
0.0
 10
96.72587888206853
 20
-136.9184298702843
 30
0.0
 10
96.81303979784535
 20
-136.7224039371736
 30
0.0
 10
97.11276310506209
 20
-136.7224039371736
 30
0.0
 10
97.47897675514415
 20
-136.7224039371736
 30
0.0
 10
97.65949975857124
 20
-136.9887098181834
 30
0.0
 10
97.65949975857124
 20
-137.287055087206
 30
0.0
  0
HATCH
  5
E5
330
E0
100
AcDbEntity
  8
_U+30EC_U+30A4_U+30E4_U+30FC 1
 62
   179
420
  2234388
100
AcDbHatch
 10
0.0
 20
0.0
 30
0.0
210
0.0
220
0.0
230
1.0
  2
SOLID
 70
     1
 71
     0
 91
        1
 92
        1
 93
        1
 72
     4
 94
        3
 73
     0
 74
     1
 95
       62
 96
       58
 40
0.0
 40
0.0
 40
0.0
 40
0.0
 40
1.0
 40
1.0
 40
1.0
 40
2.0
 40
2.0
 40
2.0
 40
3.0
 40
3.0
 40
3.0
 40
4.0
 40
4.0
 40
4.0
 40
5.0
 40
5.0
 40
5.0
 40
6.0
 40
6.0
 40
6.0
 40
7.0
 40
7.0
 40
7.0
 40
8.0
 40
8.0
 40
8.0
 40
9.0
 40
9.0
 40
9.0
 40
10.0
 40
10.0
 40
10.0
 40
11.0
 40
11.0
 40
11.0
 40
12.0
 40
12.0
 40
12.0
 40
13.0
 40
13.0
 40
13.0
 40
14.0
 40
14.0
 40
14.0
 40
15.0
 40
15.0
 40
15.0
 40
16.0
 40
16.0
 40
16.0
 40
17.0
 40
17.0
 40
17.0
 40
18.0
 40
18.0
 40
18.0
 40
19.0
 40
19.0
 40
19.0
 40
19.0
 10
97.65949975857124
 20
-137.287055087206
 10
97.65949975857124
 20
-137.3897189326665
 10
97.63676212836859
 20
-137.6239854256634
 10
97.43522404248148
 20
-137.7583441495882
 10
97.31395668140068
 20
-137.838270364846
 10
97.20646970226089
 20
-137.8424044794283
 10
97.11517467190177
 20
-137.8472276131076
 10
97.11517467190177
 20
-137.8472276131076
 10
97.11517467190177
 20
-137.6102050437225
 10
97.11517467190177
 20
-137.6102050437225
 10
97.19510088715957
 20
-137.6081379864313
 10
97.44900442442247
 20
-137.59676917133
 10
97.44900442442247
 20
-137.2915337113369
 10
97.44900442442247
 20
-137.1437391150196
 10
97.37355683329551
 20
-136.9797525699217
 10
97.12619897745456
 20
-136.9797525699217
 10
97.00079750179147
 20
-136.9797525699217
 10
96.94774303131862
 20
-137.0204046966477
 10
96.91363658601465
 20
-137.0548556515002
 10
96.83336586120834
 20
-137.1344373572095
 10
96.81992998881586
 20
-137.259494323324
 10
96.81992998881586
 20
-137.3187499656703
 10
96.81992998881586
 20
-137.3394205385818
 10
96.82234155565553
 20
-137.3780056080166
 10
96.82647567023783
 20
-137.4076334291898
 10
96.82647567023783
 20
-137.4076334291898
 10
96.61632484563759
 20
-137.4076334291898
 10
96.61632484563759
 20
-137.4076334291898
 10
96.62321503660809
 20
-137.3669813024638
 10
96.62528209389924
 20
-137.32116153251
 10
96.62528209389924
 20
-137.314615851088
 10
96.62528209389924
 20
-137.2436468840919
 10
96.60254446369659
 20
-137.0297064544579
 10
96.346229359594
 20
-137.0297064544579
 10
96.15399303151706
 20
-137.0297064544579
 10
96.09473738917076
 20
-137.1709553693531
 10
96.09473738917076
 20
-137.2891221444972
 10
96.09473738917076
 20
-137.5740315411273
 10
96.346229359594
 20
-137.582988789389
 10
96.42408851756065
 20
-137.5874674135198
 10
96.42408851756065
 20
-137.5874674135198
 10
96.42408851756065
 20
-137.8062309768332
 10
96.42408851756065
 20
-137.8062309768332
 10
96.28904077453886
 20
-137.796929219023
 10
95.88183048818233
 20
-137.7673013978498
 10
95.88183048818233
 20
-137.2756862721047
 10
95.88183048818233
 20
-137.0341850785887
 10
96.01894528849527
 20
-136.7747693885494
 10
96.3393391686235
 20
-136.7747693885494
 10
96.54053274496209
 20
-136.7747693885494
 10
96.63010522757858
 20
-136.8770887244613
 10
96.69625106089539
 20
-136.9842311940526
 10
96.72587888206853
 20
-136.9184298702843
 10
96.81303979784535
 20
-136.7224039371736
 10
97.11276310506209
 20
-136.7224039371736
 10
97.47897675514415
 20
-136.7224039371736
 10
97.65949975857124
 20
-136.9887098181834
 10
97.65949975857124
 20
-137.287055087206
 97
        0
 97
        0
 75
     2
 76
     1
 98
        0
  0
POLYLINE
  5
E6
330
E0
100
AcDbEntity
  8
_U+30EC_U+30A4_U+30E4_U+30FC 1
370
     0
100
AcDb2dPolyline
 66
     1
 10
0.0
 20
0.0
 30
0.0
  0
VERTEX
  5
E7
330
E6
100
AcDbEntity
  8
_U+30EC_U+30A4_U+30E4_U+30FC 1
370
     0
100
AcDbVertex
100
AcDb2dVertex
 10
97.60437823080724
 20
-136.4857258773369
 30
0.0
  0
VERTEX
  5
E8
330
E6
100
AcDbEntity
  8
_U+30EC_U+30A4_U+30E4_U+30FC 1
370
     0
100
AcDbVertex
100
AcDb2dVertex
 10
97.33221568747251
 20
-136.4857258773369
 30
0.0
  0
VERTEX
  5
E9
330
E6
100
AcDbEntity
  8
_U+30EC_U+30A4_U+30E4_U+30FC 1
370
     0
100
AcDbVertex
100
AcDb2dVertex
 10
97.33221568747251
 20
-136.2145968626477
 30
0.0
  0
VERTEX
  5
EA
330
E6
100
AcDbEntity
  8
_U+30EC_U+30A4_U+30E4_U+30FC 1
370
     0
100
AcDbVertex
100
AcDb2dVertex
 10
97.60437823080724
 20
-136.2145968626477
 30
0.0
  0
VERTEX
  5
EB
330
E6
100
AcDbEntity
  8
_U+30EC_U+30A4_U+30E4_U+30FC 1
370
     0
100
AcDbVertex
100
AcDb2dVertex
 10
97.60437823080724
 20
-136.4857258773369
 30
0.0
  0
SEQEND
  5
EC
330
E6
100
AcDbEntity
  8
_U+30EC_U+30A4_U+30E4_U+30FC 1
370
     0
  0
HATCH
  5
ED
330
E0
100
AcDbEntity
  8
_U+30EC_U+30A4_U+30E4_U+30FC 1
 62
   179
420
  2234388
100
AcDbHatch
 10
0.0
 20
0.0
 30
0.0
210
0.0
220
0.0
230
1.0
  2
SOLID
 70
     1
 71
     0
 91
        1
 92
        1
 93
        4
 72
     1
 10
97.60437823080724
 20
-136.4857258773369
 11
97.33221568747251
 21
-136.4857258773369
 72
     1
 10
97.33221568747251
 20
-136.4857258773369
 11
97.33221568747251
 21
-136.2145968626477
 72
     1
 10
97.33221568747251
 20
-136.2145968626477
 11
97.60437823080724
 21
-136.2145968626477
 72
     1
 10
97.60437823080724
 20
-136.2145968626477
 11
97.60437823080724
 21
-136.4857258773369
 97
        0
 75
     2
 76
     1
 98
        0
  0
SPLINE
  5
EE
330
E0
100
AcDbEntity
  8
_U+30EC_U+30A4_U+30E4_U+30FC 1
370
     0
100
AcDbSpline
210
0.0
220
0.0
230
1.0
 70
    11
 71
     3
 72
    29
 73
    25
 74
     0
 42
0.0000000001
 43
0.0000000001
 12
1.0
 22
0.0
 32
0.0
 13
1.0
 23
0.0
 33
0.0
 40
0.0
 40
0.0
 40
0.0
 40
0.0
 40
1.0
 40
1.0
 40
1.0
 40
2.0
 40
2.0
 40
2.0
 40
3.0
 40
3.0
 40
3.0
 40
4.0
 40
4.0
 40
4.0
 40
5.0
 40
5.0
 40
5.0
 40
6.0
 40
6.0
 40
6.0
 40
7.0
 40
7.0
 40
7.0
 40
8.0
 40
8.0
 40
8.0
 40
8.0
 10
97.65949975857124
 20
-135.4218803914918
 30
0.0
 10
97.65949975857124
 20
-135.7092013549616
 30
0.0
 10
97.51067163360845
 20
-135.9820529173934
 30
0.0
 10
97.13308916842506
 20
-135.9820529173934
 30
0.0
 10
96.8564480009595
 20
-135.9820529173934
 30
0.0
 10
96.75343964595054
 20
-135.8297796969453
 30
0.0
 10
96.68729381263374
 20
-135.7157470363836
 30
0.0
 10
96.62321503660809
 20
-135.8501057603083
 30
0.0
 10
96.49953610868762
 20
-135.9320990328573
 30
0.0
 10
96.3255587866825
 20
-135.9320990328573
 30
0.0
 10
96.02824704630544
 20
-135.9320990328573
 30
0.0
 10
95.88183048818233
 20
-135.7181586032232
 30
0.0
 10
95.88183048818233
 20
-135.4218803914918
 30
0.0
 10
95.88183048818233
 20
-135.1169894410471
 30
0.0
 10
96.03754880411562
 20
-134.9120062596748
 30
0.0
 10
96.3255587866825
 20
-134.9120062596748
 30
0.0
 10
96.49953610868762
 20
-134.9120062596748
 30
0.0
 10
96.62321503660809
 20
-134.9960665895149
 30
0.0
 10
96.68729381263374
 20
-135.1304253134396
 30
0.0
 10
96.74207083084922
 20
-135.0349961684982
 30
0.0
 10
96.84507918585818
 20
-134.8644639419783
 30
0.0
 10
97.12861054429425
 20
-134.8644639419783
 30
0.0
 10
97.5334092638111
 20
-134.8644639419783
 30
0.0
 10
97.65949975857124
 20
-135.1648762682921
 30
0.0
 10
97.65949975857124
 20
-135.4218803914918
 30
0.0
  0
SPLINE
  5
EF
330
E0
100
AcDbEntity
  8
_U+30EC_U+30A4_U+30E4_U+30FC 1
370
     0
100
AcDbSpline
210
0.0
220
0.0
230
1.0
 70
    11
 71
     3
 72
    17
 73
    13
 74
     0
 42
0.0000000001
 43
0.0000000001
 12
1.0
 22
0.0
 32
0.0
 13
1.0
 23
0.0
 33
0.0
 40
0.0
 40
0.0
 40
0.0
 40
0.0
 40
1.0
 40
1.0
 40
1.0
 40
2.0
 40
2.0
 40
2.0
 40
3.0
 40
3.0
 40
3.0
 40
4.0
 40
4.0
 40
4.0
 40
4.0
 10
96.08991425549141
 20
-135.4218803914918
 30
0.0
 10
96.08991425549141
 20
-135.5996473185307
 30
0.0
 10
96.19292261050039
 20
-135.6905978393413
 30
0.0
 10
96.3393391686235
 20
-135.6905978393413
 30
0.0
 10
96.47231985435414
 20
-135.6905978393413
 30
0.0
 10
96.60047740640545
 20
-135.6134277004716
 30
0.0
 10
96.60047740640545
 20
-135.4218803914918
 30
0.0
 10
96.60047740640545
 20
-135.2310221016089
 30
0.0
 10
96.47231985435414
 20
-135.1531629436423
 30
0.0
 10
96.3393391686235
 20
-135.1531629436423
 30
0.0
 10
96.19292261050039
 20
-135.1531629436423
 30
0.0
 10
96.08991425549141
 20
-135.2468695408411
 30
0.0
 10
96.08991425549141
 20
-135.4218803914918
 30
0.0
  0
SPLINE
  5
F0
330
E0
100
AcDbEntity
  8
_U+30EC_U+30A4_U+30E4_U+30FC 1
370
     0
100
AcDbSpline
210
0.0
220
0.0
230
1.0
 70
    11
 71
     3
 72
    17
 73
    13
 74
     0
 42
0.0000000001
 43
0.0000000001
 12
1.0
 22
0.0
 32
0.0
 13
1.0
 23
0.0
 33
0.0
 40
0.0
 40
0.0
 40
0.0
 40
0.0
 40
1.0
 40
1.0
 40
1.0
 40
2.0
 40
2.0
 40
2.0
 40
3.0
 40
3.0
 40
3.0
 40
4.0
 40
4.0
 40
4.0
 40
4.0
 10
96.80373804003519
 20
-135.4218803914918
 30
0.0
 10
96.80373804003519
 20
-135.576909688328
 30
0.0
 10
96.89744463723397
 20
-135.7408962334259
 30
0.0
 10
97.11724172919291
 20
-135.7408962334259
 30
0.0
 10
97.33910587844301
 20
-135.7408962334259
 30
0.0
 10
97.44900442442247
 20
-135.60447045221
 30
0.0
 10
97.44900442442247
 20
-135.4218803914918
 30
0.0
 10
97.44900442442247
 20
-135.2217203437988
 30
0.0
 10
97.31636824824035
 20
-135.1035535686547
 30
0.0
 10
97.12413192016342
 20
-135.1035535686547
 30
0.0
 10
96.88366425529297
 20
-135.1035535686547
 30
0.0
 10
96.80373804003519
 20
-135.2785644193054
 30
0.0
 10
96.80373804003519
 20
-135.4218803914918
 30
0.0
  0
HATCH
  5
F1
330
E0
100
AcDbEntity
  8
_U+30EC_U+30A4_U+30E4_U+30FC 1
 62
   179
420
  2234388
100
AcDbHatch
 10
0.0
 20
0.0
 30
0.0
210
0.0
220
0.0
230
1.0
  2
SOLID
 70
     1
 71
     0
 91
        3
 92
        1
 93
        1
 72
     4
 94
        3
 73
     0
 74
     1
 95
       29
 96
       25
 40
0.0
 40
0.0
 40
0.0
 40
0.0
 40
1.0
 40
1.0
 40
1.0
 40
2.0
 40
2.0
 40
2.0
 40
3.0
 40
3.0
 40
3.0
 40
4.0
 40
4.0
 40
4.0
 40
5.0
 40
5.0
 40
5.0
 40
6.0
 40
6.0
 40
6.0
 40
7.0
 40
7.0
 40
7.0
 40
8.0
 40
8.0
 40
8.0
 40
8.0
 10
97.65949975857124
 20
-135.4218803914918
 10
97.65949975857124
 20
-135.7092013549616
 10
97.51067163360845
 20
-135.9820529173934
 10
97.13308916842506
 20
-135.9820529173934
 10
96.8564480009595
 20
-135.9820529173934
 10
96.75343964595054
 20
-135.8297796969453
 10
96.68729381263374
 20
-135.7157470363836
 10
96.62321503660809
 20
-135.8501057603083
 10
96.49953610868762
 20
-135.9320990328573
 10
96.3255587866825
 20
-135.9320990328573
 10
96.02824704630544
 20
-135.9320990328573
 10
95.88183048818233
 20
-135.7181586032232
 10
95.88183048818233
 20
-135.4218803914918
 10
95.88183048818233
 20
-135.1169894410471
 10
96.03754880411562
 20
-134.9120062596748
 10
96.3255587866825
 20
-134.9120062596748
 10
96.49953610868762
 20
-134.9120062596748
 10
96.62321503660809
 20
-134.9960665895149
 10
96.68729381263374
 20
-135.1304253134396
 10
96.74207083084922
 20
-135.0349961684982
 10
96.84507918585818
 20
-134.8644639419783
 10
97.12861054429425
 20
-134.8644639419783
 10
97.5334092638111
 20
-134.8644639419783
 10
97.65949975857124
 20
-135.1648762682921
 10
97.65949975857124
 20
-135.4218803914918
 97
        0
 97
        0
 92
        1
 93
        1
 72
     4
 94
        3
 73
     0
 74
     1
 95
       17
 96
       13
 40
0.0
 40
0.0
 40
0.0
 40
0.0
 40
1.0
 40
1.0
 40
1.0
 40
2.0
 40
2.0
 40
2.0
 40
3.0
 40
3.0
 40
3.0
 40
4.0
 40
4.0
 40
4.0
 40
4.0
 10
96.08991425549141
 20
-135.4218803914918
 10
96.08991425549141
 20
-135.5996473185307
 10
96.19292261050039
 20
-135.6905978393413
 10
96.3393391686235
 20
-135.6905978393413
 10
96.47231985435414
 20
-135.6905978393413
 10
96.60047740640545
 20
-135.6134277004716
 10
96.60047740640545
 20
-135.4218803914918
 10
96.60047740640545
 20
-135.2310221016089
 10
96.47231985435414
 20
-135.1531629436423
 10
96.3393391686235
 20
-135.1531629436423
 10
96.19292261050039
 20
-135.1531629436423
 10
96.08991425549141
 20
-135.2468695408411
 10
96.08991425549141
 20
-135.4218803914918
 97
        0
 97
        0
 92
        1
 93
        1
 72
     4
 94
        3
 73
     0
 74
     1
 95
       17
 96
       13
 40
0.0
 40
0.0
 40
0.0
 40
0.0
 40
1.0
 40
1.0
 40
1.0
 40
2.0
 40
2.0
 40
2.0
 40
3.0
 40
3.0
 40
3.0
 40
4.0
 40
4.0
 40
4.0
 40
4.0
 10
96.80373804003519
 20
-135.4218803914918
 10
96.80373804003519
 20
-135.576909688328
 10
96.89744463723397
 20
-135.7408962334259
 10
97.11724172919291
 20
-135.7408962334259
 10
97.33910587844301
 20
-135.7408962334259
 10
97.44900442442247
 20
-135.60447045221
 10
97.44900442442247
 20
-135.4218803914918
 10
97.44900442442247
 20
-135.2217203437988
 10
97.31636824824035
 20
-135.1035535686547
 10
97.12413192016342
 20
-135.1035535686547
 10
96.88366425529297
 20
-135.1035535686547
 10
96.80373804003519
 20
-135.2785644193054
 10
96.80373804003519
 20
-135.4218803914918
 97
        0
 97
        0
 75
     2
 76
     1
 98
        0
  0
ENDBLK
  5
E3
330
E0
100
AcDbEntity
  8
0
100
AcDbBlockEnd
  0
BLOCK
  5
100
330
FE
100
AcDbEntity
  8
0
100
AcDbBlockBegin
  2
block 5
 70
     0
 10
0.0
 20
0.0
 30
0.0
  3
block 5
  1

  0
SPLINE
  5
102
330
FE
100
AcDbEntity
  8
_U+30EC_U+30A4_U+30E4_U+30FC 1
370
     0
100
AcDbSpline
210
0.0
220
0.0
230
1.0
 70
    11
 71
     3
 72
    62
 73
    58
 74
     0
 42
0.0000000001
 43
0.0000000001
 12
1.0
 22
0.0
 32
0.0
 13
1.0
 23
0.0
 33
0.0
 40
0.0
 40
0.0
 40
0.0
 40
0.0
 40
1.0
 40
1.0
 40
1.0
 40
2.0
 40
2.0
 40
2.0
 40
3.0
 40
3.0
 40
3.0
 40
4.0
 40
4.0
 40
4.0
 40
5.0
 40
5.0
 40
5.0
 40
6.0
 40
6.0
 40
6.0
 40
7.0
 40
7.0
 40
7.0
 40
8.0
 40
8.0
 40
8.0
 40
9.0
 40
9.0
 40
9.0
 40
10.0
 40
10.0
 40
10.0
 40
11.0
 40
11.0
 40
11.0
 40
12.0
 40
12.0
 40
12.0
 40
13.0
 40
13.0
 40
13.0
 40
14.0
 40
14.0
 40
14.0
 40
15.0
 40
15.0
 40
15.0
 40
16.0
 40
16.0
 40
16.0
 40
17.0
 40
17.0
 40
17.0
 40
18.0
 40
18.0
 40
18.0
 40
19.0
 40
19.0
 40
19.0
 40
19.0
 10
86.55492348096544
 20
-141.6802408499966
 30
0.0
 10
86.44502493498597
 20
-141.6802408499966
 30
0.0
 10
86.19336070978846
 20
-141.657503219794
 30
0.0
 10
86.04918346373077
 20
-141.4563096434554
 30
0.0
 10
85.96357284092231
 20
-141.3350422823746
 30
0.0
 10
85.95874970724296
 20
-141.2275553032348
 30
0.0
 10
85.95375431878934
 20
-141.1359157633271
 30
0.0
 10
85.95375431878934
 20
-141.1359157633271
 30
0.0
 10
86.20800236560078
 20
-141.1359157633271
 30
0.0
 10
86.20800236560078
 20
-141.1359157633271
 30
0.0
 10
86.21041393244046
 20
-141.2158419785849
 30
0.0
 10
86.22264402141309
 20
-141.4700900253964
 30
0.0
 10
86.55010034728609
 20
-141.4700900253964
 30
0.0
 10
86.70891924915611
 20
-141.4700900253964
 30
0.0
 10
86.88496362845237
 20
-141.3942979247209
 30
0.0
 10
86.88496362845237
 20
-141.1472845784285
 30
0.0
 10
86.88496362845237
 20
-141.0215385932168
 30
0.0
 10
86.84086640624118
 20
-140.9688286322925
 30
0.0
 10
86.80434839409753
 20
-140.9347221869886
 30
0.0
 10
86.71873777128907
 20
-140.8544514621822
 30
0.0
 10
86.58437904736432
 20
-140.8410155897897
 30
0.0
 10
86.52081703566147
 20
-140.8410155897897
 30
0.0
 10
86.49876842455586
 20
-140.8410155897897
 30
0.0
 10
86.45725502395861
 20
-140.8430826470809
 30
0.0
 10
86.42538789072005
 20
-140.8475612712117
 30
0.0
 10
86.42538789072005
 20
-140.8475612712117
 30
0.0
 10
86.42538789072005
 20
-140.637065937063
 30
0.0
 10
86.42538789072005
 20
-140.637065937063
 30
0.0
 10
86.46948511293124
 20
-140.6439561280335
 30
0.0
 10
86.5184054688218
 20
-140.6463676948731
 30
0.0
 10
86.52564016934082
 20
-140.6463676948731
 30
0.0
 10
86.60143227001632
 20
-140.6463676948731
 30
0.0
 10
86.83122013888247
 20
-140.623285555122
 30
0.0
 10
86.83122013888247
 20
-140.3669704510194
 30
0.0
 10
86.83122013888247
 20
-140.175078632491
 30
0.0
 10
86.67963593753149
 20
-140.1154784805961
 30
0.0
 10
86.55251191412576
 20
-140.1154784805961
 30
0.0
 10
86.24710419935836
 20
-140.1154784805961
 30
0.0
 10
86.2372856772254
 20
-140.3669704510194
 30
0.0
 10
86.23246254354605
 20
-140.444829608986
 30
0.0
 10
86.23246254354605
 20
-140.444829608986
 30
0.0
 10
85.99785154100054
 20
-140.444829608986
 30
0.0
 10
85.99785154100054
 20
-140.444829608986
 30
0.0
 10
86.00749780835925
 20
-140.3097818659642
 30
0.0
 10
86.0393649415978
 20
-139.9025715796077
 30
0.0
 10
86.56715356993807
 20
-139.9025715796077
 30
0.0
 10
86.82622475042886
 20
-139.9025715796077
 30
0.0
 10
87.10493297518558
 20
-140.0400308894692
 30
0.0
 10
87.10493297518558
 20
-140.3600802600489
 30
0.0
 10
87.10493297518558
 20
-140.561618345936
 30
0.0
 10
86.99486217443184
 20
-140.650846319004
 30
0.0
 10
86.87996823999876
 20
-140.7169921523208
 30
0.0
 10
86.95093720699491
 20
-140.7469644830424
 30
0.0
 10
87.16108803159514
 20
-140.8341253988193
 30
0.0
 10
87.16108803159514
 20
-141.133848706036
 30
0.0
 10
87.16108803159514
 20
-141.4997178465695
 30
0.0
 10
86.87514510631941
 20
-141.6802408499966
 30
0.0
 10
86.55492348096544
 20
-141.6802408499966
 30
0.0
  0
HATCH
  5
103
330
FE
100
AcDbEntity
  8
_U+30EC_U+30A4_U+30E4_U+30FC 1
 62
   179
420
  2234388
100
AcDbHatch
 10
0.0
 20
0.0
 30
0.0
210
0.0
220
0.0
230
1.0
  2
SOLID
 70
     1
 71
     0
 91
        1
 92
        1
 93
        1
 72
     4
 94
        3
 73
     0
 74
     1
 95
       62
 96
       58
 40
0.0
 40
0.0
 40
0.0
 40
0.0
 40
1.0
 40
1.0
 40
1.0
 40
2.0
 40
2.0
 40
2.0
 40
3.0
 40
3.0
 40
3.0
 40
4.0
 40
4.0
 40
4.0
 40
5.0
 40
5.0
 40
5.0
 40
6.0
 40
6.0
 40
6.0
 40
7.0
 40
7.0
 40
7.0
 40
8.0
 40
8.0
 40
8.0
 40
9.0
 40
9.0
 40
9.0
 40
10.0
 40
10.0
 40
10.0
 40
11.0
 40
11.0
 40
11.0
 40
12.0
 40
12.0
 40
12.0
 40
13.0
 40
13.0
 40
13.0
 40
14.0
 40
14.0
 40
14.0
 40
15.0
 40
15.0
 40
15.0
 40
16.0
 40
16.0
 40
16.0
 40
17.0
 40
17.0
 40
17.0
 40
18.0
 40
18.0
 40
18.0
 40
19.0
 40
19.0
 40
19.0
 40
19.0
 10
86.55492348096544
 20
-141.6802408499966
 10
86.44502493498597
 20
-141.6802408499966
 10
86.19336070978846
 20
-141.657503219794
 10
86.04918346373077
 20
-141.4563096434554
 10
85.96357284092231
 20
-141.3350422823746
 10
85.95874970724296
 20
-141.2275553032348
 10
85.95375431878934
 20
-141.1359157633271
 10
85.95375431878934
 20
-141.1359157633271
 10
86.20800236560078
 20
-141.1359157633271
 10
86.20800236560078
 20
-141.1359157633271
 10
86.21041393244046
 20
-141.2158419785849
 10
86.22264402141309
 20
-141.4700900253964
 10
86.55010034728609
 20
-141.4700900253964
 10
86.70891924915611
 20
-141.4700900253964
 10
86.88496362845237
 20
-141.3942979247209
 10
86.88496362845237
 20
-141.1472845784285
 10
86.88496362845237
 20
-141.0215385932168
 10
86.84086640624118
 20
-140.9688286322925
 10
86.80434839409753
 20
-140.9347221869886
 10
86.71873777128907
 20
-140.8544514621822
 10
86.58437904736432
 20
-140.8410155897897
 10
86.52081703566147
 20
-140.8410155897897
 10
86.49876842455586
 20
-140.8410155897897
 10
86.45725502395861
 20
-140.8430826470809
 10
86.42538789072005
 20
-140.8475612712117
 10
86.42538789072005
 20
-140.8475612712117
 10
86.42538789072005
 20
-140.637065937063
 10
86.42538789072005
 20
-140.637065937063
 10
86.46948511293124
 20
-140.6439561280335
 10
86.5184054688218
 20
-140.6463676948731
 10
86.52564016934082
 20
-140.6463676948731
 10
86.60143227001632
 20
-140.6463676948731
 10
86.83122013888247
 20
-140.623285555122
 10
86.83122013888247
 20
-140.3669704510194
 10
86.83122013888247
 20
-140.175078632491
 10
86.67963593753149
 20
-140.1154784805961
 10
86.55251191412576
 20
-140.1154784805961
 10
86.24710419935836
 20
-140.1154784805961
 10
86.2372856772254
 20
-140.3669704510194
 10
86.23246254354605
 20
-140.444829608986
 10
86.23246254354605
 20
-140.444829608986
 10
85.99785154100054
 20
-140.444829608986
 10
85.99785154100054
 20
-140.444829608986
 10
86.00749780835925
 20
-140.3097818659642
 10
86.0393649415978
 20
-139.9025715796077
 10
86.56715356993807
 20
-139.9025715796077
 10
86.82622475042886
 20
-139.9025715796077
 10
87.10493297518558
 20
-140.0400308894692
 10
87.10493297518558
 20
-140.3600802600489
 10
87.10493297518558
 20
-140.561618345936
 10
86.99486217443184
 20
-140.650846319004
 10
86.87996823999876
 20
-140.7169921523208
 10
86.95093720699491
 20
-140.7469644830424
 10
87.16108803159514
 20
-140.8341253988193
 10
87.16108803159514
 20
-141.133848706036
 10
87.16108803159514
 20
-141.4997178465695
 10
86.87514510631941
 20
-141.6802408499966
 10
86.55492348096544
 20
-141.6802408499966
 97
        0
 97
        0
 75
     2
 76
     1
 98
        0
  0
SPLINE
  5
104
330
FE
100
AcDbEntity
  8
_U+30EC_U+30A4_U+30E4_U+30FC 1
370
     0
100
AcDbSpline
210
0.0
220
0.0
230
1.0
 70
    11
 71
     3
 72
    53
 73
    49
 74
     0
 42
0.0000000001
 43
0.0000000001
 12
1.0
 22
0.0
 32
0.0
 13
1.0
 23
0.0
 33
0.0
 40
0.0
 40
0.0
 40
0.0
 40
0.0
 40
1.0
 40
1.0
 40
1.0
 40
2.0
 40
2.0
 40
2.0
 40
3.0
 40
3.0
 40
3.0
 40
4.0
 40
4.0
 40
4.0
 40
5.0
 40
5.0
 40
5.0
 40
6.0
 40
6.0
 40
6.0
 40
7.0
 40
7.0
 40
7.0
 40
8.0
 40
8.0
 40
8.0
 40
9.0
 40
9.0
 40
9.0
 40
10.0
 40
10.0
 40
10.0
 40
11.0
 40
11.0
 40
11.0
 40
12.0
 40
12.0
 40
12.0
 40
13.0
 40
13.0
 40
13.0
 40
14.0
 40
14.0
 40
14.0
 40
15.0
 40
15.0
 40
15.0
 40
16.0
 40
16.0
 40
16.0
 40
16.0
 10
87.90109454182681
 20
-141.6802408499966
 30
0.0
 10
87.81066078533901
 20
-141.6802408499966
 30
0.0
 10
87.69352753884051
 20
-141.6619818439248
 30
0.0
 10
87.57604978279349
 20
-141.5934244437683
 30
0.0
 10
87.37571748032622
 20
-141.4742241399787
 30
0.0
 10
87.35125730238094
 20
-141.3326307155349
 30
0.0
 10
87.3293809460496
 20
-141.2158419785849
 30
0.0
 10
87.3293809460496
 20
-141.2158419785849
 30
0.0
 10
87.58586830492645
 20
-141.2158419785849
 30
0.0
 10
87.58586830492645
 20
-141.2158419785849
 30
0.0
 10
87.6494303166293
 20
-141.4308159368645
 30
0.0
 10
87.7960191295267
 20
-141.4631998344259
 30
0.0
 10
87.90367836344075
 20
-141.4631998344259
 30
0.0
 10
88.06490883215044
 20
-141.4631998344259
 30
0.0
 10
88.24095321144671
 20
-141.3557128552861
 30
0.0
 10
88.24095321144671
 20
-141.1038763753143
 30
0.0
 10
88.24095321144671
 20
-140.8272352078488
 30
0.0
 10
88.03321395368614
 20
-140.7514431071733
 30
0.0
 10
87.89385984130779
 20
-140.7514431071733
 30
0.0
 10
87.85716957438987
 20
-140.7514431071733
 30
0.0
 10
87.69352753884051
 20
-140.7514431071733
 30
0.0
 10
87.59086369338007
 20
-140.8913139838744
 30
0.0
 10
87.59086369338007
 20
-140.8913139838744
 30
0.0
 10
87.38794756929884
 20
-140.8706434109629
 30
0.0
 10
87.38794756929884
 20
-140.8706434109629
 30
0.0
 10
87.38794756929884
 20
-140.8706434109629
 30
0.0
 10
87.5273016816772
 20
-139.9556260500806
 30
0.0
 10
87.5273016816772
 20
-139.9556260500806
 30
0.0
 10
87.5273016816772
 20
-139.9556260500806
 30
0.0
 10
88.42664385810167
 20
-139.9556260500806
 30
0.0
 10
88.42664385810167
 20
-139.9556260500806
 30
0.0
 10
88.42664385810167
 20
-139.9556260500806
 30
0.0
 10
88.42664385810167
 20
-140.1657768746808
 30
0.0
 10
88.42664385810167
 20
-140.1657768746808
 30
0.0
 10
88.42664385810167
 20
-140.1657768746808
 30
0.0
 10
87.71540389517185
 20
-140.1657768746808
 30
0.0
 10
87.71540389517185
 20
-140.1657768746808
 30
0.0
 10
87.71540389517185
 20
-140.1657768746808
 30
0.0
 10
87.63961179449635
 20
-140.623285555122
 30
0.0
 10
87.63961179449635
 20
-140.623285555122
 30
0.0
 10
87.7105807614925
 20
-140.5867675429783
 30
0.0
 10
87.80583765165966
 20
-140.5433593398642
 30
0.0
 10
87.94278019719833
 20
-140.5433593398642
 30
0.0
 10
88.2359578229931
 20
-140.5433593398642
 30
0.0
 10
88.50967065929619
 20
-140.7445529162028
 30
0.0
 10
88.50967065929619
 20
-141.0832058024028
 30
0.0
 10
88.50967065929619
 20
-141.4266818222822
 30
0.0
 10
88.25059947880541
 20
-141.6802408499966
 30
0.0
 10
87.90109454182681
 20
-141.6802408499966
 30
0.0
  0
HATCH
  5
105
330
FE
100
AcDbEntity
  8
_U+30EC_U+30A4_U+30E4_U+30FC 1
 62
   179
420
  2234388
100
AcDbHatch
 10
0.0
 20
0.0
 30
0.0
210
0.0
220
0.0
230
1.0
  2
SOLID
 70
     1
 71
     0
 91
        1
 92
        1
 93
        1
 72
     4
 94
        3
 73
     0
 74
     1
 95
       53
 96
       49
 40
0.0
 40
0.0
 40
0.0
 40
0.0
 40
1.0
 40
1.0
 40
1.0
 40
2.0
 40
2.0
 40
2.0
 40
3.0
 40
3.0
 40
3.0
 40
4.0
 40
4.0
 40
4.0
 40
5.0
 40
5.0
 40
5.0
 40
6.0
 40
6.0
 40
6.0
 40
7.0
 40
7.0
 40
7.0
 40
8.0
 40
8.0
 40
8.0
 40
9.0
 40
9.0
 40
9.0
 40
10.0
 40
10.0
 40
10.0
 40
11.0
 40
11.0
 40
11.0
 40
12.0
 40
12.0
 40
12.0
 40
13.0
 40
13.0
 40
13.0
 40
14.0
 40
14.0
 40
14.0
 40
15.0
 40
15.0
 40
15.0
 40
16.0
 40
16.0
 40
16.0
 40
16.0
 10
87.90109454182681
 20
-141.6802408499966
 10
87.81066078533901
 20
-141.6802408499966
 10
87.69352753884051
 20
-141.6619818439248
 10
87.57604978279349
 20
-141.5934244437683
 10
87.37571748032622
 20
-141.4742241399787
 10
87.35125730238094
 20
-141.3326307155349
 10
87.3293809460496
 20
-141.2158419785849
 10
87.3293809460496
 20
-141.2158419785849
 10
87.58586830492645
 20
-141.2158419785849
 10
87.58586830492645
 20
-141.2158419785849
 10
87.6494303166293
 20
-141.4308159368645
 10
87.7960191295267
 20
-141.4631998344259
 10
87.90367836344075
 20
-141.4631998344259
 10
88.06490883215044
 20
-141.4631998344259
 10
88.24095321144671
 20
-141.3557128552861
 10
88.24095321144671
 20
-141.1038763753143
 10
88.24095321144671
 20
-140.8272352078488
 10
88.03321395368614
 20
-140.7514431071733
 10
87.89385984130779
 20
-140.7514431071733
 10
87.85716957438987
 20
-140.7514431071733
 10
87.69352753884051
 20
-140.7514431071733
 10
87.59086369338007
 20
-140.8913139838744
 10
87.59086369338007
 20
-140.8913139838744
 10
87.38794756929884
 20
-140.8706434109629
 10
87.38794756929884
 20
-140.8706434109629
 10
87.38794756929884
 20
-140.8706434109629
 10
87.5273016816772
 20
-139.9556260500806
 10
87.5273016816772
 20
-139.9556260500806
 10
87.5273016816772
 20
-139.9556260500806
 10
88.42664385810167
 20
-139.9556260500806
 10
88.42664385810167
 20
-139.9556260500806
 10
88.42664385810167
 20
-139.9556260500806
 10
88.42664385810167
 20
-140.1657768746808
 10
88.42664385810167
 20
-140.1657768746808
 10
88.42664385810167
 20
-140.1657768746808
 10
87.71540389517185
 20
-140.1657768746808
 10
87.71540389517185
 20
-140.1657768746808
 10
87.71540389517185
 20
-140.1657768746808
 10
87.63961179449635
 20
-140.623285555122
 10
87.63961179449635
 20
-140.623285555122
 10
87.7105807614925
 20
-140.5867675429783
 10
87.80583765165966
 20
-140.5433593398642
 10
87.94278019719833
 20
-140.5433593398642
 10
88.2359578229931
 20
-140.5433593398642
 10
88.50967065929619
 20
-140.7445529162028
 10
88.50967065929619
 20
-141.0832058024028
 10
88.50967065929619
 20
-141.4266818222822
 10
88.25059947880541
 20
-141.6802408499966
 10
87.90109454182681
 20
-141.6802408499966
 97
        0
 97
        0
 75
     2
 76
     1
 98
        0
  0
ENDBLK
  5
101
330
FE
100
AcDbEntity
  8
0
100
AcDbBlockEnd
  0
BLOCK
  5
110
330
10E
100
AcDbEntity
  8
0
100
AcDbBlockBegin
  2
block 6
 70
     0
 10
0.0
 20
0.0
 30
0.0
  3
block 6
  1

  0
SPLINE
  5
112
330
10E
100
AcDbEntity
  8
_U+30EC_U+30A4_U+30E4_U+30FC 1
370
     0
100
AcDbSpline
210
0.0
220
0.0
230
1.0
 70
    11
 71
     3
 72
    26
 73
    22
 74
     0
 42
0.0000000001
 43
0.0000000001
 12
1.0
 22
0.0
 32
0.0
 13
1.0
 23
0.0
 33
0.0
 40
0.0
 40
0.0
 40
0.0
 40
0.0
 40
1.0
 40
1.0
 40
1.0
 40
2.0
 40
2.0
 40
2.0
 40
3.0
 40
3.0
 40
3.0
 40
4.0
 40
4.0
 40
4.0
 40
5.0
 40
5.0
 40
5.0
 40
6.0
 40
6.0
 40
6.0
 40
7.0
 40
7.0
 40
7.0
 40
7.0
 10
99.13400062625817
 20
-141.2726860540916
 30
0.0
 10
99.13400062625817
 20
-141.2726860540916
 30
0.0
 10
99.13400062625817
 20
-140.0782714493554
 30
0.0
 10
99.13400062625817
 20
-140.0782714493554
 30
0.0
 10
99.13400062625817
 20
-140.0782714493554
 30
0.0
 10
98.79018009683024
 20
-140.0782714493554
 30
0.0
 10
98.79018009683024
 20
-140.0782714493554
 30
0.0
 10
98.79018009683024
 20
-140.0782714493554
 30
0.0
 10
98.79018009683024
 20
-139.9184190188398
 30
0.0
 10
98.79018009683024
 20
-139.9184190188398
 30
0.0
 10
99.13606768354933
 20
-139.9025715796077
 30
0.0
 10
99.18429902034282
 20
-139.7261826907629
 30
0.0
 10
99.21530487971006
 20
-139.602848272391
 30
0.0
 10
99.21530487971006
 20
-139.602848272391
 30
0.0
 10
99.36723359060959
 20
-139.602848272391
 30
0.0
 10
99.36723359060959
 20
-139.602848272391
 30
0.0
 10
99.36723359060959
 20
-139.602848272391
 30
0.0
 10
99.36723359060959
 20
-141.2726860540916
 30
0.0
 10
99.36723359060959
 20
-141.2726860540916
 30
0.0
 10
99.36723359060959
 20
-141.2726860540916
 30
0.0
 10
99.13400062625817
 20
-141.2726860540916
 30
0.0
 10
99.13400062625817
 20
-141.2726860540916
 30
0.0
  0
HATCH
  5
113
330
10E
100
AcDbEntity
  8
_U+30EC_U+30A4_U+30E4_U+30FC 1
 62
   179
420
  2234388
100
AcDbHatch
 10
0.0
 20
0.0
 30
0.0
210
0.0
220
0.0
230
1.0
  2
SOLID
 70
     1
 71
     0
 91
        1
 92
        1
 93
        1
 72
     4
 94
        3
 73
     0
 74
     1
 95
       26
 96
       22
 40
0.0
 40
0.0
 40
0.0
 40
0.0
 40
1.0
 40
1.0
 40
1.0
 40
2.0
 40
2.0
 40
2.0
 40
3.0
 40
3.0
 40
3.0
 40
4.0
 40
4.0
 40
4.0
 40
5.0
 40
5.0
 40
5.0
 40
6.0
 40
6.0
 40
6.0
 40
7.0
 40
7.0
 40
7.0
 40
7.0
 10
99.13400062625817
 20
-141.2726860540916
 10
99.13400062625817
 20
-141.2726860540916
 10
99.13400062625817
 20
-140.0782714493554
 10
99.13400062625817
 20
-140.0782714493554
 10
99.13400062625817
 20
-140.0782714493554
 10
98.79018009683024
 20
-140.0782714493554
 10
98.79018009683024
 20
-140.0782714493554
 10
98.79018009683024
 20
-140.0782714493554
 10
98.79018009683024
 20
-139.9184190188398
 10
98.79018009683024
 20
-139.9184190188398
 10
99.13606768354933
 20
-139.9025715796077
 10
99.18429902034282
 20
-139.7261826907629
 10
99.21530487971006
 20
-139.602848272391
 10
99.21530487971006
 20
-139.602848272391
 10
99.36723359060959
 20
-139.602848272391
 10
99.36723359060959
 20
-139.602848272391
 10
99.36723359060959
 20
-139.602848272391
 10
99.36723359060959
 20
-141.2726860540916
 10
99.36723359060959
 20
-141.2726860540916
 10
99.36723359060959
 20
-141.2726860540916
 10
99.13400062625817
 20
-141.2726860540916
 10
99.13400062625817
 20
-141.2726860540916
 97
        0
 97
        0
 75
     2
 76
     1
 98
        0
  0
SPLINE
  5
114
330
10E
100
AcDbEntity
  8
_U+30EC_U+30A4_U+30E4_U+30FC 1
370
     0
100
AcDbSpline
210
0.0
220
0.0
230
1.0
 70
    11
 71
     3
 72
    29
 73
    25
 74
     0
 42
0.0000000001
 43
0.0000000001
 12
1.0
 22
0.0
 32
0.0
 13
1.0
 23
0.0
 33
0.0
 40
0.0
 40
0.0
 40
0.0
 40
0.0
 40
1.0
 40
1.0
 40
1.0
 40
2.0
 40
2.0
 40
2.0
 40
3.0
 40
3.0
 40
3.0
 40
4.0
 40
4.0
 40
4.0
 40
5.0
 40
5.0
 40
5.0
 40
6.0
 40
6.0
 40
6.0
 40
7.0
 40
7.0
 40
7.0
 40
8.0
 40
8.0
 40
8.0
 40
8.0
 10
100.4086859558006
 20
-141.327463072307
 30
0.0
 10
100.1310112596895
 20
-141.327463072307
 30
0.0
 10
99.86711694551934
 20
-141.1786349473442
 30
0.0
 10
99.86711694551934
 20
-140.8013969917094
 30
0.0
 10
99.86711694551934
 20
-140.5247558242438
 30
0.0
 10
100.014567032288
 20
-140.4214029596863
 30
0.0
 10
100.1244655782675
 20
-140.3552571263695
 30
0.0
 10
99.99458547847358
 20
-140.2911783503439
 30
0.0
 10
99.91534828231283
 20
-140.1678439319719
 30
0.0
 10
99.91534828231283
 20
-139.9938666099668
 30
0.0
 10
99.91534828231283
 20
-139.6965548695898
 30
0.0
 10
100.1223985209763
 20
-139.5497938019181
 30
0.0
 10
100.4086859558006
 20
-139.5497938019181
 30
0.0
 10
100.703586129338
 20
-139.5497938019181
 30
0.0
 10
100.9016791197399
 20
-139.7055121178514
 30
0.0
 10
100.9016791197399
 20
-139.9938666099668
 30
0.0
 10
100.9016791197399
 20
-140.1678439319719
 30
0.0
 10
100.8200303567394
 20
-140.2911783503439
 30
0.0
 10
100.690494766494
 20
-140.3552571263695
 30
0.0
 10
100.7828233254987
 20
-140.4103786541335
 30
0.0
 10
100.9481879087907
 20
-140.513042499594
 30
0.0
 10
100.9481879087907
 20
-140.7969183675785
 30
0.0
 10
100.9481879087907
 20
-141.2017170870954
 30
0.0
 10
100.6574218498356
 20
-141.327463072307
 30
0.0
 10
100.4086859558006
 20
-141.327463072307
 30
0.0
  0
SPLINE
  5
115
330
10E
100
AcDbEntity
  8
_U+30EC_U+30A4_U+30E4_U+30FC 1
370
     0
100
AcDbSpline
210
0.0
220
0.0
230
1.0
 70
    11
 71
     3
 72
    17
 73
    13
 74
     0
 42
0.0000000001
 43
0.0000000001
 12
1.0
 22
0.0
 32
0.0
 13
1.0
 23
0.0
 33
0.0
 40
0.0
 40
0.0
 40
0.0
 40
0.0
 40
1.0
 40
1.0
 40
1.0
 40
2.0
 40
2.0
 40
2.0
 40
3.0
 40
3.0
 40
3.0
 40
4.0
 40
4.0
 40
4.0
 40
4.0
 10
100.4086859558006
 20
-140.4720458633195
 30
0.0
 10
100.2588243021922
 20
-140.4720458633195
 30
0.0
 10
100.1003499098707
 20
-140.5657524605183
 30
0.0
 10
100.1003499098707
 20
-140.7852050429287
 30
0.0
 10
100.1003499098707
 20
-141.0070691921788
 30
0.0
 10
100.2322970669558
 20
-141.1173122477068
 30
0.0
 10
100.4086859558006
 20
-141.1173122477068
 30
0.0
 10
100.6023003220717
 20
-141.1173122477068
 30
0.0
 10
100.7166774921819
 20
-140.9843315619761
 30
0.0
 10
100.7166774921819
 20
-140.7920952338992
 30
0.0
 10
100.7166774921819
 20
-140.5519720785773
 30
0.0
 10
100.5471787943077
 20
-140.4720458633195
 30
0.0
 10
100.4086859558006
 20
-140.4720458633195
 30
0.0
  0
SPLINE
  5
116
330
10E
100
AcDbEntity
  8
_U+30EC_U+30A4_U+30E4_U+30FC 1
370
     0
100
AcDbSpline
210
0.0
220
0.0
230
1.0
 70
    11
 71
     3
 72
    17
 73
    13
 74
     0
 42
0.0000000001
 43
0.0000000001
 12
1.0
 22
0.0
 32
0.0
 13
1.0
 23
0.0
 33
0.0
 40
0.0
 40
0.0
 40
0.0
 40
0.0
 40
1.0
 40
1.0
 40
1.0
 40
2.0
 40
2.0
 40
2.0
 40
3.0
 40
3.0
 40
3.0
 40
4.0
 40
4.0
 40
4.0
 40
4.0
 10
100.4086859558006
 20
-139.7582220787757
 30
0.0
 10
100.2367756910866
 20
-139.7582220787757
 30
0.0
 10
100.1489257562128
 20
-139.8612304337847
 30
0.0
 10
100.1489257562128
 20
-140.0073024823593
 30
0.0
 10
100.1489257562128
 20
-140.1402831680899
 30
0.0
 10
100.2236843282427
 20
-140.2684407201412
 30
0.0
 10
100.4086859558006
 20
-140.2684407201412
 30
0.0
 10
100.59334307381
 20
-140.2684407201412
 30
0.0
 10
100.6684461553885
 20
-140.1402831680899
 30
0.0
 10
100.6684461553885
 20
-140.0073024823593
 30
0.0
 10
100.6684461553885
 20
-139.8612304337847
 30
0.0
 10
100.5781846536749
 20
-139.7582220787757
 30
0.0
 10
100.4086859558006
 20
-139.7582220787757
 30
0.0
  0
HATCH
  5
117
330
10E
100
AcDbEntity
  8
_U+30EC_U+30A4_U+30E4_U+30FC 1
 62
   179
420
  2234388
100
AcDbHatch
 10
0.0
 20
0.0
 30
0.0
210
0.0
220
0.0
230
1.0
  2
SOLID
 70
     1
 71
     0
 91
        3
 92
        1
 93
        1
 72
     4
 94
        3
 73
     0
 74
     1
 95
       29
 96
       25
 40
0.0
 40
0.0
 40
0.0
 40
0.0
 40
1.0
 40
1.0
 40
1.0
 40
2.0
 40
2.0
 40
2.0
 40
3.0
 40
3.0
 40
3.0
 40
4.0
 40
4.0
 40
4.0
 40
5.0
 40
5.0
 40
5.0
 40
6.0
 40
6.0
 40
6.0
 40
7.0
 40
7.0
 40
7.0
 40
8.0
 40
8.0
 40
8.0
 40
8.0
 10
100.4086859558006
 20
-141.327463072307
 10
100.1310112596895
 20
-141.327463072307
 10
99.86711694551934
 20
-141.1786349473442
 10
99.86711694551934
 20
-140.8013969917094
 10
99.86711694551934
 20
-140.5247558242438
 10
100.014567032288
 20
-140.4214029596863
 10
100.1244655782675
 20
-140.3552571263695
 10
99.99458547847358
 20
-140.2911783503439
 10
99.91534828231283
 20
-140.1678439319719
 10
99.91534828231283
 20
-139.9938666099668
 10
99.91534828231283
 20
-139.6965548695898
 10
100.1223985209763
 20
-139.5497938019181
 10
100.4086859558006
 20
-139.5497938019181
 10
100.703586129338
 20
-139.5497938019181
 10
100.9016791197399
 20
-139.7055121178514
 10
100.9016791197399
 20
-139.9938666099668
 10
100.9016791197399
 20
-140.1678439319719
 10
100.8200303567394
 20
-140.2911783503439
 10
100.690494766494
 20
-140.3552571263695
 10
100.7828233254987
 20
-140.4103786541335
 10
100.9481879087907
 20
-140.513042499594
 10
100.9481879087907
 20
-140.7969183675785
 10
100.9481879087907
 20
-141.2017170870954
 10
100.6574218498356
 20
-141.327463072307
 10
100.4086859558006
 20
-141.327463072307
 97
        0
 97
        0
 92
        1
 93
        1
 72
     4
 94
        3
 73
     0
 74
     1
 95
       17
 96
       13
 40
0.0
 40
0.0
 40
0.0
 40
0.0
 40
1.0
 40
1.0
 40
1.0
 40
2.0
 40
2.0
 40
2.0
 40
3.0
 40
3.0
 40
3.0
 40
4.0
 40
4.0
 40
4.0
 40
4.0
 10
100.4086859558006
 20
-140.4720458633195
 10
100.2588243021922
 20
-140.4720458633195
 10
100.1003499098707
 20
-140.5657524605183
 10
100.1003499098707
 20
-140.7852050429287
 10
100.1003499098707
 20
-141.0070691921788
 10
100.2322970669558
 20
-141.1173122477068
 10
100.4086859558006
 20
-141.1173122477068
 10
100.6023003220717
 20
-141.1173122477068
 10
100.7166774921819
 20
-140.9843315619761
 10
100.7166774921819
 20
-140.7920952338992
 10
100.7166774921819
 20
-140.5519720785773
 10
100.5471787943077
 20
-140.4720458633195
 10
100.4086859558006
 20
-140.4720458633195
 97
        0
 97
        0
 92
        1
 93
        1
 72
     4
 94
        3
 73
     0
 74
     1
 95
       17
 96
       13
 40
0.0
 40
0.0
 40
0.0
 40
0.0
 40
1.0
 40
1.0
 40
1.0
 40
2.0
 40
2.0
 40
2.0
 40
3.0
 40
3.0
 40
3.0
 40
4.0
 40
4.0
 40
4.0
 40
4.0
 10
100.4086859558006
 20
-139.7582220787757
 10
100.2367756910866
 20
-139.7582220787757
 10
100.1489257562128
 20
-139.8612304337847
 10
100.1489257562128
 20
-140.0073024823593
 10
100.1489257562128
 20
-140.1402831680899
 10
100.2236843282427
 20
-140.2684407201412
 10
100.4086859558006
 20
-140.2684407201412
 10
100.59334307381
 20
-140.2684407201412
 10
100.6684461553885
 20
-140.1402831680899
 10
100.6684461553885
 20
-140.0073024823593
 10
100.6684461553885
 20
-139.8612304337847
 10
100.5781846536749
 20
-139.7582220787757
 10
100.4086859558006
 20
-139.7582220787757
 97
        0
 97
        0
 75
     2
 76
     1
 98
        0
  0
POLYLINE
  5
118
330
10E
100
AcDbEntity
  8
_U+30EC_U+30A4_U+30E4_U+30FC 1
370
     0
100
AcDb2dPolyline
 66
     1
 10
0.0
 20
0.0
 30
0.0
  0
VERTEX
  5
119
330
118
100
AcDbEntity
  8
_U+30EC_U+30A4_U+30E4_U+30FC 1
370
     0
100
AcDbVertex
100
AcDb2dVertex
 10
101.1748751917202
 20
-141.2726860540916
 30
0.0
  0
VERTEX
  5
11A
330
118
100
AcDbEntity
  8
_U+30EC_U+30A4_U+30E4_U+30FC 1
370
     0
100
AcDbVertex
100
AcDb2dVertex
 10
101.1748751917202
 20
-141.0005235107568
 30
0.0
  0
VERTEX
  5
11B
330
118
100
AcDbEntity
  8
_U+30EC_U+30A4_U+30E4_U+30FC 1
370
     0
100
AcDbVertex
100
AcDb2dVertex
 10
101.4367024485992
 20
-141.0005235107568
 30
0.0
  0
VERTEX
  5
11C
330
118
100
AcDbEntity
  8
_U+30EC_U+30A4_U+30E4_U+30FC 1
370
     0
100
AcDbVertex
100
AcDb2dVertex
 10
101.4367024485992
 20
-141.2726860540916
 30
0.0
  0
VERTEX
  5
11D
330
118
100
AcDbEntity
  8
_U+30EC_U+30A4_U+30E4_U+30FC 1
370
     0
100
AcDbVertex
100
AcDb2dVertex
 10
101.1748751917202
 20
-141.2726860540916
 30
0.0
  0
SEQEND
  5
11E
330
118
100
AcDbEntity
  8
_U+30EC_U+30A4_U+30E4_U+30FC 1
370
     0
  0
HATCH
  5
11F
330
10E
100
AcDbEntity
  8
_U+30EC_U+30A4_U+30E4_U+30FC 1
 62
   179
420
  2234388
100
AcDbHatch
 10
0.0
 20
0.0
 30
0.0
210
0.0
220
0.0
230
1.0
  2
SOLID
 70
     1
 71
     0
 91
        1
 92
        1
 93
        4
 72
     1
 10
101.1748751917202
 20
-141.2726860540916
 11
101.1748751917202
 21
-141.0005235107568
 72
     1
 10
101.1748751917202
 20
-141.0005235107568
 11
101.4367024485992
 21
-141.0005235107568
 72
     1
 10
101.4367024485992
 20
-141.0005235107568
 11
101.4367024485992
 21
-141.2726860540916
 72
     1
 10
101.4367024485992
 20
-141.2726860540916
 11
101.1748751917202
 21
-141.2726860540916
 97
        0
 75
     2
 76
     1
 98
        0
  0
SPLINE
  5
120
330
10E
100
AcDbEntity
  8
_U+30EC_U+30A4_U+30E4_U+30FC 1
370
     0
100
AcDbSpline
210
0.0
220
0.0
230
1.0
 70
    11
 71
     3
 72
    29
 73
    25
 74
     0
 42
0.0000000001
 43
0.0000000001
 12
1.0
 22
0.0
 32
0.0
 13
1.0
 23
0.0
 33
0.0
 40
0.0
 40
0.0
 40
0.0
 40
0.0
 40
1.0
 40
1.0
 40
1.0
 40
2.0
 40
2.0
 40
2.0
 40
3.0
 40
3.0
 40
3.0
 40
4.0
 40
4.0
 40
4.0
 40
5.0
 40
5.0
 40
5.0
 40
6.0
 40
6.0
 40
6.0
 40
7.0
 40
7.0
 40
7.0
 40
8.0
 40
8.0
 40
8.0
 40
8.0
 10
102.2028916845187
 20
-141.327463072307
 30
0.0
 10
101.9252169884076
 20
-141.327463072307
 30
0.0
 10
101.6613226742375
 20
-141.1786349473442
 30
0.0
 10
101.6613226742375
 20
-140.8013969917094
 30
0.0
 10
101.6613226742375
 20
-140.5247558242438
 30
0.0
 10
101.8087727610061
 20
-140.4214029596863
 30
0.0
 10
101.9186713069856
 20
-140.3552571263695
 30
0.0
 10
101.7887912071917
 20
-140.2911783503439
 30
0.0
 10
101.7095540110309
 20
-140.1678439319719
 30
0.0
 10
101.7095540110309
 20
-139.9938666099668
 30
0.0
 10
101.7095540110309
 20
-139.6965548695898
 30
0.0
 10
101.9166042496945
 20
-139.5497938019181
 30
0.0
 10
102.2028916845187
 20
-139.5497938019181
 30
0.0
 10
102.4977918580561
 20
-139.5497938019181
 30
0.0
 10
102.695884848458
 20
-139.7055121178514
 30
0.0
 10
102.695884848458
 20
-139.9938666099668
 30
0.0
 10
102.695884848458
 20
-140.1678439319719
 30
0.0
 10
102.6142360854576
 20
-140.2911783503439
 30
0.0
 10
102.4847004952122
 20
-140.3552571263695
 30
0.0
 10
102.5770290542169
 20
-140.4103786541335
 30
0.0
 10
102.7423936375089
 20
-140.513042499594
 30
0.0
 10
102.7423936375089
 20
-140.7969183675785
 30
0.0
 10
102.7423936375089
 20
-141.2017170870954
 30
0.0
 10
102.4516275785538
 20
-141.327463072307
 30
0.0
 10
102.2028916845187
 20
-141.327463072307
 30
0.0
  0
SPLINE
  5
121
330
10E
100
AcDbEntity
  8
_U+30EC_U+30A4_U+30E4_U+30FC 1
370
     0
100
AcDbSpline
210
0.0
220
0.0
230
1.0
 70
    11
 71
     3
 72
    17
 73
    13
 74
     0
 42
0.0000000001
 43
0.0000000001
 12
1.0
 22
0.0
 32
0.0
 13
1.0
 23
0.0
 33
0.0
 40
0.0
 40
0.0
 40
0.0
 40
0.0
 40
1.0
 40
1.0
 40
1.0
 40
2.0
 40
2.0
 40
2.0
 40
3.0
 40
3.0
 40
3.0
 40
4.0
 40
4.0
 40
4.0
 40
4.0
 10
102.2028916845187
 20
-140.4720458633195
 30
0.0
 10
102.0530300309104
 20
-140.4720458633195
 30
0.0
 10
101.8945556385889
 20
-140.5657524605183
 30
0.0
 10
101.8945556385889
 20
-140.7852050429287
 30
0.0
 10
101.8945556385889
 20
-141.0070691921788
 30
0.0
 10
102.0265027956739
 20
-141.1173122477068
 30
0.0
 10
102.2028916845187
 20
-141.1173122477068
 30
0.0
 10
102.3965060507898
 20
-141.1173122477068
 30
0.0
 10
102.5108832209001
 20
-140.9843315619761
 30
0.0
 10
102.5108832209001
 20
-140.7920952338992
 30
0.0
 10
102.5108832209001
 20
-140.5519720785773
 30
0.0
 10
102.3413845230258
 20
-140.4720458633195
 30
0.0
 10
102.2028916845187
 20
-140.4720458633195
 30
0.0
  0
SPLINE
  5
122
330
10E
100
AcDbEntity
  8
_U+30EC_U+30A4_U+30E4_U+30FC 1
370
     0
100
AcDbSpline
210
0.0
220
0.0
230
1.0
 70
    11
 71
     3
 72
    17
 73
    13
 74
     0
 42
0.0000000001
 43
0.0000000001
 12
1.0
 22
0.0
 32
0.0
 13
1.0
 23
0.0
 33
0.0
 40
0.0
 40
0.0
 40
0.0
 40
0.0
 40
1.0
 40
1.0
 40
1.0
 40
2.0
 40
2.0
 40
2.0
 40
3.0
 40
3.0
 40
3.0
 40
4.0
 40
4.0
 40
4.0
 40
4.0
 10
102.2028916845187
 20
-139.7582220787757
 30
0.0
 10
102.0309814198048
 20
-139.7582220787757
 30
0.0
 10
101.9431314849309
 20
-139.8612304337847
 30
0.0
 10
101.9431314849309
 20
-140.0073024823593
 30
0.0
 10
101.9431314849309
 20
-140.1402831680899
 30
0.0
 10
102.0178900569608
 20
-140.2684407201412
 30
0.0
 10
102.2028916845187
 20
-140.2684407201412
 30
0.0
 10
102.3875488025281
 20
-140.2684407201412
 30
0.0
 10
102.4626518841066
 20
-140.1402831680899
 30
0.0
 10
102.4626518841066
 20
-140.0073024823593
 30
0.0
 10
102.4626518841066
 20
-139.8612304337847
 30
0.0
 10
102.372390382393
 20
-139.7582220787757
 30
0.0
 10
102.2028916845187
 20
-139.7582220787757
 30
0.0
  0
HATCH
  5
123
330
10E
100
AcDbEntity
  8
_U+30EC_U+30A4_U+30E4_U+30FC 1
 62
   179
420
  2234388
100
AcDbHatch
 10
0.0
 20
0.0
 30
0.0
210
0.0
220
0.0
230
1.0
  2
SOLID
 70
     1
 71
     0
 91
        3
 92
        1
 93
        1
 72
     4
 94
        3
 73
     0
 74
     1
 95
       29
 96
       25
 40
0.0
 40
0.0
 40
0.0
 40
0.0
 40
1.0
 40
1.0
 40
1.0
 40
2.0
 40
2.0
 40
2.0
 40
3.0
 40
3.0
 40
3.0
 40
4.0
 40
4.0
 40
4.0
 40
5.0
 40
5.0
 40
5.0
 40
6.0
 40
6.0
 40
6.0
 40
7.0
 40
7.0
 40
7.0
 40
8.0
 40
8.0
 40
8.0
 40
8.0
 10
102.2028916845187
 20
-141.327463072307
 10
101.9252169884076
 20
-141.327463072307
 10
101.6613226742375
 20
-141.1786349473442
 10
101.6613226742375
 20
-140.8013969917094
 10
101.6613226742375
 20
-140.5247558242438
 10
101.8087727610061
 20
-140.4214029596863
 10
101.9186713069856
 20
-140.3552571263695
 10
101.7887912071917
 20
-140.2911783503439
 10
101.7095540110309
 20
-140.1678439319719
 10
101.7095540110309
 20
-139.9938666099668
 10
101.7095540110309
 20
-139.6965548695898
 10
101.9166042496945
 20
-139.5497938019181
 10
102.2028916845187
 20
-139.5497938019181
 10
102.4977918580561
 20
-139.5497938019181
 10
102.695884848458
 20
-139.7055121178514
 10
102.695884848458
 20
-139.9938666099668
 10
102.695884848458
 20
-140.1678439319719
 10
102.6142360854576
 20
-140.2911783503439
 10
102.4847004952122
 20
-140.3552571263695
 10
102.5770290542169
 20
-140.4103786541335
 10
102.7423936375089
 20
-140.513042499594
 10
102.7423936375089
 20
-140.7969183675785
 10
102.7423936375089
 20
-141.2017170870954
 10
102.4516275785538
 20
-141.327463072307
 10
102.2028916845187
 20
-141.327463072307
 97
        0
 97
        0
 92
        1
 93
        1
 72
     4
 94
        3
 73
     0
 74
     1
 95
       17
 96
       13
 40
0.0
 40
0.0
 40
0.0
 40
0.0
 40
1.0
 40
1.0
 40
1.0
 40
2.0
 40
2.0
 40
2.0
 40
3.0
 40
3.0
 40
3.0
 40
4.0
 40
4.0
 40
4.0
 40
4.0
 10
102.2028916845187
 20
-140.4720458633195
 10
102.0530300309104
 20
-140.4720458633195
 10
101.8945556385889
 20
-140.5657524605183
 10
101.8945556385889
 20
-140.7852050429287
 10
101.8945556385889
 20
-141.0070691921788
 10
102.0265027956739
 20
-141.1173122477068
 10
102.2028916845187
 20
-141.1173122477068
 10
102.3965060507898
 20
-141.1173122477068
 10
102.5108832209001
 20
-140.9843315619761
 10
102.5108832209001
 20
-140.7920952338992
 10
102.5108832209001
 20
-140.5519720785773
 10
102.3413845230258
 20
-140.4720458633195
 10
102.2028916845187
 20
-140.4720458633195
 97
        0
 97
        0
 92
        1
 93
        1
 72
     4
 94
        3
 73
     0
 74
     1
 95
       17
 96
       13
 40
0.0
 40
0.0
 40
0.0
 40
0.0
 40
1.0
 40
1.0
 40
1.0
 40
2.0
 40
2.0
 40
2.0
 40
3.0
 40
3.0
 40
3.0
 40
4.0
 40
4.0
 40
4.0
 40
4.0
 10
102.2028916845187
 20
-139.7582220787757
 10
102.0309814198048
 20
-139.7582220787757
 10
101.9431314849309
 20
-139.8612304337847
 10
101.9431314849309
 20
-140.0073024823593
 10
101.9431314849309
 20
-140.1402831680899
 10
102.0178900569608
 20
-140.2684407201412
 10
102.2028916845187
 20
-140.2684407201412
 10
102.3875488025281
 20
-140.2684407201412
 10
102.4626518841066
 20
-140.1402831680899
 10
102.4626518841066
 20
-140.0073024823593
 10
102.4626518841066
 20
-139.8612304337847
 10
102.372390382393
 20
-139.7582220787757
 10
102.2028916845187
 20
-139.7582220787757
 97
        0
 97
        0
 75
     2
 76
     1
 98
        0
  0
ENDBLK
  5
111
330
10E
100
AcDbEntity
  8
0
100
AcDbBlockEnd
  0
BLOCK
  5
133
330
131
100
AcDbEntity
  8
0
100
AcDbBlockBegin
  2
block 7
 70
     0
 10
0.0
 20
0.0
 30
0.0
  3
block 7
  1

  0
SPLINE
  5
135
330
131
100
AcDbEntity
  8
_U+30EC_U+30A4_U+30E4_U+30FC 1
370
     0
100
AcDbSpline
210
0.0
220
0.0
230
1.0
 70
    11
 71
     3
 72
    26
 73
    22
 74
     0
 42
0.0000000001
 43
0.0000000001
 12
1.0
 22
0.0
 32
0.0
 13
1.0
 23
0.0
 33
0.0
 40
0.0
 40
0.0
 40
0.0
 40
0.0
 40
1.0
 40
1.0
 40
1.0
 40
2.0
 40
2.0
 40
2.0
 40
3.0
 40
3.0
 40
3.0
 40
4.0
 40
4.0
 40
4.0
 40
5.0
 40
5.0
 40
5.0
 40
6.0
 40
6.0
 40
6.0
 40
7.0
 40
7.0
 40
7.0
 40
7.0
 10
106.3673231070887
 20
-127.6967705301418
 30
0.0
 10
106.3673231070887
 20
-127.6967705301418
 30
0.0
 10
105.1760090882893
 20
-127.6967705301418
 30
0.0
 10
105.1760090882893
 20
-127.6967705301418
 30
0.0
 10
105.1760090882893
 20
-127.6967705301418
 30
0.0
 10
105.1760090882893
 20
-128.0402465500212
 30
0.0
 10
105.1760090882893
 20
-128.0402465500212
 30
0.0
 10
105.1760090882893
 20
-128.0402465500212
 30
0.0
 10
105.0161566577737
 20
-128.0402465500212
 30
0.0
 10
105.0161566577737
 20
-128.0402465500212
 30
0.0
 10
105.0003092185416
 20
-127.6945312180764
 30
0.0
 10
104.8246093487939
 20
-127.6461276265086
 30
0.0
 10
104.7012749304219
 20
-127.6152940219156
 30
0.0
 10
104.7012749304219
 20
-127.6152940219156
 30
0.0
 10
104.7012749304219
 20
-127.4633653110161
 30
0.0
 10
104.7012749304219
 20
-127.4633653110161
 30
0.0
 10
104.7012749304219
 20
-127.4633653110161
 30
0.0
 10
106.3673231070887
 20
-127.4633653110161
 30
0.0
 10
106.3673231070887
 20
-127.4633653110161
 30
0.0
 10
106.3673231070887
 20
-127.4633653110161
 30
0.0
 10
106.3673231070887
 20
-127.6967705301418
 30
0.0
 10
106.3673231070887
 20
-127.6967705301418
 30
0.0
  0
HATCH
  5
136
330
131
100
AcDbEntity
  8
_U+30EC_U+30A4_U+30E4_U+30FC 1
 62
   179
420
  2234388
100
AcDbHatch
 10
0.0
 20
0.0
 30
0.0
210
0.0
220
0.0
230
1.0
  2
SOLID
 70
     1
 71
     0
 91
        1
 92
        1
 93
        1
 72
     4
 94
        3
 73
     0
 74
     1
 95
       26
 96
       22
 40
0.0
 40
0.0
 40
0.0
 40
0.0
 40
1.0
 40
1.0
 40
1.0
 40
2.0
 40
2.0
 40
2.0
 40
3.0
 40
3.0
 40
3.0
 40
4.0
 40
4.0
 40
4.0
 40
5.0
 40
5.0
 40
5.0
 40
6.0
 40
6.0
 40
6.0
 40
7.0
 40
7.0
 40
7.0
 40
7.0
 10
106.3673231070887
 20
-127.6967705301418
 10
106.3673231070887
 20
-127.6967705301418
 10
105.1760090882893
 20
-127.6967705301418
 10
105.1760090882893
 20
-127.6967705301418
 10
105.1760090882893
 20
-127.6967705301418
 10
105.1760090882893
 20
-128.0402465500212
 10
105.1760090882893
 20
-128.0402465500212
 10
105.1760090882893
 20
-128.0402465500212
 10
105.0161566577737
 20
-128.0402465500212
 10
105.0161566577737
 20
-128.0402465500212
 10
105.0003092185416
 20
-127.6945312180764
 10
104.8246093487939
 20
-127.6461276265086
 10
104.7012749304219
 20
-127.6152940219156
 10
104.7012749304219
 20
-127.6152940219156
 10
104.7012749304219
 20
-127.4633653110161
 10
104.7012749304219
 20
-127.4633653110161
 10
104.7012749304219
 20
-127.4633653110161
 10
106.3673231070887
 20
-127.4633653110161
 10
106.3673231070887
 20
-127.4633653110161
 10
106.3673231070887
 20
-127.4633653110161
 10
106.3673231070887
 20
-127.6967705301418
 10
106.3673231070887
 20
-127.6967705301418
 97
        0
 97
        0
 75
     2
 76
     1
 98
        0
  0
POLYLINE
  5
137
330
131
100
AcDbEntity
  8
_U+30EC_U+30A4_U+30E4_U+30FC 1
370
     0
100
AcDb2dPolyline
 66
     1
 10
0.0
 20
0.0
 30
0.0
  0
VERTEX
  5
138
330
137
100
AcDbEntity
  8
_U+30EC_U+30A4_U+30E4_U+30FC 1
370
     0
100
AcDbVertex
100
AcDb2dVertex
 10
106.3673231070887
 20
-126.8806274096861
 30
0.0
  0
VERTEX
  5
139
330
137
100
AcDbEntity
  8
_U+30EC_U+30A4_U+30E4_U+30FC 1
370
     0
100
AcDbVertex
100
AcDb2dVertex
 10
106.095849582851
 20
-126.8806274096861
 30
0.0
  0
VERTEX
  5
13A
330
137
100
AcDbEntity
  8
_U+30EC_U+30A4_U+30E4_U+30FC 1
370
     0
100
AcDbVertex
100
AcDb2dVertex
 10
106.095849582851
 20
-126.6186278980329
 30
0.0
  0
VERTEX
  5
13B
330
137
100
AcDbEntity
  8
_U+30EC_U+30A4_U+30E4_U+30FC 1
370
     0
100
AcDbVertex
100
AcDb2dVertex
 10
106.3673231070887
 20
-126.6186278980329
 30
0.0
  0
VERTEX
  5
13C
330
137
100
AcDbEntity
  8
_U+30EC_U+30A4_U+30E4_U+30FC 1
370
     0
100
AcDbVertex
100
AcDb2dVertex
 10
106.3673231070887
 20
-126.8806274096861
 30
0.0
  0
SEQEND
  5
13D
330
137
100
AcDbEntity
  8
_U+30EC_U+30A4_U+30E4_U+30FC 1
370
     0
  0
HATCH
  5
13E
330
131
100
AcDbEntity
  8
_U+30EC_U+30A4_U+30E4_U+30FC 1
 62
   179
420
  2234388
100
AcDbHatch
 10
0.0
 20
0.0
 30
0.0
210
0.0
220
0.0
230
1.0
  2
SOLID
 70
     1
 71
     0
 91
        1
 92
        1
 93
        4
 72
     1
 10
106.3673231070887
 20
-126.8806274096861
 11
106.095849582851
 21
-126.8806274096861
 72
     1
 10
106.095849582851
 20
-126.8806274096861
 11
106.095849582851
 21
-126.6186278980329
 72
     1
 10
106.095849582851
 20
-126.6186278980329
 11
106.3673231070887
 21
-126.6186278980329
 72
     1
 10
106.3673231070887
 20
-126.6186278980329
 11
106.3673231070887
 21
-126.8806274096861
 97
        0
 75
     2
 76
     1
 98
        0
  0
SPLINE
  5
13F
330
131
100
AcDbEntity
  8
_U+30EC_U+30A4_U+30E4_U+30FC 1
370
     0
100
AcDbSpline
210
0.0
220
0.0
230
1.0
 70
    11
 71
     3
 72
    44
 73
    40
 74
     0
 42
0.0000000001
 43
0.0000000001
 12
1.0
 22
0.0
 32
0.0
 13
1.0
 23
0.0
 33
0.0
 40
0.0
 40
0.0
 40
0.0
 40
0.0
 40
1.0
 40
1.0
 40
1.0
 40
2.0
 40
2.0
 40
2.0
 40
3.0
 40
3.0
 40
3.0
 40
4.0
 40
4.0
 40
4.0
 40
5.0
 40
5.0
 40
5.0
 40
6.0
 40
6.0
 40
6.0
 40
7.0
 40
7.0
 40
7.0
 40
8.0
 40
8.0
 40
8.0
 40
9.0
 40
9.0
 40
9.0
 40
10.0
 40
10.0
 40
10.0
 40
11.0
 40
11.0
 40
11.0
 40
12.0
 40
12.0
 40
12.0
 40
13.0
 40
13.0
 40
13.0
 40
13.0
 10
105.7396267096762
 20
-125.7559759885263
 30
0.0
 10
105.9108479552931
 20
-125.98283552623
 30
0.0
 10
105.9907741705509
 20
-126.0796427093655
 30
0.0
 10
106.1458034673872
 20
-126.1302856129987
 30
0.0
 10
106.1458034673872
 20
-126.1302856129987
 30
0.0
 10
106.1458034673872
 20
-125.3201714096422
 30
0.0
 10
106.1458034673872
 20
-125.3201714096422
 30
0.0
 10
106.1458034673872
 20
-125.3201714096422
 30
0.0
 10
106.3673231070887
 20
-125.3201714096422
 30
0.0
 10
106.3673231070887
 20
-125.3201714096422
 30
0.0
 10
106.3673231070887
 20
-125.3201714096422
 30
0.0
 10
106.3673231070887
 20
-126.3900458125865
 30
0.0
 10
106.3673231070887
 20
-126.3900458125865
 30
0.0
 10
105.9814724127407
 20
-126.3571451507024
 30
0.0
 10
105.8970675733521
 20
-126.2889322600944
 30
0.0
 10
105.5752956550298
 20
-125.8880954003856
 30
0.0
 10
105.3606662062987
 20
-125.6217895193758
 30
0.0
 10
105.2876301820114
 20
-125.5535766287679
 30
0.0
 10
105.1394910761457
 20
-125.5535766287679
 30
0.0
 10
105.0116780336429
 20
-125.5535766287679
 30
0.0
 10
104.8700846091992
 20
-125.6283352007978
 30
0.0
 10
104.8700846091992
 20
-125.8331461273959
 30
0.0
 10
104.8700846091992
 20
-126.1039306325365
 30
0.0
 10
105.1188205032342
 20
-126.1127156260239
 30
0.0
 10
105.2442219788973
 20
-126.1171942501547
 30
0.0
 10
105.2442219788973
 20
-126.1171942501547
 30
0.0
 10
105.2442219788973
 20
-126.3504272145062
 30
0.0
 10
105.2442219788973
 20
-126.3504272145062
 30
0.0
 10
105.1074516881329
 20
-126.3416422210188
 30
0.0
 10
104.9865288366006
 20
-126.330617915466
 30
0.0
 10
104.8587157940978
 20
-126.2470743499486
 30
0.0
 10
104.6850829816412
 20
-126.1325249250641
 30
0.0
 10
104.6485649694976
 20
-125.9387383040188
 30
0.0
 10
104.6485649694976
 20
-125.8176431977123
 30
0.0
 10
104.6485649694976
 20
-125.5292887055969
 30
0.0
 10
104.8473469789965
 20
-125.3134534734459
 30
0.0
 10
105.1415581334368
 20
-125.3134534734459
 30
0.0
 10
105.3882269701807
 20
-125.3134534734459
 30
0.0
 10
105.495369439772
 20
-125.4345485797525
 30
0.0
 10
105.7396267096762
 20
-125.7559759885263
 30
0.0
  0
HATCH
  5
140
330
131
100
AcDbEntity
  8
_U+30EC_U+30A4_U+30E4_U+30FC 1
 62
   179
420
  2234388
100
AcDbHatch
 10
0.0
 20
0.0
 30
0.0
210
0.0
220
0.0
230
1.0
  2
SOLID
 70
     1
 71
     0
 91
        1
 92
        1
 93
        1
 72
     4
 94
        3
 73
     0
 74
     1
 95
       44
 96
       40
 40
0.0
 40
0.0
 40
0.0
 40
0.0
 40
1.0
 40
1.0
 40
1.0
 40
2.0
 40
2.0
 40
2.0
 40
3.0
 40
3.0
 40
3.0
 40
4.0
 40
4.0
 40
4.0
 40
5.0
 40
5.0
 40
5.0
 40
6.0
 40
6.0
 40
6.0
 40
7.0
 40
7.0
 40
7.0
 40
8.0
 40
8.0
 40
8.0
 40
9.0
 40
9.0
 40
9.0
 40
10.0
 40
10.0
 40
10.0
 40
11.0
 40
11.0
 40
11.0
 40
12.0
 40
12.0
 40
12.0
 40
13.0
 40
13.0
 40
13.0
 40
13.0
 10
105.7396267096762
 20
-125.7559759885263
 10
105.9108479552931
 20
-125.98283552623
 10
105.9907741705509
 20
-126.0796427093655
 10
106.1458034673872
 20
-126.1302856129987
 10
106.1458034673872
 20
-126.1302856129987
 10
106.1458034673872
 20
-125.3201714096422
 10
106.1458034673872
 20
-125.3201714096422
 10
106.1458034673872
 20
-125.3201714096422
 10
106.3673231070887
 20
-125.3201714096422
 10
106.3673231070887
 20
-125.3201714096422
 10
106.3673231070887
 20
-125.3201714096422
 10
106.3673231070887
 20
-126.3900458125865
 10
106.3673231070887
 20
-126.3900458125865
 10
105.9814724127407
 20
-126.3571451507024
 10
105.8970675733521
 20
-126.2889322600944
 10
105.5752956550298
 20
-125.8880954003856
 10
105.3606662062987
 20
-125.6217895193758
 10
105.2876301820114
 20
-125.5535766287679
 10
105.1394910761457
 20
-125.5535766287679
 10
105.0116780336429
 20
-125.5535766287679
 10
104.8700846091992
 20
-125.6283352007978
 10
104.8700846091992
 20
-125.8331461273959
 10
104.8700846091992
 20
-126.1039306325365
 10
105.1188205032342
 20
-126.1127156260239
 10
105.2442219788973
 20
-126.1171942501547
 10
105.2442219788973
 20
-126.1171942501547
 10
105.2442219788973
 20
-126.3504272145062
 10
105.2442219788973
 20
-126.3504272145062
 10
105.1074516881329
 20
-126.3416422210188
 10
104.9865288366006
 20
-126.330617915466
 10
104.8587157940978
 20
-126.2470743499486
 10
104.6850829816412
 20
-126.1325249250641
 10
104.6485649694976
 20
-125.9387383040188
 10
104.6485649694976
 20
-125.8176431977123
 10
104.6485649694976
 20
-125.5292887055969
 10
104.8473469789965
 20
-125.3134534734459
 10
105.1415581334368
 20
-125.3134534734459
 10
105.3882269701807
 20
-125.3134534734459
 10
105.495369439772
 20
-125.4345485797525
 10
105.7396267096762
 20
-125.7559759885263
 97
        0
 97
        0
 75
     2
 76
     1
 98
        0
  0
ENDBLK
  5
134
330
131
100
AcDbEntity
  8
0
100
AcDbBlockEnd
  0
ENDSEC
  0
SECTION
  2
ENTITIES
  0
POLYLINE
  5
41
330
1F
100
AcDbEntity
  8
_U+30EC_U+30A4_U+30E4_U+30FC 1
370
     0
100
AcDb2dPolyline
 66
     1
 10
0.0
 20
0.0
 30
0.0
  0
VERTEX
  5
42
330
41
100
AcDbEntity
  8
_U+30EC_U+30A4_U+30E4_U+30FC 1
370
     0
100
AcDbVertex
100
AcDb2dVertex
 10
87.90058053358055
 20
-112.8301513606813
 30
0.0
  0
VERTEX
  5
43
330
41
100
AcDbEntity
  8
_U+30EC_U+30A4_U+30E4_U+30FC 1
370
     0
100
AcDbVertex
100
AcDb2dVertex
 10
88.42974720011492
 20
-112.8301513606813
 30
0.0
  0
VERTEX
  5
44
330
41
100
AcDbEntity
  8
_U+30EC_U+30A4_U+30E4_U+30FC 1
370
     0
100
AcDbVertex
100
AcDb2dVertex
 10
88.42974720011492
 20
-129.7047471897959
 30
0.0
  0
VERTEX
  5
45
330
41
100
AcDbEntity
  8
_U+30EC_U+30A4_U+30E4_U+30FC 1
370
     0
100
AcDbVertex
100
AcDb2dVertex
 10
105.3041666403406
 20
-129.7047471897959
 30
0.0
  0
VERTEX
  5
46
330
41
100
AcDbEntity
  8
_U+30EC_U+30A4_U+30E4_U+30FC 1
370
     0
100
AcDbVertex
100
AcDb2dVertex
 10
105.3041666403406
 20
-130.2928277452048
 30
0.0
  0
VERTEX
  5
47
330
41
100
AcDbEntity
  8
_U+30EC_U+30A4_U+30E4_U+30FC 1
370
     0
100
AcDbVertex
100
AcDb2dVertex
 10
88.37083331124063
 20
-130.2928277452048
 30
0.0
  0
VERTEX
  5
48
330
41
100
AcDbEntity
  8
_U+30EC_U+30A4_U+30E4_U+30FC 1
370
     0
100
AcDbVertex
100
AcDb2dVertex
 10
79.61030275787533
 20
-139.1708332985406
 30
0.0
  0
VERTEX
  5
49
330
41
100
AcDbEntity
  8
_U+30EC_U+30A4_U+30E4_U+30FC 1
370
     0
100
AcDbVertex
100
AcDb2dVertex
 10
95.36782775393608
 20
-139.1708332985406
 30
0.0
  0
VERTEX
  5
4A
330
41
100
AcDbEntity
  8
_U+30EC_U+30A4_U+30E4_U+30FC 1
370
     0
100
AcDbVertex
100
AcDb2dVertex
 10
95.36782775393608
 20
-137.9361110766271
 30
0.0
  0
VERTEX
  5
4B
330
41
100
AcDbEntity
  8
_U+30EC_U+30A4_U+30E4_U+30FC 1
370
     0
100
AcDbVertex
100
AcDb2dVertex
 10
95.95555553156667
 20
-137.9361110766271
 30
0.0
  0
VERTEX
  5
4C
330
41
100
AcDbEntity
  8
_U+30EC_U+30A4_U+30E4_U+30FC 1
370
     0
100
AcDbVertex
100
AcDb2dVertex
 10
95.95555553156667
 20
-139.758913853949
 30
0.0
  0
VERTEX
  5
4D
330
41
100
AcDbEntity
  8
_U+30EC_U+30A4_U+30E4_U+30FC 1
370
     0
100
AcDbVertex
100
AcDb2dVertex
 10
78.43431605452945
 20
-139.758913853949
 30
0.0
  0
VERTEX
  5
4E
330
41
100
AcDbEntity
  8
_U+30EC_U+30A4_U+30E4_U+30FC 1
370
     0
100
AcDbVertex
100
AcDb2dVertex
 10
78.43431605452945
 20
-122.2964138583149
 30
0.0
  0
VERTEX
  5
4F
330
41
100
AcDbEntity
  8
_U+30EC_U+30A4_U+30E4_U+30FC 1
370
     0
100
AcDbVertex
100
AcDb2dVertex
 10
80.37459378280661
 20
-122.2964138583149
 30
0.0
  0
VERTEX
  5
50
330
41
100
AcDbEntity
  8
_U+30EC_U+30A4_U+30E4_U+30FC 1
370
     0
100
AcDbVertex
100
AcDb2dVertex
 10
80.37459378280661
 20
-122.766666635975
 30
0.0
  0
VERTEX
  5
51
330
41
100
AcDbEntity
  8
_U+30EC_U+30A4_U+30E4_U+30FC 1
370
     0
100
AcDbVertex
100
AcDb2dVertex
 10
79.08113609134097
 20
-122.766666635975
 30
0.0
  0
VERTEX
  5
52
330
41
100
AcDbEntity
  8
_U+30EC_U+30A4_U+30E4_U+30FC 1
370
     0
100
AcDbVertex
100
AcDb2dVertex
 10
79.08113609134097
 20
-138.58310552091
 30
0.0
  0
VERTEX
  5
53
330
41
100
AcDbEntity
  8
_U+30EC_U+30A4_U+30E4_U+30FC 1
370
     0
100
AcDbVertex
100
AcDb2dVertex
 10
87.87112136933204
 20
-129.7929416342182
 30
0.0
  0
VERTEX
  5
54
330
41
100
AcDbEntity
  8
_U+30EC_U+30A4_U+30E4_U+30FC 1
370
     0
100
AcDbVertex
100
AcDb2dVertex
 10
87.90058053358055
 20
-112.8301513606813
 30
0.0
  0
SEQEND
  5
56
330
41
100
AcDbEntity
  8
_U+30EC_U+30A4_U+30E4_U+30FC 1
370
     0
  0
HATCH
  5
55
330
1F
100
AcDbEntity
  8
_U+30EC_U+30A4_U+30E4_U+30FC 1
 62
   253
420
 10066329
100
AcDbHatch
 10
0.0
 20
0.0
 30
0.0
210
0.0
220
0.0
230
1.0
  2
SOLID
 70
     1
 71
     0
 91
        1
 92
        1
 93
       18
 72
     1
 10
87.90058053358055
 20
-112.8301513606813
 11
88.42974720011492
 21
-112.8301513606813
 72
     1
 10
88.42974720011492
 20
-112.8301513606813
 11
88.42974720011492
 21
-129.7047471897959
 72
     1
 10
88.42974720011492
 20
-129.7047471897959
 11
105.3041666403406
 21
-129.7047471897959
 72
     1
 10
105.3041666403406
 20
-129.7047471897959
 11
105.3041666403406
 21
-130.2928277452048
 72
     1
 10
105.3041666403406
 20
-130.2928277452048
 11
88.37083331124063
 21
-130.2928277452048
 72
     1
 10
88.37083331124063
 20
-130.2928277452048
 11
79.61030275787533
 21
-139.1708332985406
 72
     1
 10
79.61030275787533
 20
-139.1708332985406
 11
95.36782775393608
 21
-139.1708332985406
 72
     1
 10
95.36782775393608
 20
-139.1708332985406
 11
95.36782775393608
 21
-137.9361110766271
 72
     1
 10
95.36782775393608
 20
-137.9361110766271
 11
95.95555553156667
 21
-137.9361110766271
 72
     1
 10
95.95555553156667
 20
-137.9361110766271
 11
95.95555553156667
 21
-139.758913853949
 72
     1
 10
95.95555553156667
 20
-139.758913853949
 11
78.43431605452945
 21
-139.758913853949
 72
     1
 10
78.43431605452945
 20
-139.758913853949
 11
78.43431605452945
 21
-122.2964138583149
 72
     1
 10
78.43431605452945
 20
-122.2964138583149
 11
80.37459378280661
 21
-122.2964138583149
 72
     1
 10
80.37459378280661
 20
-122.2964138583149
 11
80.37459378280661
 21
-122.766666635975
 72
     1
 10
80.37459378280661
 20
-122.766666635975
 11
79.08113609134097
 21
-122.766666635975
 72
     1
 10
79.08113609134097
 20
-122.766666635975
 11
79.08113609134097
 21
-138.58310552091
 72
     1
 10
79.08113609134097
 20
-138.58310552091
 11
87.87112136933204
 21
-129.7929416342182
 72
     1
 10
87.87112136933204
 20
-129.7929416342182
 11
87.90058053358055
 21
-112.8301513606813
 97
        0
 75
     2
 76
     1
 98
        0
  0
POLYLINE
  5
57
330
1F
100
AcDbEntity
  8
_U+30EC_U+30A4_U+30E4_U+30FC 1
 62
   179
420
  2234388
370
    25
100
AcDb2dPolyline
 66
     1
 10
0.0
 20
0.0
 30
0.0
  0
VERTEX
  5
58
330
57
100
AcDbEntity
  8
_U+30EC_U+30A4_U+30E4_U+30FC 1
 62
   179
420
  2234388
370
    25
100
AcDbVertex
100
AcDb2dVertex
 10
78.49376109148781
 20
-139.7499532983962
 30
0.0
  0
VERTEX
  5
59
330
57
100
AcDbEntity
  8
_U+30EC_U+30A4_U+30E4_U+30FC 1
 62
   179
420
  2234388
370
    25
100
AcDbVertex
100
AcDb2dVertex
 10
95.99344143989217
 20
-139.7499532983962
 30
0.0
  0
SEQEND
  5
5A
330
57
100
AcDbEntity
  8
_U+30EC_U+30A4_U+30E4_U+30FC 1
 62
   179
420
  2234388
370
    25
  0
POLYLINE
  5
5B
330
1F
100
AcDbEntity
  8
_U+30EC_U+30A4_U+30E4_U+30FC 1
 62
   179
420
  2234388
370
    25
100
AcDb2dPolyline
 66
     1
 10
0.0
 20
0.0
 30
0.0
  0
VERTEX
  5
5C
330
5B
100
AcDbEntity
  8
_U+30EC_U+30A4_U+30E4_U+30FC 1
 62
   179
420
  2234388
370
    25
100
AcDbVertex
100
AcDb2dVertex
 10
95.99344143989217
 20
-137.8499980210931
 30
0.0
  0
VERTEX
  5
5D
330
5B
100
AcDbEntity
  8
_U+30EC_U+30A4_U+30E4_U+30FC 1
 62
   179
420
  2234388
370
    25
100
AcDbVertex
100
AcDb2dVertex
 10
95.99344143989217
 20
-139.7499532983962
 30
0.0
  0
SEQEND
  5
5E
330
5B
100
AcDbEntity
  8
_U+30EC_U+30A4_U+30E4_U+30FC 1
 62
   179
420
  2234388
370
    25
  0
POLYLINE
  5
5F
330
1F
100
AcDbEntity
  8
_U+30EC_U+30A4_U+30E4_U+30FC 1
 62
   179
420
  2234388
370
    25
100
AcDb2dPolyline
 66
     1
 10
0.0
 20
0.0
 30
0.0
  0
VERTEX
  5
60
330
5F
100
AcDbEntity
  8
_U+30EC_U+30A4_U+30E4_U+30FC 1
 62
   179
420
  2234388
370
    25
100
AcDbVertex
100
AcDb2dVertex
 10
95.39364867741638
 20
-137.8499980210931
 30
0.0
  0
VERTEX
  5
61
330
5F
100
AcDbEntity
  8
_U+30EC_U+30A4_U+30E4_U+30FC 1
 62
   179
420
  2234388
370
    25
100
AcDbVertex
100
AcDb2dVertex
 10
95.99344143989217
 20
-137.8499980210931
 30
0.0
  0
SEQEND
  5
62
330
5F
100
AcDbEntity
  8
_U+30EC_U+30A4_U+30E4_U+30FC 1
 62
   179
420
  2234388
370
    25
  0
POLYLINE
  5
63
330
1F
100
AcDbEntity
  8
_U+30EC_U+30A4_U+30E4_U+30FC 1
 62
   179
420
  2234388
370
    25
100
AcDb2dPolyline
 66
     1
 10
0.0
 20
0.0
 30
0.0
  0
VERTEX
  5
64
330
63
100
AcDbEntity
  8
_U+30EC_U+30A4_U+30E4_U+30FC 1
 62
   179
420
  2234388
370
    25
100
AcDbVertex
100
AcDb2dVertex
 10
88.31794969126584
 20
-130.3500130229682
 30
0.0
  0
VERTEX
  5
65
330
63
100
AcDbEntity
  8
_U+30EC_U+30A4_U+30E4_U+30FC 1
 62
   179
420
  2234388
370
    25
100
AcDbVertex
100
AcDb2dVertex
 10
105.3937342556263
 20
-130.3500130229682
 30
0.0
  0
SEQEND
  5
66
330
63
100
AcDbEntity
  8
_U+30EC_U+30A4_U+30E4_U+30FC 1
 62
   179
420
  2234388
370
    25
  0
POLYLINE
  5
67
330
1F
100
AcDbEntity
  8
_U+30EC_U+30A4_U+30E4_U+30FC 1
 62
   179
420
  2234388
370
    25
100
AcDb2dPolyline
 66
     1
 10
0.0
 20
0.0
 30
0.0
  0
VERTEX
  5
68
330
67
100
AcDbEntity
  8
_U+30EC_U+30A4_U+30E4_U+30FC 1
 62
   179
420
  2234388
370
    25
100
AcDbVertex
100
AcDb2dVertex
 10
105.3937342556263
 20
-129.7498674675628
 30
0.0
  0
VERTEX
  5
69
330
67
100
AcDbEntity
  8
_U+30EC_U+30A4_U+30E4_U+30FC 1
 62
   179
420
  2234388
370
    25
100
AcDbVertex
100
AcDb2dVertex
 10
105.3937342556263
 20
-130.3500130229682
 30
0.0
  0
SEQEND
  5
6A
330
67
100
AcDbEntity
  8
_U+30EC_U+30A4_U+30E4_U+30FC 1
 62
   179
420
  2234388
370
    25
  0
POLYLINE
  5
6B
330
1F
100
AcDbEntity
  8
_U+30EC_U+30A4_U+30E4_U+30FC 1
 62
   179
420
  2234388
370
    25
100
AcDb2dPolyline
 66
     1
 10
0.0
 20
0.0
 30
0.0
  0
VERTEX
  5
6C
330
6B
100
AcDbEntity
  8
_U+30EC_U+30A4_U+30E4_U+30FC 1
 62
   179
420
  2234388
370
    25
100
AcDbVertex
100
AcDb2dVertex
 10
95.39364867741638
 20
-137.8499980210931
 30
0.0
  0
VERTEX
  5
6D
330
6B
100
AcDbEntity
  8
_U+30EC_U+30A4_U+30E4_U+30FC 1
 62
   179
420
  2234388
370
    25
100
AcDbVertex
100
AcDb2dVertex
 10
95.39364867741638
 20
-139.1501605207679
 30
0.0
  0
SEQEND
  5
6E
330
6B
100
AcDbEntity
  8
_U+30EC_U+30A4_U+30E4_U+30FC 1
 62
   179
420
  2234388
370
    25
  0
POLYLINE
  5
6F
330
1F
100
AcDbEntity
  8
_U+30EC_U+30A4_U+30E4_U+30FC 1
 62
   179
420
  2234388
370
    25
100
AcDb2dPolyline
 66
     1
 10
0.0
 20
0.0
 30
0.0
  0
VERTEX
  5
70
330
6F
100
AcDbEntity
  8
_U+30EC_U+30A4_U+30E4_U+30FC 1
 62
   179
420
  2234388
370
    25
100
AcDbVertex
100
AcDb2dVertex
 10
79.51797880466069
 20
-139.1501605207679
 30
0.0
  0
VERTEX
  5
71
330
6F
100
AcDbEntity
  8
_U+30EC_U+30A4_U+30E4_U+30FC 1
 62
   179
420
  2234388
370
    25
100
AcDbVertex
100
AcDb2dVertex
 10
95.39364867741638
 20
-139.1501605207679
 30
0.0
  0
SEQEND
  5
72
330
6F
100
AcDbEntity
  8
_U+30EC_U+30A4_U+30E4_U+30FC 1
 62
   179
420
  2234388
370
    25
  0
POLYLINE
  5
73
330
1F
100
AcDbEntity
  8
_U+30EC_U+30A4_U+30E4_U+30FC 1
 62
   179
420
  2234388
370
    25
100
AcDb2dPolyline
 66
     1
 10
0.0
 20
0.0
 30
0.0
  0
VERTEX
  5
74
330
73
100
AcDbEntity
  8
_U+30EC_U+30A4_U+30E4_U+30FC 1
 62
   179
420
  2234388
370
    25
100
AcDbVertex
100
AcDb2dVertex
 10
88.49363302011712
 20
-129.7498674675628
 30
0.0
  0
VERTEX
  5
75
330
73
100
AcDbEntity
  8
_U+30EC_U+30A4_U+30E4_U+30FC 1
 62
   179
420
  2234388
370
    25
100
AcDbVertex
100
AcDb2dVertex
 10
105.3937342556263
 20
-129.7498674675628
 30
0.0
  0
SEQEND
  5
76
330
73
100
AcDbEntity
  8
_U+30EC_U+30A4_U+30E4_U+30FC 1
 62
   179
420
  2234388
370
    25
  0
POLYLINE
  5
77
330
1F
100
AcDbEntity
  8
_U+30EC_U+30A4_U+30E4_U+30FC 1
 62
   179
420
  2234388
370
    25
100
AcDb2dPolyline
 66
     1
 10
0.0
 20
0.0
 30
0.0
  0
VERTEX
  5
78
330
77
100
AcDbEntity
  8
_U+30EC_U+30A4_U+30E4_U+30FC 1
 62
   179
420
  2234388
370
    25
100
AcDbVertex
100
AcDb2dVertex
 10
79.09369298215178
 20
-138.72573357643
 30
0.0
  0
VERTEX
  5
79
330
77
100
AcDbEntity
  8
_U+30EC_U+30A4_U+30E4_U+30FC 1
 62
   179
420
  2234388
370
    25
100
AcDbVertex
100
AcDb2dVertex
 10
87.8936991465338
 20
-129.9255860786296
 30
0.0
  0
SEQEND
  5
7A
330
77
100
AcDbEntity
  8
_U+30EC_U+30A4_U+30E4_U+30FC 1
 62
   179
420
  2234388
370
    25
  0
POLYLINE
  5
7B
330
1F
100
AcDbEntity
  8
_U+30EC_U+30A4_U+30E4_U+30FC 1
 62
   179
420
  2234388
370
    25
100
AcDb2dPolyline
 66
     1
 10
0.0
 20
0.0
 30
0.0
  0
VERTEX
  5
7C
330
7B
100
AcDbEntity
  8
_U+30EC_U+30A4_U+30E4_U+30FC 1
 62
   179
420
  2234388
370
    25
100
AcDbVertex
100
AcDb2dVertex
 10
79.51797880466069
 20
-139.1501605207679
 30
0.0
  0
VERTEX
  5
7D
330
7B
100
AcDbEntity
  8
_U+30EC_U+30A4_U+30E4_U+30FC 1
 62
   179
420
  2234388
370
    25
100
AcDbVertex
100
AcDb2dVertex
 10
88.31794969126584
 20
-130.3500130229682
 30
0.0
  0
SEQEND
  5
7E
330
7B
100
AcDbEntity
  8
_U+30EC_U+30A4_U+30E4_U+30FC 1
 62
   179
420
  2234388
370
    25
  0
POLYLINE
  5
7F
330
1F
100
AcDbEntity
  8
_U+30EC_U+30A4_U+30E4_U+30FC 1
 62
   179
420
  2234388
370
    25
100
AcDb2dPolyline
 66
     1
 10
0.0
 20
0.0
 30
0.0
  0
VERTEX
  5
80
330
7F
100
AcDbEntity
  8
_U+30EC_U+30A4_U+30E4_U+30FC 1
 62
   179
420
  2234388
370
    25
100
AcDbVertex
100
AcDb2dVertex
 10
88.49363302011712
 20
-129.7498674675628
 30
0.0
  0
VERTEX
  5
81
330
7F
100
AcDbEntity
  8
_U+30EC_U+30A4_U+30E4_U+30FC 1
 62
   179
420
  2234388
370
    25
100
AcDbVertex
100
AcDb2dVertex
 10
88.49363302011712
 20
-112.8499421940099
 30
0.0
  0
SEQEND
  5
82
330
7F
100
AcDbEntity
  8
_U+30EC_U+30A4_U+30E4_U+30FC 1
 62
   179
420
  2234388
370
    25
  0
POLYLINE
  5
83
330
1F
100
AcDbEntity
  8
_U+30EC_U+30A4_U+30E4_U+30FC 1
 62
   179
420
  2234388
370
    25
100
AcDb2dPolyline
 66
     1
 10
0.0
 20
0.0
 30
0.0
  0
VERTEX
  5
84
330
83
100
AcDbEntity
  8
_U+30EC_U+30A4_U+30E4_U+30FC 1
 62
   179
420
  2234388
370
    25
100
AcDbVertex
100
AcDb2dVertex
 10
79.09369298215178
 20
-138.72573357643
 30
0.0
  0
VERTEX
  5
85
330
83
100
AcDbEntity
  8
_U+30EC_U+30A4_U+30E4_U+30FC 1
 62
   179
420
  2234388
370
    25
100
AcDbVertex
100
AcDb2dVertex
 10
79.09369298215178
 20
-122.8500280248432
 30
0.0
  0
SEQEND
  5
86
330
83
100
AcDbEntity
  8
_U+30EC_U+30A4_U+30E4_U+30FC 1
 62
   179
420
  2234388
370
    25
  0
POLYLINE
  5
87
330
1F
100
AcDbEntity
  8
_U+30EC_U+30A4_U+30E4_U+30FC 1
 62
   179
420
  2234388
370
    25
100
AcDb2dPolyline
 66
     1
 10
0.0
 20
0.0
 30
0.0
  0
VERTEX
  5
88
330
87
100
AcDbEntity
  8
_U+30EC_U+30A4_U+30E4_U+30FC 1
 62
   179
420
  2234388
370
    25
100
AcDbVertex
100
AcDb2dVertex
 10
80.39371433787437
 20
-122.8500280248432
 30
0.0
  0
VERTEX
  5
89
330
87
100
AcDbEntity
  8
_U+30EC_U+30A4_U+30E4_U+30FC 1
 62
   179
420
  2234388
370
    25
100
AcDbVertex
100
AcDb2dVertex
 10
79.09369298215178
 20
-122.8500280248432
 30
0.0
  0
SEQEND
  5
8A
330
87
100
AcDbEntity
  8
_U+30EC_U+30A4_U+30E4_U+30FC 1
 62
   179
420
  2234388
370
    25
  0
POLYLINE
  5
8B
330
1F
100
AcDbEntity
  8
_U+30EC_U+30A4_U+30E4_U+30FC 1
 62
   179
420
  2234388
370
    25
100
AcDb2dPolyline
 66
     1
 10
0.0
 20
0.0
 30
0.0
  0
VERTEX
  5
8C
330
8B
100
AcDbEntity
  8
_U+30EC_U+30A4_U+30E4_U+30FC 1
 62
   179
420
  2234388
370
    25
100
AcDbVertex
100
AcDb2dVertex
 10
88.49363302011712
 20
-112.8499421940099
 30
0.0
  0
VERTEX
  5
8D
330
8B
100
AcDbEntity
  8
_U+30EC_U+30A4_U+30E4_U+30FC 1
 62
   179
420
  2234388
370
    25
100
AcDbVertex
100
AcDb2dVertex
 10
87.8936991465338
 20
-112.8499421940099
 30
0.0
  0
SEQEND
  5
8E
330
8B
100
AcDbEntity
  8
_U+30EC_U+30A4_U+30E4_U+30FC 1
 62
   179
420
  2234388
370
    25
  0
POLYLINE
  5
8F
330
1F
100
AcDbEntity
  8
_U+30EC_U+30A4_U+30E4_U+30FC 1
 62
   179
420
  2234388
370
    25
100
AcDb2dPolyline
 66
     1
 10
0.0
 20
0.0
 30
0.0
  0
VERTEX
  5
90
330
8F
100
AcDbEntity
  8
_U+30EC_U+30A4_U+30E4_U+30FC 1
 62
   179
420
  2234388
370
    25
100
AcDbVertex
100
AcDb2dVertex
 10
87.8936991465338
 20
-129.9255860786296
 30
0.0
  0
VERTEX
  5
91
330
8F
100
AcDbEntity
  8
_U+30EC_U+30A4_U+30E4_U+30FC 1
 62
   179
420
  2234388
370
    25
100
AcDbVertex
100
AcDb2dVertex
 10
87.8936991465338
 20
-112.8499421940099
 30
0.0
  0
SEQEND
  5
92
330
8F
100
AcDbEntity
  8
_U+30EC_U+30A4_U+30E4_U+30FC 1
 62
   179
420
  2234388
370
    25
  0
POLYLINE
  5
93
330
1F
100
AcDbEntity
  8
_U+30EC_U+30A4_U+30E4_U+30FC 1
 62
   179
420
  2234388
370
    25
100
AcDb2dPolyline
 66
     1
 10
0.0
 20
0.0
 30
0.0
  0
VERTEX
  5
94
330
93
100
AcDbEntity
  8
_U+30EC_U+30A4_U+30E4_U+30FC 1
 62
   179
420
  2234388
370
    25
100
AcDbVertex
100
AcDb2dVertex
 10
80.39371433787437
 20
-122.8500280248432
 30
0.0
  0
VERTEX
  5
95
330
93
100
AcDbEntity
  8
_U+30EC_U+30A4_U+30E4_U+30FC 1
 62
   179
420
  2234388
370
    25
100
AcDbVertex
100
AcDb2dVertex
 10
80.39371433787437
 20
-122.2499177472154
 30
0.0
  0
SEQEND
  5
96
330
93
100
AcDbEntity
  8
_U+30EC_U+30A4_U+30E4_U+30FC 1
 62
   179
420
  2234388
370
    25
  0
POLYLINE
  5
97
330
1F
100
AcDbEntity
  8
_U+30EC_U+30A4_U+30E4_U+30FC 1
 62
   179
420
  2234388
370
    25
100
AcDb2dPolyline
 66
     1
 10
0.0
 20
0.0
 30
0.0
  0
VERTEX
  5
98
330
97
100
AcDbEntity
  8
_U+30EC_U+30A4_U+30E4_U+30FC 1
 62
   179
420
  2234388
370
    25
100
AcDbVertex
100
AcDb2dVertex
 10
80.39371433787437
 20
-122.2499177472154
 30
0.0
  0
VERTEX
  5
99
330
97
100
AcDbEntity
  8
_U+30EC_U+30A4_U+30E4_U+30FC 1
 62
   179
420
  2234388
370
    25
100
AcDbVertex
100
AcDb2dVertex
 10
78.49376109148781
 20
-122.2499177472154
 30
0.0
  0
SEQEND
  5
9A
330
97
100
AcDbEntity
  8
_U+30EC_U+30A4_U+30E4_U+30FC 1
 62
   179
420
  2234388
370
    25
  0
POLYLINE
  5
9B
330
1F
100
AcDbEntity
  8
_U+30EC_U+30A4_U+30E4_U+30FC 1
 62
   179
420
  2234388
370
    25
100
AcDb2dPolyline
 66
     1
 10
0.0
 20
0.0
 30
0.0
  0
VERTEX
  5
9C
330
9B
100
AcDbEntity
  8
_U+30EC_U+30A4_U+30E4_U+30FC 1
 62
   179
420
  2234388
370
    25
100
AcDbVertex
100
AcDb2dVertex
 10
78.49376109148781
 20
-139.7499532983962
 30
0.0
  0
VERTEX
  5
9D
330
9B
100
AcDbEntity
  8
_U+30EC_U+30A4_U+30E4_U+30FC 1
 62
   179
420
  2234388
370
    25
100
AcDbVertex
100
AcDb2dVertex
 10
78.49376109148781
 20
-122.2499177472154
 30
0.0
  0
SEQEND
  5
9E
330
9B
100
AcDbEntity
  8
_U+30EC_U+30A4_U+30E4_U+30FC 1
 62
   179
420
  2234388
370
    25
  0
SPLINE
  5
9F
330
1F
100
AcDbEntity
  8
_U+30EC_U+30A4_U+30E4_U+30FC 1
 62
   179
420
  2234388
370
     9
100
AcDbSpline
210
0.0
220
0.0
230
1.0
 70
    11
 71
     3
 72
    17
 73
    13
 74
     0
 42
0.0000000001
 43
0.0000000001
 12
1.0
 22
0.0
 32
0.0
 13
1.0
 23
0.0
 33
0.0
 40
0.0
 40
0.0
 40
0.0
 40
0.0
 40
1.0
 40
1.0
 40
1.0
 40
2.0
 40
2.0
 40
2.0
 40
3.0
 40
3.0
 40
3.0
 40
4.0
 40
4.0
 40
4.0
 40
4.0
 10
76.54363888054242
 20
-122.2499177472154
 30
0.0
 10
76.54363888054242
 20
-122.2223305250001
 30
0.0
 10
76.52123749222504
 20
-122.1999644138946
 30
0.0
 10
76.4936855484835
 20
-122.1999644138946
 30
0.0
 10
76.46595721585757
 20
-122.1999644138946
 30
0.0
 10
76.4435558275402
 20
-122.2223305250001
 30
0.0
 10
76.4435558275402
 20
-122.2499177472154
 30
0.0
 10
76.4435558275402
 20
-122.2776460805417
 30
0.0
 10
76.46595721585757
 20
-122.3000121916473
 30
0.0
 10
76.4936855484835
 20
-122.3000121916473
 30
0.0
 10
76.52123749222504
 20
-122.3000121916473
 30
0.0
 10
76.54363888054242
 20
-122.2776460805417
 30
0.0
 10
76.54363888054242
 20
-122.2499177472154
 30
0.0
  0
SPLINE
  5
A0
330
1F
100
AcDbEntity
  8
_U+30EC_U+30A4_U+30E4_U+30FC 1
 62
   179
420
  2234388
370
     9
100
AcDbSpline
210
0.0
220
0.0
230
1.0
 70
    11
 71
     3
 72
    17
 73
    13
 74
     0
 42
0.0000000001
 43
0.0000000001
 12
1.0
 22
0.0
 32
0.0
 13
1.0
 23
0.0
 33
0.0
 40
0.0
 40
0.0
 40
0.0
 40
0.0
 40
1.0
 40
1.0
 40
1.0
 40
2.0
 40
2.0
 40
2.0
 40
3.0
 40
3.0
 40
3.0
 40
4.0
 40
4.0
 40
4.0
 40
4.0
 10
76.54363888054242
 20
-139.7499532983962
 30
0.0
 10
76.54363888054242
 20
-139.7224013539584
 30
0.0
 10
76.52123749222504
 20
-139.699999965075
 30
0.0
 10
76.4936855484835
 20
-139.699999965075
 30
0.0
 10
76.46595721585757
 20
-139.699999965075
 30
0.0
 10
76.4435558275402
 20
-139.7224013539584
 30
0.0
 10
76.4435558275402
 20
-139.7499532983962
 30
0.0
 10
76.4435558275402
 20
-139.7775052428333
 30
0.0
 10
76.46595721585757
 20
-139.7999066317167
 30
0.0
 10
76.4936855484835
 20
-139.7999066317167
 30
0.0
 10
76.52123749222504
 20
-139.7999066317167
 30
0.0
 10
76.54363888054242
 20
-139.7775052428333
 30
0.0
 10
76.54363888054242
 20
-139.7499532983962
 30
0.0
  0
SPLINE
  5
A1
330
1F
100
AcDbEntity
  8
_U+30EC_U+30A4_U+30E4_U+30FC 1
 62
   179
420
  2234388
370
     9
100
AcDbSpline
210
0.0
220
0.0
230
1.0
 70
    11
 71
     3
 72
    17
 73
    13
 74
     0
 42
0.0000000001
 43
0.0000000001
 12
1.0
 22
0.0
 32
0.0
 13
1.0
 23
0.0
 33
0.0
 40
0.0
 40
0.0
 40
0.0
 40
0.0
 40
1.0
 40
1.0
 40
1.0
 40
2.0
 40
2.0
 40
2.0
 40
3.0
 40
3.0
 40
3.0
 40
4.0
 40
4.0
 40
4.0
 40
4.0
 10
78.5437124406274
 20
-141.7501680201179
 30
0.0
 10
78.5437124406274
 20
-141.7222632979031
 30
0.0
 10
78.52131105231003
 20
-141.6998619090197
 30
0.0
 10
78.49376109148781
 20
-141.6998619090197
 30
0.0
 10
78.46617188705007
 20
-141.6998619090197
 30
0.0
 10
78.44380577650956
 20
-141.7222632979031
 30
0.0
 10
78.44380577650956
 20
-141.7501680201179
 30
0.0
 10
78.44380577650956
 20
-141.7777199645557
 30
0.0
 10
78.46617188705007
 20
-141.8001213534391
 30
0.0
 10
78.49376109148781
 20
-141.8001213534391
 30
0.0
 10
78.52131105231003
 20
-141.8001213534391
 30
0.0
 10
78.5437124406274
 20
-141.7777199645557
 30
0.0
 10
78.5437124406274
 20
-141.7501680201179
 30
0.0
  0
SPLINE
  5
A2
330
1F
100
AcDbEntity
  8
_U+30EC_U+30A4_U+30E4_U+30FC 1
 62
   179
420
  2234388
370
     9
100
AcDbSpline
210
0.0
220
0.0
230
1.0
 70
    11
 71
     3
 72
    17
 73
    13
 74
     0
 42
0.0000000001
 43
0.0000000001
 12
1.0
 22
0.0
 32
0.0
 13
1.0
 23
0.0
 33
0.0
 40
0.0
 40
0.0
 40
0.0
 40
0.0
 40
1.0
 40
1.0
 40
1.0
 40
2.0
 40
2.0
 40
2.0
 40
3.0
 40
3.0
 40
3.0
 40
4.0
 40
4.0
 40
4.0
 40
4.0
 10
96.04374997598907
 20
-141.7501680201179
 30
0.0
 10
96.04374997598907
 20
-141.7222632979031
 30
0.0
 10
96.02134616140248
 20
-141.6998619090197
 30
0.0
 10
95.99344143989217
 20
-141.6998619090197
 30
0.0
 10
95.96588949615064
 20
-141.6998619090197
 30
0.0
 10
95.94384088560203
 20
-141.7222632979031
 30
0.0
 10
95.94384088560203
 20
-141.7501680201179
 30
0.0
 10
95.94384088560203
 20
-141.7777199645557
 30
0.0
 10
95.96588949615064
 20
-141.8001213534391
 30
0.0
 10
95.99344143989217
 20
-141.8001213534391
 30
0.0
 10
96.02134616140248
 20
-141.8001213534391
 30
0.0
 10
96.04374997598907
 20
-141.7777199645557
 30
0.0
 10
96.04374997598907
 20
-141.7501680201179
 30
0.0
  0
SPLINE
  5
A3
330
1F
100
AcDbEntity
  8
_U+30EC_U+30A4_U+30E4_U+30FC 1
 62
   179
420
  2234388
370
     9
100
AcDbSpline
210
0.0
220
0.0
230
1.0
 70
    11
 71
     3
 72
    17
 73
    13
 74
     0
 42
0.0000000001
 43
0.0000000001
 12
1.0
 22
0.0
 32
0.0
 13
1.0
 23
0.0
 33
0.0
 40
0.0
 40
0.0
 40
0.0
 40
0.0
 40
1.0
 40
1.0
 40
1.0
 40
2.0
 40
2.0
 40
2.0
 40
3.0
 40
3.0
 40
3.0
 40
4.0
 40
4.0
 40
4.0
 40
4.0
 10
98.04360944314358
 20
-139.7499532983962
 30
0.0
 10
98.04360944314358
 20
-139.7224013539584
 30
0.0
 10
98.02124333260308
 20
-139.699999965075
 30
0.0
 10
97.99365611108466
 20
-139.699999965075
 30
0.0
 10
97.96610416734313
 20
-139.699999965075
 30
0.0
 10
97.94370277902574
 20
-139.7224013539584
 30
0.0
 10
97.94370277902574
 20
-139.7499532983962
 30
0.0
 10
97.94370277902574
 20
-139.7775052428333
 30
0.0
 10
97.96610416734313
 20
-139.7999066317167
 30
0.0
 10
97.99365611108466
 20
-139.7999066317167
 30
0.0
 10
98.02124333260308
 20
-139.7999066317167
 30
0.0
 10
98.04360944314358
 20
-139.7775052428333
 30
0.0
 10
98.04360944314358
 20
-139.7499532983962
 30
0.0
  0
SPLINE
  5
A4
330
1F
100
AcDbEntity
  8
_U+30EC_U+30A4_U+30E4_U+30FC 1
 62
   179
420
  2234388
370
     9
100
AcDbSpline
210
0.0
220
0.0
230
1.0
 70
    11
 71
     3
 72
    17
 73
    13
 74
     0
 42
0.0000000001
 43
0.0000000001
 12
1.0
 22
0.0
 32
0.0
 13
1.0
 23
0.0
 33
0.0
 40
0.0
 40
0.0
 40
0.0
 40
0.0
 40
1.0
 40
1.0
 40
1.0
 40
2.0
 40
2.0
 40
2.0
 40
3.0
 40
3.0
 40
3.0
 40
4.0
 40
4.0
 40
4.0
 40
4.0
 10
98.04360944314358
 20
-137.8499980210931
 30
0.0
 10
98.04360944314358
 20
-137.8224107988778
 30
0.0
 10
98.02124333260308
 20
-137.800044687772
 30
0.0
 10
97.99365611108466
 20
-137.800044687772
 30
0.0
 10
97.96610416734313
 20
-137.800044687772
 30
0.0
 10
97.94370277902574
 20
-137.8224107988778
 30
0.0
 10
97.94370277902574
 20
-137.8499980210931
 30
0.0
 10
97.94370277902574
 20
-137.8775499655309
 30
0.0
 10
97.96610416734313
 20
-137.8999513544136
 30
0.0
 10
97.99365611108466
 20
-137.8999513544136
 30
0.0
 10
98.02124333260308
 20
-137.8999513544136
 30
0.0
 10
98.04360944314358
 20
-137.8775499655309
 30
0.0
 10
98.04360944314358
 20
-137.8499980210931
 30
0.0
  0
SPLINE
  5
A5
330
1F
100
AcDbEntity
  8
_U+30EC_U+30A4_U+30E4_U+30FC 1
 62
   179
420
  2234388
370
     9
100
AcDbSpline
210
0.0
220
0.0
230
1.0
 70
    11
 71
     3
 72
    17
 73
    13
 74
     0
 42
0.0000000001
 43
0.0000000001
 12
1.0
 22
0.0
 32
0.0
 13
1.0
 23
0.0
 33
0.0
 40
0.0
 40
0.0
 40
0.0
 40
0.0
 40
1.0
 40
1.0
 40
1.0
 40
2.0
 40
2.0
 40
2.0
 40
3.0
 40
3.0
 40
3.0
 40
4.0
 40
4.0
 40
4.0
 40
4.0
 10
107.4435847588858
 20
-137.8499980210931
 30
0.0
 10
107.4435847588858
 20
-137.8224107988778
 30
0.0
 10
107.4215388620337
 20
-137.800044687772
 30
0.0
 10
107.3936314268269
 20
-137.800044687772
 30
0.0
 10
107.3660442053085
 20
-137.800044687772
 30
0.0
 10
107.343678094768
 20
-137.8224107988778
 30
0.0
 10
107.343678094768
 20
-137.8499980210931
 30
0.0
 10
107.343678094768
 20
-137.8775499655309
 30
0.0
 10
107.3660442053085
 20
-137.8999513544136
 30
0.0
 10
107.3936314268269
 20
-137.8999513544136
 30
0.0
 10
107.4215388620337
 20
-137.8999513544136
 30
0.0
 10
107.4435847588858
 20
-137.8775499655309
 30
0.0
 10
107.4435847588858
 20
-137.8499980210931
 30
0.0
  0
SPLINE
  5
A6
330
1F
100
AcDbEntity
  8
_U+30EC_U+30A4_U+30E4_U+30FC 1
 62
   179
420
  2234388
370
     9
100
AcDbSpline
210
0.0
220
0.0
230
1.0
 70
    11
 71
     3
 72
    17
 73
    13
 74
     0
 42
0.0000000001
 43
0.0000000001
 12
1.0
 22
0.0
 32
0.0
 13
1.0
 23
0.0
 33
0.0
 40
0.0
 40
0.0
 40
0.0
 40
0.0
 40
1.0
 40
1.0
 40
1.0
 40
2.0
 40
2.0
 40
2.0
 40
3.0
 40
3.0
 40
3.0
 40
4.0
 40
4.0
 40
4.0
 40
4.0
 10
107.4435847588858
 20
-130.3500130229682
 30
0.0
 10
107.4435847588858
 20
-130.3224610785304
 30
0.0
 10
107.4215388620337
 20
-130.300059689647
 30
0.0
 10
107.3936314268269
 20
-130.300059689647
 30
0.0
 10
107.3660442053085
 20
-130.300059689647
 30
0.0
 10
107.343678094768
 20
-130.3224610785304
 30
0.0
 10
107.343678094768
 20
-130.3500130229682
 30
0.0
 10
107.343678094768
 20
-130.3775649674053
 30
0.0
 10
107.3660442053085
 20
-130.3999663562887
 30
0.0
 10
107.3936314268269
 20
-130.3999663562887
 30
0.0
 10
107.4215388620337
 20
-130.3999663562887
 30
0.0
 10
107.4435847588858
 20
-130.3775649674053
 30
0.0
 10
107.4435847588858
 20
-130.3500130229682
 30
0.0
  0
SPLINE
  5
A7
330
1F
100
AcDbEntity
  8
_U+30EC_U+30A4_U+30E4_U+30FC 1
 62
   179
420
  2234388
370
     9
100
AcDbSpline
210
0.0
220
0.0
230
1.0
 70
    11
 71
     3
 72
    17
 73
    13
 74
     0
 42
0.0000000001
 43
0.0000000001
 12
1.0
 22
0.0
 32
0.0
 13
1.0
 23
0.0
 33
0.0
 40
0.0
 40
0.0
 40
0.0
 40
0.0
 40
1.0
 40
1.0
 40
1.0
 40
2.0
 40
2.0
 40
2.0
 40
3.0
 40
3.0
 40
3.0
 40
4.0
 40
4.0
 40
4.0
 40
4.0
 10
105.4436875876852
 20
-141.7501680201179
 30
0.0
 10
105.4436875876852
 20
-141.7222632979031
 30
0.0
 10
105.4212888625337
 20
-141.6998619090197
 30
0.0
 10
105.3937342556263
 20
-141.6998619090197
 30
0.0
 10
105.3661823118847
 20
-141.6998619090197
 30
0.0
 10
105.3434281457986
 20
-141.7222632979031
 30
0.0
 10
105.3434281457986
 20
-141.7501680201179
 30
0.0
 10
105.3434281457986
 20
-141.7777199645557
 30
0.0
 10
105.3661823118847
 20
-141.8001213534391
 30
0.0
 10
105.3937342556263
 20
-141.8001213534391
 30
0.0
 10
105.4212888625337
 20
-141.8001213534391
 30
0.0
 10
105.4436875876852
 20
-141.7777199645557
 30
0.0
 10
105.4436875876852
 20
-141.7501680201179
 30
0.0
  0
POLYLINE
  5
A8
330
1F
100
AcDbEntity
  8
_U+30EC_U+30A4_U+30E4_U+30FC 1
 62
   179
420
  2234388
370
     9
100
AcDb2dPolyline
 66
     1
 10
0.0
 20
0.0
 30
0.0
  0
VERTEX
  5
A9
330
A8
100
AcDbEntity
  8
_U+30EC_U+30A4_U+30E4_U+30FC 1
 62
   179
420
  2234388
370
     9
100
AcDbVertex
100
AcDb2dVertex
 10
76.4936855484835
 20
-122.2499177472154
 30
0.0
  0
VERTEX
  5
AA
330
A8
100
AcDbEntity
  8
_U+30EC_U+30A4_U+30E4_U+30FC 1
 62
   179
420
  2234388
370
     9
100
AcDbVertex
100
AcDb2dVertex
 10
76.4936855484835
 20
-139.7499532983962
 30
0.0
  0
SEQEND
  5
AB
330
A8
100
AcDbEntity
  8
_U+30EC_U+30A4_U+30E4_U+30FC 1
 62
   179
420
  2234388
370
     9
  0
POLYLINE
  5
AC
330
1F
100
AcDbEntity
  8
_U+30EC_U+30A4_U+30E4_U+30FC 1
 62
   179
420
  2234388
370
     9
100
AcDb2dPolyline
 66
     1
 10
0.0
 20
0.0
 30
0.0
  0
VERTEX
  5
AD
330
AC
100
AcDbEntity
  8
_U+30EC_U+30A4_U+30E4_U+30FC 1
 62
   179
420
  2234388
370
     9
100
AcDbVertex
100
AcDb2dVertex
 10
77.223723863192
 20
-122.2499177472154
 30
0.0
  0
VERTEX
  5
AE
330
AC
100
AcDbEntity
  8
_U+30EC_U+30A4_U+30E4_U+30FC 1
 62
   179
420
  2234388
370
     9
100
AcDbVertex
100
AcDb2dVertex
 10
75.99362498100159
 20
-122.2499177472154
 30
0.0
  0
SEQEND
  5
AF
330
AC
100
AcDbEntity
  8
_U+30EC_U+30A4_U+30E4_U+30FC 1
 62
   179
420
  2234388
370
     9
  0
POLYLINE
  5
B0
330
1F
100
AcDbEntity
  8
_U+30EC_U+30A4_U+30E4_U+30FC 1
 62
   179
420
  2234388
370
     9
100
AcDb2dPolyline
 66
     1
 10
0.0
 20
0.0
 30
0.0
  0
VERTEX
  5
B1
330
B0
100
AcDbEntity
  8
_U+30EC_U+30A4_U+30E4_U+30FC 1
 62
   179
420
  2234388
370
     9
100
AcDbVertex
100
AcDb2dVertex
 10
77.223723863192
 20
-139.7499532983962
 30
0.0
  0
VERTEX
  5
B2
330
B0
100
AcDbEntity
  8
_U+30EC_U+30A4_U+30E4_U+30FC 1
 62
   179
420
  2234388
370
     9
100
AcDbVertex
100
AcDb2dVertex
 10
75.99362498100159
 20
-139.7499532983962
 30
0.0
  0
SEQEND
  5
B3
330
B0
100
AcDbEntity
  8
_U+30EC_U+30A4_U+30E4_U+30FC 1
 62
   179
420
  2234388
370
     9
  0
INSERT
  5
B5
330
1F
100
AcDbEntity
  8
_U+30EC_U+30A4_U+30E4_U+30FC 1
100
AcDbBlockReference
  2
block 2
 10
0.0
 20
0.0
 30
0.0
  0
POLYLINE
  5
BC
330
1F
100
AcDbEntity
  8
_U+30EC_U+30A4_U+30E4_U+30FC 1
 62
   179
420
  2234388
370
     9
100
AcDb2dPolyline
 66
     1
 10
0.0
 20
0.0
 30
0.0
  0
VERTEX
  5
BD
330
BC
100
AcDbEntity
  8
_U+30EC_U+30A4_U+30E4_U+30FC 1
 62
   179
420
  2234388
370
     9
100
AcDbVertex
100
AcDb2dVertex
 10
107.3936314268269
 20
-130.3500130229682
 30
0.0
  0
VERTEX
  5
BE
330
BC
100
AcDbEntity
  8
_U+30EC_U+30A4_U+30E4_U+30FC 1
 62
   179
420
  2234388
370
     9
100
AcDbVertex
100
AcDb2dVertex
 10
107.3936314268269
 20
-137.8499980210931
 30
0.0
  0
SEQEND
  5
BF
330
BC
100
AcDbEntity
  8
_U+30EC_U+30A4_U+30E4_U+30FC 1
 62
   179
420
  2234388
370
     9
  0
POLYLINE
  5
C0
330
1F
100
AcDbEntity
  8
_U+30EC_U+30A4_U+30E4_U+30FC 1
 62
   179
420
  2234388
370
     9
100
AcDb2dPolyline
 66
     1
 10
0.0
 20
0.0
 30
0.0
  0
VERTEX
  5
C1
330
C0
100
AcDbEntity
  8
_U+30EC_U+30A4_U+30E4_U+30FC 1
 62
   179
420
  2234388
370
     9
100
AcDbVertex
100
AcDb2dVertex
 10
106.6635931121184
 20
-130.3500130229682
 30
0.0
  0
VERTEX
  5
C2
330
C0
100
AcDbEntity
  8
_U+30EC_U+30A4_U+30E4_U+30FC 1
 62
   179
420
  2234388
370
     9
100
AcDbVertex
100
AcDb2dVertex
 10
107.8934822474079
 20
-130.3500130229682
 30
0.0
  0
SEQEND
  5
C3
330
C0
100
AcDbEntity
  8
_U+30EC_U+30A4_U+30E4_U+30FC 1
 62
   179
420
  2234388
370
     9
  0
POLYLINE
  5
C4
330
1F
100
AcDbEntity
  8
_U+30EC_U+30A4_U+30E4_U+30FC 1
 62
   179
420
  2234388
370
     9
100
AcDb2dPolyline
 66
     1
 10
0.0
 20
0.0
 30
0.0
  0
VERTEX
  5
C5
330
C4
100
AcDbEntity
  8
_U+30EC_U+30A4_U+30E4_U+30FC 1
 62
   179
420
  2234388
370
     9
100
AcDbVertex
100
AcDb2dVertex
 10
97.26365553123983
 20
-137.8499980210931
 30
0.0
  0
VERTEX
  5
C6
330
C4
100
AcDbEntity
  8
_U+30EC_U+30A4_U+30E4_U+30FC 1
 62
   179
420
  2234388
370
     9
100
AcDbVertex
100
AcDb2dVertex
 10
107.8934822474079
 20
-137.8499980210931
 30
0.0
  0
SEQEND
  5
C7
330
C4
100
AcDbEntity
  8
_U+30EC_U+30A4_U+30E4_U+30FC 1
 62
   179
420
  2234388
370
     9
  0
INSERT
  5
C9
330
1F
100
AcDbEntity
  8
_U+30EC_U+30A4_U+30E4_U+30FC 1
100
AcDbBlockReference
  2
block 3
 10
0.0
 20
0.0
 30
0.0
  0
POLYLINE
  5
D0
330
1F
100
AcDbEntity
  8
_U+30EC_U+30A4_U+30E4_U+30FC 1
 62
   179
420
  2234388
370
     9
100
AcDb2dPolyline
 66
     1
 10
0.0
 20
0.0
 30
0.0
  0
VERTEX
  5
D1
330
D0
100
AcDbEntity
  8
_U+30EC_U+30A4_U+30E4_U+30FC 1
 62
   179
420
  2234388
370
     9
100
AcDbVertex
100
AcDb2dVertex
 10
97.99365611108466
 20
-137.8499980210931
 30
0.0
  0
VERTEX
  5
D2
330
D0
100
AcDbEntity
  8
_U+30EC_U+30A4_U+30E4_U+30FC 1
 62
   179
420
  2234388
370
     9
100
AcDbVertex
100
AcDb2dVertex
 10
97.99365611108466
 20
-135.2210274661949
 30
0.0
  0
SEQEND
  5
D3
330
D0
100
AcDbEntity
  8
_U+30EC_U+30A4_U+30E4_U+30FC 1
 62
   179
420
  2234388
370
     9
  0
POLYLINE
  5
D4
330
1F
100
AcDbEntity
  8
_U+30EC_U+30A4_U+30E4_U+30FC 1
 62
   179
420
  2234388
370
     9
100
AcDb2dPolyline
 66
     1
 10
0.0
 20
0.0
 30
0.0
  0
VERTEX
  5
D5
330
D4
100
AcDbEntity
  8
_U+30EC_U+30A4_U+30E4_U+30FC 1
 62
   179
420
  2234388
370
     9
100
AcDbVertex
100
AcDb2dVertex
 10
97.99365611108466
 20
-137.8499980210931
 30
0.0
  0
VERTEX
  5
D6
330
D4
100
AcDbEntity
  8
_U+30EC_U+30A4_U+30E4_U+30FC 1
 62
   179
420
  2234388
370
     9
100
AcDbVertex
100
AcDb2dVertex
 10
97.99365611108466
 20
-139.7499532983962
 30
0.0
  0
SEQEND
  5
D7
330
D4
100
AcDbEntity
  8
_U+30EC_U+30A4_U+30E4_U+30FC 1
 62
   179
420
  2234388
370
     9
  0
POLYLINE
  5
D8
330
1F
100
AcDbEntity
  8
_U+30EC_U+30A4_U+30E4_U+30FC 1
 62
   179
420
  2234388
370
     9
100
AcDb2dPolyline
 66
     1
 10
0.0
 20
0.0
 30
0.0
  0
VERTEX
  5
D9
330
D8
100
AcDbEntity
  8
_U+30EC_U+30A4_U+30E4_U+30FC 1
 62
   179
420
  2234388
370
     9
100
AcDbVertex
100
AcDb2dVertex
 10
97.26365553123983
 20
-137.8499980210931
 30
0.0
  0
VERTEX
  5
DA
330
D8
100
AcDbEntity
  8
_U+30EC_U+30A4_U+30E4_U+30FC 1
 62
   179
420
  2234388
370
     9
100
AcDbVertex
100
AcDb2dVertex
 10
98.49389498721139
 20
-137.8499980210931
 30
0.0
  0
SEQEND
  5
DB
330
D8
100
AcDbEntity
  8
_U+30EC_U+30A4_U+30E4_U+30FC 1
 62
   179
420
  2234388
370
     9
  0
POLYLINE
  5
DC
330
1F
100
AcDbEntity
  8
_U+30EC_U+30A4_U+30E4_U+30FC 1
 62
   179
420
  2234388
370
     9
100
AcDb2dPolyline
 66
     1
 10
0.0
 20
0.0
 30
0.0
  0
VERTEX
  5
DD
330
DC
100
AcDbEntity
  8
_U+30EC_U+30A4_U+30E4_U+30FC 1
 62
   179
420
  2234388
370
     9
100
AcDbVertex
100
AcDb2dVertex
 10
97.26365553123983
 20
-139.7499532983962
 30
0.0
  0
VERTEX
  5
DE
330
DC
100
AcDbEntity
  8
_U+30EC_U+30A4_U+30E4_U+30FC 1
 62
   179
420
  2234388
370
     9
100
AcDbVertex
100
AcDb2dVertex
 10
98.49389498721139
 20
-139.7499532983962
 30
0.0
  0
SEQEND
  5
DF
330
DC
100
AcDbEntity
  8
_U+30EC_U+30A4_U+30E4_U+30FC 1
 62
   179
420
  2234388
370
     9
  0
INSERT
  5
E1
330
1F
100
AcDbEntity
  8
_U+30EC_U+30A4_U+30E4_U+30FC 1
100
AcDbBlockReference
  2
block 4
 10
0.0
 20
0.0
 30
0.0
  0
POLYLINE
  5
F2
330
1F
100
AcDbEntity
  8
_U+30EC_U+30A4_U+30E4_U+30FC 1
 62
   179
420
  2234388
370
     9
100
AcDb2dPolyline
 66
     1
 10
0.0
 20
0.0
 30
0.0
  0
VERTEX
  5
F3
330
F2
100
AcDbEntity
  8
_U+30EC_U+30A4_U+30E4_U+30FC 1
 62
   179
420
  2234388
370
     9
100
AcDbVertex
100
AcDb2dVertex
 10
78.49376109148781
 20
-141.7501680201179
 30
0.0
  0
VERTEX
  5
F4
330
F2
100
AcDbEntity
  8
_U+30EC_U+30A4_U+30E4_U+30FC 1
 62
   179
420
  2234388
370
     9
100
AcDbVertex
100
AcDb2dVertex
 10
95.99344143989217
 20
-141.7501680201179
 30
0.0
  0
SEQEND
  5
F5
330
F2
100
AcDbEntity
  8
_U+30EC_U+30A4_U+30E4_U+30FC 1
 62
   179
420
  2234388
370
     9
  0
POLYLINE
  5
F6
330
1F
100
AcDbEntity
  8
_U+30EC_U+30A4_U+30E4_U+30FC 1
 62
   179
420
  2234388
370
     9
100
AcDb2dPolyline
 66
     1
 10
0.0
 20
0.0
 30
0.0
  0
VERTEX
  5
F7
330
F6
100
AcDbEntity
  8
_U+30EC_U+30A4_U+30E4_U+30FC 1
 62
   179
420
  2234388
370
     9
100
AcDbVertex
100
AcDb2dVertex
 10
78.49376109148781
 20
-141.0201649647452
 30
0.0
  0
VERTEX
  5
F8
330
F6
100
AcDbEntity
  8
_U+30EC_U+30A4_U+30E4_U+30FC 1
 62
   179
420
  2234388
370
     9
100
AcDbVertex
100
AcDb2dVertex
 10
78.49376109148781
 20
-142.2500541311039
 30
0.0
  0
SEQEND
  5
F9
330
F6
100
AcDbEntity
  8
_U+30EC_U+30A4_U+30E4_U+30FC 1
 62
   179
420
  2234388
370
     9
  0
POLYLINE
  5
FA
330
1F
100
AcDbEntity
  8
_U+30EC_U+30A4_U+30E4_U+30FC 1
 62
   179
420
  2234388
370
     9
100
AcDb2dPolyline
 66
     1
 10
0.0
 20
0.0
 30
0.0
  0
VERTEX
  5
FB
330
FA
100
AcDbEntity
  8
_U+30EC_U+30A4_U+30E4_U+30FC 1
 62
   179
420
  2234388
370
     9
100
AcDbVertex
100
AcDb2dVertex
 10
95.99344143989217
 20
-141.0201649647452
 30
0.0
  0
VERTEX
  5
FC
330
FA
100
AcDbEntity
  8
_U+30EC_U+30A4_U+30E4_U+30FC 1
 62
   179
420
  2234388
370
     9
100
AcDbVertex
100
AcDb2dVertex
 10
95.99344143989217
 20
-142.2500541311039
 30
0.0
  0
SEQEND
  5
FD
330
FA
100
AcDbEntity
  8
_U+30EC_U+30A4_U+30E4_U+30FC 1
 62
   179
420
  2234388
370
     9
  0
INSERT
  5
FF
330
1F
100
AcDbEntity
  8
_U+30EC_U+30A4_U+30E4_U+30FC 1
100
AcDbBlockReference
  2
block 5
 10
0.0
 20
0.0
 30
0.0
  0
POLYLINE
  5
106
330
1F
100
AcDbEntity
  8
_U+30EC_U+30A4_U+30E4_U+30FC 1
 62
   179
420
  2234388
370
     9
100
AcDb2dPolyline
 66
     1
 10
0.0
 20
0.0
 30
0.0
  0
VERTEX
  5
107
330
106
100
AcDbEntity
  8
_U+30EC_U+30A4_U+30E4_U+30FC 1
 62
   179
420
  2234388
370
     9
100
AcDbVertex
100
AcDb2dVertex
 10
95.99344143989217
 20
-141.7501680201179
 30
0.0
  0
VERTEX
  5
108
330
106
100
AcDbEntity
  8
_U+30EC_U+30A4_U+30E4_U+30FC 1
 62
   179
420
  2234388
370
     9
100
AcDbVertex
100
AcDb2dVertex
 10
105.3937342556263
 20
-141.7501680201179
 30
0.0
  0
SEQEND
  5
109
330
106
100
AcDbEntity
  8
_U+30EC_U+30A4_U+30E4_U+30FC 1
 62
   179
420
  2234388
370
     9
  0
POLYLINE
  5
10A
330
1F
100
AcDbEntity
  8
_U+30EC_U+30A4_U+30E4_U+30FC 1
 62
   179
420
  2234388
370
     9
100
AcDb2dPolyline
 66
     1
 10
0.0
 20
0.0
 30
0.0
  0
VERTEX
  5
10B
330
10A
100
AcDbEntity
  8
_U+30EC_U+30A4_U+30E4_U+30FC 1
 62
   179
420
  2234388
370
     9
100
AcDbVertex
100
AcDb2dVertex
 10
105.3937342556263
 20
-131.6198719115394
 30
0.0
  0
VERTEX
  5
10C
330
10A
100
AcDbEntity
  8
_U+30EC_U+30A4_U+30E4_U+30FC 1
 62
   179
420
  2234388
370
     9
100
AcDbVertex
100
AcDb2dVertex
 10
105.3937342556263
 20
-142.2500541311039
 30
0.0
  0
SEQEND
  5
10D
330
10A
100
AcDbEntity
  8
_U+30EC_U+30A4_U+30E4_U+30FC 1
 62
   179
420
  2234388
370
     9
  0
INSERT
  5
10F
330
1F
100
AcDbEntity
  8
_U+30EC_U+30A4_U+30E4_U+30FC 1
100
AcDbBlockReference
  2
block 6
 10
0.0
 20
0.0
 30
0.0
  0
SPLINE
  5
124
330
1F
100
AcDbEntity
  8
_U+30EC_U+30A4_U+30E4_U+30FC 1
 62
   179
420
  2234388
370
     9
100
AcDbSpline
210
0.0
220
0.0
230
1.0
 70
    11
 71
     3
 72
    17
 73
    13
 74
     0
 42
0.0000000001
 43
0.0000000001
 12
1.0
 22
0.0
 32
0.0
 13
1.0
 23
0.0
 33
0.0
 40
0.0
 40
0.0
 40
0.0
 40
0.0
 40
1.0
 40
1.0
 40
1.0
 40
2.0
 40
2.0
 40
2.0
 40
3.0
 40
3.0
 40
3.0
 40
4.0
 40
4.0
 40
4.0
 40
4.0
 10
107.4935380909447
 20
-129.7498674675628
 30
0.0
 10
107.4935380909447
 20
-129.6947635786873
 30
0.0
 10
107.4487353143099
 20
-129.6499608009205
 30
0.0
 10
107.3936314268269
 20
-129.6499608009205
 30
0.0
 10
107.3384922615669
 20
-129.6499608009205
 30
0.0
 10
107.2936894849322
 20
-129.6947635786873
 30
0.0
 10
107.2936894849322
 20
-129.7498674675628
 30
0.0
 10
107.2936894849322
 20
-129.8053241342155
 30
0.0
 10
107.3384922615669
 20
-129.8501269119822
 30
0.0
 10
107.3936314268269
 20
-129.8501269119822
 30
0.0
 10
107.4487353143099
 20
-129.8501269119822
 30
0.0
 10
107.4935380909447
 20
-129.8053241342155
 30
0.0
 10
107.4935380909447
 20
-129.7498674675628
 30
0.0
  0
POLYLINE
  5
125
330
1F
100
AcDbEntity
  8
_U+30EC_U+30A4_U+30E4_U+30FC 1
 62
   179
420
  2234388
370
     9
100
AcDb2dPolyline
 66
     1
 10
0.0
 20
0.0
 30
0.0
  0
VERTEX
  5
126
330
125
100
AcDbEntity
  8
_U+30EC_U+30A4_U+30E4_U+30FC 1
 62
   179
420
  2234388
370
     9
100
AcDbVertex
100
AcDb2dVertex
 10
107.3936314268269
 20
-129.7498674675628
 30
0.0
  0
VERTEX
  5
127
330
125
100
AcDbEntity
  8
_U+30EC_U+30A4_U+30E4_U+30FC 1
 62
   179
420
  2234388
370
     9
100
AcDbVertex
100
AcDb2dVertex
 10
107.3936314268269
 20
-130.3500130229682
 30
0.0
  0
SEQEND
  5
128
330
125
100
AcDbEntity
  8
_U+30EC_U+30A4_U+30E4_U+30FC 1
 62
   179
420
  2234388
370
     9
  0
POLYLINE
  5
129
330
1F
100
AcDbEntity
  8
_U+30EC_U+30A4_U+30E4_U+30FC 1
 62
   179
420
  2234388
370
     9
100
AcDb2dPolyline
 66
     1
 10
0.0
 20
0.0
 30
0.0
  0
VERTEX
  5
12A
330
129
100
AcDbEntity
  8
_U+30EC_U+30A4_U+30E4_U+30FC 1
 62
   179
420
  2234388
370
     9
100
AcDbVertex
100
AcDb2dVertex
 10
106.6635931121184
 20
-129.7498674675628
 30
0.0
  0
VERTEX
  5
12B
330
129
100
AcDbEntity
  8
_U+30EC_U+30A4_U+30E4_U+30FC 1
 62
   179
420
  2234388
370
     9
100
AcDbVertex
100
AcDb2dVertex
 10
107.8934822474079
 20
-129.7498674675628
 30
0.0
  0
SEQEND
  5
12C
330
129
100
AcDbEntity
  8
_U+30EC_U+30A4_U+30E4_U+30FC 1
 62
   179
420
  2234388
370
     9
  0
POLYLINE
  5
12D
330
1F
100
AcDbEntity
  8
_U+30EC_U+30A4_U+30E4_U+30FC 1
 62
   179
420
  2234388
370
     9
100
AcDb2dPolyline
 66
     1
 10
0.0
 20
0.0
 30
0.0
  0
VERTEX
  5
12E
330
12D
100
AcDbEntity
  8
_U+30EC_U+30A4_U+30E4_U+30FC 1
 62
   179
420
  2234388
370
     9
100
AcDbVertex
100
AcDb2dVertex
 10
107.3936314268269
 20
-129.7498674675628
 30
0.0
  0
VERTEX
  5
12F
330
12D
100
AcDbEntity
  8
_U+30EC_U+30A4_U+30E4_U+30FC 1
 62
   179
420
  2234388
370
     9
100
AcDbVertex
100
AcDb2dVertex
 10
107.3936314268269
 20
-124.4921380244325
 30
0.0
  0
SEQEND
  5
130
330
12D
100
AcDbEntity
  8
_U+30EC_U+30A4_U+30E4_U+30FC 1
 62
   179
420
  2234388
370
     9
  0
INSERT
  5
132
330
1F
100
AcDbEntity
  8
_U+30EC_U+30A4_U+30E4_U+30FC 1
100
AcDbBlockReference
  2
block 7
 10
0.0
 20
0.0
 30
0.0
  0
ENDSEC
  0
SECTION
  2
OBJECTS
  0
DICTIONARY
  5
C
330
0
100
AcDbDictionary
281
     1
  3
ACAD_GROUP
350
D
  3
ACAD_LAYOUT
350
1A
  3
ACAD_MATERIAL
350
3B
  3
ACAD_MLEADERSTYLE
350
142
  3
ACAD_MLINESTYLE
350
17
  3
ACAD_PLOTSETTINGS
350
19
  3
ACAD_PLOTSTYLENAME
350
E
  3
ACAD_TABLESTYLE
350
141
  3
ACAD_VISUALSTYLE
350
2A
  0
SUN
  5
3F
330
29
100
AcDbSun
 90
        1
290
     0
 63
     7
421
 16777215
 40
1.0
291
     1
 91
  2455826
 92
 54000000
292
     0
 70
     2
 71
   256
280
     1
  0
DICTIONARY
  5
D
102
{ACAD_REACTORS
330
C
102
}
330
C
100
AcDbDictionary
281
     1
  0
DICTIONARY
  5
1A
102
{ACAD_REACTORS
330
C
102
}
330
C
100
AcDbDictionary
281
     1
  3
Layout1
350
1E
  3
Layout2
350
26
  3
Model
350
22
  0
DICTIONARY
  5
3B
102
{ACAD_REACTORS
330
C
102
}
330
C
100
AcDbDictionary
281
     1
  3
ByBlock
350
3D
  3
ByLayer
350
3C
  3
Global
350
3E
  0
DICTIONARY
  5
142
102
{ACAD_REACTORS
330
C
102
}
330
C
100
AcDbDictionary
281
     1
  0
DICTIONARY
  5
17
102
{ACAD_REACTORS
330
C
102
}
330
C
100
AcDbDictionary
281
     1
  3
Standard
350
18
  0
DICTIONARY
  5
19
102
{ACAD_REACTORS
330
C
102
}
330
C
100
AcDbDictionary
281
     1
  0
ACDBDICTIONARYWDFLT
  5
E
102
{ACAD_REACTORS
330
C
102
}
330
C
100
AcDbDictionary
281
     1
  3
Normal
350
F
100
AcDbDictionaryWithDefault
340
F
  0
DICTIONARY
  5
141
102
{ACAD_REACTORS
330
C
102
}
330
C
100
AcDbDictionary
281
     1
  0
DICTIONARY
  5
2A
102
{ACAD_REACTORS
330
C
102
}
330
C
100
AcDbDictionary
281
     1
  3
2dWireframe
350
2F
  3
3D Hidden
350
31
  3
3dWireframe
350
30
  3
Basic
350
32
  3
Brighten
350
36
  3
ColorChange
350
3A
  3
Conceptual
350
34
  3
Dim
350
35
  3
Facepattern
350
39
  3
Flat
350
2B
  3
FlatWithEdges
350
2C
  3
Gouraud
350
2D
  3
GouraudWithEdges
350
2E
  3
Linepattern
350
38
  3
Realistic
350
33
  3
Thicken
350
37
  0
LAYOUT
  5
1E
102
{ACAD_REACTORS
330
1A
102
}
330
1A
100
AcDbPlotSettings
  1

  2
none_device
  4

  6

 40
0.0
 41
0.0
 42
0.0
 43
0.0
 44
0.0
 45
0.0
 46
0.0
 47
0.0
 48
0.0
 49
0.0
140
0.0
141
0.0
142
1.0
143
1.0
 70
   688
 72
     0
 73
     0
 74
     5
  7

 75
    16
 76
     0
 77
     2
 78
   300
147
1.0
148
0.0
149
0.0
100
AcDbLayout
  1
Layout1
 70
     1
 71
     1
 10
0.0
 20
0.0
 11
12.0
 21
9.0
 12
0.0
 22
0.0
 32
0.0
 14
1.000000000000000E+20
 24
1.000000000000000E+20
 34
1.000000000000000E+20
 15
-1.000000000000000E+20
 25
-1.000000000000000E+20
 35
-1.000000000000000E+20
146
0.0
 13
0.0
 23
0.0
 33
0.0
 16
1.0
 26
0.0
 36
0.0
 17
0.0
 27
1.0
 37
0.0
 76
     0
330
1B
  0
LAYOUT
  5
26
102
{ACAD_REACTORS
330
1A
102
}
330
1A
100
AcDbPlotSettings
  1

  2
none_device
  4

  6

 40
0.0
 41
0.0
 42
0.0
 43
0.0
 44
0.0
 45
0.0
 46
0.0
 47
0.0
 48
0.0
 49
0.0
140
0.0
141
0.0
142
1.0
143
1.0
 70
   688
 72
     0
 73
     0
 74
     5
  7

 75
    16
 76
     0
 77
     2
 78
   300
147
1.0
148
0.0
149
0.0
100
AcDbLayout
  1
Layout2
 70
     1
 71
     2
 10
0.0
 20
0.0
 11
0.0
 21
0.0
 12
0.0
 22
0.0
 32
0.0
 14
0.0
 24
0.0
 34
0.0
 15
0.0
 25
0.0
 35
0.0
146
0.0
 13
0.0
 23
0.0
 33
0.0
 16
1.0
 26
0.0
 36
0.0
 17
0.0
 27
1.0
 37
0.0
 76
     0
330
23
  0
LAYOUT
  5
22
102
{ACAD_REACTORS
330
1A
102
}
330
1A
100
AcDbPlotSettings
  1

  2
none_device
  4

  6

 40
0.0
 41
0.0
 42
0.0
 43
0.0
 44
0.0
 45
0.0
 46
0.0
 47
0.0
 48
0.0
 49
0.0
140
0.0
141
0.0
142
1.0
143
1.0
 70
  1712
 72
     0
 73
     0
 74
     0
  7

 75
     0
 76
     0
 77
     2
 78
   300
147
1.0
148
0.0
149
0.0
100
AcDbLayout
  1
Model
 70
     1
 71
     0
 10
0.0
 20
0.0
 11
12.0
 21
9.0
 12
0.0
 22
0.0
 32
0.0
 14
1.000000000000000E+20
 24
1.000000000000000E+20
 34
1.000000000000000E+20
 15
-1.000000000000000E+20
 25
-1.000000000000000E+20
 35
-1.000000000000000E+20
146
0.0
 13
0.0
 23
0.0
 33
0.0
 16
1.0
 26
0.0
 36
0.0
 17
0.0
 27
1.0
 37
0.0
 76
     0
330
1F
331
29
  0
MATERIAL
  5
3D
102
{ACAD_REACTORS
330
3B
102
}
330
3B
100
AcDbMaterial
  1
ByBlock
 72
     1
 94
      127
  0
MATERIAL
  5
3C
102
{ACAD_REACTORS
330
3B
102
}
330
3B
100
AcDbMaterial
  1
ByLayer
 72
     1
 94
      127
  0
MATERIAL
  5
3E
102
{ACAD_REACTORS
330
3B
102
}
330
3B
100
AcDbMaterial
  1
Global
 72
     1
 94
      127
  0
MLINESTYLE
  5
18
102
{ACAD_REACTORS
330
17
102
}
330
17
100
AcDbMlineStyle
  2
Standard
 70
     0
  3

 62
   256
 51
90.0
 52
90.0
 71
     2
 49
0.5
 62
   256
  6
BYLAYER
 49
-0.5
 62
   256
  6
BYLAYER
  0
ACDBPLACEHOLDER
  5
F
102
{ACAD_REACTORS
330
E
102
}
330
E
  0
VISUALSTYLE
  5
2F
102
{ACAD_REACTORS
330
2A
102
}
330
2A
100
AcDbVisualStyle
  2
2dWireframe
 70
     4
177
     2
291
     0
 71
     0
176
     1
 72
     2
176
     1
 73
     0
176
     1
 90
        0
176
     1
 40
-0.6
176
     1
 41
-30.0
176
     1
 62
     5
 63
     7
421
 16777215
176
     1
 74
     1
176
     1
 91
        4
176
     1
 64
     7
176
     1
 65
   257
176
     1
 75
     1
176
     1
175
     1
176
     1
 42
1.0
176
     1
 92
        0
176
     1
 66
   257
176
     1
 43
1.0
176
     1
 76
     1
176
     1
 77
     6
176
     1
 78
     2
176
     1
 67
     7
176
     1
 79
     5
176
     1
170
     0
176
     1
171
     0
176
     1
290
     0
176
     1
 93
        1
176
     1
 44
0.0
176
     1
173
     0
176
     1
  0
VISUALSTYLE
  5
31
102
{ACAD_REACTORS
330
2A
102
}
330
2A
100
AcDbVisualStyle
  2
3D Hidden
 70
     6
177
     2
291
     0
 71
     1
176
     1
 72
     2
176
     1
 73
     2
176
     1
 90
        0
176
     1
 40
-0.6
176
     1
 41
-30.0
176
     1
 62
     5
 63
     7
421
 16777215
176
     1
 74
     2
176
     1
 91
        2
176
     1
 64
     7
176
     1
 65
   257
176
     1
 75
     2
176
     1
175
     1
176
     1
 42
40.0
176
     1
 92
        0
176
     1
 66
   257
176
     1
 43
1.0
176
     1
 76
     1
176
     1
 77
     6
176
     1
 78
     2
176
     1
 67
     7
176
     1
 79
     3
176
     1
170
     0
176
     1
171
     0
176
     1
290
     0
176
     1
 93
        1
176
     1
 44
0.0
176
     1
173
     0
176
     1
  0
VISUALSTYLE
  5
30
102
{ACAD_REACTORS
330
2A
102
}
330
2A
100
AcDbVisualStyle
  2
3dWireframe
 70
     5
177
     2
291
     0
 71
     0
176
     1
 72
     2
176
     1
 73
     0
176
     1
 90
        0
176
     1
 40
-0.6
176
     1
 41
-30.0
176
     1
 62
     5
 63
     7
421
 16777215
176
     1
 74
     1
176
     1
 91
        4
176
     1
 64
     7
176
     1
 65
   257
176
     1
 75
     1
176
     1
175
     1
176
     1
 42
1.0
176
     1
 92
        0
176
     1
 66
   257
176
     1
 43
1.0
176
     1
 76
     1
176
     1
 77
     6
176
     1
 78
     2
176
     1
 67
     7
176
     1
 79
     5
176
     1
170
     0
176
     1
171
     0
176
     1
290
     0
176
     1
 93
        1
176
     1
 44
0.0
176
     1
173
     0
176
     1
  0
VISUALSTYLE
  5
32
102
{ACAD_REACTORS
330
2A
102
}
330
2A
100
AcDbVisualStyle
  2
Basic
 70
     7
177
     2
291
     1
 71
     1
176
     1
 72
     0
176
     1
 73
     1
176
     1
 90
        0
176
     1
 40
-0.6
176
     1
 41
-30.0
176
     1
 62
     5
 63
     7
421
 16777215
176
     1
 74
     0
176
     1
 91
        4
176
     1
 64
     7
176
     1
 65
   257
176
     1
 75
     1
176
     1
175
     1
176
     1
 42
1.0
176
     1
 92
        8
176
     1
 66
     7
176
     1
 43
1.0
176
     1
 76
     1
176
     1
 77
     6
176
     1
 78
     2
176
     1
 67
     7
176
     1
 79
     5
176
     1
170
     0
176
     1
171
     0
176
     1
290
     0
176
     1
 93
        1
176
     1
 44
0.0
176
     1
173
     0
176
     1
  0
VISUALSTYLE
  5
36
102
{ACAD_REACTORS
330
2A
102
}
330
2A
100
AcDbVisualStyle
  2
Brighten
 70
    12
177
     2
291
     1
 71
     2
176
     1
 72
     2
176
     1
 73
     0
176
     1
 90
        0
176
     1
 40
-0.6
176
     1
 41
-30.0
176
     1
 62
     5
 63
     7
421
 16777215
176
     1
 74
     1
176
     1
 91
        4
176
     1
 64
     7
176
     1
 65
   257
176
     1
 75
     1
176
     1
175
     1
176
     1
 42
1.0
176
     1
 92
        8
176
     1
 66
     7
176
     1
 43
1.0
176
     1
 76
     1
176
     1
 77
     6
176
     1
 78
     2
176
     1
 67
     7
176
     1
 79
     5
176
     1
170
     0
176
     1
171
     0
176
     1
290
     0
176
     1
 93
        1
176
     1
 44
50.0
176
     1
173
     0
176
     1
  0
VISUALSTYLE
  5
3A
102
{ACAD_REACTORS
330
2A
102
}
330
2A
100
AcDbVisualStyle
  2
ColorChange
 70
    16
177
     2
291
     1
 71
     2
176
     1
 72
     2
176
     1
 73
     3
176
     1
 90
        0
176
     1
 40
-0.6
176
     1
 41
-30.0
176
     1
 62
     5
 63
     8
421
  8421504
176
     1
 74
     1
176
     1
 91
        4
176
     1
 64
     7
176
     1
 65
   257
176
     1
 75
     1
176
     1
175
     1
176
     1
 42
1.0
176
     1
 92
        8
176
     1
 66
     8
424
  8421504
176
     1
 43
1.0
176
     1
 76
     1
176
     1
 77
     6
176
     1
 78
     2
176
     1
 67
     7
176
     1
 79
     5
176
     1
170
     0
176
     1
171
     0
176
     1
290
     0
176
     1
 93
        1
176
     1
 44
0.0
176
     1
173
     0
176
     1
  0
VISUALSTYLE
  5
34
102
{ACAD_REACTORS
330
2A
102
}
330
2A
100
AcDbVisualStyle
  2
Conceptual
 70
     9
177
     2
291
     0
 71
     3
176
     1
 72
     2
176
     1
 73
     0
176
     1
 90
        0
176
     1
 40
-0.6
176
     1
 41
-30.0
176
     1
 62
     5
 63
     7
421
 16777215
176
     1
 74
     2
176
     1
 91
        2
176
     1
 64
     7
176
     1
 65
   257
176
     1
 75
     1
176
     1
175
     1
176
     1
 42
40.0
176
     1
 92
        8
176
     1
 66
     7
176
     1
 43
1.0
176
     1
 76
     1
176
     1
 77
     6
176
     1
 78
     2
176
     1
 67
     7
176
     1
 79
     3
176
     1
170
     0
176
     1
171
     0
176
     1
290
     0
176
     1
 93
        1
176
     1
 44
0.0
176
     1
173
     0
176
     1
  0
VISUALSTYLE
  5
35
102
{ACAD_REACTORS
330
2A
102
}
330
2A
100
AcDbVisualStyle
  2
Dim
 70
    11
177
     2
291
     1
 71
     2
176
     1
 72
     2
176
     1
 73
     0
176
     1
 90
        0
176
     1
 40
-0.6
176
     1
 41
-30.0
176
     1
 62
     5
 63
     7
421
 16777215
176
     1
 74
     1
176
     1
 91
        4
176
     1
 64
     7
176
     1
 65
   257
176
     1
 75
     1
176
     1
175
     1
176
     1
 42
1.0
176
     1
 92
        8
176
     1
 66
     7
176
     1
 43
1.0
176
     1
 76
     1
176
     1
 77
     6
176
     1
 78
     2
176
     1
 67
     7
176
     1
 79
     5
176
     1
170
     0
176
     1
171
     0
176
     1
290
     0
176
     1
 93
        1
176
     1
 44
-50.0
176
     1
173
     0
176
     1
  0
VISUALSTYLE
  5
39
102
{ACAD_REACTORS
330
2A
102
}
330
2A
100
AcDbVisualStyle
  2
Facepattern
 70
    15
177
     2
291
     1
 71
     2
176
     1
 72
     2
176
     1
 73
     0
176
     1
 90
        0
176
     1
 40
-0.6
176
     1
 41
-30.0
176
     1
 62
     5
 63
     7
421
 16777215
176
     1
 74
     1
176
     1
 91
        4
176
     1
 64
     7
176
     1
 65
   257
176
     1
 75
     1
176
     1
175
     1
176
     1
 42
1.0
176
     1
 92
        8
176
     1
 66
     7
176
     1
 43
1.0
176
     1
 76
     1
176
     1
 77
     6
176
     1
 78
     2
176
     1
 67
     7
176
     1
 79
     5
176
     1
170
     0
176
     1
171
     0
176
     1
290
     0
176
     1
 93
        1
176
     1
 44
0.0
176
     1
173
     0
176
     1
  0
VISUALSTYLE
  5
2B
102
{ACAD_REACTORS
330
2A
102
}
330
2A
100
AcDbVisualStyle
  2
Flat
 70
     0
177
     2
291
     1
 71
     2
176
     1
 72
     1
176
     1
 73
     1
176
     1
 90
        2
176
     1
 40
-0.6
176
     1
 41
30.0
176
     1
 62
     5
 63
     7
421
 16777215
176
     1
 74
     0
176
     1
 91
        4
176
     1
 64
     7
176
     1
 65
   257
176
     1
 75
     1
176
     1
175
     1
176
     1
 42
1.0
176
     1
 92
        8
176
     1
 66
     7
176
     1
 43
1.0
176
     1
 76
     1
176
     1
 77
     6
176
     1
 78
     2
176
     1
 67
     7
176
     1
 79
     5
176
     1
170
     0
176
     1
171
     0
176
     1
290
     0
176
     1
 93
       13
176
     1
 44
0.0
176
     1
173
     0
176
     1
  0
VISUALSTYLE
  5
2C
102
{ACAD_REACTORS
330
2A
102
}
330
2A
100
AcDbVisualStyle
  2
FlatWithEdges
 70
     1
177
     2
291
     1
 71
     2
176
     1
 72
     1
176
     1
 73
     1
176
     1
 90
        2
176
     1
 40
-0.6
176
     1
 41
30.0
176
     1
 62
     5
 63
     7
421
 16777215
176
     1
 74
     1
176
     1
 91
        4
176
     1
 64
     7
176
     1
 65
   257
176
     1
 75
     1
176
     1
175
     1
176
     1
 42
1.0
176
     1
 92
        0
176
     1
 66
   257
176
     1
 43
1.0
176
     1
 76
     1
176
     1
 77
     6
176
     1
 78
     2
176
     1
 67
     7
176
     1
 79
     5
176
     1
170
     0
176
     1
171
     0
176
     1
290
     0
176
     1
 93
       13
176
     1
 44
0.0
176
     1
173
     0
176
     1
  0
VISUALSTYLE
  5
2D
102
{ACAD_REACTORS
330
2A
102
}
330
2A
100
AcDbVisualStyle
  2
Gouraud
 70
     2
177
     2
291
     1
 71
     2
176
     1
 72
     2
176
     1
 73
     1
176
     1
 90
        2
176
     1
 40
-0.6
176
     1
 41
30.0
176
     1
 62
     5
 63
     7
421
 16777215
176
     1
 74
     0
176
     1
 91
        4
176
     1
 64
     7
176
     1
 65
   257
176
     1
 75
     1
176
     1
175
     1
176
     1
 42
1.0
176
     1
 92
        0
176
     1
 66
     7
176
     1
 43
1.0
176
     1
 76
     1
176
     1
 77
     6
176
     1
 78
     2
176
     1
 67
     7
176
     1
 79
     5
176
     1
170
     0
176
     1
171
     0
176
     1
290
     0
176
     1
 93
       13
176
     1
 44
0.0
176
     1
173
     0
176
     1
  0
VISUALSTYLE
  5
2E
102
{ACAD_REACTORS
330
2A
102
}
330
2A
100
AcDbVisualStyle
  2
GouraudWithEdges
 70
     3
177
     2
291
     1
 71
     2
176
     1
 72
     2
176
     1
 73
     1
176
     1
 90
        2
176
     1
 40
-0.6
176
     1
 41
30.0
176
     1
 62
     5
 63
     7
421
 16777215
176
     1
 74
     1
176
     1
 91
        4
176
     1
 64
     7
176
     1
 65
   257
176
     1
 75
     1
176
     1
175
     1
176
     1
 42
1.0
176
     1
 92
        0
176
     1
 66
   257
176
     1
 43
1.0
176
     1
 76
     1
176
     1
 77
     6
176
     1
 78
     2
176
     1
 67
     7
176
     1
 79
     5
176
     1
170
     0
176
     1
171
     0
176
     1
290
     0
176
     1
 93
       13
176
     1
 44
0.0
176
     1
173
     0
176
     1
  0
VISUALSTYLE
  5
38
102
{ACAD_REACTORS
330
2A
102
}
330
2A
100
AcDbVisualStyle
  2
Linepattern
 70
    14
177
     2
291
     1
 71
     2
176
     1
 72
     2
176
     1
 73
     0
176
     1
 90
        0
176
     1
 40
-0.6
176
     1
 41
-30.0
176
     1
 62
     5
 63
     7
421
 16777215
176
     1
 74
     1
176
     1
 91
        4
176
     1
 64
     7
176
     1
 65
   257
176
     1
 75
     7
176
     1
175
     7
176
     1
 42
1.0
176
     1
 92
        8
176
     1
 66
     7
176
     1
 43
1.0
176
     1
 76
     1
176
     1
 77
     6
176
     1
 78
     2
176
     1
 67
     7
176
     1
 79
     5
176
     1
170
     0
176
     1
171
     0
176
     1
290
     0
176
     1
 93
        1
176
     1
 44
0.0
176
     1
173
     0
176
     1
  0
VISUALSTYLE
  5
33
102
{ACAD_REACTORS
330
2A
102
}
330
2A
100
AcDbVisualStyle
  2
Realistic
 70
     8
177
     2
291
     0
 71
     2
176
     1
 72
     2
176
     1
 73
     0
176
     1
 90
        0
176
     1
 40
-0.6
176
     1
 41
-30.0
176
     1
 62
     5
 63
     7
421
 16777215
176
     1
 74
     1
176
     1
 91
        0
176
     1
 64
     7
176
     1
 65
   257
176
     1
 75
     1
176
     1
175
     1
176
     1
 42
1.0
176
     1
 92
        8
176
     1
 66
     8
424
  7895160
176
     1
 43
1.0
176
     1
 76
     1
176
     1
 77
     6
176
     1
 78
     2
176
     1
 67
     7
176
     1
 79
     5
176
     1
170
     0
176
     1
171
     0
176
     1
290
     0
176
     1
 93
       13
176
     1
 44
0.0
176
     1
173
     0
176
     1
  0
VISUALSTYLE
  5
37
102
{ACAD_REACTORS
330
2A
102
}
330
2A
100
AcDbVisualStyle
  2
Thicken
 70
    13
177
     2
291
     1
 71
     2
176
     1
 72
     2
176
     1
 73
     0
176
     1
 90
        0
176
     1
 40
-0.6
176
     1
 41
-30.0
176
     1
 62
     5
 63
     7
421
 16777215
176
     1
 74
     1
176
     1
 91
        4
176
     1
 64
     7
176
     1
 65
   257
176
     1
 75
     1
176
     1
175
     1
176
     1
 42
1.0
176
     1
 92
       12
176
     1
 66
     7
176
     1
 43
1.0
176
     1
 76
     1
176
     1
 77
     6
176
     1
 78
     2
176
     1
 67
     7
176
     1
 79
     5
176
     1
170
     0
176
     1
171
     0
176
     1
290
     0
176
     1
 93
        1
176
     1
 44
0.0
176
     1
173
     0
176
     1
  0
ENDSEC
  0
EOF
