  0
SECTION
  2
HEADER
  9
$ACADVER
  1
AC1024
  9
$ACADMAINTVER
 70
     6
  9
$DWGCODEPAGE
  3
UNDEFINED
  9
$INSBASE
 10
0.0
 20
0.0
 30
0.0
  9
$EXTMIN
 10
1.000000000000000E+20
 20
1.000000000000000E+20
 30
1.000000000000000E+20
  9
$EXTMAX
 10
-1.000000000000000E+20
 20
-1.000000000000000E+20
 30
-1.000000000000000E+20
  9
$LIMMIN
 10
0.0
 20
0.0
  9
$LIMMAX
 10
12.0
 20
9.0
  9
$ORTHOMODE
 70
     0
  9
$REGENMODE
 70
     1
  9
$FILLMODE
 70
     1
  9
$QTEXTMODE
 70
     0
  9
$MIRRTEXT
 70
     1
  9
$LTSCALE
 40
1.0
  9
$ATTMODE
 70
     1
  9
$TEXTSIZE
 40
0.2
  9
$TRACEWID
 40
0.05
  9
$TEXTSTYLE
  7
Standard
  9
$CLAYER
  8
0
  9
$CELTYPE
  6
ByLayer
  9
$CECOLOR
 62
   256
  9
$CELTSCALE
 40
1.0
  9
$DISPSILH
 70
     0
  9
$DIMSCALE
 40
1.0
  9
$DIMASZ
 40
0.18
  9
$DIMEXO
 40
0.0625
  9
$DIMDLI
 40
0.38
  9
$DIMRND
 40
0.0
  9
$DIMDLE
 40
0.0
  9
$DIMEXE
 40
0.18
  9
$DIMTP
 40
0.0
  9
$DIMTM
 40
0.0
  9
$DIMTXT
 40
0.18
  9
$DIMCEN
 40
0.09
  9
$DIMTSZ
 40
0.0
  9
$DIMTOL
 70
     0
  9
$DIMLIM
 70
     0
  9
$DIMTIH
 70
     1
  9
$DIMTOH
 70
     1
  9
$DIMSE1
 70
     0
  9
$DIMSE2
 70
     0
  9
$DIMTAD
 70
     0
  9
$DIMZIN
 70
     0
  9
$DIMBLK
  1

  9
$DIMASO
 70
     1
  9
$DIMSHO
 70
     1
  9
$DIMPOST
  1

  9
$DIMAPOST
  1

  9
$DIMALT
 70
     0
  9
$DIMALTD
 70
     2
  9
$DIMALTF
 40
25.4
  9
$DIMLFAC
 40
1.0
  9
$DIMTOFL
 70
     0
  9
$DIMTVP
 40
0.0
  9
$DIMTIX
 70
     0
  9
$DIMSOXD
 70
     0
  9
$DIMSAH
 70
     0
  9
$DIMBLK1
  1

  9
$DIMBLK2
  1

  9
$DIMSTYLE
  2
Standard
  9
$DIMCLRD
 70
     0
  9
$DIMCLRE
 70
     0
  9
$DIMCLRT
 70
     0
  9
$DIMTFAC
 40
1.0
  9
$DIMGAP
 40
0.09
  9
$DIMJUST
 70
     0
  9
$DIMSD1
 70
     0
  9
$DIMSD2
 70
     0
  9
$DIMTOLJ
 70
     1
  9
$DIMTZIN
 70
     0
  9
$DIMALTZ
 70
     0
  9
$DIMALTTZ
 70
     0
  9
$DIMUPT
 70
     0
  9
$DIMDEC
 70
     4
  9
$DIMTDEC
 70
     4
  9
$DIMALTU
 70
     2
  9
$DIMALTTD
 70
     2
  9
$DIMTXSTY
  7
Standard
  9
$DIMAUNIT
 70
     0
  9
$DIMADEC
 70
     0
  9
$DIMALTRND
 40
0.0
  9
$DIMAZIN
 70
     0
  9
$DIMDSEP
 70
    46
  9
$DIMATFIT
 70
     3
  9
$DIMFRAC
 70
     0
  9
$DIMLDRBLK
  1

  9
$DIMLUNIT
 70
     2
  9
$DIMLWD
 70
    -2
  9
$DIMLWE
 70
    -2
  9
$DIMTMOVE
 70
     0
  9
$DIMFXL
 40
1.0
  9
$DIMFXLON
 70
     0
  9
$DIMJOGANG
 40
0.7853981633974483
  9
$DIMTFILL
 70
     0
  9
$DIMTFILLCLR
 70
     0
  9
$DIMARCSYM
 70
     0
  9
$DIMLTYPE
  6

  9
$DIMLTEX1
  6

  9
$DIMLTEX2
  6

  9
$DIMTXTDIRECTION
 70
     0
  9
$LUNITS
 70
     2
  9
$LUPREC
 70
     4
  9
$SKETCHINC
 40
0.1
  9
$FILLETRAD
 40
0.5
  9
$AUNITS
 70
     0
  9
$AUPREC
 70
     0
  9
$MENU
  1
.
  9
$ELEVATION
 40
0.0
  9
$PELEVATION
 40
0.0
  9
$THICKNESS
 40
0.0
  9
$LIMCHECK
 70
     0
  9
$CHAMFERA
 40
0.5
  9
$CHAMFERB
 40
0.5
  9
$CHAMFERC
 40
1.0
  9
$CHAMFERD
 40
0.0
  9
$SKPOLY
 70
     0
  9
$TDCREATE
 40
2457917.627118056
  9
$TDUCREATE
 40
2457917.252118056
  9
$TDUPDATE
 40
2457917.627118056
  9
$TDUUPDATE
 40
2457917.252118056
  9
$TDINDWG
 40
0.0000000116
  9
$TDUSRTIMER
 40
0.0000000116
  9
$USRTIMER
 70
     1
  9
$ANGBASE
 50
0.0
  9
$ANGDIR
 70
     0
  9
$PDMODE
 70
     0
  9
$PDSIZE
 40
0.0
  9
$PLINEWID
 40
0.0
  9
$SPLFRAME
 70
     0
  9
$SPLINETYPE
 70
     6
  9
$SPLINESEGS
 70
     8
  9
$HANDSEED
  5
166
  9
$SURFTAB1
 70
     6
  9
$SURFTAB2
 70
     6
  9
$SURFTYPE
 70
     6
  9
$SURFU
 70
     6
  9
$SURFV
 70
     6
  9
$UCSBASE
  2

  9
$UCSNAME
  2

  9
$UCSORG
 10
0.0
 20
0.0
 30
0.0
  9
$UCSXDIR
 10
1.0
 20
0.0
 30
0.0
  9
$UCSYDIR
 10
0.0
 20
1.0
 30
0.0
  9
$UCSORTHOREF
  2

  9
$UCSORTHOVIEW
 70
     0
  9
$UCSORGTOP
 10
0.0
 20
0.0
 30
0.0
  9
$UCSORGBOTTOM
 10
0.0
 20
0.0
 30
0.0
  9
$UCSORGLEFT
 10
0.0
 20
0.0
 30
0.0
  9
$UCSORGRIGHT
 10
0.0
 20
0.0
 30
0.0
  9
$UCSORGFRONT
 10
0.0
 20
0.0
 30
0.0
  9
$UCSORGBACK
 10
0.0
 20
0.0
 30
0.0
  9
$PUCSBASE
  2

  9
$PUCSNAME
  2

  9
$PUCSORG
 10
0.0
 20
0.0
 30
0.0
  9
$PUCSXDIR
 10
1.0
 20
0.0
 30
0.0
  9
$PUCSYDIR
 10
0.0
 20
1.0
 30
0.0
  9
$PUCSORTHOREF
  2

  9
$PUCSORTHOVIEW
 70
     0
  9
$PUCSORGTOP
 10
0.0
 20
0.0
 30
0.0
  9
$PUCSORGBOTTOM
 10
0.0
 20
0.0
 30
0.0
  9
$PUCSORGLEFT
 10
0.0
 20
0.0
 30
0.0
  9
$PUCSORGRIGHT
 10
0.0
 20
0.0
 30
0.0
  9
$PUCSORGFRONT
 10
0.0
 20
0.0
 30
0.0
  9
$PUCSORGBACK
 10
0.0
 20
0.0
 30
0.0
  9
$USERI1
 70
     0
  9
$USERI2
 70
     0
  9
$USERI3
 70
     0
  9
$USERI4
 70
     0
  9
$USERI5
 70
     0
  9
$USERR1
 40
0.0
  9
$USERR2
 40
0.0
  9
$USERR3
 40
0.0
  9
$USERR4
 40
0.0
  9
$USERR5
 40
0.0
  9
$WORLDVIEW
 70
     1
  9
$SHADEDGE
 70
     3
  9
$SHADEDIF
 70
    70
  9
$TILEMODE
 70
     1
  9
$MAXACTVP
 70
    64
  9
$PINSBASE
 10
0.0
 20
0.0
 30
0.0
  9
$PLIMCHECK
 70
     0
  9
$PEXTMIN
 10
1.000000000000000E+20
 20
1.000000000000000E+20
 30
1.000000000000000E+20
  9
$PEXTMAX
 10
-1.000000000000000E+20
 20
-1.000000000000000E+20
 30
-1.000000000000000E+20
  9
$PLIMMIN
 10
0.0
 20
0.0
  9
$PLIMMAX
 10
12.0
 20
9.0
  9
$UNITMODE
 70
     0
  9
$VISRETAIN
 70
     1
  9
$PLINEGEN
 70
     0
  9
$PSLTSCALE
 70
     1
  9
$TREEDEPTH
 70
  3020
  9
$CMLSTYLE
  2
Standard
  9
$CMLJUST
 70
     0
  9
$CMLSCALE
 40
1.0
  9
$PROXYGRAPHICS
 70
     1
  9
$MEASUREMENT
 70
     0
  9
$CELWEIGHT
370
    -1
  9
$ENDCAPS
280
     0
  9
$JOINSTYLE
280
     0
  9
$LWDISPLAY
290
     1
  9
$INSUNITS
 70
     1
  9
$HYPERLINKBASE
  1

  9
$STYLESHEET
  1

  9
$XEDIT
290
     1
  9
$CEPSNTYPE
380
     0
  9
$PSTYLEMODE
290
     1
  9
$FINGERPRINTGUID
  2
{95428652-A2A6-7441-3BED-F992368F5317}
  9
$VERSIONGUID
  2
{FAEB1C32-E019-11D5-929B-00C0DF256EC4}
  9
$EXTNAMES
290
     1
  9
$PSVPSCALE
 40
0.0
  9
$OLESTARTUP
290
     0
  9
$SORTENTS
280
   127
  9
$INDEXCTL
280
     0
  9
$HIDETEXT
280
     1
  9
$XCLIPFRAME
280
     2
  9
$HALOGAP
280
     0
  9
$OBSCOLOR
 70
   257
  9
$OBSLTYPE
280
     0
  9
$INTERSECTIONDISPLAY
280
     0
  9
$INTERSECTIONCOLOR
 70
   257
  9
$DIMASSOC
280
     2
  9
$PROJECTNAME
  1

  9
$CAMERADISPLAY
290
     0
  9
$LENSLENGTH
 40
50.0
  9
$CAMERAHEIGHT
 40
0.0
  9
$STEPSPERSEC
 40
2.0
  9
$STEPSIZE
 40
6.0
  9
$3DDWFPREC
 40
2.0
  9
$PSOLWIDTH
 40
0.25
  9
$PSOLHEIGHT
 40
4.0
  9
$LOFTANG1
 40
1.570796326794897
  9
$LOFTANG2
 40
1.570796326794897
  9
$LOFTMAG1
 40
0.0
  9
$LOFTMAG2
 40
0.0
  9
$LOFTPARAM
 70
     7
  9
$LOFTNORMALS
280
     1
  9
$LATITUDE
 40
37.795
  9
$LONGITUDE
 40
-122.394
  9
$NORTHDIRECTION
 40
0.0
  9
$TIMEZONE
 70
 -8000
  9
$LIGHTGLYPHDISPLAY
280
     1
  9
$TILEMODELIGHTSYNCH
280
     1
  9
$CMATERIAL
347
3C
  9
$SOLIDHIST
280
     1
  9
$SHOWHIST
280
     1
  9
$DWFFRAME
280
     2
  9
$DGNFRAME
280
     2
  9
$REALWORLDSCALE
290
     1
  9
$INTERFERECOLOR
 62
   256
  9
$CSHADOW
280
     0
  9
$SHADOWPLANELOCATION
 40
0.0
  0
ENDSEC
  0
SECTION
  2
CLASSES
  0
CLASS
  1
ACDBDICTIONARYWDFLT
  2
AcDbDictionaryWithDefault
  3
ObjectDBX Classes
 90
        0
 91
        4
280
     0
281
     0
  0
CLASS
  1
VISUALSTYLE
  2
AcDbVisualStyle
  3
ObjectDBX Classes
 90
     4095
 91
        4
280
     0
281
     0
  0
CLASS
  1
MATERIAL
  2
AcDbMaterial
  3
ObjectDBX Classes
 90
     1153
 91
        4
280
     0
281
     0
  0
CLASS
  1
SUN
  2
AcDbSun
  3
SCENEOE
 90
     1024
 91
        4
280
     0
281
     0
  0
ENDSEC
  0
SECTION
  2
TABLES
  0
TABLE
  2
VPORT
  5
8
330
0
100
AcDbSymbolTable
 70
     1
  0
VPORT
  5
29
330
8
100
AcDbSymbolTableRecord
100
AcDbViewportTableRecord
  2
*Active
 70
     0
 10
0.0
 20
0.0
 11
1.0
 21
1.0
 12
0.0
 22
0.0
 13
0.0
 23
0.0
 14
0.5
 24
0.5
 15
0.5
 25
0.5
 16
0.0
 26
0.0
 36
1.0
 17
91.00082462281999
 27
-128.4993055234307
 37
0.0
 40
256.9986110468615
 41
0.7081814508812795
 42
50.0
 43
0.0
 44
0.0
 50
0.0
 51
0.0
 71
     0
 72
   100
 73
     1
 74
     3
 75
     0
 76
     0
 77
     0
 78
     0
281
     0
 65
     1
110
0.0
120
0.0
130
0.0
111
1.0
121
0.0
131
0.0
112
0.0
122
1.0
132
0.0
 79
     0
146
0.0
 60
     3
 61
     5
292
     1
282
     1
141
0.0
142
0.0
 63
   250
361
3F
  0
ENDTAB
  0
TABLE
  2
LTYPE
  5
5
330
0
100
AcDbSymbolTable
 70
     1
  0
LTYPE
  5
14
330
5
100
AcDbSymbolTableRecord
100
AcDbLinetypeTableRecord
  2
ByBlock
 70
     0
  3

 72
    65
 73
     0
 40
0.0
  0
LTYPE
  5
15
330
5
100
AcDbSymbolTableRecord
100
AcDbLinetypeTableRecord
  2
ByLayer
 70
     0
  3

 72
    65
 73
     0
 40
0.0
  0
LTYPE
  5
16
330
5
100
AcDbSymbolTableRecord
100
AcDbLinetypeTableRecord
  2
Continuous
 70
     0
  3
Solid line
 72
    65
 73
     0
 40
0.0
  0
ENDTAB
  0
TABLE
  2
LAYER
  5
2
330
0
100
AcDbSymbolTable
 70
     2
  0
LAYER
  5
10
330
2
100
AcDbSymbolTableRecord
100
AcDbLayerTableRecord
  2
0
 70
     0
 62
     7
  6
Continuous
370
    -3
390
F
347
3E
  0
LAYER
  5
40
330
2
100
AcDbSymbolTableRecord
100
AcDbLayerTableRecord
  2
_U+30EC_U+30A4_U+30E4_U+30FC 1
 70
     0
 62
     7
  6
Continuous
370
    -3
390
F
347
3E
  0
ENDTAB
  0
TABLE
  2
STYLE
  5
3
330
0
100
AcDbSymbolTable
 70
     1
  0
STYLE
  5
11
330
3
100
AcDbSymbolTableRecord
100
AcDbTextStyleTableRecord
  2
Standard
 70
     0
 40
0.0
 41
1.0
 50
0.0
 71
     0
 42
0.2
  3
txt
  4

  0
ENDTAB
  0
TABLE
  2
VIEW
  5
6
330
0
100
AcDbSymbolTable
 70
     0
  0
ENDTAB
  0
TABLE
  2
UCS
  5
7
330
0
100
AcDbSymbolTable
 70
     0
  0
ENDTAB
  0
TABLE
  2
APPID
  5
9
330
0
100
AcDbSymbolTable
 70
     1
  0
APPID
  5
12
330
9
100
AcDbSymbolTableRecord
100
AcDbRegAppTableRecord
  2
ACAD
 70
     0
  0
ENDTAB
  0
TABLE
  2
DIMSTYLE
  5
A
330
0
100
AcDbSymbolTable
 70
     1
100
AcDbDimStyleTable
  0
DIMSTYLE
105
27
330
A
100
AcDbSymbolTableRecord
100
AcDbDimStyleTableRecord
  2
Standard
 70
     0
178
     0
340
11
  0
ENDTAB
  0
TABLE
  2
BLOCK_RECORD
  5
1
330
0
100
AcDbSymbolTable
 70
     8
  0
BLOCK_RECORD
  5
1F
330
1
100
AcDbSymbolTableRecord
100
AcDbBlockTableRecord
  2
*Model_Space
340
22
 70
     0
280
     1
281
     0
  0
BLOCK_RECORD
  5
1B
330
1
100
AcDbSymbolTableRecord
100
AcDbBlockTableRecord
  2
*Paper_Space
340
1E
 70
     0
280
     1
281
     0
  0
BLOCK_RECORD
  5
23
330
1
100
AcDbSymbolTableRecord
100
AcDbBlockTableRecord
  2
*Paper_Space0
340
26
 70
     0
280
     1
281
     0
  0
BLOCK_RECORD
  5
A2
330
1
100
AcDbSymbolTableRecord
100
AcDbBlockTableRecord
  2
block 2
340
0
102
{BLKREFS
331
A3
102
}
 70
     0
280
     1
281
     0
  0
BLOCK_RECORD
  5
B6
330
1
100
AcDbSymbolTableRecord
100
AcDbBlockTableRecord
  2
block 3
340
0
102
{BLKREFS
331
B7
102
}
 70
     0
280
     1
281
     0
  0
BLOCK_RECORD
  5
CA
330
1
100
AcDbSymbolTableRecord
100
AcDbBlockTableRecord
  2
block 4
340
0
102
{BLKREFS
331
CB
102
}
 70
     0
280
     1
281
     0
  0
BLOCK_RECORD
  5
EB
330
1
100
AcDbSymbolTableRecord
100
AcDbBlockTableRecord
  2
block 5
340
0
102
{BLKREFS
331
EC
102
}
 70
     0
280
     1
281
     0
  0
BLOCK_RECORD
  5
110
330
1
100
AcDbSymbolTableRecord
100
AcDbBlockTableRecord
  2
block 6
340
0
102
{BLKREFS
331
111
102
}
 70
     0
280
     1
281
     0
  0
BLOCK_RECORD
  5
13E
330
1
100
AcDbSymbolTableRecord
100
AcDbBlockTableRecord
  2
block 7
340
0
102
{BLKREFS
331
13F
102
}
 70
     0
280
     1
281
     0
  0
BLOCK_RECORD
  5
154
330
1
100
AcDbSymbolTableRecord
100
AcDbBlockTableRecord
  2
block 8
340
0
102
{BLKREFS
331
155
102
}
 70
     0
280
     1
281
     0
  0
ENDTAB
  0
ENDSEC
  0
SECTION
  2
BLOCKS
  0
BLOCK
  5
20
330
1F
100
AcDbEntity
  8
0
100
AcDbBlockBegin
  2
*Model_Space
 70
     0
 10
0.0
 20
0.0
 30
0.0
  3
*Model_Space
  1

  0
ENDBLK
  5
21
330
1F
100
AcDbEntity
  8
0
100
AcDbBlockEnd
  0
BLOCK
  5
1C
330
1B
100
AcDbEntity
 67
     1
  8
0
100
AcDbBlockBegin
  2
*Paper_Space
 70
     0
 10
0.0
 20
0.0
 30
0.0
  3
*Paper_Space
  1

  0
ENDBLK
  5
1D
330
1B
100
AcDbEntity
 67
     1
  8
0
100
AcDbBlockEnd
  0
BLOCK
  5
24
330
23
100
AcDbEntity
  8
0
100
AcDbBlockBegin
  2
*Paper_Space0
 70
     0
 10
0.0
 20
0.0
 30
0.0
  3
*Paper_Space0
  1

  0
ENDBLK
  5
25
330
23
100
AcDbEntity
  8
0
100
AcDbBlockEnd
  0
BLOCK
  5
A4
330
A2
100
AcDbEntity
  8
0
100
AcDbBlockBegin
  2
block 2
 70
     0
 10
0.0
 20
0.0
 30
0.0
  3
block 2
  1

  0
SPLINE
  5
A6
330
A2
100
AcDbEntity
  8
_U+30EC_U+30A4_U+30E4_U+30FC 1
370
     0
100
AcDbSpline
210
0.0
220
0.0
230
1.0
 70
    11
 71
     3
 72
    62
 73
    58
 74
     0
 42
0.0000000001
 43
0.0000000001
 12
1.0
 22
0.0
 32
0.0
 13
1.0
 23
0.0
 33
0.0
 40
0.0
 40
0.0
 40
0.0
 40
0.0
 40
1.0
 40
1.0
 40
1.0
 40
2.0
 40
2.0
 40
2.0
 40
3.0
 40
3.0
 40
3.0
 40
4.0
 40
4.0
 40
4.0
 40
5.0
 40
5.0
 40
5.0
 40
6.0
 40
6.0
 40
6.0
 40
7.0
 40
7.0
 40
7.0
 40
8.0
 40
8.0
 40
8.0
 40
9.0
 40
9.0
 40
9.0
 40
10.0
 40
10.0
 40
10.0
 40
11.0
 40
11.0
 40
11.0
 40
12.0
 40
12.0
 40
12.0
 40
13.0
 40
13.0
 40
13.0
 40
14.0
 40
14.0
 40
14.0
 40
15.0
 40
15.0
 40
15.0
 40
16.0
 40
16.0
 40
16.0
 40
17.0
 40
17.0
 40
17.0
 40
18.0
 40
18.0
 40
18.0
 40
19.0
 40
19.0
 40
19.0
 40
19.0
 10
97.76388615177432
 20
-115.0746296912834
 30
0.0
 10
97.66466740179912
 20
-115.0746296912834
 30
0.0
 10
97.43798011886967
 20
-115.0517198063065
 30
0.0
 10
97.30810001907575
 20
-114.8508707395165
 30
0.0
 10
97.23127438975469
 20
-114.7299478879842
 30
0.0
 10
97.22679576562386
 20
-114.6228054183929
 30
0.0
 10
97.22231714149304
 20
-114.5315103880338
 30
0.0
 10
97.22231714149304
 20
-114.5315103880338
 30
0.0
 10
97.45141599126215
 20
-114.5315103880338
 30
0.0
 10
97.45141599126215
 20
-114.5315103880338
 30
0.0
 10
97.4534830485533
 20
-114.6112643485173
 30
0.0
 10
97.4645073541061
 20
-114.8646511214575
 30
0.0
 10
97.75940752764349
 20
-114.8646511214575
 30
0.0
 10
97.90272349982988
 20
-114.8646511214575
 30
0.0
 10
98.06119789215137
 20
-114.7893757851047
 30
0.0
 10
98.06119789215137
 20
-114.5428792031351
 30
0.0
 10
98.06119789215137
 20
-114.4173054726978
 30
0.0
 10
98.021579294071
 20
-114.3647677665477
 30
0.0
 10
97.9885063774126
 20
-114.3306613212437
 30
0.0
 10
97.911336238543
 20
-114.2507351059859
 30
0.0
 10
97.79041338701073
 20
-114.2369547240449
 30
0.0
 10
97.73322480195559
 20
-114.2369547240449
 30
0.0
 10
97.71324324814114
 20
-114.2369547240449
 30
0.0
 10
97.67569170735192
 20
-114.2393662908846
 30
0.0
 10
97.64709741482434
 20
-114.2438449150154
 30
0.0
 10
97.64709741482434
 20
-114.2438449150154
 30
0.0
 10
97.64709741482434
 20
-114.0338663451895
 30
0.0
 10
97.64709741482434
 20
-114.0338663451895
 30
0.0
 10
97.68671601290471
 20
-114.04075653616
 30
0.0
 10
97.73081323511592
 20
-114.0429958482254
 30
0.0
 10
97.73735891653789
 20
-114.0429958482254
 30
0.0
 10
97.80557180714584
 20
-114.0429958482254
 30
0.0
 10
98.01262204580935
 20
-114.0202582180227
 30
0.0
 10
98.01262204580935
 20
-113.7646321330172
 30
0.0
 10
98.01262204580935
 20
-113.5727403144888
 30
0.0
 10
97.87619626459346
 20
-113.5134846721425
 30
0.0
 10
97.76181909448316
 20
-113.5134846721425
 30
0.0
 10
97.48655596521169
 20
-113.5134846721425
 30
0.0
 10
97.47759871695006
 20
-113.7646321330172
 30
0.0
 10
97.47312009281923
 20
-113.8421467814353
 30
0.0
 10
97.47312009281923
 20
-113.8421467814353
 30
0.0
 10
97.2619357395734
 20
-113.8421467814353
 30
0.0
 10
97.2619357395734
 20
-113.8421467814353
 30
0.0
 10
97.27089298783505
 20
-113.707443547962
 30
0.0
 10
97.29948728036263
 20
-113.3012667902511
 30
0.0
 10
97.77491045732711
 20
-113.3012667902511
 30
0.0
 10
98.00814342167853
 20
-113.3012667902511
 30
0.0
 10
98.25929088255323
 20
-113.4382093357898
 30
0.0
 10
98.25929088255323
 20
-113.7577419420467
 30
0.0
 10
98.25929088255323
 20
-113.9585910088367
 30
0.0
 10
98.16007213257804
 20
-114.0474744723562
 30
0.0
 10
98.05671926802054
 20
-114.1137925604473
 30
0.0
 10
98.12045353449767
 20
-114.1434203816204
 30
0.0
 10
98.3099337861864
 20
-114.2300645330744
 30
0.0
 10
98.3099337861864
 20
-114.5290988211941
 30
0.0
 10
98.3099337861864
 20
-114.8942789426306
 30
0.0
 10
98.05224064388972
 20
-115.0746296912834
 30
0.0
 10
97.76388615177432
 20
-115.0746296912834
 30
0.0
  0
HATCH
  5
A7
330
A2
100
AcDbEntity
  8
_U+30EC_U+30A4_U+30E4_U+30FC 1
 62
   179
420
  2234388
100
AcDbHatch
 10
0.0
 20
0.0
 30
0.0
210
0.0
220
0.0
230
1.0
  2
SOLID
 70
     1
 71
     0
 91
        1
 92
        1
 93
        1
 72
     4
 94
        3
 73
     0
 74
     1
 95
       62
 96
       58
 40
0.0
 40
0.0
 40
0.0
 40
0.0
 40
1.0
 40
1.0
 40
1.0
 40
2.0
 40
2.0
 40
2.0
 40
3.0
 40
3.0
 40
3.0
 40
4.0
 40
4.0
 40
4.0
 40
5.0
 40
5.0
 40
5.0
 40
6.0
 40
6.0
 40
6.0
 40
7.0
 40
7.0
 40
7.0
 40
8.0
 40
8.0
 40
8.0
 40
9.0
 40
9.0
 40
9.0
 40
10.0
 40
10.0
 40
10.0
 40
11.0
 40
11.0
 40
11.0
 40
12.0
 40
12.0
 40
12.0
 40
13.0
 40
13.0
 40
13.0
 40
14.0
 40
14.0
 40
14.0
 40
15.0
 40
15.0
 40
15.0
 40
16.0
 40
16.0
 40
16.0
 40
17.0
 40
17.0
 40
17.0
 40
18.0
 40
18.0
 40
18.0
 40
19.0
 40
19.0
 40
19.0
 40
19.0
 10
97.76388615177432
 20
-115.0746296912834
 10
97.66466740179912
 20
-115.0746296912834
 10
97.43798011886967
 20
-115.0517198063065
 10
97.30810001907575
 20
-114.8508707395165
 10
97.23127438975469
 20
-114.7299478879842
 10
97.22679576562386
 20
-114.6228054183929
 10
97.22231714149304
 20
-114.5315103880338
 10
97.22231714149304
 20
-114.5315103880338
 10
97.45141599126215
 20
-114.5315103880338
 10
97.45141599126215
 20
-114.5315103880338
 10
97.4534830485533
 20
-114.6112643485173
 10
97.4645073541061
 20
-114.8646511214575
 10
97.75940752764349
 20
-114.8646511214575
 10
97.90272349982988
 20
-114.8646511214575
 10
98.06119789215137
 20
-114.7893757851047
 10
98.06119789215137
 20
-114.5428792031351
 10
98.06119789215137
 20
-114.4173054726978
 10
98.021579294071
 20
-114.3647677665477
 10
97.9885063774126
 20
-114.3306613212437
 10
97.911336238543
 20
-114.2507351059859
 10
97.79041338701073
 20
-114.2369547240449
 10
97.73322480195559
 20
-114.2369547240449
 10
97.71324324814114
 20
-114.2369547240449
 10
97.67569170735192
 20
-114.2393662908846
 10
97.64709741482434
 20
-114.2438449150154
 10
97.64709741482434
 20
-114.2438449150154
 10
97.64709741482434
 20
-114.0338663451895
 10
97.64709741482434
 20
-114.0338663451895
 10
97.68671601290471
 20
-114.04075653616
 10
97.73081323511592
 20
-114.0429958482254
 10
97.73735891653789
 20
-114.0429958482254
 10
97.80557180714584
 20
-114.0429958482254
 10
98.01262204580935
 20
-114.0202582180227
 10
98.01262204580935
 20
-113.7646321330172
 10
98.01262204580935
 20
-113.5727403144888
 10
97.87619626459346
 20
-113.5134846721425
 10
97.76181909448316
 20
-113.5134846721425
 10
97.48655596521169
 20
-113.5134846721425
 10
97.47759871695006
 20
-113.7646321330172
 10
97.47312009281923
 20
-113.8421467814353
 10
97.47312009281923
 20
-113.8421467814353
 10
97.2619357395734
 20
-113.8421467814353
 10
97.2619357395734
 20
-113.8421467814353
 10
97.27089298783505
 20
-113.707443547962
 10
97.29948728036263
 20
-113.3012667902511
 10
97.77491045732711
 20
-113.3012667902511
 10
98.00814342167853
 20
-113.3012667902511
 10
98.25929088255323
 20
-113.4382093357898
 10
98.25929088255323
 20
-113.7577419420467
 10
98.25929088255323
 20
-113.9585910088367
 10
98.16007213257804
 20
-114.0474744723562
 10
98.05671926802054
 20
-114.1137925604473
 10
98.12045353449767
 20
-114.1434203816204
 10
98.3099337861864
 20
-114.2300645330744
 10
98.3099337861864
 20
-114.5290988211941
 10
98.3099337861864
 20
-114.8942789426306
 10
98.05224064388972
 20
-115.0746296912834
 10
97.76388615177432
 20
-115.0746296912834
 97
        0
 97
        0
 75
     2
 76
     1
 98
        0
  0
SPLINE
  5
A8
330
A2
100
AcDbEntity
  8
_U+30EC_U+30A4_U+30E4_U+30FC 1
370
     0
100
AcDbSpline
210
0.0
220
0.0
230
1.0
 70
    11
 71
     3
 72
    53
 73
    49
 74
     0
 42
0.0000000001
 43
0.0000000001
 12
1.0
 22
0.0
 32
0.0
 13
1.0
 23
0.0
 33
0.0
 40
0.0
 40
0.0
 40
0.0
 40
0.0
 40
1.0
 40
1.0
 40
1.0
 40
2.0
 40
2.0
 40
2.0
 40
3.0
 40
3.0
 40
3.0
 40
4.0
 40
4.0
 40
4.0
 40
5.0
 40
5.0
 40
5.0
 40
6.0
 40
6.0
 40
6.0
 40
7.0
 40
7.0
 40
7.0
 40
8.0
 40
8.0
 40
8.0
 40
9.0
 40
9.0
 40
9.0
 40
10.0
 40
10.0
 40
10.0
 40
11.0
 40
11.0
 40
11.0
 40
12.0
 40
12.0
 40
12.0
 40
13.0
 40
13.0
 40
13.0
 40
14.0
 40
14.0
 40
14.0
 40
15.0
 40
15.0
 40
15.0
 40
16.0
 40
16.0
 40
16.0
 40
16.0
 10
98.97621525303373
 20
-115.0746296912834
 30
0.0
 10
98.89491099958184
 20
-115.0746296912834
 30
0.0
 10
98.78914656818466
 20
-115.0563706852116
 30
0.0
 10
98.68338213678749
 20
-114.9879855398294
 30
0.0
 10
98.5028591333604
 20
-114.8691297455883
 30
0.0
 10
98.4808105222548
 20
-114.7277085759188
 30
0.0
 10
98.46117347798888
 20
-114.6112643485173
 30
0.0
 10
98.46117347798888
 20
-114.6112643485173
 30
0.0
 10
98.69233938504914
 20
-114.6112643485173
 30
0.0
 10
98.69233938504914
 20
-114.6112643485173
 30
0.0
 10
98.7495279701043
 20
-114.8258937972484
 30
0.0
 10
98.88147512718936
 20
-114.8577609304869
 30
0.0
 10
98.97828231032487
 20
-114.8577609304869
 30
0.0
 10
99.12366533980241
 20
-114.8577609304869
 30
0.0
 10
99.28213973212391
 20
-114.7506184608957
 30
0.0
 10
99.28213973212391
 20
-114.499471000021
 30
0.0
 10
99.28213973212391
 20
-114.2233465968782
 30
0.0
 10
99.09507104727484
 20
-114.1480712605255
 30
0.0
 10
98.96966957161176
 20
-114.1480712605255
 30
0.0
 10
98.93659665495336
 20
-114.1480712605255
 30
0.0
 10
98.78914656818466
 20
-114.1480712605255
 30
0.0
 10
98.69647349963144
 20
-114.2872531181296
 30
0.0
 10
98.69647349963144
 20
-114.2872531181296
 30
0.0
 10
98.5138834389132
 20
-114.2665825452181
 30
0.0
 10
98.5138834389132
 20
-114.2665825452181
 30
0.0
 10
98.5138834389132
 20
-114.2665825452181
 30
0.0
 10
98.6392849145763
 20
-113.3536322416269
 30
0.0
 10
98.6392849145763
 20
-113.3536322416269
 30
0.0
 10
98.6392849145763
 20
-113.3536322416269
 30
0.0
 10
99.44957137270706
 20
-113.3536322416269
 30
0.0
 10
99.44957137270706
 20
-113.3536322416269
 30
0.0
 10
99.44957137270706
 20
-113.3536322416269
 30
0.0
 10
99.44957137270706
 20
-113.5637830662271
 30
0.0
 10
99.44957137270706
 20
-113.5637830662271
 30
0.0
 10
99.44957137270706
 20
-113.5637830662271
 30
0.0
 10
98.80878361245058
 20
-113.5637830662271
 30
0.0
 10
98.80878361245058
 20
-113.5637830662271
 30
0.0
 10
98.80878361245058
 20
-113.5637830662271
 30
0.0
 10
98.74057072184264
 20
-114.0202582180227
 30
0.0
 10
98.74057072184264
 20
-114.0202582180227
 30
0.0
 10
98.80464949786828
 20
-113.9837402058791
 30
0.0
 10
98.89043237545101
 20
-113.9403320027649
 30
0.0
 10
99.01376679382295
 20
-113.9403320027649
 30
0.0
 10
99.27800561754161
 20
-113.9403320027649
 30
0.0
 10
99.52432994473698
 20
-114.141181069555
 30
0.0
 10
99.52432994473698
 20
-114.4789726818837
 30
0.0
 10
99.52432994473698
 20
-114.8212429183433
 30
0.0
 10
99.29109698038556
 20
-115.0746296912834
 30
0.0
 10
98.97621525303373
 20
-115.0746296912834
 30
0.0
  0
HATCH
  5
A9
330
A2
100
AcDbEntity
  8
_U+30EC_U+30A4_U+30E4_U+30FC 1
 62
   179
420
  2234388
100
AcDbHatch
 10
0.0
 20
0.0
 30
0.0
210
0.0
220
0.0
230
1.0
  2
SOLID
 70
     1
 71
     0
 91
        1
 92
        1
 93
        1
 72
     4
 94
        3
 73
     0
 74
     1
 95
       53
 96
       49
 40
0.0
 40
0.0
 40
0.0
 40
0.0
 40
1.0
 40
1.0
 40
1.0
 40
2.0
 40
2.0
 40
2.0
 40
3.0
 40
3.0
 40
3.0
 40
4.0
 40
4.0
 40
4.0
 40
5.0
 40
5.0
 40
5.0
 40
6.0
 40
6.0
 40
6.0
 40
7.0
 40
7.0
 40
7.0
 40
8.0
 40
8.0
 40
8.0
 40
9.0
 40
9.0
 40
9.0
 40
10.0
 40
10.0
 40
10.0
 40
11.0
 40
11.0
 40
11.0
 40
12.0
 40
12.0
 40
12.0
 40
13.0
 40
13.0
 40
13.0
 40
14.0
 40
14.0
 40
14.0
 40
15.0
 40
15.0
 40
15.0
 40
16.0
 40
16.0
 40
16.0
 40
16.0
 10
98.97621525303373
 20
-115.0746296912834
 10
98.89491099958184
 20
-115.0746296912834
 10
98.78914656818466
 20
-115.0563706852116
 10
98.68338213678749
 20
-114.9879855398294
 10
98.5028591333604
 20
-114.8691297455883
 10
98.4808105222548
 20
-114.7277085759188
 10
98.46117347798888
 20
-114.6112643485173
 10
98.46117347798888
 20
-114.6112643485173
 10
98.69233938504914
 20
-114.6112643485173
 10
98.69233938504914
 20
-114.6112643485173
 10
98.7495279701043
 20
-114.8258937972484
 10
98.88147512718936
 20
-114.8577609304869
 10
98.97828231032487
 20
-114.8577609304869
 10
99.12366533980241
 20
-114.8577609304869
 10
99.28213973212391
 20
-114.7506184608957
 10
99.28213973212391
 20
-114.499471000021
 10
99.28213973212391
 20
-114.2233465968782
 10
99.09507104727484
 20
-114.1480712605255
 10
98.96966957161176
 20
-114.1480712605255
 10
98.93659665495336
 20
-114.1480712605255
 10
98.78914656818466
 20
-114.1480712605255
 10
98.69647349963144
 20
-114.2872531181296
 10
98.69647349963144
 20
-114.2872531181296
 10
98.5138834389132
 20
-114.2665825452181
 10
98.5138834389132
 20
-114.2665825452181
 10
98.5138834389132
 20
-114.2665825452181
 10
98.6392849145763
 20
-113.3536322416269
 10
98.6392849145763
 20
-113.3536322416269
 10
98.6392849145763
 20
-113.3536322416269
 10
99.44957137270706
 20
-113.3536322416269
 10
99.44957137270706
 20
-113.3536322416269
 10
99.44957137270706
 20
-113.3536322416269
 10
99.44957137270706
 20
-113.5637830662271
 10
99.44957137270706
 20
-113.5637830662271
 10
99.44957137270706
 20
-113.5637830662271
 10
98.80878361245058
 20
-113.5637830662271
 10
98.80878361245058
 20
-113.5637830662271
 10
98.80878361245058
 20
-113.5637830662271
 10
98.74057072184264
 20
-114.0202582180227
 10
98.74057072184264
 20
-114.0202582180227
 10
98.80464949786828
 20
-113.9837402058791
 10
98.89043237545101
 20
-113.9403320027649
 10
99.01376679382295
 20
-113.9403320027649
 10
99.27800561754161
 20
-113.9403320027649
 10
99.52432994473698
 20
-114.141181069555
 10
99.52432994473698
 20
-114.4789726818837
 10
99.52432994473698
 20
-114.8212429183433
 10
99.29109698038556
 20
-115.0746296912834
 10
98.97621525303373
 20
-115.0746296912834
 97
        0
 97
        0
 75
     2
 76
     1
 98
        0
  0
ENDBLK
  5
A5
330
A2
100
AcDbEntity
  8
0
100
AcDbBlockEnd
  0
BLOCK
  5
B8
330
B6
100
AcDbEntity
  8
0
100
AcDbBlockBegin
  2
block 3
 70
     0
 10
0.0
 20
0.0
 30
0.0
  3
block 3
  1

  0
SPLINE
  5
BA
330
B6
100
AcDbEntity
  8
_U+30EC_U+30A4_U+30E4_U+30FC 1
370
     0
100
AcDbSpline
210
0.0
220
0.0
230
1.0
 70
    11
 71
     3
 72
    26
 73
    22
 74
     0
 42
0.0000000001
 43
0.0000000001
 12
1.0
 22
0.0
 32
0.0
 13
1.0
 23
0.0
 33
0.0
 40
0.0
 40
0.0
 40
0.0
 40
0.0
 40
1.0
 40
1.0
 40
1.0
 40
2.0
 40
2.0
 40
2.0
 40
3.0
 40
3.0
 40
3.0
 40
4.0
 40
4.0
 40
4.0
 40
5.0
 40
5.0
 40
5.0
 40
6.0
 40
6.0
 40
6.0
 40
7.0
 40
7.0
 40
7.0
 40
7.0
 10
87.72246634091661
 20
-143.643256257492
 30
0.0
 10
87.72246634091661
 20
-143.643256257492
 30
0.0
 10
87.72246634091661
 20
-142.4519422386926
 30
0.0
 10
87.72246634091661
 20
-142.4519422386926
 30
0.0
 10
87.72246634091661
 20
-142.4519422386926
 30
0.0
 10
87.37899032103721
 20
-142.4519422386926
 30
0.0
 10
87.37899032103721
 20
-142.4519422386926
 30
0.0
 10
87.37899032103721
 20
-142.4519422386926
 30
0.0
 10
87.37899032103721
 20
-142.292089808177
 30
0.0
 10
87.37899032103721
 20
-142.292089808177
 30
0.0
 10
87.72453339820775
 20
-142.2762423689448
 30
0.0
 10
87.77310924454979
 20
-142.1005424991971
 30
0.0
 10
87.8037705943685
 20
-141.9772080808251
 30
0.0
 10
87.8037705943685
 20
-141.9772080808251
 30
0.0
 10
87.95569930526803
 20
-141.9772080808251
 30
0.0
 10
87.95569930526803
 20
-141.9772080808251
 30
0.0
 10
87.95569930526803
 20
-141.9772080808251
 30
0.0
 10
87.95569930526803
 20
-143.643256257492
 30
0.0
 10
87.95569930526803
 20
-143.643256257492
 30
0.0
 10
87.95569930526803
 20
-143.643256257492
 30
0.0
 10
87.72246634091661
 20
-143.643256257492
 30
0.0
 10
87.72246634091661
 20
-143.643256257492
 30
0.0
  0
HATCH
  5
BB
330
B6
100
AcDbEntity
  8
_U+30EC_U+30A4_U+30E4_U+30FC 1
 62
   179
420
  2234388
100
AcDbHatch
 10
0.0
 20
0.0
 30
0.0
210
0.0
220
0.0
230
1.0
  2
SOLID
 70
     1
 71
     0
 91
        1
 92
        1
 93
        1
 72
     4
 94
        3
 73
     0
 74
     1
 95
       26
 96
       22
 40
0.0
 40
0.0
 40
0.0
 40
0.0
 40
1.0
 40
1.0
 40
1.0
 40
2.0
 40
2.0
 40
2.0
 40
3.0
 40
3.0
 40
3.0
 40
4.0
 40
4.0
 40
4.0
 40
5.0
 40
5.0
 40
5.0
 40
6.0
 40
6.0
 40
6.0
 40
7.0
 40
7.0
 40
7.0
 40
7.0
 10
87.72246634091661
 20
-143.643256257492
 10
87.72246634091661
 20
-143.643256257492
 10
87.72246634091661
 20
-142.4519422386926
 10
87.72246634091661
 20
-142.4519422386926
 10
87.72246634091661
 20
-142.4519422386926
 10
87.37899032103721
 20
-142.4519422386926
 10
87.37899032103721
 20
-142.4519422386926
 10
87.37899032103721
 20
-142.4519422386926
 10
87.37899032103721
 20
-142.292089808177
 10
87.37899032103721
 20
-142.292089808177
 10
87.72453339820775
 20
-142.2762423689448
 10
87.77310924454979
 20
-142.1005424991971
 10
87.8037705943685
 20
-141.9772080808251
 10
87.8037705943685
 20
-141.9772080808251
 10
87.95569930526803
 20
-141.9772080808251
 10
87.95569930526803
 20
-141.9772080808251
 10
87.95569930526803
 20
-141.9772080808251
 10
87.95569930526803
 20
-143.643256257492
 10
87.95569930526803
 20
-143.643256257492
 10
87.95569930526803
 20
-143.643256257492
 10
87.72246634091661
 20
-143.643256257492
 10
87.72246634091661
 20
-143.643256257492
 97
        0
 97
        0
 75
     2
 76
     1
 98
        0
  0
SPLINE
  5
BC
330
B6
100
AcDbEntity
  8
_U+30EC_U+30A4_U+30E4_U+30FC 1
370
     0
100
AcDbSpline
210
0.0
220
0.0
230
1.0
 70
    11
 71
     3
 72
    53
 73
    49
 74
     0
 42
0.0000000001
 43
0.0000000001
 12
1.0
 22
0.0
 32
0.0
 13
1.0
 23
0.0
 33
0.0
 40
0.0
 40
0.0
 40
0.0
 40
0.0
 40
1.0
 40
1.0
 40
1.0
 40
2.0
 40
2.0
 40
2.0
 40
3.0
 40
3.0
 40
3.0
 40
4.0
 40
4.0
 40
4.0
 40
5.0
 40
5.0
 40
5.0
 40
6.0
 40
6.0
 40
6.0
 40
7.0
 40
7.0
 40
7.0
 40
8.0
 40
8.0
 40
8.0
 40
9.0
 40
9.0
 40
9.0
 40
10.0
 40
10.0
 40
10.0
 40
11.0
 40
11.0
 40
11.0
 40
12.0
 40
12.0
 40
12.0
 40
13.0
 40
13.0
 40
13.0
 40
14.0
 40
14.0
 40
14.0
 40
15.0
 40
15.0
 40
15.0
 40
16.0
 40
16.0
 40
16.0
 40
16.0
 10
88.97648109754755
 20
-143.6980332757074
 30
0.0
 10
88.89517684409566
 20
-143.6980332757074
 30
0.0
 10
88.78941241269848
 20
-143.6797742696356
 30
0.0
 10
88.68364798130132
 20
-143.6112168694791
 30
0.0
 10
88.50312497787422
 20
-143.4927055847866
 30
0.0
 10
88.48107636676862
 20
-143.3511121603428
 30
0.0
 10
88.4614393225027
 20
-143.2346679329413
 30
0.0
 10
88.4614393225027
 20
-143.2346679329413
 30
0.0
 10
88.69260522956296
 20
-143.2346679329413
 30
0.0
 10
88.69260522956296
 20
-143.2346679329413
 30
0.0
 10
88.74979381461812
 20
-143.4492973816724
 30
0.0
 10
88.88174097170318
 20
-143.4813367696852
 30
0.0
 10
88.9785481548387
 20
-143.4813367696852
 30
0.0
 10
89.12393118431625
 20
-143.4813367696852
 30
0.0
 10
89.28240557663774
 20
-143.3738497905454
 30
0.0
 10
89.28240557663774
 20
-143.1230468392193
 30
0.0
 10
89.28240557663774
 20
-142.8467501813022
 30
0.0
 10
89.09533689178868
 20
-142.7713025901752
 30
0.0
 10
88.96993541612558
 20
-142.7713025901752
 30
0.0
 10
88.93686249946718
 20
-142.7713025901752
 30
0.0
 10
88.78941241269848
 20
-142.7713025901752
 30
0.0
 10
88.69673934414526
 20
-142.9104844477793
 30
0.0
 10
88.69673934414526
 20
-142.9104844477793
 30
0.0
 10
88.51414928342702
 20
-142.8901583844164
 30
0.0
 10
88.51414928342702
 20
-142.8901583844164
 30
0.0
 10
88.51414928342702
 20
-142.8901583844164
 30
0.0
 10
88.63955075909011
 20
-141.9772080808251
 30
0.0
 10
88.63955075909011
 20
-141.9772080808251
 30
0.0
 10
88.63955075909011
 20
-141.9772080808251
 30
0.0
 10
89.44983721722087
 20
-141.9772080808251
 30
0.0
 10
89.44983721722087
 20
-141.9772080808251
 30
0.0
 10
89.44983721722087
 20
-141.9772080808251
 30
0.0
 10
89.44983721722087
 20
-142.1870143958769
 30
0.0
 10
89.44983721722087
 20
-142.1870143958769
 30
0.0
 10
89.44983721722087
 20
-142.1870143958769
 30
0.0
 10
88.8090494569644
 20
-142.1870143958769
 30
0.0
 10
88.8090494569644
 20
-142.1870143958769
 30
0.0
 10
88.8090494569644
 20
-142.1870143958769
 30
0.0
 10
88.74083656635646
 20
-142.6434895476725
 30
0.0
 10
88.74083656635646
 20
-142.6434895476725
 30
0.0
 10
88.8049153423821
 20
-142.6069715355288
 30
0.0
 10
88.89069821996483
 20
-142.5635633324147
 30
0.0
 10
89.01403263833677
 20
-142.5635633324147
 30
0.0
 10
89.27827146205544
 20
-142.5635633324147
 30
0.0
 10
89.5245957892508
 20
-142.7644123992047
 30
0.0
 10
89.5245957892508
 20
-143.1023762663077
 30
0.0
 10
89.5245957892508
 20
-143.4448187575416
 30
0.0
 10
89.29136282489938
 20
-143.6980332757074
 30
0.0
 10
88.97648109754755
 20
-143.6980332757074
 30
0.0
  0
HATCH
  5
BD
330
B6
100
AcDbEntity
  8
_U+30EC_U+30A4_U+30E4_U+30FC 1
 62
   179
420
  2234388
100
AcDbHatch
 10
0.0
 20
0.0
 30
0.0
210
0.0
220
0.0
230
1.0
  2
SOLID
 70
     1
 71
     0
 91
        1
 92
        1
 93
        1
 72
     4
 94
        3
 73
     0
 74
     1
 95
       53
 96
       49
 40
0.0
 40
0.0
 40
0.0
 40
0.0
 40
1.0
 40
1.0
 40
1.0
 40
2.0
 40
2.0
 40
2.0
 40
3.0
 40
3.0
 40
3.0
 40
4.0
 40
4.0
 40
4.0
 40
5.0
 40
5.0
 40
5.0
 40
6.0
 40
6.0
 40
6.0
 40
7.0
 40
7.0
 40
7.0
 40
8.0
 40
8.0
 40
8.0
 40
9.0
 40
9.0
 40
9.0
 40
10.0
 40
10.0
 40
10.0
 40
11.0
 40
11.0
 40
11.0
 40
12.0
 40
12.0
 40
12.0
 40
13.0
 40
13.0
 40
13.0
 40
14.0
 40
14.0
 40
14.0
 40
15.0
 40
15.0
 40
15.0
 40
16.0
 40
16.0
 40
16.0
 40
16.0
 10
88.97648109754755
 20
-143.6980332757074
 10
88.89517684409566
 20
-143.6980332757074
 10
88.78941241269848
 20
-143.6797742696356
 10
88.68364798130132
 20
-143.6112168694791
 10
88.50312497787422
 20
-143.4927055847866
 10
88.48107636676862
 20
-143.3511121603428
 10
88.4614393225027
 20
-143.2346679329413
 10
88.4614393225027
 20
-143.2346679329413
 10
88.69260522956296
 20
-143.2346679329413
 10
88.69260522956296
 20
-143.2346679329413
 10
88.74979381461812
 20
-143.4492973816724
 10
88.88174097170318
 20
-143.4813367696852
 10
88.9785481548387
 20
-143.4813367696852
 10
89.12393118431625
 20
-143.4813367696852
 10
89.28240557663774
 20
-143.3738497905454
 10
89.28240557663774
 20
-143.1230468392193
 10
89.28240557663774
 20
-142.8467501813022
 10
89.09533689178868
 20
-142.7713025901752
 10
88.96993541612558
 20
-142.7713025901752
 10
88.93686249946718
 20
-142.7713025901752
 10
88.78941241269848
 20
-142.7713025901752
 10
88.69673934414526
 20
-142.9104844477793
 10
88.69673934414526
 20
-142.9104844477793
 10
88.51414928342702
 20
-142.8901583844164
 10
88.51414928342702
 20
-142.8901583844164
 10
88.51414928342702
 20
-142.8901583844164
 10
88.63955075909011
 20
-141.9772080808251
 10
88.63955075909011
 20
-141.9772080808251
 10
88.63955075909011
 20
-141.9772080808251
 10
89.44983721722087
 20
-141.9772080808251
 10
89.44983721722087
 20
-141.9772080808251
 10
89.44983721722087
 20
-141.9772080808251
 10
89.44983721722087
 20
-142.1870143958769
 10
89.44983721722087
 20
-142.1870143958769
 10
89.44983721722087
 20
-142.1870143958769
 10
88.8090494569644
 20
-142.1870143958769
 10
88.8090494569644
 20
-142.1870143958769
 10
88.8090494569644
 20
-142.1870143958769
 10
88.74083656635646
 20
-142.6434895476725
 10
88.74083656635646
 20
-142.6434895476725
 10
88.8049153423821
 20
-142.6069715355288
 10
88.89069821996483
 20
-142.5635633324147
 10
89.01403263833677
 20
-142.5635633324147
 10
89.27827146205544
 20
-142.5635633324147
 10
89.5245957892508
 20
-142.7644123992047
 10
89.5245957892508
 20
-143.1023762663077
 10
89.5245957892508
 20
-143.4448187575416
 10
89.29136282489938
 20
-143.6980332757074
 10
88.97648109754755
 20
-143.6980332757074
 97
        0
 97
        0
 75
     2
 76
     1
 98
        0
  0
ENDBLK
  5
B9
330
B6
100
AcDbEntity
  8
0
100
AcDbBlockEnd
  0
BLOCK
  5
CC
330
CA
100
AcDbEntity
  8
0
100
AcDbBlockBegin
  2
block 4
 70
     0
 10
0.0
 20
0.0
 30
0.0
  3
block 4
  1

  0
SPLINE
  5
CE
330
CA
100
AcDbEntity
  8
_U+30EC_U+30A4_U+30E4_U+30FC 1
370
     0
100
AcDbSpline
210
0.0
220
0.0
230
1.0
 70
    11
 71
     3
 72
    26
 73
    22
 74
     0
 42
0.0000000001
 43
0.0000000001
 12
1.0
 22
0.0
 32
0.0
 13
1.0
 23
0.0
 33
0.0
 40
0.0
 40
0.0
 40
0.0
 40
0.0
 40
1.0
 40
1.0
 40
1.0
 40
2.0
 40
2.0
 40
2.0
 40
3.0
 40
3.0
 40
3.0
 40
4.0
 40
4.0
 40
4.0
 40
5.0
 40
5.0
 40
5.0
 40
6.0
 40
6.0
 40
6.0
 40
7.0
 40
7.0
 40
7.0
 40
7.0
 10
64.6224120932194
 20
-132.7402180657733
 30
0.0
 10
64.6224120932194
 20
-132.7402180657733
 30
0.0
 10
63.43109807442001
 20
-132.7402180657733
 30
0.0
 10
63.43109807442001
 20
-132.7402180657733
 30
0.0
 10
63.43109807442001
 20
-132.7402180657733
 30
0.0
 10
63.43109807442001
 20
-133.0840385952012
 30
0.0
 10
63.43109807442001
 20
-133.0840385952012
 30
0.0
 10
63.43109807442001
 20
-133.0840385952012
 30
0.0
 10
63.27124564390441
 20
-133.0840385952012
 30
0.0
 10
63.27124564390441
 20
-133.0840385952012
 30
0.0
 10
63.25539820467226
 20
-132.7381510084821
 30
0.0
 10
63.079353825376
 20
-132.6899196716886
 30
0.0
 10
62.95636391655258
 20
-132.6589138123214
 30
0.0
 10
62.95636391655258
 20
-132.6589138123214
 30
0.0
 10
62.95636391655258
 20
-132.5069851014219
 30
0.0
 10
62.95636391655258
 20
-132.5069851014219
 30
0.0
 10
62.95636391655258
 20
-132.5069851014219
 30
0.0
 10
64.6224120932194
 20
-132.5069851014219
 30
0.0
 10
64.6224120932194
 20
-132.5069851014219
 30
0.0
 10
64.6224120932194
 20
-132.5069851014219
 30
0.0
 10
64.6224120932194
 20
-132.7402180657733
 30
0.0
 10
64.6224120932194
 20
-132.7402180657733
 30
0.0
  0
HATCH
  5
CF
330
CA
100
AcDbEntity
  8
_U+30EC_U+30A4_U+30E4_U+30FC 1
 62
   179
420
  2234388
100
AcDbHatch
 10
0.0
 20
0.0
 30
0.0
210
0.0
220
0.0
230
1.0
  2
SOLID
 70
     1
 71
     0
 91
        1
 92
        1
 93
        1
 72
     4
 94
        3
 73
     0
 74
     1
 95
       26
 96
       22
 40
0.0
 40
0.0
 40
0.0
 40
0.0
 40
1.0
 40
1.0
 40
1.0
 40
2.0
 40
2.0
 40
2.0
 40
3.0
 40
3.0
 40
3.0
 40
4.0
 40
4.0
 40
4.0
 40
5.0
 40
5.0
 40
5.0
 40
6.0
 40
6.0
 40
6.0
 40
7.0
 40
7.0
 40
7.0
 40
7.0
 10
64.6224120932194
 20
-132.7402180657733
 10
64.6224120932194
 20
-132.7402180657733
 10
63.43109807442001
 20
-132.7402180657733
 10
63.43109807442001
 20
-132.7402180657733
 10
63.43109807442001
 20
-132.7402180657733
 10
63.43109807442001
 20
-133.0840385952012
 10
63.43109807442001
 20
-133.0840385952012
 10
63.43109807442001
 20
-133.0840385952012
 10
63.27124564390441
 20
-133.0840385952012
 10
63.27124564390441
 20
-133.0840385952012
 10
63.25539820467226
 20
-132.7381510084821
 10
63.079353825376
 20
-132.6899196716886
 10
62.95636391655258
 20
-132.6589138123214
 10
62.95636391655258
 20
-132.6589138123214
 10
62.95636391655258
 20
-132.5069851014219
 10
62.95636391655258
 20
-132.5069851014219
 10
62.95636391655258
 20
-132.5069851014219
 10
64.6224120932194
 20
-132.5069851014219
 10
64.6224120932194
 20
-132.5069851014219
 10
64.6224120932194
 20
-132.5069851014219
 10
64.6224120932194
 20
-132.7402180657733
 10
64.6224120932194
 20
-132.7402180657733
 97
        0
 97
        0
 75
     2
 76
     1
 98
        0
  0
SPLINE
  5
D0
330
CA
100
AcDbEntity
  8
_U+30EC_U+30A4_U+30E4_U+30FC 1
370
     0
100
AcDbSpline
210
0.0
220
0.0
230
1.0
 70
    11
 71
     3
 72
    32
 73
    28
 74
     0
 42
0.0000000001
 43
0.0000000001
 12
1.0
 22
0.0
 32
0.0
 13
1.0
 23
0.0
 33
0.0
 40
0.0
 40
0.0
 40
0.0
 40
0.0
 40
1.0
 40
1.0
 40
1.0
 40
2.0
 40
2.0
 40
2.0
 40
3.0
 40
3.0
 40
3.0
 40
4.0
 40
4.0
 40
4.0
 40
5.0
 40
5.0
 40
5.0
 40
6.0
 40
6.0
 40
6.0
 40
7.0
 40
7.0
 40
7.0
 40
8.0
 40
8.0
 40
8.0
 40
9.0
 40
9.0
 40
9.0
 40
9.0
 10
64.67718911143487
 20
-131.5103189775391
 30
0.0
 10
64.67718911143487
 20
-131.6908419809662
 30
0.0
 10
64.6017415203079
 20
-131.9464680659717
 30
0.0
 10
64.24345158984191
 20
-131.9857421545036
 30
0.0
 10
64.24345158984191
 20
-131.9857421545036
 30
0.0
 10
64.24345158984191
 20
-131.763533495705
 30
0.0
 10
64.24345158984191
 20
-131.763533495705
 30
0.0
 10
64.30753036586756
 20
-131.7525091901522
 30
0.0
 10
64.46703828683464
 20
-131.7197807830423
 30
0.0
 10
64.46703828683464
 20
-131.5082519202479
 30
0.0
 10
64.46703828683464
 20
-131.2043944984489
 30
0.0
 10
64.11115992320832
 20
-131.1647759003685
 30
0.0
 10
63.88964028350676
 20
-131.1513400279761
 30
0.0
 10
63.97645668973505
 20
-131.2464246633689
 30
0.0
 10
64.03812389892103
 20
-131.3167046112681
 30
0.0
 10
64.03812389892103
 20
-131.5061848629568
 30
0.0
 10
64.03812389892103
 20
-131.6929090382573
 30
0.0
 10
63.92409123835926
 20
-132.0077907656092
 30
0.0
 10
63.48587509263548
 20
-132.0077907656092
 30
0.0
 10
63.14102103456197
 20
-132.0077907656092
 30
0.0
 10
62.90365395562826
 20
-131.8010850364942
 30
0.0
 10
62.90365395562826
 20
-131.4707003794587
 30
0.0
 10
62.90365395562826
 20
-130.9356770505994
 30
0.0
 10
63.50172253186763
 20
-130.9246527450466
 30
0.0
 10
63.73219941983084
 20
-130.9246527450466
 30
0.0
 10
63.98093531386588
 20
-130.9246527450466
 30
0.0
 10
64.67718911143487
 20
-130.9446342988611
 30
0.0
 10
64.67718911143487
 20
-131.5103189775391
 30
0.0
  0
SPLINE
  5
D1
330
CA
100
AcDbEntity
  8
_U+30EC_U+30A4_U+30E4_U+30FC 1
370
     0
100
AcDbSpline
210
0.0
220
0.0
230
1.0
 70
    11
 71
     3
 72
    17
 73
    13
 74
     0
 42
0.0000000001
 43
0.0000000001
 12
1.0
 22
0.0
 32
0.0
 13
1.0
 23
0.0
 33
0.0
 40
0.0
 40
0.0
 40
0.0
 40
0.0
 40
1.0
 40
1.0
 40
1.0
 40
2.0
 40
2.0
 40
2.0
 40
3.0
 40
3.0
 40
3.0
 40
4.0
 40
4.0
 40
4.0
 40
4.0
 10
63.11139321338882
 20
-131.4686333221676
 30
0.0
 10
63.11139321338882
 20
-131.591623230991
 30
0.0
 10
63.17306042257479
 20
-131.7745578012577
 30
0.0
 10
63.48105195895613
 20
-131.7745578012577
 30
0.0
 10
63.72530922886034
 20
-131.7745578012577
 30
0.0
 10
63.82831758386931
 20
-131.6295192813287
 30
0.0
 10
63.82831758386931
 20
-131.4882703664335
 30
0.0
 10
63.82831758386931
 20
-131.2154188040017
 30
0.0
 10
63.60231932003693
 20
-131.1758002059213
 30
0.0
 10
63.4765733348253
 20
-131.1758002059213
 30
0.0
 10
63.28709308313656
 20
-131.1758002059213
 30
0.0
 10
63.11139321338882
 20
-131.274674446348
 30
0.0
 10
63.11139321338882
 20
-131.4686333221676
 30
0.0
  0
HATCH
  5
D2
330
CA
100
AcDbEntity
  8
_U+30EC_U+30A4_U+30E4_U+30FC 1
 62
   179
420
  2234388
100
AcDbHatch
 10
0.0
 20
0.0
 30
0.0
210
0.0
220
0.0
230
1.0
  2
SOLID
 70
     1
 71
     0
 91
        2
 92
        1
 93
        1
 72
     4
 94
        3
 73
     0
 74
     1
 95
       32
 96
       28
 40
0.0
 40
0.0
 40
0.0
 40
0.0
 40
1.0
 40
1.0
 40
1.0
 40
2.0
 40
2.0
 40
2.0
 40
3.0
 40
3.0
 40
3.0
 40
4.0
 40
4.0
 40
4.0
 40
5.0
 40
5.0
 40
5.0
 40
6.0
 40
6.0
 40
6.0
 40
7.0
 40
7.0
 40
7.0
 40
8.0
 40
8.0
 40
8.0
 40
9.0
 40
9.0
 40
9.0
 40
9.0
 10
64.67718911143487
 20
-131.5103189775391
 10
64.67718911143487
 20
-131.6908419809662
 10
64.6017415203079
 20
-131.9464680659717
 10
64.24345158984191
 20
-131.9857421545036
 10
64.24345158984191
 20
-131.9857421545036
 10
64.24345158984191
 20
-131.763533495705
 10
64.24345158984191
 20
-131.763533495705
 10
64.30753036586756
 20
-131.7525091901522
 10
64.46703828683464
 20
-131.7197807830423
 10
64.46703828683464
 20
-131.5082519202479
 10
64.46703828683464
 20
-131.2043944984489
 10
64.11115992320832
 20
-131.1647759003685
 10
63.88964028350676
 20
-131.1513400279761
 10
63.97645668973505
 20
-131.2464246633689
 10
64.03812389892103
 20
-131.3167046112681
 10
64.03812389892103
 20
-131.5061848629568
 10
64.03812389892103
 20
-131.6929090382573
 10
63.92409123835926
 20
-132.0077907656092
 10
63.48587509263548
 20
-132.0077907656092
 10
63.14102103456197
 20
-132.0077907656092
 10
62.90365395562826
 20
-131.8010850364942
 10
62.90365395562826
 20
-131.4707003794587
 10
62.90365395562826
 20
-130.9356770505994
 10
63.50172253186763
 20
-130.9246527450466
 10
63.73219941983084
 20
-130.9246527450466
 10
63.98093531386588
 20
-130.9246527450466
 10
64.67718911143487
 20
-130.9446342988611
 10
64.67718911143487
 20
-131.5103189775391
 97
        0
 97
        0
 92
        1
 93
        1
 72
     4
 94
        3
 73
     0
 74
     1
 95
       17
 96
       13
 40
0.0
 40
0.0
 40
0.0
 40
0.0
 40
1.0
 40
1.0
 40
1.0
 40
2.0
 40
2.0
 40
2.0
 40
3.0
 40
3.0
 40
3.0
 40
4.0
 40
4.0
 40
4.0
 40
4.0
 10
63.11139321338882
 20
-131.4686333221676
 10
63.11139321338882
 20
-131.591623230991
 10
63.17306042257479
 20
-131.7745578012577
 10
63.48105195895613
 20
-131.7745578012577
 10
63.72530922886034
 20
-131.7745578012577
 10
63.82831758386931
 20
-131.6295192813287
 10
63.82831758386931
 20
-131.4882703664335
 10
63.82831758386931
 20
-131.2154188040017
 10
63.60231932003693
 20
-131.1758002059213
 10
63.4765733348253
 20
-131.1758002059213
 10
63.28709308313656
 20
-131.1758002059213
 10
63.11139321338882
 20
-131.274674446348
 10
63.11139321338882
 20
-131.4686333221676
 97
        0
 97
        0
 75
     2
 76
     1
 98
        0
  0
POLYLINE
  5
D3
330
CA
100
AcDbEntity
  8
_U+30EC_U+30A4_U+30E4_U+30FC 1
370
     0
100
AcDb2dPolyline
 66
     1
 10
0.0
 20
0.0
 30
0.0
  0
VERTEX
  5
D4
330
D3
100
AcDbEntity
  8
_U+30EC_U+30A4_U+30E4_U+30FC 1
370
     0
100
AcDbVertex
100
AcDb2dVertex
 10
64.6224120932194
 20
-130.7007215385054
 30
0.0
  0
VERTEX
  5
D5
330
D3
100
AcDbEntity
  8
_U+30EC_U+30A4_U+30E4_U+30FC 1
370
     0
100
AcDbVertex
100
AcDb2dVertex
 10
64.35093856898172
 20
-130.7007215385054
 30
0.0
  0
VERTEX
  5
D6
330
D3
100
AcDbEntity
  8
_U+30EC_U+30A4_U+30E4_U+30FC 1
370
     0
100
AcDbVertex
100
AcDb2dVertex
 10
64.35093856898172
 20
-130.4388942816264
 30
0.0
  0
VERTEX
  5
D7
330
D3
100
AcDbEntity
  8
_U+30EC_U+30A4_U+30E4_U+30FC 1
370
     0
100
AcDbVertex
100
AcDb2dVertex
 10
64.6224120932194
 20
-130.4388942816264
 30
0.0
  0
VERTEX
  5
D8
330
D3
100
AcDbEntity
  8
_U+30EC_U+30A4_U+30E4_U+30FC 1
370
     0
100
AcDbVertex
100
AcDb2dVertex
 10
64.6224120932194
 20
-130.7007215385054
 30
0.0
  0
SEQEND
  5
D9
330
D3
100
AcDbEntity
  8
_U+30EC_U+30A4_U+30E4_U+30FC 1
370
     0
  0
HATCH
  5
DA
330
CA
100
AcDbEntity
  8
_U+30EC_U+30A4_U+30E4_U+30FC 1
 62
   179
420
  2234388
100
AcDbHatch
 10
0.0
 20
0.0
 30
0.0
210
0.0
220
0.0
230
1.0
  2
SOLID
 70
     1
 71
     0
 91
        1
 92
        1
 93
        4
 72
     1
 10
64.6224120932194
 20
-130.7007215385054
 11
64.35093856898172
 21
-130.7007215385054
 72
     1
 10
64.35093856898172
 20
-130.7007215385054
 11
64.35093856898172
 21
-130.4388942816264
 72
     1
 10
64.35093856898172
 20
-130.4388942816264
 11
64.6224120932194
 21
-130.4388942816264
 72
     1
 10
64.6224120932194
 20
-130.4388942816264
 11
64.6224120932194
 21
-130.7007215385054
 97
        0
 75
     2
 76
     1
 98
        0
  0
SPLINE
  5
DB
330
CA
100
AcDbEntity
  8
_U+30EC_U+30A4_U+30E4_U+30FC 1
370
     0
100
AcDbSpline
210
0.0
220
0.0
230
1.0
 70
    11
 71
     3
 72
    29
 73
    25
 74
     0
 42
0.0000000001
 43
0.0000000001
 12
1.0
 22
0.0
 32
0.0
 13
1.0
 23
0.0
 33
0.0
 40
0.0
 40
0.0
 40
0.0
 40
0.0
 40
1.0
 40
1.0
 40
1.0
 40
2.0
 40
2.0
 40
2.0
 40
3.0
 40
3.0
 40
3.0
 40
4.0
 40
4.0
 40
4.0
 40
5.0
 40
5.0
 40
5.0
 40
6.0
 40
6.0
 40
6.0
 40
7.0
 40
7.0
 40
7.0
 40
8.0
 40
8.0
 40
8.0
 40
8.0
 10
64.67718911143487
 20
-129.6733940648039
 30
0.0
 10
64.67718911143487
 20
-129.950379741818
 30
0.0
 10
64.5287054960206
 20
-130.2149630750852
 30
0.0
 10
64.15215655948279
 20
-130.2149630750852
 30
0.0
 10
63.87620441111429
 20
-130.2149630750852
 30
0.0
 10
63.77319605610531
 20
-130.0675129883165
 30
0.0
 10
63.70705022278852
 20
-129.9572699327885
 30
0.0
 10
63.6433159563114
 20
-130.0871500325824
 30
0.0
 10
63.51998153793945
 20
-130.1663872287431
 30
0.0
 10
63.34669323503139
 20
-130.1663872287431
 30
0.0
 10
63.04972600420285
 20
-130.1663872287431
 30
0.0
 10
62.90365395562826
 20
-129.9593369900796
 30
0.0
 10
62.90365395562826
 20
-129.6733940648039
 30
0.0
 10
62.90365395562826
 20
-129.378149381718
 30
0.0
 10
63.05902776201302
 20
-129.1800563913161
 30
0.0
 10
63.34669323503139
 20
-129.1800563913161
 30
0.0
 10
63.51998153793945
 20
-129.1800563913161
 30
0.0
 10
63.6433159563114
 20
-129.261360644768
 30
0.0
 10
63.70705022278852
 20
-129.3915852541105
 30
0.0
 10
63.76182724100399
 20
-129.2989121855572
 30
0.0
 10
63.86483559601296
 20
-129.1338921118138
 30
0.0
 10
64.14767793535198
 20
-129.1338921118138
 30
0.0
 10
64.55178763577177
 20
-129.1338921118138
 30
0.0
 10
64.67718911143487
 20
-129.4246581707689
 30
0.0
 10
64.67718911143487
 20
-129.6733940648039
 30
0.0
  0
SPLINE
  5
DC
330
CA
100
AcDbEntity
  8
_U+30EC_U+30A4_U+30E4_U+30FC 1
370
     0
100
AcDbSpline
210
0.0
220
0.0
230
1.0
 70
    11
 71
     3
 72
    17
 73
    13
 74
     0
 42
0.0000000001
 43
0.0000000001
 12
1.0
 22
0.0
 32
0.0
 13
1.0
 23
0.0
 33
0.0
 40
0.0
 40
0.0
 40
0.0
 40
0.0
 40
1.0
 40
1.0
 40
1.0
 40
2.0
 40
2.0
 40
2.0
 40
3.0
 40
3.0
 40
3.0
 40
4.0
 40
4.0
 40
4.0
 40
4.0
 10
63.11139321338882
 20
-129.6733940648039
 30
0.0
 10
63.11139321338882
 20
-129.8449598199693
 30
0.0
 10
63.21405705884926
 20
-129.9331542643917
 30
0.0
 10
63.36012910742386
 20
-129.9331542643917
 30
0.0
 10
63.49276528360598
 20
-129.9331542643917
 30
0.0
 10
63.62057832610875
 20
-129.8580511828133
 30
0.0
 10
63.62057832610875
 20
-129.6733940648039
 30
0.0
 10
63.62057832610875
 20
-129.4880479276974
 30
0.0
 10
63.49276528360598
 20
-129.413633865216
 30
0.0
 10
63.36012910742386
 20
-129.413633865216
 30
0.0
 10
63.21405705884926
 20
-129.413633865216
 30
0.0
 10
63.11139321338882
 20
-129.5038953669296
 30
0.0
 10
63.11139321338882
 20
-129.6733940648039
 30
0.0
  0
SPLINE
  5
DD
330
CA
100
AcDbEntity
  8
_U+30EC_U+30A4_U+30E4_U+30FC 1
370
     0
100
AcDbSpline
210
0.0
220
0.0
230
1.0
 70
    11
 71
     3
 72
    17
 73
    13
 74
     0
 42
0.0000000001
 43
0.0000000001
 12
1.0
 22
0.0
 32
0.0
 13
1.0
 23
0.0
 33
0.0
 40
0.0
 40
0.0
 40
0.0
 40
0.0
 40
1.0
 40
1.0
 40
1.0
 40
2.0
 40
2.0
 40
2.0
 40
3.0
 40
3.0
 40
3.0
 40
4.0
 40
4.0
 40
4.0
 40
4.0
 10
63.82349445018996
 20
-129.6733940648039
 30
0.0
 10
63.82349445018996
 20
-129.8229112088637
 30
0.0
 10
63.91720104738876
 20
-129.9813856011852
 30
0.0
 10
64.13630912025064
 20
-129.9813856011852
 30
0.0
 10
64.35748425040369
 20
-129.9813856011852
 30
0.0
 10
64.46703828683464
 20
-129.8490939345516
 30
0.0
 10
64.46703828683464
 20
-129.6733940648039
 30
0.0
 10
64.46703828683464
 20
-129.4794351889843
 30
0.0
 10
64.33474662020105
 20
-129.3647135093255
 30
0.0
 10
64.14319931122115
 20
-129.3647135093255
 30
0.0
 10
63.90342066544776
 20
-129.3647135093255
 30
0.0
 10
63.82349445018996
 20
-129.5345567167483
 30
0.0
 10
63.82349445018996
 20
-129.6733940648039
 30
0.0
  0
HATCH
  5
DE
330
CA
100
AcDbEntity
  8
_U+30EC_U+30A4_U+30E4_U+30FC 1
 62
   179
420
  2234388
100
AcDbHatch
 10
0.0
 20
0.0
 30
0.0
210
0.0
220
0.0
230
1.0
  2
SOLID
 70
     1
 71
     0
 91
        3
 92
        1
 93
        1
 72
     4
 94
        3
 73
     0
 74
     1
 95
       29
 96
       25
 40
0.0
 40
0.0
 40
0.0
 40
0.0
 40
1.0
 40
1.0
 40
1.0
 40
2.0
 40
2.0
 40
2.0
 40
3.0
 40
3.0
 40
3.0
 40
4.0
 40
4.0
 40
4.0
 40
5.0
 40
5.0
 40
5.0
 40
6.0
 40
6.0
 40
6.0
 40
7.0
 40
7.0
 40
7.0
 40
8.0
 40
8.0
 40
8.0
 40
8.0
 10
64.67718911143487
 20
-129.6733940648039
 10
64.67718911143487
 20
-129.950379741818
 10
64.5287054960206
 20
-130.2149630750852
 10
64.15215655948279
 20
-130.2149630750852
 10
63.87620441111429
 20
-130.2149630750852
 10
63.77319605610531
 20
-130.0675129883165
 10
63.70705022278852
 20
-129.9572699327885
 10
63.6433159563114
 20
-130.0871500325824
 10
63.51998153793945
 20
-130.1663872287431
 10
63.34669323503139
 20
-130.1663872287431
 10
63.04972600420285
 20
-130.1663872287431
 10
62.90365395562826
 20
-129.9593369900796
 10
62.90365395562826
 20
-129.6733940648039
 10
62.90365395562826
 20
-129.378149381718
 10
63.05902776201302
 20
-129.1800563913161
 10
63.34669323503139
 20
-129.1800563913161
 10
63.51998153793945
 20
-129.1800563913161
 10
63.6433159563114
 20
-129.261360644768
 10
63.70705022278852
 20
-129.3915852541105
 10
63.76182724100399
 20
-129.2989121855572
 10
63.86483559601296
 20
-129.1338921118138
 10
64.14767793535198
 20
-129.1338921118138
 10
64.55178763577177
 20
-129.1338921118138
 10
64.67718911143487
 20
-129.4246581707689
 10
64.67718911143487
 20
-129.6733940648039
 97
        0
 97
        0
 92
        1
 93
        1
 72
     4
 94
        3
 73
     0
 74
     1
 95
       17
 96
       13
 40
0.0
 40
0.0
 40
0.0
 40
0.0
 40
1.0
 40
1.0
 40
1.0
 40
2.0
 40
2.0
 40
2.0
 40
3.0
 40
3.0
 40
3.0
 40
4.0
 40
4.0
 40
4.0
 40
4.0
 10
63.11139321338882
 20
-129.6733940648039
 10
63.11139321338882
 20
-129.8449598199693
 10
63.21405705884926
 20
-129.9331542643917
 10
63.36012910742386
 20
-129.9331542643917
 10
63.49276528360598
 20
-129.9331542643917
 10
63.62057832610875
 20
-129.8580511828133
 10
63.62057832610875
 20
-129.6733940648039
 10
63.62057832610875
 20
-129.4880479276974
 10
63.49276528360598
 20
-129.413633865216
 10
63.36012910742386
 20
-129.413633865216
 10
63.21405705884926
 20
-129.413633865216
 10
63.11139321338882
 20
-129.5038953669296
 10
63.11139321338882
 20
-129.6733940648039
 97
        0
 97
        0
 92
        1
 93
        1
 72
     4
 94
        3
 73
     0
 74
     1
 95
       17
 96
       13
 40
0.0
 40
0.0
 40
0.0
 40
0.0
 40
1.0
 40
1.0
 40
1.0
 40
2.0
 40
2.0
 40
2.0
 40
3.0
 40
3.0
 40
3.0
 40
4.0
 40
4.0
 40
4.0
 40
4.0
 10
63.82349445018996
 20
-129.6733940648039
 10
63.82349445018996
 20
-129.8229112088637
 10
63.91720104738876
 20
-129.9813856011852
 10
64.13630912025064
 20
-129.9813856011852
 10
64.35748425040369
 20
-129.9813856011852
 10
64.46703828683464
 20
-129.8490939345516
 10
64.46703828683464
 20
-129.6733940648039
 10
64.46703828683464
 20
-129.4794351889843
 10
64.33474662020105
 20
-129.3647135093255
 10
64.14319931122115
 20
-129.3647135093255
 10
63.90342066544776
 20
-129.3647135093255
 10
63.82349445018996
 20
-129.5345567167483
 10
63.82349445018996
 20
-129.6733940648039
 97
        0
 97
        0
 75
     2
 76
     1
 98
        0
  0
ENDBLK
  5
CD
330
CA
100
AcDbEntity
  8
0
100
AcDbBlockEnd
  0
BLOCK
  5
ED
330
EB
100
AcDbEntity
  8
0
100
AcDbBlockBegin
  2
block 5
 70
     0
 10
0.0
 20
0.0
 30
0.0
  3
block 5
  1

  0
POLYLINE
  5
EF
330
EB
100
AcDbEntity
  8
_U+30EC_U+30A4_U+30E4_U+30FC 1
370
     0
100
AcDb2dPolyline
 66
     1
 10
0.0
 20
0.0
 30
0.0
  0
VERTEX
  5
F0
330
EF
100
AcDbEntity
  8
_U+30EC_U+30A4_U+30E4_U+30FC 1
370
     0
100
AcDbVertex
100
AcDb2dVertex
 10
98.42362193719966
 20
-138.7357177387536
 30
0.0
  0
VERTEX
  5
F1
330
EF
100
AcDbEntity
  8
_U+30EC_U+30A4_U+30E4_U+30FC 1
370
     0
100
AcDbVertex
100
AcDb2dVertex
 10
98.79810381644631
 20
-138.7357177387536
 30
0.0
  0
VERTEX
  5
F2
330
EF
100
AcDbEntity
  8
_U+30EC_U+30A4_U+30E4_U+30FC 1
370
     0
100
AcDbVertex
100
AcDb2dVertex
 10
98.79810381644631
 20
-138.9627495312315
 30
0.0
  0
VERTEX
  5
F3
330
EF
100
AcDbEntity
  8
_U+30EC_U+30A4_U+30E4_U+30FC 1
370
     0
100
AcDbVertex
100
AcDb2dVertex
 10
98.42362193719966
 20
-138.9627495312315
 30
0.0
  0
VERTEX
  5
F4
330
EF
100
AcDbEntity
  8
_U+30EC_U+30A4_U+30E4_U+30FC 1
370
     0
100
AcDbVertex
100
AcDb2dVertex
 10
98.42362193719966
 20
-139.644878437311
 30
0.0
  0
VERTEX
  5
F5
330
EF
100
AcDbEntity
  8
_U+30EC_U+30A4_U+30E4_U+30FC 1
370
     0
100
AcDbVertex
100
AcDb2dVertex
 10
98.18177623413511
 20
-139.644878437311
 30
0.0
  0
VERTEX
  5
F6
330
EF
100
AcDbEntity
  8
_U+30EC_U+30A4_U+30E4_U+30FC 1
370
     0
100
AcDbVertex
100
AcDb2dVertex
 10
97.1320556397795
 20
-138.9382893532863
 30
0.0
  0
VERTEX
  5
F7
330
EF
100
AcDbEntity
  8
_U+30EC_U+30A4_U+30E4_U+30FC 1
370
     0
100
AcDbVertex
100
AcDb2dVertex
 10
97.1320556397795
 20
-138.7357177387536
 30
0.0
  0
VERTEX
  5
F8
330
EF
100
AcDbEntity
  8
_U+30EC_U+30A4_U+30E4_U+30FC 1
370
     0
100
AcDbVertex
100
AcDb2dVertex
 10
98.20933699801711
 20
-138.7357177387536
 30
0.0
  0
VERTEX
  5
F9
330
EF
100
AcDbEntity
  8
_U+30EC_U+30A4_U+30E4_U+30FC 1
370
     0
100
AcDbVertex
100
AcDb2dVertex
 10
98.20933699801711
 20
-138.5200547613769
 30
0.0
  0
VERTEX
  5
FA
330
EF
100
AcDbEntity
  8
_U+30EC_U+30A4_U+30E4_U+30FC 1
370
     0
100
AcDbVertex
100
AcDb2dVertex
 10
98.42362193719966
 20
-138.5200547613769
 30
0.0
  0
VERTEX
  5
FB
330
EF
100
AcDbEntity
  8
_U+30EC_U+30A4_U+30E4_U+30FC 1
370
     0
100
AcDbVertex
100
AcDb2dVertex
 10
98.42362193719966
 20
-138.7357177387536
 30
0.0
  0
SEQEND
  5
FC
330
EF
100
AcDbEntity
  8
_U+30EC_U+30A4_U+30E4_U+30FC 1
370
     0
  0
POLYLINE
  5
FD
330
EB
100
AcDbEntity
  8
_U+30EC_U+30A4_U+30E4_U+30FC 1
370
     0
100
AcDb2dPolyline
 66
     1
 10
0.0
 20
0.0
 30
0.0
  0
VERTEX
  5
FE
330
FD
100
AcDbEntity
  8
_U+30EC_U+30A4_U+30E4_U+30FC 1
370
     0
100
AcDbVertex
100
AcDb2dVertex
 10
97.5017143853468
 20
-138.9627495312315
 30
0.0
  0
VERTEX
  5
FF
330
FD
100
AcDbEntity
  8
_U+30EC_U+30A4_U+30E4_U+30FC 1
370
     0
100
AcDbVertex
100
AcDb2dVertex
 10
98.20933699801711
 20
-139.438172708196
 30
0.0
  0
VERTEX
  5
100
330
FD
100
AcDbEntity
  8
_U+30EC_U+30A4_U+30E4_U+30FC 1
370
     0
100
AcDbVertex
100
AcDb2dVertex
 10
98.20933699801711
 20
-138.9627495312315
 30
0.0
  0
VERTEX
  5
101
330
FD
100
AcDbEntity
  8
_U+30EC_U+30A4_U+30E4_U+30FC 1
370
     0
100
AcDbVertex
100
AcDb2dVertex
 10
97.5017143853468
 20
-138.9627495312315
 30
0.0
  0
SEQEND
  5
102
330
FD
100
AcDbEntity
  8
_U+30EC_U+30A4_U+30E4_U+30FC 1
370
     0
  0
HATCH
  5
103
330
EB
100
AcDbEntity
  8
_U+30EC_U+30A4_U+30E4_U+30FC 1
 62
   179
420
  2234388
100
AcDbHatch
 10
0.0
 20
0.0
 30
0.0
210
0.0
220
0.0
230
1.0
  2
SOLID
 70
     1
 71
     0
 91
        2
 92
        1
 93
       11
 72
     1
 10
98.42362193719966
 20
-138.7357177387536
 11
98.79810381644631
 21
-138.7357177387536
 72
     1
 10
98.79810381644631
 20
-138.7357177387536
 11
98.79810381644631
 21
-138.9627495312315
 72
     1
 10
98.79810381644631
 20
-138.9627495312315
 11
98.42362193719966
 21
-138.9627495312315
 72
     1
 10
98.42362193719966
 20
-138.9627495312315
 11
98.42362193719966
 21
-139.644878437311
 72
     1
 10
98.42362193719966
 20
-139.644878437311
 11
98.18177623413511
 21
-139.644878437311
 72
     1
 10
98.18177623413511
 20
-139.644878437311
 11
97.1320556397795
 21
-138.9382893532863
 72
     1
 10
97.1320556397795
 20
-138.9382893532863
 11
97.1320556397795
 21
-138.7357177387536
 72
     1
 10
97.1320556397795
 20
-138.7357177387536
 11
98.20933699801711
 21
-138.7357177387536
 72
     1
 10
98.20933699801711
 20
-138.7357177387536
 11
98.20933699801711
 21
-138.5200547613769
 72
     1
 10
98.20933699801711
 20
-138.5200547613769
 11
98.42362193719966
 21
-138.5200547613769
 72
     1
 10
98.42362193719966
 20
-138.5200547613769
 11
98.42362193719966
 21
-138.7357177387536
 97
        0
 92
        1
 93
        3
 72
     1
 10
97.5017143853468
 20
-138.9627495312315
 11
98.20933699801711
 21
-139.438172708196
 72
     1
 10
98.20933699801711
 20
-139.438172708196
 11
98.20933699801711
 21
-138.9627495312315
 72
     1
 10
98.20933699801711
 20
-138.9627495312315
 11
97.5017143853468
 21
-138.9627495312315
 97
        0
 75
     2
 76
     1
 98
        0
  0
ENDBLK
  5
EE
330
EB
100
AcDbEntity
  8
0
100
AcDbBlockEnd
  0
BLOCK
  5
112
330
110
100
AcDbEntity
  8
0
100
AcDbBlockBegin
  2
block 6
 70
     0
 10
0.0
 20
0.0
 30
0.0
  3
block 6
  1

  0
SPLINE
  5
114
330
110
100
AcDbEntity
  8
_U+30EC_U+30A4_U+30E4_U+30FC 1
370
     0
100
AcDbSpline
210
0.0
220
0.0
230
1.0
 70
    11
 71
     3
 72
    26
 73
    22
 74
     0
 42
0.0000000001
 43
0.0000000001
 12
1.0
 22
0.0
 32
0.0
 13
1.0
 23
0.0
 33
0.0
 40
0.0
 40
0.0
 40
0.0
 40
0.0
 40
1.0
 40
1.0
 40
1.0
 40
2.0
 40
2.0
 40
2.0
 40
3.0
 40
3.0
 40
3.0
 40
4.0
 40
4.0
 40
4.0
 40
5.0
 40
5.0
 40
5.0
 40
6.0
 40
6.0
 40
6.0
 40
7.0
 40
7.0
 40
7.0
 40
7.0
 10
117.6224500573999
 20
-131.3404757701163
 30
0.0
 10
117.6224500573999
 20
-131.3404757701163
 30
0.0
 10
116.4311360386006
 20
-131.3404757701163
 30
0.0
 10
116.4311360386006
 20
-131.3404757701163
 30
0.0
 10
116.4311360386006
 20
-131.3404757701163
 30
0.0
 10
116.4311360386006
 20
-131.6839517899957
 30
0.0
 10
116.4311360386006
 20
-131.6839517899957
 30
0.0
 10
116.4311360386006
 20
-131.6839517899957
 30
0.0
 10
116.271283608085
 20
-131.6839517899957
 30
0.0
 10
116.271283608085
 20
-131.6839517899957
 30
0.0
 10
116.2554361688528
 20
-131.3380642032766
 30
0.0
 10
116.0793917895566
 20
-131.2898328664831
 30
0.0
 10
115.9564018807331
 20
-131.2588270071159
 30
0.0
 10
115.9564018807331
 20
-131.2588270071159
 30
0.0
 10
115.9564018807331
 20
-131.1072428057649
 30
0.0
 10
115.9564018807331
 20
-131.1072428057649
 30
0.0
 10
115.9564018807331
 20
-131.1072428057649
 30
0.0
 10
117.6224500573999
 20
-131.1072428057649
 30
0.0
 10
117.6224500573999
 20
-131.1072428057649
 30
0.0
 10
117.6224500573999
 20
-131.1072428057649
 30
0.0
 10
117.6224500573999
 20
-131.3404757701163
 30
0.0
 10
117.6224500573999
 20
-131.3404757701163
 30
0.0
  0
HATCH
  5
115
330
110
100
AcDbEntity
  8
_U+30EC_U+30A4_U+30E4_U+30FC 1
 62
   179
420
  2234388
100
AcDbHatch
 10
0.0
 20
0.0
 30
0.0
210
0.0
220
0.0
230
1.0
  2
SOLID
 70
     1
 71
     0
 91
        1
 92
        1
 93
        1
 72
     4
 94
        3
 73
     0
 74
     1
 95
       26
 96
       22
 40
0.0
 40
0.0
 40
0.0
 40
0.0
 40
1.0
 40
1.0
 40
1.0
 40
2.0
 40
2.0
 40
2.0
 40
3.0
 40
3.0
 40
3.0
 40
4.0
 40
4.0
 40
4.0
 40
5.0
 40
5.0
 40
5.0
 40
6.0
 40
6.0
 40
6.0
 40
7.0
 40
7.0
 40
7.0
 40
7.0
 10
117.6224500573999
 20
-131.3404757701163
 10
117.6224500573999
 20
-131.3404757701163
 10
116.4311360386006
 20
-131.3404757701163
 10
116.4311360386006
 20
-131.3404757701163
 10
116.4311360386006
 20
-131.3404757701163
 10
116.4311360386006
 20
-131.6839517899957
 10
116.4311360386006
 20
-131.6839517899957
 10
116.4311360386006
 20
-131.6839517899957
 10
116.271283608085
 20
-131.6839517899957
 10
116.271283608085
 20
-131.6839517899957
 10
116.2554361688528
 20
-131.3380642032766
 10
116.0793917895566
 20
-131.2898328664831
 10
115.9564018807331
 20
-131.2588270071159
 10
115.9564018807331
 20
-131.2588270071159
 10
115.9564018807331
 20
-131.1072428057649
 10
115.9564018807331
 20
-131.1072428057649
 10
115.9564018807331
 20
-131.1072428057649
 10
117.6224500573999
 20
-131.1072428057649
 10
117.6224500573999
 20
-131.1072428057649
 10
117.6224500573999
 20
-131.1072428057649
 10
117.6224500573999
 20
-131.3404757701163
 10
117.6224500573999
 20
-131.3404757701163
 97
        0
 97
        0
 75
     2
 76
     1
 98
        0
  0
POLYLINE
  5
116
330
110
100
AcDbEntity
  8
_U+30EC_U+30A4_U+30E4_U+30FC 1
370
     0
100
AcDb2dPolyline
 66
     1
 10
0.0
 20
0.0
 30
0.0
  0
VERTEX
  5
117
330
116
100
AcDbEntity
  8
_U+30EC_U+30A4_U+30E4_U+30FC 1
370
     0
100
AcDbVertex
100
AcDb2dVertex
 10
117.2479681781533
 20
-129.7209363825003
 30
0.0
  0
VERTEX
  5
118
330
116
100
AcDbEntity
  8
_U+30EC_U+30A4_U+30E4_U+30FC 1
370
     0
100
AcDbVertex
100
AcDb2dVertex
 10
117.6224500573999
 20
-129.7209363825003
 30
0.0
  0
VERTEX
  5
119
330
116
100
AcDbEntity
  8
_U+30EC_U+30A4_U+30E4_U+30FC 1
370
     0
100
AcDbVertex
100
AcDb2dVertex
 10
117.6224500573999
 20
-129.9476236654298
 30
0.0
  0
VERTEX
  5
11A
330
116
100
AcDbEntity
  8
_U+30EC_U+30A4_U+30E4_U+30FC 1
370
     0
100
AcDbVertex
100
AcDb2dVertex
 10
117.2479681781533
 20
-129.9476236654298
 30
0.0
  0
VERTEX
  5
11B
330
116
100
AcDbEntity
  8
_U+30EC_U+30A4_U+30E4_U+30FC 1
370
     0
100
AcDbVertex
100
AcDb2dVertex
 10
117.2479681781533
 20
-130.6300970810578
 30
0.0
  0
VERTEX
  5
11C
330
116
100
AcDbEntity
  8
_U+30EC_U+30A4_U+30E4_U+30FC 1
370
     0
100
AcDbVertex
100
AcDb2dVertex
 10
117.0061224750888
 20
-130.6300970810578
 30
0.0
  0
VERTEX
  5
11D
330
116
100
AcDbEntity
  8
_U+30EC_U+30A4_U+30E4_U+30FC 1
370
     0
100
AcDbVertex
100
AcDb2dVertex
 10
115.9564018807331
 20
-129.923507997033
 30
0.0
  0
VERTEX
  5
11E
330
116
100
AcDbEntity
  8
_U+30EC_U+30A4_U+30E4_U+30FC 1
370
     0
100
AcDbVertex
100
AcDb2dVertex
 10
115.9564018807331
 20
-129.7209363825003
 30
0.0
  0
VERTEX
  5
11F
330
116
100
AcDbEntity
  8
_U+30EC_U+30A4_U+30E4_U+30FC 1
370
     0
100
AcDbVertex
100
AcDb2dVertex
 10
117.0336832389708
 20
-129.7209363825003
 30
0.0
  0
VERTEX
  5
120
330
116
100
AcDbEntity
  8
_U+30EC_U+30A4_U+30E4_U+30FC 1
370
     0
100
AcDbVertex
100
AcDb2dVertex
 10
117.0336832389708
 20
-129.5052734051237
 30
0.0
  0
VERTEX
  5
121
330
116
100
AcDbEntity
  8
_U+30EC_U+30A4_U+30E4_U+30FC 1
370
     0
100
AcDbVertex
100
AcDb2dVertex
 10
117.2479681781533
 20
-129.5052734051237
 30
0.0
  0
VERTEX
  5
122
330
116
100
AcDbEntity
  8
_U+30EC_U+30A4_U+30E4_U+30FC 1
370
     0
100
AcDbVertex
100
AcDb2dVertex
 10
117.2479681781533
 20
-129.7209363825003
 30
0.0
  0
SEQEND
  5
123
330
116
100
AcDbEntity
  8
_U+30EC_U+30A4_U+30E4_U+30FC 1
370
     0
  0
POLYLINE
  5
124
330
110
100
AcDbEntity
  8
_U+30EC_U+30A4_U+30E4_U+30FC 1
370
     0
100
AcDb2dPolyline
 66
     1
 10
0.0
 20
0.0
 30
0.0
  0
VERTEX
  5
125
330
124
100
AcDbEntity
  8
_U+30EC_U+30A4_U+30E4_U+30FC 1
370
     0
100
AcDbVertex
100
AcDb2dVertex
 10
116.3260606263004
 20
-129.9476236654298
 30
0.0
  0
VERTEX
  5
126
330
124
100
AcDbEntity
  8
_U+30EC_U+30A4_U+30E4_U+30FC 1
370
     0
100
AcDbVertex
100
AcDb2dVertex
 10
117.0336832389708
 20
-130.4230468423943
 30
0.0
  0
VERTEX
  5
127
330
124
100
AcDbEntity
  8
_U+30EC_U+30A4_U+30E4_U+30FC 1
370
     0
100
AcDbVertex
100
AcDb2dVertex
 10
117.0336832389708
 20
-129.9476236654298
 30
0.0
  0
VERTEX
  5
128
330
124
100
AcDbEntity
  8
_U+30EC_U+30A4_U+30E4_U+30FC 1
370
     0
100
AcDbVertex
100
AcDb2dVertex
 10
116.3260606263004
 20
-129.9476236654298
 30
0.0
  0
SEQEND
  5
129
330
124
100
AcDbEntity
  8
_U+30EC_U+30A4_U+30E4_U+30FC 1
370
     0
  0
HATCH
  5
12A
330
110
100
AcDbEntity
  8
_U+30EC_U+30A4_U+30E4_U+30FC 1
 62
   179
420
  2234388
100
AcDbHatch
 10
0.0
 20
0.0
 30
0.0
210
0.0
220
0.0
230
1.0
  2
SOLID
 70
     1
 71
     0
 91
        2
 92
        1
 93
       11
 72
     1
 10
117.2479681781533
 20
-129.7209363825003
 11
117.6224500573999
 21
-129.7209363825003
 72
     1
 10
117.6224500573999
 20
-129.7209363825003
 11
117.6224500573999
 21
-129.9476236654298
 72
     1
 10
117.6224500573999
 20
-129.9476236654298
 11
117.2479681781533
 21
-129.9476236654298
 72
     1
 10
117.2479681781533
 20
-129.9476236654298
 11
117.2479681781533
 21
-130.6300970810578
 72
     1
 10
117.2479681781533
 20
-130.6300970810578
 11
117.0061224750888
 21
-130.6300970810578
 72
     1
 10
117.0061224750888
 20
-130.6300970810578
 11
115.9564018807331
 21
-129.923507997033
 72
     1
 10
115.9564018807331
 20
-129.923507997033
 11
115.9564018807331
 21
-129.7209363825003
 72
     1
 10
115.9564018807331
 20
-129.7209363825003
 11
117.0336832389708
 21
-129.7209363825003
 72
     1
 10
117.0336832389708
 20
-129.7209363825003
 11
117.0336832389708
 21
-129.5052734051237
 72
     1
 10
117.0336832389708
 20
-129.5052734051237
 11
117.2479681781533
 21
-129.5052734051237
 72
     1
 10
117.2479681781533
 20
-129.5052734051237
 11
117.2479681781533
 21
-129.7209363825003
 97
        0
 92
        1
 93
        3
 72
     1
 10
116.3260606263004
 20
-129.9476236654298
 11
117.0336832389708
 21
-130.4230468423943
 72
     1
 10
117.0336832389708
 20
-130.4230468423943
 11
117.0336832389708
 21
-129.9476236654298
 72
     1
 10
117.0336832389708
 20
-129.9476236654298
 11
116.3260606263004
 21
-129.9476236654298
 97
        0
 75
     2
 76
     1
 98
        0
  0
POLYLINE
  5
12B
330
110
100
AcDbEntity
  8
_U+30EC_U+30A4_U+30E4_U+30FC 1
370
     0
100
AcDb2dPolyline
 66
     1
 10
0.0
 20
0.0
 30
0.0
  0
VERTEX
  5
12C
330
12B
100
AcDbEntity
  8
_U+30EC_U+30A4_U+30E4_U+30FC 1
370
     0
100
AcDbVertex
100
AcDb2dVertex
 10
117.6224500573999
 20
-129.3009792428484
 30
0.0
  0
VERTEX
  5
12D
330
12B
100
AcDbEntity
  8
_U+30EC_U+30A4_U+30E4_U+30FC 1
370
     0
100
AcDbVertex
100
AcDb2dVertex
 10
117.3509765331623
 20
-129.3009792428484
 30
0.0
  0
VERTEX
  5
12E
330
12B
100
AcDbEntity
  8
_U+30EC_U+30A4_U+30E4_U+30FC 1
370
     0
100
AcDbVertex
100
AcDb2dVertex
 10
117.3509765331623
 20
-129.0388074764209
 30
0.0
  0
VERTEX
  5
12F
330
12B
100
AcDbEntity
  8
_U+30EC_U+30A4_U+30E4_U+30FC 1
370
     0
100
AcDbVertex
100
AcDb2dVertex
 10
117.6224500573999
 20
-129.0388074764209
 30
0.0
  0
VERTEX
  5
130
330
12B
100
AcDbEntity
  8
_U+30EC_U+30A4_U+30E4_U+30FC 1
370
     0
100
AcDbVertex
100
AcDb2dVertex
 10
117.6224500573999
 20
-129.3009792428484
 30
0.0
  0
SEQEND
  5
131
330
12B
100
AcDbEntity
  8
_U+30EC_U+30A4_U+30E4_U+30FC 1
370
     0
  0
HATCH
  5
132
330
110
100
AcDbEntity
  8
_U+30EC_U+30A4_U+30E4_U+30FC 1
 62
   179
420
  2234388
100
AcDbHatch
 10
0.0
 20
0.0
 30
0.0
210
0.0
220
0.0
230
1.0
  2
SOLID
 70
     1
 71
     0
 91
        1
 92
        1
 93
        4
 72
     1
 10
117.6224500573999
 20
-129.3009792428484
 11
117.3509765331623
 21
-129.3009792428484
 72
     1
 10
117.3509765331623
 20
-129.3009792428484
 11
117.3509765331623
 21
-129.0388074764209
 72
     1
 10
117.3509765331623
 20
-129.0388074764209
 11
117.6224500573999
 21
-129.0388074764209
 72
     1
 10
117.6224500573999
 20
-129.0388074764209
 11
117.6224500573999
 21
-129.3009792428484
 97
        0
 75
     2
 76
     1
 98
        0
  0
SPLINE
  5
133
330
110
100
AcDbEntity
  8
_U+30EC_U+30A4_U+30E4_U+30FC 1
370
     0
100
AcDbSpline
210
0.0
220
0.0
230
1.0
 70
    11
 71
     3
 72
    32
 73
    28
 74
     0
 42
0.0000000001
 43
0.0000000001
 12
1.0
 22
0.0
 32
0.0
 13
1.0
 23
0.0
 33
0.0
 40
0.0
 40
0.0
 40
0.0
 40
0.0
 40
1.0
 40
1.0
 40
1.0
 40
2.0
 40
2.0
 40
2.0
 40
3.0
 40
3.0
 40
3.0
 40
4.0
 40
4.0
 40
4.0
 40
5.0
 40
5.0
 40
5.0
 40
6.0
 40
6.0
 40
6.0
 40
7.0
 40
7.0
 40
7.0
 40
8.0
 40
8.0
 40
8.0
 40
9.0
 40
9.0
 40
9.0
 40
9.0
 10
117.6772270756154
 20
-128.2688286354675
 30
0.0
 10
117.6772270756154
 20
-128.805919021618
 30
0.0
 10
117.079158499376
 20
-128.8148762698796
 30
0.0
 10
116.8486816114128
 20
-128.8148762698796
 30
0.0
 10
116.5999457173778
 20
-128.8148762698796
 30
0.0
 10
115.9016248625177
 20
-128.7948947160652
 30
0.0
 10
115.9016248625177
 20
-128.2292100373872
 30
0.0
 10
115.9016248625177
 20
-128.0486870339601
 30
0.0
 10
115.9767279440961
 20
-127.793405458503
 30
0.0
 10
116.3350178745621
 20
-127.7536146056484
 30
0.0
 10
116.3350178745621
 20
-127.7536146056484
 30
0.0
 10
116.3350178745621
 20
-127.9759955192213
 30
0.0
 10
116.3350178745621
 20
-127.9759955192213
 30
0.0
 10
116.2736951749246
 20
-127.9870198247741
 30
0.0
 10
116.113842744409
 20
-128.0200927414325
 30
0.0
 10
116.113842744409
 20
-128.2314493494526
 30
0.0
 10
116.113842744409
 20
-128.5353067712516
 30
0.0
 10
116.4676540507442
 20
-128.5771646813974
 30
0.0
 10
116.6888291808972
 20
-128.5902560442413
 30
0.0
 10
116.6044243415086
 20
-128.4934488611058
 30
0.0
 10
116.5406900750315
 20
-128.4229966584325
 30
0.0
 10
116.5406900750315
 20
-128.233688661518
 30
0.0
 10
116.5406900750315
 20
-128.0464477218947
 30
0.0
 10
116.657134302433
 20
-127.7317382493171
 30
0.0
 10
117.0953504481567
 20
-127.7317382493171
 30
0.0
 10
117.4398599966817
 20
-127.7317382493171
 30
0.0
 10
117.6772270756154
 20
-127.9386162332063
 30
0.0
 10
117.6772270756154
 20
-128.2688286354675
 30
0.0
  0
SPLINE
  5
134
330
110
100
AcDbEntity
  8
_U+30EC_U+30A4_U+30E4_U+30FC 1
370
     0
100
AcDbSpline
210
0.0
220
0.0
230
1.0
 70
    11
 71
     3
 72
    17
 73
    13
 74
     0
 42
0.0000000001
 43
0.0000000001
 12
1.0
 22
0.0
 32
0.0
 13
1.0
 23
0.0
 33
0.0
 40
0.0
 40
0.0
 40
0.0
 40
0.0
 40
1.0
 40
1.0
 40
1.0
 40
2.0
 40
2.0
 40
2.0
 40
3.0
 40
3.0
 40
3.0
 40
4.0
 40
4.0
 40
4.0
 40
4.0
 10
116.7504963900832
 20
-128.2512586484928
 30
0.0
 10
116.7504963900832
 20
-128.5242824656988
 30
0.0
 10
116.9789062207553
 20
-128.5639010637792
 30
0.0
 10
117.1043076964184
 20
-128.5639010637792
 30
0.0
 10
117.2937879481071
 20
-128.5639010637792
 30
0.0
 10
117.4694878178549
 20
-128.4648545685782
 30
0.0
 10
117.4694878178549
 20
-128.2733072595983
 30
0.0
 10
117.4694878178549
 20
-128.147733529161
 30
0.0
 10
117.4057535513777
 20
-127.9649712136685
 30
0.0
 10
117.0974175054479
 20
-127.9649712136685
 30
0.0
 10
116.8555718023833
 20
-127.9649712136685
 30
0.0
 10
116.7504963900832
 20
-128.110354243146
 30
0.0
 10
116.7504963900832
 20
-128.2512586484928
 30
0.0
  0
HATCH
  5
135
330
110
100
AcDbEntity
  8
_U+30EC_U+30A4_U+30E4_U+30FC 1
 62
   179
420
  2234388
100
AcDbHatch
 10
0.0
 20
0.0
 30
0.0
210
0.0
220
0.0
230
1.0
  2
SOLID
 70
     1
 71
     0
 91
        2
 92
        1
 93
        1
 72
     4
 94
        3
 73
     0
 74
     1
 95
       32
 96
       28
 40
0.0
 40
0.0
 40
0.0
 40
0.0
 40
1.0
 40
1.0
 40
1.0
 40
2.0
 40
2.0
 40
2.0
 40
3.0
 40
3.0
 40
3.0
 40
4.0
 40
4.0
 40
4.0
 40
5.0
 40
5.0
 40
5.0
 40
6.0
 40
6.0
 40
6.0
 40
7.0
 40
7.0
 40
7.0
 40
8.0
 40
8.0
 40
8.0
 40
9.0
 40
9.0
 40
9.0
 40
9.0
 10
117.6772270756154
 20
-128.2688286354675
 10
117.6772270756154
 20
-128.805919021618
 10
117.079158499376
 20
-128.8148762698796
 10
116.8486816114128
 20
-128.8148762698796
 10
116.5999457173778
 20
-128.8148762698796
 10
115.9016248625177
 20
-128.7948947160652
 10
115.9016248625177
 20
-128.2292100373872
 10
115.9016248625177
 20
-128.0486870339601
 10
115.9767279440961
 20
-127.793405458503
 10
116.3350178745621
 20
-127.7536146056484
 10
116.3350178745621
 20
-127.7536146056484
 10
116.3350178745621
 20
-127.9759955192213
 10
116.3350178745621
 20
-127.9759955192213
 10
116.2736951749246
 20
-127.9870198247741
 10
116.113842744409
 20
-128.0200927414325
 10
116.113842744409
 20
-128.2314493494526
 10
116.113842744409
 20
-128.5353067712516
 10
116.4676540507442
 20
-128.5771646813974
 10
116.6888291808972
 20
-128.5902560442413
 10
116.6044243415086
 20
-128.4934488611058
 10
116.5406900750315
 20
-128.4229966584325
 10
116.5406900750315
 20
-128.233688661518
 10
116.5406900750315
 20
-128.0464477218947
 10
116.657134302433
 20
-127.7317382493171
 10
117.0953504481567
 20
-127.7317382493171
 10
117.4398599966817
 20
-127.7317382493171
 10
117.6772270756154
 20
-127.9386162332063
 10
117.6772270756154
 20
-128.2688286354675
 97
        0
 97
        0
 92
        1
 93
        1
 72
     4
 94
        3
 73
     0
 74
     1
 95
       17
 96
       13
 40
0.0
 40
0.0
 40
0.0
 40
0.0
 40
1.0
 40
1.0
 40
1.0
 40
2.0
 40
2.0
 40
2.0
 40
3.0
 40
3.0
 40
3.0
 40
4.0
 40
4.0
 40
4.0
 40
4.0
 10
116.7504963900832
 20
-128.2512586484928
 10
116.7504963900832
 20
-128.5242824656988
 10
116.9789062207553
 20
-128.5639010637792
 10
117.1043076964184
 20
-128.5639010637792
 10
117.2937879481071
 20
-128.5639010637792
 10
117.4694878178549
 20
-128.4648545685782
 10
117.4694878178549
 20
-128.2733072595983
 10
117.4694878178549
 20
-128.147733529161
 10
117.4057535513777
 20
-127.9649712136685
 10
117.0974175054479
 20
-127.9649712136685
 10
116.8555718023833
 20
-127.9649712136685
 10
116.7504963900832
 20
-128.110354243146
 10
116.7504963900832
 20
-128.2512586484928
 97
        0
 97
        0
 75
     2
 76
     1
 98
        0
  0
ENDBLK
  5
113
330
110
100
AcDbEntity
  8
0
100
AcDbBlockEnd
  0
BLOCK
  5
140
330
13E
100
AcDbEntity
  8
0
100
AcDbBlockBegin
  2
block 7
 70
     0
 10
0.0
 20
0.0
 30
0.0
  3
block 7
  1

  0
SPLINE
  5
142
330
13E
100
AcDbEntity
  8
_U+30EC_U+30A4_U+30E4_U+30FC 1
370
     0
100
AcDbSpline
210
0.0
220
0.0
230
1.0
 70
    11
 71
     3
 72
    26
 73
    22
 74
     0
 42
0.0000000001
 43
0.0000000001
 12
1.0
 22
0.0
 32
0.0
 13
1.0
 23
0.0
 33
0.0
 40
0.0
 40
0.0
 40
0.0
 40
0.0
 40
1.0
 40
1.0
 40
1.0
 40
2.0
 40
2.0
 40
2.0
 40
3.0
 40
3.0
 40
3.0
 40
4.0
 40
4.0
 40
4.0
 40
5.0
 40
5.0
 40
5.0
 40
6.0
 40
6.0
 40
6.0
 40
7.0
 40
7.0
 40
7.0
 40
7.0
 10
75.22210962746183
 20
-143.643256257492
 30
0.0
 10
75.22210962746183
 20
-143.643256257492
 30
0.0
 10
75.22210962746183
 20
-142.4519422386926
 30
0.0
 10
75.22210962746183
 20
-142.4519422386926
 30
0.0
 10
75.22210962746183
 20
-142.4519422386926
 30
0.0
 10
74.87863360758243
 20
-142.4519422386926
 30
0.0
 10
74.87863360758243
 20
-142.4519422386926
 30
0.0
 10
74.87863360758243
 20
-142.4519422386926
 30
0.0
 10
74.87863360758243
 20
-142.292089808177
 30
0.0
 10
74.87863360758243
 20
-142.292089808177
 30
0.0
 10
75.22434893952725
 20
-142.2762423689448
 30
0.0
 10
75.27275253109501
 20
-142.1005424991971
 30
0.0
 10
75.303586135688
 20
-141.9772080808251
 30
0.0
 10
75.303586135688
 20
-141.9772080808251
 30
0.0
 10
75.45551484658752
 20
-141.9772080808251
 30
0.0
 10
75.45551484658752
 20
-141.9772080808251
 30
0.0
 10
75.45551484658752
 20
-141.9772080808251
 30
0.0
 10
75.45551484658752
 20
-143.643256257492
 30
0.0
 10
75.45551484658752
 20
-143.643256257492
 30
0.0
 10
75.45551484658752
 20
-143.643256257492
 30
0.0
 10
75.22210962746183
 20
-143.643256257492
 30
0.0
 10
75.22210962746183
 20
-143.643256257492
 30
0.0
  0
HATCH
  5
143
330
13E
100
AcDbEntity
  8
_U+30EC_U+30A4_U+30E4_U+30FC 1
 62
   179
420
  2234388
100
AcDbHatch
 10
0.0
 20
0.0
 30
0.0
210
0.0
220
0.0
230
1.0
  2
SOLID
 70
     1
 71
     0
 91
        1
 92
        1
 93
        1
 72
     4
 94
        3
 73
     0
 74
     1
 95
       26
 96
       22
 40
0.0
 40
0.0
 40
0.0
 40
0.0
 40
1.0
 40
1.0
 40
1.0
 40
2.0
 40
2.0
 40
2.0
 40
3.0
 40
3.0
 40
3.0
 40
4.0
 40
4.0
 40
4.0
 40
5.0
 40
5.0
 40
5.0
 40
6.0
 40
6.0
 40
6.0
 40
7.0
 40
7.0
 40
7.0
 40
7.0
 10
75.22210962746183
 20
-143.643256257492
 10
75.22210962746183
 20
-143.643256257492
 10
75.22210962746183
 20
-142.4519422386926
 10
75.22210962746183
 20
-142.4519422386926
 10
75.22210962746183
 20
-142.4519422386926
 10
74.87863360758243
 20
-142.4519422386926
 10
74.87863360758243
 20
-142.4519422386926
 10
74.87863360758243
 20
-142.4519422386926
 10
74.87863360758243
 20
-142.292089808177
 10
74.87863360758243
 20
-142.292089808177
 10
75.22434893952725
 20
-142.2762423689448
 10
75.27275253109501
 20
-142.1005424991971
 10
75.303586135688
 20
-141.9772080808251
 10
75.303586135688
 20
-141.9772080808251
 10
75.45551484658752
 20
-141.9772080808251
 10
75.45551484658752
 20
-141.9772080808251
 10
75.45551484658752
 20
-141.9772080808251
 10
75.45551484658752
 20
-143.643256257492
 10
75.45551484658752
 20
-143.643256257492
 10
75.45551484658752
 20
-143.643256257492
 10
75.22210962746183
 20
-143.643256257492
 10
75.22210962746183
 20
-143.643256257492
 97
        0
 97
        0
 75
     2
 76
     1
 98
        0
  0
SPLINE
  5
144
330
13E
100
AcDbEntity
  8
_U+30EC_U+30A4_U+30E4_U+30FC 1
370
     0
100
AcDbSpline
210
0.0
220
0.0
230
1.0
 70
    11
 71
     3
 72
    29
 73
    25
 74
     0
 42
0.0000000001
 43
0.0000000001
 12
1.0
 22
0.0
 32
0.0
 13
1.0
 23
0.0
 33
0.0
 40
0.0
 40
0.0
 40
0.0
 40
0.0
 40
1.0
 40
1.0
 40
1.0
 40
2.0
 40
2.0
 40
2.0
 40
3.0
 40
3.0
 40
3.0
 40
4.0
 40
4.0
 40
4.0
 40
5.0
 40
5.0
 40
5.0
 40
6.0
 40
6.0
 40
6.0
 40
7.0
 40
7.0
 40
7.0
 40
8.0
 40
8.0
 40
8.0
 40
8.0
 10
76.91003416046
 20
-143.4517089485121
 30
0.0
 10
76.79772404764086
 20
-143.6773627027959
 30
0.0
 10
76.61720104421376
 20
-143.6980332757074
 30
0.0
 10
76.49610593790723
 20
-143.6980332757074
 30
0.0
 10
76.32884655209834
 20
-143.6980332757074
 30
0.0
 10
76.18122421055538
 20
-143.6477348816228
 30
0.0
 10
76.08217771535446
 20
-143.4517089485121
 30
0.0
 10
75.97434622666614
 20
-143.2415581239118
 30
0.0
 10
75.95453692762595
 20
-142.9859320389063
 30
0.0
 10
75.95453692762595
 20
-142.8102321691586
 30
0.0
 10
75.95453692762595
 20
-142.6548583627738
 30
0.0
 10
75.97210691460073
 20
-142.3833848385361
 30
0.0
 10
76.08217771535446
 20
-142.168755389805
 30
0.0
 10
76.1944878281736
 20
-141.9496473169432
 30
0.0
 10
76.36191946875675
 20
-141.9248426294494
 30
0.0
 10
76.49610593790723
 20
-141.9248426294494
 30
0.0
 10
76.66129826642495
 20
-141.9248426294494
 30
0.0
 10
76.81098766525906
 20
-141.9723849471458
 30
0.0
 10
76.91003416046
 20
-142.168755389805
 30
0.0
 10
77.01355927979175
 20
-142.3764946475656
 30
0.0
 10
77.0376749481885
 20
-142.6231634843095
 30
0.0
 10
77.0376749481885
 20
-142.8102321691586
 30
0.0
 10
77.0376749481885
 20
-142.994889287168
 30
0.0
 10
77.01579859185716
 20
-143.2439696907515
 30
0.0
 10
76.91003416046
 20
-143.4517089485121
 30
0.0
  0
SPLINE
  5
145
330
13E
100
AcDbEntity
  8
_U+30EC_U+30A4_U+30E4_U+30FC 1
370
     0
100
AcDbSpline
210
0.0
220
0.0
230
1.0
 70
    11
 71
     3
 72
    17
 73
    13
 74
     0
 42
0.0000000001
 43
0.0000000001
 12
1.0
 22
0.0
 32
0.0
 13
1.0
 23
0.0
 33
0.0
 40
0.0
 40
0.0
 40
0.0
 40
0.0
 40
1.0
 40
1.0
 40
1.0
 40
2.0
 40
2.0
 40
2.0
 40
3.0
 40
3.0
 40
3.0
 40
4.0
 40
4.0
 40
4.0
 40
4.0
 10
76.49610593790723
 20
-142.1322373776614
 30
0.0
 10
76.23634573831939
 20
-142.1322373776614
 30
0.0
 10
76.18794214675162
 20
-142.4381618567516
 30
0.0
 10
76.18794214675162
 20
-142.8102321691586
 30
0.0
 10
76.18794214675162
 20
-143.1547417176835
 30
0.0
 10
76.22532143276659
 20
-143.4882269606557
 30
0.0
 10
76.49610593790723
 20
-143.4882269606557
 30
0.0
 10
76.75379908020392
 20
-143.4882269606557
 30
0.0
 10
76.8044419838371
 20
-143.1843695388567
 30
0.0
 10
76.8044419838371
 20
-142.8102321691586
 30
0.0
 10
76.8044419838371
 20
-142.4657226206336
 30
0.0
 10
76.76465113098246
 20
-142.1322373776614
 30
0.0
 10
76.49610593790723
 20
-142.1322373776614
 30
0.0
  0
HATCH
  5
146
330
13E
100
AcDbEntity
  8
_U+30EC_U+30A4_U+30E4_U+30FC 1
 62
   179
420
  2234388
100
AcDbHatch
 10
0.0
 20
0.0
 30
0.0
210
0.0
220
0.0
230
1.0
  2
SOLID
 70
     1
 71
     0
 91
        2
 92
        1
 93
        1
 72
     4
 94
        3
 73
     0
 74
     1
 95
       29
 96
       25
 40
0.0
 40
0.0
 40
0.0
 40
0.0
 40
1.0
 40
1.0
 40
1.0
 40
2.0
 40
2.0
 40
2.0
 40
3.0
 40
3.0
 40
3.0
 40
4.0
 40
4.0
 40
4.0
 40
5.0
 40
5.0
 40
5.0
 40
6.0
 40
6.0
 40
6.0
 40
7.0
 40
7.0
 40
7.0
 40
8.0
 40
8.0
 40
8.0
 40
8.0
 10
76.91003416046
 20
-143.4517089485121
 10
76.79772404764086
 20
-143.6773627027959
 10
76.61720104421376
 20
-143.6980332757074
 10
76.49610593790723
 20
-143.6980332757074
 10
76.32884655209834
 20
-143.6980332757074
 10
76.18122421055538
 20
-143.6477348816228
 10
76.08217771535446
 20
-143.4517089485121
 10
75.97434622666614
 20
-143.2415581239118
 10
75.95453692762595
 20
-142.9859320389063
 10
75.95453692762595
 20
-142.8102321691586
 10
75.95453692762595
 20
-142.6548583627738
 10
75.97210691460073
 20
-142.3833848385361
 10
76.08217771535446
 20
-142.168755389805
 10
76.1944878281736
 20
-141.9496473169432
 10
76.36191946875675
 20
-141.9248426294494
 10
76.49610593790723
 20
-141.9248426294494
 10
76.66129826642495
 20
-141.9248426294494
 10
76.81098766525906
 20
-141.9723849471458
 10
76.91003416046
 20
-142.168755389805
 10
77.01355927979175
 20
-142.3764946475656
 10
77.0376749481885
 20
-142.6231634843095
 10
77.0376749481885
 20
-142.8102321691586
 10
77.0376749481885
 20
-142.994889287168
 10
77.01579859185716
 20
-143.2439696907515
 10
76.91003416046
 20
-143.4517089485121
 97
        0
 97
        0
 92
        1
 93
        1
 72
     4
 94
        3
 73
     0
 74
     1
 95
       17
 96
       13
 40
0.0
 40
0.0
 40
0.0
 40
0.0
 40
1.0
 40
1.0
 40
1.0
 40
2.0
 40
2.0
 40
2.0
 40
3.0
 40
3.0
 40
3.0
 40
4.0
 40
4.0
 40
4.0
 40
4.0
 10
76.49610593790723
 20
-142.1322373776614
 10
76.23634573831939
 20
-142.1322373776614
 10
76.18794214675162
 20
-142.4381618567516
 10
76.18794214675162
 20
-142.8102321691586
 10
76.18794214675162
 20
-143.1547417176835
 10
76.22532143276659
 20
-143.4882269606557
 10
76.49610593790723
 20
-143.4882269606557
 10
76.75379908020392
 20
-143.4882269606557
 10
76.8044419838371
 20
-143.1843695388567
 10
76.8044419838371
 20
-142.8102321691586
 10
76.8044419838371
 20
-142.4657226206336
 10
76.76465113098246
 20
-142.1322373776614
 10
76.49610593790723
 20
-142.1322373776614
 97
        0
 97
        0
 75
     2
 76
     1
 98
        0
  0
ENDBLK
  5
141
330
13E
100
AcDbEntity
  8
0
100
AcDbBlockEnd
  0
BLOCK
  5
156
330
154
100
AcDbEntity
  8
0
100
AcDbBlockBegin
  2
block 8
 70
     0
 10
0.0
 20
0.0
 30
0.0
  3
block 8
  1

  0
SPLINE
  5
158
330
154
100
AcDbEntity
  8
_U+30EC_U+30A4_U+30E4_U+30FC 1
370
     0
100
AcDbSpline
210
0.0
220
0.0
230
1.0
 70
    11
 71
     3
 72
    26
 73
    22
 74
     0
 42
0.0000000001
 43
0.0000000001
 12
1.0
 22
0.0
 32
0.0
 13
1.0
 23
0.0
 33
0.0
 40
0.0
 40
0.0
 40
0.0
 40
0.0
 40
1.0
 40
1.0
 40
1.0
 40
2.0
 40
2.0
 40
2.0
 40
3.0
 40
3.0
 40
3.0
 40
4.0
 40
4.0
 40
4.0
 40
5.0
 40
5.0
 40
5.0
 40
6.0
 40
6.0
 40
6.0
 40
7.0
 40
7.0
 40
7.0
 40
7.0
 10
118.8578612984105
 20
-119.2283813178492
 30
0.0
 10
118.8578612984105
 20
-119.2283813178492
 30
0.0
 10
117.6665472796112
 20
-119.2283813178492
 30
0.0
 10
117.6665472796112
 20
-119.2283813178492
 30
0.0
 10
117.6665472796112
 20
-119.2283813178492
 30
0.0
 10
117.6665472796112
 20
-119.5718573377286
 30
0.0
 10
117.6665472796112
 20
-119.5718573377286
 30
0.0
 10
117.6665472796112
 20
-119.5718573377286
 30
0.0
 10
117.5066948490956
 20
-119.5718573377286
 30
0.0
 10
117.5066948490956
 20
-119.5718573377286
 30
0.0
 10
117.4908474098634
 20
-119.2261420057837
 30
0.0
 10
117.3151475401157
 20
-119.177738414216
 30
0.0
 10
117.1918131217437
 20
-119.146904809623
 30
0.0
 10
117.1918131217437
 20
-119.146904809623
 30
0.0
 10
117.1918131217437
 20
-118.9949760987235
 30
0.0
 10
117.1918131217437
 20
-118.9949760987235
 30
0.0
 10
117.1918131217437
 20
-118.9949760987235
 30
0.0
 10
118.8578612984105
 20
-118.9949760987235
 30
0.0
 10
118.8578612984105
 20
-118.9949760987235
 30
0.0
 10
118.8578612984105
 20
-118.9949760987235
 30
0.0
 10
118.8578612984105
 20
-119.2283813178492
 30
0.0
 10
118.8578612984105
 20
-119.2283813178492
 30
0.0
  0
HATCH
  5
159
330
154
100
AcDbEntity
  8
_U+30EC_U+30A4_U+30E4_U+30FC 1
 62
   179
420
  2234388
100
AcDbHatch
 10
0.0
 20
0.0
 30
0.0
210
0.0
220
0.0
230
1.0
  2
SOLID
 70
     1
 71
     0
 91
        1
 92
        1
 93
        1
 72
     4
 94
        3
 73
     0
 74
     1
 95
       26
 96
       22
 40
0.0
 40
0.0
 40
0.0
 40
0.0
 40
1.0
 40
1.0
 40
1.0
 40
2.0
 40
2.0
 40
2.0
 40
3.0
 40
3.0
 40
3.0
 40
4.0
 40
4.0
 40
4.0
 40
5.0
 40
5.0
 40
5.0
 40
6.0
 40
6.0
 40
6.0
 40
7.0
 40
7.0
 40
7.0
 40
7.0
 10
118.8578612984105
 20
-119.2283813178492
 10
118.8578612984105
 20
-119.2283813178492
 10
117.6665472796112
 20
-119.2283813178492
 10
117.6665472796112
 20
-119.2283813178492
 10
117.6665472796112
 20
-119.2283813178492
 10
117.6665472796112
 20
-119.5718573377286
 10
117.6665472796112
 20
-119.5718573377286
 10
117.6665472796112
 20
-119.5718573377286
 10
117.5066948490956
 20
-119.5718573377286
 10
117.5066948490956
 20
-119.5718573377286
 10
117.4908474098634
 20
-119.2261420057837
 10
117.3151475401157
 20
-119.177738414216
 10
117.1918131217437
 20
-119.146904809623
 10
117.1918131217437
 20
-119.146904809623
 10
117.1918131217437
 20
-118.9949760987235
 10
117.1918131217437
 20
-118.9949760987235
 10
117.1918131217437
 20
-118.9949760987235
 10
118.8578612984105
 20
-118.9949760987235
 10
118.8578612984105
 20
-118.9949760987235
 10
118.8578612984105
 20
-118.9949760987235
 10
118.8578612984105
 20
-119.2283813178492
 10
118.8578612984105
 20
-119.2283813178492
 97
        0
 97
        0
 75
     2
 76
     1
 98
        0
  0
POLYLINE
  5
15A
330
154
100
AcDbEntity
  8
_U+30EC_U+30A4_U+30E4_U+30FC 1
370
     0
100
AcDb2dPolyline
 66
     1
 10
0.0
 20
0.0
 30
0.0
  0
VERTEX
  5
15B
330
15A
100
AcDbEntity
  8
_U+30EC_U+30A4_U+30E4_U+30FC 1
370
     0
100
AcDbVertex
100
AcDb2dVertex
 10
118.8578612984105
 20
-118.4122381973935
 30
0.0
  0
VERTEX
  5
15C
330
15A
100
AcDbEntity
  8
_U+30EC_U+30A4_U+30E4_U+30FC 1
370
     0
100
AcDbVertex
100
AcDb2dVertex
 10
118.5863877741728
 20
-118.4122381973935
 30
0.0
  0
VERTEX
  5
15D
330
15A
100
AcDbEntity
  8
_U+30EC_U+30A4_U+30E4_U+30FC 1
370
     0
100
AcDbVertex
100
AcDb2dVertex
 10
118.5863877741728
 20
-118.1502386857402
 30
0.0
  0
VERTEX
  5
15E
330
15A
100
AcDbEntity
  8
_U+30EC_U+30A4_U+30E4_U+30FC 1
370
     0
100
AcDbVertex
100
AcDb2dVertex
 10
118.8578612984105
 20
-118.1502386857402
 30
0.0
  0
VERTEX
  5
15F
330
15A
100
AcDbEntity
  8
_U+30EC_U+30A4_U+30E4_U+30FC 1
370
     0
100
AcDbVertex
100
AcDb2dVertex
 10
118.8578612984105
 20
-118.4122381973935
 30
0.0
  0
SEQEND
  5
160
330
15A
100
AcDbEntity
  8
_U+30EC_U+30A4_U+30E4_U+30FC 1
370
     0
  0
HATCH
  5
161
330
154
100
AcDbEntity
  8
_U+30EC_U+30A4_U+30E4_U+30FC 1
 62
   179
420
  2234388
100
AcDbHatch
 10
0.0
 20
0.0
 30
0.0
210
0.0
220
0.0
230
1.0
  2
SOLID
 70
     1
 71
     0
 91
        1
 92
        1
 93
        4
 72
     1
 10
118.8578612984105
 20
-118.4122381973935
 11
118.5863877741728
 21
-118.4122381973935
 72
     1
 10
118.5863877741728
 20
-118.4122381973935
 11
118.5863877741728
 21
-118.1502386857402
 72
     1
 10
118.5863877741728
 20
-118.1502386857402
 11
118.8578612984105
 21
-118.1502386857402
 72
     1
 10
118.8578612984105
 20
-118.1502386857402
 11
118.8578612984105
 21
-118.4122381973935
 97
        0
 75
     2
 76
     1
 98
        0
  0
SPLINE
  5
162
330
154
100
AcDbEntity
  8
_U+30EC_U+30A4_U+30E4_U+30FC 1
370
     0
100
AcDbSpline
210
0.0
220
0.0
230
1.0
 70
    11
 71
     3
 72
    44
 73
    40
 74
     0
 42
0.0000000001
 43
0.0000000001
 12
1.0
 22
0.0
 32
0.0
 13
1.0
 23
0.0
 33
0.0
 40
0.0
 40
0.0
 40
0.0
 40
0.0
 40
1.0
 40
1.0
 40
1.0
 40
2.0
 40
2.0
 40
2.0
 40
3.0
 40
3.0
 40
3.0
 40
4.0
 40
4.0
 40
4.0
 40
5.0
 40
5.0
 40
5.0
 40
6.0
 40
6.0
 40
6.0
 40
7.0
 40
7.0
 40
7.0
 40
8.0
 40
8.0
 40
8.0
 40
9.0
 40
9.0
 40
9.0
 40
10.0
 40
10.0
 40
10.0
 40
11.0
 40
11.0
 40
11.0
 40
12.0
 40
12.0
 40
12.0
 40
13.0
 40
13.0
 40
13.0
 40
13.0
 10
118.230164900998
 20
-117.2875867762337
 30
0.0
 10
118.4013861466149
 20
-117.5144463139374
 30
0.0
 10
118.4813123618727
 20
-117.6112534970729
 30
0.0
 10
118.636341658709
 20
-117.6618964007061
 30
0.0
 10
118.636341658709
 20
-117.6618964007061
 30
0.0
 10
118.636341658709
 20
-116.8517821973496
 30
0.0
 10
118.636341658709
 20
-116.8517821973496
 30
0.0
 10
118.636341658709
 20
-116.8517821973496
 30
0.0
 10
118.8578612984105
 20
-116.8517821973496
 30
0.0
 10
118.8578612984105
 20
-116.8517821973496
 30
0.0
 10
118.8578612984105
 20
-116.8517821973496
 30
0.0
 10
118.8578612984105
 20
-117.9216566002939
 30
0.0
 10
118.8578612984105
 20
-117.9216566002939
 30
0.0
 10
118.4720106040626
 20
-117.8887559384098
 30
0.0
 10
118.3876057646739
 20
-117.8205430478018
 30
0.0
 10
118.0658338463516
 20
-117.419706188093
 30
0.0
 10
117.8512043976205
 20
-117.1534003070832
 30
0.0
 10
117.7781683733332
 20
-117.0851874164752
 30
0.0
 10
117.6300292674675
 20
-117.0851874164752
 30
0.0
 10
117.5022162249647
 20
-117.0851874164752
 30
0.0
 10
117.360622800521
 20
-117.1599459885052
 30
0.0
 10
117.360622800521
 20
-117.3647569151033
 30
0.0
 10
117.360622800521
 20
-117.6355414202439
 30
0.0
 10
117.609358694556
 20
-117.6443264137313
 30
0.0
 10
117.7347601702191
 20
-117.6488050378621
 30
0.0
 10
117.7347601702191
 20
-117.6488050378621
 30
0.0
 10
117.7347601702191
 20
-117.8820380022135
 30
0.0
 10
117.7347601702191
 20
-117.8820380022135
 30
0.0
 10
117.5979898794547
 20
-117.8732530087261
 30
0.0
 10
117.4770670279224
 20
-117.8622287031733
 30
0.0
 10
117.3492539854196
 20
-117.778685137656
 30
0.0
 10
117.175621172963
 20
-117.6641357127715
 30
0.0
 10
117.1391031608194
 20
-117.4703490917262
 30
0.0
 10
117.1391031608194
 20
-117.3492539854196
 30
0.0
 10
117.1391031608194
 20
-117.0608994933042
 30
0.0
 10
117.3378851703183
 20
-116.8450642611533
 30
0.0
 10
117.6320963247586
 20
-116.8450642611533
 30
0.0
 10
117.8787651615025
 20
-116.8450642611533
 30
0.0
 10
117.9859076310938
 20
-116.9661593674599
 30
0.0
 10
118.230164900998
 20
-117.2875867762337
 30
0.0
  0
HATCH
  5
163
330
154
100
AcDbEntity
  8
_U+30EC_U+30A4_U+30E4_U+30FC 1
 62
   179
420
  2234388
100
AcDbHatch
 10
0.0
 20
0.0
 30
0.0
210
0.0
220
0.0
230
1.0
  2
SOLID
 70
     1
 71
     0
 91
        1
 92
        1
 93
        1
 72
     4
 94
        3
 73
     0
 74
     1
 95
       44
 96
       40
 40
0.0
 40
0.0
 40
0.0
 40
0.0
 40
1.0
 40
1.0
 40
1.0
 40
2.0
 40
2.0
 40
2.0
 40
3.0
 40
3.0
 40
3.0
 40
4.0
 40
4.0
 40
4.0
 40
5.0
 40
5.0
 40
5.0
 40
6.0
 40
6.0
 40
6.0
 40
7.0
 40
7.0
 40
7.0
 40
8.0
 40
8.0
 40
8.0
 40
9.0
 40
9.0
 40
9.0
 40
10.0
 40
10.0
 40
10.0
 40
11.0
 40
11.0
 40
11.0
 40
12.0
 40
12.0
 40
12.0
 40
13.0
 40
13.0
 40
13.0
 40
13.0
 10
118.230164900998
 20
-117.2875867762337
 10
118.4013861466149
 20
-117.5144463139374
 10
118.4813123618727
 20
-117.6112534970729
 10
118.636341658709
 20
-117.6618964007061
 10
118.636341658709
 20
-117.6618964007061
 10
118.636341658709
 20
-116.8517821973496
 10
118.636341658709
 20
-116.8517821973496
 10
118.636341658709
 20
-116.8517821973496
 10
118.8578612984105
 20
-116.8517821973496
 10
118.8578612984105
 20
-116.8517821973496
 10
118.8578612984105
 20
-116.8517821973496
 10
118.8578612984105
 20
-117.9216566002939
 10
118.8578612984105
 20
-117.9216566002939
 10
118.4720106040626
 20
-117.8887559384098
 10
118.3876057646739
 20
-117.8205430478018
 10
118.0658338463516
 20
-117.419706188093
 10
117.8512043976205
 20
-117.1534003070832
 10
117.7781683733332
 20
-117.0851874164752
 10
117.6300292674675
 20
-117.0851874164752
 10
117.5022162249647
 20
-117.0851874164752
 10
117.360622800521
 20
-117.1599459885052
 10
117.360622800521
 20
-117.3647569151033
 10
117.360622800521
 20
-117.6355414202439
 10
117.609358694556
 20
-117.6443264137313
 10
117.7347601702191
 20
-117.6488050378621
 10
117.7347601702191
 20
-117.6488050378621
 10
117.7347601702191
 20
-117.8820380022135
 10
117.7347601702191
 20
-117.8820380022135
 10
117.5979898794547
 20
-117.8732530087261
 10
117.4770670279224
 20
-117.8622287031733
 10
117.3492539854196
 20
-117.778685137656
 10
117.175621172963
 20
-117.6641357127715
 10
117.1391031608194
 20
-117.4703490917262
 10
117.1391031608194
 20
-117.3492539854196
 10
117.1391031608194
 20
-117.0608994933042
 10
117.3378851703183
 20
-116.8450642611533
 10
117.6320963247586
 20
-116.8450642611533
 10
117.8787651615025
 20
-116.8450642611533
 10
117.9859076310938
 20
-116.9661593674599
 10
118.230164900998
 20
-117.2875867762337
 97
        0
 97
        0
 75
     2
 76
     1
 98
        0
  0
ENDBLK
  5
157
330
154
100
AcDbEntity
  8
0
100
AcDbBlockEnd
  0
ENDSEC
  0
SECTION
  2
ENTITIES
  0
POLYLINE
  5
41
330
1F
100
AcDbEntity
  8
_U+30EC_U+30A4_U+30E4_U+30FC 1
370
     0
100
AcDb2dPolyline
 66
     1
 10
0.0
 20
0.0
 30
0.0
  0
VERTEX
  5
42
330
41
100
AcDbEntity
  8
_U+30EC_U+30A4_U+30E4_U+30FC 1
370
     0
100
AcDbVertex
100
AcDb2dVertex
 10
81.02141386863367
 20
-121.1204291363865
 30
0.0
  0
VERTEX
  5
43
330
41
100
AcDbEntity
  8
_U+30EC_U+30A4_U+30E4_U+30FC 1
370
     0
100
AcDbVertex
100
AcDb2dVertex
 10
115.8285860821542
 20
-121.1204291363865
 30
0.0
  0
VERTEX
  5
44
330
41
100
AcDbEntity
  8
_U+30EC_U+30A4_U+30E4_U+30FC 1
370
     0
100
AcDbVertex
100
AcDb2dVertex
 10
115.8285860821542
 20
-122.5315402471448
 30
0.0
  0
VERTEX
  5
45
330
41
100
AcDbEntity
  8
_U+30EC_U+30A4_U+30E4_U+30FC 1
370
     0
100
AcDbVertex
100
AcDb2dVertex
 10
82.07974720170242
 20
-122.5315402471448
 30
0.0
  0
VERTEX
  5
46
330
41
100
AcDbEntity
  8
_U+30EC_U+30A4_U+30E4_U+30FC 1
370
     0
100
AcDbVertex
100
AcDb2dVertex
 10
82.07974720170242
 20
-139.8178277428236
 30
0.0
  0
VERTEX
  5
47
330
41
100
AcDbEntity
  8
_U+30EC_U+30A4_U+30E4_U+30FC 1
370
     0
100
AcDbVertex
100
AcDb2dVertex
 10
94.66191942077916
 20
-139.8178277428236
 30
0.0
  0
VERTEX
  5
48
330
41
100
AcDbEntity
  8
_U+30EC_U+30A4_U+30E4_U+30FC 1
370
     0
100
AcDbVertex
100
AcDb2dVertex
 10
94.66191942077916
 20
-137.1130805212771
 30
0.0
  0
VERTEX
  5
49
330
41
100
AcDbEntity
  8
_U+30EC_U+30A4_U+30E4_U+30FC 1
370
     0
100
AcDbVertex
100
AcDb2dVertex
 10
95.83808053159585
 20
-137.1130805212771
 30
0.0
  0
VERTEX
  5
4A
330
41
100
AcDbEntity
  8
_U+30EC_U+30A4_U+30E4_U+30FC 1
370
     0
100
AcDbVertex
100
AcDb2dVertex
 10
95.83808053159585
 20
-140.9936360758625
 30
0.0
  0
VERTEX
  5
4B
330
41
100
AcDbEntity
  8
_U+30EC_U+30A4_U+30E4_U+30FC 1
370
     0
100
AcDbVertex
100
AcDb2dVertex
 10
80.90358609088509
 20
-140.9936360758625
 30
0.0
  0
VERTEX
  5
4C
330
41
100
AcDbEntity
  8
_U+30EC_U+30A4_U+30E4_U+30FC 1
370
     0
100
AcDbVertex
100
AcDb2dVertex
 10
80.90358609088509
 20
-131.8214138559333
 30
0.0
  0
VERTEX
  5
4D
330
41
100
AcDbEntity
  8
_U+30EC_U+30A4_U+30E4_U+30FC 1
370
     0
100
AcDbVertex
100
AcDb2dVertex
 10
70.79085831563576
 20
-131.8214138559333
 30
0.0
  0
VERTEX
  5
4E
330
41
100
AcDbEntity
  8
_U+30EC_U+30A4_U+30E4_U+30FC 1
370
     0
100
AcDbVertex
100
AcDb2dVertex
 10
70.79085831563576
 20
-130.5277777451458
 30
0.0
  0
VERTEX
  5
4F
330
41
100
AcDbEntity
  8
_U+30EC_U+30A4_U+30E4_U+30FC 1
370
     0
100
AcDbVertex
100
AcDb2dVertex
 10
80.78611109091459
 20
-130.5277777451458
 30
0.0
  0
VERTEX
  5
50
330
41
100
AcDbEntity
  8
_U+30EC_U+30A4_U+30E4_U+30FC 1
370
     0
100
AcDbVertex
100
AcDb2dVertex
 10
81.02141386863367
 20
-121.1204291363865
 30
0.0
  0
SEQEND
  5
52
330
41
100
AcDbEntity
  8
_U+30EC_U+30A4_U+30E4_U+30FC 1
370
     0
  0
HATCH
  5
51
330
1F
100
AcDbEntity
  8
_U+30EC_U+30A4_U+30E4_U+30FC 1
 62
   253
420
 10066329
100
AcDbHatch
 10
0.0
 20
0.0
 30
0.0
210
0.0
220
0.0
230
1.0
  2
SOLID
 70
     1
 71
     0
 91
        1
 92
        1
 93
       14
 72
     1
 10
81.02141386863367
 20
-121.1204291363865
 11
115.8285860821542
 21
-121.1204291363865
 72
     1
 10
115.8285860821542
 20
-121.1204291363865
 11
115.8285860821542
 21
-122.5315402471448
 72
     1
 10
115.8285860821542
 20
-122.5315402471448
 11
82.07974720170242
 21
-122.5315402471448
 72
     1
 10
82.07974720170242
 20
-122.5315402471448
 11
82.07974720170242
 21
-139.8178277428236
 72
     1
 10
82.07974720170242
 20
-139.8178277428236
 11
94.66191942077916
 21
-139.8178277428236
 72
     1
 10
94.66191942077916
 20
-139.8178277428236
 11
94.66191942077916
 21
-137.1130805212771
 72
     1
 10
94.66191942077916
 20
-137.1130805212771
 11
95.83808053159585
 21
-137.1130805212771
 72
     1
 10
95.83808053159585
 20
-137.1130805212771
 11
95.83808053159585
 21
-140.9936360758625
 72
     1
 10
95.83808053159585
 20
-140.9936360758625
 11
80.90358609088509
 21
-140.9936360758625
 72
     1
 10
80.90358609088509
 20
-140.9936360758625
 11
80.90358609088509
 21
-131.8214138559333
 72
     1
 10
80.90358609088509
 20
-131.8214138559333
 11
70.79085831563576
 21
-131.8214138559333
 72
     1
 10
70.79085831563576
 20
-131.8214138559333
 11
70.79085831563576
 21
-130.5277777451458
 72
     1
 10
70.79085831563576
 20
-130.5277777451458
 11
80.78611109091459
 21
-130.5277777451458
 72
     1
 10
80.78611109091459
 20
-130.5277777451458
 11
81.02141386863367
 21
-121.1204291363865
 97
        0
 75
     2
 76
     1
 98
        0
  0
POLYLINE
  5
53
330
1F
100
AcDbEntity
  8
_U+30EC_U+30A4_U+30E4_U+30FC 1
 62
   179
420
  2234388
370
    25
100
AcDb2dPolyline
 66
     1
 10
0.0
 20
0.0
 30
0.0
  0
VERTEX
  5
54
330
53
100
AcDbEntity
  8
_U+30EC_U+30A4_U+30E4_U+30FC 1
 62
   179
420
  2234388
370
    25
100
AcDbVertex
100
AcDb2dVertex
 10
80.88428710313659
 20
-121.2818249696796
 30
0.0
  0
VERTEX
  5
55
330
53
100
AcDbEntity
  8
_U+30EC_U+30A4_U+30E4_U+30FC 1
 62
   179
420
  2234388
370
    25
100
AcDbVertex
100
AcDb2dVertex
 10
80.88428710313659
 20
-130.5818585784656
 30
0.0
  0
SEQEND
  5
56
330
53
100
AcDbEntity
  8
_U+30EC_U+30A4_U+30E4_U+30FC 1
 62
   179
420
  2234388
370
    25
  0
POLYLINE
  5
57
330
1F
100
AcDbEntity
  8
_U+30EC_U+30A4_U+30E4_U+30FC 1
 62
   179
420
  2234388
370
    25
100
AcDb2dPolyline
 66
     1
 10
0.0
 20
0.0
 30
0.0
  0
VERTEX
  5
58
330
57
100
AcDbEntity
  8
_U+30EC_U+30A4_U+30E4_U+30FC 1
 62
   179
420
  2234388
370
    25
100
AcDbVertex
100
AcDb2dVertex
 10
80.88428710313659
 20
-141.0818305202849
 30
0.0
  0
VERTEX
  5
59
330
57
100
AcDbEntity
  8
_U+30EC_U+30A4_U+30E4_U+30FC 1
 62
   179
420
  2234388
370
    25
100
AcDbVertex
100
AcDb2dVertex
 10
95.88425672045548
 20
-141.0818305202849
 30
0.0
  0
SEQEND
  5
5A
330
57
100
AcDbEntity
  8
_U+30EC_U+30A4_U+30E4_U+30FC 1
 62
   179
420
  2234388
370
    25
  0
POLYLINE
  5
5B
330
1F
100
AcDbEntity
  8
_U+30EC_U+30A4_U+30E4_U+30FC 1
 62
   179
420
  2234388
370
    25
100
AcDb2dPolyline
 66
     1
 10
0.0
 20
0.0
 30
0.0
  0
VERTEX
  5
5C
330
5B
100
AcDbEntity
  8
_U+30EC_U+30A4_U+30E4_U+30FC 1
 62
   179
420
  2234388
370
    25
100
AcDbVertex
100
AcDb2dVertex
 10
80.88428710313659
 20
-121.2818249696796
 30
0.0
  0
VERTEX
  5
5D
330
5B
100
AcDbEntity
  8
_U+30EC_U+30A4_U+30E4_U+30FC 1
 62
   179
420
  2234388
370
    25
100
AcDbVertex
100
AcDb2dVertex
 10
115.8840398213296
 20
-121.2818249696796
 30
0.0
  0
SEQEND
  5
5E
330
5B
100
AcDbEntity
  8
_U+30EC_U+30A4_U+30E4_U+30FC 1
 62
   179
420
  2234388
370
    25
  0
POLYLINE
  5
5F
330
1F
100
AcDbEntity
  8
_U+30EC_U+30A4_U+30E4_U+30FC 1
 62
   179
420
  2234388
370
    25
100
AcDb2dPolyline
 66
     1
 10
0.0
 20
0.0
 30
0.0
  0
VERTEX
  5
60
330
5F
100
AcDbEntity
  8
_U+30EC_U+30A4_U+30E4_U+30FC 1
 62
   179
420
  2234388
370
    25
100
AcDbVertex
100
AcDb2dVertex
 10
115.8840398213296
 20
-121.2818249696796
 30
0.0
  0
VERTEX
  5
61
330
5F
100
AcDbEntity
  8
_U+30EC_U+30A4_U+30E4_U+30FC 1
 62
   179
420
  2234388
370
    25
100
AcDbVertex
100
AcDb2dVertex
 10
115.8840398213296
 20
-122.4817633027129
 30
0.0
  0
SEQEND
  5
62
330
5F
100
AcDbEntity
  8
_U+30EC_U+30A4_U+30E4_U+30FC 1
 62
   179
420
  2234388
370
    25
  0
POLYLINE
  5
63
330
1F
100
AcDbEntity
  8
_U+30EC_U+30A4_U+30E4_U+30FC 1
 62
   179
420
  2234388
370
    25
100
AcDb2dPolyline
 66
     1
 10
0.0
 20
0.0
 30
0.0
  0
VERTEX
  5
64
330
63
100
AcDbEntity
  8
_U+30EC_U+30A4_U+30E4_U+30FC 1
 62
   179
420
  2234388
370
    25
100
AcDbVertex
100
AcDb2dVertex
 10
95.88425672045548
 20
-137.0817185768409
 30
0.0
  0
VERTEX
  5
65
330
63
100
AcDbEntity
  8
_U+30EC_U+30A4_U+30E4_U+30FC 1
 62
   179
420
  2234388
370
    25
100
AcDbVertex
100
AcDb2dVertex
 10
95.88425672045548
 20
-141.0818305202849
 30
0.0
  0
SEQEND
  5
66
330
63
100
AcDbEntity
  8
_U+30EC_U+30A4_U+30E4_U+30FC 1
 62
   179
420
  2234388
370
    25
  0
POLYLINE
  5
67
330
1F
100
AcDbEntity
  8
_U+30EC_U+30A4_U+30E4_U+30FC 1
 62
   179
420
  2234388
370
    25
100
AcDb2dPolyline
 66
     1
 10
0.0
 20
0.0
 30
0.0
  0
VERTEX
  5
68
330
67
100
AcDbEntity
  8
_U+30EC_U+30A4_U+30E4_U+30FC 1
 62
   179
420
  2234388
370
    25
100
AcDbVertex
100
AcDb2dVertex
 10
94.68431841773513
 20
-137.0817185768409
 30
0.0
  0
VERTEX
  5
69
330
67
100
AcDbEntity
  8
_U+30EC_U+30A4_U+30E4_U+30FC 1
 62
   179
420
  2234388
370
    25
100
AcDbVertex
100
AcDb2dVertex
 10
95.88425672045548
 20
-137.0817185768409
 30
0.0
  0
SEQEND
  5
6A
330
67
100
AcDbEntity
  8
_U+30EC_U+30A4_U+30E4_U+30FC 1
 62
   179
420
  2234388
370
    25
  0
POLYLINE
  5
6B
330
1F
100
AcDbEntity
  8
_U+30EC_U+30A4_U+30E4_U+30FC 1
 62
   179
420
  2234388
370
    25
100
AcDb2dPolyline
 66
     1
 10
0.0
 20
0.0
 30
0.0
  0
VERTEX
  5
6C
330
6B
100
AcDbEntity
  8
_U+30EC_U+30A4_U+30E4_U+30FC 1
 62
   179
420
  2234388
370
    25
100
AcDbVertex
100
AcDb2dVertex
 10
82.08422540585694
 20
-122.4817633027129
 30
0.0
  0
VERTEX
  5
6D
330
6B
100
AcDbEntity
  8
_U+30EC_U+30A4_U+30E4_U+30FC 1
 62
   179
420
  2234388
370
    25
100
AcDbVertex
100
AcDb2dVertex
 10
82.08422540585694
 20
-139.881892187252
 30
0.0
  0
SEQEND
  5
6E
330
6B
100
AcDbEntity
  8
_U+30EC_U+30A4_U+30E4_U+30FC 1
 62
   179
420
  2234388
370
    25
  0
POLYLINE
  5
6F
330
1F
100
AcDbEntity
  8
_U+30EC_U+30A4_U+30E4_U+30FC 1
 62
   179
420
  2234388
370
    25
100
AcDb2dPolyline
 66
     1
 10
0.0
 20
0.0
 30
0.0
  0
VERTEX
  5
70
330
6F
100
AcDbEntity
  8
_U+30EC_U+30A4_U+30E4_U+30FC 1
 62
   179
420
  2234388
370
    25
100
AcDbVertex
100
AcDb2dVertex
 10
82.08422540585694
 20
-122.4817633027129
 30
0.0
  0
VERTEX
  5
71
330
6F
100
AcDbEntity
  8
_U+30EC_U+30A4_U+30E4_U+30FC 1
 62
   179
420
  2234388
370
    25
100
AcDbVertex
100
AcDb2dVertex
 10
115.8840398213296
 20
-122.4817633027129
 30
0.0
  0
SEQEND
  5
72
330
6F
100
AcDbEntity
  8
_U+30EC_U+30A4_U+30E4_U+30FC 1
 62
   179
420
  2234388
370
    25
  0
POLYLINE
  5
73
330
1F
100
AcDbEntity
  8
_U+30EC_U+30A4_U+30E4_U+30FC 1
 62
   179
420
  2234388
370
    25
100
AcDb2dPolyline
 66
     1
 10
0.0
 20
0.0
 30
0.0
  0
VERTEX
  5
74
330
73
100
AcDbEntity
  8
_U+30EC_U+30A4_U+30E4_U+30FC 1
 62
   179
420
  2234388
370
    25
100
AcDbVertex
100
AcDb2dVertex
 10
82.08422540585694
 20
-139.881892187252
 30
0.0
  0
VERTEX
  5
75
330
73
100
AcDbEntity
  8
_U+30EC_U+30A4_U+30E4_U+30FC 1
 62
   179
420
  2234388
370
    25
100
AcDbVertex
100
AcDb2dVertex
 10
94.68431841773513
 20
-139.881892187252
 30
0.0
  0
SEQEND
  5
76
330
73
100
AcDbEntity
  8
_U+30EC_U+30A4_U+30E4_U+30FC 1
 62
   179
420
  2234388
370
    25
  0
POLYLINE
  5
77
330
1F
100
AcDbEntity
  8
_U+30EC_U+30A4_U+30E4_U+30FC 1
 62
   179
420
  2234388
370
    25
100
AcDb2dPolyline
 66
     1
 10
0.0
 20
0.0
 30
0.0
  0
VERTEX
  5
78
330
77
100
AcDbEntity
  8
_U+30EC_U+30A4_U+30E4_U+30FC 1
 62
   179
420
  2234388
370
    25
100
AcDbVertex
100
AcDb2dVertex
 10
94.68431841773513
 20
-137.0817185768409
 30
0.0
  0
VERTEX
  5
79
330
77
100
AcDbEntity
  8
_U+30EC_U+30A4_U+30E4_U+30FC 1
 62
   179
420
  2234388
370
    25
100
AcDbVertex
100
AcDb2dVertex
 10
94.68431841773513
 20
-139.881892187252
 30
0.0
  0
SEQEND
  5
7A
330
77
100
AcDbEntity
  8
_U+30EC_U+30A4_U+30E4_U+30FC 1
 62
   179
420
  2234388
370
    25
  0
POLYLINE
  5
7B
330
1F
100
AcDbEntity
  8
_U+30EC_U+30A4_U+30E4_U+30FC 1
 62
   179
420
  2234388
370
    25
100
AcDb2dPolyline
 66
     1
 10
0.0
 20
0.0
 30
0.0
  0
VERTEX
  5
7C
330
7B
100
AcDbEntity
  8
_U+30EC_U+30A4_U+30E4_U+30FC 1
 62
   179
420
  2234388
370
    25
100
AcDbVertex
100
AcDb2dVertex
 10
70.8842015249267
 20
-130.5818585784656
 30
0.0
  0
VERTEX
  5
7D
330
7B
100
AcDbEntity
  8
_U+30EC_U+30A4_U+30E4_U+30FC 1
 62
   179
420
  2234388
370
    25
100
AcDbVertex
100
AcDb2dVertex
 10
70.8842015249267
 20
-131.7817969114992
 30
0.0
  0
SEQEND
  5
7E
330
7B
100
AcDbEntity
  8
_U+30EC_U+30A4_U+30E4_U+30FC 1
 62
   179
420
  2234388
370
    25
  0
POLYLINE
  5
7F
330
1F
100
AcDbEntity
  8
_U+30EC_U+30A4_U+30E4_U+30FC 1
 62
   179
420
  2234388
370
    25
100
AcDb2dPolyline
 66
     1
 10
0.0
 20
0.0
 30
0.0
  0
VERTEX
  5
80
330
7F
100
AcDbEntity
  8
_U+30EC_U+30A4_U+30E4_U+30FC 1
 62
   179
420
  2234388
370
    25
100
AcDbVertex
100
AcDb2dVertex
 10
70.8842015249267
 20
-130.5818585784656
 30
0.0
  0
VERTEX
  5
81
330
7F
100
AcDbEntity
  8
_U+30EC_U+30A4_U+30E4_U+30FC 1
 62
   179
420
  2234388
370
    25
100
AcDbVertex
100
AcDb2dVertex
 10
80.88428710313659
 20
-130.5818585784656
 30
0.0
  0
SEQEND
  5
82
330
7F
100
AcDbEntity
  8
_U+30EC_U+30A4_U+30E4_U+30FC 1
 62
   179
420
  2234388
370
    25
  0
POLYLINE
  5
83
330
1F
100
AcDbEntity
  8
_U+30EC_U+30A4_U+30E4_U+30FC 1
 62
   179
420
  2234388
370
    25
100
AcDb2dPolyline
 66
     1
 10
0.0
 20
0.0
 30
0.0
  0
VERTEX
  5
84
330
83
100
AcDbEntity
  8
_U+30EC_U+30A4_U+30E4_U+30FC 1
 62
   179
420
  2234388
370
    25
100
AcDbVertex
100
AcDb2dVertex
 10
70.8842015249267
 20
-131.7817969114992
 30
0.0
  0
VERTEX
  5
85
330
83
100
AcDbEntity
  8
_U+30EC_U+30A4_U+30E4_U+30FC 1
 62
   179
420
  2234388
370
    25
100
AcDbVertex
100
AcDb2dVertex
 10
80.88428710313659
 20
-131.7817969114992
 30
0.0
  0
SEQEND
  5
86
330
83
100
AcDbEntity
  8
_U+30EC_U+30A4_U+30E4_U+30FC 1
 62
   179
420
  2234388
370
    25
  0
POLYLINE
  5
87
330
1F
100
AcDbEntity
  8
_U+30EC_U+30A4_U+30E4_U+30FC 1
 62
   179
420
  2234388
370
    25
100
AcDb2dPolyline
 66
     1
 10
0.0
 20
0.0
 30
0.0
  0
VERTEX
  5
88
330
87
100
AcDbEntity
  8
_U+30EC_U+30A4_U+30E4_U+30FC 1
 62
   179
420
  2234388
370
    25
100
AcDbVertex
100
AcDb2dVertex
 10
80.88428710313659
 20
-131.7817969114992
 30
0.0
  0
VERTEX
  5
89
330
87
100
AcDbEntity
  8
_U+30EC_U+30A4_U+30E4_U+30FC 1
 62
   179
420
  2234388
370
    25
100
AcDbVertex
100
AcDb2dVertex
 10
80.88428710313659
 20
-141.0818305202849
 30
0.0
  0
SEQEND
  5
8A
330
87
100
AcDbEntity
  8
_U+30EC_U+30A4_U+30E4_U+30FC 1
 62
   179
420
  2234388
370
    25
  0
SPLINE
  5
8B
330
1F
100
AcDbEntity
  8
_U+30EC_U+30A4_U+30E4_U+30FC 1
 62
   179
420
  2234388
370
     9
100
AcDbSpline
210
0.0
220
0.0
230
1.0
 70
    11
 71
     3
 72
    17
 73
    13
 74
     0
 42
0.0000000001
 43
0.0000000001
 12
1.0
 22
0.0
 32
0.0
 13
1.0
 23
0.0
 33
0.0
 40
0.0
 40
0.0
 40
0.0
 40
0.0
 40
1.0
 40
1.0
 40
1.0
 40
2.0
 40
2.0
 40
2.0
 40
3.0
 40
3.0
 40
3.0
 40
4.0
 40
4.0
 40
4.0
 40
4.0
 10
80.98419376725442
 20
-145.0819424637295
 30
0.0
 10
80.98419376725442
 20
-145.0264505192987
 30
0.0
 10
80.93942626839653
 20
-144.9816830193102
 30
0.0
 10
80.88428710313659
 20
-144.9816830193102
 30
0.0
 10
80.82918321565352
 20
-144.9816830193102
 30
0.0
 10
80.78438043901875
 20
-145.0264505192987
 30
0.0
 10
80.78438043901875
 20
-145.0819424637295
 30
0.0
 10
80.78438043901875
 20
-145.1370463526045
 30
0.0
 10
80.82918321565352
 20
-145.1818491303712
 30
0.0
 10
80.88428710313659
 20
-145.1818491303712
 30
0.0
 10
80.93942626839653
 20
-145.1818491303712
 30
0.0
 10
80.98419376725442
 20
-145.1370463526045
 30
0.0
 10
80.98419376725442
 20
-145.0819424637295
 30
0.0
  0
SPLINE
  5
8C
330
1F
100
AcDbEntity
  8
_U+30EC_U+30A4_U+30E4_U+30FC 1
 62
   179
420
  2234388
370
     9
100
AcDbSpline
210
0.0
220
0.0
230
1.0
 70
    11
 71
     3
 72
    17
 73
    13
 74
     0
 42
0.0000000001
 43
0.0000000001
 12
1.0
 22
0.0
 32
0.0
 13
1.0
 23
0.0
 33
0.0
 40
0.0
 40
0.0
 40
0.0
 40
0.0
 40
1.0
 40
1.0
 40
1.0
 40
2.0
 40
2.0
 40
2.0
 40
3.0
 40
3.0
 40
3.0
 40
4.0
 40
4.0
 40
4.0
 40
4.0
 10
95.98416338457332
 20
-145.0819424637295
 30
0.0
 10
95.98416338457332
 20
-145.0264505192987
 30
0.0
 10
95.93936060793855
 20
-144.9816830193102
 30
0.0
 10
95.88425672045548
 20
-144.9816830193102
 30
0.0
 10
95.82876477742676
 20
-144.9816830193102
 30
0.0
 10
95.78399727856888
 20
-145.0264505192987
 30
0.0
 10
95.78399727856888
 20
-145.0819424637295
 30
0.0
 10
95.78399727856888
 20
-145.1370463526045
 30
0.0
 10
95.82876477742676
 20
-145.1818491303712
 30
0.0
 10
95.88425672045548
 20
-145.1818491303712
 30
0.0
 10
95.93936060793855
 20
-145.1818491303712
 30
0.0
 10
95.98416338457332
 20
-145.1370463526045
 30
0.0
 10
95.98416338457332
 20
-145.0819424637295
 30
0.0
  0
SPLINE
  5
8D
330
1F
100
AcDbEntity
  8
_U+30EC_U+30A4_U+30E4_U+30FC 1
 62
   179
420
  2234388
370
     9
100
AcDbSpline
210
0.0
220
0.0
230
1.0
 70
    11
 71
     3
 72
    17
 73
    13
 74
     0
 42
0.0000000001
 43
0.0000000001
 12
1.0
 22
0.0
 32
0.0
 13
1.0
 23
0.0
 33
0.0
 40
0.0
 40
0.0
 40
0.0
 40
0.0
 40
1.0
 40
1.0
 40
1.0
 40
2.0
 40
2.0
 40
2.0
 40
3.0
 40
3.0
 40
3.0
 40
4.0
 40
4.0
 40
4.0
 40
4.0
 10
99.98423994918953
 20
-141.0818305202849
 30
0.0
 10
99.98423994918953
 20
-141.0263738536322
 30
0.0
 10
99.93947497501502
 20
-140.9815710758655
 30
0.0
 10
99.88398050730292
 20
-140.9815710758655
 30
0.0
 10
99.82887661981984
 20
-140.9815710758655
 30
0.0
 10
99.78407384318508
 20
-141.0263738536322
 30
0.0
 10
99.78407384318508
 20
-141.0818305202849
 30
0.0
 10
99.78407384318508
 20
-141.1369344091605
 30
0.0
 10
99.82887661981984
 20
-141.1817371869265
 30
0.0
 10
99.88398050730292
 20
-141.1817371869265
 30
0.0
 10
99.93947497501502
 20
-141.1817371869265
 30
0.0
 10
99.98423994918953
 20
-141.1369344091605
 30
0.0
 10
99.98423994918953
 20
-141.0818305202849
 30
0.0
  0
SPLINE
  5
8E
330
1F
100
AcDbEntity
  8
_U+30EC_U+30A4_U+30E4_U+30FC 1
 62
   179
420
  2234388
370
     9
100
AcDbSpline
210
0.0
220
0.0
230
1.0
 70
    11
 71
     3
 72
    17
 73
    13
 74
     0
 42
0.0000000001
 43
0.0000000001
 12
1.0
 22
0.0
 32
0.0
 13
1.0
 23
0.0
 33
0.0
 40
0.0
 40
0.0
 40
0.0
 40
0.0
 40
1.0
 40
1.0
 40
1.0
 40
2.0
 40
2.0
 40
2.0
 40
3.0
 40
3.0
 40
3.0
 40
4.0
 40
4.0
 40
4.0
 40
4.0
 10
99.98423994918953
 20
-137.0817185768409
 30
0.0
 10
99.98423994918953
 20
-137.0266146879653
 30
0.0
 10
99.93947497501502
 20
-136.9818119101993
 30
0.0
 10
99.88398050730292
 20
-136.9818119101993
 30
0.0
 10
99.82887661981984
 20
-136.9818119101993
 30
0.0
 10
99.78407384318508
 20
-137.0266146879653
 30
0.0
 10
99.78407384318508
 20
-137.0817185768409
 30
0.0
 10
99.78407384318508
 20
-137.1368577434934
 30
0.0
 10
99.82887661981984
 20
-137.1816252434826
 30
0.0
 10
99.88398050730292
 20
-137.1816252434826
 30
0.0
 10
99.93947497501502
 20
-137.1816252434826
 30
0.0
 10
99.98423994918953
 20
-137.1368577434934
 30
0.0
 10
99.98423994918953
 20
-137.0817185768409
 30
0.0
  0
SPLINE
  5
8F
330
1F
100
AcDbEntity
  8
_U+30EC_U+30A4_U+30E4_U+30FC 1
 62
   179
420
  2234388
370
     9
100
AcDbSpline
210
0.0
220
0.0
230
1.0
 70
    11
 71
     3
 72
    17
 73
    13
 74
     0
 42
0.0000000001
 43
0.0000000001
 12
1.0
 22
0.0
 32
0.0
 13
1.0
 23
0.0
 33
0.0
 40
0.0
 40
0.0
 40
0.0
 40
0.0
 40
1.0
 40
1.0
 40
1.0
 40
2.0
 40
2.0
 40
2.0
 40
3.0
 40
3.0
 40
3.0
 40
4.0
 40
4.0
 40
4.0
 40
4.0
 10
66.9840333165874
 20
-141.0818305202849
 30
0.0
 10
66.9840333165874
 20
-141.0263738536322
 30
0.0
 10
66.93923053882068
 20
-140.9815710758655
 30
0.0
 10
66.88412496031049
 20
-140.9815710758655
 30
0.0
 10
66.82898579505053
 20
-140.9815710758655
 30
0.0
 10
66.78421829619265
 20
-141.0263738536322
 30
0.0
 10
66.78421829619265
 20
-141.0818305202849
 30
0.0
 10
66.78421829619265
 20
-141.1369344091605
 30
0.0
 10
66.82898579505053
 20
-141.1817371869265
 30
0.0
 10
66.88412496031049
 20
-141.1817371869265
 30
0.0
 10
66.93923053882068
 20
-141.1817371869265
 30
0.0
 10
66.9840333165874
 20
-141.1369344091605
 30
0.0
 10
66.9840333165874
 20
-141.0818305202849
 30
0.0
  0
SPLINE
  5
90
330
1F
100
AcDbEntity
  8
_U+30EC_U+30A4_U+30E4_U+30FC 1
 62
   179
420
  2234388
370
     9
100
AcDbSpline
210
0.0
220
0.0
230
1.0
 70
    11
 71
     3
 72
    17
 73
    13
 74
     0
 42
0.0000000001
 43
0.0000000001
 12
1.0
 22
0.0
 32
0.0
 13
1.0
 23
0.0
 33
0.0
 40
0.0
 40
0.0
 40
0.0
 40
0.0
 40
1.0
 40
1.0
 40
1.0
 40
2.0
 40
2.0
 40
2.0
 40
3.0
 40
3.0
 40
3.0
 40
4.0
 40
4.0
 40
4.0
 40
4.0
 10
66.9840333165874
 20
-121.2818249696796
 30
0.0
 10
66.9840333165874
 20
-121.2265446919155
 30
0.0
 10
66.93923053882068
 20
-121.1817419141491
 30
0.0
 10
66.88412496031049
 20
-121.1817419141491
 30
0.0
 10
66.82898579505053
 20
-121.1817419141491
 30
0.0
 10
66.78421829619265
 20
-121.2265446919155
 30
0.0
 10
66.78421829619265
 20
-121.2818249696796
 30
0.0
 10
66.78421829619265
 20
-121.3369641363324
 30
0.0
 10
66.82898579505053
 20
-121.3817316363212
 30
0.0
 10
66.88412496031049
 20
-121.3817316363212
 30
0.0
 10
66.93923053882068
 20
-121.3817316363212
 30
0.0
 10
66.9840333165874
 20
-121.3369641363324
 30
0.0
 10
66.9840333165874
 20
-121.2818249696796
 30
0.0
  0
SPLINE
  5
91
330
1F
100
AcDbEntity
  8
_U+30EC_U+30A4_U+30E4_U+30FC 1
 62
   179
420
  2234388
370
     9
100
AcDbSpline
210
0.0
220
0.0
230
1.0
 70
    11
 71
     3
 72
    17
 73
    13
 74
     0
 42
0.0000000001
 43
0.0000000001
 12
1.0
 22
0.0
 32
0.0
 13
1.0
 23
0.0
 33
0.0
 40
0.0
 40
0.0
 40
0.0
 40
0.0
 40
1.0
 40
1.0
 40
1.0
 40
2.0
 40
2.0
 40
2.0
 40
3.0
 40
3.0
 40
3.0
 40
4.0
 40
4.0
 40
4.0
 40
4.0
 10
80.98419376725442
 20
-117.2817130262353
 30
0.0
 10
80.98419376725442
 20
-117.22660913736
 30
0.0
 10
80.93942626839653
 20
-117.1818063595933
 30
0.0
 10
80.88428710313659
 20
-117.1818063595933
 30
0.0
 10
80.82918321565352
 20
-117.1818063595933
 30
0.0
 10
80.78438043901875
 20
-117.22660913736
 30
0.0
 10
80.78438043901875
 20
-117.2817130262353
 30
0.0
 10
80.78438043901875
 20
-117.3370285817769
 30
0.0
 10
80.82918321565352
 20
-117.3817960817658
 30
0.0
 10
80.88428710313659
 20
-117.3817960817658
 30
0.0
 10
80.93942626839653
 20
-117.3817960817658
 30
0.0
 10
80.98419376725442
 20
-117.3370285817769
 30
0.0
 10
80.98419376725442
 20
-117.2817130262353
 30
0.0
  0
SPLINE
  5
92
330
1F
100
AcDbEntity
  8
_U+30EC_U+30A4_U+30E4_U+30FC 1
 62
   179
420
  2234388
370
     9
100
AcDbSpline
210
0.0
220
0.0
230
1.0
 70
    11
 71
     3
 72
    17
 73
    13
 74
     0
 42
0.0000000001
 43
0.0000000001
 12
1.0
 22
0.0
 32
0.0
 13
1.0
 23
0.0
 33
0.0
 40
0.0
 40
0.0
 40
0.0
 40
0.0
 40
1.0
 40
1.0
 40
1.0
 40
2.0
 40
2.0
 40
2.0
 40
3.0
 40
3.0
 40
3.0
 40
4.0
 40
4.0
 40
4.0
 40
4.0
 10
115.9842992632162
 20
-117.2817130262353
 30
0.0
 10
115.9842992632162
 20
-117.22660913736
 30
0.0
 10
115.9395317643583
 20
-117.1818063595933
 30
0.0
 10
115.8840398213296
 20
-117.1818063595933
 30
0.0
 10
115.8289388599319
 20
-117.1818063595933
 30
0.0
 10
115.7841360821652
 20
-117.22660913736
 30
0.0
 10
115.7841360821652
 20
-117.2817130262353
 30
0.0
 10
115.7841360821652
 20
-117.3370285817769
 30
0.0
 10
115.8289388599319
 20
-117.3817960817658
 30
0.0
 10
115.8840398213296
 20
-117.3817960817658
 30
0.0
 10
115.9395317643583
 20
-117.3817960817658
 30
0.0
 10
115.9842992632162
 20
-117.3370285817769
 30
0.0
 10
115.9842992632162
 20
-117.2817130262353
 30
0.0
  0
SPLINE
  5
93
330
1F
100
AcDbEntity
  8
_U+30EC_U+30A4_U+30E4_U+30FC 1
 62
   179
420
  2234388
370
     9
100
AcDbSpline
210
0.0
220
0.0
230
1.0
 70
    11
 71
     3
 72
    17
 73
    13
 74
     0
 42
0.0000000001
 43
0.0000000001
 12
1.0
 22
0.0
 32
0.0
 13
1.0
 23
0.0
 33
0.0
 40
0.0
 40
0.0
 40
0.0
 40
0.0
 40
1.0
 40
1.0
 40
1.0
 40
2.0
 40
2.0
 40
2.0
 40
3.0
 40
3.0
 40
3.0
 40
4.0
 40
4.0
 40
4.0
 40
4.0
 10
119.9840583278405
 20
-122.4817633027129
 30
0.0
 10
119.9840583278405
 20
-122.4266241360601
 30
0.0
 10
119.9392908289827
 20
-122.3818566360712
 30
0.0
 10
119.8841516637227
 20
-122.3818566360712
 30
0.0
 10
119.8290477762396
 20
-122.3818566360712
 30
0.0
 10
119.7842449996049
 20
-122.4266241360601
 30
0.0
 10
119.7842449996049
 20
-122.4817633027129
 30
0.0
 10
119.7842449996049
 20
-122.537043580477
 30
0.0
 10
119.8290477762396
 20
-122.5818463582434
 30
0.0
 10
119.8841516637227
 20
-122.5818463582434
 30
0.0
 10
119.9392908289827
 20
-122.5818463582434
 30
0.0
 10
119.9840583278405
 20
-122.537043580477
 30
0.0
 10
119.9840583278405
 20
-122.4817633027129
 30
0.0
  0
SPLINE
  5
94
330
1F
100
AcDbEntity
  8
_U+30EC_U+30A4_U+30E4_U+30FC 1
 62
   179
420
  2234388
370
     9
100
AcDbSpline
210
0.0
220
0.0
230
1.0
 70
    11
 71
     3
 72
    17
 73
    13
 74
     0
 42
0.0000000001
 43
0.0000000001
 12
1.0
 22
0.0
 32
0.0
 13
1.0
 23
0.0
 33
0.0
 40
0.0
 40
0.0
 40
0.0
 40
0.0
 40
1.0
 40
1.0
 40
1.0
 40
2.0
 40
2.0
 40
2.0
 40
3.0
 40
3.0
 40
3.0
 40
4.0
 40
4.0
 40
4.0
 40
4.0
 10
119.9840583278405
 20
-137.0817185768409
 30
0.0
 10
119.9840583278405
 20
-137.0266146879653
 30
0.0
 10
119.9392908289827
 20
-136.9818119101993
 30
0.0
 10
119.8841516637227
 20
-136.9818119101993
 30
0.0
 10
119.8290477762396
 20
-136.9818119101993
 30
0.0
 10
119.7842449996049
 20
-137.0266146879653
 30
0.0
 10
119.7842449996049
 20
-137.0817185768409
 30
0.0
 10
119.7842449996049
 20
-137.1368577434934
 30
0.0
 10
119.8290477762396
 20
-137.1816252434826
 30
0.0
 10
119.8841516637227
 20
-137.1816252434826
 30
0.0
 10
119.9392908289827
 20
-137.1816252434826
 30
0.0
 10
119.9840583278405
 20
-137.1368577434934
 30
0.0
 10
119.9840583278405
 20
-137.0817185768409
 30
0.0
  0
SPLINE
  5
95
330
1F
100
AcDbEntity
  8
_U+30EC_U+30A4_U+30E4_U+30FC 1
 62
   179
420
  2234388
370
     9
100
AcDbSpline
210
0.0
220
0.0
230
1.0
 70
    11
 71
     3
 72
    17
 73
    13
 74
     0
 42
0.0000000001
 43
0.0000000001
 12
1.0
 22
0.0
 32
0.0
 13
1.0
 23
0.0
 33
0.0
 40
0.0
 40
0.0
 40
0.0
 40
0.0
 40
1.0
 40
1.0
 40
1.0
 40
2.0
 40
2.0
 40
2.0
 40
3.0
 40
3.0
 40
3.0
 40
4.0
 40
4.0
 40
4.0
 40
4.0
 10
70.98410818904453
 20
-145.0819424637295
 30
0.0
 10
70.98410818904453
 20
-145.0264505192987
 30
0.0
 10
70.93934069018664
 20
-144.9816830193102
 30
0.0
 10
70.8842015249267
 20
-144.9816830193102
 30
0.0
 10
70.82874485967484
 20
-144.9816830193102
 30
0.0
 10
70.78397736081696
 20
-145.0264505192987
 30
0.0
 10
70.78397736081696
 20
-145.0819424637295
 30
0.0
 10
70.78397736081696
 20
-145.1370463526045
 30
0.0
 10
70.82874485967484
 20
-145.1818491303712
 30
0.0
 10
70.8842015249267
 20
-145.1818491303712
 30
0.0
 10
70.93934069018664
 20
-145.1818491303712
 30
0.0
 10
70.98410818904453
 20
-145.1370463526045
 30
0.0
 10
70.98410818904453
 20
-145.0819424637295
 30
0.0
  0
POLYLINE
  5
96
330
1F
100
AcDbEntity
  8
_U+30EC_U+30A4_U+30E4_U+30FC 1
 62
   179
420
  2234388
370
     9
100
AcDb2dPolyline
 66
     1
 10
0.0
 20
0.0
 30
0.0
  0
VERTEX
  5
97
330
96
100
AcDbEntity
  8
_U+30EC_U+30A4_U+30E4_U+30FC 1
 62
   179
420
  2234388
370
     9
100
AcDbVertex
100
AcDb2dVertex
 10
80.88428710313659
 20
-117.2817130262353
 30
0.0
  0
VERTEX
  5
98
330
96
100
AcDbEntity
  8
_U+30EC_U+30A4_U+30E4_U+30FC 1
 62
   179
420
  2234388
370
     9
100
AcDbVertex
100
AcDb2dVertex
 10
115.8840398213296
 20
-117.2817130262353
 30
0.0
  0
SEQEND
  5
99
330
96
100
AcDbEntity
  8
_U+30EC_U+30A4_U+30E4_U+30FC 1
 62
   179
420
  2234388
370
     9
  0
POLYLINE
  5
9A
330
1F
100
AcDbEntity
  8
_U+30EC_U+30A4_U+30E4_U+30FC 1
 62
   179
420
  2234388
370
     9
100
AcDb2dPolyline
 66
     1
 10
0.0
 20
0.0
 30
0.0
  0
VERTEX
  5
9B
330
9A
100
AcDbEntity
  8
_U+30EC_U+30A4_U+30E4_U+30FC 1
 62
   179
420
  2234388
370
     9
100
AcDbVertex
100
AcDb2dVertex
 10
80.88428710313659
 20
-118.741754414759
 30
0.0
  0
VERTEX
  5
9C
330
9A
100
AcDbEntity
  8
_U+30EC_U+30A4_U+30E4_U+30FC 1
 62
   179
420
  2234388
370
     9
100
AcDbVertex
100
AcDb2dVertex
 10
80.88428710313659
 20
-116.2817996931517
 30
0.0
  0
SEQEND
  5
9D
330
9A
100
AcDbEntity
  8
_U+30EC_U+30A4_U+30E4_U+30FC 1
 62
   179
420
  2234388
370
     9
  0
POLYLINE
  5
9E
330
1F
100
AcDbEntity
  8
_U+30EC_U+30A4_U+30E4_U+30FC 1
 62
   179
420
  2234388
370
     9
100
AcDb2dPolyline
 66
     1
 10
0.0
 20
0.0
 30
0.0
  0
VERTEX
  5
9F
330
9E
100
AcDbEntity
  8
_U+30EC_U+30A4_U+30E4_U+30FC 1
 62
   179
420
  2234388
370
     9
100
AcDbVertex
100
AcDb2dVertex
 10
115.8840398213296
 20
-118.741754414759
 30
0.0
  0
VERTEX
  5
A0
330
9E
100
AcDbEntity
  8
_U+30EC_U+30A4_U+30E4_U+30FC 1
 62
   179
420
  2234388
370
     9
100
AcDbVertex
100
AcDb2dVertex
 10
115.8840398213296
 20
-116.2817996931517
 30
0.0
  0
SEQEND
  5
A1
330
9E
100
AcDbEntity
  8
_U+30EC_U+30A4_U+30E4_U+30FC 1
 62
   179
420
  2234388
370
     9
  0
INSERT
  5
A3
330
1F
100
AcDbEntity
  8
_U+30EC_U+30A4_U+30E4_U+30FC 1
100
AcDbBlockReference
  2
block 2
 10
0.0
 20
0.0
 30
0.0
  0
POLYLINE
  5
AA
330
1F
100
AcDbEntity
  8
_U+30EC_U+30A4_U+30E4_U+30FC 1
 62
   179
420
  2234388
370
     9
100
AcDb2dPolyline
 66
     1
 10
0.0
 20
0.0
 30
0.0
  0
VERTEX
  5
AB
330
AA
100
AcDbEntity
  8
_U+30EC_U+30A4_U+30E4_U+30FC 1
 62
   179
420
  2234388
370
     9
100
AcDbVertex
100
AcDb2dVertex
 10
80.88428710313659
 20
-145.0819424637295
 30
0.0
  0
VERTEX
  5
AC
330
AA
100
AcDbEntity
  8
_U+30EC_U+30A4_U+30E4_U+30FC 1
 62
   179
420
  2234388
370
     9
100
AcDbVertex
100
AcDb2dVertex
 10
95.88425672045548
 20
-145.0819424637295
 30
0.0
  0
SEQEND
  5
AD
330
AA
100
AcDbEntity
  8
_U+30EC_U+30A4_U+30E4_U+30FC 1
 62
   179
420
  2234388
370
     9
  0
POLYLINE
  5
AE
330
1F
100
AcDbEntity
  8
_U+30EC_U+30A4_U+30E4_U+30FC 1
 62
   179
420
  2234388
370
     9
100
AcDb2dPolyline
 66
     1
 10
0.0
 20
0.0
 30
0.0
  0
VERTEX
  5
AF
330
AE
100
AcDbEntity
  8
_U+30EC_U+30A4_U+30E4_U+30FC 1
 62
   179
420
  2234388
370
     9
100
AcDbVertex
100
AcDb2dVertex
 10
80.88428710313659
 20
-143.6219010752058
 30
0.0
  0
VERTEX
  5
B0
330
AE
100
AcDbEntity
  8
_U+30EC_U+30A4_U+30E4_U+30FC 1
 62
   179
420
  2234388
370
     9
100
AcDbVertex
100
AcDb2dVertex
 10
80.88428710313659
 20
-146.0816794079239
 30
0.0
  0
SEQEND
  5
B1
330
AE
100
AcDbEntity
  8
_U+30EC_U+30A4_U+30E4_U+30FC 1
 62
   179
420
  2234388
370
     9
  0
POLYLINE
  5
B2
330
1F
100
AcDbEntity
  8
_U+30EC_U+30A4_U+30E4_U+30FC 1
 62
   179
420
  2234388
370
     9
100
AcDb2dPolyline
 66
     1
 10
0.0
 20
0.0
 30
0.0
  0
VERTEX
  5
B3
330
B2
100
AcDbEntity
  8
_U+30EC_U+30A4_U+30E4_U+30FC 1
 62
   179
420
  2234388
370
     9
100
AcDbVertex
100
AcDb2dVertex
 10
95.88425672045548
 20
-143.6219010752058
 30
0.0
  0
VERTEX
  5
B4
330
B2
100
AcDbEntity
  8
_U+30EC_U+30A4_U+30E4_U+30FC 1
 62
   179
420
  2234388
370
     9
100
AcDbVertex
100
AcDb2dVertex
 10
95.88425672045548
 20
-146.0816794079239
 30
0.0
  0
SEQEND
  5
B5
330
B2
100
AcDbEntity
  8
_U+30EC_U+30A4_U+30E4_U+30FC 1
 62
   179
420
  2234388
370
     9
  0
INSERT
  5
B7
330
1F
100
AcDbEntity
  8
_U+30EC_U+30A4_U+30E4_U+30FC 1
100
AcDbBlockReference
  2
block 3
 10
0.0
 20
0.0
 30
0.0
  0
POLYLINE
  5
BE
330
1F
100
AcDbEntity
  8
_U+30EC_U+30A4_U+30E4_U+30FC 1
 62
   179
420
  2234388
370
     9
100
AcDb2dPolyline
 66
     1
 10
0.0
 20
0.0
 30
0.0
  0
VERTEX
  5
BF
330
BE
100
AcDbEntity
  8
_U+30EC_U+30A4_U+30E4_U+30FC 1
 62
   179
420
  2234388
370
     9
100
AcDbVertex
100
AcDb2dVertex
 10
66.88412496031049
 20
-121.2818249696796
 30
0.0
  0
VERTEX
  5
C0
330
BE
100
AcDbEntity
  8
_U+30EC_U+30A4_U+30E4_U+30FC 1
 62
   179
420
  2234388
370
     9
100
AcDbVertex
100
AcDb2dVertex
 10
66.88412496031049
 20
-141.0818305202849
 30
0.0
  0
SEQEND
  5
C1
330
BE
100
AcDbEntity
  8
_U+30EC_U+30A4_U+30E4_U+30FC 1
 62
   179
420
  2234388
370
     9
  0
POLYLINE
  5
C2
330
1F
100
AcDbEntity
  8
_U+30EC_U+30A4_U+30E4_U+30FC 1
 62
   179
420
  2234388
370
     9
100
AcDb2dPolyline
 66
     1
 10
0.0
 20
0.0
 30
0.0
  0
VERTEX
  5
C3
330
C2
100
AcDbEntity
  8
_U+30EC_U+30A4_U+30E4_U+30FC 1
 62
   179
420
  2234388
370
     9
100
AcDbVertex
100
AcDb2dVertex
 10
78.34421661238363
 20
-121.2818249696796
 30
0.0
  0
VERTEX
  5
C4
330
C2
100
AcDbEntity
  8
_U+30EC_U+30A4_U+30E4_U+30FC 1
 62
   179
420
  2234388
370
     9
100
AcDbVertex
100
AcDb2dVertex
 10
65.88435276359458
 20
-121.2818249696796
 30
0.0
  0
SEQEND
  5
C5
330
C2
100
AcDbEntity
  8
_U+30EC_U+30A4_U+30E4_U+30FC 1
 62
   179
420
  2234388
370
     9
  0
POLYLINE
  5
C6
330
1F
100
AcDbEntity
  8
_U+30EC_U+30A4_U+30E4_U+30FC 1
 62
   179
420
  2234388
370
     9
100
AcDb2dPolyline
 66
     1
 10
0.0
 20
0.0
 30
0.0
  0
VERTEX
  5
C7
330
C6
100
AcDbEntity
  8
_U+30EC_U+30A4_U+30E4_U+30FC 1
 62
   179
420
  2234388
370
     9
100
AcDbVertex
100
AcDb2dVertex
 10
78.34421661238363
 20
-141.0818305202849
 30
0.0
  0
VERTEX
  5
C8
330
C6
100
AcDbEntity
  8
_U+30EC_U+30A4_U+30E4_U+30FC 1
 62
   179
420
  2234388
370
     9
100
AcDbVertex
100
AcDb2dVertex
 10
65.88435276359458
 20
-141.0818305202849
 30
0.0
  0
SEQEND
  5
C9
330
C6
100
AcDbEntity
  8
_U+30EC_U+30A4_U+30E4_U+30FC 1
 62
   179
420
  2234388
370
     9
  0
INSERT
  5
CB
330
1F
100
AcDbEntity
  8
_U+30EC_U+30A4_U+30E4_U+30FC 1
100
AcDbBlockReference
  2
block 4
 10
0.0
 20
0.0
 30
0.0
  0
POLYLINE
  5
DF
330
1F
100
AcDbEntity
  8
_U+30EC_U+30A4_U+30E4_U+30FC 1
 62
   179
420
  2234388
370
     9
100
AcDb2dPolyline
 66
     1
 10
0.0
 20
0.0
 30
0.0
  0
VERTEX
  5
E0
330
DF
100
AcDbEntity
  8
_U+30EC_U+30A4_U+30E4_U+30FC 1
 62
   179
420
  2234388
370
     9
100
AcDbVertex
100
AcDb2dVertex
 10
99.88398050730292
 20
-137.0817185768409
 30
0.0
  0
VERTEX
  5
E1
330
DF
100
AcDbEntity
  8
_U+30EC_U+30A4_U+30E4_U+30FC 1
 62
   179
420
  2234388
370
     9
100
AcDbVertex
100
AcDb2dVertex
 10
99.88398050730292
 20
-141.0818305202849
 30
0.0
  0
SEQEND
  5
E2
330
DF
100
AcDbEntity
  8
_U+30EC_U+30A4_U+30E4_U+30FC 1
 62
   179
420
  2234388
370
     9
  0
POLYLINE
  5
E3
330
1F
100
AcDbEntity
  8
_U+30EC_U+30A4_U+30E4_U+30FC 1
 62
   179
420
  2234388
370
     9
100
AcDb2dPolyline
 66
     1
 10
0.0
 20
0.0
 30
0.0
  0
VERTEX
  5
E4
330
E3
100
AcDbEntity
  8
_U+30EC_U+30A4_U+30E4_U+30FC 1
 62
   179
420
  2234388
370
     9
100
AcDbVertex
100
AcDb2dVertex
 10
98.42429441983823
 20
-137.0817185768409
 30
0.0
  0
VERTEX
  5
E5
330
E3
100
AcDbEntity
  8
_U+30EC_U+30A4_U+30E4_U+30FC 1
 62
   179
420
  2234388
370
     9
100
AcDbVertex
100
AcDb2dVertex
 10
100.8841054817876
 20
-137.0817185768409
 30
0.0
  0
SEQEND
  5
E6
330
E3
100
AcDbEntity
  8
_U+30EC_U+30A4_U+30E4_U+30FC 1
 62
   179
420
  2234388
370
     9
  0
POLYLINE
  5
E7
330
1F
100
AcDbEntity
  8
_U+30EC_U+30A4_U+30E4_U+30FC 1
 62
   179
420
  2234388
370
     9
100
AcDb2dPolyline
 66
     1
 10
0.0
 20
0.0
 30
0.0
  0
VERTEX
  5
E8
330
E7
100
AcDbEntity
  8
_U+30EC_U+30A4_U+30E4_U+30FC 1
 62
   179
420
  2234388
370
     9
100
AcDbVertex
100
AcDb2dVertex
 10
98.42429441983823
 20
-141.0818305202849
 30
0.0
  0
VERTEX
  5
E9
330
E7
100
AcDbEntity
  8
_U+30EC_U+30A4_U+30E4_U+30FC 1
 62
   179
420
  2234388
370
     9
100
AcDbVertex
100
AcDb2dVertex
 10
100.8841054817876
 20
-141.0818305202849
 30
0.0
  0
SEQEND
  5
EA
330
E7
100
AcDbEntity
  8
_U+30EC_U+30A4_U+30E4_U+30FC 1
 62
   179
420
  2234388
370
     9
  0
INSERT
  5
EC
330
1F
100
AcDbEntity
  8
_U+30EC_U+30A4_U+30E4_U+30FC 1
100
AcDbBlockReference
  2
block 5
 10
0.0
 20
0.0
 30
0.0
  0
POLYLINE
  5
104
330
1F
100
AcDbEntity
  8
_U+30EC_U+30A4_U+30E4_U+30FC 1
 62
   179
420
  2234388
370
     9
100
AcDb2dPolyline
 66
     1
 10
0.0
 20
0.0
 30
0.0
  0
VERTEX
  5
105
330
104
100
AcDbEntity
  8
_U+30EC_U+30A4_U+30E4_U+30FC 1
 62
   179
420
  2234388
370
     9
100
AcDbVertex
100
AcDb2dVertex
 10
119.8841516637227
 20
-122.4817633027129
 30
0.0
  0
VERTEX
  5
106
330
104
100
AcDbEntity
  8
_U+30EC_U+30A4_U+30E4_U+30FC 1
 62
   179
420
  2234388
370
     9
100
AcDbVertex
100
AcDb2dVertex
 10
119.8841516637227
 20
-137.0817185768409
 30
0.0
  0
SEQEND
  5
107
330
104
100
AcDbEntity
  8
_U+30EC_U+30A4_U+30E4_U+30FC 1
 62
   179
420
  2234388
370
     9
  0
POLYLINE
  5
108
330
1F
100
AcDbEntity
  8
_U+30EC_U+30A4_U+30E4_U+30FC 1
 62
   179
420
  2234388
370
     9
100
AcDb2dPolyline
 66
     1
 10
0.0
 20
0.0
 30
0.0
  0
VERTEX
  5
109
330
108
100
AcDbEntity
  8
_U+30EC_U+30A4_U+30E4_U+30FC 1
 62
   179
420
  2234388
370
     9
100
AcDbVertex
100
AcDb2dVertex
 10
118.4241103120826
 20
-122.4817633027129
 30
0.0
  0
VERTEX
  5
10A
330
108
100
AcDbEntity
  8
_U+30EC_U+30A4_U+30E4_U+30FC 1
 62
   179
420
  2234388
370
     9
100
AcDbVertex
100
AcDb2dVertex
 10
120.8842766382074
 20
-122.4817633027129
 30
0.0
  0
SEQEND
  5
10B
330
108
100
AcDbEntity
  8
_U+30EC_U+30A4_U+30E4_U+30FC 1
 62
   179
420
  2234388
370
     9
  0
POLYLINE
  5
10C
330
1F
100
AcDbEntity
  8
_U+30EC_U+30A4_U+30E4_U+30FC 1
 62
   179
420
  2234388
370
     9
100
AcDb2dPolyline
 66
     1
 10
0.0
 20
0.0
 30
0.0
  0
VERTEX
  5
10D
330
10C
100
AcDbEntity
  8
_U+30EC_U+30A4_U+30E4_U+30FC 1
 62
   179
420
  2234388
370
     9
100
AcDbVertex
100
AcDb2dVertex
 10
98.42429441983823
 20
-137.0817185768409
 30
0.0
  0
VERTEX
  5
10E
330
10C
100
AcDbEntity
  8
_U+30EC_U+30A4_U+30E4_U+30FC 1
 62
   179
420
  2234388
370
     9
100
AcDbVertex
100
AcDb2dVertex
 10
120.8842766382074
 20
-137.0817185768409
 30
0.0
  0
SEQEND
  5
10F
330
10C
100
AcDbEntity
  8
_U+30EC_U+30A4_U+30E4_U+30FC 1
 62
   179
420
  2234388
370
     9
  0
INSERT
  5
111
330
1F
100
AcDbEntity
  8
_U+30EC_U+30A4_U+30E4_U+30FC 1
100
AcDbBlockReference
  2
block 6
 10
0.0
 20
0.0
 30
0.0
  0
POLYLINE
  5
136
330
1F
100
AcDbEntity
  8
_U+30EC_U+30A4_U+30E4_U+30FC 1
 62
   179
420
  2234388
370
     9
100
AcDb2dPolyline
 66
     1
 10
0.0
 20
0.0
 30
0.0
  0
VERTEX
  5
137
330
136
100
AcDbEntity
  8
_U+30EC_U+30A4_U+30E4_U+30FC 1
 62
   179
420
  2234388
370
     9
100
AcDbVertex
100
AcDb2dVertex
 10
80.88428710313659
 20
-145.0819424637295
 30
0.0
  0
VERTEX
  5
138
330
136
100
AcDbEntity
  8
_U+30EC_U+30A4_U+30E4_U+30FC 1
 62
   179
420
  2234388
370
     9
100
AcDbVertex
100
AcDb2dVertex
 10
70.8842015249267
 20
-145.0819424637295
 30
0.0
  0
SEQEND
  5
139
330
136
100
AcDbEntity
  8
_U+30EC_U+30A4_U+30E4_U+30FC 1
 62
   179
420
  2234388
370
     9
  0
POLYLINE
  5
13A
330
1F
100
AcDbEntity
  8
_U+30EC_U+30A4_U+30E4_U+30FC 1
 62
   179
420
  2234388
370
     9
100
AcDb2dPolyline
 66
     1
 10
0.0
 20
0.0
 30
0.0
  0
VERTEX
  5
13B
330
13A
100
AcDbEntity
  8
_U+30EC_U+30A4_U+30E4_U+30FC 1
 62
   179
420
  2234388
370
     9
100
AcDbVertex
100
AcDb2dVertex
 10
70.8842015249267
 20
-134.3218674664195
 30
0.0
  0
VERTEX
  5
13C
330
13A
100
AcDbEntity
  8
_U+30EC_U+30A4_U+30E4_U+30FC 1
 62
   179
420
  2234388
370
     9
100
AcDbVertex
100
AcDb2dVertex
 10
70.8842015249267
 20
-146.0816794079239
 30
0.0
  0
SEQEND
  5
13D
330
13A
100
AcDbEntity
  8
_U+30EC_U+30A4_U+30E4_U+30FC 1
 62
   179
420
  2234388
370
     9
  0
INSERT
  5
13F
330
1F
100
AcDbEntity
  8
_U+30EC_U+30A4_U+30E4_U+30FC 1
100
AcDbBlockReference
  2
block 7
 10
0.0
 20
0.0
 30
0.0
  0
SPLINE
  5
147
330
1F
100
AcDbEntity
  8
_U+30EC_U+30A4_U+30E4_U+30FC 1
 62
   179
420
  2234388
370
     9
100
AcDbSpline
210
0.0
220
0.0
230
1.0
 70
    11
 71
     3
 72
    17
 73
    13
 74
     0
 42
0.0000000001
 43
0.0000000001
 12
1.0
 22
0.0
 32
0.0
 13
1.0
 23
0.0
 33
0.0
 40
0.0
 40
0.0
 40
0.0
 40
0.0
 40
1.0
 40
1.0
 40
1.0
 40
2.0
 40
2.0
 40
2.0
 40
3.0
 40
3.0
 40
3.0
 40
4.0
 40
4.0
 40
4.0
 40
4.0
 10
119.9840583278405
 20
-121.2814721919018
 30
0.0
 10
119.9840583278405
 20
-121.2263683030266
 30
0.0
 10
119.9392908289827
 20
-121.1815655252602
 30
0.0
 10
119.8841516637227
 20
-121.1815655252602
 30
0.0
 10
119.8290477762396
 20
-121.1815655252602
 30
0.0
 10
119.7842449996049
 20
-121.2263683030266
 30
0.0
 10
119.7842449996049
 20
-121.2814721919018
 30
0.0
 10
119.7842449996049
 20
-121.3367877474435
 30
0.0
 10
119.8290477762396
 20
-121.3815552474324
 30
0.0
 10
119.8841516637227
 20
-121.3815552474324
 30
0.0
 10
119.9392908289827
 20
-121.3815552474324
 30
0.0
 10
119.9840583278405
 20
-121.3367877474435
 30
0.0
 10
119.9840583278405
 20
-121.2814721919018
 30
0.0
  0
POLYLINE
  5
148
330
1F
100
AcDbEntity
  8
_U+30EC_U+30A4_U+30E4_U+30FC 1
 62
   179
420
  2234388
370
     9
100
AcDb2dPolyline
 66
     1
 10
0.0
 20
0.0
 30
0.0
  0
VERTEX
  5
149
330
148
100
AcDbEntity
  8
_U+30EC_U+30A4_U+30E4_U+30FC 1
 62
   179
420
  2234388
370
     9
100
AcDbVertex
100
AcDb2dVertex
 10
119.8841516637227
 20
-121.2814721919018
 30
0.0
  0
VERTEX
  5
14A
330
148
100
AcDbEntity
  8
_U+30EC_U+30A4_U+30E4_U+30FC 1
 62
   179
420
  2234388
370
     9
100
AcDbVertex
100
AcDb2dVertex
 10
119.8841516637227
 20
-122.4817633027129
 30
0.0
  0
SEQEND
  5
14B
330
148
100
AcDbEntity
  8
_U+30EC_U+30A4_U+30E4_U+30FC 1
 62
   179
420
  2234388
370
     9
  0
POLYLINE
  5
14C
330
1F
100
AcDbEntity
  8
_U+30EC_U+30A4_U+30E4_U+30FC 1
 62
   179
420
  2234388
370
     9
100
AcDb2dPolyline
 66
     1
 10
0.0
 20
0.0
 30
0.0
  0
VERTEX
  5
14D
330
14C
100
AcDbEntity
  8
_U+30EC_U+30A4_U+30E4_U+30FC 1
 62
   179
420
  2234388
370
     9
100
AcDbVertex
100
AcDb2dVertex
 10
118.4241103120826
 20
-121.2814721919018
 30
0.0
  0
VERTEX
  5
14E
330
14C
100
AcDbEntity
  8
_U+30EC_U+30A4_U+30E4_U+30FC 1
 62
   179
420
  2234388
370
     9
100
AcDbVertex
100
AcDb2dVertex
 10
120.8845971920014
 20
-121.2814721919018
 30
0.0
  0
SEQEND
  5
14F
330
14C
100
AcDbEntity
  8
_U+30EC_U+30A4_U+30E4_U+30FC 1
 62
   179
420
  2234388
370
     9
  0
POLYLINE
  5
150
330
1F
100
AcDbEntity
  8
_U+30EC_U+30A4_U+30E4_U+30FC 1
 62
   179
420
  2234388
370
     9
100
AcDb2dPolyline
 66
     1
 10
0.0
 20
0.0
 30
0.0
  0
VERTEX
  5
151
330
150
100
AcDbEntity
  8
_U+30EC_U+30A4_U+30E4_U+30FC 1
 62
   179
420
  2234388
370
     9
100
AcDbVertex
100
AcDb2dVertex
 10
119.8841516637227
 20
-121.2814721919018
 30
0.0
  0
VERTEX
  5
152
330
150
100
AcDbEntity
  8
_U+30EC_U+30A4_U+30E4_U+30FC 1
 62
   179
420
  2234388
370
     9
100
AcDbVertex
100
AcDb2dVertex
 10
119.8841516637227
 20
-116.0235663598829
 30
0.0
  0
SEQEND
  5
153
330
150
100
AcDbEntity
  8
_U+30EC_U+30A4_U+30E4_U+30FC 1
 62
   179
420
  2234388
370
     9
  0
INSERT
  5
155
330
1F
100
AcDbEntity
  8
_U+30EC_U+30A4_U+30E4_U+30FC 1
100
AcDbBlockReference
  2
block 8
 10
0.0
 20
0.0
 30
0.0
  0
ENDSEC
  0
SECTION
  2
OBJECTS
  0
DICTIONARY
  5
C
330
0
100
AcDbDictionary
281
     1
  3
ACAD_GROUP
350
D
  3
ACAD_LAYOUT
350
1A
  3
ACAD_MATERIAL
350
3B
  3
ACAD_MLEADERSTYLE
350
165
  3
ACAD_MLINESTYLE
350
17
  3
ACAD_PLOTSETTINGS
350
19
  3
ACAD_PLOTSTYLENAME
350
E
  3
ACAD_TABLESTYLE
350
164
  3
ACAD_VISUALSTYLE
350
2A
  0
SUN
  5
3F
330
29
100
AcDbSun
 90
        1
290
     0
 63
     7
421
 16777215
 40
1.0
291
     1
 91
  2455826
 92
 54000000
292
     0
 70
     2
 71
   256
280
     1
  0
DICTIONARY
  5
D
102
{ACAD_REACTORS
330
C
102
}
330
C
100
AcDbDictionary
281
     1
  0
DICTIONARY
  5
1A
102
{ACAD_REACTORS
330
C
102
}
330
C
100
AcDbDictionary
281
     1
  3
Layout1
350
1E
  3
Layout2
350
26
  3
Model
350
22
  0
DICTIONARY
  5
3B
102
{ACAD_REACTORS
330
C
102
}
330
C
100
AcDbDictionary
281
     1
  3
ByBlock
350
3D
  3
ByLayer
350
3C
  3
Global
350
3E
  0
DICTIONARY
  5
165
102
{ACAD_REACTORS
330
C
102
}
330
C
100
AcDbDictionary
281
     1
  0
DICTIONARY
  5
17
102
{ACAD_REACTORS
330
C
102
}
330
C
100
AcDbDictionary
281
     1
  3
Standard
350
18
  0
DICTIONARY
  5
19
102
{ACAD_REACTORS
330
C
102
}
330
C
100
AcDbDictionary
281
     1
  0
ACDBDICTIONARYWDFLT
  5
E
102
{ACAD_REACTORS
330
C
102
}
330
C
100
AcDbDictionary
281
     1
  3
Normal
350
F
100
AcDbDictionaryWithDefault
340
F
  0
DICTIONARY
  5
164
102
{ACAD_REACTORS
330
C
102
}
330
C
100
AcDbDictionary
281
     1
  0
DICTIONARY
  5
2A
102
{ACAD_REACTORS
330
C
102
}
330
C
100
AcDbDictionary
281
     1
  3
2dWireframe
350
2F
  3
3D Hidden
350
31
  3
3dWireframe
350
30
  3
Basic
350
32
  3
Brighten
350
36
  3
ColorChange
350
3A
  3
Conceptual
350
34
  3
Dim
350
35
  3
Facepattern
350
39
  3
Flat
350
2B
  3
FlatWithEdges
350
2C
  3
Gouraud
350
2D
  3
GouraudWithEdges
350
2E
  3
Linepattern
350
38
  3
Realistic
350
33
  3
Thicken
350
37
  0
LAYOUT
  5
1E
102
{ACAD_REACTORS
330
1A
102
}
330
1A
100
AcDbPlotSettings
  1

  2
none_device
  4

  6

 40
0.0
 41
0.0
 42
0.0
 43
0.0
 44
0.0
 45
0.0
 46
0.0
 47
0.0
 48
0.0
 49
0.0
140
0.0
141
0.0
142
1.0
143
1.0
 70
   688
 72
     0
 73
     0
 74
     5
  7

 75
    16
 76
     0
 77
     2
 78
   300
147
1.0
148
0.0
149
0.0
100
AcDbLayout
  1
Layout1
 70
     1
 71
     1
 10
0.0
 20
0.0
 11
12.0
 21
9.0
 12
0.0
 22
0.0
 32
0.0
 14
1.000000000000000E+20
 24
1.000000000000000E+20
 34
1.000000000000000E+20
 15
-1.000000000000000E+20
 25
-1.000000000000000E+20
 35
-1.000000000000000E+20
146
0.0
 13
0.0
 23
0.0
 33
0.0
 16
1.0
 26
0.0
 36
0.0
 17
0.0
 27
1.0
 37
0.0
 76
     0
330
1B
  0
LAYOUT
  5
26
102
{ACAD_REACTORS
330
1A
102
}
330
1A
100
AcDbPlotSettings
  1

  2
none_device
  4

  6

 40
0.0
 41
0.0
 42
0.0
 43
0.0
 44
0.0
 45
0.0
 46
0.0
 47
0.0
 48
0.0
 49
0.0
140
0.0
141
0.0
142
1.0
143
1.0
 70
   688
 72
     0
 73
     0
 74
     5
  7

 75
    16
 76
     0
 77
     2
 78
   300
147
1.0
148
0.0
149
0.0
100
AcDbLayout
  1
Layout2
 70
     1
 71
     2
 10
0.0
 20
0.0
 11
0.0
 21
0.0
 12
0.0
 22
0.0
 32
0.0
 14
0.0
 24
0.0
 34
0.0
 15
0.0
 25
0.0
 35
0.0
146
0.0
 13
0.0
 23
0.0
 33
0.0
 16
1.0
 26
0.0
 36
0.0
 17
0.0
 27
1.0
 37
0.0
 76
     0
330
23
  0
LAYOUT
  5
22
102
{ACAD_REACTORS
330
1A
102
}
330
1A
100
AcDbPlotSettings
  1

  2
none_device
  4

  6

 40
0.0
 41
0.0
 42
0.0
 43
0.0
 44
0.0
 45
0.0
 46
0.0
 47
0.0
 48
0.0
 49
0.0
140
0.0
141
0.0
142
1.0
143
1.0
 70
  1712
 72
     0
 73
     0
 74
     0
  7

 75
     0
 76
     0
 77
     2
 78
   300
147
1.0
148
0.0
149
0.0
100
AcDbLayout
  1
Model
 70
     1
 71
     0
 10
0.0
 20
0.0
 11
12.0
 21
9.0
 12
0.0
 22
0.0
 32
0.0
 14
1.000000000000000E+20
 24
1.000000000000000E+20
 34
1.000000000000000E+20
 15
-1.000000000000000E+20
 25
-1.000000000000000E+20
 35
-1.000000000000000E+20
146
0.0
 13
0.0
 23
0.0
 33
0.0
 16
1.0
 26
0.0
 36
0.0
 17
0.0
 27
1.0
 37
0.0
 76
     0
330
1F
331
29
  0
MATERIAL
  5
3D
102
{ACAD_REACTORS
330
3B
102
}
330
3B
100
AcDbMaterial
  1
ByBlock
 72
     1
 94
      127
  0
MATERIAL
  5
3C
102
{ACAD_REACTORS
330
3B
102
}
330
3B
100
AcDbMaterial
  1
ByLayer
 72
     1
 94
      127
  0
MATERIAL
  5
3E
102
{ACAD_REACTORS
330
3B
102
}
330
3B
100
AcDbMaterial
  1
Global
 72
     1
 94
      127
  0
MLINESTYLE
  5
18
102
{ACAD_REACTORS
330
17
102
}
330
17
100
AcDbMlineStyle
  2
Standard
 70
     0
  3

 62
   256
 51
90.0
 52
90.0
 71
     2
 49
0.5
 62
   256
  6
BYLAYER
 49
-0.5
 62
   256
  6
BYLAYER
  0
ACDBPLACEHOLDER
  5
F
102
{ACAD_REACTORS
330
E
102
}
330
E
  0
VISUALSTYLE
  5
2F
102
{ACAD_REACTORS
330
2A
102
}
330
2A
100
AcDbVisualStyle
  2
2dWireframe
 70
     4
177
     2
291
     0
 71
     0
176
     1
 72
     2
176
     1
 73
     0
176
     1
 90
        0
176
     1
 40
-0.6
176
     1
 41
-30.0
176
     1
 62
     5
 63
     7
421
 16777215
176
     1
 74
     1
176
     1
 91
        4
176
     1
 64
     7
176
     1
 65
   257
176
     1
 75
     1
176
     1
175
     1
176
     1
 42
1.0
176
     1
 92
        0
176
     1
 66
   257
176
     1
 43
1.0
176
     1
 76
     1
176
     1
 77
     6
176
     1
 78
     2
176
     1
 67
     7
176
     1
 79
     5
176
     1
170
     0
176
     1
171
     0
176
     1
290
     0
176
     1
 93
        1
176
     1
 44
0.0
176
     1
173
     0
176
     1
  0
VISUALSTYLE
  5
31
102
{ACAD_REACTORS
330
2A
102
}
330
2A
100
AcDbVisualStyle
  2
3D Hidden
 70
     6
177
     2
291
     0
 71
     1
176
     1
 72
     2
176
     1
 73
     2
176
     1
 90
        0
176
     1
 40
-0.6
176
     1
 41
-30.0
176
     1
 62
     5
 63
     7
421
 16777215
176
     1
 74
     2
176
     1
 91
        2
176
     1
 64
     7
176
     1
 65
   257
176
     1
 75
     2
176
     1
175
     1
176
     1
 42
40.0
176
     1
 92
        0
176
     1
 66
   257
176
     1
 43
1.0
176
     1
 76
     1
176
     1
 77
     6
176
     1
 78
     2
176
     1
 67
     7
176
     1
 79
     3
176
     1
170
     0
176
     1
171
     0
176
     1
290
     0
176
     1
 93
        1
176
     1
 44
0.0
176
     1
173
     0
176
     1
  0
VISUALSTYLE
  5
30
102
{ACAD_REACTORS
330
2A
102
}
330
2A
100
AcDbVisualStyle
  2
3dWireframe
 70
     5
177
     2
291
     0
 71
     0
176
     1
 72
     2
176
     1
 73
     0
176
     1
 90
        0
176
     1
 40
-0.6
176
     1
 41
-30.0
176
     1
 62
     5
 63
     7
421
 16777215
176
     1
 74
     1
176
     1
 91
        4
176
     1
 64
     7
176
     1
 65
   257
176
     1
 75
     1
176
     1
175
     1
176
     1
 42
1.0
176
     1
 92
        0
176
     1
 66
   257
176
     1
 43
1.0
176
     1
 76
     1
176
     1
 77
     6
176
     1
 78
     2
176
     1
 67
     7
176
     1
 79
     5
176
     1
170
     0
176
     1
171
     0
176
     1
290
     0
176
     1
 93
        1
176
     1
 44
0.0
176
     1
173
     0
176
     1
  0
VISUALSTYLE
  5
32
102
{ACAD_REACTORS
330
2A
102
}
330
2A
100
AcDbVisualStyle
  2
Basic
 70
     7
177
     2
291
     1
 71
     1
176
     1
 72
     0
176
     1
 73
     1
176
     1
 90
        0
176
     1
 40
-0.6
176
     1
 41
-30.0
176
     1
 62
     5
 63
     7
421
 16777215
176
     1
 74
     0
176
     1
 91
        4
176
     1
 64
     7
176
     1
 65
   257
176
     1
 75
     1
176
     1
175
     1
176
     1
 42
1.0
176
     1
 92
        8
176
     1
 66
     7
176
     1
 43
1.0
176
     1
 76
     1
176
     1
 77
     6
176
     1
 78
     2
176
     1
 67
     7
176
     1
 79
     5
176
     1
170
     0
176
     1
171
     0
176
     1
290
     0
176
     1
 93
        1
176
     1
 44
0.0
176
     1
173
     0
176
     1
  0
VISUALSTYLE
  5
36
102
{ACAD_REACTORS
330
2A
102
}
330
2A
100
AcDbVisualStyle
  2
Brighten
 70
    12
177
     2
291
     1
 71
     2
176
     1
 72
     2
176
     1
 73
     0
176
     1
 90
        0
176
     1
 40
-0.6
176
     1
 41
-30.0
176
     1
 62
     5
 63
     7
421
 16777215
176
     1
 74
     1
176
     1
 91
        4
176
     1
 64
     7
176
     1
 65
   257
176
     1
 75
     1
176
     1
175
     1
176
     1
 42
1.0
176
     1
 92
        8
176
     1
 66
     7
176
     1
 43
1.0
176
     1
 76
     1
176
     1
 77
     6
176
     1
 78
     2
176
     1
 67
     7
176
     1
 79
     5
176
     1
170
     0
176
     1
171
     0
176
     1
290
     0
176
     1
 93
        1
176
     1
 44
50.0
176
     1
173
     0
176
     1
  0
VISUALSTYLE
  5
3A
102
{ACAD_REACTORS
330
2A
102
}
330
2A
100
AcDbVisualStyle
  2
ColorChange
 70
    16
177
     2
291
     1
 71
     2
176
     1
 72
     2
176
     1
 73
     3
176
     1
 90
        0
176
     1
 40
-0.6
176
     1
 41
-30.0
176
     1
 62
     5
 63
     8
421
  8421504
176
     1
 74
     1
176
     1
 91
        4
176
     1
 64
     7
176
     1
 65
   257
176
     1
 75
     1
176
     1
175
     1
176
     1
 42
1.0
176
     1
 92
        8
176
     1
 66
     8
424
  8421504
176
     1
 43
1.0
176
     1
 76
     1
176
     1
 77
     6
176
     1
 78
     2
176
     1
 67
     7
176
     1
 79
     5
176
     1
170
     0
176
     1
171
     0
176
     1
290
     0
176
     1
 93
        1
176
     1
 44
0.0
176
     1
173
     0
176
     1
  0
VISUALSTYLE
  5
34
102
{ACAD_REACTORS
330
2A
102
}
330
2A
100
AcDbVisualStyle
  2
Conceptual
 70
     9
177
     2
291
     0
 71
     3
176
     1
 72
     2
176
     1
 73
     0
176
     1
 90
        0
176
     1
 40
-0.6
176
     1
 41
-30.0
176
     1
 62
     5
 63
     7
421
 16777215
176
     1
 74
     2
176
     1
 91
        2
176
     1
 64
     7
176
     1
 65
   257
176
     1
 75
     1
176
     1
175
     1
176
     1
 42
40.0
176
     1
 92
        8
176
     1
 66
     7
176
     1
 43
1.0
176
     1
 76
     1
176
     1
 77
     6
176
     1
 78
     2
176
     1
 67
     7
176
     1
 79
     3
176
     1
170
     0
176
     1
171
     0
176
     1
290
     0
176
     1
 93
        1
176
     1
 44
0.0
176
     1
173
     0
176
     1
  0
VISUALSTYLE
  5
35
102
{ACAD_REACTORS
330
2A
102
}
330
2A
100
AcDbVisualStyle
  2
Dim
 70
    11
177
     2
291
     1
 71
     2
176
     1
 72
     2
176
     1
 73
     0
176
     1
 90
        0
176
     1
 40
-0.6
176
     1
 41
-30.0
176
     1
 62
     5
 63
     7
421
 16777215
176
     1
 74
     1
176
     1
 91
        4
176
     1
 64
     7
176
     1
 65
   257
176
     1
 75
     1
176
     1
175
     1
176
     1
 42
1.0
176
     1
 92
        8
176
     1
 66
     7
176
     1
 43
1.0
176
     1
 76
     1
176
     1
 77
     6
176
     1
 78
     2
176
     1
 67
     7
176
     1
 79
     5
176
     1
170
     0
176
     1
171
     0
176
     1
290
     0
176
     1
 93
        1
176
     1
 44
-50.0
176
     1
173
     0
176
     1
  0
VISUALSTYLE
  5
39
102
{ACAD_REACTORS
330
2A
102
}
330
2A
100
AcDbVisualStyle
  2
Facepattern
 70
    15
177
     2
291
     1
 71
     2
176
     1
 72
     2
176
     1
 73
     0
176
     1
 90
        0
176
     1
 40
-0.6
176
     1
 41
-30.0
176
     1
 62
     5
 63
     7
421
 16777215
176
     1
 74
     1
176
     1
 91
        4
176
     1
 64
     7
176
     1
 65
   257
176
     1
 75
     1
176
     1
175
     1
176
     1
 42
1.0
176
     1
 92
        8
176
     1
 66
     7
176
     1
 43
1.0
176
     1
 76
     1
176
     1
 77
     6
176
     1
 78
     2
176
     1
 67
     7
176
     1
 79
     5
176
     1
170
     0
176
     1
171
     0
176
     1
290
     0
176
     1
 93
        1
176
     1
 44
0.0
176
     1
173
     0
176
     1
  0
VISUALSTYLE
  5
2B
102
{ACAD_REACTORS
330
2A
102
}
330
2A
100
AcDbVisualStyle
  2
Flat
 70
     0
177
     2
291
     1
 71
     2
176
     1
 72
     1
176
     1
 73
     1
176
     1
 90
        2
176
     1
 40
-0.6
176
     1
 41
30.0
176
     1
 62
     5
 63
     7
421
 16777215
176
     1
 74
     0
176
     1
 91
        4
176
     1
 64
     7
176
     1
 65
   257
176
     1
 75
     1
176
     1
175
     1
176
     1
 42
1.0
176
     1
 92
        8
176
     1
 66
     7
176
     1
 43
1.0
176
     1
 76
     1
176
     1
 77
     6
176
     1
 78
     2
176
     1
 67
     7
176
     1
 79
     5
176
     1
170
     0
176
     1
171
     0
176
     1
290
     0
176
     1
 93
       13
176
     1
 44
0.0
176
     1
173
     0
176
     1
  0
VISUALSTYLE
  5
2C
102
{ACAD_REACTORS
330
2A
102
}
330
2A
100
AcDbVisualStyle
  2
FlatWithEdges
 70
     1
177
     2
291
     1
 71
     2
176
     1
 72
     1
176
     1
 73
     1
176
     1
 90
        2
176
     1
 40
-0.6
176
     1
 41
30.0
176
     1
 62
     5
 63
     7
421
 16777215
176
     1
 74
     1
176
     1
 91
        4
176
     1
 64
     7
176
     1
 65
   257
176
     1
 75
     1
176
     1
175
     1
176
     1
 42
1.0
176
     1
 92
        0
176
     1
 66
   257
176
     1
 43
1.0
176
     1
 76
     1
176
     1
 77
     6
176
     1
 78
     2
176
     1
 67
     7
176
     1
 79
     5
176
     1
170
     0
176
     1
171
     0
176
     1
290
     0
176
     1
 93
       13
176
     1
 44
0.0
176
     1
173
     0
176
     1
  0
VISUALSTYLE
  5
2D
102
{ACAD_REACTORS
330
2A
102
}
330
2A
100
AcDbVisualStyle
  2
Gouraud
 70
     2
177
     2
291
     1
 71
     2
176
     1
 72
     2
176
     1
 73
     1
176
     1
 90
        2
176
     1
 40
-0.6
176
     1
 41
30.0
176
     1
 62
     5
 63
     7
421
 16777215
176
     1
 74
     0
176
     1
 91
        4
176
     1
 64
     7
176
     1
 65
   257
176
     1
 75
     1
176
     1
175
     1
176
     1
 42
1.0
176
     1
 92
        0
176
     1
 66
     7
176
     1
 43
1.0
176
     1
 76
     1
176
     1
 77
     6
176
     1
 78
     2
176
     1
 67
     7
176
     1
 79
     5
176
     1
170
     0
176
     1
171
     0
176
     1
290
     0
176
     1
 93
       13
176
     1
 44
0.0
176
     1
173
     0
176
     1
  0
VISUALSTYLE
  5
2E
102
{ACAD_REACTORS
330
2A
102
}
330
2A
100
AcDbVisualStyle
  2
GouraudWithEdges
 70
     3
177
     2
291
     1
 71
     2
176
     1
 72
     2
176
     1
 73
     1
176
     1
 90
        2
176
     1
 40
-0.6
176
     1
 41
30.0
176
     1
 62
     5
 63
     7
421
 16777215
176
     1
 74
     1
176
     1
 91
        4
176
     1
 64
     7
176
     1
 65
   257
176
     1
 75
     1
176
     1
175
     1
176
     1
 42
1.0
176
     1
 92
        0
176
     1
 66
   257
176
     1
 43
1.0
176
     1
 76
     1
176
     1
 77
     6
176
     1
 78
     2
176
     1
 67
     7
176
     1
 79
     5
176
     1
170
     0
176
     1
171
     0
176
     1
290
     0
176
     1
 93
       13
176
     1
 44
0.0
176
     1
173
     0
176
     1
  0
VISUALSTYLE
  5
38
102
{ACAD_REACTORS
330
2A
102
}
330
2A
100
AcDbVisualStyle
  2
Linepattern
 70
    14
177
     2
291
     1
 71
     2
176
     1
 72
     2
176
     1
 73
     0
176
     1
 90
        0
176
     1
 40
-0.6
176
     1
 41
-30.0
176
     1
 62
     5
 63
     7
421
 16777215
176
     1
 74
     1
176
     1
 91
        4
176
     1
 64
     7
176
     1
 65
   257
176
     1
 75
     7
176
     1
175
     7
176
     1
 42
1.0
176
     1
 92
        8
176
     1
 66
     7
176
     1
 43
1.0
176
     1
 76
     1
176
     1
 77
     6
176
     1
 78
     2
176
     1
 67
     7
176
     1
 79
     5
176
     1
170
     0
176
     1
171
     0
176
     1
290
     0
176
     1
 93
        1
176
     1
 44
0.0
176
     1
173
     0
176
     1
  0
VISUALSTYLE
  5
33
102
{ACAD_REACTORS
330
2A
102
}
330
2A
100
AcDbVisualStyle
  2
Realistic
 70
     8
177
     2
291
     0
 71
     2
176
     1
 72
     2
176
     1
 73
     0
176
     1
 90
        0
176
     1
 40
-0.6
176
     1
 41
-30.0
176
     1
 62
     5
 63
     7
421
 16777215
176
     1
 74
     1
176
     1
 91
        0
176
     1
 64
     7
176
     1
 65
   257
176
     1
 75
     1
176
     1
175
     1
176
     1
 42
1.0
176
     1
 92
        8
176
     1
 66
     8
424
  7895160
176
     1
 43
1.0
176
     1
 76
     1
176
     1
 77
     6
176
     1
 78
     2
176
     1
 67
     7
176
     1
 79
     5
176
     1
170
     0
176
     1
171
     0
176
     1
290
     0
176
     1
 93
       13
176
     1
 44
0.0
176
     1
173
     0
176
     1
  0
VISUALSTYLE
  5
37
102
{ACAD_REACTORS
330
2A
102
}
330
2A
100
AcDbVisualStyle
  2
Thicken
 70
    13
177
     2
291
     1
 71
     2
176
     1
 72
     2
176
     1
 73
     0
176
     1
 90
        0
176
     1
 40
-0.6
176
     1
 41
-30.0
176
     1
 62
     5
 63
     7
421
 16777215
176
     1
 74
     1
176
     1
 91
        4
176
     1
 64
     7
176
     1
 65
   257
176
     1
 75
     1
176
     1
175
     1
176
     1
 42
1.0
176
     1
 92
       12
176
     1
 66
     7
176
     1
 43
1.0
176
     1
 76
     1
176
     1
 77
     6
176
     1
 78
     2
176
     1
 67
     7
176
     1
 79
     5
176
     1
170
     0
176
     1
171
     0
176
     1
290
     0
176
     1
 93
        1
176
     1
 44
0.0
176
     1
173
     0
176
     1
  0
ENDSEC
  0
EOF
