  0
SECTION
  2
HEADER
  9
$ACADVER
  1
AC1024
  9
$ACADMAINTVER
 70
     6
  9
$DWGCODEPAGE
  3
UNDEFINED
  9
$INSBASE
 10
0.0
 20
0.0
 30
0.0
  9
$EXTMIN
 10
1.000000000000000E+20
 20
1.000000000000000E+20
 30
1.000000000000000E+20
  9
$EXTMAX
 10
-1.000000000000000E+20
 20
-1.000000000000000E+20
 30
-1.000000000000000E+20
  9
$LIMMIN
 10
0.0
 20
0.0
  9
$LIMMAX
 10
12.0
 20
9.0
  9
$ORTHOMODE
 70
     0
  9
$REGENMODE
 70
     1
  9
$FILLMODE
 70
     1
  9
$QTEXTMODE
 70
     0
  9
$MIRRTEXT
 70
     1
  9
$LTSCALE
 40
1.0
  9
$ATTMODE
 70
     1
  9
$TEXTSIZE
 40
0.2
  9
$TRACEWID
 40
0.05
  9
$TEXTSTYLE
  7
Standard
  9
$CLAYER
  8
0
  9
$CELTYPE
  6
ByLayer
  9
$CECOLOR
 62
   256
  9
$CELTSCALE
 40
1.0
  9
$DISPSILH
 70
     0
  9
$DIMSCALE
 40
1.0
  9
$DIMASZ
 40
0.18
  9
$DIMEXO
 40
0.0625
  9
$DIMDLI
 40
0.38
  9
$DIMRND
 40
0.0
  9
$DIMDLE
 40
0.0
  9
$DIMEXE
 40
0.18
  9
$DIMTP
 40
0.0
  9
$DIMTM
 40
0.0
  9
$DIMTXT
 40
0.18
  9
$DIMCEN
 40
0.09
  9
$DIMTSZ
 40
0.0
  9
$DIMTOL
 70
     0
  9
$DIMLIM
 70
     0
  9
$DIMTIH
 70
     1
  9
$DIMTOH
 70
     1
  9
$DIMSE1
 70
     0
  9
$DIMSE2
 70
     0
  9
$DIMTAD
 70
     0
  9
$DIMZIN
 70
     0
  9
$DIMBLK
  1

  9
$DIMASO
 70
     1
  9
$DIMSHO
 70
     1
  9
$DIMPOST
  1

  9
$DIMAPOST
  1

  9
$DIMALT
 70
     0
  9
$DIMALTD
 70
     2
  9
$DIMALTF
 40
25.4
  9
$DIMLFAC
 40
1.0
  9
$DIMTOFL
 70
     0
  9
$DIMTVP
 40
0.0
  9
$DIMTIX
 70
     0
  9
$DIMSOXD
 70
     0
  9
$DIMSAH
 70
     0
  9
$DIMBLK1
  1

  9
$DIMBLK2
  1

  9
$DIMSTYLE
  2
Standard
  9
$DIMCLRD
 70
     0
  9
$DIMCLRE
 70
     0
  9
$DIMCLRT
 70
     0
  9
$DIMTFAC
 40
1.0
  9
$DIMGAP
 40
0.09
  9
$DIMJUST
 70
     0
  9
$DIMSD1
 70
     0
  9
$DIMSD2
 70
     0
  9
$DIMTOLJ
 70
     1
  9
$DIMTZIN
 70
     0
  9
$DIMALTZ
 70
     0
  9
$DIMALTTZ
 70
     0
  9
$DIMUPT
 70
     0
  9
$DIMDEC
 70
     4
  9
$DIMTDEC
 70
     4
  9
$DIMALTU
 70
     2
  9
$DIMALTTD
 70
     2
  9
$DIMTXSTY
  7
Standard
  9
$DIMAUNIT
 70
     0
  9
$DIMADEC
 70
     0
  9
$DIMALTRND
 40
0.0
  9
$DIMAZIN
 70
     0
  9
$DIMDSEP
 70
    46
  9
$DIMATFIT
 70
     3
  9
$DIMFRAC
 70
     0
  9
$DIMLDRBLK
  1

  9
$DIMLUNIT
 70
     2
  9
$DIMLWD
 70
    -2
  9
$DIMLWE
 70
    -2
  9
$DIMTMOVE
 70
     0
  9
$DIMFXL
 40
1.0
  9
$DIMFXLON
 70
     0
  9
$DIMJOGANG
 40
0.7853981633974483
  9
$DIMTFILL
 70
     0
  9
$DIMTFILLCLR
 70
     0
  9
$DIMARCSYM
 70
     0
  9
$DIMLTYPE
  6

  9
$DIMLTEX1
  6

  9
$DIMLTEX2
  6

  9
$DIMTXTDIRECTION
 70
     0
  9
$LUNITS
 70
     2
  9
$LUPREC
 70
     4
  9
$SKETCHINC
 40
0.1
  9
$FILLETRAD
 40
0.5
  9
$AUNITS
 70
     0
  9
$AUPREC
 70
     0
  9
$MENU
  1
.
  9
$ELEVATION
 40
0.0
  9
$PELEVATION
 40
0.0
  9
$THICKNESS
 40
0.0
  9
$LIMCHECK
 70
     0
  9
$CHAMFERA
 40
0.5
  9
$CHAMFERB
 40
0.5
  9
$CHAMFERC
 40
1.0
  9
$CHAMFERD
 40
0.0
  9
$SKPOLY
 70
     0
  9
$TDCREATE
 40
2457917.627083322
  9
$TDUCREATE
 40
2457917.252083333
  9
$TDUPDATE
 40
2457917.627083322
  9
$TDUUPDATE
 40
2457917.252083333
  9
$TDINDWG
 40
0.0000000116
  9
$TDUSRTIMER
 40
0.0000000116
  9
$USRTIMER
 70
     1
  9
$ANGBASE
 50
0.0
  9
$ANGDIR
 70
     0
  9
$PDMODE
 70
     0
  9
$PDSIZE
 40
0.0
  9
$PLINEWID
 40
0.0
  9
$SPLFRAME
 70
     0
  9
$SPLINETYPE
 70
     6
  9
$SPLINESEGS
 70
     8
  9
$HANDSEED
  5
144
  9
$SURFTAB1
 70
     6
  9
$SURFTAB2
 70
     6
  9
$SURFTYPE
 70
     6
  9
$SURFU
 70
     6
  9
$SURFV
 70
     6
  9
$UCSBASE
  2

  9
$UCSNAME
  2

  9
$UCSORG
 10
0.0
 20
0.0
 30
0.0
  9
$UCSXDIR
 10
1.0
 20
0.0
 30
0.0
  9
$UCSYDIR
 10
0.0
 20
1.0
 30
0.0
  9
$UCSORTHOREF
  2

  9
$UCSORTHOVIEW
 70
     0
  9
$UCSORGTOP
 10
0.0
 20
0.0
 30
0.0
  9
$UCSORGBOTTOM
 10
0.0
 20
0.0
 30
0.0
  9
$UCSORGLEFT
 10
0.0
 20
0.0
 30
0.0
  9
$UCSORGRIGHT
 10
0.0
 20
0.0
 30
0.0
  9
$UCSORGFRONT
 10
0.0
 20
0.0
 30
0.0
  9
$UCSORGBACK
 10
0.0
 20
0.0
 30
0.0
  9
$PUCSBASE
  2

  9
$PUCSNAME
  2

  9
$PUCSORG
 10
0.0
 20
0.0
 30
0.0
  9
$PUCSXDIR
 10
1.0
 20
0.0
 30
0.0
  9
$PUCSYDIR
 10
0.0
 20
1.0
 30
0.0
  9
$PUCSORTHOREF
  2

  9
$PUCSORTHOVIEW
 70
     0
  9
$PUCSORGTOP
 10
0.0
 20
0.0
 30
0.0
  9
$PUCSORGBOTTOM
 10
0.0
 20
0.0
 30
0.0
  9
$PUCSORGLEFT
 10
0.0
 20
0.0
 30
0.0
  9
$PUCSORGRIGHT
 10
0.0
 20
0.0
 30
0.0
  9
$PUCSORGFRONT
 10
0.0
 20
0.0
 30
0.0
  9
$PUCSORGBACK
 10
0.0
 20
0.0
 30
0.0
  9
$USERI1
 70
     0
  9
$USERI2
 70
     0
  9
$USERI3
 70
     0
  9
$USERI4
 70
     0
  9
$USERI5
 70
     0
  9
$USERR1
 40
0.0
  9
$USERR2
 40
0.0
  9
$USERR3
 40
0.0
  9
$USERR4
 40
0.0
  9
$USERR5
 40
0.0
  9
$WORLDVIEW
 70
     1
  9
$SHADEDGE
 70
     3
  9
$SHADEDIF
 70
    70
  9
$TILEMODE
 70
     1
  9
$MAXACTVP
 70
    64
  9
$PINSBASE
 10
0.0
 20
0.0
 30
0.0
  9
$PLIMCHECK
 70
     0
  9
$PEXTMIN
 10
1.000000000000000E+20
 20
1.000000000000000E+20
 30
1.000000000000000E+20
  9
$PEXTMAX
 10
-1.000000000000000E+20
 20
-1.000000000000000E+20
 30
-1.000000000000000E+20
  9
$PLIMMIN
 10
0.0
 20
0.0
  9
$PLIMMAX
 10
12.0
 20
9.0
  9
$UNITMODE
 70
     0
  9
$VISRETAIN
 70
     1
  9
$PLINEGEN
 70
     0
  9
$PSLTSCALE
 70
     1
  9
$TREEDEPTH
 70
  3020
  9
$CMLSTYLE
  2
Standard
  9
$CMLJUST
 70
     0
  9
$CMLSCALE
 40
1.0
  9
$PROXYGRAPHICS
 70
     1
  9
$MEASUREMENT
 70
     0
  9
$CELWEIGHT
370
    -1
  9
$ENDCAPS
280
     0
  9
$JOINSTYLE
280
     0
  9
$LWDISPLAY
290
     1
  9
$INSUNITS
 70
     1
  9
$HYPERLINKBASE
  1

  9
$STYLESHEET
  1

  9
$XEDIT
290
     1
  9
$CEPSNTYPE
380
     0
  9
$PSTYLEMODE
290
     1
  9
$FINGERPRINTGUID
  2
{766022BC-6139-9CB5-EA0E-02BDF07DD9D3}
  9
$VERSIONGUID
  2
{FAEB1C32-E019-11D5-929B-00C0DF256EC4}
  9
$EXTNAMES
290
     1
  9
$PSVPSCALE
 40
0.0
  9
$OLESTARTUP
290
     0
  9
$SORTENTS
280
   127
  9
$INDEXCTL
280
     0
  9
$HIDETEXT
280
     1
  9
$XCLIPFRAME
280
     2
  9
$HALOGAP
280
     0
  9
$OBSCOLOR
 70
   257
  9
$OBSLTYPE
280
     0
  9
$INTERSECTIONDISPLAY
280
     0
  9
$INTERSECTIONCOLOR
 70
   257
  9
$DIMASSOC
280
     2
  9
$PROJECTNAME
  1

  9
$CAMERADISPLAY
290
     0
  9
$LENSLENGTH
 40
50.0
  9
$CAMERAHEIGHT
 40
0.0
  9
$STEPSPERSEC
 40
2.0
  9
$STEPSIZE
 40
6.0
  9
$3DDWFPREC
 40
2.0
  9
$PSOLWIDTH
 40
0.25
  9
$PSOLHEIGHT
 40
4.0
  9
$LOFTANG1
 40
1.570796326794897
  9
$LOFTANG2
 40
1.570796326794897
  9
$LOFTMAG1
 40
0.0
  9
$LOFTMAG2
 40
0.0
  9
$LOFTPARAM
 70
     7
  9
$LOFTNORMALS
280
     1
  9
$LATITUDE
 40
37.795
  9
$LONGITUDE
 40
-122.394
  9
$NORTHDIRECTION
 40
0.0
  9
$TIMEZONE
 70
 -8000
  9
$LIGHTGLYPHDISPLAY
280
     1
  9
$TILEMODELIGHTSYNCH
280
     1
  9
$CMATERIAL
347
3C
  9
$SOLIDHIST
280
     1
  9
$SHOWHIST
280
     1
  9
$DWFFRAME
280
     2
  9
$DGNFRAME
280
     2
  9
$REALWORLDSCALE
290
     1
  9
$INTERFERECOLOR
 62
   256
  9
$CSHADOW
280
     0
  9
$SHADOWPLANELOCATION
 40
0.0
  0
ENDSEC
  0
SECTION
  2
CLASSES
  0
CLASS
  1
ACDBDICTIONARYWDFLT
  2
AcDbDictionaryWithDefault
  3
ObjectDBX Classes
 90
        0
 91
        4
280
     0
281
     0
  0
CLASS
  1
VISUALSTYLE
  2
AcDbVisualStyle
  3
ObjectDBX Classes
 90
     4095
 91
        4
280
     0
281
     0
  0
CLASS
  1
MATERIAL
  2
AcDbMaterial
  3
ObjectDBX Classes
 90
     1153
 91
        4
280
     0
281
     0
  0
CLASS
  1
SUN
  2
AcDbSun
  3
SCENEOE
 90
     1024
 91
        4
280
     0
281
     0
  0
ENDSEC
  0
SECTION
  2
TABLES
  0
TABLE
  2
VPORT
  5
8
330
0
100
AcDbSymbolTable
 70
     1
  0
VPORT
  5
29
330
8
100
AcDbSymbolTableRecord
100
AcDbViewportTableRecord
  2
*Active
 70
     0
 10
0.0
 20
0.0
 11
1.0
 21
1.0
 12
0.0
 22
0.0
 13
0.0
 23
0.0
 14
0.5
 24
0.5
 15
0.5
 25
0.5
 16
0.0
 26
0.0
 36
1.0
 17
91.00082462281999
 27
-128.4993055234307
 37
0.0
 40
256.9986110468615
 41
0.7081814508812795
 42
50.0
 43
0.0
 44
0.0
 50
0.0
 51
0.0
 71
     0
 72
   100
 73
     1
 74
     3
 75
     0
 76
     0
 77
     0
 78
     0
281
     0
 65
     1
110
0.0
120
0.0
130
0.0
111
1.0
121
0.0
131
0.0
112
0.0
122
1.0
132
0.0
 79
     0
146
0.0
 60
     3
 61
     5
292
     1
282
     1
141
0.0
142
0.0
 63
   250
361
3F
  0
ENDTAB
  0
TABLE
  2
LTYPE
  5
5
330
0
100
AcDbSymbolTable
 70
     1
  0
LTYPE
  5
14
330
5
100
AcDbSymbolTableRecord
100
AcDbLinetypeTableRecord
  2
ByBlock
 70
     0
  3

 72
    65
 73
     0
 40
0.0
  0
LTYPE
  5
15
330
5
100
AcDbSymbolTableRecord
100
AcDbLinetypeTableRecord
  2
ByLayer
 70
     0
  3

 72
    65
 73
     0
 40
0.0
  0
LTYPE
  5
16
330
5
100
AcDbSymbolTableRecord
100
AcDbLinetypeTableRecord
  2
Continuous
 70
     0
  3
Solid line
 72
    65
 73
     0
 40
0.0
  0
ENDTAB
  0
TABLE
  2
LAYER
  5
2
330
0
100
AcDbSymbolTable
 70
     2
  0
LAYER
  5
10
330
2
100
AcDbSymbolTableRecord
100
AcDbLayerTableRecord
  2
0
 70
     0
 62
     7
  6
Continuous
370
    -3
390
F
347
3E
  0
LAYER
  5
40
330
2
100
AcDbSymbolTableRecord
100
AcDbLayerTableRecord
  2
_U+30EC_U+30A4_U+30E4_U+30FC 1
 70
     0
 62
     7
  6
Continuous
370
    -3
390
F
347
3E
  0
ENDTAB
  0
TABLE
  2
STYLE
  5
3
330
0
100
AcDbSymbolTable
 70
     1
  0
STYLE
  5
11
330
3
100
AcDbSymbolTableRecord
100
AcDbTextStyleTableRecord
  2
Standard
 70
     0
 40
0.0
 41
1.0
 50
0.0
 71
     0
 42
0.2
  3
txt
  4

  0
ENDTAB
  0
TABLE
  2
VIEW
  5
6
330
0
100
AcDbSymbolTable
 70
     0
  0
ENDTAB
  0
TABLE
  2
UCS
  5
7
330
0
100
AcDbSymbolTable
 70
     0
  0
ENDTAB
  0
TABLE
  2
APPID
  5
9
330
0
100
AcDbSymbolTable
 70
     1
  0
APPID
  5
12
330
9
100
AcDbSymbolTableRecord
100
AcDbRegAppTableRecord
  2
ACAD
 70
     0
  0
ENDTAB
  0
TABLE
  2
DIMSTYLE
  5
A
330
0
100
AcDbSymbolTable
 70
     1
100
AcDbDimStyleTable
  0
DIMSTYLE
105
27
330
A
100
AcDbSymbolTableRecord
100
AcDbDimStyleTableRecord
  2
Standard
 70
     0
178
     0
340
11
  0
ENDTAB
  0
TABLE
  2
BLOCK_RECORD
  5
1
330
0
100
AcDbSymbolTable
 70
     7
  0
BLOCK_RECORD
  5
1F
330
1
100
AcDbSymbolTableRecord
100
AcDbBlockTableRecord
  2
*Model_Space
340
22
 70
     0
280
     1
281
     0
  0
BLOCK_RECORD
  5
1B
330
1
100
AcDbSymbolTableRecord
100
AcDbBlockTableRecord
  2
*Paper_Space
340
1E
 70
     0
280
     1
281
     0
  0
BLOCK_RECORD
  5
23
330
1
100
AcDbSymbolTableRecord
100
AcDbBlockTableRecord
  2
*Paper_Space0
340
26
 70
     0
280
     1
281
     0
  0
BLOCK_RECORD
  5
8D
330
1
100
AcDbSymbolTableRecord
100
AcDbBlockTableRecord
  2
block 2
340
0
102
{BLKREFS
331
8E
102
}
 70
     0
280
     1
281
     0
  0
BLOCK_RECORD
  5
A1
330
1
100
AcDbSymbolTableRecord
100
AcDbBlockTableRecord
  2
block 3
340
0
102
{BLKREFS
331
A2
102
}
 70
     0
280
     1
281
     0
  0
BLOCK_RECORD
  5
B5
330
1
100
AcDbSymbolTableRecord
100
AcDbBlockTableRecord
  2
block 4
340
0
102
{BLKREFS
331
B6
102
}
 70
     0
280
     1
281
     0
  0
BLOCK_RECORD
  5
DA
330
1
100
AcDbSymbolTableRecord
100
AcDbBlockTableRecord
  2
block 5
340
0
102
{BLKREFS
331
DB
102
}
 70
     0
280
     1
281
     0
  0
BLOCK_RECORD
  5
FF
330
1
100
AcDbSymbolTableRecord
100
AcDbBlockTableRecord
  2
block 6
340
0
102
{BLKREFS
331
100
102
}
 70
     0
280
     1
281
     0
  0
BLOCK_RECORD
  5
132
330
1
100
AcDbSymbolTableRecord
100
AcDbBlockTableRecord
  2
block 7
340
0
102
{BLKREFS
331
133
102
}
 70
     0
280
     1
281
     0
  0
ENDTAB
  0
ENDSEC
  0
SECTION
  2
BLOCKS
  0
BLOCK
  5
20
330
1F
100
AcDbEntity
  8
0
100
AcDbBlockBegin
  2
*Model_Space
 70
     0
 10
0.0
 20
0.0
 30
0.0
  3
*Model_Space
  1

  0
ENDBLK
  5
21
330
1F
100
AcDbEntity
  8
0
100
AcDbBlockEnd
  0
BLOCK
  5
1C
330
1B
100
AcDbEntity
 67
     1
  8
0
100
AcDbBlockBegin
  2
*Paper_Space
 70
     0
 10
0.0
 20
0.0
 30
0.0
  3
*Paper_Space
  1

  0
ENDBLK
  5
1D
330
1B
100
AcDbEntity
 67
     1
  8
0
100
AcDbBlockEnd
  0
BLOCK
  5
24
330
23
100
AcDbEntity
  8
0
100
AcDbBlockBegin
  2
*Paper_Space0
 70
     0
 10
0.0
 20
0.0
 30
0.0
  3
*Paper_Space0
  1

  0
ENDBLK
  5
25
330
23
100
AcDbEntity
  8
0
100
AcDbBlockEnd
  0
BLOCK
  5
8F
330
8D
100
AcDbEntity
  8
0
100
AcDbBlockBegin
  2
block 2
 70
     0
 10
0.0
 20
0.0
 30
0.0
  3
block 2
  1

  0
SPLINE
  5
91
330
8D
100
AcDbEntity
  8
_U+30EC_U+30A4_U+30E4_U+30FC 1
370
     0
100
AcDbSpline
210
0.0
220
0.0
230
1.0
 70
    11
 71
     3
 72
    62
 73
    58
 74
     0
 42
0.0000000001
 43
0.0000000001
 12
1.0
 22
0.0
 32
0.0
 13
1.0
 23
0.0
 33
0.0
 40
0.0
 40
0.0
 40
0.0
 40
0.0
 40
1.0
 40
1.0
 40
1.0
 40
2.0
 40
2.0
 40
2.0
 40
3.0
 40
3.0
 40
3.0
 40
4.0
 40
4.0
 40
4.0
 40
5.0
 40
5.0
 40
5.0
 40
6.0
 40
6.0
 40
6.0
 40
7.0
 40
7.0
 40
7.0
 40
8.0
 40
8.0
 40
8.0
 40
9.0
 40
9.0
 40
9.0
 40
10.0
 40
10.0
 40
10.0
 40
11.0
 40
11.0
 40
11.0
 40
12.0
 40
12.0
 40
12.0
 40
13.0
 40
13.0
 40
13.0
 40
14.0
 40
14.0
 40
14.0
 40
15.0
 40
15.0
 40
15.0
 40
16.0
 40
16.0
 40
16.0
 40
17.0
 40
17.0
 40
17.0
 40
18.0
 40
18.0
 40
18.0
 40
19.0
 40
19.0
 40
19.0
 40
19.0
 10
92.52217337096668
 20
-114.8396741791894
 30
0.0
 10
92.41193031543868
 20
-114.8396741791894
 30
0.0
 10
92.16043834501545
 20
-114.8167642942125
 30
0.0
 10
92.01608884418349
 20
-114.6159152274224
 30
0.0
 10
91.93065047614928
 20
-114.4949923758901
 30
0.0
 10
91.92582734246993
 20
-114.3878499062989
 30
0.0
 10
91.92100420879059
 20
-114.2965548759398
 30
0.0
 10
91.92100420879059
 20
-114.2965548759398
 30
0.0
 10
92.1749077460535
 20
-114.2965548759398
 30
0.0
 10
92.1749077460535
 20
-114.2965548759398
 30
0.0
 10
92.17731931289318
 20
-114.3763088364233
 30
0.0
 10
92.18972165664007
 20
-114.6296956093634
 30
0.0
 10
92.51735023728733
 20
-114.6296956093634
 30
0.0
 10
92.67616913915735
 20
-114.6296956093634
 30
0.0
 10
92.8518690089051
 20
-114.5544202730107
 30
0.0
 10
92.8518690089051
 20
-114.3079236910411
 30
0.0
 10
92.8518690089051
 20
-114.1823499606037
 30
0.0
 10
92.80811629624242
 20
-114.1298122544537
 30
0.0
 10
92.77125377455025
 20
-114.0957058091497
 30
0.0
 10
92.68581540651606
 20
-114.0157795938919
 30
0.0
 10
92.55145668259131
 20
-114.0019992119509
 30
0.0
 10
92.48772241611418
 20
-114.0019992119509
 30
0.0
 10
92.4660183145571
 20
-114.0019992119509
 30
0.0
 10
92.4243326591856
 20
-114.0044107787906
 30
0.0
 10
92.39263778072129
 20
-114.0088894029214
 30
0.0
 10
92.39263778072129
 20
-114.0088894029214
 30
0.0
 10
92.39263778072129
 20
-113.7989108330954
 30
0.0
 10
92.39263778072129
 20
-113.7989108330954
 30
0.0
 10
92.43639049338397
 20
-113.8058010240659
 30
0.0
 10
92.48531084927451
 20
-113.8080403361313
 30
0.0
 10
92.49289005934206
 20
-113.8080403361313
 30
0.0
 10
92.56833765046903
 20
-113.8080403361313
 30
0.0
 10
92.7981255193352
 20
-113.7853027059287
 30
0.0
 10
92.7981255193352
 20
-113.5296766209231
 30
0.0
 10
92.7981255193352
 20
-113.3377848023947
 30
0.0
 10
92.6465413179842
 20
-113.2785291600484
 30
0.0
 10
92.51976180412701
 20
-113.2785291600484
 30
0.0
 10
92.21418183458535
 20
-113.2785291600484
 30
0.0
 10
92.20453556722664
 20
-113.5296766209231
 30
0.0
 10
92.19936792399878
 20
-113.6071912693413
 30
0.0
 10
92.19936792399878
 20
-113.6071912693413
 30
0.0
 10
91.96475692145326
 20
-113.6071912693413
 30
0.0
 10
91.96475692145326
 20
-113.6071912693413
 30
0.0
 10
91.97474769836049
 20
-113.472488035868
 30
0.0
 10
92.00644257682478
 20
-113.066311278157
 30
0.0
 10
92.53423120516506
 20
-113.066311278157
 30
0.0
 10
92.79330238565585
 20
-113.066311278157
 30
0.0
 10
93.07201061041256
 20
-113.2032538236957
 30
0.0
 10
93.07201061041256
 20
-113.5227864299526
 30
0.0
 10
93.07201061041256
 20
-113.7236354967427
 30
0.0
 10
92.96211206443309
 20
-113.8125189602622
 30
0.0
 10
92.84704587522575
 20
-113.8788370483532
 30
0.0
 10
92.9180148422219
 20
-113.9084648695264
 30
0.0
 10
93.12816566682213
 20
-113.9951090209804
 30
0.0
 10
93.12816566682213
 20
-114.2941433091001
 30
0.0
 10
93.12816566682213
 20
-114.6593234305366
 30
0.0
 10
92.8422227415464
 20
-114.8396741791894
 30
0.0
 10
92.52217337096668
 20
-114.8396741791894
 30
0.0
  0
HATCH
  5
92
330
8D
100
AcDbEntity
  8
_U+30EC_U+30A4_U+30E4_U+30FC 1
 62
   179
420
  2234388
100
AcDbHatch
 10
0.0
 20
0.0
 30
0.0
210
0.0
220
0.0
230
1.0
  2
SOLID
 70
     1
 71
     0
 91
        1
 92
        1
 93
        1
 72
     4
 94
        3
 73
     0
 74
     1
 95
       62
 96
       58
 40
0.0
 40
0.0
 40
0.0
 40
0.0
 40
1.0
 40
1.0
 40
1.0
 40
2.0
 40
2.0
 40
2.0
 40
3.0
 40
3.0
 40
3.0
 40
4.0
 40
4.0
 40
4.0
 40
5.0
 40
5.0
 40
5.0
 40
6.0
 40
6.0
 40
6.0
 40
7.0
 40
7.0
 40
7.0
 40
8.0
 40
8.0
 40
8.0
 40
9.0
 40
9.0
 40
9.0
 40
10.0
 40
10.0
 40
10.0
 40
11.0
 40
11.0
 40
11.0
 40
12.0
 40
12.0
 40
12.0
 40
13.0
 40
13.0
 40
13.0
 40
14.0
 40
14.0
 40
14.0
 40
15.0
 40
15.0
 40
15.0
 40
16.0
 40
16.0
 40
16.0
 40
17.0
 40
17.0
 40
17.0
 40
18.0
 40
18.0
 40
18.0
 40
19.0
 40
19.0
 40
19.0
 40
19.0
 10
92.52217337096668
 20
-114.8396741791894
 10
92.41193031543868
 20
-114.8396741791894
 10
92.16043834501545
 20
-114.8167642942125
 10
92.01608884418349
 20
-114.6159152274224
 10
91.93065047614928
 20
-114.4949923758901
 10
91.92582734246993
 20
-114.3878499062989
 10
91.92100420879059
 20
-114.2965548759398
 10
91.92100420879059
 20
-114.2965548759398
 10
92.1749077460535
 20
-114.2965548759398
 10
92.1749077460535
 20
-114.2965548759398
 10
92.17731931289318
 20
-114.3763088364233
 10
92.18972165664007
 20
-114.6296956093634
 10
92.51735023728733
 20
-114.6296956093634
 10
92.67616913915735
 20
-114.6296956093634
 10
92.8518690089051
 20
-114.5544202730107
 10
92.8518690089051
 20
-114.3079236910411
 10
92.8518690089051
 20
-114.1823499606037
 10
92.80811629624242
 20
-114.1298122544537
 10
92.77125377455025
 20
-114.0957058091497
 10
92.68581540651606
 20
-114.0157795938919
 10
92.55145668259131
 20
-114.0019992119509
 10
92.48772241611418
 20
-114.0019992119509
 10
92.4660183145571
 20
-114.0019992119509
 10
92.4243326591856
 20
-114.0044107787906
 10
92.39263778072129
 20
-114.0088894029214
 10
92.39263778072129
 20
-114.0088894029214
 10
92.39263778072129
 20
-113.7989108330954
 10
92.39263778072129
 20
-113.7989108330954
 10
92.43639049338397
 20
-113.8058010240659
 10
92.48531084927451
 20
-113.8080403361313
 10
92.49289005934206
 20
-113.8080403361313
 10
92.56833765046903
 20
-113.8080403361313
 10
92.7981255193352
 20
-113.7853027059287
 10
92.7981255193352
 20
-113.5296766209231
 10
92.7981255193352
 20
-113.3377848023947
 10
92.6465413179842
 20
-113.2785291600484
 10
92.51976180412701
 20
-113.2785291600484
 10
92.21418183458535
 20
-113.2785291600484
 10
92.20453556722664
 20
-113.5296766209231
 10
92.19936792399878
 20
-113.6071912693413
 10
92.19936792399878
 20
-113.6071912693413
 10
91.96475692145326
 20
-113.6071912693413
 10
91.96475692145326
 20
-113.6071912693413
 10
91.97474769836049
 20
-113.472488035868
 10
92.00644257682478
 20
-113.066311278157
 10
92.53423120516506
 20
-113.066311278157
 10
92.79330238565585
 20
-113.066311278157
 10
93.07201061041256
 20
-113.2032538236957
 10
93.07201061041256
 20
-113.5227864299526
 10
93.07201061041256
 20
-113.7236354967427
 10
92.96211206443309
 20
-113.8125189602622
 10
92.84704587522575
 20
-113.8788370483532
 10
92.9180148422219
 20
-113.9084648695264
 10
93.12816566682213
 20
-113.9951090209804
 10
93.12816566682213
 20
-114.2941433091001
 10
93.12816566682213
 20
-114.6593234305366
 10
92.8422227415464
 20
-114.8396741791894
 10
92.52217337096668
 20
-114.8396741791894
 97
        0
 97
        0
 75
     2
 76
     1
 98
        0
  0
SPLINE
  5
93
330
8D
100
AcDbEntity
  8
_U+30EC_U+30A4_U+30E4_U+30FC 1
370
     0
100
AcDbSpline
210
0.0
220
0.0
230
1.0
 70
    11
 71
     3
 72
    53
 73
    49
 74
     0
 42
0.0000000001
 43
0.0000000001
 12
1.0
 22
0.0
 32
0.0
 13
1.0
 23
0.0
 33
0.0
 40
0.0
 40
0.0
 40
0.0
 40
0.0
 40
1.0
 40
1.0
 40
1.0
 40
2.0
 40
2.0
 40
2.0
 40
3.0
 40
3.0
 40
3.0
 40
4.0
 40
4.0
 40
4.0
 40
5.0
 40
5.0
 40
5.0
 40
6.0
 40
6.0
 40
6.0
 40
7.0
 40
7.0
 40
7.0
 40
8.0
 40
8.0
 40
8.0
 40
9.0
 40
9.0
 40
9.0
 40
10.0
 40
10.0
 40
10.0
 40
11.0
 40
11.0
 40
11.0
 40
12.0
 40
12.0
 40
12.0
 40
13.0
 40
13.0
 40
13.0
 40
14.0
 40
14.0
 40
14.0
 40
15.0
 40
15.0
 40
15.0
 40
16.0
 40
16.0
 40
16.0
 40
16.0
 10
93.86748315795674
 20
-114.8396741791894
 30
0.0
 10
93.7772216562432
 20
-114.8396741791894
 30
0.0
 10
93.65974390019618
 20
-114.8214151731176
 30
0.0
 10
93.54261065369768
 20
-114.7530300277354
 30
0.0
 10
93.34210609645615
 20
-114.6341742334942
 30
0.0
 10
93.31764591851088
 20
-114.4927530638247
 30
0.0
 10
93.29559730740527
 20
-114.3763088364233
 30
0.0
 10
93.29559730740527
 20
-114.3763088364233
 30
0.0
 10
93.55225692105638
 20
-114.3763088364233
 30
0.0
 10
93.55225692105638
 20
-114.3763088364233
 30
0.0
 10
93.61599118753351
 20
-114.5909382851544
 30
0.0
 10
93.76240774565663
 20
-114.6228054183929
 30
0.0
 10
93.86989472479642
 20
-114.6228054183929
 30
0.0
 10
94.03112519350611
 20
-114.6228054183929
 30
0.0
 10
94.20716957280239
 20
-114.5156629488016
 30
0.0
 10
94.20716957280239
 20
-114.2645154879269
 30
0.0
 10
94.20716957280239
 20
-113.9883910847842
 30
0.0
 10
93.99943031504182
 20
-113.9131157484315
 30
0.0
 10
93.86024845743772
 20
-113.9131157484315
 30
0.0
 10
93.82373044529407
 20
-113.9131157484315
 30
0.0
 10
93.65974390019618
 20
-113.9131157484315
 30
0.0
 10
93.55708005473574
 20
-114.0522976060355
 30
0.0
 10
93.55708005473574
 20
-114.0522976060355
 30
0.0
 10
93.35450844020305
 20
-114.031627033124
 30
0.0
 10
93.35450844020305
 20
-114.031627033124
 30
0.0
 10
93.35450844020305
 20
-114.031627033124
 30
0.0
 10
93.49369029780713
 20
-113.1186767295328
 30
0.0
 10
93.49369029780713
 20
-113.1186767295328
 30
0.0
 10
93.49369029780713
 20
-113.1186767295328
 30
0.0
 10
94.39286021945735
 20
-113.1186767295328
 30
0.0
 10
94.39286021945735
 20
-113.1186767295328
 30
0.0
 10
94.39286021945735
 20
-113.1186767295328
 30
0.0
 10
94.39286021945735
 20
-113.3288275541331
 30
0.0
 10
94.39286021945735
 20
-113.3288275541331
 30
0.0
 10
94.39286021945735
 20
-113.3288275541331
 30
0.0
 10
93.68179251130178
 20
-113.3288275541331
 30
0.0
 10
93.68179251130178
 20
-113.3288275541331
 30
0.0
 10
93.68179251130178
 20
-113.3288275541331
 30
0.0
 10
93.60600041062628
 20
-113.7853027059287
 30
0.0
 10
93.60600041062628
 20
-113.7853027059287
 30
0.0
 10
93.67696937762243
 20
-113.748784693785
 30
0.0
 10
93.77239852256385
 20
-113.7053764906709
 30
0.0
 10
93.90916881332826
 20
-113.7053764906709
 30
0.0
 10
94.20234643912303
 20
-113.7053764906709
 30
0.0
 10
94.4762315302004
 20
-113.9062255574609
 30
0.0
 10
94.4762315302004
 20
-114.2440171697897
 30
0.0
 10
94.4762315302004
 20
-114.5862874062493
 30
0.0
 10
94.2171603497096
 20
-114.8396741791894
 30
0.0
 10
93.86748315795674
 20
-114.8396741791894
 30
0.0
  0
HATCH
  5
94
330
8D
100
AcDbEntity
  8
_U+30EC_U+30A4_U+30E4_U+30FC 1
 62
   179
420
  2234388
100
AcDbHatch
 10
0.0
 20
0.0
 30
0.0
210
0.0
220
0.0
230
1.0
  2
SOLID
 70
     1
 71
     0
 91
        1
 92
        1
 93
        1
 72
     4
 94
        3
 73
     0
 74
     1
 95
       53
 96
       49
 40
0.0
 40
0.0
 40
0.0
 40
0.0
 40
1.0
 40
1.0
 40
1.0
 40
2.0
 40
2.0
 40
2.0
 40
3.0
 40
3.0
 40
3.0
 40
4.0
 40
4.0
 40
4.0
 40
5.0
 40
5.0
 40
5.0
 40
6.0
 40
6.0
 40
6.0
 40
7.0
 40
7.0
 40
7.0
 40
8.0
 40
8.0
 40
8.0
 40
9.0
 40
9.0
 40
9.0
 40
10.0
 40
10.0
 40
10.0
 40
11.0
 40
11.0
 40
11.0
 40
12.0
 40
12.0
 40
12.0
 40
13.0
 40
13.0
 40
13.0
 40
14.0
 40
14.0
 40
14.0
 40
15.0
 40
15.0
 40
15.0
 40
16.0
 40
16.0
 40
16.0
 40
16.0
 10
93.86748315795674
 20
-114.8396741791894
 10
93.7772216562432
 20
-114.8396741791894
 10
93.65974390019618
 20
-114.8214151731176
 10
93.54261065369768
 20
-114.7530300277354
 10
93.34210609645615
 20
-114.6341742334942
 10
93.31764591851088
 20
-114.4927530638247
 10
93.29559730740527
 20
-114.3763088364233
 10
93.29559730740527
 20
-114.3763088364233
 10
93.55225692105638
 20
-114.3763088364233
 10
93.55225692105638
 20
-114.3763088364233
 10
93.61599118753351
 20
-114.5909382851544
 10
93.76240774565663
 20
-114.6228054183929
 10
93.86989472479642
 20
-114.6228054183929
 10
94.03112519350611
 20
-114.6228054183929
 10
94.20716957280239
 20
-114.5156629488016
 10
94.20716957280239
 20
-114.2645154879269
 10
94.20716957280239
 20
-113.9883910847842
 10
93.99943031504182
 20
-113.9131157484315
 10
93.86024845743772
 20
-113.9131157484315
 10
93.82373044529407
 20
-113.9131157484315
 10
93.65974390019618
 20
-113.9131157484315
 10
93.55708005473574
 20
-114.0522976060355
 10
93.55708005473574
 20
-114.0522976060355
 10
93.35450844020305
 20
-114.031627033124
 10
93.35450844020305
 20
-114.031627033124
 10
93.35450844020305
 20
-114.031627033124
 10
93.49369029780713
 20
-113.1186767295328
 10
93.49369029780713
 20
-113.1186767295328
 10
93.49369029780713
 20
-113.1186767295328
 10
94.39286021945735
 20
-113.1186767295328
 10
94.39286021945735
 20
-113.1186767295328
 10
94.39286021945735
 20
-113.1186767295328
 10
94.39286021945735
 20
-113.3288275541331
 10
94.39286021945735
 20
-113.3288275541331
 10
94.39286021945735
 20
-113.3288275541331
 10
93.68179251130178
 20
-113.3288275541331
 10
93.68179251130178
 20
-113.3288275541331
 10
93.68179251130178
 20
-113.3288275541331
 10
93.60600041062628
 20
-113.7853027059287
 10
93.60600041062628
 20
-113.7853027059287
 10
93.67696937762243
 20
-113.748784693785
 10
93.77239852256385
 20
-113.7053764906709
 10
93.90916881332826
 20
-113.7053764906709
 10
94.20234643912303
 20
-113.7053764906709
 10
94.4762315302004
 20
-113.9062255574609
 10
94.4762315302004
 20
-114.2440171697897
 10
94.4762315302004
 20
-114.5862874062493
 10
94.2171603497096
 20
-114.8396741791894
 10
93.86748315795674
 20
-114.8396741791894
 97
        0
 97
        0
 75
     2
 76
     1
 98
        0
  0
ENDBLK
  5
90
330
8D
100
AcDbEntity
  8
0
100
AcDbBlockEnd
  0
BLOCK
  5
A3
330
A1
100
AcDbEntity
  8
0
100
AcDbBlockBegin
  2
block 3
 70
     0
 10
0.0
 20
0.0
 30
0.0
  3
block 3
  1

  0
SPLINE
  5
A5
330
A1
100
AcDbEntity
  8
_U+30EC_U+30A4_U+30E4_U+30FC 1
370
     0
100
AcDbSpline
210
0.0
220
0.0
230
1.0
 70
    11
 71
     3
 72
    26
 73
    22
 74
     0
 42
0.0000000001
 43
0.0000000001
 12
1.0
 22
0.0
 32
0.0
 13
1.0
 23
0.0
 33
0.0
 40
0.0
 40
0.0
 40
0.0
 40
0.0
 40
1.0
 40
1.0
 40
1.0
 40
2.0
 40
2.0
 40
2.0
 40
3.0
 40
3.0
 40
3.0
 40
4.0
 40
4.0
 40
4.0
 40
5.0
 40
5.0
 40
5.0
 40
6.0
 40
6.0
 40
6.0
 40
7.0
 40
7.0
 40
7.0
 40
7.0
 10
82.47575817165537
 20
-143.4083007453979
 30
0.0
 10
82.47575817165537
 20
-143.4083007453979
 30
0.0
 10
82.47575817165537
 20
-142.2169867265985
 30
0.0
 10
82.47575817165537
 20
-142.2169867265985
 30
0.0
 10
82.47575817165537
 20
-142.2169867265985
 30
0.0
 10
82.09438610143822
 20
-142.2169867265985
 30
0.0
 10
82.09438610143822
 20
-142.2169867265985
 30
0.0
 10
82.09438610143822
 20
-142.2169867265985
 30
0.0
 10
82.09438610143822
 20
-142.0571342960829
 30
0.0
 10
82.09438610143822
 20
-142.0571342960829
 30
0.0
 10
82.47816973849504
 20
-142.0412868568508
 30
0.0
 10
82.53191322806494
 20
-141.8655869871031
 30
0.0
 10
82.56601967336891
 20
-141.7422525687311
 30
0.0
 10
82.56601967336891
 20
-141.7422525687311
 30
0.0
 10
82.73482935214616
 20
-141.7422525687311
 30
0.0
 10
82.73482935214616
 20
-141.7422525687311
 30
0.0
 10
82.73482935214616
 20
-141.7422525687311
 30
0.0
 10
82.73482935214616
 20
-143.4083007453979
 30
0.0
 10
82.73482935214616
 20
-143.4083007453979
 30
0.0
 10
82.73482935214616
 20
-143.4083007453979
 30
0.0
 10
82.47575817165537
 20
-143.4083007453979
 30
0.0
 10
82.47575817165537
 20
-143.4083007453979
 30
0.0
  0
HATCH
  5
A6
330
A1
100
AcDbEntity
  8
_U+30EC_U+30A4_U+30E4_U+30FC 1
 62
   179
420
  2234388
100
AcDbHatch
 10
0.0
 20
0.0
 30
0.0
210
0.0
220
0.0
230
1.0
  2
SOLID
 70
     1
 71
     0
 91
        1
 92
        1
 93
        1
 72
     4
 94
        3
 73
     0
 74
     1
 95
       26
 96
       22
 40
0.0
 40
0.0
 40
0.0
 40
0.0
 40
1.0
 40
1.0
 40
1.0
 40
2.0
 40
2.0
 40
2.0
 40
3.0
 40
3.0
 40
3.0
 40
4.0
 40
4.0
 40
4.0
 40
5.0
 40
5.0
 40
5.0
 40
6.0
 40
6.0
 40
6.0
 40
7.0
 40
7.0
 40
7.0
 40
7.0
 10
82.47575817165537
 20
-143.4083007453979
 10
82.47575817165537
 20
-143.4083007453979
 10
82.47575817165537
 20
-142.2169867265985
 10
82.47575817165537
 20
-142.2169867265985
 10
82.47575817165537
 20
-142.2169867265985
 10
82.09438610143822
 20
-142.2169867265985
 10
82.09438610143822
 20
-142.2169867265985
 10
82.09438610143822
 20
-142.2169867265985
 10
82.09438610143822
 20
-142.0571342960829
 10
82.09438610143822
 20
-142.0571342960829
 10
82.47816973849504
 20
-142.0412868568508
 10
82.53191322806494
 20
-141.8655869871031
 10
82.56601967336891
 20
-141.7422525687311
 10
82.56601967336891
 20
-141.7422525687311
 10
82.73482935214616
 20
-141.7422525687311
 10
82.73482935214616
 20
-141.7422525687311
 10
82.73482935214616
 20
-141.7422525687311
 10
82.73482935214616
 20
-143.4083007453979
 10
82.73482935214616
 20
-143.4083007453979
 10
82.73482935214616
 20
-143.4083007453979
 10
82.47575817165537
 20
-143.4083007453979
 10
82.47575817165537
 20
-143.4083007453979
 97
        0
 97
        0
 75
     2
 76
     1
 98
        0
  0
SPLINE
  5
A7
330
A1
100
AcDbEntity
  8
_U+30EC_U+30A4_U+30E4_U+30FC 1
370
     0
100
AcDbSpline
210
0.0
220
0.0
230
1.0
 70
    11
 71
     3
 72
    53
 73
    49
 74
     0
 42
0.0000000001
 43
0.0000000001
 12
1.0
 22
0.0
 32
0.0
 13
1.0
 23
0.0
 33
0.0
 40
0.0
 40
0.0
 40
0.0
 40
0.0
 40
1.0
 40
1.0
 40
1.0
 40
2.0
 40
2.0
 40
2.0
 40
3.0
 40
3.0
 40
3.0
 40
4.0
 40
4.0
 40
4.0
 40
5.0
 40
5.0
 40
5.0
 40
6.0
 40
6.0
 40
6.0
 40
7.0
 40
7.0
 40
7.0
 40
8.0
 40
8.0
 40
8.0
 40
9.0
 40
9.0
 40
9.0
 40
10.0
 40
10.0
 40
10.0
 40
11.0
 40
11.0
 40
11.0
 40
12.0
 40
12.0
 40
12.0
 40
13.0
 40
13.0
 40
13.0
 40
14.0
 40
14.0
 40
14.0
 40
15.0
 40
15.0
 40
15.0
 40
16.0
 40
16.0
 40
16.0
 40
16.0
 10
83.8675767476963
 20
-143.4630777636134
 30
0.0
 10
83.77731524598276
 20
-143.4630777636134
 30
0.0
 10
83.65983748993574
 20
-143.4448187575416
 30
0.0
 10
83.54270424343724
 20
-143.3762613573851
 30
0.0
 10
83.3421996861957
 20
-143.2577500726925
 30
0.0
 10
83.31773950825043
 20
-143.1161566482487
 30
0.0
 10
83.29569089714484
 20
-142.9997124208473
 30
0.0
 10
83.29569089714484
 20
-142.9997124208473
 30
0.0
 10
83.55235051079595
 20
-142.9997124208473
 30
0.0
 10
83.55235051079595
 20
-142.9997124208473
 30
0.0
 10
83.61608477727306
 20
-143.2143418695784
 30
0.0
 10
83.76250133539618
 20
-143.2463812575912
 30
0.0
 10
83.86998831453597
 20
-143.2463812575912
 30
0.0
 10
84.0315632927942
 20
-143.2463812575912
 30
0.0
 10
84.20726316254193
 20
-143.1388942784514
 30
0.0
 10
84.20726316254193
 20
-142.8880913271252
 30
0.0
 10
84.20726316254193
 20
-142.6117946692082
 30
0.0
 10
83.99952390478137
 20
-142.5363470780812
 30
0.0
 10
83.86034204717728
 20
-142.5363470780812
 30
0.0
 10
83.82382403503362
 20
-142.5363470780812
 30
0.0
 10
83.65983748993574
 20
-142.5363470780812
 30
0.0
 10
83.5571736444753
 20
-142.6755289356853
 30
0.0
 10
83.5571736444753
 20
-142.6755289356853
 30
0.0
 10
83.3546020299426
 20
-142.6552028723223
 30
0.0
 10
83.3546020299426
 20
-142.6552028723223
 30
0.0
 10
83.3546020299426
 20
-142.6552028723223
 30
0.0
 10
83.4937838875467
 20
-141.7422525687311
 30
0.0
 10
83.4937838875467
 20
-141.7422525687311
 30
0.0
 10
83.4937838875467
 20
-141.7422525687311
 30
0.0
 10
84.39295380919691
 20
-141.7422525687311
 30
0.0
 10
84.39295380919691
 20
-141.7422525687311
 30
0.0
 10
84.39295380919691
 20
-141.7422525687311
 30
0.0
 10
84.39295380919691
 20
-141.9520588837828
 30
0.0
 10
84.39295380919691
 20
-141.9520588837828
 30
0.0
 10
84.39295380919691
 20
-141.9520588837828
 30
0.0
 10
83.68188610104134
 20
-141.9520588837828
 30
0.0
 10
83.68188610104134
 20
-141.9520588837828
 30
0.0
 10
83.68188610104134
 20
-141.9520588837828
 30
0.0
 10
83.60609400036584
 20
-142.4085340355784
 30
0.0
 10
83.60609400036584
 20
-142.4085340355784
 30
0.0
 10
83.67706296736199
 20
-142.3720160234348
 30
0.0
 10
83.77249211230341
 20
-142.3286078203206
 30
0.0
 10
83.90926240306783
 20
-142.3286078203206
 30
0.0
 10
84.20244002886258
 20
-142.3286078203206
 30
0.0
 10
84.47632511993994
 20
-142.5294568871107
 30
0.0
 10
84.47632511993994
 20
-142.8674207542137
 30
0.0
 10
84.47632511993994
 20
-143.2098632454475
 30
0.0
 10
84.21725393944917
 20
-143.4630777636134
 30
0.0
 10
83.8675767476963
 20
-143.4630777636134
 30
0.0
  0
HATCH
  5
A8
330
A1
100
AcDbEntity
  8
_U+30EC_U+30A4_U+30E4_U+30FC 1
 62
   179
420
  2234388
100
AcDbHatch
 10
0.0
 20
0.0
 30
0.0
210
0.0
220
0.0
230
1.0
  2
SOLID
 70
     1
 71
     0
 91
        1
 92
        1
 93
        1
 72
     4
 94
        3
 73
     0
 74
     1
 95
       53
 96
       49
 40
0.0
 40
0.0
 40
0.0
 40
0.0
 40
1.0
 40
1.0
 40
1.0
 40
2.0
 40
2.0
 40
2.0
 40
3.0
 40
3.0
 40
3.0
 40
4.0
 40
4.0
 40
4.0
 40
5.0
 40
5.0
 40
5.0
 40
6.0
 40
6.0
 40
6.0
 40
7.0
 40
7.0
 40
7.0
 40
8.0
 40
8.0
 40
8.0
 40
9.0
 40
9.0
 40
9.0
 40
10.0
 40
10.0
 40
10.0
 40
11.0
 40
11.0
 40
11.0
 40
12.0
 40
12.0
 40
12.0
 40
13.0
 40
13.0
 40
13.0
 40
14.0
 40
14.0
 40
14.0
 40
15.0
 40
15.0
 40
15.0
 40
16.0
 40
16.0
 40
16.0
 40
16.0
 10
83.8675767476963
 20
-143.4630777636134
 10
83.77731524598276
 20
-143.4630777636134
 10
83.65983748993574
 20
-143.4448187575416
 10
83.54270424343724
 20
-143.3762613573851
 10
83.3421996861957
 20
-143.2577500726925
 10
83.31773950825043
 20
-143.1161566482487
 10
83.29569089714484
 20
-142.9997124208473
 10
83.29569089714484
 20
-142.9997124208473
 10
83.55235051079595
 20
-142.9997124208473
 10
83.55235051079595
 20
-142.9997124208473
 10
83.61608477727306
 20
-143.2143418695784
 10
83.76250133539618
 20
-143.2463812575912
 10
83.86998831453597
 20
-143.2463812575912
 10
84.0315632927942
 20
-143.2463812575912
 10
84.20726316254193
 20
-143.1388942784514
 10
84.20726316254193
 20
-142.8880913271252
 10
84.20726316254193
 20
-142.6117946692082
 10
83.99952390478137
 20
-142.5363470780812
 10
83.86034204717728
 20
-142.5363470780812
 10
83.82382403503362
 20
-142.5363470780812
 10
83.65983748993574
 20
-142.5363470780812
 10
83.5571736444753
 20
-142.6755289356853
 10
83.5571736444753
 20
-142.6755289356853
 10
83.3546020299426
 20
-142.6552028723223
 10
83.3546020299426
 20
-142.6552028723223
 10
83.3546020299426
 20
-142.6552028723223
 10
83.4937838875467
 20
-141.7422525687311
 10
83.4937838875467
 20
-141.7422525687311
 10
83.4937838875467
 20
-141.7422525687311
 10
84.39295380919691
 20
-141.7422525687311
 10
84.39295380919691
 20
-141.7422525687311
 10
84.39295380919691
 20
-141.7422525687311
 10
84.39295380919691
 20
-141.9520588837828
 10
84.39295380919691
 20
-141.9520588837828
 10
84.39295380919691
 20
-141.9520588837828
 10
83.68188610104134
 20
-141.9520588837828
 10
83.68188610104134
 20
-141.9520588837828
 10
83.68188610104134
 20
-141.9520588837828
 10
83.60609400036584
 20
-142.4085340355784
 10
83.60609400036584
 20
-142.4085340355784
 10
83.67706296736199
 20
-142.3720160234348
 10
83.77249211230341
 20
-142.3286078203206
 10
83.90926240306783
 20
-142.3286078203206
 10
84.20244002886258
 20
-142.3286078203206
 10
84.47632511993994
 20
-142.5294568871107
 10
84.47632511993994
 20
-142.8674207542137
 10
84.47632511993994
 20
-143.2098632454475
 10
84.21725393944917
 20
-143.4630777636134
 10
83.8675767476963
 20
-143.4630777636134
 97
        0
 97
        0
 75
     2
 76
     1
 98
        0
  0
ENDBLK
  5
A4
330
A1
100
AcDbEntity
  8
0
100
AcDbBlockEnd
  0
BLOCK
  5
B7
330
B5
100
AcDbEntity
  8
0
100
AcDbBlockBegin
  2
block 4
 70
     0
 10
0.0
 20
0.0
 30
0.0
  3
block 4
  1

  0
POLYLINE
  5
B9
330
B5
100
AcDbEntity
  8
_U+30EC_U+30A4_U+30E4_U+30FC 1
370
     0
100
AcDb2dPolyline
 66
     1
 10
0.0
 20
0.0
 30
0.0
  0
VERTEX
  5
BA
330
B9
100
AcDbEntity
  8
_U+30EC_U+30A4_U+30E4_U+30FC 1
370
     0
100
AcDbVertex
100
AcDb2dVertex
 10
68.05372719652824
 20
-132.3481661995519
 30
0.0
  0
VERTEX
  5
BB
330
B9
100
AcDbEntity
  8
_U+30EC_U+30A4_U+30E4_U+30FC 1
370
     0
100
AcDbVertex
100
AcDb2dVertex
 10
68.05372719652824
 20
-132.3526448236827
 30
0.0
  0
VERTEX
  5
BC
330
B9
100
AcDbEntity
  8
_U+30EC_U+30A4_U+30E4_U+30FC 1
370
     0
100
AcDbVertex
100
AcDb2dVertex
 10
68.19290905413233
 20
-132.6013807177177
 30
0.0
  0
VERTEX
  5
BD
330
B9
100
AcDbEntity
  8
_U+30EC_U+30A4_U+30E4_U+30FC 1
370
     0
100
AcDbVertex
100
AcDb2dVertex
 10
68.03994681458724
 20
-132.6389322585069
 30
0.0
  0
VERTEX
  5
BE
330
B9
100
AcDbEntity
  8
_U+30EC_U+30A4_U+30E4_U+30FC 1
370
     0
100
AcDbVertex
100
AcDb2dVertex
 10
67.86665851167918
 20
-132.3261175884463
 30
0.0
  0
VERTEX
  5
BF
330
B9
100
AcDbEntity
  8
_U+30EC_U+30A4_U+30E4_U+30FC 1
370
     0
100
AcDbVertex
100
AcDb2dVertex
 10
67.86665851167918
 20
-132.1610975147028
 30
0.0
  0
VERTEX
  5
C0
330
B9
100
AcDbEntity
  8
_U+30EC_U+30A4_U+30E4_U+30FC 1
370
     0
100
AcDbVertex
100
AcDb2dVertex
 10
69.35011662762776
 20
-132.1610975147028
 30
0.0
  0
VERTEX
  5
C1
330
B9
100
AcDbEntity
  8
_U+30EC_U+30A4_U+30E4_U+30FC 1
370
     0
100
AcDbVertex
100
AcDb2dVertex
 10
69.35011662762776
 20
-132.3481661995519
 30
0.0
  0
VERTEX
  5
C2
330
B9
100
AcDbEntity
  8
_U+30EC_U+30A4_U+30E4_U+30FC 1
370
     0
100
AcDbVertex
100
AcDb2dVertex
 10
68.05372719652824
 20
-132.3481661995519
 30
0.0
  0
SEQEND
  5
C3
330
B9
100
AcDbEntity
  8
_U+30EC_U+30A4_U+30E4_U+30FC 1
370
     0
  0
HATCH
  5
C4
330
B5
100
AcDbEntity
  8
_U+30EC_U+30A4_U+30E4_U+30FC 1
 62
   179
420
  2234388
100
AcDbHatch
 10
0.0
 20
0.0
 30
0.0
210
0.0
220
0.0
230
1.0
  2
SOLID
 70
     1
 71
     0
 91
        1
 92
        1
 93
        8
 72
     1
 10
68.05372719652824
 20
-132.3481661995519
 11
68.05372719652824
 21
-132.3526448236827
 72
     1
 10
68.05372719652824
 20
-132.3526448236827
 11
68.19290905413233
 21
-132.6013807177177
 72
     1
 10
68.19290905413233
 20
-132.6013807177177
 11
68.03994681458724
 21
-132.6389322585069
 72
     1
 10
68.03994681458724
 20
-132.6389322585069
 11
67.86665851167918
 21
-132.3261175884463
 72
     1
 10
67.86665851167918
 20
-132.3261175884463
 11
67.86665851167918
 21
-132.1610975147028
 72
     1
 10
67.86665851167918
 20
-132.1610975147028
 11
69.35011662762776
 21
-132.1610975147028
 72
     1
 10
69.35011662762776
 20
-132.1610975147028
 11
69.35011662762776
 21
-132.3481661995519
 72
     1
 10
69.35011662762776
 20
-132.3481661995519
 11
68.05372719652824
 21
-132.3481661995519
 97
        0
 75
     2
 76
     1
 98
        0
  0
SPLINE
  5
C5
330
B5
100
AcDbEntity
  8
_U+30EC_U+30A4_U+30E4_U+30FC 1
370
     0
100
AcDbSpline
210
0.0
220
0.0
230
1.0
 70
    11
 71
     3
 72
    41
 73
    37
 74
     0
 42
0.0000000001
 43
0.0000000001
 12
1.0
 22
0.0
 32
0.0
 13
1.0
 23
0.0
 33
0.0
 40
0.0
 40
0.0
 40
0.0
 40
0.0
 40
1.0
 40
1.0
 40
1.0
 40
2.0
 40
2.0
 40
2.0
 40
3.0
 40
3.0
 40
3.0
 40
4.0
 40
4.0
 40
4.0
 40
5.0
 40
5.0
 40
5.0
 40
6.0
 40
6.0
 40
6.0
 40
7.0
 40
7.0
 40
7.0
 40
8.0
 40
8.0
 40
8.0
 40
9.0
 40
9.0
 40
9.0
 40
10.0
 40
10.0
 40
10.0
 40
11.0
 40
11.0
 40
11.0
 40
12.0
 40
12.0
 40
12.0
 40
12.0
 10
69.21093477002366
 20
-131.5275444549654
 30
0.0
 10
69.21334633686334
 20
-131.4858587995938
 30
0.0
 10
69.21093477002366
 20
-131.4372829532518
 30
0.0
 10
69.20163301221348
 20
-131.3714816294835
 30
0.0
 10
69.18819713982101
 20
-131.2591715166644
 30
0.0
 10
69.14031031257603
 20
-131.1534070852672
 30
0.0
 10
69.05797253047857
 20
-131.0721028318153
 30
0.0
 10
68.96908906695911
 20
-130.9773627059709
 30
0.0
 10
68.83886445761668
 20
-130.9088053058145
 30
0.0
 10
68.66316458786893
 20
-130.8826225801266
 30
0.0
 10
68.66316458786893
 20
-130.8826225801266
 30
0.0
 10
68.66316458786893
 20
-130.8891682615485
 30
0.0
 10
68.66316458786893
 20
-130.8891682615485
 30
0.0
 10
68.7634168664897
 20
-130.9687499672578
 30
0.0
 10
68.82301701838453
 20
-131.0831271373681
 30
0.0
 10
68.82301701838453
 20
-131.2285101668457
 30
0.0
 10
68.82301701838453
 20
-131.4858587995938
 30
0.0
 10
68.62216795159446
 20
-131.6508788733373
 30
0.0
 10
68.36654186658892
 20
-131.6508788733373
 30
0.0
 10
68.0878336418322
 20
-131.6508788733373
 30
0.0
 10
67.84150931463685
 20
-131.4527858829354
 30
0.0
 10
67.84150931463685
 20
-131.1602972762377
 30
0.0
 10
67.84150931463685
 20
-130.8674641599915
 30
0.0
 10
68.08576658454106
 20
-130.6869411565644
 30
0.0
 10
68.46679414520969
 20
-130.6869411565644
 30
0.0
 10
68.79304468766286
 20
-130.6869411565644
 30
0.0
 10
69.02145451833492
 20
-130.792361078413
 30
0.0
 10
69.16511500006983
 20
-130.9332654837598
 30
0.0
 10
69.27466903650078
 20
-131.0431640297392
 30
0.0
 10
69.34563800349693
 20
-131.1954372501873
 30
0.0
 10
69.36389700956875
 20
-131.3494330183779
 30
0.0
 10
69.3728542578304
 20
-131.4200574758256
 30
0.0
 10
69.37733288196122
 20
-131.4834472327541
 30
0.0
 10
69.37526582467008
 20
-131.5275444549654
 30
0.0
 10
69.37526582467008
 20
-131.5275444549654
 30
0.0
 10
69.21093477002366
 20
-131.5275444549654
 30
0.0
 10
69.21093477002366
 20
-131.5275444549654
 30
0.0
  0
SPLINE
  5
C6
330
B5
100
AcDbEntity
  8
_U+30EC_U+30A4_U+30E4_U+30FC 1
370
     0
100
AcDbSpline
210
0.0
220
0.0
230
1.0
 70
    11
 71
     3
 72
    23
 73
    19
 74
     0
 42
0.0000000001
 43
0.0000000001
 12
1.0
 22
0.0
 32
0.0
 13
1.0
 23
0.0
 33
0.0
 40
0.0
 40
0.0
 40
0.0
 40
0.0
 40
1.0
 40
1.0
 40
1.0
 40
2.0
 40
2.0
 40
2.0
 40
3.0
 40
3.0
 40
3.0
 40
4.0
 40
4.0
 40
4.0
 40
5.0
 40
5.0
 40
5.0
 40
6.0
 40
6.0
 40
6.0
 40
6.0
 10
67.99447155418194
 20
-131.177522753664
 30
0.0
 10
67.99447155418194
 20
-131.3408202796648
 30
0.0
 10
68.14502222688736
 20
-131.4572645070662
 30
0.0
 10
68.35482854193907
 20
-131.4572645070662
 30
0.0
 10
68.539830169497
 20
-131.4572645070662
 30
0.0
 10
68.67005477883943
 20
-131.3494330183779
 30
0.0
 10
68.67005477883943
 20
-131.1820013777948
 30
0.0
 10
68.67005477883943
 20
-131.0521212780009
 30
0.0
 10
68.60390894552263
 20
-130.9508354707345
 30
0.0
 10
68.51468097245467
 20
-130.8981255098102
 30
0.0
 10
68.49642196638284
 20
-130.8891682615485
 30
0.0
 10
68.4736843361802
 20
-130.8826225801266
 30
0.0
 10
68.44164494816737
 20
-130.8826225801266
 30
0.0
 10
68.18601886316183
 20
-130.8805555228354
 30
0.0
 10
67.99447155418194
 20
-130.9728840818401
 30
0.0
 10
67.99447155418194
 20
-131.1754556963728
 30
0.0
 10
67.99447155418194
 20
-131.1754556963728
 30
0.0
 10
67.99447155418194
 20
-131.177522753664
 30
0.0
 10
67.99447155418194
 20
-131.177522753664
 30
0.0
  0
HATCH
  5
C7
330
B5
100
AcDbEntity
  8
_U+30EC_U+30A4_U+30E4_U+30FC 1
 62
   179
420
  2234388
100
AcDbHatch
 10
0.0
 20
0.0
 30
0.0
210
0.0
220
0.0
230
1.0
  2
SOLID
 70
     1
 71
     0
 91
        2
 92
        1
 93
        1
 72
     4
 94
        3
 73
     0
 74
     1
 95
       41
 96
       37
 40
0.0
 40
0.0
 40
0.0
 40
0.0
 40
1.0
 40
1.0
 40
1.0
 40
2.0
 40
2.0
 40
2.0
 40
3.0
 40
3.0
 40
3.0
 40
4.0
 40
4.0
 40
4.0
 40
5.0
 40
5.0
 40
5.0
 40
6.0
 40
6.0
 40
6.0
 40
7.0
 40
7.0
 40
7.0
 40
8.0
 40
8.0
 40
8.0
 40
9.0
 40
9.0
 40
9.0
 40
10.0
 40
10.0
 40
10.0
 40
11.0
 40
11.0
 40
11.0
 40
12.0
 40
12.0
 40
12.0
 40
12.0
 10
69.21093477002366
 20
-131.5275444549654
 10
69.21334633686334
 20
-131.4858587995938
 10
69.21093477002366
 20
-131.4372829532518
 10
69.20163301221348
 20
-131.3714816294835
 10
69.18819713982101
 20
-131.2591715166644
 10
69.14031031257603
 20
-131.1534070852672
 10
69.05797253047857
 20
-131.0721028318153
 10
68.96908906695911
 20
-130.9773627059709
 10
68.83886445761668
 20
-130.9088053058145
 10
68.66316458786893
 20
-130.8826225801266
 10
68.66316458786893
 20
-130.8826225801266
 10
68.66316458786893
 20
-130.8891682615485
 10
68.66316458786893
 20
-130.8891682615485
 10
68.7634168664897
 20
-130.9687499672578
 10
68.82301701838453
 20
-131.0831271373681
 10
68.82301701838453
 20
-131.2285101668457
 10
68.82301701838453
 20
-131.4858587995938
 10
68.62216795159446
 20
-131.6508788733373
 10
68.36654186658892
 20
-131.6508788733373
 10
68.0878336418322
 20
-131.6508788733373
 10
67.84150931463685
 20
-131.4527858829354
 10
67.84150931463685
 20
-131.1602972762377
 10
67.84150931463685
 20
-130.8674641599915
 10
68.08576658454106
 20
-130.6869411565644
 10
68.46679414520969
 20
-130.6869411565644
 10
68.79304468766286
 20
-130.6869411565644
 10
69.02145451833492
 20
-130.792361078413
 10
69.16511500006983
 20
-130.9332654837598
 10
69.27466903650078
 20
-131.0431640297392
 10
69.34563800349693
 20
-131.1954372501873
 10
69.36389700956875
 20
-131.3494330183779
 10
69.3728542578304
 20
-131.4200574758256
 10
69.37733288196122
 20
-131.4834472327541
 10
69.37526582467008
 20
-131.5275444549654
 10
69.37526582467008
 20
-131.5275444549654
 10
69.21093477002366
 20
-131.5275444549654
 10
69.21093477002366
 20
-131.5275444549654
 97
        0
 97
        0
 92
        1
 93
        1
 72
     4
 94
        3
 73
     0
 74
     1
 95
       23
 96
       19
 40
0.0
 40
0.0
 40
0.0
 40
0.0
 40
1.0
 40
1.0
 40
1.0
 40
2.0
 40
2.0
 40
2.0
 40
3.0
 40
3.0
 40
3.0
 40
4.0
 40
4.0
 40
4.0
 40
5.0
 40
5.0
 40
5.0
 40
6.0
 40
6.0
 40
6.0
 40
6.0
 10
67.99447155418194
 20
-131.177522753664
 10
67.99447155418194
 20
-131.3408202796648
 10
68.14502222688736
 20
-131.4572645070662
 10
68.35482854193907
 20
-131.4572645070662
 10
68.539830169497
 20
-131.4572645070662
 10
68.67005477883943
 20
-131.3494330183779
 10
68.67005477883943
 20
-131.1820013777948
 10
68.67005477883943
 20
-131.0521212780009
 10
68.60390894552263
 20
-130.9508354707345
 10
68.51468097245467
 20
-130.8981255098102
 10
68.49642196638284
 20
-130.8891682615485
 10
68.4736843361802
 20
-130.8826225801266
 10
68.44164494816737
 20
-130.8826225801266
 10
68.18601886316183
 20
-130.8805555228354
 10
67.99447155418194
 20
-130.9728840818401
 10
67.99447155418194
 20
-131.1754556963728
 10
67.99447155418194
 20
-131.1754556963728
 10
67.99447155418194
 20
-131.177522753664
 10
67.99447155418194
 20
-131.177522753664
 97
        0
 97
        0
 75
     2
 76
     1
 98
        0
  0
SPLINE
  5
C8
330
B5
100
AcDbEntity
  8
_U+30EC_U+30A4_U+30E4_U+30FC 1
370
     0
100
AcDbSpline
210
0.0
220
0.0
230
1.0
 70
    11
 71
     3
 72
    20
 73
    16
 74
     0
 42
0.0000000001
 43
0.0000000001
 12
1.0
 22
0.0
 32
0.0
 13
1.0
 23
0.0
 33
0.0
 40
0.0
 40
0.0
 40
0.0
 40
0.0
 40
1.0
 40
1.0
 40
1.0
 40
2.0
 40
2.0
 40
2.0
 40
3.0
 40
3.0
 40
3.0
 40
4.0
 40
4.0
 40
4.0
 40
5.0
 40
5.0
 40
5.0
 40
5.0
 10
69.37526582467008
 20
-130.3679253146302
 30
0.0
 10
69.37526582467008
 20
-130.4430283962087
 30
0.0
 10
69.31359861548411
 20
-130.495738357133
 30
0.0
 10
69.23126083338663
 20
-130.495738357133
 30
0.0
 10
69.14926756083769
 20
-130.495738357133
 30
0.0
 10
69.08760035165172
 20
-130.4409613389175
 30
0.0
 10
69.08760035165172
 20
-130.363791200048
 30
0.0
 10
69.08760035165172
 20
-130.2866210611784
 30
0.0
 10
69.14685599399802
 20
-130.2335665907055
 30
0.0
 10
69.23126083338663
 20
-130.2335665907055
 30
0.0
 10
69.31359861548411
 20
-130.2335665907055
 30
0.0
 10
69.37526582467008
 20
-130.2866210611784
 30
0.0
 10
69.37526582467008
 20
-130.3658582573391
 30
0.0
 10
69.37526582467008
 20
-130.3658582573391
 30
0.0
 10
69.37526582467008
 20
-130.3679253146302
 30
0.0
 10
69.37526582467008
 20
-130.3679253146302
 30
0.0
  0
HATCH
  5
C9
330
B5
100
AcDbEntity
  8
_U+30EC_U+30A4_U+30E4_U+30FC 1
 62
   179
420
  2234388
100
AcDbHatch
 10
0.0
 20
0.0
 30
0.0
210
0.0
220
0.0
230
1.0
  2
SOLID
 70
     1
 71
     0
 91
        1
 92
        1
 93
        1
 72
     4
 94
        3
 73
     0
 74
     1
 95
       20
 96
       16
 40
0.0
 40
0.0
 40
0.0
 40
0.0
 40
1.0
 40
1.0
 40
1.0
 40
2.0
 40
2.0
 40
2.0
 40
3.0
 40
3.0
 40
3.0
 40
4.0
 40
4.0
 40
4.0
 40
5.0
 40
5.0
 40
5.0
 40
5.0
 10
69.37526582467008
 20
-130.3679253146302
 10
69.37526582467008
 20
-130.4430283962087
 10
69.31359861548411
 20
-130.495738357133
 10
69.23126083338663
 20
-130.495738357133
 10
69.14926756083769
 20
-130.495738357133
 10
69.08760035165172
 20
-130.4409613389175
 10
69.08760035165172
 20
-130.363791200048
 10
69.08760035165172
 20
-130.2866210611784
 10
69.14685599399802
 20
-130.2335665907055
 10
69.23126083338663
 20
-130.2335665907055
 10
69.31359861548411
 20
-130.2335665907055
 10
69.37526582467008
 20
-130.2866210611784
 10
69.37526582467008
 20
-130.3658582573391
 10
69.37526582467008
 20
-130.3658582573391
 10
69.37526582467008
 20
-130.3679253146302
 10
69.37526582467008
 20
-130.3679253146302
 97
        0
 97
        0
 75
     2
 76
     1
 98
        0
  0
SPLINE
  5
CA
330
B5
100
AcDbEntity
  8
_U+30EC_U+30A4_U+30E4_U+30FC 1
370
     0
100
AcDbSpline
210
0.0
220
0.0
230
1.0
 70
    11
 71
     3
 72
    38
 73
    34
 74
     0
 42
0.0000000001
 43
0.0000000001
 12
1.0
 22
0.0
 32
0.0
 13
1.0
 23
0.0
 33
0.0
 40
0.0
 40
0.0
 40
0.0
 40
0.0
 40
1.0
 40
1.0
 40
1.0
 40
2.0
 40
2.0
 40
2.0
 40
3.0
 40
3.0
 40
3.0
 40
4.0
 40
4.0
 40
4.0
 40
5.0
 40
5.0
 40
5.0
 40
6.0
 40
6.0
 40
6.0
 40
7.0
 40
7.0
 40
7.0
 40
8.0
 40
8.0
 40
8.0
 40
9.0
 40
9.0
 40
9.0
 40
10.0
 40
10.0
 40
10.0
 40
11.0
 40
11.0
 40
11.0
 40
11.0
 10
67.84150931463685
 20
-129.5758978625713
 30
0.0
 10
67.84150931463685
 20
-129.2985676760087
 30
0.0
 10
68.01962075122427
 20
-129.1573187611135
 30
0.0
 10
68.20668943607333
 20
-129.1573187611135
 30
0.0
 10
68.33209091173643
 20
-129.1573187611135
 30
0.0
 10
68.46920571204937
 20
-129.2193304798479
 30
0.0
 10
68.55361055143798
 20
-129.3950303495957
 30
0.0
 10
68.55361055143798
 20
-129.3950303495957
 30
0.0
 10
68.5605007424085
 20
-129.3950303495957
 30
0.0
 10
68.5605007424085
 20
-129.3950303495957
 30
0.0
 10
68.63353676669578
 20
-129.2169189130083
 30
0.0
 10
68.76582843332938
 20
-129.1070203670288
 30
0.0
 10
68.94393986991679
 20
-129.1070203670288
 30
0.0
 10
69.20404457905316
 20
-129.1070203670288
 30
0.0
 10
69.37526582467008
 20
-129.3206162871143
 30
0.0
 10
69.37526582467008
 20
-129.5934678495461
 30
0.0
 10
69.37526582467008
 20
-129.8928466472143
 30
0.0
 10
69.19267576395184
 20
-130.0733696506414
 30
0.0
 10
68.9756347483811
 20
-130.0733696506414
 30
0.0
 10
68.78856606353203
 20
-130.0733696506414
 30
0.0
 10
68.65386283005876
 20
-129.9655381619531
 30
0.0
 10
68.57634818164064
 20
-129.7915608399479
 30
0.0
 10
68.57634818164064
 20
-129.7915608399479
 30
0.0
 10
68.56945799067014
 20
-129.7915608399479
 30
0.0
 10
68.56945799067014
 20
-129.7915608399479
 30
0.0
 10
68.49194334225201
 20
-129.9524467991091
 30
0.0
 10
68.36413029974925
 20
-130.0206596897171
 30
0.0
 10
68.23631725724648
 20
-130.0206596897171
 30
0.0
 10
68.00136174515244
 20
-130.0206596897171
 30
0.0
 10
67.84150931463685
 20
-129.8291123807372
 30
0.0
 10
67.84150931463685
 20
-129.5779649198625
 30
0.0
 10
67.84150931463685
 20
-129.5779649198625
 30
0.0
 10
67.84150931463685
 20
-129.5758978625713
 30
0.0
 10
67.84150931463685
 20
-129.5758978625713
 30
0.0
  0
SPLINE
  5
CB
330
B5
100
AcDbEntity
  8
_U+30EC_U+30A4_U+30E4_U+30FC 1
370
     0
100
AcDbSpline
210
0.0
220
0.0
230
1.0
 70
    11
 71
     3
 72
    20
 73
    16
 74
     0
 42
0.0000000001
 43
0.0000000001
 12
1.0
 22
0.0
 32
0.0
 13
1.0
 23
0.0
 33
0.0
 40
0.0
 40
0.0
 40
0.0
 40
0.0
 40
1.0
 40
1.0
 40
1.0
 40
2.0
 40
2.0
 40
2.0
 40
3.0
 40
3.0
 40
3.0
 40
4.0
 40
4.0
 40
4.0
 40
5.0
 40
5.0
 40
5.0
 40
5.0
 10
67.98516979637176
 20
-129.5824435439933
 30
0.0
 10
67.98516979637176
 20
-129.7429849936059
 30
0.0
 10
68.09472383280271
 20
-129.8311794380283
 30
0.0
 10
68.22253687530548
 20
-129.8311794380283
 30
0.0
 10
68.37102049071974
 20
-129.8332464953195
 30
0.0
 10
68.45094670597754
 20
-129.72334794934
 30
0.0
 10
68.49642196638284
 20
-129.5583278755965
 30
0.0
 10
68.4530137632687
 20
-129.4349934572246
 30
0.0
 10
68.36171873290958
 20
-129.3402533313802
 30
0.0
 10
68.22736000898483
 20
-129.3402533313802
 30
0.0
 10
68.1085042147437
 20
-129.3402533313802
 30
0.0
 10
67.98516979637176
 20
-129.4084662219882
 30
0.0
 10
67.98516979637176
 20
-129.5803764867021
 30
0.0
 10
67.98516979637176
 20
-129.5803764867021
 30
0.0
 10
67.98516979637176
 20
-129.5824435439933
 30
0.0
 10
67.98516979637176
 20
-129.5824435439933
 30
0.0
  0
SPLINE
  5
CC
330
B5
100
AcDbEntity
  8
_U+30EC_U+30A4_U+30E4_U+30FC 1
370
     0
100
AcDbSpline
210
0.0
220
0.0
230
1.0
 70
    11
 71
     3
 72
    20
 73
    16
 74
     0
 42
0.0000000001
 43
0.0000000001
 12
1.0
 22
0.0
 32
0.0
 13
1.0
 23
0.0
 33
0.0
 40
0.0
 40
0.0
 40
0.0
 40
0.0
 40
1.0
 40
1.0
 40
1.0
 40
2.0
 40
2.0
 40
2.0
 40
3.0
 40
3.0
 40
3.0
 40
4.0
 40
4.0
 40
4.0
 40
5.0
 40
5.0
 40
5.0
 40
5.0
 10
69.22919377609549
 20
-129.5865776585756
 30
0.0
 10
69.22919377609549
 20
-129.412944846119
 30
0.0
 10
69.11722817282487
 20
-129.3006347332999
 30
0.0
 10
68.96426593327978
 20
-129.3006347332999
 30
0.0
 10
68.78649900624087
 20
-129.3006347332999
 30
0.0
 10
68.69727103317291
 20
-129.4219020943806
 30
0.0
 10
68.64042695766628
 20
-129.6155164606517
 30
0.0
 10
68.6903808422024
 20
-129.7829481012348
 30
0.0
 10
68.80682506960385
 20
-129.8732096029484
 30
0.0
 10
68.94841849404762
 20
-129.8732096029484
 30
0.0
 10
69.0969021094619
 20
-129.8794107748218
 30
0.0
 10
69.22919377609549
 20
-129.7695122288424
 30
0.0
 10
69.22919377609549
 20
-129.5889892254152
 30
0.0
 10
69.22919377609549
 20
-129.5889892254152
 30
0.0
 10
69.22919377609549
 20
-129.5865776585756
 30
0.0
 10
69.22919377609549
 20
-129.5865776585756
 30
0.0
  0
HATCH
  5
CD
330
B5
100
AcDbEntity
  8
_U+30EC_U+30A4_U+30E4_U+30FC 1
 62
   179
420
  2234388
100
AcDbHatch
 10
0.0
 20
0.0
 30
0.0
210
0.0
220
0.0
230
1.0
  2
SOLID
 70
     1
 71
     0
 91
        3
 92
        1
 93
        1
 72
     4
 94
        3
 73
     0
 74
     1
 95
       38
 96
       34
 40
0.0
 40
0.0
 40
0.0
 40
0.0
 40
1.0
 40
1.0
 40
1.0
 40
2.0
 40
2.0
 40
2.0
 40
3.0
 40
3.0
 40
3.0
 40
4.0
 40
4.0
 40
4.0
 40
5.0
 40
5.0
 40
5.0
 40
6.0
 40
6.0
 40
6.0
 40
7.0
 40
7.0
 40
7.0
 40
8.0
 40
8.0
 40
8.0
 40
9.0
 40
9.0
 40
9.0
 40
10.0
 40
10.0
 40
10.0
 40
11.0
 40
11.0
 40
11.0
 40
11.0
 10
67.84150931463685
 20
-129.5758978625713
 10
67.84150931463685
 20
-129.2985676760087
 10
68.01962075122427
 20
-129.1573187611135
 10
68.20668943607333
 20
-129.1573187611135
 10
68.33209091173643
 20
-129.1573187611135
 10
68.46920571204937
 20
-129.2193304798479
 10
68.55361055143798
 20
-129.3950303495957
 10
68.55361055143798
 20
-129.3950303495957
 10
68.5605007424085
 20
-129.3950303495957
 10
68.5605007424085
 20
-129.3950303495957
 10
68.63353676669578
 20
-129.2169189130083
 10
68.76582843332938
 20
-129.1070203670288
 10
68.94393986991679
 20
-129.1070203670288
 10
69.20404457905316
 20
-129.1070203670288
 10
69.37526582467008
 20
-129.3206162871143
 10
69.37526582467008
 20
-129.5934678495461
 10
69.37526582467008
 20
-129.8928466472143
 10
69.19267576395184
 20
-130.0733696506414
 10
68.9756347483811
 20
-130.0733696506414
 10
68.78856606353203
 20
-130.0733696506414
 10
68.65386283005876
 20
-129.9655381619531
 10
68.57634818164064
 20
-129.7915608399479
 10
68.57634818164064
 20
-129.7915608399479
 10
68.56945799067014
 20
-129.7915608399479
 10
68.56945799067014
 20
-129.7915608399479
 10
68.49194334225201
 20
-129.9524467991091
 10
68.36413029974925
 20
-130.0206596897171
 10
68.23631725724648
 20
-130.0206596897171
 10
68.00136174515244
 20
-130.0206596897171
 10
67.84150931463685
 20
-129.8291123807372
 10
67.84150931463685
 20
-129.5779649198625
 10
67.84150931463685
 20
-129.5779649198625
 10
67.84150931463685
 20
-129.5758978625713
 10
67.84150931463685
 20
-129.5758978625713
 97
        0
 97
        0
 92
        1
 93
        1
 72
     4
 94
        3
 73
     0
 74
     1
 95
       20
 96
       16
 40
0.0
 40
0.0
 40
0.0
 40
0.0
 40
1.0
 40
1.0
 40
1.0
 40
2.0
 40
2.0
 40
2.0
 40
3.0
 40
3.0
 40
3.0
 40
4.0
 40
4.0
 40
4.0
 40
5.0
 40
5.0
 40
5.0
 40
5.0
 10
67.98516979637176
 20
-129.5824435439933
 10
67.98516979637176
 20
-129.7429849936059
 10
68.09472383280271
 20
-129.8311794380283
 10
68.22253687530548
 20
-129.8311794380283
 10
68.37102049071974
 20
-129.8332464953195
 10
68.45094670597754
 20
-129.72334794934
 10
68.49642196638284
 20
-129.5583278755965
 10
68.4530137632687
 20
-129.4349934572246
 10
68.36171873290958
 20
-129.3402533313802
 10
68.22736000898483
 20
-129.3402533313802
 10
68.1085042147437
 20
-129.3402533313802
 10
67.98516979637176
 20
-129.4084662219882
 10
67.98516979637176
 20
-129.5803764867021
 10
67.98516979637176
 20
-129.5803764867021
 10
67.98516979637176
 20
-129.5824435439933
 10
67.98516979637176
 20
-129.5824435439933
 97
        0
 97
        0
 92
        1
 93
        1
 72
     4
 94
        3
 73
     0
 74
     1
 95
       20
 96
       16
 40
0.0
 40
0.0
 40
0.0
 40
0.0
 40
1.0
 40
1.0
 40
1.0
 40
2.0
 40
2.0
 40
2.0
 40
3.0
 40
3.0
 40
3.0
 40
4.0
 40
4.0
 40
4.0
 40
5.0
 40
5.0
 40
5.0
 40
5.0
 10
69.22919377609549
 20
-129.5865776585756
 10
69.22919377609549
 20
-129.412944846119
 10
69.11722817282487
 20
-129.3006347332999
 10
68.96426593327978
 20
-129.3006347332999
 10
68.78649900624087
 20
-129.3006347332999
 10
68.69727103317291
 20
-129.4219020943806
 10
68.64042695766628
 20
-129.6155164606517
 10
68.6903808422024
 20
-129.7829481012348
 10
68.80682506960385
 20
-129.8732096029484
 10
68.94841849404762
 20
-129.8732096029484
 10
69.0969021094619
 20
-129.8794107748218
 10
69.22919377609549
 20
-129.7695122288424
 10
69.22919377609549
 20
-129.5889892254152
 10
69.22919377609549
 20
-129.5889892254152
 10
69.22919377609549
 20
-129.5865776585756
 10
69.22919377609549
 20
-129.5865776585756
 97
        0
 97
        0
 75
     2
 76
     1
 98
        0
  0
ENDBLK
  5
B8
330
B5
100
AcDbEntity
  8
0
100
AcDbBlockEnd
  0
BLOCK
  5
DC
330
DA
100
AcDbEntity
  8
0
100
AcDbBlockBegin
  2
block 5
 70
     0
 10
0.0
 20
0.0
 30
0.0
  3
block 5
  1

  0
POLYLINE
  5
DE
330
DA
100
AcDbEntity
  8
_U+30EC_U+30A4_U+30E4_U+30FC 1
370
     0
100
AcDb2dPolyline
 66
     1
 10
0.0
 20
0.0
 30
0.0
  0
VERTEX
  5
DF
330
DE
100
AcDbEntity
  8
_U+30EC_U+30A4_U+30E4_U+30FC 1
370
     0
100
AcDbVertex
100
AcDb2dVertex
 10
93.60255531514103
 20
-138.4890489020097
 30
0.0
  0
VERTEX
  5
E0
330
DE
100
AcDbEntity
  8
_U+30EC_U+30A4_U+30E4_U+30FC 1
370
     0
100
AcDbVertex
100
AcDb2dVertex
 10
93.97703719438769
 20
-138.4890489020097
 30
0.0
  0
VERTEX
  5
E1
330
DE
100
AcDbEntity
  8
_U+30EC_U+30A4_U+30E4_U+30FC 1
370
     0
100
AcDbVertex
100
AcDb2dVertex
 10
93.97703719438769
 20
-138.7243489236523
 30
0.0
  0
VERTEX
  5
E2
330
DE
100
AcDbEntity
  8
_U+30EC_U+30A4_U+30E4_U+30FC 1
370
     0
100
AcDbVertex
100
AcDb2dVertex
 10
93.60255531514103
 20
-138.7243489236523
 30
0.0
  0
VERTEX
  5
E3
330
DE
100
AcDbEntity
  8
_U+30EC_U+30A4_U+30E4_U+30FC 1
370
     0
100
AcDbVertex
100
AcDb2dVertex
 10
93.60255531514103
 20
-139.431627026774
 30
0.0
  0
VERTEX
  5
E4
330
DE
100
AcDbEntity
  8
_U+30EC_U+30A4_U+30E4_U+30FC 1
370
     0
100
AcDbVertex
100
AcDb2dVertex
 10
93.36070961207649
 20
-139.431627026774
 30
0.0
  0
VERTEX
  5
E5
330
DE
100
AcDbEntity
  8
_U+30EC_U+30A4_U+30E4_U+30FC 1
370
     0
100
AcDbVertex
100
AcDb2dVertex
 10
92.31098901772087
 20
-138.6988552170614
 30
0.0
  0
VERTEX
  5
E6
330
DE
100
AcDbEntity
  8
_U+30EC_U+30A4_U+30E4_U+30FC 1
370
     0
100
AcDbVertex
100
AcDb2dVertex
 10
92.31098901772087
 20
-138.4890489020097
 30
0.0
  0
VERTEX
  5
E7
330
DE
100
AcDbEntity
  8
_U+30EC_U+30A4_U+30E4_U+30FC 1
370
     0
100
AcDbVertex
100
AcDb2dVertex
 10
93.3882703759585
 20
-138.4890489020097
 30
0.0
  0
VERTEX
  5
E8
330
DE
100
AcDbEntity
  8
_U+30EC_U+30A4_U+30E4_U+30FC 1
370
     0
100
AcDbVertex
100
AcDb2dVertex
 10
93.3882703759585
 20
-138.265462205017
 30
0.0
  0
VERTEX
  5
E9
330
DE
100
AcDbEntity
  8
_U+30EC_U+30A4_U+30E4_U+30FC 1
370
     0
100
AcDbVertex
100
AcDb2dVertex
 10
93.60255531514103
 20
-138.265462205017
 30
0.0
  0
VERTEX
  5
EA
330
DE
100
AcDbEntity
  8
_U+30EC_U+30A4_U+30E4_U+30FC 1
370
     0
100
AcDbVertex
100
AcDb2dVertex
 10
93.60255531514103
 20
-138.4890489020097
 30
0.0
  0
SEQEND
  5
EB
330
DE
100
AcDbEntity
  8
_U+30EC_U+30A4_U+30E4_U+30FC 1
370
     0
  0
POLYLINE
  5
EC
330
DA
100
AcDbEntity
  8
_U+30EC_U+30A4_U+30E4_U+30FC 1
370
     0
100
AcDb2dPolyline
 66
     1
 10
0.0
 20
0.0
 30
0.0
  0
VERTEX
  5
ED
330
EC
100
AcDbEntity
  8
_U+30EC_U+30A4_U+30E4_U+30FC 1
370
     0
100
AcDbVertex
100
AcDb2dVertex
 10
92.68064776328818
 20
-138.7243489236523
 30
0.0
  0
VERTEX
  5
EE
330
EC
100
AcDbEntity
  8
_U+30EC_U+30A4_U+30E4_U+30FC 1
370
     0
100
AcDbVertex
100
AcDb2dVertex
 10
93.3882703759585
 20
-139.216997578043
 30
0.0
  0
VERTEX
  5
EF
330
EC
100
AcDbEntity
  8
_U+30EC_U+30A4_U+30E4_U+30FC 1
370
     0
100
AcDbVertex
100
AcDb2dVertex
 10
93.3882703759585
 20
-138.7243489236523
 30
0.0
  0
VERTEX
  5
F0
330
EC
100
AcDbEntity
  8
_U+30EC_U+30A4_U+30E4_U+30FC 1
370
     0
100
AcDbVertex
100
AcDb2dVertex
 10
92.68064776328818
 20
-138.7243489236523
 30
0.0
  0
SEQEND
  5
F1
330
EC
100
AcDbEntity
  8
_U+30EC_U+30A4_U+30E4_U+30FC 1
370
     0
  0
HATCH
  5
F2
330
DA
100
AcDbEntity
  8
_U+30EC_U+30A4_U+30E4_U+30FC 1
 62
   179
420
  2234388
100
AcDbHatch
 10
0.0
 20
0.0
 30
0.0
210
0.0
220
0.0
230
1.0
  2
SOLID
 70
     1
 71
     0
 91
        2
 92
        1
 93
       11
 72
     1
 10
93.60255531514103
 20
-138.4890489020097
 11
93.97703719438769
 21
-138.4890489020097
 72
     1
 10
93.97703719438769
 20
-138.4890489020097
 11
93.97703719438769
 21
-138.7243489236523
 72
     1
 10
93.97703719438769
 20
-138.7243489236523
 11
93.60255531514103
 21
-138.7243489236523
 72
     1
 10
93.60255531514103
 20
-138.7243489236523
 11
93.60255531514103
 21
-139.431627026774
 72
     1
 10
93.60255531514103
 20
-139.431627026774
 11
93.36070961207649
 21
-139.431627026774
 72
     1
 10
93.36070961207649
 20
-139.431627026774
 11
92.31098901772087
 21
-138.6988552170614
 72
     1
 10
92.31098901772087
 20
-138.6988552170614
 11
92.31098901772087
 21
-138.4890489020097
 72
     1
 10
92.31098901772087
 20
-138.4890489020097
 11
93.3882703759585
 21
-138.4890489020097
 72
     1
 10
93.3882703759585
 20
-138.4890489020097
 11
93.3882703759585
 21
-138.265462205017
 72
     1
 10
93.3882703759585
 20
-138.265462205017
 11
93.60255531514103
 21
-138.265462205017
 72
     1
 10
93.60255531514103
 20
-138.265462205017
 11
93.60255531514103
 21
-138.4890489020097
 97
        0
 92
        1
 93
        3
 72
     1
 10
92.68064776328818
 20
-138.7243489236523
 11
93.3882703759585
 21
-139.216997578043
 72
     1
 10
93.3882703759585
 20
-139.216997578043
 11
93.3882703759585
 21
-138.7243489236523
 72
     1
 10
93.3882703759585
 20
-138.7243489236523
 11
92.68064776328818
 21
-138.7243489236523
 97
        0
 75
     2
 76
     1
 98
        0
  0
ENDBLK
  5
DD
330
DA
100
AcDbEntity
  8
0
100
AcDbBlockEnd
  0
BLOCK
  5
101
330
FF
100
AcDbEntity
  8
0
100
AcDbBlockBegin
  2
block 6
 70
     0
 10
0.0
 20
0.0
 30
0.0
  3
block 6
  1

  0
SPLINE
  5
103
330
FF
100
AcDbEntity
  8
_U+30EC_U+30A4_U+30E4_U+30FC 1
370
     0
100
AcDbSpline
210
0.0
220
0.0
230
1.0
 70
    11
 71
     3
 72
    26
 73
    22
 74
     0
 42
0.0000000001
 43
0.0000000001
 12
1.0
 22
0.0
 32
0.0
 13
1.0
 23
0.0
 33
0.0
 40
0.0
 40
0.0
 40
0.0
 40
0.0
 40
1.0
 40
1.0
 40
1.0
 40
2.0
 40
2.0
 40
2.0
 40
3.0
 40
3.0
 40
3.0
 40
4.0
 40
4.0
 40
4.0
 40
5.0
 40
5.0
 40
5.0
 40
6.0
 40
6.0
 40
6.0
 40
7.0
 40
7.0
 40
7.0
 40
7.0
 10
113.9771945244571
 20
-131.1055202580222
 30
0.0
 10
113.9771945244571
 20
-131.1055202580222
 30
0.0
 10
112.7858805056577
 20
-131.1055202580222
 30
0.0
 10
112.7858805056577
 20
-131.1055202580222
 30
0.0
 10
112.7858805056577
 20
-131.1055202580222
 30
0.0
 10
112.7858805056577
 20
-131.4489962779016
 30
0.0
 10
112.7858805056577
 20
-131.4489962779016
 30
0.0
 10
112.7858805056577
 20
-131.4489962779016
 30
0.0
 10
112.6260280751421
 20
-131.4489962779016
 30
0.0
 10
112.6260280751421
 20
-131.4489962779016
 30
0.0
 10
112.61018063591
 20
-131.1031086911826
 30
0.0
 10
112.4341362566137
 20
-131.0548773543891
 30
0.0
 10
112.3111463477903
 20
-131.0238714950218
 30
0.0
 10
112.3111463477903
 20
-131.0238714950218
 30
0.0
 10
112.3111463477903
 20
-130.8722872936708
 30
0.0
 10
112.3111463477903
 20
-130.8722872936708
 30
0.0
 10
112.3111463477903
 20
-130.8722872936708
 30
0.0
 10
113.9771945244571
 20
-130.8722872936708
 30
0.0
 10
113.9771945244571
 20
-130.8722872936708
 30
0.0
 10
113.9771945244571
 20
-130.8722872936708
 30
0.0
 10
113.9771945244571
 20
-131.1055202580222
 30
0.0
 10
113.9771945244571
 20
-131.1055202580222
 30
0.0
  0
HATCH
  5
104
330
FF
100
AcDbEntity
  8
_U+30EC_U+30A4_U+30E4_U+30FC 1
 62
   179
420
  2234388
100
AcDbHatch
 10
0.0
 20
0.0
 30
0.0
210
0.0
220
0.0
230
1.0
  2
SOLID
 70
     1
 71
     0
 91
        1
 92
        1
 93
        1
 72
     4
 94
        3
 73
     0
 74
     1
 95
       26
 96
       22
 40
0.0
 40
0.0
 40
0.0
 40
0.0
 40
1.0
 40
1.0
 40
1.0
 40
2.0
 40
2.0
 40
2.0
 40
3.0
 40
3.0
 40
3.0
 40
4.0
 40
4.0
 40
4.0
 40
5.0
 40
5.0
 40
5.0
 40
6.0
 40
6.0
 40
6.0
 40
7.0
 40
7.0
 40
7.0
 40
7.0
 10
113.9771945244571
 20
-131.1055202580222
 10
113.9771945244571
 20
-131.1055202580222
 10
112.7858805056577
 20
-131.1055202580222
 10
112.7858805056577
 20
-131.1055202580222
 10
112.7858805056577
 20
-131.1055202580222
 10
112.7858805056577
 20
-131.4489962779016
 10
112.7858805056577
 20
-131.4489962779016
 10
112.7858805056577
 20
-131.4489962779016
 10
112.6260280751421
 20
-131.4489962779016
 10
112.6260280751421
 20
-131.4489962779016
 10
112.61018063591
 20
-131.1031086911826
 10
112.4341362566137
 20
-131.0548773543891
 10
112.3111463477903
 20
-131.0238714950218
 10
112.3111463477903
 20
-131.0238714950218
 10
112.3111463477903
 20
-130.8722872936708
 10
112.3111463477903
 20
-130.8722872936708
 10
112.3111463477903
 20
-130.8722872936708
 10
113.9771945244571
 20
-130.8722872936708
 10
113.9771945244571
 20
-130.8722872936708
 10
113.9771945244571
 20
-130.8722872936708
 10
113.9771945244571
 20
-131.1055202580222
 10
113.9771945244571
 20
-131.1055202580222
 97
        0
 97
        0
 75
     2
 76
     1
 98
        0
  0
POLYLINE
  5
105
330
FF
100
AcDbEntity
  8
_U+30EC_U+30A4_U+30E4_U+30FC 1
370
     0
100
AcDb2dPolyline
 66
     1
 10
0.0
 20
0.0
 30
0.0
  0
VERTEX
  5
106
330
105
100
AcDbEntity
  8
_U+30EC_U+30A4_U+30E4_U+30FC 1
370
     0
100
AcDbVertex
100
AcDb2dVertex
 10
113.6027126452104
 20
-129.4859808704063
 30
0.0
  0
VERTEX
  5
107
330
105
100
AcDbEntity
  8
_U+30EC_U+30A4_U+30E4_U+30FC 1
370
     0
100
AcDbVertex
100
AcDb2dVertex
 10
113.9771945244571
 20
-129.4859808704063
 30
0.0
  0
VERTEX
  5
108
330
105
100
AcDbEntity
  8
_U+30EC_U+30A4_U+30E4_U+30FC 1
370
     0
100
AcDbVertex
100
AcDb2dVertex
 10
113.9771945244571
 20
-129.7126681533357
 30
0.0
  0
VERTEX
  5
109
330
105
100
AcDbEntity
  8
_U+30EC_U+30A4_U+30E4_U+30FC 1
370
     0
100
AcDbVertex
100
AcDb2dVertex
 10
113.6027126452104
 20
-129.7126681533357
 30
0.0
  0
VERTEX
  5
10A
330
105
100
AcDbEntity
  8
_U+30EC_U+30A4_U+30E4_U+30FC 1
370
     0
100
AcDbVertex
100
AcDb2dVertex
 10
113.6027126452104
 20
-130.3951415689637
 30
0.0
  0
VERTEX
  5
10B
330
105
100
AcDbEntity
  8
_U+30EC_U+30A4_U+30E4_U+30FC 1
370
     0
100
AcDbVertex
100
AcDb2dVertex
 10
113.3608669421459
 20
-130.3951415689637
 30
0.0
  0
VERTEX
  5
10C
330
105
100
AcDbEntity
  8
_U+30EC_U+30A4_U+30E4_U+30FC 1
370
     0
100
AcDbVertex
100
AcDb2dVertex
 10
112.3111463477903
 20
-129.688552484939
 30
0.0
  0
VERTEX
  5
10D
330
105
100
AcDbEntity
  8
_U+30EC_U+30A4_U+30E4_U+30FC 1
370
     0
100
AcDbVertex
100
AcDb2dVertex
 10
112.3111463477903
 20
-129.4859808704063
 30
0.0
  0
VERTEX
  5
10E
330
105
100
AcDbEntity
  8
_U+30EC_U+30A4_U+30E4_U+30FC 1
370
     0
100
AcDbVertex
100
AcDb2dVertex
 10
113.3884277060279
 20
-129.4859808704063
 30
0.0
  0
VERTEX
  5
10F
330
105
100
AcDbEntity
  8
_U+30EC_U+30A4_U+30E4_U+30FC 1
370
     0
100
AcDbVertex
100
AcDb2dVertex
 10
113.3884277060279
 20
-129.2703178930296
 30
0.0
  0
VERTEX
  5
110
330
105
100
AcDbEntity
  8
_U+30EC_U+30A4_U+30E4_U+30FC 1
370
     0
100
AcDbVertex
100
AcDb2dVertex
 10
113.6027126452104
 20
-129.2703178930296
 30
0.0
  0
VERTEX
  5
111
330
105
100
AcDbEntity
  8
_U+30EC_U+30A4_U+30E4_U+30FC 1
370
     0
100
AcDbVertex
100
AcDb2dVertex
 10
113.6027126452104
 20
-129.4859808704063
 30
0.0
  0
SEQEND
  5
112
330
105
100
AcDbEntity
  8
_U+30EC_U+30A4_U+30E4_U+30FC 1
370
     0
  0
POLYLINE
  5
113
330
FF
100
AcDbEntity
  8
_U+30EC_U+30A4_U+30E4_U+30FC 1
370
     0
100
AcDb2dPolyline
 66
     1
 10
0.0
 20
0.0
 30
0.0
  0
VERTEX
  5
114
330
113
100
AcDbEntity
  8
_U+30EC_U+30A4_U+30E4_U+30FC 1
370
     0
100
AcDbVertex
100
AcDb2dVertex
 10
112.6808050933576
 20
-129.7126681533357
 30
0.0
  0
VERTEX
  5
115
330
113
100
AcDbEntity
  8
_U+30EC_U+30A4_U+30E4_U+30FC 1
370
     0
100
AcDbVertex
100
AcDb2dVertex
 10
113.3884277060279
 20
-130.1880913303002
 30
0.0
  0
VERTEX
  5
116
330
113
100
AcDbEntity
  8
_U+30EC_U+30A4_U+30E4_U+30FC 1
370
     0
100
AcDbVertex
100
AcDb2dVertex
 10
113.3884277060279
 20
-129.7126681533357
 30
0.0
  0
VERTEX
  5
117
330
113
100
AcDbEntity
  8
_U+30EC_U+30A4_U+30E4_U+30FC 1
370
     0
100
AcDbVertex
100
AcDb2dVertex
 10
112.6808050933576
 20
-129.7126681533357
 30
0.0
  0
SEQEND
  5
118
330
113
100
AcDbEntity
  8
_U+30EC_U+30A4_U+30E4_U+30FC 1
370
     0
  0
HATCH
  5
119
330
FF
100
AcDbEntity
  8
_U+30EC_U+30A4_U+30E4_U+30FC 1
 62
   179
420
  2234388
100
AcDbHatch
 10
0.0
 20
0.0
 30
0.0
210
0.0
220
0.0
230
1.0
  2
SOLID
 70
     1
 71
     0
 91
        2
 92
        1
 93
       11
 72
     1
 10
113.6027126452104
 20
-129.4859808704063
 11
113.9771945244571
 21
-129.4859808704063
 72
     1
 10
113.9771945244571
 20
-129.4859808704063
 11
113.9771945244571
 21
-129.7126681533357
 72
     1
 10
113.9771945244571
 20
-129.7126681533357
 11
113.6027126452104
 21
-129.7126681533357
 72
     1
 10
113.6027126452104
 20
-129.7126681533357
 11
113.6027126452104
 21
-130.3951415689637
 72
     1
 10
113.6027126452104
 20
-130.3951415689637
 11
113.3608669421459
 21
-130.3951415689637
 72
     1
 10
113.3608669421459
 20
-130.3951415689637
 11
112.3111463477903
 21
-129.688552484939
 72
     1
 10
112.3111463477903
 20
-129.688552484939
 11
112.3111463477903
 21
-129.4859808704063
 72
     1
 10
112.3111463477903
 20
-129.4859808704063
 11
113.3884277060279
 21
-129.4859808704063
 72
     1
 10
113.3884277060279
 20
-129.4859808704063
 11
113.3884277060279
 21
-129.2703178930296
 72
     1
 10
113.3884277060279
 20
-129.2703178930296
 11
113.6027126452104
 21
-129.2703178930296
 72
     1
 10
113.6027126452104
 20
-129.2703178930296
 11
113.6027126452104
 21
-129.4859808704063
 97
        0
 92
        1
 93
        3
 72
     1
 10
112.6808050933576
 20
-129.7126681533357
 11
113.3884277060279
 21
-130.1880913303002
 72
     1
 10
113.3884277060279
 20
-130.1880913303002
 11
113.3884277060279
 21
-129.7126681533357
 72
     1
 10
113.3884277060279
 20
-129.7126681533357
 11
112.6808050933576
 21
-129.7126681533357
 97
        0
 75
     2
 76
     1
 98
        0
  0
POLYLINE
  5
11A
330
FF
100
AcDbEntity
  8
_U+30EC_U+30A4_U+30E4_U+30FC 1
370
     0
100
AcDb2dPolyline
 66
     1
 10
0.0
 20
0.0
 30
0.0
  0
VERTEX
  5
11B
330
11A
100
AcDbEntity
  8
_U+30EC_U+30A4_U+30E4_U+30FC 1
370
     0
100
AcDbVertex
100
AcDb2dVertex
 10
113.9771945244571
 20
-129.0660237307543
 30
0.0
  0
VERTEX
  5
11C
330
11A
100
AcDbEntity
  8
_U+30EC_U+30A4_U+30E4_U+30FC 1
370
     0
100
AcDbVertex
100
AcDb2dVertex
 10
113.7057210002194
 20
-129.0660237307543
 30
0.0
  0
VERTEX
  5
11D
330
11A
100
AcDbEntity
  8
_U+30EC_U+30A4_U+30E4_U+30FC 1
370
     0
100
AcDbVertex
100
AcDb2dVertex
 10
113.7057210002194
 20
-128.8038519643268
 30
0.0
  0
VERTEX
  5
11E
330
11A
100
AcDbEntity
  8
_U+30EC_U+30A4_U+30E4_U+30FC 1
370
     0
100
AcDbVertex
100
AcDb2dVertex
 10
113.9771945244571
 20
-128.8038519643268
 30
0.0
  0
VERTEX
  5
11F
330
11A
100
AcDbEntity
  8
_U+30EC_U+30A4_U+30E4_U+30FC 1
370
     0
100
AcDbVertex
100
AcDb2dVertex
 10
113.9771945244571
 20
-129.0660237307543
 30
0.0
  0
SEQEND
  5
120
330
11A
100
AcDbEntity
  8
_U+30EC_U+30A4_U+30E4_U+30FC 1
370
     0
  0
HATCH
  5
121
330
FF
100
AcDbEntity
  8
_U+30EC_U+30A4_U+30E4_U+30FC 1
 62
   179
420
  2234388
100
AcDbHatch
 10
0.0
 20
0.0
 30
0.0
210
0.0
220
0.0
230
1.0
  2
SOLID
 70
     1
 71
     0
 91
        1
 92
        1
 93
        4
 72
     1
 10
113.9771945244571
 20
-129.0660237307543
 11
113.7057210002194
 21
-129.0660237307543
 72
     1
 10
113.7057210002194
 20
-129.0660237307543
 11
113.7057210002194
 21
-128.8038519643268
 72
     1
 10
113.7057210002194
 20
-128.8038519643268
 11
113.9771945244571
 21
-128.8038519643268
 72
     1
 10
113.9771945244571
 20
-128.8038519643268
 11
113.9771945244571
 21
-129.0660237307543
 97
        0
 75
     2
 76
     1
 98
        0
  0
SPLINE
  5
122
330
FF
100
AcDbEntity
  8
_U+30EC_U+30A4_U+30E4_U+30FC 1
370
     0
100
AcDbSpline
210
0.0
220
0.0
230
1.0
 70
    11
 71
     3
 72
    32
 73
    28
 74
     0
 42
0.0000000001
 43
0.0000000001
 12
1.0
 22
0.0
 32
0.0
 13
1.0
 23
0.0
 33
0.0
 40
0.0
 40
0.0
 40
0.0
 40
0.0
 40
1.0
 40
1.0
 40
1.0
 40
2.0
 40
2.0
 40
2.0
 40
3.0
 40
3.0
 40
3.0
 40
4.0
 40
4.0
 40
4.0
 40
5.0
 40
5.0
 40
5.0
 40
6.0
 40
6.0
 40
6.0
 40
7.0
 40
7.0
 40
7.0
 40
8.0
 40
8.0
 40
8.0
 40
9.0
 40
9.0
 40
9.0
 40
9.0
 10
114.0319715426726
 20
-128.0338731233735
 30
0.0
 10
114.0319715426726
 20
-128.5711357642982
 30
0.0
 10
113.4339029664332
 20
-128.5799207577856
 30
0.0
 10
113.20342607847
 20
-128.5799207577856
 30
0.0
 10
112.9546901844349
 20
-128.5799207577856
 30
0.0
 10
112.2563693295748
 20
-128.5601114587454
 30
0.0
 10
112.2563693295748
 20
-127.9942545252931
 30
0.0
 10
112.2563693295748
 20
-127.813731521866
 30
0.0
 10
112.3314724111532
 20
-127.558449946409
 30
0.0
 10
112.6897623416192
 20
-127.5186590935544
 30
0.0
 10
112.6897623416192
 20
-127.5186590935544
 30
0.0
 10
112.6897623416192
 20
-127.7410400071272
 30
0.0
 10
112.6897623416192
 20
-127.7410400071272
 30
0.0
 10
112.6284396419818
 20
-127.75206431268
 30
0.0
 10
112.4685872114662
 20
-127.7851372293384
 30
0.0
 10
112.4685872114662
 20
-127.9964938373585
 30
0.0
 10
112.4685872114662
 20
-128.3003512591576
 30
0.0
 10
112.8223985178013
 20
-128.3422091693033
 30
0.0
 10
113.0435736479544
 20
-128.3553005321473
 30
0.0
 10
112.9591688085658
 20
-128.2584933490118
 30
0.0
 10
112.8954345420887
 20
-128.1880411463384
 30
0.0
 10
112.8954345420887
 20
-127.9987331494239
 30
0.0
 10
112.8954345420887
 20
-127.8114922098006
 30
0.0
 10
113.0118787694901
 20
-127.496782737223
 30
0.0
 10
113.4500949152139
 20
-127.496782737223
 30
0.0
 10
113.7946044637388
 20
-127.496782737223
 30
0.0
 10
114.0319715426726
 20
-127.7036607211123
 30
0.0
 10
114.0319715426726
 20
-128.0338731233735
 30
0.0
  0
SPLINE
  5
123
330
FF
100
AcDbEntity
  8
_U+30EC_U+30A4_U+30E4_U+30FC 1
370
     0
100
AcDbSpline
210
0.0
220
0.0
230
1.0
 70
    11
 71
     3
 72
    17
 73
    13
 74
     0
 42
0.0000000001
 43
0.0000000001
 12
1.0
 22
0.0
 32
0.0
 13
1.0
 23
0.0
 33
0.0
 40
0.0
 40
0.0
 40
0.0
 40
0.0
 40
1.0
 40
1.0
 40
1.0
 40
2.0
 40
2.0
 40
2.0
 40
3.0
 40
3.0
 40
3.0
 40
4.0
 40
4.0
 40
4.0
 40
4.0
 10
113.1052408571404
 20
-128.0163031363987
 30
0.0
 10
113.1052408571404
 20
-128.2893269536048
 30
0.0
 10
113.3336506878124
 20
-128.3289455516851
 30
0.0
 10
113.4590521634755
 20
-128.3289455516851
 30
0.0
 10
113.6485324151643
 20
-128.3289455516851
 30
0.0
 10
113.824232284912
 20
-128.2298990564842
 30
0.0
 10
113.824232284912
 20
-128.0383517475043
 30
0.0
 10
113.824232284912
 20
-127.912778017067
 30
0.0
 10
113.7604980184349
 20
-127.7300157015744
 30
0.0
 10
113.452161972505
 20
-127.7300157015744
 30
0.0
 10
113.2103162694405
 20
-127.7300157015744
 30
0.0
 10
113.1052408571404
 20
-127.875398731052
 30
0.0
 10
113.1052408571404
 20
-128.0163031363987
 30
0.0
  0
HATCH
  5
124
330
FF
100
AcDbEntity
  8
_U+30EC_U+30A4_U+30E4_U+30FC 1
 62
   179
420
  2234388
100
AcDbHatch
 10
0.0
 20
0.0
 30
0.0
210
0.0
220
0.0
230
1.0
  2
SOLID
 70
     1
 71
     0
 91
        2
 92
        1
 93
        1
 72
     4
 94
        3
 73
     0
 74
     1
 95
       32
 96
       28
 40
0.0
 40
0.0
 40
0.0
 40
0.0
 40
1.0
 40
1.0
 40
1.0
 40
2.0
 40
2.0
 40
2.0
 40
3.0
 40
3.0
 40
3.0
 40
4.0
 40
4.0
 40
4.0
 40
5.0
 40
5.0
 40
5.0
 40
6.0
 40
6.0
 40
6.0
 40
7.0
 40
7.0
 40
7.0
 40
8.0
 40
8.0
 40
8.0
 40
9.0
 40
9.0
 40
9.0
 40
9.0
 10
114.0319715426726
 20
-128.0338731233735
 10
114.0319715426726
 20
-128.5711357642982
 10
113.4339029664332
 20
-128.5799207577856
 10
113.20342607847
 20
-128.5799207577856
 10
112.9546901844349
 20
-128.5799207577856
 10
112.2563693295748
 20
-128.5601114587454
 10
112.2563693295748
 20
-127.9942545252931
 10
112.2563693295748
 20
-127.813731521866
 10
112.3314724111532
 20
-127.558449946409
 10
112.6897623416192
 20
-127.5186590935544
 10
112.6897623416192
 20
-127.5186590935544
 10
112.6897623416192
 20
-127.7410400071272
 10
112.6897623416192
 20
-127.7410400071272
 10
112.6284396419818
 20
-127.75206431268
 10
112.4685872114662
 20
-127.7851372293384
 10
112.4685872114662
 20
-127.9964938373585
 10
112.4685872114662
 20
-128.3003512591576
 10
112.8223985178013
 20
-128.3422091693033
 10
113.0435736479544
 20
-128.3553005321473
 10
112.9591688085658
 20
-128.2584933490118
 10
112.8954345420887
 20
-128.1880411463384
 10
112.8954345420887
 20
-127.9987331494239
 10
112.8954345420887
 20
-127.8114922098006
 10
113.0118787694901
 20
-127.496782737223
 10
113.4500949152139
 20
-127.496782737223
 10
113.7946044637388
 20
-127.496782737223
 10
114.0319715426726
 20
-127.7036607211123
 10
114.0319715426726
 20
-128.0338731233735
 97
        0
 97
        0
 92
        1
 93
        1
 72
     4
 94
        3
 73
     0
 74
     1
 95
       17
 96
       13
 40
0.0
 40
0.0
 40
0.0
 40
0.0
 40
1.0
 40
1.0
 40
1.0
 40
2.0
 40
2.0
 40
2.0
 40
3.0
 40
3.0
 40
3.0
 40
4.0
 40
4.0
 40
4.0
 40
4.0
 10
113.1052408571404
 20
-128.0163031363987
 10
113.1052408571404
 20
-128.2893269536048
 10
113.3336506878124
 20
-128.3289455516851
 10
113.4590521634755
 20
-128.3289455516851
 10
113.6485324151643
 20
-128.3289455516851
 10
113.824232284912
 20
-128.2298990564842
 10
113.824232284912
 20
-128.0383517475043
 10
113.824232284912
 20
-127.912778017067
 10
113.7604980184349
 20
-127.7300157015744
 10
113.452161972505
 20
-127.7300157015744
 10
113.2103162694405
 20
-127.7300157015744
 10
113.1052408571404
 20
-127.875398731052
 10
113.1052408571404
 20
-128.0163031363987
 97
        0
 97
        0
 75
     2
 76
     1
 98
        0
  0
ENDBLK
  5
102
330
FF
100
AcDbEntity
  8
0
100
AcDbBlockEnd
  0
BLOCK
  5
134
330
132
100
AcDbEntity
  8
0
100
AcDbBlockBegin
  2
block 7
 70
     0
 10
0.0
 20
0.0
 30
0.0
  3
block 7
  1

  0
SPLINE
  5
136
330
132
100
AcDbEntity
  8
_U+30EC_U+30A4_U+30E4_U+30FC 1
370
     0
100
AcDbSpline
210
0.0
220
0.0
230
1.0
 70
    11
 71
     3
 72
    26
 73
    22
 74
     0
 42
0.0000000001
 43
0.0000000001
 12
1.0
 22
0.0
 32
0.0
 13
1.0
 23
0.0
 33
0.0
 40
0.0
 40
0.0
 40
0.0
 40
0.0
 40
1.0
 40
1.0
 40
1.0
 40
2.0
 40
2.0
 40
2.0
 40
3.0
 40
3.0
 40
3.0
 40
4.0
 40
4.0
 40
4.0
 40
5.0
 40
5.0
 40
5.0
 40
6.0
 40
6.0
 40
6.0
 40
7.0
 40
7.0
 40
7.0
 40
7.0
 10
113.6833278795653
 20
-118.9934258057551
 30
0.0
 10
113.6833278795653
 20
-118.9934258057551
 30
0.0
 10
112.4920138607659
 20
-118.9934258057551
 30
0.0
 10
112.4920138607659
 20
-118.9934258057551
 30
0.0
 10
112.4920138607659
 20
-118.9934258057551
 30
0.0
 10
112.4920138607659
 20
-119.3369018256345
 30
0.0
 10
112.4920138607659
 20
-119.3369018256345
 30
0.0
 10
112.4920138607659
 20
-119.3369018256345
 30
0.0
 10
112.3321614302503
 20
-119.3369018256345
 30
0.0
 10
112.3321614302503
 20
-119.3369018256345
 30
0.0
 10
112.3163139910181
 20
-118.9911864936897
 30
0.0
 10
112.1406141212704
 20
-118.9427829021219
 30
0.0
 10
112.0172797028985
 20
-118.911949297529
 30
0.0
 10
112.0172797028985
 20
-118.911949297529
 30
0.0
 10
112.0172797028985
 20
-118.7600205866295
 30
0.0
 10
112.0172797028985
 20
-118.7600205866295
 30
0.0
 10
112.0172797028985
 20
-118.7600205866295
 30
0.0
 10
113.6833278795653
 20
-118.7600205866295
 30
0.0
 10
113.6833278795653
 20
-118.7600205866295
 30
0.0
 10
113.6833278795653
 20
-118.7600205866295
 30
0.0
 10
113.6833278795653
 20
-118.9934258057551
 30
0.0
 10
113.6833278795653
 20
-118.9934258057551
 30
0.0
  0
HATCH
  5
137
330
132
100
AcDbEntity
  8
_U+30EC_U+30A4_U+30E4_U+30FC 1
 62
   179
420
  2234388
100
AcDbHatch
 10
0.0
 20
0.0
 30
0.0
210
0.0
220
0.0
230
1.0
  2
SOLID
 70
     1
 71
     0
 91
        1
 92
        1
 93
        1
 72
     4
 94
        3
 73
     0
 74
     1
 95
       26
 96
       22
 40
0.0
 40
0.0
 40
0.0
 40
0.0
 40
1.0
 40
1.0
 40
1.0
 40
2.0
 40
2.0
 40
2.0
 40
3.0
 40
3.0
 40
3.0
 40
4.0
 40
4.0
 40
4.0
 40
5.0
 40
5.0
 40
5.0
 40
6.0
 40
6.0
 40
6.0
 40
7.0
 40
7.0
 40
7.0
 40
7.0
 10
113.6833278795653
 20
-118.9934258057551
 10
113.6833278795653
 20
-118.9934258057551
 10
112.4920138607659
 20
-118.9934258057551
 10
112.4920138607659
 20
-118.9934258057551
 10
112.4920138607659
 20
-118.9934258057551
 10
112.4920138607659
 20
-119.3369018256345
 10
112.4920138607659
 20
-119.3369018256345
 10
112.4920138607659
 20
-119.3369018256345
 10
112.3321614302503
 20
-119.3369018256345
 10
112.3321614302503
 20
-119.3369018256345
 10
112.3163139910181
 20
-118.9911864936897
 10
112.1406141212704
 20
-118.9427829021219
 10
112.0172797028985
 20
-118.911949297529
 10
112.0172797028985
 20
-118.911949297529
 10
112.0172797028985
 20
-118.7600205866295
 10
112.0172797028985
 20
-118.7600205866295
 10
112.0172797028985
 20
-118.7600205866295
 10
113.6833278795653
 20
-118.7600205866295
 10
113.6833278795653
 20
-118.7600205866295
 10
113.6833278795653
 20
-118.7600205866295
 10
113.6833278795653
 20
-118.9934258057551
 10
113.6833278795653
 20
-118.9934258057551
 97
        0
 97
        0
 75
     2
 76
     1
 98
        0
  0
POLYLINE
  5
138
330
132
100
AcDbEntity
  8
_U+30EC_U+30A4_U+30E4_U+30FC 1
370
     0
100
AcDb2dPolyline
 66
     1
 10
0.0
 20
0.0
 30
0.0
  0
VERTEX
  5
139
330
138
100
AcDbEntity
  8
_U+30EC_U+30A4_U+30E4_U+30FC 1
370
     0
100
AcDbVertex
100
AcDb2dVertex
 10
113.6833278795653
 20
-118.1772826852994
 30
0.0
  0
VERTEX
  5
13A
330
138
100
AcDbEntity
  8
_U+30EC_U+30A4_U+30E4_U+30FC 1
370
     0
100
AcDbVertex
100
AcDb2dVertex
 10
113.4118543553276
 20
-118.1772826852994
 30
0.0
  0
VERTEX
  5
13B
330
138
100
AcDbEntity
  8
_U+30EC_U+30A4_U+30E4_U+30FC 1
370
     0
100
AcDbVertex
100
AcDb2dVertex
 10
113.4118543553276
 20
-117.9152831736462
 30
0.0
  0
VERTEX
  5
13C
330
138
100
AcDbEntity
  8
_U+30EC_U+30A4_U+30E4_U+30FC 1
370
     0
100
AcDbVertex
100
AcDb2dVertex
 10
113.6833278795653
 20
-117.9152831736462
 30
0.0
  0
VERTEX
  5
13D
330
138
100
AcDbEntity
  8
_U+30EC_U+30A4_U+30E4_U+30FC 1
370
     0
100
AcDbVertex
100
AcDb2dVertex
 10
113.6833278795653
 20
-118.1772826852994
 30
0.0
  0
SEQEND
  5
13E
330
138
100
AcDbEntity
  8
_U+30EC_U+30A4_U+30E4_U+30FC 1
370
     0
  0
HATCH
  5
13F
330
132
100
AcDbEntity
  8
_U+30EC_U+30A4_U+30E4_U+30FC 1
 62
   179
420
  2234388
100
AcDbHatch
 10
0.0
 20
0.0
 30
0.0
210
0.0
220
0.0
230
1.0
  2
SOLID
 70
     1
 71
     0
 91
        1
 92
        1
 93
        4
 72
     1
 10
113.6833278795653
 20
-118.1772826852994
 11
113.4118543553276
 21
-118.1772826852994
 72
     1
 10
113.4118543553276
 20
-118.1772826852994
 11
113.4118543553276
 21
-117.9152831736462
 72
     1
 10
113.4118543553276
 20
-117.9152831736462
 11
113.6833278795653
 21
-117.9152831736462
 72
     1
 10
113.6833278795653
 20
-117.9152831736462
 11
113.6833278795653
 21
-118.1772826852994
 97
        0
 75
     2
 76
     1
 98
        0
  0
SPLINE
  5
140
330
132
100
AcDbEntity
  8
_U+30EC_U+30A4_U+30E4_U+30FC 1
370
     0
100
AcDbSpline
210
0.0
220
0.0
230
1.0
 70
    11
 71
     3
 72
    44
 73
    40
 74
     0
 42
0.0000000001
 43
0.0000000001
 12
1.0
 22
0.0
 32
0.0
 13
1.0
 23
0.0
 33
0.0
 40
0.0
 40
0.0
 40
0.0
 40
0.0
 40
1.0
 40
1.0
 40
1.0
 40
2.0
 40
2.0
 40
2.0
 40
3.0
 40
3.0
 40
3.0
 40
4.0
 40
4.0
 40
4.0
 40
5.0
 40
5.0
 40
5.0
 40
6.0
 40
6.0
 40
6.0
 40
7.0
 40
7.0
 40
7.0
 40
8.0
 40
8.0
 40
8.0
 40
9.0
 40
9.0
 40
9.0
 40
10.0
 40
10.0
 40
10.0
 40
11.0
 40
11.0
 40
11.0
 40
12.0
 40
12.0
 40
12.0
 40
13.0
 40
13.0
 40
13.0
 40
13.0
 10
113.0556314821528
 20
-117.0526312641396
 30
0.0
 10
113.2268527277697
 20
-117.2794908018433
 30
0.0
 10
113.3067789430275
 20
-117.3762979849788
 30
0.0
 10
113.4618082398637
 20
-117.426940888612
 30
0.0
 10
113.4618082398637
 20
-117.426940888612
 30
0.0
 10
113.4618082398637
 20
-116.6168266852555
 30
0.0
 10
113.4618082398637
 20
-116.6168266852555
 30
0.0
 10
113.4618082398637
 20
-116.6168266852555
 30
0.0
 10
113.6833278795653
 20
-116.6168266852555
 30
0.0
 10
113.6833278795653
 20
-116.6168266852555
 30
0.0
 10
113.6833278795653
 20
-116.6168266852555
 30
0.0
 10
113.6833278795653
 20
-117.6867010881999
 30
0.0
 10
113.6833278795653
 20
-117.6867010881999
 30
0.0
 10
113.2974771852173
 20
-117.6538004263157
 30
0.0
 10
113.2130723458287
 20
-117.5855875357078
 30
0.0
 10
112.8913004275064
 20
-117.184750675999
 30
0.0
 10
112.6766709787753
 20
-116.9184447949891
 30
0.0
 10
112.603634954488
 20
-116.8502319043812
 30
0.0
 10
112.4554958486222
 20
-116.8502319043812
 30
0.0
 10
112.3276828061195
 20
-116.8502319043812
 30
0.0
 10
112.1860893816757
 20
-116.9249904764111
 30
0.0
 10
112.1860893816757
 20
-117.1298014030092
 30
0.0
 10
112.1860893816757
 20
-117.4005859081499
 30
0.0
 10
112.4348252757108
 20
-117.4093709016372
 30
0.0
 10
112.5602267513738
 20
-117.4138495257681
 30
0.0
 10
112.5602267513738
 20
-117.4138495257681
 30
0.0
 10
112.5602267513738
 20
-117.6470824901195
 30
0.0
 10
112.5602267513738
 20
-117.6470824901195
 30
0.0
 10
112.4234564606094
 20
-117.6382974966321
 30
0.0
 10
112.3025336090771
 20
-117.6272731910793
 30
0.0
 10
112.1747205665744
 20
-117.543729625562
 30
0.0
 10
112.0010877541178
 20
-117.4291802006774
 30
0.0
 10
111.9645697419741
 20
-117.2353935796321
 30
0.0
 10
111.9645697419741
 20
-117.1142984733256
 30
0.0
 10
111.9645697419741
 20
-116.8259439812102
 30
0.0
 10
112.1633517514731
 20
-116.6101087490593
 30
0.0
 10
112.4575629059134
 20
-116.6101087490593
 30
0.0
 10
112.7042317426573
 20
-116.6101087490593
 30
0.0
 10
112.8113742122486
 20
-116.7312038553658
 30
0.0
 10
113.0556314821528
 20
-117.0526312641396
 30
0.0
  0
HATCH
  5
141
330
132
100
AcDbEntity
  8
_U+30EC_U+30A4_U+30E4_U+30FC 1
 62
   179
420
  2234388
100
AcDbHatch
 10
0.0
 20
0.0
 30
0.0
210
0.0
220
0.0
230
1.0
  2
SOLID
 70
     1
 71
     0
 91
        1
 92
        1
 93
        1
 72
     4
 94
        3
 73
     0
 74
     1
 95
       44
 96
       40
 40
0.0
 40
0.0
 40
0.0
 40
0.0
 40
1.0
 40
1.0
 40
1.0
 40
2.0
 40
2.0
 40
2.0
 40
3.0
 40
3.0
 40
3.0
 40
4.0
 40
4.0
 40
4.0
 40
5.0
 40
5.0
 40
5.0
 40
6.0
 40
6.0
 40
6.0
 40
7.0
 40
7.0
 40
7.0
 40
8.0
 40
8.0
 40
8.0
 40
9.0
 40
9.0
 40
9.0
 40
10.0
 40
10.0
 40
10.0
 40
11.0
 40
11.0
 40
11.0
 40
12.0
 40
12.0
 40
12.0
 40
13.0
 40
13.0
 40
13.0
 40
13.0
 10
113.0556314821528
 20
-117.0526312641396
 10
113.2268527277697
 20
-117.2794908018433
 10
113.3067789430275
 20
-117.3762979849788
 10
113.4618082398637
 20
-117.426940888612
 10
113.4618082398637
 20
-117.426940888612
 10
113.4618082398637
 20
-116.6168266852555
 10
113.4618082398637
 20
-116.6168266852555
 10
113.4618082398637
 20
-116.6168266852555
 10
113.6833278795653
 20
-116.6168266852555
 10
113.6833278795653
 20
-116.6168266852555
 10
113.6833278795653
 20
-116.6168266852555
 10
113.6833278795653
 20
-117.6867010881999
 10
113.6833278795653
 20
-117.6867010881999
 10
113.2974771852173
 20
-117.6538004263157
 10
113.2130723458287
 20
-117.5855875357078
 10
112.8913004275064
 20
-117.184750675999
 10
112.6766709787753
 20
-116.9184447949891
 10
112.603634954488
 20
-116.8502319043812
 10
112.4554958486222
 20
-116.8502319043812
 10
112.3276828061195
 20
-116.8502319043812
 10
112.1860893816757
 20
-116.9249904764111
 10
112.1860893816757
 20
-117.1298014030092
 10
112.1860893816757
 20
-117.4005859081499
 10
112.4348252757108
 20
-117.4093709016372
 10
112.5602267513738
 20
-117.4138495257681
 10
112.5602267513738
 20
-117.4138495257681
 10
112.5602267513738
 20
-117.6470824901195
 10
112.5602267513738
 20
-117.6470824901195
 10
112.4234564606094
 20
-117.6382974966321
 10
112.3025336090771
 20
-117.6272731910793
 10
112.1747205665744
 20
-117.543729625562
 10
112.0010877541178
 20
-117.4291802006774
 10
111.9645697419741
 20
-117.2353935796321
 10
111.9645697419741
 20
-117.1142984733256
 10
111.9645697419741
 20
-116.8259439812102
 10
112.1633517514731
 20
-116.6101087490593
 10
112.4575629059134
 20
-116.6101087490593
 10
112.7042317426573
 20
-116.6101087490593
 10
112.8113742122486
 20
-116.7312038553658
 10
113.0556314821528
 20
-117.0526312641396
 97
        0
 97
        0
 75
     2
 76
     1
 98
        0
  0
ENDBLK
  5
135
330
132
100
AcDbEntity
  8
0
100
AcDbBlockEnd
  0
ENDSEC
  0
SECTION
  2
ENTITIES
  0
POLYLINE
  5
41
330
1F
100
AcDbEntity
  8
_U+30EC_U+30A4_U+30E4_U+30FC 1
370
     0
100
AcDb2dPolyline
 66
     1
 10
0.0
 20
0.0
 30
0.0
  0
VERTEX
  5
42
330
41
100
AcDbEntity
  8
_U+30EC_U+30A4_U+30E4_U+30FC 1
370
     0
100
AcDbVertex
100
AcDb2dVertex
 10
75.67083331441563
 20
-121.0027777475271
 30
0.0
  0
VERTEX
  5
43
330
41
100
AcDbEntity
  8
_U+30EC_U+30A4_U+30E4_U+30FC 1
370
     0
100
AcDbVertex
100
AcDb2dVertex
 10
110.6840277501068
 20
-121.0027777475271
 30
0.0
  0
VERTEX
  5
44
330
41
100
AcDbEntity
  8
_U+30EC_U+30A4_U+30E4_U+30FC 1
370
     0
100
AcDbVertex
100
AcDb2dVertex
 10
110.6840277501068
 20
-122.2374999694406
 30
0.0
  0
VERTEX
  5
45
330
41
100
AcDbEntity
  8
_U+30EC_U+30A4_U+30E4_U+30FC 1
370
     0
100
AcDbVertex
100
AcDb2dVertex
 10
76.99374998075156
 20
-122.2374999694406
 30
0.0
  0
VERTEX
  5
46
330
41
100
AcDbEntity
  8
_U+30EC_U+30A4_U+30E4_U+30FC 1
370
     0
100
AcDbVertex
100
AcDb2dVertex
 10
76.99374998075156
 20
-139.5236110762302
 30
0.0
  0
VERTEX
  5
47
330
41
100
AcDbEntity
  8
_U+30EC_U+30A4_U+30E4_U+30FC 1
370
     0
100
AcDbVertex
100
AcDb2dVertex
 10
89.51736108873177
 20
-139.5236110762302
 30
0.0
  0
VERTEX
  5
48
330
41
100
AcDbEntity
  8
_U+30EC_U+30A4_U+30E4_U+30FC 1
370
     0
100
AcDbVertex
100
AcDb2dVertex
 10
89.51736108873177
 20
-136.8777777435583
 30
0.0
  0
VERTEX
  5
49
330
41
100
AcDbEntity
  8
_U+30EC_U+30A4_U+30E4_U+30FC 1
370
     0
100
AcDbVertex
100
AcDb2dVertex
 10
90.57569442180052
 20
-136.8777777435583
 30
0.0
  0
VERTEX
  5
4A
330
41
100
AcDbEntity
  8
_U+30EC_U+30A4_U+30E4_U+30FC 1
370
     0
100
AcDbVertex
100
AcDb2dVertex
 10
90.57569442180052
 20
-140.7583332981438
 30
0.0
  0
VERTEX
  5
4B
330
41
100
AcDbEntity
  8
_U+30EC_U+30A4_U+30E4_U+30FC 1
370
     0
100
AcDbVertex
100
AcDb2dVertex
 10
75.67083331441563
 20
-140.7583332981438
 30
0.0
  0
VERTEX
  5
4C
330
41
100
AcDbEntity
  8
_U+30EC_U+30A4_U+30E4_U+30FC 1
370
     0
100
AcDbVertex
100
AcDb2dVertex
 10
75.67083331441563
 20
-121.0027777475271
 30
0.0
  0
SEQEND
  5
4E
330
41
100
AcDbEntity
  8
_U+30EC_U+30A4_U+30E4_U+30FC 1
370
     0
  0
HATCH
  5
4D
330
1F
100
AcDbEntity
  8
_U+30EC_U+30A4_U+30E4_U+30FC 1
 62
   253
420
 10066329
100
AcDbHatch
 10
0.0
 20
0.0
 30
0.0
210
0.0
220
0.0
230
1.0
  2
SOLID
 70
     1
 71
     0
 91
        1
 92
        1
 93
       10
 72
     1
 10
75.67083331441563
 20
-121.0027777475271
 11
110.6840277501068
 21
-121.0027777475271
 72
     1
 10
110.6840277501068
 20
-121.0027777475271
 11
110.6840277501068
 21
-122.2374999694406
 72
     1
 10
110.6840277501068
 20
-122.2374999694406
 11
76.99374998075156
 21
-122.2374999694406
 72
     1
 10
76.99374998075156
 20
-122.2374999694406
 11
76.99374998075156
 21
-139.5236110762302
 72
     1
 10
76.99374998075156
 20
-139.5236110762302
 11
89.51736108873177
 21
-139.5236110762302
 72
     1
 10
89.51736108873177
 20
-139.5236110762302
 11
89.51736108873177
 21
-136.8777777435583
 72
     1
 10
89.51736108873177
 20
-136.8777777435583
 11
90.57569442180052
 21
-136.8777777435583
 72
     1
 10
90.57569442180052
 20
-136.8777777435583
 11
90.57569442180052
 21
-140.7583332981438
 72
     1
 10
90.57569442180052
 20
-140.7583332981438
 11
75.67083331441563
 21
-140.7583332981438
 72
     1
 10
75.67083331441563
 20
-140.7583332981438
 11
75.67083331441563
 21
-121.0027777475271
 97
        0
 75
     2
 76
     1
 98
        0
  0
POLYLINE
  5
4F
330
1F
100
AcDbEntity
  8
_U+30EC_U+30A4_U+30E4_U+30FC 1
 62
   179
420
  2234388
370
    25
100
AcDb2dPolyline
 66
     1
 10
0.0
 20
0.0
 30
0.0
  0
VERTEX
  5
50
330
4F
100
AcDbEntity
  8
_U+30EC_U+30A4_U+30E4_U+30FC 1
 62
   179
420
  2234388
370
    25
100
AcDbVertex
100
AcDb2dVertex
 10
75.71009556847454
 20
-121.0468749697383
 30
0.0
  0
VERTEX
  5
51
330
4F
100
AcDbEntity
  8
_U+30EC_U+30A4_U+30E4_U+30FC 1
 62
   179
420
  2234388
370
    25
100
AcDbVertex
100
AcDb2dVertex
 10
75.71009556847454
 20
-140.8468805203439
 30
0.0
  0
SEQEND
  5
52
330
4F
100
AcDbEntity
  8
_U+30EC_U+30A4_U+30E4_U+30FC 1
 62
   179
420
  2234388
370
    25
  0
POLYLINE
  5
53
330
1F
100
AcDbEntity
  8
_U+30EC_U+30A4_U+30E4_U+30FC 1
 62
   179
420
  2234388
370
    25
100
AcDb2dPolyline
 66
     1
 10
0.0
 20
0.0
 30
0.0
  0
VERTEX
  5
54
330
53
100
AcDbEntity
  8
_U+30EC_U+30A4_U+30E4_U+30FC 1
 62
   179
420
  2234388
370
    25
100
AcDbVertex
100
AcDb2dVertex
 10
75.71009556847454
 20
-140.8468805203439
 30
0.0
  0
VERTEX
  5
55
330
53
100
AcDbEntity
  8
_U+30EC_U+30A4_U+30E4_U+30FC 1
 62
   179
420
  2234388
370
    25
100
AcDbVertex
100
AcDb2dVertex
 10
90.71020629690095
 20
-140.8468805203439
 30
0.0
  0
SEQEND
  5
56
330
53
100
AcDbEntity
  8
_U+30EC_U+30A4_U+30E4_U+30FC 1
 62
   179
420
  2234388
370
    25
  0
POLYLINE
  5
57
330
1F
100
AcDbEntity
  8
_U+30EC_U+30A4_U+30E4_U+30FC 1
 62
   179
420
  2234388
370
    25
100
AcDb2dPolyline
 66
     1
 10
0.0
 20
0.0
 30
0.0
  0
VERTEX
  5
58
330
57
100
AcDbEntity
  8
_U+30EC_U+30A4_U+30E4_U+30FC 1
 62
   179
420
  2234388
370
    25
100
AcDbVertex
100
AcDb2dVertex
 10
75.71009556847454
 20
-121.0468749697383
 30
0.0
  0
VERTEX
  5
59
330
57
100
AcDbEntity
  8
_U+30EC_U+30A4_U+30E4_U+30FC 1
 62
   179
420
  2234388
370
    25
100
AcDbVertex
100
AcDb2dVertex
 10
110.7102010644363
 20
-121.0468749697383
 30
0.0
  0
SEQEND
  5
5A
330
57
100
AcDbEntity
  8
_U+30EC_U+30A4_U+30E4_U+30FC 1
 62
   179
420
  2234388
370
    25
  0
POLYLINE
  5
5B
330
1F
100
AcDbEntity
  8
_U+30EC_U+30A4_U+30E4_U+30FC 1
 62
   179
420
  2234388
370
    25
100
AcDb2dPolyline
 66
     1
 10
0.0
 20
0.0
 30
0.0
  0
VERTEX
  5
5C
330
5B
100
AcDbEntity
  8
_U+30EC_U+30A4_U+30E4_U+30FC 1
 62
   179
420
  2234388
370
    25
100
AcDbVertex
100
AcDb2dVertex
 10
110.7102010644363
 20
-121.0468749697383
 30
0.0
  0
VERTEX
  5
5D
330
5B
100
AcDbEntity
  8
_U+30EC_U+30A4_U+30E4_U+30FC 1
 62
   179
420
  2234388
370
    25
100
AcDbVertex
100
AcDb2dVertex
 10
110.7102010644363
 20
-122.2468133027715
 30
0.0
  0
SEQEND
  5
5E
330
5B
100
AcDbEntity
  8
_U+30EC_U+30A4_U+30E4_U+30FC 1
 62
   179
420
  2234388
370
    25
  0
POLYLINE
  5
5F
330
1F
100
AcDbEntity
  8
_U+30EC_U+30A4_U+30E4_U+30FC 1
 62
   179
420
  2234388
370
    25
100
AcDb2dPolyline
 66
     1
 10
0.0
 20
0.0
 30
0.0
  0
VERTEX
  5
60
330
5F
100
AcDbEntity
  8
_U+30EC_U+30A4_U+30E4_U+30FC 1
 62
   179
420
  2234388
370
    25
100
AcDbVertex
100
AcDb2dVertex
 10
90.71020629690095
 20
-136.8467685768993
 30
0.0
  0
VERTEX
  5
61
330
5F
100
AcDbEntity
  8
_U+30EC_U+30A4_U+30E4_U+30FC 1
 62
   179
420
  2234388
370
    25
100
AcDbVertex
100
AcDb2dVertex
 10
90.71020629690095
 20
-140.8468805203439
 30
0.0
  0
SEQEND
  5
62
330
5F
100
AcDbEntity
  8
_U+30EC_U+30A4_U+30E4_U+30FC 1
 62
   179
420
  2234388
370
    25
  0
POLYLINE
  5
63
330
1F
100
AcDbEntity
  8
_U+30EC_U+30A4_U+30E4_U+30FC 1
 62
   179
420
  2234388
370
    25
100
AcDb2dPolyline
 66
     1
 10
0.0
 20
0.0
 30
0.0
  0
VERTEX
  5
64
330
63
100
AcDbEntity
  8
_U+30EC_U+30A4_U+30E4_U+30FC 1
 62
   179
420
  2234388
370
    25
100
AcDbVertex
100
AcDb2dVertex
 10
89.51030553317783
 20
-136.8467685768993
 30
0.0
  0
VERTEX
  5
65
330
63
100
AcDbEntity
  8
_U+30EC_U+30A4_U+30E4_U+30FC 1
 62
   179
420
  2234388
370
    25
100
AcDbVertex
100
AcDb2dVertex
 10
90.71020629690095
 20
-136.8467685768993
 30
0.0
  0
SEQEND
  5
66
330
63
100
AcDbEntity
  8
_U+30EC_U+30A4_U+30E4_U+30FC 1
 62
   179
420
  2234388
370
    25
  0
POLYLINE
  5
67
330
1F
100
AcDbEntity
  8
_U+30EC_U+30A4_U+30E4_U+30FC 1
 62
   179
420
  2234388
370
    25
100
AcDb2dPolyline
 66
     1
 10
0.0
 20
0.0
 30
0.0
  0
VERTEX
  5
68
330
67
100
AcDbEntity
  8
_U+30EC_U+30A4_U+30E4_U+30FC 1
 62
   179
420
  2234388
370
    25
100
AcDbVertex
100
AcDb2dVertex
 10
76.9102102600793
 20
-122.2468133027715
 30
0.0
  0
VERTEX
  5
69
330
67
100
AcDbEntity
  8
_U+30EC_U+30A4_U+30E4_U+30FC 1
 62
   179
420
  2234388
370
    25
100
AcDbVertex
100
AcDb2dVertex
 10
76.9102102600793
 20
-139.6469421873103
 30
0.0
  0
SEQEND
  5
6A
330
67
100
AcDbEntity
  8
_U+30EC_U+30A4_U+30E4_U+30FC 1
 62
   179
420
  2234388
370
    25
  0
POLYLINE
  5
6B
330
1F
100
AcDbEntity
  8
_U+30EC_U+30A4_U+30E4_U+30FC 1
 62
   179
420
  2234388
370
    25
100
AcDb2dPolyline
 66
     1
 10
0.0
 20
0.0
 30
0.0
  0
VERTEX
  5
6C
330
6B
100
AcDbEntity
  8
_U+30EC_U+30A4_U+30E4_U+30FC 1
 62
   179
420
  2234388
370
    25
100
AcDbVertex
100
AcDb2dVertex
 10
76.9102102600793
 20
-122.2468133027715
 30
0.0
  0
VERTEX
  5
6D
330
6B
100
AcDbEntity
  8
_U+30EC_U+30A4_U+30E4_U+30FC 1
 62
   179
420
  2234388
370
    25
100
AcDbVertex
100
AcDb2dVertex
 10
110.7102010644363
 20
-122.2468133027715
 30
0.0
  0
SEQEND
  5
6E
330
6B
100
AcDbEntity
  8
_U+30EC_U+30A4_U+30E4_U+30FC 1
 62
   179
420
  2234388
370
    25
  0
POLYLINE
  5
6F
330
1F
100
AcDbEntity
  8
_U+30EC_U+30A4_U+30E4_U+30FC 1
 62
   179
420
  2234388
370
    25
100
AcDb2dPolyline
 66
     1
 10
0.0
 20
0.0
 30
0.0
  0
VERTEX
  5
70
330
6F
100
AcDbEntity
  8
_U+30EC_U+30A4_U+30E4_U+30FC 1
 62
   179
420
  2234388
370
    25
100
AcDbVertex
100
AcDb2dVertex
 10
76.9102102600793
 20
-139.6469421873103
 30
0.0
  0
VERTEX
  5
71
330
6F
100
AcDbEntity
  8
_U+30EC_U+30A4_U+30E4_U+30FC 1
 62
   179
420
  2234388
370
    25
100
AcDbVertex
100
AcDb2dVertex
 10
89.51030553317783
 20
-139.6469421873103
 30
0.0
  0
SEQEND
  5
72
330
6F
100
AcDbEntity
  8
_U+30EC_U+30A4_U+30E4_U+30FC 1
 62
   179
420
  2234388
370
    25
  0
POLYLINE
  5
73
330
1F
100
AcDbEntity
  8
_U+30EC_U+30A4_U+30E4_U+30FC 1
 62
   179
420
  2234388
370
    25
100
AcDb2dPolyline
 66
     1
 10
0.0
 20
0.0
 30
0.0
  0
VERTEX
  5
74
330
73
100
AcDbEntity
  8
_U+30EC_U+30A4_U+30E4_U+30FC 1
 62
   179
420
  2234388
370
    25
100
AcDbVertex
100
AcDb2dVertex
 10
89.51030553317783
 20
-136.8467685768993
 30
0.0
  0
VERTEX
  5
75
330
73
100
AcDbEntity
  8
_U+30EC_U+30A4_U+30E4_U+30FC 1
 62
   179
420
  2234388
370
    25
100
AcDbVertex
100
AcDb2dVertex
 10
89.51030553317783
 20
-139.6469421873103
 30
0.0
  0
SEQEND
  5
76
330
73
100
AcDbEntity
  8
_U+30EC_U+30A4_U+30E4_U+30FC 1
 62
   179
420
  2234388
370
    25
  0
SPLINE
  5
77
330
1F
100
AcDbEntity
  8
_U+30EC_U+30A4_U+30E4_U+30FC 1
 62
   179
420
  2234388
370
     9
100
AcDbSpline
210
0.0
220
0.0
230
1.0
 70
    11
 71
     3
 72
    17
 73
    13
 74
     0
 42
0.0000000001
 43
0.0000000001
 12
1.0
 22
0.0
 32
0.0
 13
1.0
 23
0.0
 33
0.0
 40
0.0
 40
0.0
 40
0.0
 40
0.0
 40
1.0
 40
1.0
 40
1.0
 40
2.0
 40
2.0
 40
2.0
 40
3.0
 40
3.0
 40
3.0
 40
4.0
 40
4.0
 40
4.0
 40
4.0
 10
75.81018053660317
 20
-144.8469571860104
 30
0.0
 10
75.81018053660317
 20
-144.7915005193577
 30
0.0
 10
75.76541112261889
 20
-144.7467330193692
 30
0.0
 10
75.71009556847454
 20
-144.7467330193692
 30
0.0
 10
75.65499168099147
 20
-144.7467330193692
 30
0.0
 10
75.6101889043567
 20
-144.7915005193577
 30
0.0
 10
75.6101889043567
 20
-144.8469571860104
 30
0.0
 10
75.6101889043567
 20
-144.9020963526635
 30
0.0
 10
75.65499168099147
 20
-144.946863852652
 30
0.0
 10
75.71009556847454
 20
-144.946863852652
 30
0.0
 10
75.76541112261889
 20
-144.946863852652
 30
0.0
 10
75.81018053660317
 20
-144.9020963526635
 30
0.0
 10
75.81018053660317
 20
-144.8469571860104
 30
0.0
  0
SPLINE
  5
78
330
1F
100
AcDbEntity
  8
_U+30EC_U+30A4_U+30E4_U+30FC 1
 62
   179
420
  2234388
370
     9
100
AcDbSpline
210
0.0
220
0.0
230
1.0
 70
    11
 71
     3
 72
    17
 73
    13
 74
     0
 42
0.0000000001
 43
0.0000000001
 12
1.0
 22
0.0
 32
0.0
 13
1.0
 23
0.0
 33
0.0
 40
0.0
 40
0.0
 40
0.0
 40
0.0
 40
1.0
 40
1.0
 40
1.0
 40
2.0
 40
2.0
 40
2.0
 40
3.0
 40
3.0
 40
3.0
 40
4.0
 40
4.0
 40
4.0
 40
4.0
 10
90.81014823879566
 20
-144.8469571860104
 30
0.0
 10
90.81014823879566
 20
-144.7915005193577
 30
0.0
 10
90.7653454621609
 20
-144.7467330193692
 30
0.0
 10
90.71020629690095
 20
-144.7467330193692
 30
0.0
 10
90.6547496316491
 20
-144.7467330193692
 30
0.0
 10
90.60998213279122
 20
-144.7915005193577
 30
0.0
 10
90.60998213279122
 20
-144.8469571860104
 30
0.0
 10
90.60998213279122
 20
-144.9020963526635
 30
0.0
 10
90.6547496316491
 20
-144.946863852652
 30
0.0
 10
90.71020629690095
 20
-144.946863852652
 30
0.0
 10
90.7653454621609
 20
-144.946863852652
 30
0.0
 10
90.81014823879566
 20
-144.9020963526635
 30
0.0
 10
90.81014823879566
 20
-144.8469571860104
 30
0.0
  0
SPLINE
  5
79
330
1F
100
AcDbEntity
  8
_U+30EC_U+30A4_U+30E4_U+30FC 1
 62
   179
420
  2234388
370
     9
100
AcDbSpline
210
0.0
220
0.0
230
1.0
 70
    11
 71
     3
 72
    17
 73
    13
 74
     0
 42
0.0000000001
 43
0.0000000001
 12
1.0
 22
0.0
 32
0.0
 13
1.0
 23
0.0
 33
0.0
 40
0.0
 40
0.0
 40
0.0
 40
0.0
 40
1.0
 40
1.0
 40
1.0
 40
2.0
 40
2.0
 40
2.0
 40
3.0
 40
3.0
 40
3.0
 40
4.0
 40
4.0
 40
4.0
 40
4.0
 10
94.81040119229627
 20
-140.8468805203439
 30
0.0
 10
94.81040119229627
 20
-140.7914238536912
 30
0.0
 10
94.76563608741985
 20
-140.7466210759245
 30
0.0
 10
94.70982425041775
 20
-140.7466210759245
 30
0.0
 10
94.6546850851578
 20
-140.7466210759245
 30
0.0
 10
94.60988230852304
 20
-140.7914238536912
 30
0.0
 10
94.60988230852304
 20
-140.8468805203439
 30
0.0
 10
94.60988230852304
 20
-140.9019844092188
 30
0.0
 10
94.6546850851578
 20
-140.9467871869855
 30
0.0
 10
94.70982425041775
 20
-140.9467871869855
 30
0.0
 10
94.76563608741985
 20
-140.9467871869855
 30
0.0
 10
94.81040119229627
 20
-140.9019844092188
 30
0.0
 10
94.81040119229627
 20
-140.8468805203439
 30
0.0
  0
SPLINE
  5
7A
330
1F
100
AcDbEntity
  8
_U+30EC_U+30A4_U+30E4_U+30FC 1
 62
   179
420
  2234388
370
     9
100
AcDbSpline
210
0.0
220
0.0
230
1.0
 70
    11
 71
     3
 72
    17
 73
    13
 74
     0
 42
0.0000000001
 43
0.0000000001
 12
1.0
 22
0.0
 32
0.0
 13
1.0
 23
0.0
 33
0.0
 40
0.0
 40
0.0
 40
0.0
 40
0.0
 40
1.0
 40
1.0
 40
1.0
 40
2.0
 40
2.0
 40
2.0
 40
3.0
 40
3.0
 40
3.0
 40
4.0
 40
4.0
 40
4.0
 40
4.0
 10
94.81040119229627
 20
-136.8467685768993
 30
0.0
 10
94.81040119229627
 20
-136.7916646880244
 30
0.0
 10
94.76563608741985
 20
-136.7468619102576
 30
0.0
 10
94.70982425041775
 20
-136.7468619102576
 30
0.0
 10
94.6546850851578
 20
-136.7468619102576
 30
0.0
 10
94.60988230852304
 20
-136.7916646880244
 30
0.0
 10
94.60988230852304
 20
-136.8467685768993
 30
0.0
 10
94.60988230852304
 20
-136.9019077435524
 30
0.0
 10
94.6546850851578
 20
-136.9466752435409
 30
0.0
 10
94.70982425041775
 20
-136.9466752435409
 30
0.0
 10
94.76563608741985
 20
-136.9466752435409
 30
0.0
 10
94.81040119229627
 20
-136.9019077435524
 30
0.0
 10
94.81040119229627
 20
-136.8467685768993
 30
0.0
  0
SPLINE
  5
7B
330
1F
100
AcDbEntity
  8
_U+30EC_U+30A4_U+30E4_U+30FC 1
 62
   179
420
  2234388
370
     9
100
AcDbSpline
210
0.0
220
0.0
230
1.0
 70
    11
 71
     3
 72
    17
 73
    13
 74
     0
 42
0.0000000001
 43
0.0000000001
 12
1.0
 22
0.0
 32
0.0
 13
1.0
 23
0.0
 33
0.0
 40
0.0
 40
0.0
 40
0.0
 40
0.0
 40
1.0
 40
1.0
 40
1.0
 40
2.0
 40
2.0
 40
2.0
 40
3.0
 40
3.0
 40
3.0
 40
4.0
 40
4.0
 40
4.0
 40
4.0
 10
71.81010205686056
 20
-140.8468805203439
 30
0.0
 10
71.81010205686056
 20
-140.7914238536912
 30
0.0
 10
71.76529928022579
 20
-140.7466210759245
 30
0.0
 10
71.71016011496584
 20
-140.7466210759245
 30
0.0
 10
71.65487983859839
 20
-140.7466210759245
 30
0.0
 10
71.6101123397405
 20
-140.7914238536912
 30
0.0
 10
71.6101123397405
 20
-140.8468805203439
 30
0.0
 10
71.6101123397405
 20
-140.9019844092188
 30
0.0
 10
71.65487983859839
 20
-140.9467871869855
 30
0.0
 10
71.71016011496584
 20
-140.9467871869855
 30
0.0
 10
71.76529928022579
 20
-140.9467871869855
 30
0.0
 10
71.81010205686056
 20
-140.9019844092188
 30
0.0
 10
71.81010205686056
 20
-140.8468805203439
 30
0.0
  0
SPLINE
  5
7C
330
1F
100
AcDbEntity
  8
_U+30EC_U+30A4_U+30E4_U+30FC 1
 62
   179
420
  2234388
370
     9
100
AcDbSpline
210
0.0
220
0.0
230
1.0
 70
    11
 71
     3
 72
    17
 73
    13
 74
     0
 42
0.0000000001
 43
0.0000000001
 12
1.0
 22
0.0
 32
0.0
 13
1.0
 23
0.0
 33
0.0
 40
0.0
 40
0.0
 40
0.0
 40
0.0
 40
1.0
 40
1.0
 40
1.0
 40
2.0
 40
2.0
 40
2.0
 40
3.0
 40
3.0
 40
3.0
 40
4.0
 40
4.0
 40
4.0
 40
4.0
 10
71.81010205686056
 20
-121.0468749697383
 30
0.0
 10
71.81010205686056
 20
-120.9915946919745
 30
0.0
 10
71.76529928022579
 20
-120.9467919142078
 30
0.0
 10
71.71016011496584
 20
-120.9467919142078
 30
0.0
 10
71.65487983859839
 20
-120.9467919142078
 30
0.0
 10
71.6101123397405
 20
-120.9915946919745
 30
0.0
 10
71.6101123397405
 20
-121.0468749697383
 30
0.0
 10
71.6101123397405
 20
-121.102014136391
 30
0.0
 10
71.65487983859839
 20
-121.1467816363799
 30
0.0
 10
71.71016011496584
 20
-121.1467816363799
 30
0.0
 10
71.76529928022579
 20
-121.1467816363799
 30
0.0
 10
71.81010205686056
 20
-121.102014136391
 30
0.0
 10
71.81010205686056
 20
-121.0468749697383
 30
0.0
  0
SPLINE
  5
7D
330
1F
100
AcDbEntity
  8
_U+30EC_U+30A4_U+30E4_U+30FC 1
 62
   179
420
  2234388
370
     9
100
AcDbSpline
210
0.0
220
0.0
230
1.0
 70
    11
 71
     3
 72
    17
 73
    13
 74
     0
 42
0.0000000001
 43
0.0000000001
 12
1.0
 22
0.0
 32
0.0
 13
1.0
 23
0.0
 33
0.0
 40
0.0
 40
0.0
 40
0.0
 40
0.0
 40
1.0
 40
1.0
 40
1.0
 40
2.0
 40
2.0
 40
2.0
 40
3.0
 40
3.0
 40
3.0
 40
4.0
 40
4.0
 40
4.0
 40
4.0
 10
75.81018053660317
 20
-117.046763026294
 30
0.0
 10
75.81018053660317
 20
-116.9916591374187
 30
0.0
 10
75.76541112261889
 20
-116.9468563596523
 30
0.0
 10
75.71009556847454
 20
-116.9468563596523
 30
0.0
 10
75.65499168099147
 20
-116.9468563596523
 30
0.0
 10
75.6101889043567
 20
-116.9916591374187
 30
0.0
 10
75.6101889043567
 20
-117.046763026294
 30
0.0
 10
75.6101889043567
 20
-117.1020785818356
 30
0.0
 10
75.65499168099147
 20
-117.1468460818245
 30
0.0
 10
75.71009556847454
 20
-117.1468460818245
 30
0.0
 10
75.76541112261889
 20
-117.1468460818245
 30
0.0
 10
75.81018053660317
 20
-117.1020785818356
 30
0.0
 10
75.81018053660317
 20
-117.046763026294
 30
0.0
  0
SPLINE
  5
7E
330
1F
100
AcDbEntity
  8
_U+30EC_U+30A4_U+30E4_U+30FC 1
 62
   179
420
  2234388
370
     9
100
AcDbSpline
210
0.0
220
0.0
230
1.0
 70
    11
 71
     3
 72
    17
 73
    13
 74
     0
 42
0.0000000001
 43
0.0000000001
 12
1.0
 22
0.0
 32
0.0
 13
1.0
 23
0.0
 33
0.0
 40
0.0
 40
0.0
 40
0.0
 40
0.0
 40
1.0
 40
1.0
 40
1.0
 40
2.0
 40
2.0
 40
2.0
 40
3.0
 40
3.0
 40
3.0
 40
4.0
 40
4.0
 40
4.0
 40
4.0
 10
110.8101077285542
 20
-117.046763026294
 30
0.0
 10
110.8101077285542
 20
-116.9916591374187
 30
0.0
 10
110.7653402296963
 20
-116.9468563596523
 30
0.0
 10
110.7102010644363
 20
-116.9468563596523
 30
0.0
 10
110.6550999723361
 20
-116.9468563596523
 30
0.0
 10
110.6102971945694
 20
-116.9916591374187
 30
0.0
 10
110.6102971945694
 20
-117.046763026294
 30
0.0
 10
110.6102971945694
 20
-117.1020785818356
 30
0.0
 10
110.6550999723361
 20
-117.1468460818245
 30
0.0
 10
110.7102010644363
 20
-117.1468460818245
 30
0.0
 10
110.7653402296963
 20
-117.1468460818245
 30
0.0
 10
110.8101077285542
 20
-117.1020785818356
 30
0.0
 10
110.8101077285542
 20
-117.046763026294
 30
0.0
  0
SPLINE
  5
7F
330
1F
100
AcDbEntity
  8
_U+30EC_U+30A4_U+30E4_U+30FC 1
 62
   179
420
  2234388
370
     9
100
AcDbSpline
210
0.0
220
0.0
230
1.0
 70
    11
 71
     3
 72
    17
 73
    13
 74
     0
 42
0.0000000001
 43
0.0000000001
 12
1.0
 22
0.0
 32
0.0
 13
1.0
 23
0.0
 33
0.0
 40
0.0
 40
0.0
 40
0.0
 40
0.0
 40
1.0
 40
1.0
 40
1.0
 40
2.0
 40
2.0
 40
2.0
 40
3.0
 40
3.0
 40
3.0
 40
4.0
 40
4.0
 40
4.0
 40
4.0
 10
114.8098667931785
 20
-122.2468133027715
 30
0.0
 10
114.8098667931785
 20
-122.1916741361188
 30
0.0
 10
114.7650992943206
 20
-122.1469066361299
 30
0.0
 10
114.7099601290607
 20
-122.1469066361299
 30
0.0
 10
114.6548562415776
 20
-122.1469066361299
 30
0.0
 10
114.6100534649428
 20
-122.1916741361188
 30
0.0
 10
114.6100534649428
 20
-122.2468133027715
 30
0.0
 10
114.6100534649428
 20
-122.3020935805357
 30
0.0
 10
114.6548562415776
 20
-122.3468963583021
 30
0.0
 10
114.7099601290607
 20
-122.3468963583021
 30
0.0
 10
114.7650992943206
 20
-122.3468963583021
 30
0.0
 10
114.8098667931785
 20
-122.3020935805357
 30
0.0
 10
114.8098667931785
 20
-122.2468133027715
 30
0.0
  0
SPLINE
  5
80
330
1F
100
AcDbEntity
  8
_U+30EC_U+30A4_U+30E4_U+30FC 1
 62
   179
420
  2234388
370
     9
100
AcDbSpline
210
0.0
220
0.0
230
1.0
 70
    11
 71
     3
 72
    17
 73
    13
 74
     0
 42
0.0000000001
 43
0.0000000001
 12
1.0
 22
0.0
 32
0.0
 13
1.0
 23
0.0
 33
0.0
 40
0.0
 40
0.0
 40
0.0
 40
0.0
 40
1.0
 40
1.0
 40
1.0
 40
2.0
 40
2.0
 40
2.0
 40
3.0
 40
3.0
 40
3.0
 40
4.0
 40
4.0
 40
4.0
 40
4.0
 10
114.8098667931785
 20
-136.8467685768993
 30
0.0
 10
114.8098667931785
 20
-136.7916646880244
 30
0.0
 10
114.7650992943206
 20
-136.7468619102576
 30
0.0
 10
114.7099601290607
 20
-136.7468619102576
 30
0.0
 10
114.6548562415776
 20
-136.7468619102576
 30
0.0
 10
114.6100534649428
 20
-136.7916646880244
 30
0.0
 10
114.6100534649428
 20
-136.8467685768993
 30
0.0
 10
114.6100534649428
 20
-136.9019077435524
 30
0.0
 10
114.6548562415776
 20
-136.9466752435409
 30
0.0
 10
114.7099601290607
 20
-136.9466752435409
 30
0.0
 10
114.7650992943206
 20
-136.9466752435409
 30
0.0
 10
114.8098667931785
 20
-136.9019077435524
 30
0.0
 10
114.8098667931785
 20
-136.8467685768993
 30
0.0
  0
POLYLINE
  5
81
330
1F
100
AcDbEntity
  8
_U+30EC_U+30A4_U+30E4_U+30FC 1
 62
   179
420
  2234388
370
     9
100
AcDb2dPolyline
 66
     1
 10
0.0
 20
0.0
 30
0.0
  0
VERTEX
  5
82
330
81
100
AcDbEntity
  8
_U+30EC_U+30A4_U+30E4_U+30FC 1
 62
   179
420
  2234388
370
     9
100
AcDbVertex
100
AcDb2dVertex
 10
75.71009556847454
 20
-117.046763026294
 30
0.0
  0
VERTEX
  5
83
330
81
100
AcDbEntity
  8
_U+30EC_U+30A4_U+30E4_U+30FC 1
 62
   179
420
  2234388
370
     9
100
AcDbVertex
100
AcDb2dVertex
 10
110.7102010644363
 20
-117.046763026294
 30
0.0
  0
SEQEND
  5
84
330
81
100
AcDbEntity
  8
_U+30EC_U+30A4_U+30E4_U+30FC 1
 62
   179
420
  2234388
370
     9
  0
POLYLINE
  5
85
330
1F
100
AcDbEntity
  8
_U+30EC_U+30A4_U+30E4_U+30FC 1
 62
   179
420
  2234388
370
     9
100
AcDb2dPolyline
 66
     1
 10
0.0
 20
0.0
 30
0.0
  0
VERTEX
  5
86
330
85
100
AcDbEntity
  8
_U+30EC_U+30A4_U+30E4_U+30FC 1
 62
   179
420
  2234388
370
     9
100
AcDbVertex
100
AcDb2dVertex
 10
75.71009556847454
 20
-118.5068044148177
 30
0.0
  0
VERTEX
  5
87
330
85
100
AcDbEntity
  8
_U+30EC_U+30A4_U+30E4_U+30FC 1
 62
   179
420
  2234388
370
     9
100
AcDbVertex
100
AcDb2dVertex
 10
75.71009556847454
 20
-116.0468496932104
 30
0.0
  0
SEQEND
  5
88
330
85
100
AcDbEntity
  8
_U+30EC_U+30A4_U+30E4_U+30FC 1
 62
   179
420
  2234388
370
     9
  0
POLYLINE
  5
89
330
1F
100
AcDbEntity
  8
_U+30EC_U+30A4_U+30E4_U+30FC 1
 62
   179
420
  2234388
370
     9
100
AcDb2dPolyline
 66
     1
 10
0.0
 20
0.0
 30
0.0
  0
VERTEX
  5
8A
330
89
100
AcDbEntity
  8
_U+30EC_U+30A4_U+30E4_U+30FC 1
 62
   179
420
  2234388
370
     9
100
AcDbVertex
100
AcDb2dVertex
 10
110.7102010644363
 20
-118.5068044148177
 30
0.0
  0
VERTEX
  5
8B
330
89
100
AcDbEntity
  8
_U+30EC_U+30A4_U+30E4_U+30FC 1
 62
   179
420
  2234388
370
     9
100
AcDbVertex
100
AcDb2dVertex
 10
110.7102010644363
 20
-116.0468496932104
 30
0.0
  0
SEQEND
  5
8C
330
89
100
AcDbEntity
  8
_U+30EC_U+30A4_U+30E4_U+30FC 1
 62
   179
420
  2234388
370
     9
  0
INSERT
  5
8E
330
1F
100
AcDbEntity
  8
_U+30EC_U+30A4_U+30E4_U+30FC 1
100
AcDbBlockReference
  2
block 2
 10
0.0
 20
0.0
 30
0.0
  0
POLYLINE
  5
95
330
1F
100
AcDbEntity
  8
_U+30EC_U+30A4_U+30E4_U+30FC 1
 62
   179
420
  2234388
370
     9
100
AcDb2dPolyline
 66
     1
 10
0.0
 20
0.0
 30
0.0
  0
VERTEX
  5
96
330
95
100
AcDbEntity
  8
_U+30EC_U+30A4_U+30E4_U+30FC 1
 62
   179
420
  2234388
370
     9
100
AcDbVertex
100
AcDb2dVertex
 10
75.71009556847454
 20
-144.8469571860104
 30
0.0
  0
VERTEX
  5
97
330
95
100
AcDbEntity
  8
_U+30EC_U+30A4_U+30E4_U+30FC 1
 62
   179
420
  2234388
370
     9
100
AcDbVertex
100
AcDb2dVertex
 10
90.71020629690095
 20
-144.8469571860104
 30
0.0
  0
SEQEND
  5
98
330
95
100
AcDbEntity
  8
_U+30EC_U+30A4_U+30E4_U+30FC 1
 62
   179
420
  2234388
370
     9
  0
POLYLINE
  5
99
330
1F
100
AcDbEntity
  8
_U+30EC_U+30A4_U+30E4_U+30FC 1
 62
   179
420
  2234388
370
     9
100
AcDb2dPolyline
 66
     1
 10
0.0
 20
0.0
 30
0.0
  0
VERTEX
  5
9A
330
99
100
AcDbEntity
  8
_U+30EC_U+30A4_U+30E4_U+30FC 1
 62
   179
420
  2234388
370
     9
100
AcDbVertex
100
AcDb2dVertex
 10
75.71009556847454
 20
-143.3869510752642
 30
0.0
  0
VERTEX
  5
9B
330
99
100
AcDbEntity
  8
_U+30EC_U+30A4_U+30E4_U+30FC 1
 62
   179
420
  2234388
370
     9
100
AcDbVertex
100
AcDb2dVertex
 10
75.71009556847454
 20
-145.8467294079829
 30
0.0
  0
SEQEND
  5
9C
330
99
100
AcDbEntity
  8
_U+30EC_U+30A4_U+30E4_U+30FC 1
 62
   179
420
  2234388
370
     9
  0
POLYLINE
  5
9D
330
1F
100
AcDbEntity
  8
_U+30EC_U+30A4_U+30E4_U+30FC 1
 62
   179
420
  2234388
370
     9
100
AcDb2dPolyline
 66
     1
 10
0.0
 20
0.0
 30
0.0
  0
VERTEX
  5
9E
330
9D
100
AcDbEntity
  8
_U+30EC_U+30A4_U+30E4_U+30FC 1
 62
   179
420
  2234388
370
     9
100
AcDbVertex
100
AcDb2dVertex
 10
90.71020629690095
 20
-143.3869510752642
 30
0.0
  0
VERTEX
  5
9F
330
9D
100
AcDbEntity
  8
_U+30EC_U+30A4_U+30E4_U+30FC 1
 62
   179
420
  2234388
370
     9
100
AcDbVertex
100
AcDb2dVertex
 10
90.71020629690095
 20
-145.8467294079829
 30
0.0
  0
SEQEND
  5
A0
330
9D
100
AcDbEntity
  8
_U+30EC_U+30A4_U+30E4_U+30FC 1
 62
   179
420
  2234388
370
     9
  0
INSERT
  5
A2
330
1F
100
AcDbEntity
  8
_U+30EC_U+30A4_U+30E4_U+30FC 1
100
AcDbBlockReference
  2
block 3
 10
0.0
 20
0.0
 30
0.0
  0
POLYLINE
  5
A9
330
1F
100
AcDbEntity
  8
_U+30EC_U+30A4_U+30E4_U+30FC 1
 62
   179
420
  2234388
370
     9
100
AcDb2dPolyline
 66
     1
 10
0.0
 20
0.0
 30
0.0
  0
VERTEX
  5
AA
330
A9
100
AcDbEntity
  8
_U+30EC_U+30A4_U+30E4_U+30FC 1
 62
   179
420
  2234388
370
     9
100
AcDbVertex
100
AcDb2dVertex
 10
71.71016011496584
 20
-121.0468749697383
 30
0.0
  0
VERTEX
  5
AB
330
A9
100
AcDbEntity
  8
_U+30EC_U+30A4_U+30E4_U+30FC 1
 62
   179
420
  2234388
370
     9
100
AcDbVertex
100
AcDb2dVertex
 10
71.71016011496584
 20
-140.8468805203439
 30
0.0
  0
SEQEND
  5
AC
330
A9
100
AcDbEntity
  8
_U+30EC_U+30A4_U+30E4_U+30FC 1
 62
   179
420
  2234388
370
     9
  0
POLYLINE
  5
AD
330
1F
100
AcDbEntity
  8
_U+30EC_U+30A4_U+30E4_U+30FC 1
 62
   179
420
  2234388
370
     9
100
AcDb2dPolyline
 66
     1
 10
0.0
 20
0.0
 30
0.0
  0
VERTEX
  5
AE
330
AD
100
AcDbEntity
  8
_U+30EC_U+30A4_U+30E4_U+30FC 1
 62
   179
420
  2234388
370
     9
100
AcDbVertex
100
AcDb2dVertex
 10
73.17020146660597
 20
-121.0468749697383
 30
0.0
  0
VERTEX
  5
AF
330
AD
100
AcDbEntity
  8
_U+30EC_U+30A4_U+30E4_U+30FC 1
 62
   179
420
  2234388
370
     9
100
AcDbVertex
100
AcDb2dVertex
 10
70.71007220454474
 20
-121.0468749697383
 30
0.0
  0
SEQEND
  5
B0
330
AD
100
AcDbEntity
  8
_U+30EC_U+30A4_U+30E4_U+30FC 1
 62
   179
420
  2234388
370
     9
  0
POLYLINE
  5
B1
330
1F
100
AcDbEntity
  8
_U+30EC_U+30A4_U+30E4_U+30FC 1
 62
   179
420
  2234388
370
     9
100
AcDb2dPolyline
 66
     1
 10
0.0
 20
0.0
 30
0.0
  0
VERTEX
  5
B2
330
B1
100
AcDbEntity
  8
_U+30EC_U+30A4_U+30E4_U+30FC 1
 62
   179
420
  2234388
370
     9
100
AcDbVertex
100
AcDb2dVertex
 10
73.17020146660597
 20
-140.8468805203439
 30
0.0
  0
VERTEX
  5
B3
330
B1
100
AcDbEntity
  8
_U+30EC_U+30A4_U+30E4_U+30FC 1
 62
   179
420
  2234388
370
     9
100
AcDbVertex
100
AcDb2dVertex
 10
70.71007220454474
 20
-140.8468805203439
 30
0.0
  0
SEQEND
  5
B4
330
B1
100
AcDbEntity
  8
_U+30EC_U+30A4_U+30E4_U+30FC 1
 62
   179
420
  2234388
370
     9
  0
INSERT
  5
B6
330
1F
100
AcDbEntity
  8
_U+30EC_U+30A4_U+30E4_U+30FC 1
100
AcDbBlockReference
  2
block 4
 10
0.0
 20
0.0
 30
0.0
  0
POLYLINE
  5
CE
330
1F
100
AcDbEntity
  8
_U+30EC_U+30A4_U+30E4_U+30FC 1
 62
   179
420
  2234388
370
     9
100
AcDb2dPolyline
 66
     1
 10
0.0
 20
0.0
 30
0.0
  0
VERTEX
  5
CF
330
CE
100
AcDbEntity
  8
_U+30EC_U+30A4_U+30E4_U+30FC 1
 62
   179
420
  2234388
370
     9
100
AcDbVertex
100
AcDb2dVertex
 10
94.70982425041775
 20
-136.8467685768993
 30
0.0
  0
VERTEX
  5
D0
330
CE
100
AcDbEntity
  8
_U+30EC_U+30A4_U+30E4_U+30FC 1
 62
   179
420
  2234388
370
     9
100
AcDbVertex
100
AcDb2dVertex
 10
94.70982425041775
 20
-140.8468805203439
 30
0.0
  0
SEQEND
  5
D1
330
CE
100
AcDbEntity
  8
_U+30EC_U+30A4_U+30E4_U+30FC 1
 62
   179
420
  2234388
370
     9
  0
POLYLINE
  5
D2
330
1F
100
AcDbEntity
  8
_U+30EC_U+30A4_U+30E4_U+30FC 1
 62
   179
420
  2234388
370
     9
100
AcDb2dPolyline
 66
     1
 10
0.0
 20
0.0
 30
0.0
  0
VERTEX
  5
D3
330
D2
100
AcDbEntity
  8
_U+30EC_U+30A4_U+30E4_U+30FC 1
 62
   179
420
  2234388
370
     9
100
AcDbVertex
100
AcDb2dVertex
 10
93.25045553224307
 20
-136.8467685768993
 30
0.0
  0
VERTEX
  5
D4
330
D2
100
AcDbEntity
  8
_U+30EC_U+30A4_U+30E4_U+30FC 1
 62
   179
420
  2234388
370
     9
100
AcDbVertex
100
AcDb2dVertex
 10
95.71026672489434
 20
-136.8467685768993
 30
0.0
  0
SEQEND
  5
D5
330
D2
100
AcDbEntity
  8
_U+30EC_U+30A4_U+30E4_U+30FC 1
 62
   179
420
  2234388
370
     9
  0
POLYLINE
  5
D6
330
1F
100
AcDbEntity
  8
_U+30EC_U+30A4_U+30E4_U+30FC 1
 62
   179
420
  2234388
370
     9
100
AcDb2dPolyline
 66
     1
 10
0.0
 20
0.0
 30
0.0
  0
VERTEX
  5
D7
330
D6
100
AcDbEntity
  8
_U+30EC_U+30A4_U+30E4_U+30FC 1
 62
   179
420
  2234388
370
     9
100
AcDbVertex
100
AcDb2dVertex
 10
93.25045553224307
 20
-140.8468805203439
 30
0.0
  0
VERTEX
  5
D8
330
D6
100
AcDbEntity
  8
_U+30EC_U+30A4_U+30E4_U+30FC 1
 62
   179
420
  2234388
370
     9
100
AcDbVertex
100
AcDb2dVertex
 10
95.71026672489434
 20
-140.8468805203439
 30
0.0
  0
SEQEND
  5
D9
330
D6
100
AcDbEntity
  8
_U+30EC_U+30A4_U+30E4_U+30FC 1
 62
   179
420
  2234388
370
     9
  0
INSERT
  5
DB
330
1F
100
AcDbEntity
  8
_U+30EC_U+30A4_U+30E4_U+30FC 1
100
AcDbBlockReference
  2
block 5
 10
0.0
 20
0.0
 30
0.0
  0
POLYLINE
  5
F3
330
1F
100
AcDbEntity
  8
_U+30EC_U+30A4_U+30E4_U+30FC 1
 62
   179
420
  2234388
370
     9
100
AcDb2dPolyline
 66
     1
 10
0.0
 20
0.0
 30
0.0
  0
VERTEX
  5
F4
330
F3
100
AcDbEntity
  8
_U+30EC_U+30A4_U+30E4_U+30FC 1
 62
   179
420
  2234388
370
     9
100
AcDbVertex
100
AcDb2dVertex
 10
114.7099601290607
 20
-122.2468133027715
 30
0.0
  0
VERTEX
  5
F5
330
F3
100
AcDbEntity
  8
_U+30EC_U+30A4_U+30E4_U+30FC 1
 62
   179
420
  2234388
370
     9
100
AcDbVertex
100
AcDb2dVertex
 10
114.7099601290607
 20
-136.8467685768993
 30
0.0
  0
SEQEND
  5
F6
330
F3
100
AcDbEntity
  8
_U+30EC_U+30A4_U+30E4_U+30FC 1
 62
   179
420
  2234388
370
     9
  0
POLYLINE
  5
F7
330
1F
100
AcDbEntity
  8
_U+30EC_U+30A4_U+30E4_U+30FC 1
 62
   179
420
  2234388
370
     9
100
AcDb2dPolyline
 66
     1
 10
0.0
 20
0.0
 30
0.0
  0
VERTEX
  5
F8
330
F7
100
AcDbEntity
  8
_U+30EC_U+30A4_U+30E4_U+30FC 1
 62
   179
420
  2234388
370
     9
100
AcDbVertex
100
AcDb2dVertex
 10
113.2499187774205
 20
-122.2468133027715
 30
0.0
  0
VERTEX
  5
F9
330
F7
100
AcDbEntity
  8
_U+30EC_U+30A4_U+30E4_U+30FC 1
 62
   179
420
  2234388
370
     9
100
AcDbVertex
100
AcDb2dVertex
 10
115.7104055266278
 20
-122.2468133027715
 30
0.0
  0
SEQEND
  5
FA
330
F7
100
AcDbEntity
  8
_U+30EC_U+30A4_U+30E4_U+30FC 1
 62
   179
420
  2234388
370
     9
  0
POLYLINE
  5
FB
330
1F
100
AcDbEntity
  8
_U+30EC_U+30A4_U+30E4_U+30FC 1
 62
   179
420
  2234388
370
     9
100
AcDb2dPolyline
 66
     1
 10
0.0
 20
0.0
 30
0.0
  0
VERTEX
  5
FC
330
FB
100
AcDbEntity
  8
_U+30EC_U+30A4_U+30E4_U+30FC 1
 62
   179
420
  2234388
370
     9
100
AcDbVertex
100
AcDb2dVertex
 10
93.25045553224307
 20
-136.8467685768993
 30
0.0
  0
VERTEX
  5
FD
330
FB
100
AcDbEntity
  8
_U+30EC_U+30A4_U+30E4_U+30FC 1
 62
   179
420
  2234388
370
     9
100
AcDbVertex
100
AcDb2dVertex
 10
115.7104055266278
 20
-136.8467685768993
 30
0.0
  0
SEQEND
  5
FE
330
FB
100
AcDbEntity
  8
_U+30EC_U+30A4_U+30E4_U+30FC 1
 62
   179
420
  2234388
370
     9
  0
INSERT
  5
100
330
1F
100
AcDbEntity
  8
_U+30EC_U+30A4_U+30E4_U+30FC 1
100
AcDbBlockReference
  2
block 6
 10
0.0
 20
0.0
 30
0.0
  0
SPLINE
  5
125
330
1F
100
AcDbEntity
  8
_U+30EC_U+30A4_U+30E4_U+30FC 1
 62
   179
420
  2234388
370
     9
100
AcDbSpline
210
0.0
220
0.0
230
1.0
 70
    11
 71
     3
 72
    17
 73
    13
 74
     0
 42
0.0000000001
 43
0.0000000001
 12
1.0
 22
0.0
 32
0.0
 13
1.0
 23
0.0
 33
0.0
 40
0.0
 40
0.0
 40
0.0
 40
0.0
 40
1.0
 40
1.0
 40
1.0
 40
2.0
 40
2.0
 40
2.0
 40
3.0
 40
3.0
 40
3.0
 40
4.0
 40
4.0
 40
4.0
 40
4.0
 10
114.8098667931785
 20
-121.0465221919605
 30
0.0
 10
114.8098667931785
 20
-120.9914183030856
 30
0.0
 10
114.7650992943206
 20
-120.9466155253189
 30
0.0
 10
114.7099601290607
 20
-120.9466155253189
 30
0.0
 10
114.6548562415776
 20
-120.9466155253189
 30
0.0
 10
114.6100534649428
 20
-120.9914183030856
 30
0.0
 10
114.6100534649428
 20
-121.0465221919605
 30
0.0
 10
114.6100534649428
 20
-121.1018377475025
 30
0.0
 10
114.6548562415776
 20
-121.146605247491
 30
0.0
 10
114.7099601290607
 20
-121.146605247491
 30
0.0
 10
114.7650992943206
 20
-121.146605247491
 30
0.0
 10
114.8098667931785
 20
-121.1018377475025
 30
0.0
 10
114.8098667931785
 20
-121.0465221919605
 30
0.0
  0
POLYLINE
  5
126
330
1F
100
AcDbEntity
  8
_U+30EC_U+30A4_U+30E4_U+30FC 1
 62
   179
420
  2234388
370
     9
100
AcDb2dPolyline
 66
     1
 10
0.0
 20
0.0
 30
0.0
  0
VERTEX
  5
127
330
126
100
AcDbEntity
  8
_U+30EC_U+30A4_U+30E4_U+30FC 1
 62
   179
420
  2234388
370
     9
100
AcDbVertex
100
AcDb2dVertex
 10
114.7099601290607
 20
-121.0465221919605
 30
0.0
  0
VERTEX
  5
128
330
126
100
AcDbEntity
  8
_U+30EC_U+30A4_U+30E4_U+30FC 1
 62
   179
420
  2234388
370
     9
100
AcDbVertex
100
AcDb2dVertex
 10
114.7099601290607
 20
-122.2468133027715
 30
0.0
  0
SEQEND
  5
129
330
126
100
AcDbEntity
  8
_U+30EC_U+30A4_U+30E4_U+30FC 1
 62
   179
420
  2234388
370
     9
  0
POLYLINE
  5
12A
330
1F
100
AcDbEntity
  8
_U+30EC_U+30A4_U+30E4_U+30FC 1
 62
   179
420
  2234388
370
     9
100
AcDb2dPolyline
 66
     1
 10
0.0
 20
0.0
 30
0.0
  0
VERTEX
  5
12B
330
12A
100
AcDbEntity
  8
_U+30EC_U+30A4_U+30E4_U+30FC 1
 62
   179
420
  2234388
370
     9
100
AcDbVertex
100
AcDb2dVertex
 10
113.2499187774205
 20
-121.0465221919605
 30
0.0
  0
VERTEX
  5
12C
330
12A
100
AcDbEntity
  8
_U+30EC_U+30A4_U+30E4_U+30FC 1
 62
   179
420
  2234388
370
     9
100
AcDbVertex
100
AcDb2dVertex
 10
115.7104055266278
 20
-121.0465221919605
 30
0.0
  0
SEQEND
  5
12D
330
12A
100
AcDbEntity
  8
_U+30EC_U+30A4_U+30E4_U+30FC 1
 62
   179
420
  2234388
370
     9
  0
POLYLINE
  5
12E
330
1F
100
AcDbEntity
  8
_U+30EC_U+30A4_U+30E4_U+30FC 1
 62
   179
420
  2234388
370
     9
100
AcDb2dPolyline
 66
     1
 10
0.0
 20
0.0
 30
0.0
  0
VERTEX
  5
12F
330
12E
100
AcDbEntity
  8
_U+30EC_U+30A4_U+30E4_U+30FC 1
 62
   179
420
  2234388
370
     9
100
AcDbVertex
100
AcDb2dVertex
 10
114.7099601290607
 20
-121.0465221919605
 30
0.0
  0
VERTEX
  5
130
330
12E
100
AcDbEntity
  8
_U+30EC_U+30A4_U+30E4_U+30FC 1
 62
   179
420
  2234388
370
     9
100
AcDbVertex
100
AcDb2dVertex
 10
114.7099601290607
 20
-115.7886163599416
 30
0.0
  0
SEQEND
  5
131
330
12E
100
AcDbEntity
  8
_U+30EC_U+30A4_U+30E4_U+30FC 1
 62
   179
420
  2234388
370
     9
  0
INSERT
  5
133
330
1F
100
AcDbEntity
  8
_U+30EC_U+30A4_U+30E4_U+30FC 1
100
AcDbBlockReference
  2
block 7
 10
0.0
 20
0.0
 30
0.0
  0
ENDSEC
  0
SECTION
  2
OBJECTS
  0
DICTIONARY
  5
C
330
0
100
AcDbDictionary
281
     1
  3
ACAD_GROUP
350
D
  3
ACAD_LAYOUT
350
1A
  3
ACAD_MATERIAL
350
3B
  3
ACAD_MLEADERSTYLE
350
143
  3
ACAD_MLINESTYLE
350
17
  3
ACAD_PLOTSETTINGS
350
19
  3
ACAD_PLOTSTYLENAME
350
E
  3
ACAD_TABLESTYLE
350
142
  3
ACAD_VISUALSTYLE
350
2A
  0
SUN
  5
3F
330
29
100
AcDbSun
 90
        1
290
     0
 63
     7
421
 16777215
 40
1.0
291
     1
 91
  2455826
 92
 54000000
292
     0
 70
     2
 71
   256
280
     1
  0
DICTIONARY
  5
D
102
{ACAD_REACTORS
330
C
102
}
330
C
100
AcDbDictionary
281
     1
  0
DICTIONARY
  5
1A
102
{ACAD_REACTORS
330
C
102
}
330
C
100
AcDbDictionary
281
     1
  3
Layout1
350
1E
  3
Layout2
350
26
  3
Model
350
22
  0
DICTIONARY
  5
3B
102
{ACAD_REACTORS
330
C
102
}
330
C
100
AcDbDictionary
281
     1
  3
ByBlock
350
3D
  3
ByLayer
350
3C
  3
Global
350
3E
  0
DICTIONARY
  5
143
102
{ACAD_REACTORS
330
C
102
}
330
C
100
AcDbDictionary
281
     1
  0
DICTIONARY
  5
17
102
{ACAD_REACTORS
330
C
102
}
330
C
100
AcDbDictionary
281
     1
  3
Standard
350
18
  0
DICTIONARY
  5
19
102
{ACAD_REACTORS
330
C
102
}
330
C
100
AcDbDictionary
281
     1
  0
ACDBDICTIONARYWDFLT
  5
E
102
{ACAD_REACTORS
330
C
102
}
330
C
100
AcDbDictionary
281
     1
  3
Normal
350
F
100
AcDbDictionaryWithDefault
340
F
  0
DICTIONARY
  5
142
102
{ACAD_REACTORS
330
C
102
}
330
C
100
AcDbDictionary
281
     1
  0
DICTIONARY
  5
2A
102
{ACAD_REACTORS
330
C
102
}
330
C
100
AcDbDictionary
281
     1
  3
2dWireframe
350
2F
  3
3D Hidden
350
31
  3
3dWireframe
350
30
  3
Basic
350
32
  3
Brighten
350
36
  3
ColorChange
350
3A
  3
Conceptual
350
34
  3
Dim
350
35
  3
Facepattern
350
39
  3
Flat
350
2B
  3
FlatWithEdges
350
2C
  3
Gouraud
350
2D
  3
GouraudWithEdges
350
2E
  3
Linepattern
350
38
  3
Realistic
350
33
  3
Thicken
350
37
  0
LAYOUT
  5
1E
102
{ACAD_REACTORS
330
1A
102
}
330
1A
100
AcDbPlotSettings
  1

  2
none_device
  4

  6

 40
0.0
 41
0.0
 42
0.0
 43
0.0
 44
0.0
 45
0.0
 46
0.0
 47
0.0
 48
0.0
 49
0.0
140
0.0
141
0.0
142
1.0
143
1.0
 70
   688
 72
     0
 73
     0
 74
     5
  7

 75
    16
 76
     0
 77
     2
 78
   300
147
1.0
148
0.0
149
0.0
100
AcDbLayout
  1
Layout1
 70
     1
 71
     1
 10
0.0
 20
0.0
 11
12.0
 21
9.0
 12
0.0
 22
0.0
 32
0.0
 14
1.000000000000000E+20
 24
1.000000000000000E+20
 34
1.000000000000000E+20
 15
-1.000000000000000E+20
 25
-1.000000000000000E+20
 35
-1.000000000000000E+20
146
0.0
 13
0.0
 23
0.0
 33
0.0
 16
1.0
 26
0.0
 36
0.0
 17
0.0
 27
1.0
 37
0.0
 76
     0
330
1B
  0
LAYOUT
  5
26
102
{ACAD_REACTORS
330
1A
102
}
330
1A
100
AcDbPlotSettings
  1

  2
none_device
  4

  6

 40
0.0
 41
0.0
 42
0.0
 43
0.0
 44
0.0
 45
0.0
 46
0.0
 47
0.0
 48
0.0
 49
0.0
140
0.0
141
0.0
142
1.0
143
1.0
 70
   688
 72
     0
 73
     0
 74
     5
  7

 75
    16
 76
     0
 77
     2
 78
   300
147
1.0
148
0.0
149
0.0
100
AcDbLayout
  1
Layout2
 70
     1
 71
     2
 10
0.0
 20
0.0
 11
0.0
 21
0.0
 12
0.0
 22
0.0
 32
0.0
 14
0.0
 24
0.0
 34
0.0
 15
0.0
 25
0.0
 35
0.0
146
0.0
 13
0.0
 23
0.0
 33
0.0
 16
1.0
 26
0.0
 36
0.0
 17
0.0
 27
1.0
 37
0.0
 76
     0
330
23
  0
LAYOUT
  5
22
102
{ACAD_REACTORS
330
1A
102
}
330
1A
100
AcDbPlotSettings
  1

  2
none_device
  4

  6

 40
0.0
 41
0.0
 42
0.0
 43
0.0
 44
0.0
 45
0.0
 46
0.0
 47
0.0
 48
0.0
 49
0.0
140
0.0
141
0.0
142
1.0
143
1.0
 70
  1712
 72
     0
 73
     0
 74
     0
  7

 75
     0
 76
     0
 77
     2
 78
   300
147
1.0
148
0.0
149
0.0
100
AcDbLayout
  1
Model
 70
     1
 71
     0
 10
0.0
 20
0.0
 11
12.0
 21
9.0
 12
0.0
 22
0.0
 32
0.0
 14
1.000000000000000E+20
 24
1.000000000000000E+20
 34
1.000000000000000E+20
 15
-1.000000000000000E+20
 25
-1.000000000000000E+20
 35
-1.000000000000000E+20
146
0.0
 13
0.0
 23
0.0
 33
0.0
 16
1.0
 26
0.0
 36
0.0
 17
0.0
 27
1.0
 37
0.0
 76
     0
330
1F
331
29
  0
MATERIAL
  5
3D
102
{ACAD_REACTORS
330
3B
102
}
330
3B
100
AcDbMaterial
  1
ByBlock
 72
     1
 94
      127
  0
MATERIAL
  5
3C
102
{ACAD_REACTORS
330
3B
102
}
330
3B
100
AcDbMaterial
  1
ByLayer
 72
     1
 94
      127
  0
MATERIAL
  5
3E
102
{ACAD_REACTORS
330
3B
102
}
330
3B
100
AcDbMaterial
  1
Global
 72
     1
 94
      127
  0
MLINESTYLE
  5
18
102
{ACAD_REACTORS
330
17
102
}
330
17
100
AcDbMlineStyle
  2
Standard
 70
     0
  3

 62
   256
 51
90.0
 52
90.0
 71
     2
 49
0.5
 62
   256
  6
BYLAYER
 49
-0.5
 62
   256
  6
BYLAYER
  0
ACDBPLACEHOLDER
  5
F
102
{ACAD_REACTORS
330
E
102
}
330
E
  0
VISUALSTYLE
  5
2F
102
{ACAD_REACTORS
330
2A
102
}
330
2A
100
AcDbVisualStyle
  2
2dWireframe
 70
     4
177
     2
291
     0
 71
     0
176
     1
 72
     2
176
     1
 73
     0
176
     1
 90
        0
176
     1
 40
-0.6
176
     1
 41
-30.0
176
     1
 62
     5
 63
     7
421
 16777215
176
     1
 74
     1
176
     1
 91
        4
176
     1
 64
     7
176
     1
 65
   257
176
     1
 75
     1
176
     1
175
     1
176
     1
 42
1.0
176
     1
 92
        0
176
     1
 66
   257
176
     1
 43
1.0
176
     1
 76
     1
176
     1
 77
     6
176
     1
 78
     2
176
     1
 67
     7
176
     1
 79
     5
176
     1
170
     0
176
     1
171
     0
176
     1
290
     0
176
     1
 93
        1
176
     1
 44
0.0
176
     1
173
     0
176
     1
  0
VISUALSTYLE
  5
31
102
{ACAD_REACTORS
330
2A
102
}
330
2A
100
AcDbVisualStyle
  2
3D Hidden
 70
     6
177
     2
291
     0
 71
     1
176
     1
 72
     2
176
     1
 73
     2
176
     1
 90
        0
176
     1
 40
-0.6
176
     1
 41
-30.0
176
     1
 62
     5
 63
     7
421
 16777215
176
     1
 74
     2
176
     1
 91
        2
176
     1
 64
     7
176
     1
 65
   257
176
     1
 75
     2
176
     1
175
     1
176
     1
 42
40.0
176
     1
 92
        0
176
     1
 66
   257
176
     1
 43
1.0
176
     1
 76
     1
176
     1
 77
     6
176
     1
 78
     2
176
     1
 67
     7
176
     1
 79
     3
176
     1
170
     0
176
     1
171
     0
176
     1
290
     0
176
     1
 93
        1
176
     1
 44
0.0
176
     1
173
     0
176
     1
  0
VISUALSTYLE
  5
30
102
{ACAD_REACTORS
330
2A
102
}
330
2A
100
AcDbVisualStyle
  2
3dWireframe
 70
     5
177
     2
291
     0
 71
     0
176
     1
 72
     2
176
     1
 73
     0
176
     1
 90
        0
176
     1
 40
-0.6
176
     1
 41
-30.0
176
     1
 62
     5
 63
     7
421
 16777215
176
     1
 74
     1
176
     1
 91
        4
176
     1
 64
     7
176
     1
 65
   257
176
     1
 75
     1
176
     1
175
     1
176
     1
 42
1.0
176
     1
 92
        0
176
     1
 66
   257
176
     1
 43
1.0
176
     1
 76
     1
176
     1
 77
     6
176
     1
 78
     2
176
     1
 67
     7
176
     1
 79
     5
176
     1
170
     0
176
     1
171
     0
176
     1
290
     0
176
     1
 93
        1
176
     1
 44
0.0
176
     1
173
     0
176
     1
  0
VISUALSTYLE
  5
32
102
{ACAD_REACTORS
330
2A
102
}
330
2A
100
AcDbVisualStyle
  2
Basic
 70
     7
177
     2
291
     1
 71
     1
176
     1
 72
     0
176
     1
 73
     1
176
     1
 90
        0
176
     1
 40
-0.6
176
     1
 41
-30.0
176
     1
 62
     5
 63
     7
421
 16777215
176
     1
 74
     0
176
     1
 91
        4
176
     1
 64
     7
176
     1
 65
   257
176
     1
 75
     1
176
     1
175
     1
176
     1
 42
1.0
176
     1
 92
        8
176
     1
 66
     7
176
     1
 43
1.0
176
     1
 76
     1
176
     1
 77
     6
176
     1
 78
     2
176
     1
 67
     7
176
     1
 79
     5
176
     1
170
     0
176
     1
171
     0
176
     1
290
     0
176
     1
 93
        1
176
     1
 44
0.0
176
     1
173
     0
176
     1
  0
VISUALSTYLE
  5
36
102
{ACAD_REACTORS
330
2A
102
}
330
2A
100
AcDbVisualStyle
  2
Brighten
 70
    12
177
     2
291
     1
 71
     2
176
     1
 72
     2
176
     1
 73
     0
176
     1
 90
        0
176
     1
 40
-0.6
176
     1
 41
-30.0
176
     1
 62
     5
 63
     7
421
 16777215
176
     1
 74
     1
176
     1
 91
        4
176
     1
 64
     7
176
     1
 65
   257
176
     1
 75
     1
176
     1
175
     1
176
     1
 42
1.0
176
     1
 92
        8
176
     1
 66
     7
176
     1
 43
1.0
176
     1
 76
     1
176
     1
 77
     6
176
     1
 78
     2
176
     1
 67
     7
176
     1
 79
     5
176
     1
170
     0
176
     1
171
     0
176
     1
290
     0
176
     1
 93
        1
176
     1
 44
50.0
176
     1
173
     0
176
     1
  0
VISUALSTYLE
  5
3A
102
{ACAD_REACTORS
330
2A
102
}
330
2A
100
AcDbVisualStyle
  2
ColorChange
 70
    16
177
     2
291
     1
 71
     2
176
     1
 72
     2
176
     1
 73
     3
176
     1
 90
        0
176
     1
 40
-0.6
176
     1
 41
-30.0
176
     1
 62
     5
 63
     8
421
  8421504
176
     1
 74
     1
176
     1
 91
        4
176
     1
 64
     7
176
     1
 65
   257
176
     1
 75
     1
176
     1
175
     1
176
     1
 42
1.0
176
     1
 92
        8
176
     1
 66
     8
424
  8421504
176
     1
 43
1.0
176
     1
 76
     1
176
     1
 77
     6
176
     1
 78
     2
176
     1
 67
     7
176
     1
 79
     5
176
     1
170
     0
176
     1
171
     0
176
     1
290
     0
176
     1
 93
        1
176
     1
 44
0.0
176
     1
173
     0
176
     1
  0
VISUALSTYLE
  5
34
102
{ACAD_REACTORS
330
2A
102
}
330
2A
100
AcDbVisualStyle
  2
Conceptual
 70
     9
177
     2
291
     0
 71
     3
176
     1
 72
     2
176
     1
 73
     0
176
     1
 90
        0
176
     1
 40
-0.6
176
     1
 41
-30.0
176
     1
 62
     5
 63
     7
421
 16777215
176
     1
 74
     2
176
     1
 91
        2
176
     1
 64
     7
176
     1
 65
   257
176
     1
 75
     1
176
     1
175
     1
176
     1
 42
40.0
176
     1
 92
        8
176
     1
 66
     7
176
     1
 43
1.0
176
     1
 76
     1
176
     1
 77
     6
176
     1
 78
     2
176
     1
 67
     7
176
     1
 79
     3
176
     1
170
     0
176
     1
171
     0
176
     1
290
     0
176
     1
 93
        1
176
     1
 44
0.0
176
     1
173
     0
176
     1
  0
VISUALSTYLE
  5
35
102
{ACAD_REACTORS
330
2A
102
}
330
2A
100
AcDbVisualStyle
  2
Dim
 70
    11
177
     2
291
     1
 71
     2
176
     1
 72
     2
176
     1
 73
     0
176
     1
 90
        0
176
     1
 40
-0.6
176
     1
 41
-30.0
176
     1
 62
     5
 63
     7
421
 16777215
176
     1
 74
     1
176
     1
 91
        4
176
     1
 64
     7
176
     1
 65
   257
176
     1
 75
     1
176
     1
175
     1
176
     1
 42
1.0
176
     1
 92
        8
176
     1
 66
     7
176
     1
 43
1.0
176
     1
 76
     1
176
     1
 77
     6
176
     1
 78
     2
176
     1
 67
     7
176
     1
 79
     5
176
     1
170
     0
176
     1
171
     0
176
     1
290
     0
176
     1
 93
        1
176
     1
 44
-50.0
176
     1
173
     0
176
     1
  0
VISUALSTYLE
  5
39
102
{ACAD_REACTORS
330
2A
102
}
330
2A
100
AcDbVisualStyle
  2
Facepattern
 70
    15
177
     2
291
     1
 71
     2
176
     1
 72
     2
176
     1
 73
     0
176
     1
 90
        0
176
     1
 40
-0.6
176
     1
 41
-30.0
176
     1
 62
     5
 63
     7
421
 16777215
176
     1
 74
     1
176
     1
 91
        4
176
     1
 64
     7
176
     1
 65
   257
176
     1
 75
     1
176
     1
175
     1
176
     1
 42
1.0
176
     1
 92
        8
176
     1
 66
     7
176
     1
 43
1.0
176
     1
 76
     1
176
     1
 77
     6
176
     1
 78
     2
176
     1
 67
     7
176
     1
 79
     5
176
     1
170
     0
176
     1
171
     0
176
     1
290
     0
176
     1
 93
        1
176
     1
 44
0.0
176
     1
173
     0
176
     1
  0
VISUALSTYLE
  5
2B
102
{ACAD_REACTORS
330
2A
102
}
330
2A
100
AcDbVisualStyle
  2
Flat
 70
     0
177
     2
291
     1
 71
     2
176
     1
 72
     1
176
     1
 73
     1
176
     1
 90
        2
176
     1
 40
-0.6
176
     1
 41
30.0
176
     1
 62
     5
 63
     7
421
 16777215
176
     1
 74
     0
176
     1
 91
        4
176
     1
 64
     7
176
     1
 65
   257
176
     1
 75
     1
176
     1
175
     1
176
     1
 42
1.0
176
     1
 92
        8
176
     1
 66
     7
176
     1
 43
1.0
176
     1
 76
     1
176
     1
 77
     6
176
     1
 78
     2
176
     1
 67
     7
176
     1
 79
     5
176
     1
170
     0
176
     1
171
     0
176
     1
290
     0
176
     1
 93
       13
176
     1
 44
0.0
176
     1
173
     0
176
     1
  0
VISUALSTYLE
  5
2C
102
{ACAD_REACTORS
330
2A
102
}
330
2A
100
AcDbVisualStyle
  2
FlatWithEdges
 70
     1
177
     2
291
     1
 71
     2
176
     1
 72
     1
176
     1
 73
     1
176
     1
 90
        2
176
     1
 40
-0.6
176
     1
 41
30.0
176
     1
 62
     5
 63
     7
421
 16777215
176
     1
 74
     1
176
     1
 91
        4
176
     1
 64
     7
176
     1
 65
   257
176
     1
 75
     1
176
     1
175
     1
176
     1
 42
1.0
176
     1
 92
        0
176
     1
 66
   257
176
     1
 43
1.0
176
     1
 76
     1
176
     1
 77
     6
176
     1
 78
     2
176
     1
 67
     7
176
     1
 79
     5
176
     1
170
     0
176
     1
171
     0
176
     1
290
     0
176
     1
 93
       13
176
     1
 44
0.0
176
     1
173
     0
176
     1
  0
VISUALSTYLE
  5
2D
102
{ACAD_REACTORS
330
2A
102
}
330
2A
100
AcDbVisualStyle
  2
Gouraud
 70
     2
177
     2
291
     1
 71
     2
176
     1
 72
     2
176
     1
 73
     1
176
     1
 90
        2
176
     1
 40
-0.6
176
     1
 41
30.0
176
     1
 62
     5
 63
     7
421
 16777215
176
     1
 74
     0
176
     1
 91
        4
176
     1
 64
     7
176
     1
 65
   257
176
     1
 75
     1
176
     1
175
     1
176
     1
 42
1.0
176
     1
 92
        0
176
     1
 66
     7
176
     1
 43
1.0
176
     1
 76
     1
176
     1
 77
     6
176
     1
 78
     2
176
     1
 67
     7
176
     1
 79
     5
176
     1
170
     0
176
     1
171
     0
176
     1
290
     0
176
     1
 93
       13
176
     1
 44
0.0
176
     1
173
     0
176
     1
  0
VISUALSTYLE
  5
2E
102
{ACAD_REACTORS
330
2A
102
}
330
2A
100
AcDbVisualStyle
  2
GouraudWithEdges
 70
     3
177
     2
291
     1
 71
     2
176
     1
 72
     2
176
     1
 73
     1
176
     1
 90
        2
176
     1
 40
-0.6
176
     1
 41
30.0
176
     1
 62
     5
 63
     7
421
 16777215
176
     1
 74
     1
176
     1
 91
        4
176
     1
 64
     7
176
     1
 65
   257
176
     1
 75
     1
176
     1
175
     1
176
     1
 42
1.0
176
     1
 92
        0
176
     1
 66
   257
176
     1
 43
1.0
176
     1
 76
     1
176
     1
 77
     6
176
     1
 78
     2
176
     1
 67
     7
176
     1
 79
     5
176
     1
170
     0
176
     1
171
     0
176
     1
290
     0
176
     1
 93
       13
176
     1
 44
0.0
176
     1
173
     0
176
     1
  0
VISUALSTYLE
  5
38
102
{ACAD_REACTORS
330
2A
102
}
330
2A
100
AcDbVisualStyle
  2
Linepattern
 70
    14
177
     2
291
     1
 71
     2
176
     1
 72
     2
176
     1
 73
     0
176
     1
 90
        0
176
     1
 40
-0.6
176
     1
 41
-30.0
176
     1
 62
     5
 63
     7
421
 16777215
176
     1
 74
     1
176
     1
 91
        4
176
     1
 64
     7
176
     1
 65
   257
176
     1
 75
     7
176
     1
175
     7
176
     1
 42
1.0
176
     1
 92
        8
176
     1
 66
     7
176
     1
 43
1.0
176
     1
 76
     1
176
     1
 77
     6
176
     1
 78
     2
176
     1
 67
     7
176
     1
 79
     5
176
     1
170
     0
176
     1
171
     0
176
     1
290
     0
176
     1
 93
        1
176
     1
 44
0.0
176
     1
173
     0
176
     1
  0
VISUALSTYLE
  5
33
102
{ACAD_REACTORS
330
2A
102
}
330
2A
100
AcDbVisualStyle
  2
Realistic
 70
     8
177
     2
291
     0
 71
     2
176
     1
 72
     2
176
     1
 73
     0
176
     1
 90
        0
176
     1
 40
-0.6
176
     1
 41
-30.0
176
     1
 62
     5
 63
     7
421
 16777215
176
     1
 74
     1
176
     1
 91
        0
176
     1
 64
     7
176
     1
 65
   257
176
     1
 75
     1
176
     1
175
     1
176
     1
 42
1.0
176
     1
 92
        8
176
     1
 66
     8
424
  7895160
176
     1
 43
1.0
176
     1
 76
     1
176
     1
 77
     6
176
     1
 78
     2
176
     1
 67
     7
176
     1
 79
     5
176
     1
170
     0
176
     1
171
     0
176
     1
290
     0
176
     1
 93
       13
176
     1
 44
0.0
176
     1
173
     0
176
     1
  0
VISUALSTYLE
  5
37
102
{ACAD_REACTORS
330
2A
102
}
330
2A
100
AcDbVisualStyle
  2
Thicken
 70
    13
177
     2
291
     1
 71
     2
176
     1
 72
     2
176
     1
 73
     0
176
     1
 90
        0
176
     1
 40
-0.6
176
     1
 41
-30.0
176
     1
 62
     5
 63
     7
421
 16777215
176
     1
 74
     1
176
     1
 91
        4
176
     1
 64
     7
176
     1
 65
   257
176
     1
 75
     1
176
     1
175
     1
176
     1
 42
1.0
176
     1
 92
       12
176
     1
 66
     7
176
     1
 43
1.0
176
     1
 76
     1
176
     1
 77
     6
176
     1
 78
     2
176
     1
 67
     7
176
     1
 79
     5
176
     1
170
     0
176
     1
171
     0
176
     1
290
     0
176
     1
 93
        1
176
     1
 44
0.0
176
     1
173
     0
176
     1
  0
ENDSEC
  0
EOF
