  0
SECTION
  2
HEADER
  9
$ACADVER
  1
AC1024
  9
$ACADMAINTVER
 70
     6
  9
$DWGCODEPAGE
  3
UNDEFINED
  9
$INSBASE
 10
0.0
 20
0.0
 30
0.0
  9
$EXTMIN
 10
1.000000000000000E+20
 20
1.000000000000000E+20
 30
1.000000000000000E+20
  9
$EXTMAX
 10
-1.000000000000000E+20
 20
-1.000000000000000E+20
 30
-1.000000000000000E+20
  9
$LIMMIN
 10
0.0
 20
0.0
  9
$LIMMAX
 10
12.0
 20
9.0
  9
$ORTHOMODE
 70
     0
  9
$REGENMODE
 70
     1
  9
$FILLMODE
 70
     1
  9
$QTEXTMODE
 70
     0
  9
$MIRRTEXT
 70
     1
  9
$LTSCALE
 40
1.0
  9
$ATTMODE
 70
     1
  9
$TEXTSIZE
 40
0.2
  9
$TRACEWID
 40
0.05
  9
$TEXTSTYLE
  7
Standard
  9
$CLAYER
  8
0
  9
$CELTYPE
  6
ByLayer
  9
$CECOLOR
 62
   256
  9
$CELTSCALE
 40
1.0
  9
$DISPSILH
 70
     0
  9
$DIMSCALE
 40
1.0
  9
$DIMASZ
 40
0.18
  9
$DIMEXO
 40
0.0625
  9
$DIMDLI
 40
0.38
  9
$DIMRND
 40
0.0
  9
$DIMDLE
 40
0.0
  9
$DIMEXE
 40
0.18
  9
$DIMTP
 40
0.0
  9
$DIMTM
 40
0.0
  9
$DIMTXT
 40
0.18
  9
$DIMCEN
 40
0.09
  9
$DIMTSZ
 40
0.0
  9
$DIMTOL
 70
     0
  9
$DIMLIM
 70
     0
  9
$DIMTIH
 70
     1
  9
$DIMTOH
 70
     1
  9
$DIMSE1
 70
     0
  9
$DIMSE2
 70
     0
  9
$DIMTAD
 70
     0
  9
$DIMZIN
 70
     0
  9
$DIMBLK
  1

  9
$DIMASO
 70
     1
  9
$DIMSHO
 70
     1
  9
$DIMPOST
  1

  9
$DIMAPOST
  1

  9
$DIMALT
 70
     0
  9
$DIMALTD
 70
     2
  9
$DIMALTF
 40
25.4
  9
$DIMLFAC
 40
1.0
  9
$DIMTOFL
 70
     0
  9
$DIMTVP
 40
0.0
  9
$DIMTIX
 70
     0
  9
$DIMSOXD
 70
     0
  9
$DIMSAH
 70
     0
  9
$DIMBLK1
  1

  9
$DIMBLK2
  1

  9
$DIMSTYLE
  2
Standard
  9
$DIMCLRD
 70
     0
  9
$DIMCLRE
 70
     0
  9
$DIMCLRT
 70
     0
  9
$DIMTFAC
 40
1.0
  9
$DIMGAP
 40
0.09
  9
$DIMJUST
 70
     0
  9
$DIMSD1
 70
     0
  9
$DIMSD2
 70
     0
  9
$DIMTOLJ
 70
     1
  9
$DIMTZIN
 70
     0
  9
$DIMALTZ
 70
     0
  9
$DIMALTTZ
 70
     0
  9
$DIMUPT
 70
     0
  9
$DIMDEC
 70
     4
  9
$DIMTDEC
 70
     4
  9
$DIMALTU
 70
     2
  9
$DIMALTTD
 70
     2
  9
$DIMTXSTY
  7
Standard
  9
$DIMAUNIT
 70
     0
  9
$DIMADEC
 70
     0
  9
$DIMALTRND
 40
0.0
  9
$DIMAZIN
 70
     0
  9
$DIMDSEP
 70
    46
  9
$DIMATFIT
 70
     3
  9
$DIMFRAC
 70
     0
  9
$DIMLDRBLK
  1

  9
$DIMLUNIT
 70
     2
  9
$DIMLWD
 70
    -2
  9
$DIMLWE
 70
    -2
  9
$DIMTMOVE
 70
     0
  9
$DIMFXL
 40
1.0
  9
$DIMFXLON
 70
     0
  9
$DIMJOGANG
 40
0.7853981633974483
  9
$DIMTFILL
 70
     0
  9
$DIMTFILLCLR
 70
     0
  9
$DIMARCSYM
 70
     0
  9
$DIMLTYPE
  6

  9
$DIMLTEX1
  6

  9
$DIMLTEX2
  6

  9
$DIMTXTDIRECTION
 70
     0
  9
$LUNITS
 70
     2
  9
$LUPREC
 70
     4
  9
$SKETCHINC
 40
0.1
  9
$FILLETRAD
 40
0.5
  9
$AUNITS
 70
     0
  9
$AUPREC
 70
     0
  9
$MENU
  1
.
  9
$ELEVATION
 40
0.0
  9
$PELEVATION
 40
0.0
  9
$THICKNESS
 40
0.0
  9
$LIMCHECK
 70
     0
  9
$CHAMFERA
 40
0.5
  9
$CHAMFERB
 40
0.5
  9
$CHAMFERC
 40
1.0
  9
$CHAMFERD
 40
0.0
  9
$SKPOLY
 70
     0
  9
$TDCREATE
 40
2457917.627060185
  9
$TDUCREATE
 40
2457917.252060185
  9
$TDUPDATE
 40
2457917.627060185
  9
$TDUUPDATE
 40
2457917.252060185
  9
$TDINDWG
 40
0.0000000116
  9
$TDUSRTIMER
 40
0.0000000116
  9
$USRTIMER
 70
     1
  9
$ANGBASE
 50
0.0
  9
$ANGDIR
 70
     0
  9
$PDMODE
 70
     0
  9
$PDSIZE
 40
0.0
  9
$PLINEWID
 40
0.0
  9
$SPLFRAME
 70
     0
  9
$SPLINETYPE
 70
     6
  9
$SPLINESEGS
 70
     8
  9
$HANDSEED
  5
D6
  9
$SURFTAB1
 70
     6
  9
$SURFTAB2
 70
     6
  9
$SURFTYPE
 70
     6
  9
$SURFU
 70
     6
  9
$SURFV
 70
     6
  9
$UCSBASE
  2

  9
$UCSNAME
  2

  9
$UCSORG
 10
0.0
 20
0.0
 30
0.0
  9
$UCSXDIR
 10
1.0
 20
0.0
 30
0.0
  9
$UCSYDIR
 10
0.0
 20
1.0
 30
0.0
  9
$UCSORTHOREF
  2

  9
$UCSORTHOVIEW
 70
     0
  9
$UCSORGTOP
 10
0.0
 20
0.0
 30
0.0
  9
$UCSORGBOTTOM
 10
0.0
 20
0.0
 30
0.0
  9
$UCSORGLEFT
 10
0.0
 20
0.0
 30
0.0
  9
$UCSORGRIGHT
 10
0.0
 20
0.0
 30
0.0
  9
$UCSORGFRONT
 10
0.0
 20
0.0
 30
0.0
  9
$UCSORGBACK
 10
0.0
 20
0.0
 30
0.0
  9
$PUCSBASE
  2

  9
$PUCSNAME
  2

  9
$PUCSORG
 10
0.0
 20
0.0
 30
0.0
  9
$PUCSXDIR
 10
1.0
 20
0.0
 30
0.0
  9
$PUCSYDIR
 10
0.0
 20
1.0
 30
0.0
  9
$PUCSORTHOREF
  2

  9
$PUCSORTHOVIEW
 70
     0
  9
$PUCSORGTOP
 10
0.0
 20
0.0
 30
0.0
  9
$PUCSORGBOTTOM
 10
0.0
 20
0.0
 30
0.0
  9
$PUCSORGLEFT
 10
0.0
 20
0.0
 30
0.0
  9
$PUCSORGRIGHT
 10
0.0
 20
0.0
 30
0.0
  9
$PUCSORGFRONT
 10
0.0
 20
0.0
 30
0.0
  9
$PUCSORGBACK
 10
0.0
 20
0.0
 30
0.0
  9
$USERI1
 70
     0
  9
$USERI2
 70
     0
  9
$USERI3
 70
     0
  9
$USERI4
 70
     0
  9
$USERI5
 70
     0
  9
$USERR1
 40
0.0
  9
$USERR2
 40
0.0
  9
$USERR3
 40
0.0
  9
$USERR4
 40
0.0
  9
$USERR5
 40
0.0
  9
$WORLDVIEW
 70
     1
  9
$SHADEDGE
 70
     3
  9
$SHADEDIF
 70
    70
  9
$TILEMODE
 70
     1
  9
$MAXACTVP
 70
    64
  9
$PINSBASE
 10
0.0
 20
0.0
 30
0.0
  9
$PLIMCHECK
 70
     0
  9
$PEXTMIN
 10
1.000000000000000E+20
 20
1.000000000000000E+20
 30
1.000000000000000E+20
  9
$PEXTMAX
 10
-1.000000000000000E+20
 20
-1.000000000000000E+20
 30
-1.000000000000000E+20
  9
$PLIMMIN
 10
0.0
 20
0.0
  9
$PLIMMAX
 10
12.0
 20
9.0
  9
$UNITMODE
 70
     0
  9
$VISRETAIN
 70
     1
  9
$PLINEGEN
 70
     0
  9
$PSLTSCALE
 70
     1
  9
$TREEDEPTH
 70
  3020
  9
$CMLSTYLE
  2
Standard
  9
$CMLJUST
 70
     0
  9
$CMLSCALE
 40
1.0
  9
$PROXYGRAPHICS
 70
     1
  9
$MEASUREMENT
 70
     0
  9
$CELWEIGHT
370
    -1
  9
$ENDCAPS
280
     0
  9
$JOINSTYLE
280
     0
  9
$LWDISPLAY
290
     1
  9
$INSUNITS
 70
     1
  9
$HYPERLINKBASE
  1

  9
$STYLESHEET
  1

  9
$XEDIT
290
     1
  9
$CEPSNTYPE
380
     0
  9
$PSTYLEMODE
290
     1
  9
$FINGERPRINTGUID
  2
{AE1E53EF-33E2-8B72-B91D-44890CC491CB}
  9
$VERSIONGUID
  2
{FAEB1C32-E019-11D5-929B-00C0DF256EC4}
  9
$EXTNAMES
290
     1
  9
$PSVPSCALE
 40
0.0
  9
$OLESTARTUP
290
     0
  9
$SORTENTS
280
   127
  9
$INDEXCTL
280
     0
  9
$HIDETEXT
280
     1
  9
$XCLIPFRAME
280
     2
  9
$HALOGAP
280
     0
  9
$OBSCOLOR
 70
   257
  9
$OBSLTYPE
280
     0
  9
$INTERSECTIONDISPLAY
280
     0
  9
$INTERSECTIONCOLOR
 70
   257
  9
$DIMASSOC
280
     2
  9
$PROJECTNAME
  1

  9
$CAMERADISPLAY
290
     0
  9
$LENSLENGTH
 40
50.0
  9
$CAMERAHEIGHT
 40
0.0
  9
$STEPSPERSEC
 40
2.0
  9
$STEPSIZE
 40
6.0
  9
$3DDWFPREC
 40
2.0
  9
$PSOLWIDTH
 40
0.25
  9
$PSOLHEIGHT
 40
4.0
  9
$LOFTANG1
 40
1.570796326794897
  9
$LOFTANG2
 40
1.570796326794897
  9
$LOFTMAG1
 40
0.0
  9
$LOFTMAG2
 40
0.0
  9
$LOFTPARAM
 70
     7
  9
$LOFTNORMALS
280
     1
  9
$LATITUDE
 40
37.795
  9
$LONGITUDE
 40
-122.394
  9
$NORTHDIRECTION
 40
0.0
  9
$TIMEZONE
 70
 -8000
  9
$LIGHTGLYPHDISPLAY
280
     1
  9
$TILEMODELIGHTSYNCH
280
     1
  9
$CMATERIAL
347
3C
  9
$SOLIDHIST
280
     1
  9
$SHOWHIST
280
     1
  9
$DWFFRAME
280
     2
  9
$DGNFRAME
280
     2
  9
$REALWORLDSCALE
290
     1
  9
$INTERFERECOLOR
 62
   256
  9
$CSHADOW
280
     0
  9
$SHADOWPLANELOCATION
 40
0.0
  0
ENDSEC
  0
SECTION
  2
CLASSES
  0
CLASS
  1
ACDBDICTIONARYWDFLT
  2
AcDbDictionaryWithDefault
  3
ObjectDBX Classes
 90
        0
 91
        4
280
     0
281
     0
  0
CLASS
  1
VISUALSTYLE
  2
AcDbVisualStyle
  3
ObjectDBX Classes
 90
     4095
 91
        4
280
     0
281
     0
  0
CLASS
  1
MATERIAL
  2
AcDbMaterial
  3
ObjectDBX Classes
 90
     1153
 91
        4
280
     0
281
     0
  0
CLASS
  1
SUN
  2
AcDbSun
  3
SCENEOE
 90
     1024
 91
        4
280
     0
281
     0
  0
ENDSEC
  0
SECTION
  2
TABLES
  0
TABLE
  2
VPORT
  5
8
330
0
100
AcDbSymbolTable
 70
     1
  0
VPORT
  5
29
330
8
100
AcDbSymbolTableRecord
100
AcDbViewportTableRecord
  2
*Active
 70
     0
 10
0.0
 20
0.0
 11
1.0
 21
1.0
 12
0.0
 22
0.0
 13
0.0
 23
0.0
 14
0.5
 24
0.5
 15
0.5
 25
0.5
 16
0.0
 26
0.0
 36
1.0
 17
91.00082462281999
 27
-128.4993055234307
 37
0.0
 40
256.9986110468615
 41
0.7081814508812795
 42
50.0
 43
0.0
 44
0.0
 50
0.0
 51
0.0
 71
     0
 72
   100
 73
     1
 74
     3
 75
     0
 76
     0
 77
     0
 78
     0
281
     0
 65
     1
110
0.0
120
0.0
130
0.0
111
1.0
121
0.0
131
0.0
112
0.0
122
1.0
132
0.0
 79
     0
146
0.0
 60
     3
 61
     5
292
     1
282
     1
141
0.0
142
0.0
 63
   250
361
3F
  0
ENDTAB
  0
TABLE
  2
LTYPE
  5
5
330
0
100
AcDbSymbolTable
 70
     1
  0
LTYPE
  5
14
330
5
100
AcDbSymbolTableRecord
100
AcDbLinetypeTableRecord
  2
ByBlock
 70
     0
  3

 72
    65
 73
     0
 40
0.0
  0
LTYPE
  5
15
330
5
100
AcDbSymbolTableRecord
100
AcDbLinetypeTableRecord
  2
ByLayer
 70
     0
  3

 72
    65
 73
     0
 40
0.0
  0
LTYPE
  5
16
330
5
100
AcDbSymbolTableRecord
100
AcDbLinetypeTableRecord
  2
Continuous
 70
     0
  3
Solid line
 72
    65
 73
     0
 40
0.0
  0
ENDTAB
  0
TABLE
  2
LAYER
  5
2
330
0
100
AcDbSymbolTable
 70
     2
  0
LAYER
  5
10
330
2
100
AcDbSymbolTableRecord
100
AcDbLayerTableRecord
  2
0
 70
     0
 62
     7
  6
Continuous
370
    -3
390
F
347
3E
  0
LAYER
  5
40
330
2
100
AcDbSymbolTableRecord
100
AcDbLayerTableRecord
  2
_U+30EC_U+30A4_U+30E4_U+30FC 1
 70
     0
 62
     7
  6
Continuous
370
    -3
390
F
347
3E
  0
ENDTAB
  0
TABLE
  2
STYLE
  5
3
330
0
100
AcDbSymbolTable
 70
     1
  0
STYLE
  5
11
330
3
100
AcDbSymbolTableRecord
100
AcDbTextStyleTableRecord
  2
Standard
 70
     0
 40
0.0
 41
1.0
 50
0.0
 71
     0
 42
0.2
  3
txt
  4

  0
ENDTAB
  0
TABLE
  2
VIEW
  5
6
330
0
100
AcDbSymbolTable
 70
     0
  0
ENDTAB
  0
TABLE
  2
UCS
  5
7
330
0
100
AcDbSymbolTable
 70
     0
  0
ENDTAB
  0
TABLE
  2
APPID
  5
9
330
0
100
AcDbSymbolTable
 70
     1
  0
APPID
  5
12
330
9
100
AcDbSymbolTableRecord
100
AcDbRegAppTableRecord
  2
ACAD
 70
     0
  0
ENDTAB
  0
TABLE
  2
DIMSTYLE
  5
A
330
0
100
AcDbSymbolTable
 70
     1
100
AcDbDimStyleTable
  0
DIMSTYLE
105
27
330
A
100
AcDbSymbolTableRecord
100
AcDbDimStyleTableRecord
  2
Standard
 70
     0
178
     0
340
11
  0
ENDTAB
  0
TABLE
  2
BLOCK_RECORD
  5
1
330
0
100
AcDbSymbolTable
 70
     5
  0
BLOCK_RECORD
  5
1F
330
1
100
AcDbSymbolTableRecord
100
AcDbBlockTableRecord
  2
*Model_Space
340
22
 70
     0
280
     1
281
     0
  0
BLOCK_RECORD
  5
1B
330
1
100
AcDbSymbolTableRecord
100
AcDbBlockTableRecord
  2
*Paper_Space
340
1E
 70
     0
280
     1
281
     0
  0
BLOCK_RECORD
  5
23
330
1
100
AcDbSymbolTableRecord
100
AcDbBlockTableRecord
  2
*Paper_Space0
340
26
 70
     0
280
     1
281
     0
  0
BLOCK_RECORD
  5
54
330
1
100
AcDbSymbolTableRecord
100
AcDbBlockTableRecord
  2
block 2
340
0
102
{BLKREFS
331
55
102
}
 70
     0
280
     1
281
     0
  0
BLOCK_RECORD
  5
69
330
1
100
AcDbSymbolTableRecord
100
AcDbBlockTableRecord
  2
block 3
340
0
102
{BLKREFS
331
6A
102
}
 70
     0
280
     1
281
     0
  0
BLOCK_RECORD
  5
91
330
1
100
AcDbSymbolTableRecord
100
AcDbBlockTableRecord
  2
block 4
340
0
102
{BLKREFS
331
92
102
}
 70
     0
280
     1
281
     0
  0
BLOCK_RECORD
  5
C2
330
1
100
AcDbSymbolTableRecord
100
AcDbBlockTableRecord
  2
block 5
340
0
102
{BLKREFS
331
C3
102
}
 70
     0
280
     1
281
     0
  0
ENDTAB
  0
ENDSEC
  0
SECTION
  2
BLOCKS
  0
BLOCK
  5
20
330
1F
100
AcDbEntity
  8
0
100
AcDbBlockBegin
  2
*Model_Space
 70
     0
 10
0.0
 20
0.0
 30
0.0
  3
*Model_Space
  1

  0
ENDBLK
  5
21
330
1F
100
AcDbEntity
  8
0
100
AcDbBlockEnd
  0
BLOCK
  5
1C
330
1B
100
AcDbEntity
 67
     1
  8
0
100
AcDbBlockBegin
  2
*Paper_Space
 70
     0
 10
0.0
 20
0.0
 30
0.0
  3
*Paper_Space
  1

  0
ENDBLK
  5
1D
330
1B
100
AcDbEntity
 67
     1
  8
0
100
AcDbBlockEnd
  0
BLOCK
  5
24
330
23
100
AcDbEntity
  8
0
100
AcDbBlockBegin
  2
*Paper_Space0
 70
     0
 10
0.0
 20
0.0
 30
0.0
  3
*Paper_Space0
  1

  0
ENDBLK
  5
25
330
23
100
AcDbEntity
  8
0
100
AcDbBlockEnd
  0
BLOCK
  5
56
330
54
100
AcDbEntity
  8
0
100
AcDbBlockBegin
  2
block 2
 70
     0
 10
0.0
 20
0.0
 30
0.0
  3
block 2
  1

  0
SPLINE
  5
58
330
54
100
AcDbEntity
  8
_U+30EC_U+30A4_U+30E4_U+30FC 1
370
     0
100
AcDbSpline
210
0.0
220
0.0
230
1.0
 70
    11
 71
     3
 72
    44
 73
    40
 74
     0
 42
0.0000000001
 43
0.0000000001
 12
1.0
 22
0.0
 32
0.0
 13
1.0
 23
0.0
 33
0.0
 40
0.0
 40
0.0
 40
0.0
 40
0.0
 40
1.0
 40
1.0
 40
1.0
 40
2.0
 40
2.0
 40
2.0
 40
3.0
 40
3.0
 40
3.0
 40
4.0
 40
4.0
 40
4.0
 40
5.0
 40
5.0
 40
5.0
 40
6.0
 40
6.0
 40
6.0
 40
7.0
 40
7.0
 40
7.0
 40
8.0
 40
8.0
 40
8.0
 40
9.0
 40
9.0
 40
9.0
 40
10.0
 40
10.0
 40
10.0
 40
11.0
 40
11.0
 40
11.0
 40
12.0
 40
12.0
 40
12.0
 40
13.0
 40
13.0
 40
13.0
 40
13.0
 10
87.69214950064641
 20
-137.3301187807716
 30
0.0
 10
87.46546221771698
 20
-137.5016845359371
 30
0.0
 10
87.36831052503292
 20
-137.5816107511949
 30
0.0
 10
87.31766762139975
 20
-137.7373290671282
 30
0.0
 10
87.31766762139975
 20
-137.7373290671282
 30
0.0
 10
88.12795407953051
 20
-137.7373290671282
 30
0.0
 10
88.12795407953051
 20
-137.7373290671282
 30
0.0
 10
88.12795407953051
 20
-137.7373290671282
 30
0.0
 10
88.12795407953051
 20
-137.9591932163783
 30
0.0
 10
88.12795407953051
 20
-137.9591932163783
 30
0.0
 10
88.12795407953051
 20
-137.9591932163783
 30
0.0
 10
87.05790742181192
 20
-137.9591932163783
 30
0.0
 10
87.05790742181192
 20
-137.9591932163783
 30
0.0
 10
87.09098033847032
 20
-137.5726535029332
 30
0.0
 10
87.15919322907826
 20
-137.4879041539961
 30
0.0
 10
87.55985783401282
 20
-137.1654432165767
 30
0.0
 10
87.82650822457116
 20
-136.9501247487486
 30
0.0
 10
87.8947211151791
 20
-136.8770887244613
 30
0.0
 10
87.8947211151791
 20
-136.7282605994985
 30
0.0
 10
87.8947211151791
 20
-136.6001030474472
 30
0.0
 10
87.81961803360066
 20
-136.4585096230034
 30
0.0
 10
87.61497936177682
 20
-136.4585096230034
 30
0.0
 10
87.34419485663618
 20
-136.4585096230034
 30
0.0
 10
87.33523760837453
 20
-136.7079345361355
 30
0.0
 10
87.33110349379223
 20
-136.8336805213471
 30
0.0
 10
87.33110349379223
 20
-136.8336805213471
 30
0.0
 10
87.09752601989229
 20
-136.8336805213471
 30
0.0
 10
87.09752601989229
 20
-136.8336805213471
 30
0.0
 10
87.10648326815394
 20
-136.6962212114857
 30
0.0
 10
87.11750757370673
 20
-136.5749538504049
 30
0.0
 10
87.2012233939983
 20
-136.4471408079021
 30
0.0
 10
87.3156005641086
 20
-136.273163485897
 30
0.0
 10
87.50921493037964
 20
-136.2366454737534
 30
0.0
 10
87.63048229146044
 20
-136.2366454737534
 30
0.0
 10
87.91883678357586
 20
-136.2366454737534
 30
0.0
 10
88.1344997609525
 20
-136.4354274832523
 30
0.0
 10
88.1344997609525
 20
-136.7306721663382
 30
0.0
 10
88.1344997609525
 20
-136.9776855126306
 30
0.0
 10
88.01357690942022
 20
-137.0851724917704
 30
0.0
 10
87.69214950064641
 20
-137.3301187807716
 30
0.0
  0
HATCH
  5
59
330
54
100
AcDbEntity
  8
_U+30EC_U+30A4_U+30E4_U+30FC 1
 62
   179
420
  2234388
100
AcDbHatch
 10
0.0
 20
0.0
 30
0.0
210
0.0
220
0.0
230
1.0
  2
SOLID
 70
     1
 71
     0
 91
        1
 92
        1
 93
        1
 72
     4
 94
        3
 73
     0
 74
     1
 95
       44
 96
       40
 40
0.0
 40
0.0
 40
0.0
 40
0.0
 40
1.0
 40
1.0
 40
1.0
 40
2.0
 40
2.0
 40
2.0
 40
3.0
 40
3.0
 40
3.0
 40
4.0
 40
4.0
 40
4.0
 40
5.0
 40
5.0
 40
5.0
 40
6.0
 40
6.0
 40
6.0
 40
7.0
 40
7.0
 40
7.0
 40
8.0
 40
8.0
 40
8.0
 40
9.0
 40
9.0
 40
9.0
 40
10.0
 40
10.0
 40
10.0
 40
11.0
 40
11.0
 40
11.0
 40
12.0
 40
12.0
 40
12.0
 40
13.0
 40
13.0
 40
13.0
 40
13.0
 10
87.69214950064641
 20
-137.3301187807716
 10
87.46546221771698
 20
-137.5016845359371
 10
87.36831052503292
 20
-137.5816107511949
 10
87.31766762139975
 20
-137.7373290671282
 10
87.31766762139975
 20
-137.7373290671282
 10
88.12795407953051
 20
-137.7373290671282
 10
88.12795407953051
 20
-137.7373290671282
 10
88.12795407953051
 20
-137.7373290671282
 10
88.12795407953051
 20
-137.9591932163783
 10
88.12795407953051
 20
-137.9591932163783
 10
88.12795407953051
 20
-137.9591932163783
 10
87.05790742181192
 20
-137.9591932163783
 10
87.05790742181192
 20
-137.9591932163783
 10
87.09098033847032
 20
-137.5726535029332
 10
87.15919322907826
 20
-137.4879041539961
 10
87.55985783401282
 20
-137.1654432165767
 10
87.82650822457116
 20
-136.9501247487486
 10
87.8947211151791
 20
-136.8770887244613
 10
87.8947211151791
 20
-136.7282605994985
 10
87.8947211151791
 20
-136.6001030474472
 10
87.81961803360066
 20
-136.4585096230034
 10
87.61497936177682
 20
-136.4585096230034
 10
87.34419485663618
 20
-136.4585096230034
 10
87.33523760837453
 20
-136.7079345361355
 10
87.33110349379223
 20
-136.8336805213471
 10
87.33110349379223
 20
-136.8336805213471
 10
87.09752601989229
 20
-136.8336805213471
 10
87.09752601989229
 20
-136.8336805213471
 10
87.10648326815394
 20
-136.6962212114857
 10
87.11750757370673
 20
-136.5749538504049
 10
87.2012233939983
 20
-136.4471408079021
 10
87.3156005641086
 20
-136.273163485897
 10
87.50921493037964
 20
-136.2366454737534
 10
87.63048229146044
 20
-136.2366454737534
 10
87.91883678357586
 20
-136.2366454737534
 10
88.1344997609525
 20
-136.4354274832523
 10
88.1344997609525
 20
-136.7306721663382
 10
88.1344997609525
 20
-136.9776855126306
 10
88.01357690942022
 20
-137.0851724917704
 10
87.69214950064641
 20
-137.3301187807716
 97
        0
 97
        0
 75
     2
 76
     1
 98
        0
  0
SPLINE
  5
5A
330
54
100
AcDbEntity
  8
_U+30EC_U+30A4_U+30E4_U+30FC 1
370
     0
100
AcDbSpline
210
0.0
220
0.0
230
1.0
 70
    11
 71
     3
 72
    29
 73
    25
 74
     0
 42
0.0000000001
 43
0.0000000001
 12
1.0
 22
0.0
 32
0.0
 13
1.0
 23
0.0
 33
0.0
 40
0.0
 40
0.0
 40
0.0
 40
0.0
 40
1.0
 40
1.0
 40
1.0
 40
2.0
 40
2.0
 40
2.0
 40
3.0
 40
3.0
 40
3.0
 40
4.0
 40
4.0
 40
4.0
 40
5.0
 40
5.0
 40
5.0
 40
6.0
 40
6.0
 40
6.0
 40
7.0
 40
7.0
 40
7.0
 40
8.0
 40
8.0
 40
8.0
 40
8.0
 10
89.23314071119866
 20
-137.7669568883013
 30
0.0
 10
89.12083059837951
 20
-137.9936441712308
 30
0.0
 10
88.94030759495243
 20
-138.0139702345937
 30
0.0
 10
88.81938474342016
 20
-138.0139702345937
 30
0.0
 10
88.65195310283701
 20
-138.0139702345937
 30
0.0
 10
88.50450301606833
 20
-137.9636718405091
 30
0.0
 10
88.40528426609313
 20
-137.7669568883013
 30
0.0
 10
88.29745277740481
 20
-137.5564615541525
 30
0.0
 10
88.27781573313888
 20
-137.30014645005
 30
0.0
 10
88.27781573313888
 20
-137.1241020707537
 30
0.0
 10
88.27781573313888
 20
-136.9687282643689
 30
0.0
 10
88.29538572011366
 20
-136.6962212114857
 30
0.0
 10
88.40528426609313
 20
-136.4812472532061
 30
0.0
 10
88.51759437891228
 20
-136.2617946707957
 30
0.0
 10
88.68502601949541
 20
-136.2366454737534
 30
0.0
 10
88.81938474342016
 20
-136.2366454737534
 30
0.0
 10
88.98440481716362
 20
-136.2366454737534
 30
0.0
 10
89.13392196122346
 20
-136.2845323009983
 30
0.0
 10
89.23314071119866
 20
-136.4812472532061
 30
0.0
 10
89.33649357575617
 20
-136.6893310205152
 30
0.0
 10
89.36095375370144
 20
-136.9366888763561
 30
0.0
 10
89.36095375370144
 20
-137.1241020707537
 30
0.0
 10
89.36095375370144
 20
-137.3094482078602
 30
0.0
 10
89.33890514259583
 20
-137.5588731209922
 30
0.0
 10
89.23314071119866
 20
-137.7669568883013
 30
0.0
  0
SPLINE
  5
5B
330
54
100
AcDbEntity
  8
_U+30EC_U+30A4_U+30E4_U+30FC 1
370
     0
100
AcDbSpline
210
0.0
220
0.0
230
1.0
 70
    11
 71
     3
 72
    17
 73
    13
 74
     0
 42
0.0000000001
 43
0.0000000001
 12
1.0
 22
0.0
 32
0.0
 13
1.0
 23
0.0
 33
0.0
 40
0.0
 40
0.0
 40
0.0
 40
0.0
 40
1.0
 40
1.0
 40
1.0
 40
2.0
 40
2.0
 40
2.0
 40
3.0
 40
3.0
 40
3.0
 40
4.0
 40
4.0
 40
4.0
 40
4.0
 10
88.81938474342016
 20
-136.4447292410624
 30
0.0
 10
88.55962454383231
 20
-136.4447292410624
 30
0.0
 10
88.5110486974903
 20
-136.7513427392497
 30
0.0
 10
88.5110486974903
 20
-137.1241020707537
 30
0.0
 10
88.5110486974903
 20
-137.4696451479243
 30
0.0
 10
88.54860023827952
 20
-137.803474900445
 30
0.0
 10
88.81938474342016
 20
-137.803474900445
 30
0.0
 10
89.07673337616832
 20
-137.803474900445
 30
0.0
 10
89.1273762798015
 20
-137.4992729690974
 30
0.0
 10
89.1273762798015
 20
-137.1241020707537
 30
0.0
 10
89.1273762798015
 20
-136.7785589935831
 30
0.0
 10
89.08775768172111
 20
-136.4447292410624
 30
0.0
 10
88.81938474342016
 20
-136.4447292410624
 30
0.0
  0
HATCH
  5
5C
330
54
100
AcDbEntity
  8
_U+30EC_U+30A4_U+30E4_U+30FC 1
 62
   179
420
  2234388
100
AcDbHatch
 10
0.0
 20
0.0
 30
0.0
210
0.0
220
0.0
230
1.0
  2
SOLID
 70
     1
 71
     0
 91
        2
 92
        1
 93
        1
 72
     4
 94
        3
 73
     0
 74
     1
 95
       29
 96
       25
 40
0.0
 40
0.0
 40
0.0
 40
0.0
 40
1.0
 40
1.0
 40
1.0
 40
2.0
 40
2.0
 40
2.0
 40
3.0
 40
3.0
 40
3.0
 40
4.0
 40
4.0
 40
4.0
 40
5.0
 40
5.0
 40
5.0
 40
6.0
 40
6.0
 40
6.0
 40
7.0
 40
7.0
 40
7.0
 40
8.0
 40
8.0
 40
8.0
 40
8.0
 10
89.23314071119866
 20
-137.7669568883013
 10
89.12083059837951
 20
-137.9936441712308
 10
88.94030759495243
 20
-138.0139702345937
 10
88.81938474342016
 20
-138.0139702345937
 10
88.65195310283701
 20
-138.0139702345937
 10
88.50450301606833
 20
-137.9636718405091
 10
88.40528426609313
 20
-137.7669568883013
 10
88.29745277740481
 20
-137.5564615541525
 10
88.27781573313888
 20
-137.30014645005
 10
88.27781573313888
 20
-137.1241020707537
 10
88.27781573313888
 20
-136.9687282643689
 10
88.29538572011366
 20
-136.6962212114857
 10
88.40528426609313
 20
-136.4812472532061
 10
88.51759437891228
 20
-136.2617946707957
 10
88.68502601949541
 20
-136.2366454737534
 10
88.81938474342016
 20
-136.2366454737534
 10
88.98440481716362
 20
-136.2366454737534
 10
89.13392196122346
 20
-136.2845323009983
 10
89.23314071119866
 20
-136.4812472532061
 10
89.33649357575617
 20
-136.6893310205152
 10
89.36095375370144
 20
-136.9366888763561
 10
89.36095375370144
 20
-137.1241020707537
 10
89.36095375370144
 20
-137.3094482078602
 10
89.33890514259583
 20
-137.5588731209922
 10
89.23314071119866
 20
-137.7669568883013
 97
        0
 97
        0
 92
        1
 93
        1
 72
     4
 94
        3
 73
     0
 74
     1
 95
       17
 96
       13
 40
0.0
 40
0.0
 40
0.0
 40
0.0
 40
1.0
 40
1.0
 40
1.0
 40
2.0
 40
2.0
 40
2.0
 40
3.0
 40
3.0
 40
3.0
 40
4.0
 40
4.0
 40
4.0
 40
4.0
 10
88.81938474342016
 20
-136.4447292410624
 10
88.55962454383231
 20
-136.4447292410624
 10
88.5110486974903
 20
-136.7513427392497
 10
88.5110486974903
 20
-137.1241020707537
 10
88.5110486974903
 20
-137.4696451479243
 10
88.54860023827952
 20
-137.803474900445
 10
88.81938474342016
 20
-137.803474900445
 10
89.07673337616832
 20
-137.803474900445
 10
89.1273762798015
 20
-137.4992729690974
 10
89.1273762798015
 20
-137.1241020707537
 10
89.1273762798015
 20
-136.7785589935831
 10
89.08775768172111
 20
-136.4447292410624
 10
88.81938474342016
 20
-136.4447292410624
 97
        0
 97
        0
 75
     2
 76
     1
 98
        0
  0
ENDBLK
  5
57
330
54
100
AcDbEntity
  8
0
100
AcDbBlockEnd
  0
BLOCK
  5
6B
330
69
100
AcDbEntity
  8
0
100
AcDbBlockBegin
  2
block 3
 70
     0
 10
0.0
 20
0.0
 30
0.0
  3
block 3
  1

  0
POLYLINE
  5
6D
330
69
100
AcDbEntity
  8
_U+30EC_U+30A4_U+30E4_U+30FC 1
370
     0
100
AcDb2dPolyline
 66
     1
 10
0.0
 20
0.0
 30
0.0
  0
VERTEX
  5
6E
330
6D
100
AcDbEntity
  8
_U+30EC_U+30A4_U+30E4_U+30FC 1
370
     0
100
AcDbVertex
100
AcDb2dVertex
 10
87.94088539468144
 20
-118.8544162029253
 30
0.0
  0
VERTEX
  5
6F
330
6D
100
AcDbEntity
  8
_U+30EC_U+30A4_U+30E4_U+30FC 1
370
     0
100
AcDbVertex
100
AcDb2dVertex
 10
87.94088539468144
 20
-119.229587101269
 30
0.0
  0
VERTEX
  5
70
330
6D
100
AcDbEntity
  8
_U+30EC_U+30A4_U+30E4_U+30FC 1
370
     0
100
AcDbVertex
100
AcDb2dVertex
 10
87.71419811175201
 20
-119.229587101269
 30
0.0
  0
VERTEX
  5
71
330
6D
100
AcDbEntity
  8
_U+30EC_U+30A4_U+30E4_U+30FC 1
370
     0
100
AcDbVertex
100
AcDb2dVertex
 10
87.71419811175201
 20
-118.8544162029253
 30
0.0
  0
VERTEX
  5
72
330
6D
100
AcDbEntity
  8
_U+30EC_U+30A4_U+30E4_U+30FC 1
370
     0
100
AcDbVertex
100
AcDb2dVertex
 10
87.03172469612402
 20
-118.8544162029253
 30
0.0
  0
VERTEX
  5
73
330
6D
100
AcDbEntity
  8
_U+30EC_U+30A4_U+30E4_U+30FC 1
370
     0
100
AcDbVertex
100
AcDb2dVertex
 10
87.03172469612402
 20
-118.6118814807637
 30
0.0
  0
VERTEX
  5
74
330
6D
100
AcDbEntity
  8
_U+30EC_U+30A4_U+30E4_U+30FC 1
370
     0
100
AcDbVertex
100
AcDb2dVertex
 10
87.73831378014876
 20
-117.5594048100199
 30
0.0
  0
VERTEX
  5
75
330
6D
100
AcDbEntity
  8
_U+30EC_U+30A4_U+30E4_U+30FC 1
370
     0
100
AcDbVertex
100
AcDb2dVertex
 10
87.94088539468144
 20
-117.5594048100199
 30
0.0
  0
VERTEX
  5
76
330
6D
100
AcDbEntity
  8
_U+30EC_U+30A4_U+30E4_U+30FC 1
370
     0
100
AcDbVertex
100
AcDb2dVertex
 10
87.94088539468144
 20
-118.6394422446457
 30
0.0
  0
VERTEX
  5
77
330
6D
100
AcDbEntity
  8
_U+30EC_U+30A4_U+30E4_U+30FC 1
370
     0
100
AcDbVertex
100
AcDb2dVertex
 10
88.15654837205808
 20
-118.6394422446457
 30
0.0
  0
VERTEX
  5
78
330
6D
100
AcDbEntity
  8
_U+30EC_U+30A4_U+30E4_U+30FC 1
370
     0
100
AcDbVertex
100
AcDb2dVertex
 10
88.15654837205808
 20
-118.8544162029253
 30
0.0
  0
VERTEX
  5
79
330
6D
100
AcDbEntity
  8
_U+30EC_U+30A4_U+30E4_U+30FC 1
370
     0
100
AcDbVertex
100
AcDb2dVertex
 10
87.94088539468144
 20
-118.8544162029253
 30
0.0
  0
SEQEND
  5
7A
330
6D
100
AcDbEntity
  8
_U+30EC_U+30A4_U+30E4_U+30FC 1
370
     0
  0
POLYLINE
  5
7B
330
69
100
AcDbEntity
  8
_U+30EC_U+30A4_U+30E4_U+30FC 1
370
     0
100
AcDb2dPolyline
 66
     1
 10
0.0
 20
0.0
 30
0.0
  0
VERTEX
  5
7C
330
7B
100
AcDbEntity
  8
_U+30EC_U+30A4_U+30E4_U+30FC 1
370
     0
100
AcDbVertex
100
AcDb2dVertex
 10
87.71419811175201
 20
-117.9300970842328
 30
0.0
  0
VERTEX
  5
7D
330
7B
100
AcDbEntity
  8
_U+30EC_U+30A4_U+30E4_U+30FC 1
370
     0
100
AcDbVertex
100
AcDb2dVertex
 10
87.238430425239
 20
-118.6394422446457
 30
0.0
  0
VERTEX
  5
7E
330
7B
100
AcDbEntity
  8
_U+30EC_U+30A4_U+30E4_U+30FC 1
370
     0
100
AcDbVertex
100
AcDb2dVertex
 10
87.71419811175201
 20
-118.6394422446457
 30
0.0
  0
VERTEX
  5
7F
330
7B
100
AcDbEntity
  8
_U+30EC_U+30A4_U+30E4_U+30FC 1
370
     0
100
AcDbVertex
100
AcDb2dVertex
 10
87.71419811175201
 20
-117.9300970842328
 30
0.0
  0
SEQEND
  5
80
330
7B
100
AcDbEntity
  8
_U+30EC_U+30A4_U+30E4_U+30FC 1
370
     0
  0
HATCH
  5
81
330
69
100
AcDbEntity
  8
_U+30EC_U+30A4_U+30E4_U+30FC 1
 62
   179
420
  2234388
100
AcDbHatch
 10
0.0
 20
0.0
 30
0.0
210
0.0
220
0.0
230
1.0
  2
SOLID
 70
     1
 71
     0
 91
        2
 92
        1
 93
       11
 72
     1
 10
87.94088539468144
 20
-118.8544162029253
 11
87.94088539468144
 21
-119.229587101269
 72
     1
 10
87.94088539468144
 20
-119.229587101269
 11
87.71419811175201
 21
-119.229587101269
 72
     1
 10
87.71419811175201
 20
-119.229587101269
 11
87.71419811175201
 21
-118.8544162029253
 72
     1
 10
87.71419811175201
 20
-118.8544162029253
 11
87.03172469612402
 21
-118.8544162029253
 72
     1
 10
87.03172469612402
 20
-118.8544162029253
 11
87.03172469612402
 21
-118.6118814807637
 72
     1
 10
87.03172469612402
 20
-118.6118814807637
 11
87.73831378014876
 21
-117.5594048100199
 72
     1
 10
87.73831378014876
 20
-117.5594048100199
 11
87.94088539468144
 21
-117.5594048100199
 72
     1
 10
87.94088539468144
 20
-117.5594048100199
 11
87.94088539468144
 21
-118.6394422446457
 72
     1
 10
87.94088539468144
 20
-118.6394422446457
 11
88.15654837205808
 21
-118.6394422446457
 72
     1
 10
88.15654837205808
 20
-118.6394422446457
 11
88.15654837205808
 21
-118.8544162029253
 72
     1
 10
88.15654837205808
 20
-118.8544162029253
 11
87.94088539468144
 21
-118.8544162029253
 97
        0
 92
        1
 93
        3
 72
     1
 10
87.71419811175201
 20
-117.9300970842328
 11
87.238430425239
 21
-118.6394422446457
 72
     1
 10
87.238430425239
 20
-118.6394422446457
 11
87.71419811175201
 21
-118.6394422446457
 72
     1
 10
87.71419811175201
 20
-118.6394422446457
 11
87.71419811175201
 21
-117.9300970842328
 97
        0
 75
     2
 76
     1
 98
        0
  0
SPLINE
  5
82
330
69
100
AcDbEntity
  8
_U+30EC_U+30A4_U+30E4_U+30FC 1
370
     0
100
AcDbSpline
210
0.0
220
0.0
230
1.0
 70
    11
 71
     3
 72
    29
 73
    25
 74
     0
 42
0.0000000001
 43
0.0000000001
 12
1.0
 22
0.0
 32
0.0
 13
1.0
 23
0.0
 33
0.0
 40
0.0
 40
0.0
 40
0.0
 40
0.0
 40
1.0
 40
1.0
 40
1.0
 40
2.0
 40
2.0
 40
2.0
 40
3.0
 40
3.0
 40
3.0
 40
4.0
 40
4.0
 40
4.0
 40
5.0
 40
5.0
 40
5.0
 40
6.0
 40
6.0
 40
6.0
 40
7.0
 40
7.0
 40
7.0
 40
8.0
 40
8.0
 40
8.0
 40
8.0
 10
89.23314071119866
 20
-119.0373507731921
 30
0.0
 10
89.12083059837951
 20
-119.2640380561215
 30
0.0
 10
88.94030759495243
 20
-119.2843641194845
 30
0.0
 10
88.81938474342016
 20
-119.2843641194845
 30
0.0
 10
88.65195310283701
 20
-119.2843641194845
 30
0.0
 10
88.50450301606833
 20
-119.2340657253998
 30
0.0
 10
88.40528426609313
 20
-119.0373507731921
 30
0.0
 10
88.29745277740481
 20
-118.8268554390433
 30
0.0
 10
88.27781573313888
 20
-118.5705403349407
 30
0.0
 10
88.27781573313888
 20
-118.3944959556444
 30
0.0
 10
88.27781573313888
 20
-118.2391221492597
 30
0.0
 10
88.29538572011366
 20
-117.9666150963764
 30
0.0
 10
88.40528426609313
 20
-117.7516411380968
 30
0.0
 10
88.51759437891228
 20
-117.5321885556864
 30
0.0
 10
88.68502601949541
 20
-117.5070393586441
 30
0.0
 10
88.81938474342016
 20
-117.5070393586441
 30
0.0
 10
88.98440481716362
 20
-117.5070393586441
 30
0.0
 10
89.13392196122346
 20
-117.554926185889
 30
0.0
 10
89.23314071119866
 20
-117.7516411380968
 30
0.0
 10
89.33649357575617
 20
-117.9597249054059
 30
0.0
 10
89.36095375370144
 20
-118.2070827612469
 30
0.0
 10
89.36095375370144
 20
-118.3944959556444
 30
0.0
 10
89.36095375370144
 20
-118.5798420927509
 30
0.0
 10
89.33890514259583
 20
-118.829267005883
 30
0.0
 10
89.23314071119866
 20
-119.0373507731921
 30
0.0
  0
SPLINE
  5
83
330
69
100
AcDbEntity
  8
_U+30EC_U+30A4_U+30E4_U+30FC 1
370
     0
100
AcDbSpline
210
0.0
220
0.0
230
1.0
 70
    11
 71
     3
 72
    17
 73
    13
 74
     0
 42
0.0000000001
 43
0.0000000001
 12
1.0
 22
0.0
 32
0.0
 13
1.0
 23
0.0
 33
0.0
 40
0.0
 40
0.0
 40
0.0
 40
0.0
 40
1.0
 40
1.0
 40
1.0
 40
2.0
 40
2.0
 40
2.0
 40
3.0
 40
3.0
 40
3.0
 40
4.0
 40
4.0
 40
4.0
 40
4.0
 10
88.81938474342016
 20
-117.7151231259532
 30
0.0
 10
88.55962454383231
 20
-117.7151231259532
 30
0.0
 10
88.5110486974903
 20
-118.0217366241404
 30
0.0
 10
88.5110486974903
 20
-118.3944959556444
 30
0.0
 10
88.5110486974903
 20
-118.740039032815
 30
0.0
 10
88.54860023827952
 20
-119.0738687853357
 30
0.0
 10
88.81938474342016
 20
-119.0738687853357
 30
0.0
 10
89.07673337616832
 20
-119.0738687853357
 30
0.0
 10
89.1273762798015
 20
-118.7696668539881
 30
0.0
 10
89.1273762798015
 20
-118.3944959556444
 30
0.0
 10
89.1273762798015
 20
-118.0489528784739
 30
0.0
 10
89.08775768172111
 20
-117.7151231259532
 30
0.0
 10
88.81938474342016
 20
-117.7151231259532
 30
0.0
  0
HATCH
  5
84
330
69
100
AcDbEntity
  8
_U+30EC_U+30A4_U+30E4_U+30FC 1
 62
   179
420
  2234388
100
AcDbHatch
 10
0.0
 20
0.0
 30
0.0
210
0.0
220
0.0
230
1.0
  2
SOLID
 70
     1
 71
     0
 91
        2
 92
        1
 93
        1
 72
     4
 94
        3
 73
     0
 74
     1
 95
       29
 96
       25
 40
0.0
 40
0.0
 40
0.0
 40
0.0
 40
1.0
 40
1.0
 40
1.0
 40
2.0
 40
2.0
 40
2.0
 40
3.0
 40
3.0
 40
3.0
 40
4.0
 40
4.0
 40
4.0
 40
5.0
 40
5.0
 40
5.0
 40
6.0
 40
6.0
 40
6.0
 40
7.0
 40
7.0
 40
7.0
 40
8.0
 40
8.0
 40
8.0
 40
8.0
 10
89.23314071119866
 20
-119.0373507731921
 10
89.12083059837951
 20
-119.2640380561215
 10
88.94030759495243
 20
-119.2843641194845
 10
88.81938474342016
 20
-119.2843641194845
 10
88.65195310283701
 20
-119.2843641194845
 10
88.50450301606833
 20
-119.2340657253998
 10
88.40528426609313
 20
-119.0373507731921
 10
88.29745277740481
 20
-118.8268554390433
 10
88.27781573313888
 20
-118.5705403349407
 10
88.27781573313888
 20
-118.3944959556444
 10
88.27781573313888
 20
-118.2391221492597
 10
88.29538572011366
 20
-117.9666150963764
 10
88.40528426609313
 20
-117.7516411380968
 10
88.51759437891228
 20
-117.5321885556864
 10
88.68502601949541
 20
-117.5070393586441
 10
88.81938474342016
 20
-117.5070393586441
 10
88.98440481716362
 20
-117.5070393586441
 10
89.13392196122346
 20
-117.554926185889
 10
89.23314071119866
 20
-117.7516411380968
 10
89.33649357575617
 20
-117.9597249054059
 10
89.36095375370144
 20
-118.2070827612469
 10
89.36095375370144
 20
-118.3944959556444
 10
89.36095375370144
 20
-118.5798420927509
 10
89.33890514259583
 20
-118.829267005883
 10
89.23314071119866
 20
-119.0373507731921
 97
        0
 97
        0
 92
        1
 93
        1
 72
     4
 94
        3
 73
     0
 74
     1
 95
       17
 96
       13
 40
0.0
 40
0.0
 40
0.0
 40
0.0
 40
1.0
 40
1.0
 40
1.0
 40
2.0
 40
2.0
 40
2.0
 40
3.0
 40
3.0
 40
3.0
 40
4.0
 40
4.0
 40
4.0
 40
4.0
 10
88.81938474342016
 20
-117.7151231259532
 10
88.55962454383231
 20
-117.7151231259532
 10
88.5110486974903
 20
-118.0217366241404
 10
88.5110486974903
 20
-118.3944959556444
 10
88.5110486974903
 20
-118.740039032815
 10
88.54860023827952
 20
-119.0738687853357
 10
88.81938474342016
 20
-119.0738687853357
 10
89.07673337616832
 20
-119.0738687853357
 10
89.1273762798015
 20
-118.7696668539881
 10
89.1273762798015
 20
-118.3944959556444
 10
89.1273762798015
 20
-118.0489528784739
 10
89.08775768172111
 20
-117.7151231259532
 10
88.81938474342016
 20
-117.7151231259532
 97
        0
 97
        0
 75
     2
 76
     1
 98
        0
  0
ENDBLK
  5
6C
330
69
100
AcDbEntity
  8
0
100
AcDbBlockEnd
  0
BLOCK
  5
93
330
91
100
AcDbEntity
  8
0
100
AcDbBlockBegin
  2
block 4
 70
     0
 10
0.0
 20
0.0
 30
0.0
  3
block 4
  1

  0
SPLINE
  5
95
330
91
100
AcDbEntity
  8
_U+30EC_U+30A4_U+30E4_U+30FC 1
370
     0
100
AcDbSpline
210
0.0
220
0.0
230
1.0
 70
    11
 71
     3
 72
    26
 73
    22
 74
     0
 42
0.0000000001
 43
0.0000000001
 12
1.0
 22
0.0
 32
0.0
 13
1.0
 23
0.0
 33
0.0
 40
0.0
 40
0.0
 40
0.0
 40
0.0
 40
1.0
 40
1.0
 40
1.0
 40
2.0
 40
2.0
 40
2.0
 40
3.0
 40
3.0
 40
3.0
 40
4.0
 40
4.0
 40
4.0
 40
5.0
 40
5.0
 40
5.0
 40
6.0
 40
6.0
 40
6.0
 40
7.0
 40
7.0
 40
7.0
 40
7.0
 10
104.0284477821526
 20
-130.343465136685
 30
0.0
 10
104.0284477821526
 20
-130.343465136685
 30
0.0
 10
102.834377686965
 20
-130.343465136685
 30
0.0
 10
102.834377686965
 20
-130.343465136685
 30
0.0
 10
102.834377686965
 20
-130.343465136685
 30
0.0
 10
102.834377686965
 20
-130.6869411565644
 30
0.0
 10
102.834377686965
 20
-130.6869411565644
 30
0.0
 10
102.834377686965
 20
-130.6869411565644
 30
0.0
 10
102.6741807469009
 20
-130.6869411565644
 30
0.0
 10
102.6741807469009
 20
-130.6869411565644
 30
0.0
 10
102.6579887981202
 20
-130.3413980793938
 30
0.0
 10
102.481944418824
 20
-130.2928222330518
 30
0.0
 10
102.3582654909035
 20
-130.2621608832331
 30
0.0
 10
102.3582654909035
 20
-130.2621608832331
 30
0.0
 10
102.3582654909035
 20
-130.1102321723336
 30
0.0
 10
102.3582654909035
 20
-130.1102321723336
 30
0.0
 10
102.3582654909035
 20
-130.1102321723336
 30
0.0
 10
104.0284477821526
 20
-130.1102321723336
 30
0.0
 10
104.0284477821526
 20
-130.1102321723336
 30
0.0
 10
104.0284477821526
 20
-130.1102321723336
 30
0.0
 10
104.0284477821526
 20
-130.343465136685
 30
0.0
 10
104.0284477821526
 20
-130.343465136685
 30
0.0
  0
HATCH
  5
96
330
91
100
AcDbEntity
  8
_U+30EC_U+30A4_U+30E4_U+30FC 1
 62
   179
420
  2234388
100
AcDbHatch
 10
0.0
 20
0.0
 30
0.0
210
0.0
220
0.0
230
1.0
  2
SOLID
 70
     1
 71
     0
 91
        1
 92
        1
 93
        1
 72
     4
 94
        3
 73
     0
 74
     1
 95
       26
 96
       22
 40
0.0
 40
0.0
 40
0.0
 40
0.0
 40
1.0
 40
1.0
 40
1.0
 40
2.0
 40
2.0
 40
2.0
 40
3.0
 40
3.0
 40
3.0
 40
4.0
 40
4.0
 40
4.0
 40
5.0
 40
5.0
 40
5.0
 40
6.0
 40
6.0
 40
6.0
 40
7.0
 40
7.0
 40
7.0
 40
7.0
 10
104.0284477821526
 20
-130.343465136685
 10
104.0284477821526
 20
-130.343465136685
 10
102.834377686965
 20
-130.343465136685
 10
102.834377686965
 20
-130.343465136685
 10
102.834377686965
 20
-130.343465136685
 10
102.834377686965
 20
-130.6869411565644
 10
102.834377686965
 20
-130.6869411565644
 10
102.834377686965
 20
-130.6869411565644
 10
102.6741807469009
 20
-130.6869411565644
 10
102.6741807469009
 20
-130.6869411565644
 10
102.6579887981202
 20
-130.3413980793938
 10
102.481944418824
 20
-130.2928222330518
 10
102.3582654909035
 20
-130.2621608832331
 10
102.3582654909035
 20
-130.2621608832331
 10
102.3582654909035
 20
-130.1102321723336
 10
102.3582654909035
 20
-130.1102321723336
 10
102.3582654909035
 20
-130.1102321723336
 10
104.0284477821526
 20
-130.1102321723336
 10
104.0284477821526
 20
-130.1102321723336
 10
104.0284477821526
 20
-130.1102321723336
 10
104.0284477821526
 20
-130.343465136685
 10
104.0284477821526
 20
-130.343465136685
 97
        0
 97
        0
 75
     2
 76
     1
 98
        0
  0
POLYLINE
  5
97
330
91
100
AcDbEntity
  8
_U+30EC_U+30A4_U+30E4_U+30FC 1
370
     0
100
AcDb2dPolyline
 66
     1
 10
0.0
 20
0.0
 30
0.0
  0
VERTEX
  5
98
330
97
100
AcDbEntity
  8
_U+30EC_U+30A4_U+30E4_U+30FC 1
370
     0
100
AcDbVertex
100
AcDb2dVertex
 10
103.6532768838089
 20
-128.723236729972
 30
0.0
  0
VERTEX
  5
99
330
97
100
AcDbEntity
  8
_U+30EC_U+30A4_U+30E4_U+30FC 1
370
     0
100
AcDbVertex
100
AcDb2dVertex
 10
104.0284477821526
 20
-128.723236729972
 30
0.0
  0
VERTEX
  5
9A
330
97
100
AcDbEntity
  8
_U+30EC_U+30A4_U+30E4_U+30FC 1
370
     0
100
AcDbVertex
100
AcDb2dVertex
 10
104.0284477821526
 20
-128.9499240129014
 30
0.0
  0
VERTEX
  5
9B
330
97
100
AcDbEntity
  8
_U+30EC_U+30A4_U+30E4_U+30FC 1
370
     0
100
AcDbVertex
100
AcDb2dVertex
 10
103.6532768838089
 20
-128.9499240129014
 30
0.0
  0
VERTEX
  5
9C
330
97
100
AcDbEntity
  8
_U+30EC_U+30A4_U+30E4_U+30FC 1
370
     0
100
AcDbVertex
100
AcDb2dVertex
 10
103.6532768838089
 20
-129.6323974285294
 30
0.0
  0
VERTEX
  5
9D
330
97
100
AcDbEntity
  8
_U+30EC_U+30A4_U+30E4_U+30FC 1
370
     0
100
AcDbVertex
100
AcDb2dVertex
 10
103.4107421616473
 20
-129.6323974285294
 30
0.0
  0
VERTEX
  5
9E
330
97
100
AcDbEntity
  8
_U+30EC_U+30A4_U+30E4_U+30FC 1
370
     0
100
AcDbVertex
100
AcDb2dVertex
 10
102.3582654909035
 20
-128.9258083445047
 30
0.0
  0
VERTEX
  5
9F
330
97
100
AcDbEntity
  8
_U+30EC_U+30A4_U+30E4_U+30FC 1
370
     0
100
AcDbVertex
100
AcDb2dVertex
 10
102.3582654909035
 20
-128.723236729972
 30
0.0
  0
VERTEX
  5
A0
330
97
100
AcDbEntity
  8
_U+30EC_U+30A4_U+30E4_U+30FC 1
370
     0
100
AcDbVertex
100
AcDb2dVertex
 10
103.4383029255293
 20
-128.723236729972
 30
0.0
  0
VERTEX
  5
A1
330
97
100
AcDbEntity
  8
_U+30EC_U+30A4_U+30E4_U+30FC 1
370
     0
100
AcDbVertex
100
AcDb2dVertex
 10
103.4383029255293
 20
-128.5075737525953
 30
0.0
  0
VERTEX
  5
A2
330
97
100
AcDbEntity
  8
_U+30EC_U+30A4_U+30E4_U+30FC 1
370
     0
100
AcDbVertex
100
AcDb2dVertex
 10
103.6532768838089
 20
-128.5075737525953
 30
0.0
  0
VERTEX
  5
A3
330
97
100
AcDbEntity
  8
_U+30EC_U+30A4_U+30E4_U+30FC 1
370
     0
100
AcDbVertex
100
AcDb2dVertex
 10
103.6532768838089
 20
-128.723236729972
 30
0.0
  0
SEQEND
  5
A4
330
97
100
AcDbEntity
  8
_U+30EC_U+30A4_U+30E4_U+30FC 1
370
     0
  0
POLYLINE
  5
A5
330
91
100
AcDbEntity
  8
_U+30EC_U+30A4_U+30E4_U+30FC 1
370
     0
100
AcDb2dPolyline
 66
     1
 10
0.0
 20
0.0
 30
0.0
  0
VERTEX
  5
A6
330
A5
100
AcDbEntity
  8
_U+30EC_U+30A4_U+30E4_U+30FC 1
370
     0
100
AcDbVertex
100
AcDb2dVertex
 10
102.7289577651164
 20
-128.9499240129014
 30
0.0
  0
VERTEX
  5
A7
330
A5
100
AcDbEntity
  8
_U+30EC_U+30A4_U+30E4_U+30FC 1
370
     0
100
AcDbVertex
100
AcDb2dVertex
 10
103.4383029255293
 20
-129.4256916994144
 30
0.0
  0
VERTEX
  5
A8
330
A5
100
AcDbEntity
  8
_U+30EC_U+30A4_U+30E4_U+30FC 1
370
     0
100
AcDbVertex
100
AcDb2dVertex
 10
103.4383029255293
 20
-128.9499240129014
 30
0.0
  0
VERTEX
  5
A9
330
A5
100
AcDbEntity
  8
_U+30EC_U+30A4_U+30E4_U+30FC 1
370
     0
100
AcDbVertex
100
AcDb2dVertex
 10
102.7289577651164
 20
-128.9499240129014
 30
0.0
  0
SEQEND
  5
AA
330
A5
100
AcDbEntity
  8
_U+30EC_U+30A4_U+30E4_U+30FC 1
370
     0
  0
HATCH
  5
AB
330
91
100
AcDbEntity
  8
_U+30EC_U+30A4_U+30E4_U+30FC 1
 62
   179
420
  2234388
100
AcDbHatch
 10
0.0
 20
0.0
 30
0.0
210
0.0
220
0.0
230
1.0
  2
SOLID
 70
     1
 71
     0
 91
        2
 92
        1
 93
       11
 72
     1
 10
103.6532768838089
 20
-128.723236729972
 11
104.0284477821526
 21
-128.723236729972
 72
     1
 10
104.0284477821526
 20
-128.723236729972
 11
104.0284477821526
 21
-128.9499240129014
 72
     1
 10
104.0284477821526
 20
-128.9499240129014
 11
103.6532768838089
 21
-128.9499240129014
 72
     1
 10
103.6532768838089
 20
-128.9499240129014
 11
103.6532768838089
 21
-129.6323974285294
 72
     1
 10
103.6532768838089
 20
-129.6323974285294
 11
103.4107421616473
 21
-129.6323974285294
 72
     1
 10
103.4107421616473
 20
-129.6323974285294
 11
102.3582654909035
 21
-128.9258083445047
 72
     1
 10
102.3582654909035
 20
-128.9258083445047
 11
102.3582654909035
 21
-128.723236729972
 72
     1
 10
102.3582654909035
 20
-128.723236729972
 11
103.4383029255293
 21
-128.723236729972
 72
     1
 10
103.4383029255293
 20
-128.723236729972
 11
103.4383029255293
 21
-128.5075737525953
 72
     1
 10
103.4383029255293
 20
-128.5075737525953
 11
103.6532768838089
 21
-128.5075737525953
 72
     1
 10
103.6532768838089
 20
-128.5075737525953
 11
103.6532768838089
 21
-128.723236729972
 97
        0
 92
        1
 93
        3
 72
     1
 10
102.7289577651164
 20
-128.9499240129014
 11
103.4383029255293
 21
-129.4256916994144
 72
     1
 10
103.4383029255293
 20
-129.4256916994144
 11
103.4383029255293
 21
-128.9499240129014
 72
     1
 10
103.4383029255293
 20
-128.9499240129014
 11
102.7289577651164
 21
-128.9499240129014
 97
        0
 75
     2
 76
     1
 98
        0
  0
POLYLINE
  5
AC
330
91
100
AcDbEntity
  8
_U+30EC_U+30A4_U+30E4_U+30FC 1
370
     0
100
AcDb2dPolyline
 66
     1
 10
0.0
 20
0.0
 30
0.0
  0
VERTEX
  5
AD
330
AC
100
AcDbEntity
  8
_U+30EC_U+30A4_U+30E4_U+30FC 1
370
     0
100
AcDbVertex
100
AcDb2dVertex
 10
104.0284477821526
 20
-128.3029350807715
 30
0.0
  0
VERTEX
  5
AE
330
AC
100
AcDbEntity
  8
_U+30EC_U+30A4_U+30E4_U+30FC 1
370
     0
100
AcDbVertex
100
AcDb2dVertex
 10
103.7562852388179
 20
-128.3029350807715
 30
0.0
  0
VERTEX
  5
AF
330
AC
100
AcDbEntity
  8
_U+30EC_U+30A4_U+30E4_U+30FC 1
370
     0
100
AcDbVertex
100
AcDb2dVertex
 10
103.7562852388179
 20
-128.040763314344
 30
0.0
  0
VERTEX
  5
B0
330
AC
100
AcDbEntity
  8
_U+30EC_U+30A4_U+30E4_U+30FC 1
370
     0
100
AcDbVertex
100
AcDb2dVertex
 10
104.0284477821526
 20
-128.040763314344
 30
0.0
  0
VERTEX
  5
B1
330
AC
100
AcDbEntity
  8
_U+30EC_U+30A4_U+30E4_U+30FC 1
370
     0
100
AcDbVertex
100
AcDb2dVertex
 10
104.0284477821526
 20
-128.3029350807715
 30
0.0
  0
SEQEND
  5
B2
330
AC
100
AcDbEntity
  8
_U+30EC_U+30A4_U+30E4_U+30FC 1
370
     0
  0
HATCH
  5
B3
330
91
100
AcDbEntity
  8
_U+30EC_U+30A4_U+30E4_U+30FC 1
 62
   179
420
  2234388
100
AcDbHatch
 10
0.0
 20
0.0
 30
0.0
210
0.0
220
0.0
230
1.0
  2
SOLID
 70
     1
 71
     0
 91
        1
 92
        1
 93
        4
 72
     1
 10
104.0284477821526
 20
-128.3029350807715
 11
103.7562852388179
 21
-128.3029350807715
 72
     1
 10
103.7562852388179
 20
-128.3029350807715
 11
103.7562852388179
 21
-128.040763314344
 72
     1
 10
103.7562852388179
 20
-128.040763314344
 11
104.0284477821526
 21
-128.040763314344
 72
     1
 10
104.0284477821526
 20
-128.040763314344
 11
104.0284477821526
 21
-128.3029350807715
 97
        0
 75
     2
 76
     1
 98
        0
  0
SPLINE
  5
B4
330
91
100
AcDbEntity
  8
_U+30EC_U+30A4_U+30E4_U+30FC 1
370
     0
100
AcDbSpline
210
0.0
220
0.0
230
1.0
 70
    11
 71
     3
 72
    53
 73
    49
 74
     0
 42
0.0000000001
 43
0.0000000001
 12
1.0
 22
0.0
 32
0.0
 13
1.0
 23
0.0
 33
0.0
 40
0.0
 40
0.0
 40
0.0
 40
0.0
 40
1.0
 40
1.0
 40
1.0
 40
2.0
 40
2.0
 40
2.0
 40
3.0
 40
3.0
 40
3.0
 40
4.0
 40
4.0
 40
4.0
 40
5.0
 40
5.0
 40
5.0
 40
6.0
 40
6.0
 40
6.0
 40
7.0
 40
7.0
 40
7.0
 40
8.0
 40
8.0
 40
8.0
 40
9.0
 40
9.0
 40
9.0
 40
10.0
 40
10.0
 40
10.0
 40
11.0
 40
11.0
 40
11.0
 40
12.0
 40
12.0
 40
12.0
 40
13.0
 40
13.0
 40
13.0
 40
14.0
 40
14.0
 40
14.0
 40
15.0
 40
15.0
 40
15.0
 40
16.0
 40
16.0
 40
16.0
 40
16.0
 10
104.0832248003681
 20
-127.2945556322389
 30
0.0
 10
104.0832248003681
 20
-127.3758598856908
 30
0.0
 10
104.0649657942963
 20
-127.4816243170879
 30
0.0
 10
103.9964083941398
 20
-127.5873887484851
 30
0.0
 10
103.8775525998987
 20
-127.7679117519122
 30
0.0
 10
103.7356146659064
 20
-127.7899603630178
 30
0.0
 10
103.6188259289564
 20
-127.8095974072837
 30
0.0
 10
103.6188259289564
 20
-127.8095974072837
 30
0.0
 10
103.6188259289564
 20
-127.5784315002235
 30
0.0
 10
103.6188259289564
 20
-127.5784315002235
 30
0.0
 10
103.8341443967845
 20
-127.5212429151683
 30
0.0
 10
103.8661837847973
 20
-127.3892957580832
 30
0.0
 10
103.8661837847973
 20
-127.2924885749477
 30
0.0
 10
103.8661837847973
 20
-127.1471055454702
 30
0.0
 10
103.758352296109
 20
-126.9886311531487
 30
0.0
 10
103.5068603256858
 20
-126.9886311531487
 30
0.0
 10
103.2298746486717
 20
-126.9886311531487
 30
0.0
 10
103.1544270575447
 20
-127.1756998379978
 30
0.0
 10
103.1544270575447
 20
-127.3011013136608
 30
0.0
 10
103.1544270575447
 20
-127.3341742303192
 30
0.0
 10
103.1544270575447
 20
-127.4816243170879
 30
0.0
 10
103.2939534246973
 20
-127.5742973856412
 30
0.0
 10
103.2939534246973
 20
-127.5742973856412
 30
0.0
 10
103.2736273613344
 20
-127.7568874463594
 30
0.0
 10
103.2736273613344
 20
-127.7568874463594
 30
0.0
 10
103.2736273613344
 20
-127.7568874463594
 30
0.0
 10
102.3582654909035
 20
-127.6314859706963
 30
0.0
 10
102.3582654909035
 20
-127.6314859706963
 30
0.0
 10
102.3582654909035
 20
-127.6314859706963
 30
0.0
 10
102.3582654909035
 20
-126.8211995125655
 30
0.0
 10
102.3582654909035
 20
-126.8211995125655
 30
0.0
 10
102.3582654909035
 20
-126.8211995125655
 30
0.0
 10
102.5687608250523
 20
-126.8211995125655
 30
0.0
 10
102.5687608250523
 20
-126.8211995125655
 30
0.0
 10
102.5687608250523
 20
-126.8211995125655
 30
0.0
 10
102.5687608250523
 20
-127.461987272822
 30
0.0
 10
102.5687608250523
 20
-127.461987272822
 30
0.0
 10
102.5687608250523
 20
-127.461987272822
 30
0.0
 10
103.0262695054934
 20
-127.53020016343
 30
0.0
 10
103.0262695054934
 20
-127.53020016343
 30
0.0
 10
102.9897514933498
 20
-127.4661213874043
 30
0.0
 10
102.9463432902356
 20
-127.3803385098216
 30
0.0
 10
102.9463432902356
 20
-127.2570040914496
 30
0.0
 10
102.9463432902356
 20
-126.992765267731
 30
0.0
 10
103.1475368665742
 20
-126.7464409405356
 30
0.0
 10
103.4861897527743
 20
-126.7464409405356
 30
0.0
 10
103.8293212631052
 20
-126.7464409405356
 30
0.0
 10
104.0832248003681
 20
-126.979673904887
 30
0.0
 10
104.0832248003681
 20
-127.2945556322389
 30
0.0
  0
HATCH
  5
B5
330
91
100
AcDbEntity
  8
_U+30EC_U+30A4_U+30E4_U+30FC 1
 62
   179
420
  2234388
100
AcDbHatch
 10
0.0
 20
0.0
 30
0.0
210
0.0
220
0.0
230
1.0
  2
SOLID
 70
     1
 71
     0
 91
        1
 92
        1
 93
        1
 72
     4
 94
        3
 73
     0
 74
     1
 95
       53
 96
       49
 40
0.0
 40
0.0
 40
0.0
 40
0.0
 40
1.0
 40
1.0
 40
1.0
 40
2.0
 40
2.0
 40
2.0
 40
3.0
 40
3.0
 40
3.0
 40
4.0
 40
4.0
 40
4.0
 40
5.0
 40
5.0
 40
5.0
 40
6.0
 40
6.0
 40
6.0
 40
7.0
 40
7.0
 40
7.0
 40
8.0
 40
8.0
 40
8.0
 40
9.0
 40
9.0
 40
9.0
 40
10.0
 40
10.0
 40
10.0
 40
11.0
 40
11.0
 40
11.0
 40
12.0
 40
12.0
 40
12.0
 40
13.0
 40
13.0
 40
13.0
 40
14.0
 40
14.0
 40
14.0
 40
15.0
 40
15.0
 40
15.0
 40
16.0
 40
16.0
 40
16.0
 40
16.0
 10
104.0832248003681
 20
-127.2945556322389
 10
104.0832248003681
 20
-127.3758598856908
 10
104.0649657942963
 20
-127.4816243170879
 10
103.9964083941398
 20
-127.5873887484851
 10
103.8775525998987
 20
-127.7679117519122
 10
103.7356146659064
 20
-127.7899603630178
 10
103.6188259289564
 20
-127.8095974072837
 10
103.6188259289564
 20
-127.8095974072837
 10
103.6188259289564
 20
-127.5784315002235
 10
103.6188259289564
 20
-127.5784315002235
 10
103.8341443967845
 20
-127.5212429151683
 10
103.8661837847973
 20
-127.3892957580832
 10
103.8661837847973
 20
-127.2924885749477
 10
103.8661837847973
 20
-127.1471055454702
 10
103.758352296109
 20
-126.9886311531487
 10
103.5068603256858
 20
-126.9886311531487
 10
103.2298746486717
 20
-126.9886311531487
 10
103.1544270575447
 20
-127.1756998379978
 10
103.1544270575447
 20
-127.3011013136608
 10
103.1544270575447
 20
-127.3341742303192
 10
103.1544270575447
 20
-127.4816243170879
 10
103.2939534246973
 20
-127.5742973856412
 10
103.2939534246973
 20
-127.5742973856412
 10
103.2736273613344
 20
-127.7568874463594
 10
103.2736273613344
 20
-127.7568874463594
 10
103.2736273613344
 20
-127.7568874463594
 10
102.3582654909035
 20
-127.6314859706963
 10
102.3582654909035
 20
-127.6314859706963
 10
102.3582654909035
 20
-127.6314859706963
 10
102.3582654909035
 20
-126.8211995125655
 10
102.3582654909035
 20
-126.8211995125655
 10
102.3582654909035
 20
-126.8211995125655
 10
102.5687608250523
 20
-126.8211995125655
 10
102.5687608250523
 20
-126.8211995125655
 10
102.5687608250523
 20
-126.8211995125655
 10
102.5687608250523
 20
-127.461987272822
 10
102.5687608250523
 20
-127.461987272822
 10
102.5687608250523
 20
-127.461987272822
 10
103.0262695054934
 20
-127.53020016343
 10
103.0262695054934
 20
-127.53020016343
 10
102.9897514933498
 20
-127.4661213874043
 10
102.9463432902356
 20
-127.3803385098216
 10
102.9463432902356
 20
-127.2570040914496
 10
102.9463432902356
 20
-126.992765267731
 10
103.1475368665742
 20
-126.7464409405356
 10
103.4861897527743
 20
-126.7464409405356
 10
103.8293212631052
 20
-126.7464409405356
 10
104.0832248003681
 20
-126.979673904887
 10
104.0832248003681
 20
-127.2945556322389
 97
        0
 97
        0
 75
     2
 76
     1
 98
        0
  0
ENDBLK
  5
94
330
91
100
AcDbEntity
  8
0
100
AcDbBlockEnd
  0
BLOCK
  5
C4
330
C2
100
AcDbEntity
  8
0
100
AcDbBlockBegin
  2
block 5
 70
     0
 10
0.0
 20
0.0
 30
0.0
  3
block 5
  1

  0
SPLINE
  5
C6
330
C2
100
AcDbEntity
  8
_U+30EC_U+30A4_U+30E4_U+30FC 1
370
     0
100
AcDbSpline
210
0.0
220
0.0
230
1.0
 70
    11
 71
     3
 72
    44
 73
    40
 74
     0
 42
0.0000000001
 43
0.0000000001
 12
1.0
 22
0.0
 32
0.0
 13
1.0
 23
0.0
 33
0.0
 40
0.0
 40
0.0
 40
0.0
 40
0.0
 40
1.0
 40
1.0
 40
1.0
 40
2.0
 40
2.0
 40
2.0
 40
3.0
 40
3.0
 40
3.0
 40
4.0
 40
4.0
 40
4.0
 40
5.0
 40
5.0
 40
5.0
 40
6.0
 40
6.0
 40
6.0
 40
7.0
 40
7.0
 40
7.0
 40
8.0
 40
8.0
 40
8.0
 40
9.0
 40
9.0
 40
9.0
 40
10.0
 40
10.0
 40
10.0
 40
11.0
 40
11.0
 40
11.0
 40
12.0
 40
12.0
 40
12.0
 40
13.0
 40
13.0
 40
13.0
 40
13.0
 10
103.399373346546
 20
-138.5090304558241
 30
0.0
 10
103.5709391017114
 20
-138.7357177387536
 30
0.0
 10
103.6508653169692
 20
-138.8328694314376
 30
0.0
 10
103.8065836329025
 20
-138.8835123350708
 30
0.0
 10
103.8065836329025
 20
-138.8835123350708
 30
0.0
 10
103.8065836329025
 20
-138.07322587694
 30
0.0
 10
103.8065836329025
 20
-138.07322587694
 30
0.0
 10
103.8065836329025
 20
-138.07322587694
 30
0.0
 10
104.0284477821526
 20
-138.07322587694
 30
0.0
 10
104.0284477821526
 20
-138.07322587694
 30
0.0
 10
104.0284477821526
 20
-138.07322587694
 30
0.0
 10
104.0284477821526
 20
-139.1432725346586
 30
0.0
 10
104.0284477821526
 20
-139.1432725346586
 30
0.0
 10
103.6419080687076
 20
-139.1101996180002
 30
0.0
 10
103.5571587197704
 20
-139.0419867273923
 30
0.0
 10
103.234697782351
 20
-138.6413221224577
 30
0.0
 10
103.0193793145229
 20
-138.3746717318994
 30
0.0
 10
102.9463432902356
 20
-138.3064588412915
 30
0.0
 10
102.7975151652728
 20
-138.3064588412915
 30
0.0
 10
102.6693576132215
 20
-138.3064588412915
 30
0.0
 10
102.5277641887778
 20
-138.3815619228699
 30
0.0
 10
102.5277641887778
 20
-138.5862005946937
 30
0.0
 10
102.5277641887778
 20
-138.8569850998344
 30
0.0
 10
102.7771891019099
 20
-138.865942348096
 30
0.0
 10
102.9029350871215
 20
-138.8700764626783
 30
0.0
 10
102.9029350871215
 20
-138.8700764626783
 30
0.0
 10
102.9029350871215
 20
-139.1036539365783
 30
0.0
 10
102.9029350871215
 20
-139.1036539365783
 30
0.0
 10
102.76547577726
 20
-139.0946966883166
 30
0.0
 10
102.6442084161792
 20
-139.0836723827638
 30
0.0
 10
102.5163953736765
 20
-138.9999565624722
 30
0.0
 10
102.3424180516713
 20
-138.8855793923619
 30
0.0
 10
102.3059000395277
 20
-138.6919650260909
 30
0.0
 10
102.3059000395277
 20
-138.5706976650101
 30
0.0
 10
102.3059000395277
 20
-138.2823431728947
 30
0.0
 10
102.5046820490266
 20
-138.066680195518
 30
0.0
 10
102.7999267321125
 20
-138.066680195518
 30
0.0
 10
103.0469400784049
 20
-138.066680195518
 30
0.0
 10
103.1544270575447
 20
-138.1876030470503
 30
0.0
 10
103.399373346546
 20
-138.5090304558241
 30
0.0
  0
HATCH
  5
C7
330
C2
100
AcDbEntity
  8
_U+30EC_U+30A4_U+30E4_U+30FC 1
 62
   179
420
  2234388
100
AcDbHatch
 10
0.0
 20
0.0
 30
0.0
210
0.0
220
0.0
230
1.0
  2
SOLID
 70
     1
 71
     0
 91
        1
 92
        1
 93
        1
 72
     4
 94
        3
 73
     0
 74
     1
 95
       44
 96
       40
 40
0.0
 40
0.0
 40
0.0
 40
0.0
 40
1.0
 40
1.0
 40
1.0
 40
2.0
 40
2.0
 40
2.0
 40
3.0
 40
3.0
 40
3.0
 40
4.0
 40
4.0
 40
4.0
 40
5.0
 40
5.0
 40
5.0
 40
6.0
 40
6.0
 40
6.0
 40
7.0
 40
7.0
 40
7.0
 40
8.0
 40
8.0
 40
8.0
 40
9.0
 40
9.0
 40
9.0
 40
10.0
 40
10.0
 40
10.0
 40
11.0
 40
11.0
 40
11.0
 40
12.0
 40
12.0
 40
12.0
 40
13.0
 40
13.0
 40
13.0
 40
13.0
 10
103.399373346546
 20
-138.5090304558241
 10
103.5709391017114
 20
-138.7357177387536
 10
103.6508653169692
 20
-138.8328694314376
 10
103.8065836329025
 20
-138.8835123350708
 10
103.8065836329025
 20
-138.8835123350708
 10
103.8065836329025
 20
-138.07322587694
 10
103.8065836329025
 20
-138.07322587694
 10
103.8065836329025
 20
-138.07322587694
 10
104.0284477821526
 20
-138.07322587694
 10
104.0284477821526
 20
-138.07322587694
 10
104.0284477821526
 20
-138.07322587694
 10
104.0284477821526
 20
-139.1432725346586
 10
104.0284477821526
 20
-139.1432725346586
 10
103.6419080687076
 20
-139.1101996180002
 10
103.5571587197704
 20
-139.0419867273923
 10
103.234697782351
 20
-138.6413221224577
 10
103.0193793145229
 20
-138.3746717318994
 10
102.9463432902356
 20
-138.3064588412915
 10
102.7975151652728
 20
-138.3064588412915
 10
102.6693576132215
 20
-138.3064588412915
 10
102.5277641887778
 20
-138.3815619228699
 10
102.5277641887778
 20
-138.5862005946937
 10
102.5277641887778
 20
-138.8569850998344
 10
102.7771891019099
 20
-138.865942348096
 10
102.9029350871215
 20
-138.8700764626783
 10
102.9029350871215
 20
-138.8700764626783
 10
102.9029350871215
 20
-139.1036539365783
 10
102.9029350871215
 20
-139.1036539365783
 10
102.76547577726
 20
-139.0946966883166
 10
102.6442084161792
 20
-139.0836723827638
 10
102.5163953736765
 20
-138.9999565624722
 10
102.3424180516713
 20
-138.8855793923619
 10
102.3059000395277
 20
-138.6919650260909
 10
102.3059000395277
 20
-138.5706976650101
 10
102.3059000395277
 20
-138.2823431728947
 10
102.5046820490266
 20
-138.066680195518
 10
102.7999267321125
 20
-138.066680195518
 10
103.0469400784049
 20
-138.066680195518
 10
103.1544270575447
 20
-138.1876030470503
 10
103.399373346546
 20
-138.5090304558241
 97
        0
 97
        0
 75
     2
 76
     1
 98
        0
  0
POLYLINE
  5
C8
330
C2
100
AcDbEntity
  8
_U+30EC_U+30A4_U+30E4_U+30FC 1
370
     0
100
AcDb2dPolyline
 66
     1
 10
0.0
 20
0.0
 30
0.0
  0
VERTEX
  5
C9
330
C8
100
AcDbEntity
  8
_U+30EC_U+30A4_U+30E4_U+30FC 1
370
     0
100
AcDbVertex
100
AcDb2dVertex
 10
104.0284477821526
 20
-137.8399929125886
 30
0.0
  0
VERTEX
  5
CA
330
C8
100
AcDbEntity
  8
_U+30EC_U+30A4_U+30E4_U+30FC 1
370
     0
100
AcDbVertex
100
AcDb2dVertex
 10
103.7562852388179
 20
-137.8399929125886
 30
0.0
  0
VERTEX
  5
CB
330
C8
100
AcDbEntity
  8
_U+30EC_U+30A4_U+30E4_U+30FC 1
370
     0
100
AcDbVertex
100
AcDb2dVertex
 10
103.7562852388179
 20
-137.5778211461611
 30
0.0
  0
VERTEX
  5
CC
330
C8
100
AcDbEntity
  8
_U+30EC_U+30A4_U+30E4_U+30FC 1
370
     0
100
AcDbVertex
100
AcDb2dVertex
 10
104.0284477821526
 20
-137.5778211461611
 30
0.0
  0
VERTEX
  5
CD
330
C8
100
AcDbEntity
  8
_U+30EC_U+30A4_U+30E4_U+30FC 1
370
     0
100
AcDbVertex
100
AcDb2dVertex
 10
104.0284477821526
 20
-137.8399929125886
 30
0.0
  0
SEQEND
  5
CE
330
C8
100
AcDbEntity
  8
_U+30EC_U+30A4_U+30E4_U+30FC 1
370
     0
  0
HATCH
  5
CF
330
C2
100
AcDbEntity
  8
_U+30EC_U+30A4_U+30E4_U+30FC 1
 62
   179
420
  2234388
100
AcDbHatch
 10
0.0
 20
0.0
 30
0.0
210
0.0
220
0.0
230
1.0
  2
SOLID
 70
     1
 71
     0
 91
        1
 92
        1
 93
        4
 72
     1
 10
104.0284477821526
 20
-137.8399929125886
 11
103.7562852388179
 21
-137.8399929125886
 72
     1
 10
103.7562852388179
 20
-137.8399929125886
 11
103.7562852388179
 21
-137.5778211461611
 72
     1
 10
103.7562852388179
 20
-137.5778211461611
 11
104.0284477821526
 21
-137.5778211461611
 72
     1
 10
104.0284477821526
 20
-137.5778211461611
 11
104.0284477821526
 21
-137.8399929125886
 97
        0
 75
     2
 76
     1
 98
        0
  0
SPLINE
  5
D0
330
C2
100
AcDbEntity
  8
_U+30EC_U+30A4_U+30E4_U+30FC 1
370
     0
100
AcDbSpline
210
0.0
220
0.0
230
1.0
 70
    11
 71
     3
 72
    53
 73
    49
 74
     0
 42
0.0000000001
 43
0.0000000001
 12
1.0
 22
0.0
 32
0.0
 13
1.0
 23
0.0
 33
0.0
 40
0.0
 40
0.0
 40
0.0
 40
0.0
 40
1.0
 40
1.0
 40
1.0
 40
2.0
 40
2.0
 40
2.0
 40
3.0
 40
3.0
 40
3.0
 40
4.0
 40
4.0
 40
4.0
 40
5.0
 40
5.0
 40
5.0
 40
6.0
 40
6.0
 40
6.0
 40
7.0
 40
7.0
 40
7.0
 40
8.0
 40
8.0
 40
8.0
 40
9.0
 40
9.0
 40
9.0
 40
10.0
 40
10.0
 40
10.0
 40
11.0
 40
11.0
 40
11.0
 40
12.0
 40
12.0
 40
12.0
 40
13.0
 40
13.0
 40
13.0
 40
14.0
 40
14.0
 40
14.0
 40
15.0
 40
15.0
 40
15.0
 40
16.0
 40
16.0
 40
16.0
 40
16.0
 10
104.0832248003681
 20
-136.831613464056
 30
0.0
 10
104.0832248003681
 20
-136.9129177175079
 30
0.0
 10
104.0649657942963
 20
-137.0186821489051
 30
0.0
 10
103.9964083941398
 20
-137.1244465803022
 30
0.0
 10
103.8775525998987
 20
-137.3049695837293
 30
0.0
 10
103.7356146659064
 20
-137.3270181948349
 30
0.0
 10
103.6188259289564
 20
-137.3466552391008
 30
0.0
 10
103.6188259289564
 20
-137.3466552391008
 30
0.0
 10
103.6188259289564
 20
-137.1154893320406
 30
0.0
 10
103.6188259289564
 20
-137.1154893320406
 30
0.0
 10
103.8341443967845
 20
-137.0583007469854
 30
0.0
 10
103.8661837847973
 20
-136.9263535899004
 30
0.0
 10
103.8661837847973
 20
-136.8295464067648
 30
0.0
 10
103.8661837847973
 20
-136.6841633772873
 30
0.0
 10
103.758352296109
 20
-136.5256889849658
 30
0.0
 10
103.5068603256858
 20
-136.5256889849658
 30
0.0
 10
103.2298746486717
 20
-136.5256889849658
 30
0.0
 10
103.1544270575447
 20
-136.7127576698149
 30
0.0
 10
103.1544270575447
 20
-136.838159145478
 30
0.0
 10
103.1544270575447
 20
-136.8712320621364
 30
0.0
 10
103.1544270575447
 20
-137.0186821489051
 30
0.0
 10
103.2939534246973
 20
-137.1113552174583
 30
0.0
 10
103.2939534246973
 20
-137.1113552174583
 30
0.0
 10
103.2736273613344
 20
-137.2939452781765
 30
0.0
 10
103.2736273613344
 20
-137.2939452781765
 30
0.0
 10
103.2736273613344
 20
-137.2939452781765
 30
0.0
 10
102.3582654909035
 20
-137.1685438025134
 30
0.0
 10
102.3582654909035
 20
-137.1685438025134
 30
0.0
 10
102.3582654909035
 20
-137.1685438025134
 30
0.0
 10
102.3582654909035
 20
-136.3582573443827
 30
0.0
 10
102.3582654909035
 20
-136.3582573443827
 30
0.0
 10
102.3582654909035
 20
-136.3582573443827
 30
0.0
 10
102.5687608250523
 20
-136.3582573443827
 30
0.0
 10
102.5687608250523
 20
-136.3582573443827
 30
0.0
 10
102.5687608250523
 20
-136.3582573443827
 30
0.0
 10
102.5687608250523
 20
-136.9990451046391
 30
0.0
 10
102.5687608250523
 20
-136.9990451046391
 30
0.0
 10
102.5687608250523
 20
-136.9990451046391
 30
0.0
 10
103.0262695054934
 20
-137.0672579952471
 30
0.0
 10
103.0262695054934
 20
-137.0672579952471
 30
0.0
 10
102.9897514933498
 20
-137.0031792192214
 30
0.0
 10
102.9463432902356
 20
-136.9173963416387
 30
0.0
 10
102.9463432902356
 20
-136.7940619232668
 30
0.0
 10
102.9463432902356
 20
-136.5298230995481
 30
0.0
 10
103.1475368665742
 20
-136.2834987723527
 30
0.0
 10
103.4861897527743
 20
-136.2834987723527
 30
0.0
 10
103.8293212631052
 20
-136.2834987723527
 30
0.0
 10
104.0832248003681
 20
-136.5167317367041
 30
0.0
 10
104.0832248003681
 20
-136.831613464056
 30
0.0
  0
HATCH
  5
D1
330
C2
100
AcDbEntity
  8
_U+30EC_U+30A4_U+30E4_U+30FC 1
 62
   179
420
  2234388
100
AcDbHatch
 10
0.0
 20
0.0
 30
0.0
210
0.0
220
0.0
230
1.0
  2
SOLID
 70
     1
 71
     0
 91
        1
 92
        1
 93
        1
 72
     4
 94
        3
 73
     0
 74
     1
 95
       53
 96
       49
 40
0.0
 40
0.0
 40
0.0
 40
0.0
 40
1.0
 40
1.0
 40
1.0
 40
2.0
 40
2.0
 40
2.0
 40
3.0
 40
3.0
 40
3.0
 40
4.0
 40
4.0
 40
4.0
 40
5.0
 40
5.0
 40
5.0
 40
6.0
 40
6.0
 40
6.0
 40
7.0
 40
7.0
 40
7.0
 40
8.0
 40
8.0
 40
8.0
 40
9.0
 40
9.0
 40
9.0
 40
10.0
 40
10.0
 40
10.0
 40
11.0
 40
11.0
 40
11.0
 40
12.0
 40
12.0
 40
12.0
 40
13.0
 40
13.0
 40
13.0
 40
14.0
 40
14.0
 40
14.0
 40
15.0
 40
15.0
 40
15.0
 40
16.0
 40
16.0
 40
16.0
 40
16.0
 10
104.0832248003681
 20
-136.831613464056
 10
104.0832248003681
 20
-136.9129177175079
 10
104.0649657942963
 20
-137.0186821489051
 10
103.9964083941398
 20
-137.1244465803022
 10
103.8775525998987
 20
-137.3049695837293
 10
103.7356146659064
 20
-137.3270181948349
 10
103.6188259289564
 20
-137.3466552391008
 10
103.6188259289564
 20
-137.3466552391008
 10
103.6188259289564
 20
-137.1154893320406
 10
103.6188259289564
 20
-137.1154893320406
 10
103.8341443967845
 20
-137.0583007469854
 10
103.8661837847973
 20
-136.9263535899004
 10
103.8661837847973
 20
-136.8295464067648
 10
103.8661837847973
 20
-136.6841633772873
 10
103.758352296109
 20
-136.5256889849658
 10
103.5068603256858
 20
-136.5256889849658
 10
103.2298746486717
 20
-136.5256889849658
 10
103.1544270575447
 20
-136.7127576698149
 10
103.1544270575447
 20
-136.838159145478
 10
103.1544270575447
 20
-136.8712320621364
 10
103.1544270575447
 20
-137.0186821489051
 10
103.2939534246973
 20
-137.1113552174583
 10
103.2939534246973
 20
-137.1113552174583
 10
103.2736273613344
 20
-137.2939452781765
 10
103.2736273613344
 20
-137.2939452781765
 10
103.2736273613344
 20
-137.2939452781765
 10
102.3582654909035
 20
-137.1685438025134
 10
102.3582654909035
 20
-137.1685438025134
 10
102.3582654909035
 20
-137.1685438025134
 10
102.3582654909035
 20
-136.3582573443827
 10
102.3582654909035
 20
-136.3582573443827
 10
102.3582654909035
 20
-136.3582573443827
 10
102.5687608250523
 20
-136.3582573443827
 10
102.5687608250523
 20
-136.3582573443827
 10
102.5687608250523
 20
-136.3582573443827
 10
102.5687608250523
 20
-136.9990451046391
 10
102.5687608250523
 20
-136.9990451046391
 10
102.5687608250523
 20
-136.9990451046391
 10
103.0262695054934
 20
-137.0672579952471
 10
103.0262695054934
 20
-137.0672579952471
 10
102.9897514933498
 20
-137.0031792192214
 10
102.9463432902356
 20
-136.9173963416387
 10
102.9463432902356
 20
-136.7940619232668
 10
102.9463432902356
 20
-136.5298230995481
 10
103.1475368665742
 20
-136.2834987723527
 10
103.4861897527743
 20
-136.2834987723527
 10
103.8293212631052
 20
-136.2834987723527
 10
104.0832248003681
 20
-136.5167317367041
 10
104.0832248003681
 20
-136.831613464056
 97
        0
 97
        0
 75
     2
 76
     1
 98
        0
  0
ENDBLK
  5
C5
330
C2
100
AcDbEntity
  8
0
100
AcDbBlockEnd
  0
ENDSEC
  0
SECTION
  2
ENTITIES
  0
SPLINE
  5
41
330
1F
100
AcDbEntity
  8
_U+30EC_U+30A4_U+30E4_U+30FC 1
 62
   179
420
  2234388
370
     9
100
AcDbSpline
210
0.0
220
0.0
230
1.0
 70
    11
 71
     3
 72
    17
 73
    13
 74
     0
 42
0.0000000001
 43
0.0000000001
 12
1.0
 22
0.0
 32
0.0
 13
1.0
 23
0.0
 33
0.0
 40
0.0
 40
0.0
 40
0.0
 40
0.0
 40
1.0
 40
1.0
 40
1.0
 40
2.0
 40
2.0
 40
2.0
 40
3.0
 40
3.0
 40
3.0
 40
4.0
 40
4.0
 40
4.0
 40
4.0
 10
103.0421176489543
 20
-120.2090277477255
 30
0.0
 10
103.0421176489543
 20
-120.1700810810687
 30
0.0
 10
103.0104055298028
 20
-120.1387544144098
 30
0.0
 10
102.9718443174138
 20
-120.1387544144098
 30
0.0
 10
102.9332504295096
 20
-120.1387544144098
 30
0.0
 10
102.902241263634
 20
-120.1700810810687
 30
0.0
 10
102.902241263634
 20
-120.2090277477255
 30
0.0
 10
102.902241263634
 20
-120.2476216366049
 30
0.0
 10
102.9332504295096
 20
-120.2786308032636
 30
0.0
 10
102.9718443174138
 20
-120.2786308032636
 30
0.0
 10
103.0104055298028
 20
-120.2786308032636
 30
0.0
 10
103.0421176489543
 20
-120.2476216366049
 30
0.0
 10
103.0421176489543
 20
-120.2090277477255
 30
0.0
  0
SPLINE
  5
42
330
1F
100
AcDbEntity
  8
_U+30EC_U+30A4_U+30E4_U+30FC 1
 62
   179
420
  2234388
370
     9
100
AcDbSpline
210
0.0
220
0.0
230
1.0
 70
    11
 71
     3
 72
    17
 73
    13
 74
     0
 42
0.0000000001
 43
0.0000000001
 12
1.0
 22
0.0
 32
0.0
 13
1.0
 23
0.0
 33
0.0
 40
0.0
 40
0.0
 40
0.0
 40
0.0
 40
1.0
 40
1.0
 40
1.0
 40
2.0
 40
2.0
 40
2.0
 40
3.0
 40
3.0
 40
3.0
 40
4.0
 40
4.0
 40
4.0
 40
4.0
 10
75.04211086329403
 20
-120.2090277477255
 30
0.0
 10
75.04211086329403
 20
-120.1700810810687
 30
0.0
 10
75.0107489196497
 20
-120.1387544144098
 30
0.0
 10
74.97198053681265
 20
-120.1387544144098
 30
0.0
 10
74.93342003273364
 20
-120.1387544144098
 30
0.0
 10
74.9020580890893
 20
-120.1700810810687
 30
0.0
 10
74.9020580890893
 20
-120.2090277477255
 30
0.0
 10
74.9020580890893
 20
-120.2476216366049
 30
0.0
 10
74.93342003273364
 20
-120.2786308032636
 30
0.0
 10
74.97198053681265
 20
-120.2786308032636
 30
0.0
 10
75.0107489196497
 20
-120.2786308032636
 30
0.0
 10
75.04211086329403
 20
-120.2476216366049
 30
0.0
 10
75.04211086329403
 20
-120.2090277477255
 30
0.0
  0
SPLINE
  5
43
330
1F
100
AcDbEntity
  8
_U+30EC_U+30A4_U+30E4_U+30FC 1
 62
   179
420
  2234388
370
     9
100
AcDbSpline
210
0.0
220
0.0
230
1.0
 70
    11
 71
     3
 72
    17
 73
    13
 74
     0
 42
0.0000000001
 43
0.0000000001
 12
1.0
 22
0.0
 32
0.0
 13
1.0
 23
0.0
 33
0.0
 40
0.0
 40
0.0
 40
0.0
 40
0.0
 40
1.0
 40
1.0
 40
1.0
 40
2.0
 40
2.0
 40
2.0
 40
3.0
 40
3.0
 40
3.0
 40
4.0
 40
4.0
 40
4.0
 40
4.0
 10
105.8422911886271
 20
-123.7085480246284
 30
0.0
 10
105.8422911886271
 20
-123.669954135749
 30
0.0
 10
105.810576467214
 20
-123.6386274690904
 30
0.0
 10
105.7720178570866
 20
-123.6386274690904
 30
0.0
 10
105.7334239691823
 20
-123.6386274690904
 30
0.0
 10
105.7024148033067
 20
-123.669954135749
 30
0.0
 10
105.7024148033067
 20
-123.7085480246284
 30
0.0
 10
105.7024148033067
 20
-123.7471419135077
 30
0.0
 10
105.7334239691823
 20
-123.7788213579442
 30
0.0
 10
105.7720178570866
 20
-123.7788213579442
 30
0.0
 10
105.810576467214
 20
-123.7788213579442
 30
0.0
 10
105.8422911886271
 20
-123.7471419135077
 30
0.0
 10
105.8422911886271
 20
-123.7085480246284
 30
0.0
  0
SPLINE
  5
44
330
1F
100
AcDbEntity
  8
_U+30EC_U+30A4_U+30E4_U+30FC 1
 62
   179
420
  2234388
370
     9
100
AcDbSpline
210
0.0
220
0.0
230
1.0
 70
    11
 71
     3
 72
    17
 73
    13
 74
     0
 42
0.0000000001
 43
0.0000000001
 12
1.0
 22
0.0
 32
0.0
 13
1.0
 23
0.0
 33
0.0
 40
0.0
 40
0.0
 40
0.0
 40
0.0
 40
1.0
 40
1.0
 40
1.0
 40
2.0
 40
2.0
 40
2.0
 40
3.0
 40
3.0
 40
3.0
 40
4.0
 40
4.0
 40
4.0
 40
4.0
 10
105.8422911886271
 20
-133.8588466332019
 30
0.0
 10
105.8422911886271
 20
-133.8198999665451
 30
0.0
 10
105.810576467214
 20
-133.7885732998865
 30
0.0
 10
105.7720178570866
 20
-133.7885732998865
 30
0.0
 10
105.7334239691823
 20
-133.7885732998865
 30
0.0
 10
105.7024148033067
 20
-133.8198999665451
 30
0.0
 10
105.7024148033067
 20
-133.8588466332019
 30
0.0
 10
105.7024148033067
 20
-133.897440522081
 30
0.0
 10
105.7334239691823
 20
-133.9287671887403
 30
0.0
 10
105.7720178570866
 20
-133.9287671887403
 30
0.0
 10
105.810576467214
 20
-133.9287671887403
 30
0.0
 10
105.8422911886271
 20
-133.897440522081
 30
0.0
 10
105.8422911886271
 20
-133.8588466332019
 30
0.0
  0
SPLINE
  5
45
330
1F
100
AcDbEntity
  8
_U+30EC_U+30A4_U+30E4_U+30FC 1
 62
   179
420
  2234388
370
     9
100
AcDbSpline
210
0.0
220
0.0
230
1.0
 70
    11
 71
     3
 72
    17
 73
    13
 74
     0
 42
0.0000000001
 43
0.0000000001
 12
1.0
 22
0.0
 32
0.0
 13
1.0
 23
0.0
 33
0.0
 40
0.0
 40
0.0
 40
0.0
 40
0.0
 40
1.0
 40
1.0
 40
1.0
 40
2.0
 40
2.0
 40
2.0
 40
3.0
 40
3.0
 40
3.0
 40
4.0
 40
4.0
 40
4.0
 40
4.0
 10
105.8422911886271
 20
-135.6085891327644
 30
0.0
 10
105.8422911886271
 20
-135.5700305216629
 30
0.0
 10
105.810576467214
 20
-135.5386685772268
 30
0.0
 10
105.7720178570866
 20
-135.5386685772268
 30
0.0
 10
105.7334239691823
 20
-135.5386685772268
 30
0.0
 10
105.7024148033067
 20
-135.5700305216629
 30
0.0
 10
105.7024148033067
 20
-135.6085891327644
 30
0.0
 10
105.7024148033067
 20
-135.6475357994212
 30
0.0
 10
105.7334239691823
 20
-135.678897743858
 30
0.0
 10
105.7720178570866
 20
-135.678897743858
 30
0.0
 10
105.810576467214
 20
-135.678897743858
 30
0.0
 10
105.8422911886271
 20
-135.6475357994212
 30
0.0
 10
105.8422911886271
 20
-135.6085891327644
 30
0.0
  0
SPLINE
  5
46
330
1F
100
AcDbEntity
  8
_U+30EC_U+30A4_U+30E4_U+30FC 1
 62
   179
420
  2234388
370
     9
100
AcDbSpline
210
0.0
220
0.0
230
1.0
 70
    11
 71
     3
 72
    17
 73
    13
 74
     0
 42
0.0000000001
 43
0.0000000001
 12
1.0
 22
0.0
 32
0.0
 13
1.0
 23
0.0
 33
0.0
 40
0.0
 40
0.0
 40
0.0
 40
0.0
 40
1.0
 40
1.0
 40
1.0
 40
2.0
 40
2.0
 40
2.0
 40
3.0
 40
3.0
 40
3.0
 40
4.0
 40
4.0
 40
4.0
 40
4.0
 10
96.04237171642163
 20
-138.4087627431755
 30
0.0
 10
96.04237171642163
 20
-138.370204132074
 30
0.0
 10
96.01069227278539
 20
-138.3388421876378
 30
0.0
 10
95.97209838488112
 20
-138.3388421876378
 30
0.0
 10
95.93350449697684
 20
-138.3388421876378
 30
0.0
 10
95.90182505334062
 20
-138.370204132074
 30
0.0
 10
95.90182505334062
 20
-138.4087627431755
 30
0.0
 10
95.90182505334062
 20
-138.4473566320545
 30
0.0
 10
95.93350449697684
 20
-138.4787185764914
 30
0.0
 10
95.97209838488112
 20
-138.4787185764914
 30
0.0
 10
96.01069227278539
 20
-138.4787185764914
 30
0.0
 10
96.04237171642163
 20
-138.4473566320545
 30
0.0
 10
96.04237171642163
 20
-138.4087627431755
 30
0.0
  0
SPLINE
  5
47
330
1F
100
AcDbEntity
  8
_U+30EC_U+30A4_U+30E4_U+30FC 1
 62
   179
420
  2234388
370
     9
100
AcDbSpline
210
0.0
220
0.0
230
1.0
 70
    11
 71
     3
 72
    17
 73
    13
 74
     0
 42
0.0000000001
 43
0.0000000001
 12
1.0
 22
0.0
 32
0.0
 13
1.0
 23
0.0
 33
0.0
 40
0.0
 40
0.0
 40
0.0
 40
0.0
 40
1.0
 40
1.0
 40
1.0
 40
2.0
 40
2.0
 40
2.0
 40
3.0
 40
3.0
 40
3.0
 40
4.0
 40
4.0
 40
4.0
 40
4.0
 10
82.04217429581865
 20
-138.4087627431755
 30
0.0
 10
82.04217429581865
 20
-138.370204132074
 30
0.0
 10
82.01049485218242
 20
-138.3388421876378
 30
0.0
 10
81.97190096427813
 20
-138.3388421876378
 30
0.0
 10
81.93334442396126
 20
-138.3388421876378
 30
0.0
 10
81.90233318827518
 20
-138.370204132074
 30
0.0
 10
81.90233318827518
 20
-138.4087627431755
 30
0.0
 10
81.90233318827518
 20
-138.4473566320545
 30
0.0
 10
81.93334442396126
 20
-138.4787185764914
 30
0.0
 10
81.97190096427813
 20
-138.4787185764914
 30
0.0
 10
82.01049485218242
 20
-138.4787185764914
 30
0.0
 10
82.04217429581865
 20
-138.4473566320545
 30
0.0
 10
82.04217429581865
 20
-138.4087627431755
 30
0.0
  0
POLYLINE
  5
48
330
1F
100
AcDbEntity
  8
_U+30EC_U+30A4_U+30E4_U+30FC 1
 62
   179
420
  2234388
370
     9
100
AcDb2dPolyline
 66
     1
 10
0.0
 20
0.0
 30
0.0
  0
VERTEX
  5
49
330
48
100
AcDbEntity
  8
_U+30EC_U+30A4_U+30E4_U+30FC 1
 62
   179
420
  2234388
370
     9
100
AcDbVertex
100
AcDb2dVertex
 10
81.97190096427813
 20
-138.4087627431755
 30
0.0
  0
VERTEX
  5
4A
330
48
100
AcDbEntity
  8
_U+30EC_U+30A4_U+30E4_U+30FC 1
 62
   179
420
  2234388
370
     9
100
AcDbVertex
100
AcDb2dVertex
 10
95.97209838488112
 20
-138.4087627431755
 30
0.0
  0
SEQEND
  5
4B
330
48
100
AcDbEntity
  8
_U+30EC_U+30A4_U+30E4_U+30FC 1
 62
   179
420
  2234388
370
     9
  0
POLYLINE
  5
4C
330
1F
100
AcDbEntity
  8
_U+30EC_U+30A4_U+30E4_U+30FC 1
 62
   179
420
  2234388
370
     9
100
AcDb2dPolyline
 66
     1
 10
0.0
 20
0.0
 30
0.0
  0
VERTEX
  5
4D
330
4C
100
AcDbEntity
  8
_U+30EC_U+30A4_U+30E4_U+30FC 1
 62
   179
420
  2234388
370
     9
100
AcDbVertex
100
AcDb2dVertex
 10
81.97190096427813
 20
-136.6869249658285
 30
0.0
  0
VERTEX
  5
4E
330
4C
100
AcDbEntity
  8
_U+30EC_U+30A4_U+30E4_U+30FC 1
 62
   179
420
  2234388
370
     9
100
AcDbVertex
100
AcDb2dVertex
 10
81.97190096427813
 20
-139.1088149652225
 30
0.0
  0
SEQEND
  5
4F
330
4C
100
AcDbEntity
  8
_U+30EC_U+30A4_U+30E4_U+30FC 1
 62
   179
420
  2234388
370
     9
  0
POLYLINE
  5
50
330
1F
100
AcDbEntity
  8
_U+30EC_U+30A4_U+30E4_U+30FC 1
 62
   179
420
  2234388
370
     9
100
AcDb2dPolyline
 66
     1
 10
0.0
 20
0.0
 30
0.0
  0
VERTEX
  5
51
330
50
100
AcDbEntity
  8
_U+30EC_U+30A4_U+30E4_U+30FC 1
 62
   179
420
  2234388
370
     9
100
AcDbVertex
100
AcDb2dVertex
 10
95.97209838488112
 20
-136.6869249658285
 30
0.0
  0
VERTEX
  5
52
330
50
100
AcDbEntity
  8
_U+30EC_U+30A4_U+30E4_U+30FC 1
 62
   179
420
  2234388
370
     9
100
AcDbVertex
100
AcDb2dVertex
 10
95.97209838488112
 20
-139.1088149652225
 30
0.0
  0
SEQEND
  5
53
330
50
100
AcDbEntity
  8
_U+30EC_U+30A4_U+30E4_U+30FC 1
 62
   179
420
  2234388
370
     9
  0
INSERT
  5
55
330
1F
100
AcDbEntity
  8
_U+30EC_U+30A4_U+30E4_U+30FC 1
100
AcDbBlockReference
  2
block 2
 10
0.0
 20
0.0
 30
0.0
  0
POLYLINE
  5
5D
330
1F
100
AcDbEntity
  8
_U+30EC_U+30A4_U+30E4_U+30FC 1
 62
   179
420
  2234388
370
     9
100
AcDb2dPolyline
 66
     1
 10
0.0
 20
0.0
 30
0.0
  0
VERTEX
  5
5E
330
5D
100
AcDbEntity
  8
_U+30EC_U+30A4_U+30E4_U+30FC 1
 62
   179
420
  2234388
370
     9
100
AcDbVertex
100
AcDb2dVertex
 10
74.97198053681265
 20
-120.2090277477255
 30
0.0
  0
VERTEX
  5
5F
330
5D
100
AcDbEntity
  8
_U+30EC_U+30A4_U+30E4_U+30FC 1
 62
   179
420
  2234388
370
     9
100
AcDbVertex
100
AcDb2dVertex
 10
102.9718443174138
 20
-120.2090277477255
 30
0.0
  0
SEQEND
  5
60
330
5D
100
AcDbEntity
  8
_U+30EC_U+30A4_U+30E4_U+30FC 1
 62
   179
420
  2234388
370
     9
  0
POLYLINE
  5
61
330
1F
100
AcDbEntity
  8
_U+30EC_U+30A4_U+30E4_U+30FC 1
 62
   179
420
  2234388
370
     9
100
AcDb2dPolyline
 66
     1
 10
0.0
 20
0.0
 30
0.0
  0
VERTEX
  5
62
330
61
100
AcDbEntity
  8
_U+30EC_U+30A4_U+30E4_U+30FC 1
 62
   179
420
  2234388
370
     9
100
AcDbVertex
100
AcDb2dVertex
 10
74.97198053681265
 20
-121.5808746918272
 30
0.0
  0
VERTEX
  5
63
330
61
100
AcDbEntity
  8
_U+30EC_U+30A4_U+30E4_U+30FC 1
 62
   179
420
  2234388
370
     9
100
AcDbVertex
100
AcDb2dVertex
 10
74.97198053681265
 20
-119.5089755256782
 30
0.0
  0
SEQEND
  5
64
330
61
100
AcDbEntity
  8
_U+30EC_U+30A4_U+30E4_U+30FC 1
 62
   179
420
  2234388
370
     9
  0
POLYLINE
  5
65
330
1F
100
AcDbEntity
  8
_U+30EC_U+30A4_U+30E4_U+30FC 1
 62
   179
420
  2234388
370
     9
100
AcDb2dPolyline
 66
     1
 10
0.0
 20
0.0
 30
0.0
  0
VERTEX
  5
66
330
65
100
AcDbEntity
  8
_U+30EC_U+30A4_U+30E4_U+30FC 1
 62
   179
420
  2234388
370
     9
100
AcDbVertex
100
AcDb2dVertex
 10
102.9718443174138
 20
-121.5808746918272
 30
0.0
  0
VERTEX
  5
67
330
65
100
AcDbEntity
  8
_U+30EC_U+30A4_U+30E4_U+30FC 1
 62
   179
420
  2234388
370
     9
100
AcDbVertex
100
AcDb2dVertex
 10
102.9718443174138
 20
-119.5089755256782
 30
0.0
  0
SEQEND
  5
68
330
65
100
AcDbEntity
  8
_U+30EC_U+30A4_U+30E4_U+30FC 1
 62
   179
420
  2234388
370
     9
  0
INSERT
  5
6A
330
1F
100
AcDbEntity
  8
_U+30EC_U+30A4_U+30E4_U+30FC 1
100
AcDbBlockReference
  2
block 3
 10
0.0
 20
0.0
 30
0.0
  0
POLYLINE
  5
85
330
1F
100
AcDbEntity
  8
_U+30EC_U+30A4_U+30E4_U+30FC 1
 62
   179
420
  2234388
370
     9
100
AcDb2dPolyline
 66
     1
 10
0.0
 20
0.0
 30
0.0
  0
VERTEX
  5
86
330
85
100
AcDbEntity
  8
_U+30EC_U+30A4_U+30E4_U+30FC 1
 62
   179
420
  2234388
370
     9
100
AcDbVertex
100
AcDb2dVertex
 10
105.7720178570866
 20
-123.7085480246284
 30
0.0
  0
VERTEX
  5
87
330
85
100
AcDbEntity
  8
_U+30EC_U+30A4_U+30E4_U+30FC 1
 62
   179
420
  2234388
370
     9
100
AcDbVertex
100
AcDb2dVertex
 10
105.7720178570866
 20
-133.8588466332019
 30
0.0
  0
SEQEND
  5
88
330
85
100
AcDbEntity
  8
_U+30EC_U+30A4_U+30E4_U+30FC 1
 62
   179
420
  2234388
370
     9
  0
POLYLINE
  5
89
330
1F
100
AcDbEntity
  8
_U+30EC_U+30A4_U+30E4_U+30FC 1
 62
   179
420
  2234388
370
     9
100
AcDb2dPolyline
 66
     1
 10
0.0
 20
0.0
 30
0.0
  0
VERTEX
  5
8A
330
89
100
AcDbEntity
  8
_U+30EC_U+30A4_U+30E4_U+30FC 1
 62
   179
420
  2234388
370
     9
100
AcDbVertex
100
AcDb2dVertex
 10
104.4001709476409
 20
-123.7085480246284
 30
0.0
  0
VERTEX
  5
8B
330
89
100
AcDbEntity
  8
_U+30EC_U+30A4_U+30E4_U+30FC 1
 62
   179
420
  2234388
370
     9
100
AcDbVertex
100
AcDb2dVertex
 10
106.4720347836721
 20
-123.7085480246284
 30
0.0
  0
SEQEND
  5
8C
330
89
100
AcDbEntity
  8
_U+30EC_U+30A4_U+30E4_U+30FC 1
 62
   179
420
  2234388
370
     9
  0
POLYLINE
  5
8D
330
1F
100
AcDbEntity
  8
_U+30EC_U+30A4_U+30E4_U+30FC 1
 62
   179
420
  2234388
370
     9
100
AcDb2dPolyline
 66
     1
 10
0.0
 20
0.0
 30
0.0
  0
VERTEX
  5
8E
330
8D
100
AcDbEntity
  8
_U+30EC_U+30A4_U+30E4_U+30FC 1
 62
   179
420
  2234388
370
     9
100
AcDbVertex
100
AcDb2dVertex
 10
97.40007223733936
 20
-133.8588466332019
 30
0.0
  0
VERTEX
  5
8F
330
8D
100
AcDbEntity
  8
_U+30EC_U+30A4_U+30E4_U+30FC 1
 62
   179
420
  2234388
370
     9
100
AcDbVertex
100
AcDb2dVertex
 10
106.4720347836721
 20
-133.8588466332019
 30
0.0
  0
SEQEND
  5
90
330
8D
100
AcDbEntity
  8
_U+30EC_U+30A4_U+30E4_U+30FC 1
 62
   179
420
  2234388
370
     9
  0
INSERT
  5
92
330
1F
100
AcDbEntity
  8
_U+30EC_U+30A4_U+30E4_U+30FC 1
100
AcDbBlockReference
  2
block 4
 10
0.0
 20
0.0
 30
0.0
  0
POLYLINE
  5
B6
330
1F
100
AcDbEntity
  8
_U+30EC_U+30A4_U+30E4_U+30FC 1
 62
   179
420
  2234388
370
     9
100
AcDb2dPolyline
 66
     1
 10
0.0
 20
0.0
 30
0.0
  0
VERTEX
  5
B7
330
B6
100
AcDbEntity
  8
_U+30EC_U+30A4_U+30E4_U+30FC 1
 62
   179
420
  2234388
370
     9
100
AcDbVertex
100
AcDb2dVertex
 10
105.7720178570866
 20
-135.6085891327644
 30
0.0
  0
VERTEX
  5
B8
330
B6
100
AcDbEntity
  8
_U+30EC_U+30A4_U+30E4_U+30FC 1
 62
   179
420
  2234388
370
     9
100
AcDbVertex
100
AcDb2dVertex
 10
105.7720178570866
 20
-139.2893313540666
 30
0.0
  0
SEQEND
  5
B9
330
B6
100
AcDbEntity
  8
_U+30EC_U+30A4_U+30E4_U+30FC 1
 62
   179
420
  2234388
370
     9
  0
POLYLINE
  5
BA
330
1F
100
AcDbEntity
  8
_U+30EC_U+30A4_U+30E4_U+30FC 1
 62
   179
420
  2234388
370
     9
100
AcDb2dPolyline
 66
     1
 10
0.0
 20
0.0
 30
0.0
  0
VERTEX
  5
BB
330
BA
100
AcDbEntity
  8
_U+30EC_U+30A4_U+30E4_U+30FC 1
 62
   179
420
  2234388
370
     9
100
AcDbVertex
100
AcDb2dVertex
 10
105.7720178570866
 20
-133.8588466332019
 30
0.0
  0
VERTEX
  5
BC
330
BA
100
AcDbEntity
  8
_U+30EC_U+30A4_U+30E4_U+30FC 1
 62
   179
420
  2234388
370
     9
100
AcDbVertex
100
AcDb2dVertex
 10
105.7720178570866
 20
-135.6085891327644
 30
0.0
  0
SEQEND
  5
BD
330
BA
100
AcDbEntity
  8
_U+30EC_U+30A4_U+30E4_U+30FC 1
 62
   179
420
  2234388
370
     9
  0
POLYLINE
  5
BE
330
1F
100
AcDbEntity
  8
_U+30EC_U+30A4_U+30E4_U+30FC 1
 62
   179
420
  2234388
370
     9
100
AcDb2dPolyline
 66
     1
 10
0.0
 20
0.0
 30
0.0
  0
VERTEX
  5
BF
330
BE
100
AcDbEntity
  8
_U+30EC_U+30A4_U+30E4_U+30FC 1
 62
   179
420
  2234388
370
     9
100
AcDbVertex
100
AcDb2dVertex
 10
97.04972863516626
 20
-135.6085891327644
 30
0.0
  0
VERTEX
  5
C0
330
BE
100
AcDbEntity
  8
_U+30EC_U+30A4_U+30E4_U+30FC 1
 62
   179
420
  2234388
370
     9
100
AcDbVertex
100
AcDb2dVertex
 10
106.4720347836721
 20
-135.6085891327644
 30
0.0
  0
SEQEND
  5
C1
330
BE
100
AcDbEntity
  8
_U+30EC_U+30A4_U+30E4_U+30FC 1
 62
   179
420
  2234388
370
     9
  0
INSERT
  5
C3
330
1F
100
AcDbEntity
  8
_U+30EC_U+30A4_U+30E4_U+30FC 1
100
AcDbBlockReference
  2
block 5
 10
0.0
 20
0.0
 30
0.0
  0
SPLINE
  5
D2
330
1F
100
AcDbEntity
  8
_U+30EC_U+30A4_U+30E4_U+30FC 1
 62
     7
420
 16777215
370
    25
100
AcDbSpline
210
0.0
220
0.0
230
1.0
 70
    11
 71
     3
 72
    59
 73
    55
 74
     0
 42
0.0000000001
 43
0.0000000001
 12
1.0
 22
0.0
 32
0.0
 13
1.0
 23
0.0
 33
0.0
 40
0.0
 40
0.0
 40
0.0
 40
0.0
 40
1.0
 40
1.0
 40
1.0
 40
2.0
 40
2.0
 40
2.0
 40
3.0
 40
3.0
 40
3.0
 40
4.0
 40
4.0
 40
4.0
 40
5.0
 40
5.0
 40
5.0
 40
6.0
 40
6.0
 40
6.0
 40
7.0
 40
7.0
 40
7.0
 40
8.0
 40
8.0
 40
8.0
 40
9.0
 40
9.0
 40
9.0
 40
10.0
 40
10.0
 40
10.0
 40
11.0
 40
11.0
 40
11.0
 40
12.0
 40
12.0
 40
12.0
 40
13.0
 40
13.0
 40
13.0
 40
14.0
 40
14.0
 40
14.0
 40
15.0
 40
15.0
 40
15.0
 40
16.0
 40
16.0
 40
16.0
 40
17.0
 40
17.0
 40
17.0
 40
18.0
 40
18.0
 40
18.0
 40
18.0
 10
74.97215503174542
 20
-123.0084958025811
 30
0.0
 10
74.97215503174542
 20
-123.0084958025811
 30
0.0
 10
102.9718443174138
 20
-123.0084958025811
 30
0.0
 10
102.9718443174138
 20
-123.0084958025811
 30
0.0
 10
102.9718443174138
 20
-123.0084958025811
 30
0.0
 10
102.9718443174138
 20
-123.7085480246284
 30
0.0
 10
102.9718443174138
 20
-123.7085480246284
 30
0.0
 10
102.9718443174138
 20
-123.7085480246284
 30
0.0
 10
89.32202577676082
 20
-123.7085480246284
 30
0.0
 10
89.32202577676082
 20
-123.7085480246284
 30
0.0
 10
89.32202577676082
 20
-123.7085480246284
 30
0.0
 10
89.32202577676082
 20
-134.908572188495
 30
0.0
 10
89.32202577676082
 20
-134.908572188495
 30
0.0
 10
89.32202577676082
 20
-134.908572188495
 30
0.0
 10
95.27204618051871
 20
-134.908572188495
 30
0.0
 10
95.27204618051871
 20
-134.908572188495
 30
0.0
 10
95.27204618051871
 20
-134.908572188495
 30
0.0
 10
95.27204618051871
 20
-133.8588466332019
 30
0.0
 10
95.27204618051871
 20
-133.8588466332019
 30
0.0
 10
95.27204618051871
 20
-133.8588466332019
 30
0.0
 10
95.97209838488112
 20
-133.8588466332019
 30
0.0
 10
95.97209838488112
 20
-133.8588466332019
 30
0.0
 10
95.97209838488112
 20
-133.8588466332019
 30
0.0
 10
95.97209838488112
 20
-135.2585982995188
 30
0.0
 10
95.97209838488112
 20
-135.2585982995188
 30
0.0
 10
95.97209838488112
 20
-135.452202743915
 30
0.0
 10
95.8156767222051
 20
-135.6085891327644
 30
0.0
 10
95.62207228269992
 20
-135.6085891327644
 30
0.0
 10
95.62207228269992
 20
-135.6085891327644
 30
0.0
 10
82.32192706645934
 20
-135.6085891327644
 30
0.0
 10
82.32192706645934
 20
-135.6085891327644
 30
0.0
 10
82.12899290471483
 20
-135.6085891327644
 30
0.0
 10
81.97190096427813
 20
-135.452202743915
 30
0.0
 10
81.97190096427813
 20
-135.2585982995188
 30
0.0
 10
81.97190096427813
 20
-135.2585982995188
 30
0.0
 10
81.97190096427813
 20
-133.8588466332019
 30
0.0
 10
81.97190096427813
 20
-133.8588466332019
 30
0.0
 10
81.97190096427813
 20
-133.8588466332019
 30
0.0
 10
82.67195316864054
 20
-133.8588466332019
 30
0.0
 10
82.67195316864054
 20
-133.8588466332019
 30
0.0
 10
82.67195316864054
 20
-133.8588466332019
 30
0.0
 10
82.67195316864054
 20
-134.908572188495
 30
0.0
 10
82.67195316864054
 20
-134.908572188495
 30
0.0
 10
82.67195316864054
 20
-134.908572188495
 30
0.0
 10
88.62197357239843
 20
-134.908572188495
 30
0.0
 10
88.62197357239843
 20
-134.908572188495
 30
0.0
 10
88.62197357239843
 20
-134.908572188495
 30
0.0
 10
88.62197357239843
 20
-123.7085480246284
 30
0.0
 10
88.62197357239843
 20
-123.7085480246284
 30
0.0
 10
88.62197357239843
 20
-123.7085480246284
 30
0.0
 10
74.97215503174542
 20
-123.7085480246284
 30
0.0
 10
74.97215503174542
 20
-123.7085480246284
 30
0.0
 10
74.97215503174542
 20
-123.7085480246284
 30
0.0
 10
74.97215503174542
 20
-123.0084958025811
 30
0.0
 10
74.97215503174542
 20
-123.0084958025811
 30
0.0
  0
HATCH
  5
D3
330
1F
100
AcDbEntity
  8
_U+30EC_U+30A4_U+30E4_U+30FC 1
 62
   253
420
 10066329
100
AcDbHatch
 10
0.0
 20
0.0
 30
0.0
210
0.0
220
0.0
230
1.0
  2
SOLID
 70
     1
 71
     0
 91
        1
 92
        1
 93
        1
 72
     4
 94
        3
 73
     0
 74
     1
 95
       59
 96
       55
 40
0.0
 40
0.0
 40
0.0
 40
0.0
 40
1.0
 40
1.0
 40
1.0
 40
2.0
 40
2.0
 40
2.0
 40
3.0
 40
3.0
 40
3.0
 40
4.0
 40
4.0
 40
4.0
 40
5.0
 40
5.0
 40
5.0
 40
6.0
 40
6.0
 40
6.0
 40
7.0
 40
7.0
 40
7.0
 40
8.0
 40
8.0
 40
8.0
 40
9.0
 40
9.0
 40
9.0
 40
10.0
 40
10.0
 40
10.0
 40
11.0
 40
11.0
 40
11.0
 40
12.0
 40
12.0
 40
12.0
 40
13.0
 40
13.0
 40
13.0
 40
14.0
 40
14.0
 40
14.0
 40
15.0
 40
15.0
 40
15.0
 40
16.0
 40
16.0
 40
16.0
 40
17.0
 40
17.0
 40
17.0
 40
18.0
 40
18.0
 40
18.0
 40
18.0
 10
74.97215503174542
 20
-123.0084958025811
 10
74.97215503174542
 20
-123.0084958025811
 10
102.9718443174138
 20
-123.0084958025811
 10
102.9718443174138
 20
-123.0084958025811
 10
102.9718443174138
 20
-123.0084958025811
 10
102.9718443174138
 20
-123.7085480246284
 10
102.9718443174138
 20
-123.7085480246284
 10
102.9718443174138
 20
-123.7085480246284
 10
89.32202577676082
 20
-123.7085480246284
 10
89.32202577676082
 20
-123.7085480246284
 10
89.32202577676082
 20
-123.7085480246284
 10
89.32202577676082
 20
-134.908572188495
 10
89.32202577676082
 20
-134.908572188495
 10
89.32202577676082
 20
-134.908572188495
 10
95.27204618051871
 20
-134.908572188495
 10
95.27204618051871
 20
-134.908572188495
 10
95.27204618051871
 20
-134.908572188495
 10
95.27204618051871
 20
-133.8588466332019
 10
95.27204618051871
 20
-133.8588466332019
 10
95.27204618051871
 20
-133.8588466332019
 10
95.97209838488112
 20
-133.8588466332019
 10
95.97209838488112
 20
-133.8588466332019
 10
95.97209838488112
 20
-133.8588466332019
 10
95.97209838488112
 20
-135.2585982995188
 10
95.97209838488112
 20
-135.2585982995188
 10
95.97209838488112
 20
-135.452202743915
 10
95.8156767222051
 20
-135.6085891327644
 10
95.62207228269992
 20
-135.6085891327644
 10
95.62207228269992
 20
-135.6085891327644
 10
82.32192706645934
 20
-135.6085891327644
 10
82.32192706645934
 20
-135.6085891327644
 10
82.12899290471483
 20
-135.6085891327644
 10
81.97190096427813
 20
-135.452202743915
 10
81.97190096427813
 20
-135.2585982995188
 10
81.97190096427813
 20
-135.2585982995188
 10
81.97190096427813
 20
-133.8588466332019
 10
81.97190096427813
 20
-133.8588466332019
 10
81.97190096427813
 20
-133.8588466332019
 10
82.67195316864054
 20
-133.8588466332019
 10
82.67195316864054
 20
-133.8588466332019
 10
82.67195316864054
 20
-133.8588466332019
 10
82.67195316864054
 20
-134.908572188495
 10
82.67195316864054
 20
-134.908572188495
 10
82.67195316864054
 20
-134.908572188495
 10
88.62197357239843
 20
-134.908572188495
 10
88.62197357239843
 20
-134.908572188495
 10
88.62197357239843
 20
-134.908572188495
 10
88.62197357239843
 20
-123.7085480246284
 10
88.62197357239843
 20
-123.7085480246284
 10
88.62197357239843
 20
-123.7085480246284
 10
74.97215503174542
 20
-123.7085480246284
 10
74.97215503174542
 20
-123.7085480246284
 10
74.97215503174542
 20
-123.7085480246284
 10
74.97215503174542
 20
-123.0084958025811
 10
74.97215503174542
 20
-123.0084958025811
 97
        0
 97
        0
 75
     2
 76
     1
 98
        0
  0
ENDSEC
  0
SECTION
  2
OBJECTS
  0
DICTIONARY
  5
C
330
0
100
AcDbDictionary
281
     1
  3
ACAD_GROUP
350
D
  3
ACAD_LAYOUT
350
1A
  3
ACAD_MATERIAL
350
3B
  3
ACAD_MLEADERSTYLE
350
D5
  3
ACAD_MLINESTYLE
350
17
  3
ACAD_PLOTSETTINGS
350
19
  3
ACAD_PLOTSTYLENAME
350
E
  3
ACAD_TABLESTYLE
350
D4
  3
ACAD_VISUALSTYLE
350
2A
  0
SUN
  5
3F
330
29
100
AcDbSun
 90
        1
290
     0
 63
     7
421
 16777215
 40
1.0
291
     1
 91
  2455826
 92
 54000000
292
     0
 70
     2
 71
   256
280
     1
  0
DICTIONARY
  5
D
102
{ACAD_REACTORS
330
C
102
}
330
C
100
AcDbDictionary
281
     1
  0
DICTIONARY
  5
1A
102
{ACAD_REACTORS
330
C
102
}
330
C
100
AcDbDictionary
281
     1
  3
Layout1
350
1E
  3
Layout2
350
26
  3
Model
350
22
  0
DICTIONARY
  5
3B
102
{ACAD_REACTORS
330
C
102
}
330
C
100
AcDbDictionary
281
     1
  3
ByBlock
350
3D
  3
ByLayer
350
3C
  3
Global
350
3E
  0
DICTIONARY
  5
D5
102
{ACAD_REACTORS
330
C
102
}
330
C
100
AcDbDictionary
281
     1
  0
DICTIONARY
  5
17
102
{ACAD_REACTORS
330
C
102
}
330
C
100
AcDbDictionary
281
     1
  3
Standard
350
18
  0
DICTIONARY
  5
19
102
{ACAD_REACTORS
330
C
102
}
330
C
100
AcDbDictionary
281
     1
  0
ACDBDICTIONARYWDFLT
  5
E
102
{ACAD_REACTORS
330
C
102
}
330
C
100
AcDbDictionary
281
     1
  3
Normal
350
F
100
AcDbDictionaryWithDefault
340
F
  0
DICTIONARY
  5
D4
102
{ACAD_REACTORS
330
C
102
}
330
C
100
AcDbDictionary
281
     1
  0
DICTIONARY
  5
2A
102
{ACAD_REACTORS
330
C
102
}
330
C
100
AcDbDictionary
281
     1
  3
2dWireframe
350
2F
  3
3D Hidden
350
31
  3
3dWireframe
350
30
  3
Basic
350
32
  3
Brighten
350
36
  3
ColorChange
350
3A
  3
Conceptual
350
34
  3
Dim
350
35
  3
Facepattern
350
39
  3
Flat
350
2B
  3
FlatWithEdges
350
2C
  3
Gouraud
350
2D
  3
GouraudWithEdges
350
2E
  3
Linepattern
350
38
  3
Realistic
350
33
  3
Thicken
350
37
  0
LAYOUT
  5
1E
102
{ACAD_REACTORS
330
1A
102
}
330
1A
100
AcDbPlotSettings
  1

  2
none_device
  4

  6

 40
0.0
 41
0.0
 42
0.0
 43
0.0
 44
0.0
 45
0.0
 46
0.0
 47
0.0
 48
0.0
 49
0.0
140
0.0
141
0.0
142
1.0
143
1.0
 70
   688
 72
     0
 73
     0
 74
     5
  7

 75
    16
 76
     0
 77
     2
 78
   300
147
1.0
148
0.0
149
0.0
100
AcDbLayout
  1
Layout1
 70
     1
 71
     1
 10
0.0
 20
0.0
 11
12.0
 21
9.0
 12
0.0
 22
0.0
 32
0.0
 14
1.000000000000000E+20
 24
1.000000000000000E+20
 34
1.000000000000000E+20
 15
-1.000000000000000E+20
 25
-1.000000000000000E+20
 35
-1.000000000000000E+20
146
0.0
 13
0.0
 23
0.0
 33
0.0
 16
1.0
 26
0.0
 36
0.0
 17
0.0
 27
1.0
 37
0.0
 76
     0
330
1B
  0
LAYOUT
  5
26
102
{ACAD_REACTORS
330
1A
102
}
330
1A
100
AcDbPlotSettings
  1

  2
none_device
  4

  6

 40
0.0
 41
0.0
 42
0.0
 43
0.0
 44
0.0
 45
0.0
 46
0.0
 47
0.0
 48
0.0
 49
0.0
140
0.0
141
0.0
142
1.0
143
1.0
 70
   688
 72
     0
 73
     0
 74
     5
  7

 75
    16
 76
     0
 77
     2
 78
   300
147
1.0
148
0.0
149
0.0
100
AcDbLayout
  1
Layout2
 70
     1
 71
     2
 10
0.0
 20
0.0
 11
0.0
 21
0.0
 12
0.0
 22
0.0
 32
0.0
 14
0.0
 24
0.0
 34
0.0
 15
0.0
 25
0.0
 35
0.0
146
0.0
 13
0.0
 23
0.0
 33
0.0
 16
1.0
 26
0.0
 36
0.0
 17
0.0
 27
1.0
 37
0.0
 76
     0
330
23
  0
LAYOUT
  5
22
102
{ACAD_REACTORS
330
1A
102
}
330
1A
100
AcDbPlotSettings
  1

  2
none_device
  4

  6

 40
0.0
 41
0.0
 42
0.0
 43
0.0
 44
0.0
 45
0.0
 46
0.0
 47
0.0
 48
0.0
 49
0.0
140
0.0
141
0.0
142
1.0
143
1.0
 70
  1712
 72
     0
 73
     0
 74
     0
  7

 75
     0
 76
     0
 77
     2
 78
   300
147
1.0
148
0.0
149
0.0
100
AcDbLayout
  1
Model
 70
     1
 71
     0
 10
0.0
 20
0.0
 11
12.0
 21
9.0
 12
0.0
 22
0.0
 32
0.0
 14
1.000000000000000E+20
 24
1.000000000000000E+20
 34
1.000000000000000E+20
 15
-1.000000000000000E+20
 25
-1.000000000000000E+20
 35
-1.000000000000000E+20
146
0.0
 13
0.0
 23
0.0
 33
0.0
 16
1.0
 26
0.0
 36
0.0
 17
0.0
 27
1.0
 37
0.0
 76
     0
330
1F
331
29
  0
MATERIAL
  5
3D
102
{ACAD_REACTORS
330
3B
102
}
330
3B
100
AcDbMaterial
  1
ByBlock
 72
     1
 94
      127
  0
MATERIAL
  5
3C
102
{ACAD_REACTORS
330
3B
102
}
330
3B
100
AcDbMaterial
  1
ByLayer
 72
     1
 94
      127
  0
MATERIAL
  5
3E
102
{ACAD_REACTORS
330
3B
102
}
330
3B
100
AcDbMaterial
  1
Global
 72
     1
 94
      127
  0
MLINESTYLE
  5
18
102
{ACAD_REACTORS
330
17
102
}
330
17
100
AcDbMlineStyle
  2
Standard
 70
     0
  3

 62
   256
 51
90.0
 52
90.0
 71
     2
 49
0.5
 62
   256
  6
BYLAYER
 49
-0.5
 62
   256
  6
BYLAYER
  0
ACDBPLACEHOLDER
  5
F
102
{ACAD_REACTORS
330
E
102
}
330
E
  0
VISUALSTYLE
  5
2F
102
{ACAD_REACTORS
330
2A
102
}
330
2A
100
AcDbVisualStyle
  2
2dWireframe
 70
     4
177
     2
291
     0
 71
     0
176
     1
 72
     2
176
     1
 73
     0
176
     1
 90
        0
176
     1
 40
-0.6
176
     1
 41
-30.0
176
     1
 62
     5
 63
     7
421
 16777215
176
     1
 74
     1
176
     1
 91
        4
176
     1
 64
     7
176
     1
 65
   257
176
     1
 75
     1
176
     1
175
     1
176
     1
 42
1.0
176
     1
 92
        0
176
     1
 66
   257
176
     1
 43
1.0
176
     1
 76
     1
176
     1
 77
     6
176
     1
 78
     2
176
     1
 67
     7
176
     1
 79
     5
176
     1
170
     0
176
     1
171
     0
176
     1
290
     0
176
     1
 93
        1
176
     1
 44
0.0
176
     1
173
     0
176
     1
  0
VISUALSTYLE
  5
31
102
{ACAD_REACTORS
330
2A
102
}
330
2A
100
AcDbVisualStyle
  2
3D Hidden
 70
     6
177
     2
291
     0
 71
     1
176
     1
 72
     2
176
     1
 73
     2
176
     1
 90
        0
176
     1
 40
-0.6
176
     1
 41
-30.0
176
     1
 62
     5
 63
     7
421
 16777215
176
     1
 74
     2
176
     1
 91
        2
176
     1
 64
     7
176
     1
 65
   257
176
     1
 75
     2
176
     1
175
     1
176
     1
 42
40.0
176
     1
 92
        0
176
     1
 66
   257
176
     1
 43
1.0
176
     1
 76
     1
176
     1
 77
     6
176
     1
 78
     2
176
     1
 67
     7
176
     1
 79
     3
176
     1
170
     0
176
     1
171
     0
176
     1
290
     0
176
     1
 93
        1
176
     1
 44
0.0
176
     1
173
     0
176
     1
  0
VISUALSTYLE
  5
30
102
{ACAD_REACTORS
330
2A
102
}
330
2A
100
AcDbVisualStyle
  2
3dWireframe
 70
     5
177
     2
291
     0
 71
     0
176
     1
 72
     2
176
     1
 73
     0
176
     1
 90
        0
176
     1
 40
-0.6
176
     1
 41
-30.0
176
     1
 62
     5
 63
     7
421
 16777215
176
     1
 74
     1
176
     1
 91
        4
176
     1
 64
     7
176
     1
 65
   257
176
     1
 75
     1
176
     1
175
     1
176
     1
 42
1.0
176
     1
 92
        0
176
     1
 66
   257
176
     1
 43
1.0
176
     1
 76
     1
176
     1
 77
     6
176
     1
 78
     2
176
     1
 67
     7
176
     1
 79
     5
176
     1
170
     0
176
     1
171
     0
176
     1
290
     0
176
     1
 93
        1
176
     1
 44
0.0
176
     1
173
     0
176
     1
  0
VISUALSTYLE
  5
32
102
{ACAD_REACTORS
330
2A
102
}
330
2A
100
AcDbVisualStyle
  2
Basic
 70
     7
177
     2
291
     1
 71
     1
176
     1
 72
     0
176
     1
 73
     1
176
     1
 90
        0
176
     1
 40
-0.6
176
     1
 41
-30.0
176
     1
 62
     5
 63
     7
421
 16777215
176
     1
 74
     0
176
     1
 91
        4
176
     1
 64
     7
176
     1
 65
   257
176
     1
 75
     1
176
     1
175
     1
176
     1
 42
1.0
176
     1
 92
        8
176
     1
 66
     7
176
     1
 43
1.0
176
     1
 76
     1
176
     1
 77
     6
176
     1
 78
     2
176
     1
 67
     7
176
     1
 79
     5
176
     1
170
     0
176
     1
171
     0
176
     1
290
     0
176
     1
 93
        1
176
     1
 44
0.0
176
     1
173
     0
176
     1
  0
VISUALSTYLE
  5
36
102
{ACAD_REACTORS
330
2A
102
}
330
2A
100
AcDbVisualStyle
  2
Brighten
 70
    12
177
     2
291
     1
 71
     2
176
     1
 72
     2
176
     1
 73
     0
176
     1
 90
        0
176
     1
 40
-0.6
176
     1
 41
-30.0
176
     1
 62
     5
 63
     7
421
 16777215
176
     1
 74
     1
176
     1
 91
        4
176
     1
 64
     7
176
     1
 65
   257
176
     1
 75
     1
176
     1
175
     1
176
     1
 42
1.0
176
     1
 92
        8
176
     1
 66
     7
176
     1
 43
1.0
176
     1
 76
     1
176
     1
 77
     6
176
     1
 78
     2
176
     1
 67
     7
176
     1
 79
     5
176
     1
170
     0
176
     1
171
     0
176
     1
290
     0
176
     1
 93
        1
176
     1
 44
50.0
176
     1
173
     0
176
     1
  0
VISUALSTYLE
  5
3A
102
{ACAD_REACTORS
330
2A
102
}
330
2A
100
AcDbVisualStyle
  2
ColorChange
 70
    16
177
     2
291
     1
 71
     2
176
     1
 72
     2
176
     1
 73
     3
176
     1
 90
        0
176
     1
 40
-0.6
176
     1
 41
-30.0
176
     1
 62
     5
 63
     8
421
  8421504
176
     1
 74
     1
176
     1
 91
        4
176
     1
 64
     7
176
     1
 65
   257
176
     1
 75
     1
176
     1
175
     1
176
     1
 42
1.0
176
     1
 92
        8
176
     1
 66
     8
424
  8421504
176
     1
 43
1.0
176
     1
 76
     1
176
     1
 77
     6
176
     1
 78
     2
176
     1
 67
     7
176
     1
 79
     5
176
     1
170
     0
176
     1
171
     0
176
     1
290
     0
176
     1
 93
        1
176
     1
 44
0.0
176
     1
173
     0
176
     1
  0
VISUALSTYLE
  5
34
102
{ACAD_REACTORS
330
2A
102
}
330
2A
100
AcDbVisualStyle
  2
Conceptual
 70
     9
177
     2
291
     0
 71
     3
176
     1
 72
     2
176
     1
 73
     0
176
     1
 90
        0
176
     1
 40
-0.6
176
     1
 41
-30.0
176
     1
 62
     5
 63
     7
421
 16777215
176
     1
 74
     2
176
     1
 91
        2
176
     1
 64
     7
176
     1
 65
   257
176
     1
 75
     1
176
     1
175
     1
176
     1
 42
40.0
176
     1
 92
        8
176
     1
 66
     7
176
     1
 43
1.0
176
     1
 76
     1
176
     1
 77
     6
176
     1
 78
     2
176
     1
 67
     7
176
     1
 79
     3
176
     1
170
     0
176
     1
171
     0
176
     1
290
     0
176
     1
 93
        1
176
     1
 44
0.0
176
     1
173
     0
176
     1
  0
VISUALSTYLE
  5
35
102
{ACAD_REACTORS
330
2A
102
}
330
2A
100
AcDbVisualStyle
  2
Dim
 70
    11
177
     2
291
     1
 71
     2
176
     1
 72
     2
176
     1
 73
     0
176
     1
 90
        0
176
     1
 40
-0.6
176
     1
 41
-30.0
176
     1
 62
     5
 63
     7
421
 16777215
176
     1
 74
     1
176
     1
 91
        4
176
     1
 64
     7
176
     1
 65
   257
176
     1
 75
     1
176
     1
175
     1
176
     1
 42
1.0
176
     1
 92
        8
176
     1
 66
     7
176
     1
 43
1.0
176
     1
 76
     1
176
     1
 77
     6
176
     1
 78
     2
176
     1
 67
     7
176
     1
 79
     5
176
     1
170
     0
176
     1
171
     0
176
     1
290
     0
176
     1
 93
        1
176
     1
 44
-50.0
176
     1
173
     0
176
     1
  0
VISUALSTYLE
  5
39
102
{ACAD_REACTORS
330
2A
102
}
330
2A
100
AcDbVisualStyle
  2
Facepattern
 70
    15
177
     2
291
     1
 71
     2
176
     1
 72
     2
176
     1
 73
     0
176
     1
 90
        0
176
     1
 40
-0.6
176
     1
 41
-30.0
176
     1
 62
     5
 63
     7
421
 16777215
176
     1
 74
     1
176
     1
 91
        4
176
     1
 64
     7
176
     1
 65
   257
176
     1
 75
     1
176
     1
175
     1
176
     1
 42
1.0
176
     1
 92
        8
176
     1
 66
     7
176
     1
 43
1.0
176
     1
 76
     1
176
     1
 77
     6
176
     1
 78
     2
176
     1
 67
     7
176
     1
 79
     5
176
     1
170
     0
176
     1
171
     0
176
     1
290
     0
176
     1
 93
        1
176
     1
 44
0.0
176
     1
173
     0
176
     1
  0
VISUALSTYLE
  5
2B
102
{ACAD_REACTORS
330
2A
102
}
330
2A
100
AcDbVisualStyle
  2
Flat
 70
     0
177
     2
291
     1
 71
     2
176
     1
 72
     1
176
     1
 73
     1
176
     1
 90
        2
176
     1
 40
-0.6
176
     1
 41
30.0
176
     1
 62
     5
 63
     7
421
 16777215
176
     1
 74
     0
176
     1
 91
        4
176
     1
 64
     7
176
     1
 65
   257
176
     1
 75
     1
176
     1
175
     1
176
     1
 42
1.0
176
     1
 92
        8
176
     1
 66
     7
176
     1
 43
1.0
176
     1
 76
     1
176
     1
 77
     6
176
     1
 78
     2
176
     1
 67
     7
176
     1
 79
     5
176
     1
170
     0
176
     1
171
     0
176
     1
290
     0
176
     1
 93
       13
176
     1
 44
0.0
176
     1
173
     0
176
     1
  0
VISUALSTYLE
  5
2C
102
{ACAD_REACTORS
330
2A
102
}
330
2A
100
AcDbVisualStyle
  2
FlatWithEdges
 70
     1
177
     2
291
     1
 71
     2
176
     1
 72
     1
176
     1
 73
     1
176
     1
 90
        2
176
     1
 40
-0.6
176
     1
 41
30.0
176
     1
 62
     5
 63
     7
421
 16777215
176
     1
 74
     1
176
     1
 91
        4
176
     1
 64
     7
176
     1
 65
   257
176
     1
 75
     1
176
     1
175
     1
176
     1
 42
1.0
176
     1
 92
        0
176
     1
 66
   257
176
     1
 43
1.0
176
     1
 76
     1
176
     1
 77
     6
176
     1
 78
     2
176
     1
 67
     7
176
     1
 79
     5
176
     1
170
     0
176
     1
171
     0
176
     1
290
     0
176
     1
 93
       13
176
     1
 44
0.0
176
     1
173
     0
176
     1
  0
VISUALSTYLE
  5
2D
102
{ACAD_REACTORS
330
2A
102
}
330
2A
100
AcDbVisualStyle
  2
Gouraud
 70
     2
177
     2
291
     1
 71
     2
176
     1
 72
     2
176
     1
 73
     1
176
     1
 90
        2
176
     1
 40
-0.6
176
     1
 41
30.0
176
     1
 62
     5
 63
     7
421
 16777215
176
     1
 74
     0
176
     1
 91
        4
176
     1
 64
     7
176
     1
 65
   257
176
     1
 75
     1
176
     1
175
     1
176
     1
 42
1.0
176
     1
 92
        0
176
     1
 66
     7
176
     1
 43
1.0
176
     1
 76
     1
176
     1
 77
     6
176
     1
 78
     2
176
     1
 67
     7
176
     1
 79
     5
176
     1
170
     0
176
     1
171
     0
176
     1
290
     0
176
     1
 93
       13
176
     1
 44
0.0
176
     1
173
     0
176
     1
  0
VISUALSTYLE
  5
2E
102
{ACAD_REACTORS
330
2A
102
}
330
2A
100
AcDbVisualStyle
  2
GouraudWithEdges
 70
     3
177
     2
291
     1
 71
     2
176
     1
 72
     2
176
     1
 73
     1
176
     1
 90
        2
176
     1
 40
-0.6
176
     1
 41
30.0
176
     1
 62
     5
 63
     7
421
 16777215
176
     1
 74
     1
176
     1
 91
        4
176
     1
 64
     7
176
     1
 65
   257
176
     1
 75
     1
176
     1
175
     1
176
     1
 42
1.0
176
     1
 92
        0
176
     1
 66
   257
176
     1
 43
1.0
176
     1
 76
     1
176
     1
 77
     6
176
     1
 78
     2
176
     1
 67
     7
176
     1
 79
     5
176
     1
170
     0
176
     1
171
     0
176
     1
290
     0
176
     1
 93
       13
176
     1
 44
0.0
176
     1
173
     0
176
     1
  0
VISUALSTYLE
  5
38
102
{ACAD_REACTORS
330
2A
102
}
330
2A
100
AcDbVisualStyle
  2
Linepattern
 70
    14
177
     2
291
     1
 71
     2
176
     1
 72
     2
176
     1
 73
     0
176
     1
 90
        0
176
     1
 40
-0.6
176
     1
 41
-30.0
176
     1
 62
     5
 63
     7
421
 16777215
176
     1
 74
     1
176
     1
 91
        4
176
     1
 64
     7
176
     1
 65
   257
176
     1
 75
     7
176
     1
175
     7
176
     1
 42
1.0
176
     1
 92
        8
176
     1
 66
     7
176
     1
 43
1.0
176
     1
 76
     1
176
     1
 77
     6
176
     1
 78
     2
176
     1
 67
     7
176
     1
 79
     5
176
     1
170
     0
176
     1
171
     0
176
     1
290
     0
176
     1
 93
        1
176
     1
 44
0.0
176
     1
173
     0
176
     1
  0
VISUALSTYLE
  5
33
102
{ACAD_REACTORS
330
2A
102
}
330
2A
100
AcDbVisualStyle
  2
Realistic
 70
     8
177
     2
291
     0
 71
     2
176
     1
 72
     2
176
     1
 73
     0
176
     1
 90
        0
176
     1
 40
-0.6
176
     1
 41
-30.0
176
     1
 62
     5
 63
     7
421
 16777215
176
     1
 74
     1
176
     1
 91
        0
176
     1
 64
     7
176
     1
 65
   257
176
     1
 75
     1
176
     1
175
     1
176
     1
 42
1.0
176
     1
 92
        8
176
     1
 66
     8
424
  7895160
176
     1
 43
1.0
176
     1
 76
     1
176
     1
 77
     6
176
     1
 78
     2
176
     1
 67
     7
176
     1
 79
     5
176
     1
170
     0
176
     1
171
     0
176
     1
290
     0
176
     1
 93
       13
176
     1
 44
0.0
176
     1
173
     0
176
     1
  0
VISUALSTYLE
  5
37
102
{ACAD_REACTORS
330
2A
102
}
330
2A
100
AcDbVisualStyle
  2
Thicken
 70
    13
177
     2
291
     1
 71
     2
176
     1
 72
     2
176
     1
 73
     0
176
     1
 90
        0
176
     1
 40
-0.6
176
     1
 41
-30.0
176
     1
 62
     5
 63
     7
421
 16777215
176
     1
 74
     1
176
     1
 91
        4
176
     1
 64
     7
176
     1
 65
   257
176
     1
 75
     1
176
     1
175
     1
176
     1
 42
1.0
176
     1
 92
       12
176
     1
 66
     7
176
     1
 43
1.0
176
     1
 76
     1
176
     1
 77
     6
176
     1
 78
     2
176
     1
 67
     7
176
     1
 79
     5
176
     1
170
     0
176
     1
171
     0
176
     1
290
     0
176
     1
 93
        1
176
     1
 44
0.0
176
     1
173
     0
176
     1
  0
ENDSEC
  0
EOF
