  0
SECTION
  2
HEADER
  9
$ACADVER
  1
AC1024
  9
$ACADMAINTVER
 70
     6
  9
$DWGCODEPAGE
  3
UNDEFINED
  9
$INSBASE
 10
0.0
 20
0.0
 30
0.0
  9
$EXTMIN
 10
1.000000000000000E+20
 20
1.000000000000000E+20
 30
1.000000000000000E+20
  9
$EXTMAX
 10
-1.000000000000000E+20
 20
-1.000000000000000E+20
 30
-1.000000000000000E+20
  9
$LIMMIN
 10
0.0
 20
0.0
  9
$LIMMAX
 10
12.0
 20
9.0
  9
$ORTHOMODE
 70
     0
  9
$REGENMODE
 70
     1
  9
$FILLMODE
 70
     1
  9
$QTEXTMODE
 70
     0
  9
$MIRRTEXT
 70
     1
  9
$LTSCALE
 40
1.0
  9
$ATTMODE
 70
     1
  9
$TEXTSIZE
 40
0.2
  9
$TRACEWID
 40
0.05
  9
$TEXTSTYLE
  7
Standard
  9
$CLAYER
  8
0
  9
$CELTYPE
  6
ByLayer
  9
$CECOLOR
 62
   256
  9
$CELTSCALE
 40
1.0
  9
$DISPSILH
 70
     0
  9
$DIMSCALE
 40
1.0
  9
$DIMASZ
 40
0.18
  9
$DIMEXO
 40
0.0625
  9
$DIMDLI
 40
0.38
  9
$DIMRND
 40
0.0
  9
$DIMDLE
 40
0.0
  9
$DIMEXE
 40
0.18
  9
$DIMTP
 40
0.0
  9
$DIMTM
 40
0.0
  9
$DIMTXT
 40
0.18
  9
$DIMCEN
 40
0.09
  9
$DIMTSZ
 40
0.0
  9
$DIMTOL
 70
     0
  9
$DIMLIM
 70
     0
  9
$DIMTIH
 70
     1
  9
$DIMTOH
 70
     1
  9
$DIMSE1
 70
     0
  9
$DIMSE2
 70
     0
  9
$DIMTAD
 70
     0
  9
$DIMZIN
 70
     0
  9
$DIMBLK
  1

  9
$DIMASO
 70
     1
  9
$DIMSHO
 70
     1
  9
$DIMPOST
  1

  9
$DIMAPOST
  1

  9
$DIMALT
 70
     0
  9
$DIMALTD
 70
     2
  9
$DIMALTF
 40
25.4
  9
$DIMLFAC
 40
1.0
  9
$DIMTOFL
 70
     0
  9
$DIMTVP
 40
0.0
  9
$DIMTIX
 70
     0
  9
$DIMSOXD
 70
     0
  9
$DIMSAH
 70
     0
  9
$DIMBLK1
  1

  9
$DIMBLK2
  1

  9
$DIMSTYLE
  2
Standard
  9
$DIMCLRD
 70
     0
  9
$DIMCLRE
 70
     0
  9
$DIMCLRT
 70
     0
  9
$DIMTFAC
 40
1.0
  9
$DIMGAP
 40
0.09
  9
$DIMJUST
 70
     0
  9
$DIMSD1
 70
     0
  9
$DIMSD2
 70
     0
  9
$DIMTOLJ
 70
     1
  9
$DIMTZIN
 70
     0
  9
$DIMALTZ
 70
     0
  9
$DIMALTTZ
 70
     0
  9
$DIMUPT
 70
     0
  9
$DIMDEC
 70
     4
  9
$DIMTDEC
 70
     4
  9
$DIMALTU
 70
     2
  9
$DIMALTTD
 70
     2
  9
$DIMTXSTY
  7
Standard
  9
$DIMAUNIT
 70
     0
  9
$DIMADEC
 70
     0
  9
$DIMALTRND
 40
0.0
  9
$DIMAZIN
 70
     0
  9
$DIMDSEP
 70
    46
  9
$DIMATFIT
 70
     3
  9
$DIMFRAC
 70
     0
  9
$DIMLDRBLK
  1

  9
$DIMLUNIT
 70
     2
  9
$DIMLWD
 70
    -2
  9
$DIMLWE
 70
    -2
  9
$DIMTMOVE
 70
     0
  9
$DIMFXL
 40
1.0
  9
$DIMFXLON
 70
     0
  9
$DIMJOGANG
 40
0.7853981633974483
  9
$DIMTFILL
 70
     0
  9
$DIMTFILLCLR
 70
     0
  9
$DIMARCSYM
 70
     0
  9
$DIMLTYPE
  6

  9
$DIMLTEX1
  6

  9
$DIMLTEX2
  6

  9
$DIMTXTDIRECTION
 70
     0
  9
$LUNITS
 70
     2
  9
$LUPREC
 70
     4
  9
$SKETCHINC
 40
0.1
  9
$FILLETRAD
 40
0.5
  9
$AUNITS
 70
     0
  9
$AUPREC
 70
     0
  9
$MENU
  1
.
  9
$ELEVATION
 40
0.0
  9
$PELEVATION
 40
0.0
  9
$THICKNESS
 40
0.0
  9
$LIMCHECK
 70
     0
  9
$CHAMFERA
 40
0.5
  9
$CHAMFERB
 40
0.5
  9
$CHAMFERC
 40
1.0
  9
$CHAMFERD
 40
0.0
  9
$SKPOLY
 70
     0
  9
$TDCREATE
 40
2457917.627013877
  9
$TDUCREATE
 40
2457917.252013889
  9
$TDUPDATE
 40
2457917.627013877
  9
$TDUUPDATE
 40
2457917.252013889
  9
$TDINDWG
 40
0.0000000116
  9
$TDUSRTIMER
 40
0.0000000116
  9
$USRTIMER
 70
     1
  9
$ANGBASE
 50
0.0
  9
$ANGDIR
 70
     0
  9
$PDMODE
 70
     0
  9
$PDSIZE
 40
0.0
  9
$PLINEWID
 40
0.0
  9
$SPLFRAME
 70
     0
  9
$SPLINETYPE
 70
     6
  9
$SPLINESEGS
 70
     8
  9
$HANDSEED
  5
EC
  9
$SURFTAB1
 70
     6
  9
$SURFTAB2
 70
     6
  9
$SURFTYPE
 70
     6
  9
$SURFU
 70
     6
  9
$SURFV
 70
     6
  9
$UCSBASE
  2

  9
$UCSNAME
  2

  9
$UCSORG
 10
0.0
 20
0.0
 30
0.0
  9
$UCSXDIR
 10
1.0
 20
0.0
 30
0.0
  9
$UCSYDIR
 10
0.0
 20
1.0
 30
0.0
  9
$UCSORTHOREF
  2

  9
$UCSORTHOVIEW
 70
     0
  9
$UCSORGTOP
 10
0.0
 20
0.0
 30
0.0
  9
$UCSORGBOTTOM
 10
0.0
 20
0.0
 30
0.0
  9
$UCSORGLEFT
 10
0.0
 20
0.0
 30
0.0
  9
$UCSORGRIGHT
 10
0.0
 20
0.0
 30
0.0
  9
$UCSORGFRONT
 10
0.0
 20
0.0
 30
0.0
  9
$UCSORGBACK
 10
0.0
 20
0.0
 30
0.0
  9
$PUCSBASE
  2

  9
$PUCSNAME
  2

  9
$PUCSORG
 10
0.0
 20
0.0
 30
0.0
  9
$PUCSXDIR
 10
1.0
 20
0.0
 30
0.0
  9
$PUCSYDIR
 10
0.0
 20
1.0
 30
0.0
  9
$PUCSORTHOREF
  2

  9
$PUCSORTHOVIEW
 70
     0
  9
$PUCSORGTOP
 10
0.0
 20
0.0
 30
0.0
  9
$PUCSORGBOTTOM
 10
0.0
 20
0.0
 30
0.0
  9
$PUCSORGLEFT
 10
0.0
 20
0.0
 30
0.0
  9
$PUCSORGRIGHT
 10
0.0
 20
0.0
 30
0.0
  9
$PUCSORGFRONT
 10
0.0
 20
0.0
 30
0.0
  9
$PUCSORGBACK
 10
0.0
 20
0.0
 30
0.0
  9
$USERI1
 70
     0
  9
$USERI2
 70
     0
  9
$USERI3
 70
     0
  9
$USERI4
 70
     0
  9
$USERI5
 70
     0
  9
$USERR1
 40
0.0
  9
$USERR2
 40
0.0
  9
$USERR3
 40
0.0
  9
$USERR4
 40
0.0
  9
$USERR5
 40
0.0
  9
$WORLDVIEW
 70
     1
  9
$SHADEDGE
 70
     3
  9
$SHADEDIF
 70
    70
  9
$TILEMODE
 70
     1
  9
$MAXACTVP
 70
    64
  9
$PINSBASE
 10
0.0
 20
0.0
 30
0.0
  9
$PLIMCHECK
 70
     0
  9
$PEXTMIN
 10
1.000000000000000E+20
 20
1.000000000000000E+20
 30
1.000000000000000E+20
  9
$PEXTMAX
 10
-1.000000000000000E+20
 20
-1.000000000000000E+20
 30
-1.000000000000000E+20
  9
$PLIMMIN
 10
0.0
 20
0.0
  9
$PLIMMAX
 10
12.0
 20
9.0
  9
$UNITMODE
 70
     0
  9
$VISRETAIN
 70
     1
  9
$PLINEGEN
 70
     0
  9
$PSLTSCALE
 70
     1
  9
$TREEDEPTH
 70
  3020
  9
$CMLSTYLE
  2
Standard
  9
$CMLJUST
 70
     0
  9
$CMLSCALE
 40
1.0
  9
$PROXYGRAPHICS
 70
     1
  9
$MEASUREMENT
 70
     0
  9
$CELWEIGHT
370
    -1
  9
$ENDCAPS
280
     0
  9
$JOINSTYLE
280
     0
  9
$LWDISPLAY
290
     1
  9
$INSUNITS
 70
     1
  9
$HYPERLINKBASE
  1

  9
$STYLESHEET
  1

  9
$XEDIT
290
     1
  9
$CEPSNTYPE
380
     0
  9
$PSTYLEMODE
290
     1
  9
$FINGERPRINTGUID
  2
{FF536BA0-52ED-82C0-252C-ADCBA884F91F}
  9
$VERSIONGUID
  2
{FAEB1C32-E019-11D5-929B-00C0DF256EC4}
  9
$EXTNAMES
290
     1
  9
$PSVPSCALE
 40
0.0
  9
$OLESTARTUP
290
     0
  9
$SORTENTS
280
   127
  9
$INDEXCTL
280
     0
  9
$HIDETEXT
280
     1
  9
$XCLIPFRAME
280
     2
  9
$HALOGAP
280
     0
  9
$OBSCOLOR
 70
   257
  9
$OBSLTYPE
280
     0
  9
$INTERSECTIONDISPLAY
280
     0
  9
$INTERSECTIONCOLOR
 70
   257
  9
$DIMASSOC
280
     2
  9
$PROJECTNAME
  1

  9
$CAMERADISPLAY
290
     0
  9
$LENSLENGTH
 40
50.0
  9
$CAMERAHEIGHT
 40
0.0
  9
$STEPSPERSEC
 40
2.0
  9
$STEPSIZE
 40
6.0
  9
$3DDWFPREC
 40
2.0
  9
$PSOLWIDTH
 40
0.25
  9
$PSOLHEIGHT
 40
4.0
  9
$LOFTANG1
 40
1.570796326794897
  9
$LOFTANG2
 40
1.570796326794897
  9
$LOFTMAG1
 40
0.0
  9
$LOFTMAG2
 40
0.0
  9
$LOFTPARAM
 70
     7
  9
$LOFTNORMALS
280
     1
  9
$LATITUDE
 40
37.795
  9
$LONGITUDE
 40
-122.394
  9
$NORTHDIRECTION
 40
0.0
  9
$TIMEZONE
 70
 -8000
  9
$LIGHTGLYPHDISPLAY
280
     1
  9
$TILEMODELIGHTSYNCH
280
     1
  9
$CMATERIAL
347
3C
  9
$SOLIDHIST
280
     1
  9
$SHOWHIST
280
     1
  9
$DWFFRAME
280
     2
  9
$DGNFRAME
280
     2
  9
$REALWORLDSCALE
290
     1
  9
$INTERFERECOLOR
 62
   256
  9
$CSHADOW
280
     0
  9
$SHADOWPLANELOCATION
 40
0.0
  0
ENDSEC
  0
SECTION
  2
CLASSES
  0
CLASS
  1
ACDBDICTIONARYWDFLT
  2
AcDbDictionaryWithDefault
  3
ObjectDBX Classes
 90
        0
 91
        4
280
     0
281
     0
  0
CLASS
  1
VISUALSTYLE
  2
AcDbVisualStyle
  3
ObjectDBX Classes
 90
     4095
 91
        4
280
     0
281
     0
  0
CLASS
  1
MATERIAL
  2
AcDbMaterial
  3
ObjectDBX Classes
 90
     1153
 91
        4
280
     0
281
     0
  0
CLASS
  1
SUN
  2
AcDbSun
  3
SCENEOE
 90
     1024
 91
        4
280
     0
281
     0
  0
ENDSEC
  0
SECTION
  2
TABLES
  0
TABLE
  2
VPORT
  5
8
330
0
100
AcDbSymbolTable
 70
     1
  0
VPORT
  5
29
330
8
100
AcDbSymbolTableRecord
100
AcDbViewportTableRecord
  2
*Active
 70
     0
 10
0.0
 20
0.0
 11
1.0
 21
1.0
 12
0.0
 22
0.0
 13
0.0
 23
0.0
 14
0.5
 24
0.5
 15
0.5
 25
0.5
 16
0.0
 26
0.0
 36
1.0
 17
91.00082462281999
 27
-128.4993055234307
 37
0.0
 40
256.9986110468615
 41
0.7081814508812795
 42
50.0
 43
0.0
 44
0.0
 50
0.0
 51
0.0
 71
     0
 72
   100
 73
     1
 74
     3
 75
     0
 76
     0
 77
     0
 78
     0
281
     0
 65
     1
110
0.0
120
0.0
130
0.0
111
1.0
121
0.0
131
0.0
112
0.0
122
1.0
132
0.0
 79
     0
146
0.0
 60
     3
 61
     5
292
     1
282
     1
141
0.0
142
0.0
 63
   250
361
3F
  0
ENDTAB
  0
TABLE
  2
LTYPE
  5
5
330
0
100
AcDbSymbolTable
 70
     1
  0
LTYPE
  5
14
330
5
100
AcDbSymbolTableRecord
100
AcDbLinetypeTableRecord
  2
ByBlock
 70
     0
  3

 72
    65
 73
     0
 40
0.0
  0
LTYPE
  5
15
330
5
100
AcDbSymbolTableRecord
100
AcDbLinetypeTableRecord
  2
ByLayer
 70
     0
  3

 72
    65
 73
     0
 40
0.0
  0
LTYPE
  5
16
330
5
100
AcDbSymbolTableRecord
100
AcDbLinetypeTableRecord
  2
Continuous
 70
     0
  3
Solid line
 72
    65
 73
     0
 40
0.0
  0
ENDTAB
  0
TABLE
  2
LAYER
  5
2
330
0
100
AcDbSymbolTable
 70
     2
  0
LAYER
  5
10
330
2
100
AcDbSymbolTableRecord
100
AcDbLayerTableRecord
  2
0
 70
     0
 62
     7
  6
Continuous
370
    -3
390
F
347
3E
  0
LAYER
  5
40
330
2
100
AcDbSymbolTableRecord
100
AcDbLayerTableRecord
  2
_U+30EC_U+30A4_U+30E4_U+30FC 1
 70
     0
 62
     7
  6
Continuous
370
    -3
390
F
347
3E
  0
ENDTAB
  0
TABLE
  2
STYLE
  5
3
330
0
100
AcDbSymbolTable
 70
     1
  0
STYLE
  5
11
330
3
100
AcDbSymbolTableRecord
100
AcDbTextStyleTableRecord
  2
Standard
 70
     0
 40
0.0
 41
1.0
 50
0.0
 71
     0
 42
0.2
  3
txt
  4

  0
ENDTAB
  0
TABLE
  2
VIEW
  5
6
330
0
100
AcDbSymbolTable
 70
     0
  0
ENDTAB
  0
TABLE
  2
UCS
  5
7
330
0
100
AcDbSymbolTable
 70
     0
  0
ENDTAB
  0
TABLE
  2
APPID
  5
9
330
0
100
AcDbSymbolTable
 70
     1
  0
APPID
  5
12
330
9
100
AcDbSymbolTableRecord
100
AcDbRegAppTableRecord
  2
ACAD
 70
     0
  0
ENDTAB
  0
TABLE
  2
DIMSTYLE
  5
A
330
0
100
AcDbSymbolTable
 70
     1
100
AcDbDimStyleTable
  0
DIMSTYLE
105
27
330
A
100
AcDbSymbolTableRecord
100
AcDbDimStyleTableRecord
  2
Standard
 70
     0
178
     0
340
11
  0
ENDTAB
  0
TABLE
  2
BLOCK_RECORD
  5
1
330
0
100
AcDbSymbolTable
 70
     6
  0
BLOCK_RECORD
  5
1F
330
1
100
AcDbSymbolTableRecord
100
AcDbBlockTableRecord
  2
*Model_Space
340
22
 70
     0
280
     1
281
     0
  0
BLOCK_RECORD
  5
1B
330
1
100
AcDbSymbolTableRecord
100
AcDbBlockTableRecord
  2
*Paper_Space
340
1E
 70
     0
280
     1
281
     0
  0
BLOCK_RECORD
  5
23
330
1
100
AcDbSymbolTableRecord
100
AcDbBlockTableRecord
  2
*Paper_Space0
340
26
 70
     0
280
     1
281
     0
  0
BLOCK_RECORD
  5
8E
330
1
100
AcDbSymbolTableRecord
100
AcDbBlockTableRecord
  2
block 2
340
0
102
{BLKREFS
331
8F
102
}
 70
     0
280
     1
281
     0
  0
BLOCK_RECORD
  5
97
330
1
100
AcDbSymbolTableRecord
100
AcDbBlockTableRecord
  2
block 3
340
0
102
{BLKREFS
331
98
102
}
 70
     0
280
     1
281
     0
  0
BLOCK_RECORD
  5
B3
330
1
100
AcDbSymbolTableRecord
100
AcDbBlockTableRecord
  2
block 4
340
0
102
{BLKREFS
331
B4
102
}
 70
     0
280
     1
281
     0
  0
BLOCK_RECORD
  5
D8
330
1
100
AcDbSymbolTableRecord
100
AcDbBlockTableRecord
  2
block 5
340
0
102
{BLKREFS
331
D9
102
}
 70
     0
280
     1
281
     0
  0
BLOCK_RECORD
  5
DF
330
1
100
AcDbSymbolTableRecord
100
AcDbBlockTableRecord
  2
block 6
340
0
102
{BLKREFS
331
E0
102
}
 70
     0
280
     1
281
     0
  0
ENDTAB
  0
ENDSEC
  0
SECTION
  2
BLOCKS
  0
BLOCK
  5
20
330
1F
100
AcDbEntity
  8
0
100
AcDbBlockBegin
  2
*Model_Space
 70
     0
 10
0.0
 20
0.0
 30
0.0
  3
*Model_Space
  1

  0
ENDBLK
  5
21
330
1F
100
AcDbEntity
  8
0
100
AcDbBlockEnd
  0
BLOCK
  5
1C
330
1B
100
AcDbEntity
 67
     1
  8
0
100
AcDbBlockBegin
  2
*Paper_Space
 70
     0
 10
0.0
 20
0.0
 30
0.0
  3
*Paper_Space
  1

  0
ENDBLK
  5
1D
330
1B
100
AcDbEntity
 67
     1
  8
0
100
AcDbBlockEnd
  0
BLOCK
  5
24
330
23
100
AcDbEntity
  8
0
100
AcDbBlockBegin
  2
*Paper_Space0
 70
     0
 10
0.0
 20
0.0
 30
0.0
  3
*Paper_Space0
  1

  0
ENDBLK
  5
25
330
23
100
AcDbEntity
  8
0
100
AcDbBlockEnd
  0
BLOCK
  5
90
330
8E
100
AcDbEntity
  8
0
100
AcDbBlockBegin
  2
block 2
 70
     0
 10
0.0
 20
0.0
 30
0.0
  3
block 2
  1

  0
SPLINE
  5
92
330
8E
100
AcDbEntity
  8
_U+30EC_U+30A4_U+30E4_U+30FC 1
370
     0
100
AcDbSpline
210
0.0
220
0.0
230
1.0
 70
    11
 71
     3
 72
    44
 73
    40
 74
     0
 42
0.0000000001
 43
0.0000000001
 12
1.0
 22
0.0
 32
0.0
 13
1.0
 23
0.0
 33
0.0
 40
0.0
 40
0.0
 40
0.0
 40
0.0
 40
1.0
 40
1.0
 40
1.0
 40
2.0
 40
2.0
 40
2.0
 40
3.0
 40
3.0
 40
3.0
 40
4.0
 40
4.0
 40
4.0
 40
5.0
 40
5.0
 40
5.0
 40
6.0
 40
6.0
 40
6.0
 40
7.0
 40
7.0
 40
7.0
 40
8.0
 40
8.0
 40
8.0
 40
9.0
 40
9.0
 40
9.0
 40
10.0
 40
10.0
 40
10.0
 40
11.0
 40
11.0
 40
11.0
 40
12.0
 40
12.0
 40
12.0
 40
13.0
 40
13.0
 40
13.0
 40
13.0
 10
93.85887041924362
 20
-110.4253010791645
 30
0.0
 10
93.64079587502731
 20
-110.5841199810345
 30
0.0
 10
93.54743378737703
 20
-110.6581895339674
 30
0.0
 10
93.49920245058354
 20
-110.8018500157023
 30
0.0
 10
93.49920245058354
 20
-110.8018500157023
 30
0.0
 10
94.27744952070148
 20
-110.8018500157023
 30
0.0
 10
94.27744952070148
 20
-110.8018500157023
 30
0.0
 10
94.27744952070148
 20
-110.8018500157023
 30
0.0
 10
94.27744952070148
 20
-111.0071777066232
 30
0.0
 10
94.27744952070148
 20
-111.0071777066232
 30
0.0
 10
94.27744952070148
 20
-111.0071777066232
 30
0.0
 10
93.24943302790292
 20
-111.0071777066232
 30
0.0
 10
93.24943302790292
 20
-111.0071777066232
 30
0.0
 10
93.28112790636722
 20
-110.6495767952543
 30
0.0
 10
93.34658472058697
 20
-110.5713731277391
 30
0.0
 10
93.7317463958379
 20
-110.2730278587165
 30
0.0
 10
93.98771699039196
 20
-110.0742458492176
 30
0.0
 10
94.05317380461172
 20
-110.0063774681581
 30
0.0
 10
94.05317380461172
 20
-109.8689181582967
 30
0.0
 10
94.05317380461172
 20
-109.7504068736041
 30
0.0
 10
93.98151581851852
 20
-109.6194932451646
 30
0.0
 10
93.78445635676222
 20
-109.6194932451646
 30
0.0
 10
93.52435164762586
 20
-109.6194932451646
 30
0.0
 10
93.51573890891274
 20
-109.8499701331278
 30
0.0
 10
93.51160479433044
 20
-109.9664143605292
 30
0.0
 10
93.51160479433044
 20
-109.9664143605292
 30
0.0
 10
93.2876735877892
 20
-109.9664143605292
 30
0.0
 10
93.2876735877892
 20
-109.9664143605292
 30
0.0
 10
93.2959418169538
 20
-109.8392903371235
 30
0.0
 10
93.30627710340954
 20
-109.7273247338529
 30
0.0
 10
93.3868923377644
 20
-109.6088134491603
 30
0.0
 10
93.49679088374386
 20
-109.4479274899991
 30
0.0
 10
93.68317054949588
 20
-109.4141655542437
 30
0.0
 10
93.79961477689733
 20
-109.4141655542437
 30
0.0
 10
94.07660045391141
 20
-109.4141655542437
 30
0.0
 10
94.28399520212345
 20
-109.598133653156
 30
0.0
 10
94.28399520212345
 20
-109.8709852155878
 30
0.0
 10
94.28399520212345
 20
-110.0997395558084
 30
0.0
 10
94.167550974722
 20
-110.1989583057836
 30
0.0
 10
93.85887041924362
 20
-110.4253010791645
 30
0.0
  0
HATCH
  5
93
330
8E
100
AcDbEntity
  8
_U+30EC_U+30A4_U+30E4_U+30FC 1
 62
   179
420
  2234388
100
AcDbHatch
 10
0.0
 20
0.0
 30
0.0
210
0.0
220
0.0
230
1.0
  2
SOLID
 70
     1
 71
     0
 91
        1
 92
        1
 93
        1
 72
     4
 94
        3
 73
     0
 74
     1
 95
       44
 96
       40
 40
0.0
 40
0.0
 40
0.0
 40
0.0
 40
1.0
 40
1.0
 40
1.0
 40
2.0
 40
2.0
 40
2.0
 40
3.0
 40
3.0
 40
3.0
 40
4.0
 40
4.0
 40
4.0
 40
5.0
 40
5.0
 40
5.0
 40
6.0
 40
6.0
 40
6.0
 40
7.0
 40
7.0
 40
7.0
 40
8.0
 40
8.0
 40
8.0
 40
9.0
 40
9.0
 40
9.0
 40
10.0
 40
10.0
 40
10.0
 40
11.0
 40
11.0
 40
11.0
 40
12.0
 40
12.0
 40
12.0
 40
13.0
 40
13.0
 40
13.0
 40
13.0
 10
93.85887041924362
 20
-110.4253010791645
 10
93.64079587502731
 20
-110.5841199810345
 10
93.54743378737703
 20
-110.6581895339674
 10
93.49920245058354
 20
-110.8018500157023
 10
93.49920245058354
 20
-110.8018500157023
 10
94.27744952070148
 20
-110.8018500157023
 10
94.27744952070148
 20
-110.8018500157023
 10
94.27744952070148
 20
-110.8018500157023
 10
94.27744952070148
 20
-111.0071777066232
 10
94.27744952070148
 20
-111.0071777066232
 10
94.27744952070148
 20
-111.0071777066232
 10
93.24943302790292
 20
-111.0071777066232
 10
93.24943302790292
 20
-111.0071777066232
 10
93.28112790636722
 20
-110.6495767952543
 10
93.34658472058697
 20
-110.5713731277391
 10
93.7317463958379
 20
-110.2730278587165
 10
93.98771699039196
 20
-110.0742458492176
 10
94.05317380461172
 20
-110.0063774681581
 10
94.05317380461172
 20
-109.8689181582967
 10
94.05317380461172
 20
-109.7504068736041
 10
93.98151581851852
 20
-109.6194932451646
 10
93.78445635676222
 20
-109.6194932451646
 10
93.52435164762586
 20
-109.6194932451646
 10
93.51573890891274
 20
-109.8499701331278
 10
93.51160479433044
 20
-109.9664143605292
 10
93.51160479433044
 20
-109.9664143605292
 10
93.2876735877892
 20
-109.9664143605292
 10
93.2876735877892
 20
-109.9664143605292
 10
93.2959418169538
 20
-109.8392903371235
 10
93.30627710340954
 20
-109.7273247338529
 10
93.3868923377644
 20
-109.6088134491603
 10
93.49679088374386
 20
-109.4479274899991
 10
93.68317054949588
 20
-109.4141655542437
 10
93.79961477689733
 20
-109.4141655542437
 10
94.07660045391141
 20
-109.4141655542437
 10
94.28399520212345
 20
-109.598133653156
 10
94.28399520212345
 20
-109.8709852155878
 10
94.28399520212345
 20
-110.0997395558084
 10
94.167550974722
 20
-110.1989583057836
 10
93.85887041924362
 20
-110.4253010791645
 97
        0
 97
        0
 75
     2
 76
     1
 98
        0
  0
SPLINE
  5
94
330
8E
100
AcDbEntity
  8
_U+30EC_U+30A4_U+30E4_U+30FC 1
370
     0
100
AcDbSpline
210
0.0
220
0.0
230
1.0
 70
    11
 71
     3
 72
    29
 73
    25
 74
     0
 42
0.0000000001
 43
0.0000000001
 12
1.0
 22
0.0
 32
0.0
 13
1.0
 23
0.0
 33
0.0
 40
0.0
 40
0.0
 40
0.0
 40
0.0
 40
1.0
 40
1.0
 40
1.0
 40
2.0
 40
2.0
 40
2.0
 40
3.0
 40
3.0
 40
3.0
 40
4.0
 40
4.0
 40
4.0
 40
5.0
 40
5.0
 40
5.0
 40
6.0
 40
6.0
 40
6.0
 40
7.0
 40
7.0
 40
7.0
 40
8.0
 40
8.0
 40
8.0
 40
8.0
 10
95.34026147790105
 20
-110.8294107795843
 30
0.0
 10
95.2320854796642
 20
-111.0388725850875
 30
0.0
 10
95.05879717675614
 20
-111.0578206102564
 30
0.0
 10
94.9423529493547
 20
-111.0578206102564
 30
0.0
 10
94.78146699019352
 20
-111.0578206102564
 30
0.0
 10
94.63987356574975
 20
-111.0113118212055
 30
0.0
 10
94.54444442080833
 20
-110.8294107795843
 30
0.0
 10
94.44109155625084
 20
-110.6347628846677
 30
0.0
 10
94.42179902153345
 20
-110.398084824831
 30
0.0
 10
94.42179902153345
 20
-110.2351318083787
 30
0.0
 10
94.42179902153345
 20
-110.0911268170953
 30
0.0
 10
94.4390244989597
 20
-109.8392903371235
 30
0.0
 10
94.54444442080833
 20
-109.6405083276246
 30
0.0
 10
94.65262041904518
 20
-109.4375922035434
 30
0.0
 10
94.81316186865783
 20
-109.4141655542437
 30
0.0
 10
94.9423529493547
 20
-109.4141655542437
 30
0.0
 10
95.1011718512247
 20
-109.4141655542437
 30
0.0
 10
95.24483233295963
 20
-109.4586072860034
 30
0.0
 10
95.34026147790105
 20
-109.6405083276246
 30
0.0
 10
95.43948022787625
 20
-109.8330891652501
 30
0.0
 10
95.46290687717594
 20
-110.0614989959221
 30
0.0
 10
95.46290687717594
 20
-110.2351318083787
 30
0.0
 10
95.46290687717594
 20
-110.4063530539956
 30
0.0
 10
95.44154728516739
 20
-110.6368299419589
 30
0.0
 10
95.34026147790105
 20
-110.8294107795843
 30
0.0
  0
SPLINE
  5
95
330
8E
100
AcDbEntity
  8
_U+30EC_U+30A4_U+30E4_U+30FC 1
370
     0
100
AcDbSpline
210
0.0
220
0.0
230
1.0
 70
    11
 71
     3
 72
    17
 73
    13
 74
     0
 42
0.0000000001
 43
0.0000000001
 12
1.0
 22
0.0
 32
0.0
 13
1.0
 23
0.0
 33
0.0
 40
0.0
 40
0.0
 40
0.0
 40
0.0
 40
1.0
 40
1.0
 40
1.0
 40
2.0
 40
2.0
 40
2.0
 40
3.0
 40
3.0
 40
3.0
 40
4.0
 40
4.0
 40
4.0
 40
4.0
 10
94.9423529493547
 20
-109.6067463918692
 30
0.0
 10
94.69258352667408
 20
-109.6067463918692
 30
0.0
 10
94.64641924717174
 20
-109.8902777503052
 30
0.0
 10
94.64641924717174
 20
-110.2351318083787
 30
0.0
 10
94.64641924717174
 20
-110.5544921598614
 30
0.0
 10
94.68224824021833
 20
-110.8631727153398
 30
0.0
 10
94.9423529493547
 20
-110.8631727153398
 30
0.0
 10
95.19005531474416
 20
-110.8631727153398
 30
0.0
 10
95.23863116108618
 20
-110.5820529237434
 30
0.0
 10
95.23863116108618
 20
-110.2351318083787
 30
0.0
 10
95.23863116108618
 20
-109.9154269473475
 30
0.0
 10
95.20039060119991
 20
-109.6067463918692
 30
0.0
 10
94.9423529493547
 20
-109.6067463918692
 30
0.0
  0
HATCH
  5
96
330
8E
100
AcDbEntity
  8
_U+30EC_U+30A4_U+30E4_U+30FC 1
 62
   179
420
  2234388
100
AcDbHatch
 10
0.0
 20
0.0
 30
0.0
210
0.0
220
0.0
230
1.0
  2
SOLID
 70
     1
 71
     0
 91
        2
 92
        1
 93
        1
 72
     4
 94
        3
 73
     0
 74
     1
 95
       29
 96
       25
 40
0.0
 40
0.0
 40
0.0
 40
0.0
 40
1.0
 40
1.0
 40
1.0
 40
2.0
 40
2.0
 40
2.0
 40
3.0
 40
3.0
 40
3.0
 40
4.0
 40
4.0
 40
4.0
 40
5.0
 40
5.0
 40
5.0
 40
6.0
 40
6.0
 40
6.0
 40
7.0
 40
7.0
 40
7.0
 40
8.0
 40
8.0
 40
8.0
 40
8.0
 10
95.34026147790105
 20
-110.8294107795843
 10
95.2320854796642
 20
-111.0388725850875
 10
95.05879717675614
 20
-111.0578206102564
 10
94.9423529493547
 20
-111.0578206102564
 10
94.78146699019352
 20
-111.0578206102564
 10
94.63987356574975
 20
-111.0113118212055
 10
94.54444442080833
 20
-110.8294107795843
 10
94.44109155625084
 20
-110.6347628846677
 10
94.42179902153345
 20
-110.398084824831
 10
94.42179902153345
 20
-110.2351318083787
 10
94.42179902153345
 20
-110.0911268170953
 10
94.4390244989597
 20
-109.8392903371235
 10
94.54444442080833
 20
-109.6405083276246
 10
94.65262041904518
 20
-109.4375922035434
 10
94.81316186865783
 20
-109.4141655542437
 10
94.9423529493547
 20
-109.4141655542437
 10
95.1011718512247
 20
-109.4141655542437
 10
95.24483233295963
 20
-109.4586072860034
 10
95.34026147790105
 20
-109.6405083276246
 10
95.43948022787625
 20
-109.8330891652501
 10
95.46290687717594
 20
-110.0614989959221
 10
95.46290687717594
 20
-110.2351318083787
 10
95.46290687717594
 20
-110.4063530539956
 10
95.44154728516739
 20
-110.6368299419589
 10
95.34026147790105
 20
-110.8294107795843
 97
        0
 97
        0
 92
        1
 93
        1
 72
     4
 94
        3
 73
     0
 74
     1
 95
       17
 96
       13
 40
0.0
 40
0.0
 40
0.0
 40
0.0
 40
1.0
 40
1.0
 40
1.0
 40
2.0
 40
2.0
 40
2.0
 40
3.0
 40
3.0
 40
3.0
 40
4.0
 40
4.0
 40
4.0
 40
4.0
 10
94.9423529493547
 20
-109.6067463918692
 10
94.69258352667408
 20
-109.6067463918692
 10
94.64641924717174
 20
-109.8902777503052
 10
94.64641924717174
 20
-110.2351318083787
 10
94.64641924717174
 20
-110.5544921598614
 10
94.68224824021833
 20
-110.8631727153398
 10
94.9423529493547
 20
-110.8631727153398
 10
95.19005531474416
 20
-110.8631727153398
 10
95.23863116108618
 20
-110.5820529237434
 10
95.23863116108618
 20
-110.2351318083787
 10
95.23863116108618
 20
-109.9154269473475
 10
95.20039060119991
 20
-109.6067463918692
 10
94.9423529493547
 20
-109.6067463918692
 97
        0
 97
        0
 75
     2
 76
     1
 98
        0
  0
ENDBLK
  5
91
330
8E
100
AcDbEntity
  8
0
100
AcDbBlockEnd
  0
BLOCK
  5
99
330
97
100
AcDbEntity
  8
0
100
AcDbBlockBegin
  2
block 3
 70
     0
 10
0.0
 20
0.0
 30
0.0
  3
block 3
  1

  0
POLYLINE
  5
9B
330
97
100
AcDbEntity
  8
_U+30EC_U+30A4_U+30E4_U+30FC 1
370
     0
100
AcDb2dPolyline
 66
     1
 10
0.0
 20
0.0
 30
0.0
  0
VERTEX
  5
9C
330
9B
100
AcDbEntity
  8
_U+30EC_U+30A4_U+30E4_U+30FC 1
370
     0
100
AcDbVertex
100
AcDb2dVertex
 10
84.67252330782493
 20
-123.1690537886522
 30
0.0
  0
VERTEX
  5
9D
330
9B
100
AcDbEntity
  8
_U+30EC_U+30A4_U+30E4_U+30FC 1
370
     0
100
AcDbVertex
100
AcDb2dVertex
 10
85.01944442318958
 20
-123.1690537886522
 30
0.0
  0
VERTEX
  5
9E
330
9B
100
AcDbEntity
  8
_U+30EC_U+30A4_U+30E4_U+30FC 1
370
     0
100
AcDbVertex
100
AcDb2dVertex
 10
85.01944442318958
 20
-123.3869560780942
 30
0.0
  0
VERTEX
  5
9F
330
9B
100
AcDbEntity
  8
_U+30EC_U+30A4_U+30E4_U+30FC 1
370
     0
100
AcDbVertex
100
AcDb2dVertex
 10
84.67252330782493
 20
-123.3869560780942
 30
0.0
  0
VERTEX
  5
A0
330
9B
100
AcDbEntity
  8
_U+30EC_U+30A4_U+30E4_U+30FC 1
370
     0
100
AcDbVertex
100
AcDb2dVertex
 10
84.67252330782493
 20
-124.0427300037115
 30
0.0
  0
VERTEX
  5
A1
330
9B
100
AcDbEntity
  8
_U+30EC_U+30A4_U+30E4_U+30FC 1
370
     0
100
AcDbVertex
100
AcDb2dVertex
 10
84.44824759173517
 20
-124.0427300037115
 30
0.0
  0
VERTEX
  5
A2
330
9B
100
AcDbEntity
  8
_U+30EC_U+30A4_U+30E4_U+30FC 1
370
     0
100
AcDbVertex
100
AcDb2dVertex
 10
83.47500811715209
 20
-123.3637016835688
 30
0.0
  0
VERTEX
  5
A3
330
9B
100
AcDbEntity
  8
_U+30EC_U+30A4_U+30E4_U+30FC 1
370
     0
100
AcDbVertex
100
AcDb2dVertex
 10
83.47500811715209
 20
-123.1690537886522
 30
0.0
  0
VERTEX
  5
A4
330
9B
100
AcDbEntity
  8
_U+30EC_U+30A4_U+30E4_U+30FC 1
370
     0
100
AcDbVertex
100
AcDb2dVertex
 10
84.47374129832602
 20
-123.1690537886522
 30
0.0
  0
VERTEX
  5
A5
330
9B
100
AcDbEntity
  8
_U+30EC_U+30A4_U+30E4_U+30FC 1
370
     0
100
AcDbVertex
100
AcDb2dVertex
 10
84.47374129832602
 20
-122.9616590404402
 30
0.0
  0
VERTEX
  5
A6
330
9B
100
AcDbEntity
  8
_U+30EC_U+30A4_U+30E4_U+30FC 1
370
     0
100
AcDbVertex
100
AcDb2dVertex
 10
84.67252330782493
 20
-122.9616590404402
 30
0.0
  0
VERTEX
  5
A7
330
9B
100
AcDbEntity
  8
_U+30EC_U+30A4_U+30E4_U+30FC 1
370
     0
100
AcDbVertex
100
AcDb2dVertex
 10
84.67252330782493
 20
-123.1690537886522
 30
0.0
  0
SEQEND
  5
A8
330
9B
100
AcDbEntity
  8
_U+30EC_U+30A4_U+30E4_U+30FC 1
370
     0
  0
POLYLINE
  5
A9
330
97
100
AcDbEntity
  8
_U+30EC_U+30A4_U+30E4_U+30FC 1
370
     0
100
AcDb2dPolyline
 66
     1
 10
0.0
 20
0.0
 30
0.0
  0
VERTEX
  5
AA
330
A9
100
AcDbEntity
  8
_U+30EC_U+30A4_U+30E4_U+30FC 1
370
     0
100
AcDbVertex
100
AcDb2dVertex
 10
83.81779511793444
 20
-123.3869560780942
 30
0.0
  0
VERTEX
  5
AB
330
A9
100
AcDbEntity
  8
_U+30EC_U+30A4_U+30E4_U+30FC 1
370
     0
100
AcDbVertex
100
AcDb2dVertex
 10
84.47374129832602
 20
-123.8437757394384
 30
0.0
  0
VERTEX
  5
AC
330
A9
100
AcDbEntity
  8
_U+30EC_U+30A4_U+30E4_U+30FC 1
370
     0
100
AcDbVertex
100
AcDb2dVertex
 10
84.47374129832602
 20
-123.3869560780942
 30
0.0
  0
VERTEX
  5
AD
330
A9
100
AcDbEntity
  8
_U+30EC_U+30A4_U+30E4_U+30FC 1
370
     0
100
AcDbVertex
100
AcDb2dVertex
 10
83.81779511793444
 20
-123.3869560780942
 30
0.0
  0
SEQEND
  5
AE
330
A9
100
AcDbEntity
  8
_U+30EC_U+30A4_U+30E4_U+30FC 1
370
     0
  0
HATCH
  5
AF
330
97
100
AcDbEntity
  8
_U+30EC_U+30A4_U+30E4_U+30FC 1
 62
   179
420
  2234388
100
AcDbHatch
 10
0.0
 20
0.0
 30
0.0
210
0.0
220
0.0
230
1.0
  2
SOLID
 70
     1
 71
     0
 91
        2
 92
        1
 93
       11
 72
     1
 10
84.67252330782493
 20
-123.1690537886522
 11
85.01944442318958
 21
-123.1690537886522
 72
     1
 10
85.01944442318958
 20
-123.1690537886522
 11
85.01944442318958
 21
-123.3869560780942
 72
     1
 10
85.01944442318958
 20
-123.3869560780942
 11
84.67252330782493
 21
-123.3869560780942
 72
     1
 10
84.67252330782493
 20
-123.3869560780942
 11
84.67252330782493
 21
-124.0427300037115
 72
     1
 10
84.67252330782493
 20
-124.0427300037115
 11
84.44824759173517
 21
-124.0427300037115
 72
     1
 10
84.44824759173517
 20
-124.0427300037115
 11
83.47500811715209
 21
-123.3637016835688
 72
     1
 10
83.47500811715209
 20
-123.3637016835688
 11
83.47500811715209
 21
-123.1690537886522
 72
     1
 10
83.47500811715209
 20
-123.1690537886522
 11
84.47374129832602
 21
-123.1690537886522
 72
     1
 10
84.47374129832602
 20
-123.1690537886522
 11
84.47374129832602
 21
-122.9616590404402
 72
     1
 10
84.47374129832602
 20
-122.9616590404402
 11
84.67252330782493
 21
-122.9616590404402
 72
     1
 10
84.67252330782493
 20
-122.9616590404402
 11
84.67252330782493
 21
-123.1690537886522
 97
        0
 92
        1
 93
        3
 72
     1
 10
83.81779511793444
 20
-123.3869560780942
 11
84.47374129832602
 21
-123.8437757394384
 72
     1
 10
84.47374129832602
 20
-123.8437757394384
 11
84.47374129832602
 21
-123.3869560780942
 72
     1
 10
84.47374129832602
 20
-123.3869560780942
 11
83.81779511793444
 21
-123.3869560780942
 97
        0
 75
     2
 76
     1
 98
        0
  0
SPLINE
  5
B0
330
97
100
AcDbEntity
  8
_U+30EC_U+30A4_U+30E4_U+30FC 1
370
     0
100
AcDbSpline
210
0.0
220
0.0
230
1.0
 70
    11
 71
     3
 72
    29
 73
    25
 74
     0
 42
0.0000000001
 43
0.0000000001
 12
1.0
 22
0.0
 32
0.0
 13
1.0
 23
0.0
 33
0.0
 40
0.0
 40
0.0
 40
0.0
 40
0.0
 40
1.0
 40
1.0
 40
1.0
 40
2.0
 40
2.0
 40
2.0
 40
3.0
 40
3.0
 40
3.0
 40
4.0
 40
4.0
 40
4.0
 40
5.0
 40
5.0
 40
5.0
 40
6.0
 40
6.0
 40
6.0
 40
7.0
 40
7.0
 40
7.0
 40
8.0
 40
8.0
 40
8.0
 40
8.0
 10
84.8416774961507
 20
-121.9265801018968
 30
0.0
 10
85.05113930165389
 20
-122.0344115905852
 30
0.0
 10
85.07008732682276
 20
-122.2078721482675
 30
0.0
 10
85.07008732682276
 20
-122.3243163756689
 30
0.0
 10
85.07008732682276
 20
-122.4850300800558
 30
0.0
 10
85.02357853777188
 20
-122.6267957592739
 30
0.0
 10
84.8416774961507
 20
-122.722052649441
 30
0.0
 10
84.64702960123408
 20
-122.8255777687728
 30
0.0
 10
84.41035154139742
 20
-122.8446980487159
 30
0.0
 10
84.2473985249451
 20
-122.8446980487159
 30
0.0
 10
84.10339353366166
 20
-122.8446980487159
 30
0.0
 10
83.85155705368989
 20
-122.8278170808382
 30
0.0
 10
83.65277504419097
 20
-122.722052649441
 30
0.0
 10
83.44985892010976
 20
-122.6140489059784
 30
0.0
 10
83.42643227081007
 20
-122.4533352015915
 30
0.0
 10
83.42643227081007
 20
-122.3243163756689
 30
0.0
 10
83.42643227081007
 20
-122.1656697285732
 30
0.0
 10
83.47087400256979
 20
-122.021836992064
 30
0.0
 10
83.65277504419097
 20
-121.9265801018968
 30
0.0
 10
83.84535588181645
 20
-121.8271890971474
 30
0.0
 10
84.07376571248851
 20
-121.8039347026219
 30
0.0
 10
84.2473985249451
 20
-121.8039347026219
 30
0.0
 10
84.41861977056202
 20
-121.8039347026219
 30
0.0
 10
84.64909665852522
 20
-121.824949785082
 30
0.0
 10
84.8416774961507
 20
-121.9265801018968
 30
0.0
  0
SPLINE
  5
B1
330
97
100
AcDbEntity
  8
_U+30EC_U+30A4_U+30E4_U+30FC 1
370
     0
100
AcDbSpline
210
0.0
220
0.0
230
1.0
 70
    11
 71
     3
 72
    17
 73
    13
 74
     0
 42
0.0000000001
 43
0.0000000001
 12
1.0
 22
0.0
 32
0.0
 13
1.0
 23
0.0
 33
0.0
 40
0.0
 40
0.0
 40
0.0
 40
0.0
 40
1.0
 40
1.0
 40
1.0
 40
2.0
 40
2.0
 40
2.0
 40
3.0
 40
3.0
 40
3.0
 40
4.0
 40
4.0
 40
4.0
 40
4.0
 10
83.61901310843552
 20
-122.3243163756689
 30
0.0
 10
83.61901310843552
 20
-122.5739135435753
 30
0.0
 10
83.90254446687159
 20
-122.6204223326261
 30
0.0
 10
84.2473985249451
 20
-122.6204223326261
 30
0.0
 10
84.56675887642776
 20
-122.6204223326261
 30
0.0
 10
84.87543943190614
 20
-122.5844210848053
 30
0.0
 10
84.87543943190614
 20
-122.3243163756689
 30
0.0
 10
84.87543943190614
 20
-122.0767862650537
 30
0.0
 10
84.59431964030976
 20
-122.0280381639374
 30
0.0
 10
84.2473985249451
 20
-122.0280381639374
 30
0.0
 10
83.92769366391391
 20
-122.0280381639374
 30
0.0
 10
83.61901310843552
 20
-122.0662787238237
 30
0.0
 10
83.61901310843552
 20
-122.3243163756689
 30
0.0
  0
HATCH
  5
B2
330
97
100
AcDbEntity
  8
_U+30EC_U+30A4_U+30E4_U+30FC 1
 62
   179
420
  2234388
100
AcDbHatch
 10
0.0
 20
0.0
 30
0.0
210
0.0
220
0.0
230
1.0
  2
SOLID
 70
     1
 71
     0
 91
        2
 92
        1
 93
        1
 72
     4
 94
        3
 73
     0
 74
     1
 95
       29
 96
       25
 40
0.0
 40
0.0
 40
0.0
 40
0.0
 40
1.0
 40
1.0
 40
1.0
 40
2.0
 40
2.0
 40
2.0
 40
3.0
 40
3.0
 40
3.0
 40
4.0
 40
4.0
 40
4.0
 40
5.0
 40
5.0
 40
5.0
 40
6.0
 40
6.0
 40
6.0
 40
7.0
 40
7.0
 40
7.0
 40
8.0
 40
8.0
 40
8.0
 40
8.0
 10
84.8416774961507
 20
-121.9265801018968
 10
85.05113930165389
 20
-122.0344115905852
 10
85.07008732682276
 20
-122.2078721482675
 10
85.07008732682276
 20
-122.3243163756689
 10
85.07008732682276
 20
-122.4850300800558
 10
85.02357853777188
 20
-122.6267957592739
 10
84.8416774961507
 20
-122.722052649441
 10
84.64702960123408
 20
-122.8255777687728
 10
84.41035154139742
 20
-122.8446980487159
 10
84.2473985249451
 20
-122.8446980487159
 10
84.10339353366166
 20
-122.8446980487159
 10
83.85155705368989
 20
-122.8278170808382
 10
83.65277504419097
 20
-122.722052649441
 10
83.44985892010976
 20
-122.6140489059784
 10
83.42643227081007
 20
-122.4533352015915
 10
83.42643227081007
 20
-122.3243163756689
 10
83.42643227081007
 20
-122.1656697285732
 10
83.47087400256979
 20
-122.021836992064
 10
83.65277504419097
 20
-121.9265801018968
 10
83.84535588181645
 20
-121.8271890971474
 10
84.07376571248851
 20
-121.8039347026219
 10
84.2473985249451
 20
-121.8039347026219
 10
84.41861977056202
 20
-121.8039347026219
 10
84.64909665852522
 20
-121.824949785082
 10
84.8416774961507
 20
-121.9265801018968
 97
        0
 97
        0
 92
        1
 93
        1
 72
     4
 94
        3
 73
     0
 74
     1
 95
       17
 96
       13
 40
0.0
 40
0.0
 40
0.0
 40
0.0
 40
1.0
 40
1.0
 40
1.0
 40
2.0
 40
2.0
 40
2.0
 40
3.0
 40
3.0
 40
3.0
 40
4.0
 40
4.0
 40
4.0
 40
4.0
 10
83.61901310843552
 20
-122.3243163756689
 10
83.61901310843552
 20
-122.5739135435753
 10
83.90254446687159
 20
-122.6204223326261
 10
84.2473985249451
 20
-122.6204223326261
 10
84.56675887642776
 20
-122.6204223326261
 10
84.87543943190614
 20
-122.5844210848053
 10
84.87543943190614
 20
-122.3243163756689
 10
84.87543943190614
 20
-122.0767862650537
 10
84.59431964030976
 20
-122.0280381639374
 10
84.2473985249451
 20
-122.0280381639374
 10
83.92769366391391
 20
-122.0280381639374
 10
83.61901310843552
 20
-122.0662787238237
 10
83.61901310843552
 20
-122.3243163756689
 97
        0
 97
        0
 75
     2
 76
     1
 98
        0
  0
ENDBLK
  5
9A
330
97
100
AcDbEntity
  8
0
100
AcDbBlockEnd
  0
BLOCK
  5
B5
330
B3
100
AcDbEntity
  8
0
100
AcDbBlockBegin
  2
block 4
 70
     0
 10
0.0
 20
0.0
 30
0.0
  3
block 4
  1

  0
SPLINE
  5
B7
330
B3
100
AcDbEntity
  8
_U+30EC_U+30A4_U+30E4_U+30FC 1
370
     0
100
AcDbSpline
210
0.0
220
0.0
230
1.0
 70
    11
 71
     3
 72
    26
 73
    22
 74
     0
 42
0.0000000001
 43
0.0000000001
 12
1.0
 22
0.0
 32
0.0
 13
1.0
 23
0.0
 33
0.0
 40
0.0
 40
0.0
 40
0.0
 40
0.0
 40
1.0
 40
1.0
 40
1.0
 40
2.0
 40
2.0
 40
2.0
 40
3.0
 40
3.0
 40
3.0
 40
4.0
 40
4.0
 40
4.0
 40
5.0
 40
5.0
 40
5.0
 40
6.0
 40
6.0
 40
6.0
 40
7.0
 40
7.0
 40
7.0
 40
7.0
 10
85.23993053424557
 20
-137.5585286114437
 30
0.0
 10
85.23993053424557
 20
-137.5585286114437
 30
0.0
 10
84.135777431223
 20
-137.5585286114437
 30
0.0
 10
84.135777431223
 20
-137.5585286114437
 30
0.0
 10
84.135777431223
 20
-137.5585286114437
 30
0.0
 10
84.135777431223
 20
-137.8885687589306
 30
0.0
 10
84.135777431223
 20
-137.8885687589306
 30
0.0
 10
84.135777431223
 20
-137.8885687589306
 30
0.0
 10
83.98763832535727
 20
-137.8885687589306
 30
0.0
 10
83.98763832535727
 20
-137.8885687589306
 30
0.0
 10
83.97282441477068
 20
-137.5564615541525
 30
0.0
 10
83.80987139831836
 20
-137.5099527651017
 30
0.0
 10
83.69549422820808
 20
-137.4803249439285
 30
0.0
 10
83.69549422820808
 20
-137.4803249439285
 30
0.0
 10
83.69549422820808
 20
-137.334252895354
 30
0.0
 10
83.69549422820808
 20
-137.334252895354
 30
0.0
 10
83.69549422820808
 20
-137.334252895354
 30
0.0
 10
85.23993053424557
 20
-137.334252895354
 30
0.0
 10
85.23993053424557
 20
-137.334252895354
 30
0.0
 10
85.23993053424557
 20
-137.334252895354
 30
0.0
 10
85.23993053424557
 20
-137.5585286114437
 30
0.0
 10
85.23993053424557
 20
-137.5585286114437
 30
0.0
  0
HATCH
  5
B8
330
B3
100
AcDbEntity
  8
_U+30EC_U+30A4_U+30E4_U+30FC 1
 62
   179
420
  2234388
100
AcDbHatch
 10
0.0
 20
0.0
 30
0.0
210
0.0
220
0.0
230
1.0
  2
SOLID
 70
     1
 71
     0
 91
        1
 92
        1
 93
        1
 72
     4
 94
        3
 73
     0
 74
     1
 95
       26
 96
       22
 40
0.0
 40
0.0
 40
0.0
 40
0.0
 40
1.0
 40
1.0
 40
1.0
 40
2.0
 40
2.0
 40
2.0
 40
3.0
 40
3.0
 40
3.0
 40
4.0
 40
4.0
 40
4.0
 40
5.0
 40
5.0
 40
5.0
 40
6.0
 40
6.0
 40
6.0
 40
7.0
 40
7.0
 40
7.0
 40
7.0
 10
85.23993053424557
 20
-137.5585286114437
 10
85.23993053424557
 20
-137.5585286114437
 10
84.135777431223
 20
-137.5585286114437
 10
84.135777431223
 20
-137.5585286114437
 10
84.135777431223
 20
-137.5585286114437
 10
84.135777431223
 20
-137.8885687589306
 10
84.135777431223
 20
-137.8885687589306
 10
84.135777431223
 20
-137.8885687589306
 10
83.98763832535727
 20
-137.8885687589306
 10
83.98763832535727
 20
-137.8885687589306
 10
83.97282441477068
 20
-137.5564615541525
 10
83.80987139831836
 20
-137.5099527651017
 10
83.69549422820808
 20
-137.4803249439285
 10
83.69549422820808
 20
-137.4803249439285
 10
83.69549422820808
 20
-137.334252895354
 10
83.69549422820808
 20
-137.334252895354
 10
83.69549422820808
 20
-137.334252895354
 10
85.23993053424557
 20
-137.334252895354
 10
85.23993053424557
 20
-137.334252895354
 10
85.23993053424557
 20
-137.334252895354
 10
85.23993053424557
 20
-137.5585286114437
 10
85.23993053424557
 20
-137.5585286114437
 97
        0
 97
        0
 75
     2
 76
     1
 98
        0
  0
POLYLINE
  5
B9
330
B3
100
AcDbEntity
  8
_U+30EC_U+30A4_U+30E4_U+30FC 1
370
     0
100
AcDb2dPolyline
 66
     1
 10
0.0
 20
0.0
 30
0.0
  0
VERTEX
  5
BA
330
B9
100
AcDbEntity
  8
_U+30EC_U+30A4_U+30E4_U+30FC 1
370
     0
100
AcDbVertex
100
AcDb2dVertex
 10
84.89300941888092
 20
-136.0010009425623
 30
0.0
  0
VERTEX
  5
BB
330
B9
100
AcDbEntity
  8
_U+30EC_U+30A4_U+30E4_U+30FC 1
370
     0
100
AcDbVertex
100
AcDb2dVertex
 10
85.23993053424557
 20
-136.0010009425623
 30
0.0
  0
VERTEX
  5
BC
330
B9
100
AcDbEntity
  8
_U+30EC_U+30A4_U+30E4_U+30FC 1
370
     0
100
AcDbVertex
100
AcDb2dVertex
 10
85.23993053424557
 20
-136.2190754867786
 30
0.0
  0
VERTEX
  5
BD
330
B9
100
AcDbEntity
  8
_U+30EC_U+30A4_U+30E4_U+30FC 1
370
     0
100
AcDbVertex
100
AcDb2dVertex
 10
84.89300941888092
 20
-136.2190754867786
 30
0.0
  0
VERTEX
  5
BE
330
B9
100
AcDbEntity
  8
_U+30EC_U+30A4_U+30E4_U+30FC 1
370
     0
100
AcDbVertex
100
AcDb2dVertex
 10
84.89300941888092
 20
-136.8746771576216
 30
0.0
  0
VERTEX
  5
BF
330
B9
100
AcDbEntity
  8
_U+30EC_U+30A4_U+30E4_U+30FC 1
370
     0
100
AcDbVertex
100
AcDb2dVertex
 10
84.66873370279116
 20
-136.8746771576216
 30
0.0
  0
VERTEX
  5
C0
330
B9
100
AcDbEntity
  8
_U+30EC_U+30A4_U+30E4_U+30FC 1
370
     0
100
AcDbVertex
100
AcDb2dVertex
 10
83.69549422820808
 20
-136.1956488374789
 30
0.0
  0
VERTEX
  5
C1
330
B9
100
AcDbEntity
  8
_U+30EC_U+30A4_U+30E4_U+30FC 1
370
     0
100
AcDbVertex
100
AcDb2dVertex
 10
83.69549422820808
 20
-136.0010009425623
 30
0.0
  0
VERTEX
  5
C2
330
B9
100
AcDbEntity
  8
_U+30EC_U+30A4_U+30E4_U+30FC 1
370
     0
100
AcDbVertex
100
AcDb2dVertex
 10
84.69422740938201
 20
-136.0010009425623
 30
0.0
  0
VERTEX
  5
C3
330
B9
100
AcDbEntity
  8
_U+30EC_U+30A4_U+30E4_U+30FC 1
370
     0
100
AcDbVertex
100
AcDb2dVertex
 10
84.69422740938201
 20
-135.7936061943502
 30
0.0
  0
VERTEX
  5
C4
330
B9
100
AcDbEntity
  8
_U+30EC_U+30A4_U+30E4_U+30FC 1
370
     0
100
AcDbVertex
100
AcDb2dVertex
 10
84.89300941888092
 20
-135.7936061943502
 30
0.0
  0
VERTEX
  5
C5
330
B9
100
AcDbEntity
  8
_U+30EC_U+30A4_U+30E4_U+30FC 1
370
     0
100
AcDbVertex
100
AcDb2dVertex
 10
84.89300941888092
 20
-136.0010009425623
 30
0.0
  0
SEQEND
  5
C6
330
B9
100
AcDbEntity
  8
_U+30EC_U+30A4_U+30E4_U+30FC 1
370
     0
  0
POLYLINE
  5
C7
330
B3
100
AcDbEntity
  8
_U+30EC_U+30A4_U+30E4_U+30FC 1
370
     0
100
AcDb2dPolyline
 66
     1
 10
0.0
 20
0.0
 30
0.0
  0
VERTEX
  5
C8
330
C7
100
AcDbEntity
  8
_U+30EC_U+30A4_U+30E4_U+30FC 1
370
     0
100
AcDbVertex
100
AcDb2dVertex
 10
84.03828122899043
 20
-136.2190754867786
 30
0.0
  0
VERTEX
  5
C9
330
C7
100
AcDbEntity
  8
_U+30EC_U+30A4_U+30E4_U+30FC 1
370
     0
100
AcDbVertex
100
AcDb2dVertex
 10
84.69422740938201
 20
-136.6758951481227
 30
0.0
  0
VERTEX
  5
CA
330
C7
100
AcDbEntity
  8
_U+30EC_U+30A4_U+30E4_U+30FC 1
370
     0
100
AcDbVertex
100
AcDb2dVertex
 10
84.69422740938201
 20
-136.2190754867786
 30
0.0
  0
VERTEX
  5
CB
330
C7
100
AcDbEntity
  8
_U+30EC_U+30A4_U+30E4_U+30FC 1
370
     0
100
AcDbVertex
100
AcDb2dVertex
 10
84.03828122899043
 20
-136.2190754867786
 30
0.0
  0
SEQEND
  5
CC
330
C7
100
AcDbEntity
  8
_U+30EC_U+30A4_U+30E4_U+30FC 1
370
     0
  0
HATCH
  5
CD
330
B3
100
AcDbEntity
  8
_U+30EC_U+30A4_U+30E4_U+30FC 1
 62
   179
420
  2234388
100
AcDbHatch
 10
0.0
 20
0.0
 30
0.0
210
0.0
220
0.0
230
1.0
  2
SOLID
 70
     1
 71
     0
 91
        2
 92
        1
 93
       11
 72
     1
 10
84.89300941888092
 20
-136.0010009425623
 11
85.23993053424557
 21
-136.0010009425623
 72
     1
 10
85.23993053424557
 20
-136.0010009425623
 11
85.23993053424557
 21
-136.2190754867786
 72
     1
 10
85.23993053424557
 20
-136.2190754867786
 11
84.89300941888092
 21
-136.2190754867786
 72
     1
 10
84.89300941888092
 20
-136.2190754867786
 11
84.89300941888092
 21
-136.8746771576216
 72
     1
 10
84.89300941888092
 20
-136.8746771576216
 11
84.66873370279116
 21
-136.8746771576216
 72
     1
 10
84.66873370279116
 20
-136.8746771576216
 11
83.69549422820808
 21
-136.1956488374789
 72
     1
 10
83.69549422820808
 20
-136.1956488374789
 11
83.69549422820808
 21
-136.0010009425623
 72
     1
 10
83.69549422820808
 20
-136.0010009425623
 11
84.69422740938201
 21
-136.0010009425623
 72
     1
 10
84.69422740938201
 20
-136.0010009425623
 11
84.69422740938201
 21
-135.7936061943502
 72
     1
 10
84.69422740938201
 20
-135.7936061943502
 11
84.89300941888092
 21
-135.7936061943502
 72
     1
 10
84.89300941888092
 20
-135.7936061943502
 11
84.89300941888092
 21
-136.0010009425623
 97
        0
 92
        1
 93
        3
 72
     1
 10
84.03828122899043
 20
-136.2190754867786
 11
84.69422740938201
 21
-136.6758951481227
 72
     1
 10
84.69422740938201
 20
-136.6758951481227
 11
84.69422740938201
 21
-136.2190754867786
 72
     1
 10
84.69422740938201
 20
-136.2190754867786
 11
84.03828122899043
 21
-136.2190754867786
 97
        0
 75
     2
 76
     1
 98
        0
  0
POLYLINE
  5
CE
330
B3
100
AcDbEntity
  8
_U+30EC_U+30A4_U+30E4_U+30FC 1
370
     0
100
AcDb2dPolyline
 66
     1
 10
0.0
 20
0.0
 30
0.0
  0
VERTEX
  5
CF
330
CE
100
AcDbEntity
  8
_U+30EC_U+30A4_U+30E4_U+30FC 1
370
     0
100
AcDbVertex
100
AcDb2dVertex
 10
85.23993053424557
 20
-135.5962022230454
 30
0.0
  0
VERTEX
  5
D0
330
CE
100
AcDbEntity
  8
_U+30EC_U+30A4_U+30E4_U+30FC 1
370
     0
100
AcDbVertex
100
AcDb2dVertex
 10
84.98809405427382
 20
-135.5962022230454
 30
0.0
  0
VERTEX
  5
D1
330
CE
100
AcDbEntity
  8
_U+30EC_U+30A4_U+30E4_U+30FC 1
370
     0
100
AcDbVertex
100
AcDb2dVertex
 10
84.98809405427382
 20
-135.3447102526221
 30
0.0
  0
VERTEX
  5
D2
330
CE
100
AcDbEntity
  8
_U+30EC_U+30A4_U+30E4_U+30FC 1
370
     0
100
AcDbVertex
100
AcDb2dVertex
 10
85.23993053424557
 20
-135.3447102526221
 30
0.0
  0
VERTEX
  5
D3
330
CE
100
AcDbEntity
  8
_U+30EC_U+30A4_U+30E4_U+30FC 1
370
     0
100
AcDbVertex
100
AcDb2dVertex
 10
85.23993053424557
 20
-135.5962022230454
 30
0.0
  0
SEQEND
  5
D4
330
CE
100
AcDbEntity
  8
_U+30EC_U+30A4_U+30E4_U+30FC 1
370
     0
  0
HATCH
  5
D5
330
B3
100
AcDbEntity
  8
_U+30EC_U+30A4_U+30E4_U+30FC 1
 62
   179
420
  2234388
100
AcDbHatch
 10
0.0
 20
0.0
 30
0.0
210
0.0
220
0.0
230
1.0
  2
SOLID
 70
     1
 71
     0
 91
        1
 92
        1
 93
        4
 72
     1
 10
85.23993053424557
 20
-135.5962022230454
 11
84.98809405427382
 21
-135.5962022230454
 72
     1
 10
84.98809405427382
 20
-135.5962022230454
 11
84.98809405427382
 21
-135.3447102526221
 72
     1
 10
84.98809405427382
 20
-135.3447102526221
 11
85.23993053424557
 21
-135.3447102526221
 72
     1
 10
85.23993053424557
 20
-135.3447102526221
 11
85.23993053424557
 21
-135.5962022230454
 97
        0
 75
     2
 76
     1
 98
        0
  0
SPLINE
  5
D6
330
B3
100
AcDbEntity
  8
_U+30EC_U+30A4_U+30E4_U+30FC 1
370
     0
100
AcDbSpline
210
0.0
220
0.0
230
1.0
 70
    11
 71
     3
 72
    53
 73
    49
 74
     0
 42
0.0000000001
 43
0.0000000001
 12
1.0
 22
0.0
 32
0.0
 13
1.0
 23
0.0
 33
0.0
 40
0.0
 40
0.0
 40
0.0
 40
0.0
 40
1.0
 40
1.0
 40
1.0
 40
2.0
 40
2.0
 40
2.0
 40
3.0
 40
3.0
 40
3.0
 40
4.0
 40
4.0
 40
4.0
 40
5.0
 40
5.0
 40
5.0
 40
6.0
 40
6.0
 40
6.0
 40
7.0
 40
7.0
 40
7.0
 40
8.0
 40
8.0
 40
8.0
 40
9.0
 40
9.0
 40
9.0
 40
10.0
 40
10.0
 40
10.0
 40
11.0
 40
11.0
 40
11.0
 40
12.0
 40
12.0
 40
12.0
 40
13.0
 40
13.0
 40
13.0
 40
14.0
 40
14.0
 40
14.0
 40
15.0
 40
15.0
 40
15.0
 40
16.0
 40
16.0
 40
16.0
 40
16.0
 10
85.29057343787875
 20
-134.6267523534961
 30
0.0
 10
85.29057343787875
 20
-134.7053005305598
 30
0.0
 10
85.27369247000102
 20
-134.8065863378261
 30
0.0
 10
85.21030271307242
 20
-134.9085611641895
 30
0.0
 10
85.10040416709296
 20
-135.0818494670976
 30
0.0
 10
84.96914602910493
 20
-135.1028645495576
 30
0.0
 10
84.86131454041661
 20
-135.122157084275
 30
0.0
 10
84.86131454041661
 20
-135.122157084275
 30
0.0
 10
84.86131454041661
 20
-134.8999484254764
 30
0.0
 10
84.86131454041661
 20
-134.8999484254764
 30
0.0
 10
85.06009654991554
 20
-134.8448268977124
 30
0.0
 10
85.08972437108868
 20
-134.7177028743067
 30
0.0
 10
85.08972437108868
 20
-134.6246852962049
 30
0.0
 10
85.08972437108868
 20
-134.4851589290523
 30
0.0
 10
84.99016111156496
 20
-134.3328857086043
 30
0.0
 10
84.7576171663106
 20
-134.3328857086043
 30
0.0
 10
84.50164657175654
 20
-134.3328857086043
 30
0.0
 10
84.43171113340597
 20
-134.5127196929343
 30
0.0
 10
84.43171113340597
 20
-134.6332980349181
 30
0.0
 10
84.43171113340597
 20
-134.6649929133824
 30
0.0
 10
84.43171113340597
 20
-134.8065863378261
 30
0.0
 10
84.56090221410284
 20
-134.8954698013456
 30
0.0
 10
84.56090221410284
 20
-134.8954698013456
 30
0.0
 10
84.54195418893396
 20
-135.0711696710933
 30
0.0
 10
84.54195418893396
 20
-135.0711696710933
 30
0.0
 10
84.54195418893396
 20
-135.0711696710933
 30
0.0
 10
83.69549422820808
 20
-134.9505913291096
 30
0.0
 10
83.69549422820808
 20
-134.9505913291096
 30
0.0
 10
83.69549422820808
 20
-134.9505913291096
 30
0.0
 10
83.69549422820808
 20
-134.1719997494431
 30
0.0
 10
83.69549422820808
 20
-134.1719997494431
 30
0.0
 10
83.69549422820808
 20
-134.1719997494431
 30
0.0
 10
83.89014212312469
 20
-134.1719997494431
 30
0.0
 10
83.89014212312469
 20
-134.1719997494431
 30
0.0
 10
83.89014212312469
 20
-134.1719997494431
 30
0.0
 10
83.89014212312469
 20
-134.7879828222058
 30
0.0
 10
83.89014212312469
 20
-134.7879828222058
 30
0.0
 10
83.89014212312469
 20
-134.7879828222058
 30
0.0
 10
84.31319984871337
 20
-134.8534396364255
 30
0.0
 10
84.31319984871337
 20
-134.8534396364255
 30
0.0
 10
84.27943791295792
 20
-134.7921169367881
 30
0.0
 10
84.2391302957805
 20
-134.7094346451421
 30
0.0
 10
84.2391302957805
 20
-134.5909233604495
 30
0.0
 10
84.2391302957805
 20
-134.3373643327351
 30
0.0
 10
84.42550996153251
 20
-134.1003417633499
 30
0.0
 10
84.73866914114173
 20
-134.1003417633499
 30
0.0
 10
85.05596243533324
 20
-134.1003417633499
 30
0.0
 10
85.29057343787875
 20
-134.3242729698912
 30
0.0
 10
85.29057343787875
 20
-134.6267523534961
 30
0.0
  0
HATCH
  5
D7
330
B3
100
AcDbEntity
  8
_U+30EC_U+30A4_U+30E4_U+30FC 1
 62
   179
420
  2234388
100
AcDbHatch
 10
0.0
 20
0.0
 30
0.0
210
0.0
220
0.0
230
1.0
  2
SOLID
 70
     1
 71
     0
 91
        1
 92
        1
 93
        1
 72
     4
 94
        3
 73
     0
 74
     1
 95
       53
 96
       49
 40
0.0
 40
0.0
 40
0.0
 40
0.0
 40
1.0
 40
1.0
 40
1.0
 40
2.0
 40
2.0
 40
2.0
 40
3.0
 40
3.0
 40
3.0
 40
4.0
 40
4.0
 40
4.0
 40
5.0
 40
5.0
 40
5.0
 40
6.0
 40
6.0
 40
6.0
 40
7.0
 40
7.0
 40
7.0
 40
8.0
 40
8.0
 40
8.0
 40
9.0
 40
9.0
 40
9.0
 40
10.0
 40
10.0
 40
10.0
 40
11.0
 40
11.0
 40
11.0
 40
12.0
 40
12.0
 40
12.0
 40
13.0
 40
13.0
 40
13.0
 40
14.0
 40
14.0
 40
14.0
 40
15.0
 40
15.0
 40
15.0
 40
16.0
 40
16.0
 40
16.0
 40
16.0
 10
85.29057343787875
 20
-134.6267523534961
 10
85.29057343787875
 20
-134.7053005305598
 10
85.27369247000102
 20
-134.8065863378261
 10
85.21030271307242
 20
-134.9085611641895
 10
85.10040416709296
 20
-135.0818494670976
 10
84.96914602910493
 20
-135.1028645495576
 10
84.86131454041661
 20
-135.122157084275
 10
84.86131454041661
 20
-135.122157084275
 10
84.86131454041661
 20
-134.8999484254764
 10
84.86131454041661
 20
-134.8999484254764
 10
85.06009654991554
 20
-134.8448268977124
 10
85.08972437108868
 20
-134.7177028743067
 10
85.08972437108868
 20
-134.6246852962049
 10
85.08972437108868
 20
-134.4851589290523
 10
84.99016111156496
 20
-134.3328857086043
 10
84.7576171663106
 20
-134.3328857086043
 10
84.50164657175654
 20
-134.3328857086043
 10
84.43171113340597
 20
-134.5127196929343
 10
84.43171113340597
 20
-134.6332980349181
 10
84.43171113340597
 20
-134.6649929133824
 10
84.43171113340597
 20
-134.8065863378261
 10
84.56090221410284
 20
-134.8954698013456
 10
84.56090221410284
 20
-134.8954698013456
 10
84.54195418893396
 20
-135.0711696710933
 10
84.54195418893396
 20
-135.0711696710933
 10
84.54195418893396
 20
-135.0711696710933
 10
83.69549422820808
 20
-134.9505913291096
 10
83.69549422820808
 20
-134.9505913291096
 10
83.69549422820808
 20
-134.9505913291096
 10
83.69549422820808
 20
-134.1719997494431
 10
83.69549422820808
 20
-134.1719997494431
 10
83.69549422820808
 20
-134.1719997494431
 10
83.89014212312469
 20
-134.1719997494431
 10
83.89014212312469
 20
-134.1719997494431
 10
83.89014212312469
 20
-134.1719997494431
 10
83.89014212312469
 20
-134.7879828222058
 10
83.89014212312469
 20
-134.7879828222058
 10
83.89014212312469
 20
-134.7879828222058
 10
84.31319984871337
 20
-134.8534396364255
 10
84.31319984871337
 20
-134.8534396364255
 10
84.27943791295792
 20
-134.7921169367881
 10
84.2391302957805
 20
-134.7094346451421
 10
84.2391302957805
 20
-134.5909233604495
 10
84.2391302957805
 20
-134.3373643327351
 10
84.42550996153251
 20
-134.1003417633499
 10
84.73866914114173
 20
-134.1003417633499
 10
85.05596243533324
 20
-134.1003417633499
 10
85.29057343787875
 20
-134.3242729698912
 10
85.29057343787875
 20
-134.6267523534961
 97
        0
 97
        0
 75
     2
 76
     1
 98
        0
  0
ENDBLK
  5
B6
330
B3
100
AcDbEntity
  8
0
100
AcDbBlockEnd
  0
BLOCK
  5
DA
330
D8
100
AcDbEntity
  8
0
100
AcDbBlockBegin
  2
block 5
 70
     0
 10
0.0
 20
0.0
 30
0.0
  3
block 5
  1

  0
SPLINE
  5
DC
330
D8
100
AcDbEntity
  8
_U+30EC_U+30A4_U+30E4_U+30FC 1
370
     0
100
AcDbSpline
210
0.0
220
0.0
230
1.0
 70
    11
 71
     3
 72
    32
 73
    28
 74
     0
 42
0.0000000001
 43
0.0000000001
 12
1.0
 22
0.0
 32
0.0
 13
1.0
 23
0.0
 33
0.0
 40
0.0
 40
0.0
 40
0.0
 40
0.0
 40
1.0
 40
1.0
 40
1.0
 40
2.0
 40
2.0
 40
2.0
 40
3.0
 40
3.0
 40
3.0
 40
4.0
 40
4.0
 40
4.0
 40
5.0
 40
5.0
 40
5.0
 40
6.0
 40
6.0
 40
6.0
 40
7.0
 40
7.0
 40
7.0
 40
8.0
 40
8.0
 40
8.0
 40
9.0
 40
9.0
 40
9.0
 40
9.0
 10
85.33467066008994
 20
-140.9154296522711
 30
0.0
 10
85.33467066008994
 20
-141.4318494655101
 30
0.0
 10
84.78069930606178
 20
-141.4404622042232
 30
0.0
 10
84.56675887642776
 20
-141.4404622042232
 30
0.0
 10
84.33628198846455
 20
-141.4404622042232
 30
0.0
 10
83.6889485467861
 20
-141.4211696695058
 30
0.0
 10
83.6889485467861
 20
-140.8775336019334
 30
0.0
 10
83.6889485467861
 20
-140.7039007894768
 30
0.0
 10
83.75888398513668
 20
-140.458609990927
 30
0.0
 10
84.09099118991476
 20
-140.4207139405893
 30
0.0
 10
84.09099118991476
 20
-140.4207139405893
 30
0.0
 10
84.09099118991476
 20
-140.6343098606748
 30
0.0
 10
84.09099118991476
 20
-140.6343098606748
 30
0.0
 10
84.0338026048596
 20
-140.6446451471305
 30
0.0
 10
83.88566349899386
 20
-140.6763400255948
 30
0.0
 10
83.88566349899386
 20
-140.8796006592246
 30
0.0
 10
83.88566349899386
 20
-141.1717447563737
 30
0.0
 10
84.21363658918965
 20
-141.2117078640026
 30
0.0
 10
84.41861977056202
 20
-141.2244547172981
 30
0.0
 10
84.34041610304685
 20
-141.1314371391963
 30
0.0
 10
84.28116046070055
 20
-141.0635687581369
 30
0.0
 10
84.28116046070055
 20
-140.8816677165157
 30
0.0
 10
84.28116046070055
 20
-140.7018337321857
 30
0.0
 10
84.3893364589374
 20
-140.3993543485807
 30
0.0
 10
84.79551321664835
 20
-140.3993543485807
 30
0.0
 10
85.114873568131
 20
-140.3993543485807
 30
0.0
 10
85.33467066008994
 20
-140.5984808676282
 30
0.0
 10
85.33467066008994
 20
-140.9154296522711
 30
0.0
  0
SPLINE
  5
DD
330
D8
100
AcDbEntity
  8
_U+30EC_U+30A4_U+30E4_U+30FC 1
370
     0
100
AcDbSpline
210
0.0
220
0.0
230
1.0
 70
    11
 71
     3
 72
    17
 73
    13
 74
     0
 42
0.0000000001
 43
0.0000000001
 12
1.0
 22
0.0
 32
0.0
 13
1.0
 23
0.0
 33
0.0
 40
0.0
 40
0.0
 40
0.0
 40
0.0
 40
1.0
 40
1.0
 40
1.0
 40
2.0
 40
2.0
 40
2.0
 40
3.0
 40
3.0
 40
3.0
 40
4.0
 40
4.0
 40
4.0
 40
4.0
 10
84.47580835561716
 20
-140.8988931939419
 30
0.0
 10
84.47580835561716
 20
-141.1610649603695
 30
0.0
 10
84.6873372184115
 20
-141.1993055202557
 30
0.0
 10
84.80378144581294
 20
-141.1993055202557
 30
0.0
 10
84.97948131556069
 20
-141.1993055202557
 30
0.0
 10
85.14243433201301
 20
-141.1038763753143
 30
0.0
 10
85.14243433201301
 20
-140.919908276402
 30
0.0
 10
85.14243433201301
 20
-140.7993299344182
 30
0.0
 10
85.08317868966671
 20
-140.6236300646705
 30
0.0
 10
84.7975802739395
 20
-140.6236300646705
 30
0.0
 10
84.57330455784974
 20
-140.6236300646705
 30
0.0
 10
84.47580835561716
 20
-140.7631564318231
 30
0.0
 10
84.47580835561716
 20
-140.8988931939419
 30
0.0
  0
HATCH
  5
DE
330
D8
100
AcDbEntity
  8
_U+30EC_U+30A4_U+30E4_U+30FC 1
 62
   179
420
  2234388
100
AcDbHatch
 10
0.0
 20
0.0
 30
0.0
210
0.0
220
0.0
230
1.0
  2
SOLID
 70
     1
 71
     0
 91
        2
 92
        1
 93
        1
 72
     4
 94
        3
 73
     0
 74
     1
 95
       32
 96
       28
 40
0.0
 40
0.0
 40
0.0
 40
0.0
 40
1.0
 40
1.0
 40
1.0
 40
2.0
 40
2.0
 40
2.0
 40
3.0
 40
3.0
 40
3.0
 40
4.0
 40
4.0
 40
4.0
 40
5.0
 40
5.0
 40
5.0
 40
6.0
 40
6.0
 40
6.0
 40
7.0
 40
7.0
 40
7.0
 40
8.0
 40
8.0
 40
8.0
 40
9.0
 40
9.0
 40
9.0
 40
9.0
 10
85.33467066008994
 20
-140.9154296522711
 10
85.33467066008994
 20
-141.4318494655101
 10
84.78069930606178
 20
-141.4404622042232
 10
84.56675887642776
 20
-141.4404622042232
 10
84.33628198846455
 20
-141.4404622042232
 10
83.6889485467861
 20
-141.4211696695058
 10
83.6889485467861
 20
-140.8775336019334
 10
83.6889485467861
 20
-140.7039007894768
 10
83.75888398513668
 20
-140.458609990927
 10
84.09099118991476
 20
-140.4207139405893
 10
84.09099118991476
 20
-140.4207139405893
 10
84.09099118991476
 20
-140.6343098606748
 10
84.09099118991476
 20
-140.6343098606748
 10
84.0338026048596
 20
-140.6446451471305
 10
83.88566349899386
 20
-140.6763400255948
 10
83.88566349899386
 20
-140.8796006592246
 10
83.88566349899386
 20
-141.1717447563737
 10
84.21363658918965
 20
-141.2117078640026
 10
84.41861977056202
 20
-141.2244547172981
 10
84.34041610304685
 20
-141.1314371391963
 10
84.28116046070055
 20
-141.0635687581369
 10
84.28116046070055
 20
-140.8816677165157
 10
84.28116046070055
 20
-140.7018337321857
 10
84.3893364589374
 20
-140.3993543485807
 10
84.79551321664835
 20
-140.3993543485807
 10
85.114873568131
 20
-140.3993543485807
 10
85.33467066008994
 20
-140.5984808676282
 10
85.33467066008994
 20
-140.9154296522711
 97
        0
 97
        0
 92
        1
 93
        1
 72
     4
 94
        3
 73
     0
 74
     1
 95
       17
 96
       13
 40
0.0
 40
0.0
 40
0.0
 40
0.0
 40
1.0
 40
1.0
 40
1.0
 40
2.0
 40
2.0
 40
2.0
 40
3.0
 40
3.0
 40
3.0
 40
4.0
 40
4.0
 40
4.0
 40
4.0
 10
84.47580835561716
 20
-140.8988931939419
 10
84.47580835561716
 20
-141.1610649603695
 10
84.6873372184115
 20
-141.1993055202557
 10
84.80378144581294
 20
-141.1993055202557
 10
84.97948131556069
 20
-141.1993055202557
 10
85.14243433201301
 20
-141.1038763753143
 10
85.14243433201301
 20
-140.919908276402
 10
85.14243433201301
 20
-140.7993299344182
 10
85.08317868966671
 20
-140.6236300646705
 10
84.7975802739395
 20
-140.6236300646705
 10
84.57330455784974
 20
-140.6236300646705
 10
84.47580835561716
 20
-140.7631564318231
 10
84.47580835561716
 20
-140.8988931939419
 97
        0
 97
        0
 75
     2
 76
     1
 98
        0
  0
ENDBLK
  5
DB
330
D8
100
AcDbEntity
  8
0
100
AcDbBlockEnd
  0
BLOCK
  5
E1
330
DF
100
AcDbEntity
  8
0
100
AcDbBlockBegin
  2
block 6
 70
     0
 10
0.0
 20
0.0
 30
0.0
  3
block 6
  1

  0
SPLINE
  5
E3
330
DF
100
AcDbEntity
  8
_U+30EC_U+30A4_U+30E4_U+30FC 1
370
     0
100
AcDbSpline
210
0.0
220
0.0
230
1.0
 70
    11
 71
     3
 72
    44
 73
    40
 74
     0
 42
0.0000000001
 43
0.0000000001
 12
1.0
 22
0.0
 32
0.0
 13
1.0
 23
0.0
 33
0.0
 40
0.0
 40
0.0
 40
0.0
 40
0.0
 40
1.0
 40
1.0
 40
1.0
 40
2.0
 40
2.0
 40
2.0
 40
3.0
 40
3.0
 40
3.0
 40
4.0
 40
4.0
 40
4.0
 40
5.0
 40
5.0
 40
5.0
 40
6.0
 40
6.0
 40
6.0
 40
7.0
 40
7.0
 40
7.0
 40
8.0
 40
8.0
 40
8.0
 40
9.0
 40
9.0
 40
9.0
 40
10.0
 40
10.0
 40
10.0
 40
11.0
 40
11.0
 40
11.0
 40
12.0
 40
12.0
 40
12.0
 40
13.0
 40
13.0
 40
13.0
 40
13.0
 10
93.46199541934284
 20
-147.0404649154968
 30
0.0
 10
93.24392087512652
 20
-147.1992838173668
 30
0.0
 10
93.15055878747626
 20
-147.2733533702997
 30
0.0
 10
93.10232745068275
 20
-147.4170138520346
 30
0.0
 10
93.10232745068275
 20
-147.4170138520346
 30
0.0
 10
93.88057452080069
 20
-147.4170138520346
 30
0.0
 10
93.88057452080069
 20
-147.4170138520346
 30
0.0
 10
93.88057452080069
 20
-147.4170138520346
 30
0.0
 10
93.88057452080069
 20
-147.6223415429555
 30
0.0
 10
93.88057452080069
 20
-147.6223415429555
 30
0.0
 10
93.88057452080069
 20
-147.6223415429555
 30
0.0
 10
92.85255802800214
 20
-147.6223415429555
 30
0.0
 10
92.85255802800214
 20
-147.6223415429555
 30
0.0
 10
92.88425290646644
 20
-147.2647406315866
 30
0.0
 10
92.94970972068619
 20
-147.1865369640714
 30
0.0
 10
93.33487139593711
 20
-146.8881916950488
 30
0.0
 10
93.59084199049119
 20
-146.6894096855499
 30
0.0
 10
93.65629880471093
 20
-146.6215413044904
 30
0.0
 10
93.65629880471093
 20
-146.484081994629
 30
0.0
 10
93.65629880471093
 20
-146.3655707099364
 30
0.0
 10
93.58464081861773
 20
-146.2346570814969
 30
0.0
 10
93.38758135686145
 20
-146.2346570814969
 30
0.0
 10
93.12747664772508
 20
-146.2346570814969
 30
0.0
 10
93.11886390901195
 20
-146.4651339694601
 30
0.0
 10
93.11472979442965
 20
-146.5815781968616
 30
0.0
 10
93.11472979442965
 20
-146.5815781968616
 30
0.0
 10
92.89079858788841
 20
-146.5815781968616
 30
0.0
 10
92.89079858788841
 20
-146.5815781968616
 30
0.0
 10
92.89906681705301
 20
-146.4544541734558
 30
0.0
 10
92.90940210350877
 20
-146.3424885701852
 30
0.0
 10
92.9900173378636
 20
-146.2239772854926
 30
0.0
 10
93.09991588384308
 20
-146.0630913263315
 30
0.0
 10
93.2862955495951
 20
-146.029329390576
 30
0.0
 10
93.40273977699654
 20
-146.029329390576
 30
0.0
 10
93.67972545401062
 20
-146.029329390576
 30
0.0
 10
93.88712020222268
 20
-146.2132974894884
 30
0.0
 10
93.88712020222268
 20
-146.4861490519201
 30
0.0
 10
93.88712020222268
 20
-146.7149033921407
 30
0.0
 10
93.77067597482123
 20
-146.8141221421159
 30
0.0
 10
93.46199541934284
 20
-147.0404649154968
 30
0.0
  0
HATCH
  5
E4
330
DF
100
AcDbEntity
  8
_U+30EC_U+30A4_U+30E4_U+30FC 1
 62
   179
420
  2234388
100
AcDbHatch
 10
0.0
 20
0.0
 30
0.0
210
0.0
220
0.0
230
1.0
  2
SOLID
 70
     1
 71
     0
 91
        1
 92
        1
 93
        1
 72
     4
 94
        3
 73
     0
 74
     1
 95
       44
 96
       40
 40
0.0
 40
0.0
 40
0.0
 40
0.0
 40
1.0
 40
1.0
 40
1.0
 40
2.0
 40
2.0
 40
2.0
 40
3.0
 40
3.0
 40
3.0
 40
4.0
 40
4.0
 40
4.0
 40
5.0
 40
5.0
 40
5.0
 40
6.0
 40
6.0
 40
6.0
 40
7.0
 40
7.0
 40
7.0
 40
8.0
 40
8.0
 40
8.0
 40
9.0
 40
9.0
 40
9.0
 40
10.0
 40
10.0
 40
10.0
 40
11.0
 40
11.0
 40
11.0
 40
12.0
 40
12.0
 40
12.0
 40
13.0
 40
13.0
 40
13.0
 40
13.0
 10
93.46199541934284
 20
-147.0404649154968
 10
93.24392087512652
 20
-147.1992838173668
 10
93.15055878747626
 20
-147.2733533702997
 10
93.10232745068275
 20
-147.4170138520346
 10
93.10232745068275
 20
-147.4170138520346
 10
93.88057452080069
 20
-147.4170138520346
 10
93.88057452080069
 20
-147.4170138520346
 10
93.88057452080069
 20
-147.4170138520346
 10
93.88057452080069
 20
-147.6223415429555
 10
93.88057452080069
 20
-147.6223415429555
 10
93.88057452080069
 20
-147.6223415429555
 10
92.85255802800214
 20
-147.6223415429555
 10
92.85255802800214
 20
-147.6223415429555
 10
92.88425290646644
 20
-147.2647406315866
 10
92.94970972068619
 20
-147.1865369640714
 10
93.33487139593711
 20
-146.8881916950488
 10
93.59084199049119
 20
-146.6894096855499
 10
93.65629880471093
 20
-146.6215413044904
 10
93.65629880471093
 20
-146.484081994629
 10
93.65629880471093
 20
-146.3655707099364
 10
93.58464081861773
 20
-146.2346570814969
 10
93.38758135686145
 20
-146.2346570814969
 10
93.12747664772508
 20
-146.2346570814969
 10
93.11886390901195
 20
-146.4651339694601
 10
93.11472979442965
 20
-146.5815781968616
 10
93.11472979442965
 20
-146.5815781968616
 10
92.89079858788841
 20
-146.5815781968616
 10
92.89079858788841
 20
-146.5815781968616
 10
92.89906681705301
 20
-146.4544541734558
 10
92.90940210350877
 20
-146.3424885701852
 10
92.9900173378636
 20
-146.2239772854926
 10
93.09991588384308
 20
-146.0630913263315
 10
93.2862955495951
 20
-146.029329390576
 10
93.40273977699654
 20
-146.029329390576
 10
93.67972545401062
 20
-146.029329390576
 10
93.88712020222268
 20
-146.2132974894884
 10
93.88712020222268
 20
-146.4861490519201
 10
93.88712020222268
 20
-146.7149033921407
 10
93.77067597482123
 20
-146.8141221421159
 10
93.46199541934284
 20
-147.0404649154968
 97
        0
 97
        0
 75
     2
 76
     1
 98
        0
  0
SPLINE
  5
E5
330
DF
100
AcDbEntity
  8
_U+30EC_U+30A4_U+30E4_U+30FC 1
370
     0
100
AcDbSpline
210
0.0
220
0.0
230
1.0
 70
    11
 71
     3
 72
    29
 73
    25
 74
     0
 42
0.0000000001
 43
0.0000000001
 12
1.0
 22
0.0
 32
0.0
 13
1.0
 23
0.0
 33
0.0
 40
0.0
 40
0.0
 40
0.0
 40
0.0
 40
1.0
 40
1.0
 40
1.0
 40
2.0
 40
2.0
 40
2.0
 40
3.0
 40
3.0
 40
3.0
 40
4.0
 40
4.0
 40
4.0
 40
5.0
 40
5.0
 40
5.0
 40
6.0
 40
6.0
 40
6.0
 40
7.0
 40
7.0
 40
7.0
 40
8.0
 40
8.0
 40
8.0
 40
8.0
 10
94.94338647800026
 20
-147.4445746159167
 30
0.0
 10
94.83521047976342
 20
-147.6540364214198
 30
0.0
 10
94.66192217685536
 20
-147.6729844465887
 30
0.0
 10
94.54547794945391
 20
-147.6729844465887
 30
0.0
 10
94.38459199029275
 20
-147.6729844465887
 30
0.0
 10
94.24299856584898
 20
-147.6264756575378
 30
0.0
 10
94.14756942090756
 20
-147.4445746159167
 30
0.0
 10
94.04421655635007
 20
-147.249926721
 30
0.0
 10
94.02492402163266
 20
-147.0132486611634
 30
0.0
 10
94.02492402163266
 20
-146.8502956447111
 30
0.0
 10
94.02492402163266
 20
-146.7062906534276
 30
0.0
 10
94.04214949905891
 20
-146.4544541734558
 30
0.0
 10
94.14756942090756
 20
-146.2556721639569
 30
0.0
 10
94.2557454191444
 20
-146.0527560398757
 30
0.0
 10
94.41628686875704
 20
-146.029329390576
 30
0.0
 10
94.54547794945391
 20
-146.029329390576
 30
0.0
 10
94.70429685132393
 20
-146.029329390576
 30
0.0
 10
94.84795733305884
 20
-146.0737711223357
 30
0.0
 10
94.94338647800026
 20
-146.2556721639569
 30
0.0
 10
95.04260522797546
 20
-146.4482530015824
 30
0.0
 10
95.06603187727517
 20
-146.6766628322545
 30
0.0
 10
95.06603187727517
 20
-146.8502956447111
 30
0.0
 10
95.06603187727517
 20
-147.021516890328
 30
0.0
 10
95.04467228526661
 20
-147.2519937782912
 30
0.0
 10
94.94338647800026
 20
-147.4445746159167
 30
0.0
  0
SPLINE
  5
E6
330
DF
100
AcDbEntity
  8
_U+30EC_U+30A4_U+30E4_U+30FC 1
370
     0
100
AcDbSpline
210
0.0
220
0.0
230
1.0
 70
    11
 71
     3
 72
    17
 73
    13
 74
     0
 42
0.0000000001
 43
0.0000000001
 12
1.0
 22
0.0
 32
0.0
 13
1.0
 23
0.0
 33
0.0
 40
0.0
 40
0.0
 40
0.0
 40
0.0
 40
1.0
 40
1.0
 40
1.0
 40
2.0
 40
2.0
 40
2.0
 40
3.0
 40
3.0
 40
3.0
 40
4.0
 40
4.0
 40
4.0
 40
4.0
 10
94.54547794945391
 20
-146.2219102282015
 30
0.0
 10
94.2957085267733
 20
-146.2219102282015
 30
0.0
 10
94.24954424727095
 20
-146.5054415866375
 30
0.0
 10
94.24954424727095
 20
-146.8502956447111
 30
0.0
 10
94.24954424727095
 20
-147.1696559961937
 30
0.0
 10
94.28537324031755
 20
-147.4783365516721
 30
0.0
 10
94.54547794945391
 20
-147.4783365516721
 30
0.0
 10
94.79318031484338
 20
-147.4783365516721
 30
0.0
 10
94.8417561611854
 20
-147.1972167600757
 30
0.0
 10
94.8417561611854
 20
-146.8502956447111
 30
0.0
 10
94.8417561611854
 20
-146.5305907836799
 30
0.0
 10
94.80351560129913
 20
-146.2219102282015
 30
0.0
 10
94.54547794945391
 20
-146.2219102282015
 30
0.0
  0
HATCH
  5
E7
330
DF
100
AcDbEntity
  8
_U+30EC_U+30A4_U+30E4_U+30FC 1
 62
   179
420
  2234388
100
AcDbHatch
 10
0.0
 20
0.0
 30
0.0
210
0.0
220
0.0
230
1.0
  2
SOLID
 70
     1
 71
     0
 91
        2
 92
        1
 93
        1
 72
     4
 94
        3
 73
     0
 74
     1
 95
       29
 96
       25
 40
0.0
 40
0.0
 40
0.0
 40
0.0
 40
1.0
 40
1.0
 40
1.0
 40
2.0
 40
2.0
 40
2.0
 40
3.0
 40
3.0
 40
3.0
 40
4.0
 40
4.0
 40
4.0
 40
5.0
 40
5.0
 40
5.0
 40
6.0
 40
6.0
 40
6.0
 40
7.0
 40
7.0
 40
7.0
 40
8.0
 40
8.0
 40
8.0
 40
8.0
 10
94.94338647800026
 20
-147.4445746159167
 10
94.83521047976342
 20
-147.6540364214198
 10
94.66192217685536
 20
-147.6729844465887
 10
94.54547794945391
 20
-147.6729844465887
 10
94.38459199029275
 20
-147.6729844465887
 10
94.24299856584898
 20
-147.6264756575378
 10
94.14756942090756
 20
-147.4445746159167
 10
94.04421655635007
 20
-147.249926721
 10
94.02492402163266
 20
-147.0132486611634
 10
94.02492402163266
 20
-146.8502956447111
 10
94.02492402163266
 20
-146.7062906534276
 10
94.04214949905891
 20
-146.4544541734558
 10
94.14756942090756
 20
-146.2556721639569
 10
94.2557454191444
 20
-146.0527560398757
 10
94.41628686875704
 20
-146.029329390576
 10
94.54547794945391
 20
-146.029329390576
 10
94.70429685132393
 20
-146.029329390576
 10
94.84795733305884
 20
-146.0737711223357
 10
94.94338647800026
 20
-146.2556721639569
 10
95.04260522797546
 20
-146.4482530015824
 10
95.06603187727517
 20
-146.6766628322545
 10
95.06603187727517
 20
-146.8502956447111
 10
95.06603187727517
 20
-147.021516890328
 10
95.04467228526661
 20
-147.2519937782912
 10
94.94338647800026
 20
-147.4445746159167
 97
        0
 97
        0
 92
        1
 93
        1
 72
     4
 94
        3
 73
     0
 74
     1
 95
       17
 96
       13
 40
0.0
 40
0.0
 40
0.0
 40
0.0
 40
1.0
 40
1.0
 40
1.0
 40
2.0
 40
2.0
 40
2.0
 40
3.0
 40
3.0
 40
3.0
 40
4.0
 40
4.0
 40
4.0
 40
4.0
 10
94.54547794945391
 20
-146.2219102282015
 10
94.2957085267733
 20
-146.2219102282015
 10
94.24954424727095
 20
-146.5054415866375
 10
94.24954424727095
 20
-146.8502956447111
 10
94.24954424727095
 20
-147.1696559961937
 10
94.28537324031755
 20
-147.4783365516721
 10
94.54547794945391
 20
-147.4783365516721
 10
94.79318031484338
 20
-147.4783365516721
 10
94.8417561611854
 20
-147.1972167600757
 10
94.8417561611854
 20
-146.8502956447111
 10
94.8417561611854
 20
-146.5305907836799
 10
94.80351560129913
 20
-146.2219102282015
 10
94.54547794945391
 20
-146.2219102282015
 97
        0
 97
        0
 75
     2
 76
     1
 98
        0
  0
ENDBLK
  5
E2
330
DF
100
AcDbEntity
  8
0
100
AcDbBlockEnd
  0
ENDSEC
  0
SECTION
  2
ENTITIES
  0
POLYLINE
  5
41
330
1F
100
AcDbEntity
  8
_U+30EC_U+30A4_U+30E4_U+30FC 1
 62
   179
420
  2234388
370
     9
100
AcDb2dPolyline
 66
     1
 10
0.0
 20
0.0
 30
0.0
  0
VERTEX
  5
42
330
41
100
AcDbEntity
  8
_U+30EC_U+30A4_U+30E4_U+30FC 1
 62
   179
420
  2234388
370
     9
100
AcDbVertex
100
AcDb2dVertex
 10
88.9440971999862
 20
-143.9770777417834
 30
0.0
  0
VERTEX
  5
43
330
41
100
AcDbEntity
  8
_U+30EC_U+30A4_U+30E4_U+30FC 1
 62
   179
420
  2234388
370
     9
100
AcDbVertex
100
AcDb2dVertex
 10
88.9440971999862
 20
-147.7694388519465
 30
0.0
  0
SEQEND
  5
44
330
41
100
AcDbEntity
  8
_U+30EC_U+30A4_U+30E4_U+30FC 1
 62
   179
420
  2234388
370
     9
  0
POLYLINE
  5
45
330
1F
100
AcDbEntity
  8
_U+30EC_U+30A4_U+30E4_U+30FC 1
 62
   179
420
  2234388
370
     9
100
AcDb2dPolyline
 66
     1
 10
0.0
 20
0.0
 30
0.0
  0
VERTEX
  5
46
330
45
100
AcDbEntity
  8
_U+30EC_U+30A4_U+30E4_U+30FC 1
 62
   179
420
  2234388
370
     9
100
AcDbVertex
100
AcDb2dVertex
 10
88.9440971999862
 20
-146.8874944077225
 30
0.0
  0
VERTEX
  5
47
330
45
100
AcDbEntity
  8
_U+30EC_U+30A4_U+30E4_U+30FC 1
 62
   179
420
  2234388
370
     9
100
AcDbVertex
100
AcDb2dVertex
 10
92.33958331024844
 20
-146.8874944077225
 30
0.0
  0
SEQEND
  5
48
330
45
100
AcDbEntity
  8
_U+30EC_U+30A4_U+30E4_U+30FC 1
 62
   179
420
  2234388
370
     9
  0
SPLINE
  5
49
330
1F
100
AcDbEntity
  8
_U+30EC_U+30A4_U+30E4_U+30FC 1
 62
   179
420
  2234388
370
     9
100
AcDbSpline
210
0.0
220
0.0
230
1.0
 70
    24
 71
     3
 72
     8
 73
     4
 74
     0
 42
0.0000000001
 43
0.0000000001
 12
1.0
 22
0.0
 32
0.0
 13
1.0
 23
0.0
 33
0.0
 40
0.0
 40
0.0
 40
0.0
 40
0.0
 40
1.0
 40
1.0
 40
1.0
 40
1.0
 10
95.5145833094547
 20
-146.8874944077225
 30
0.0
 10
95.82326386493308
 20
-146.8874944077225
 30
0.0
 10
98.86597219750573
 20
-146.8874944077225
 30
0.0
 10
98.86597219750573
 20
-146.8874944077225
 30
0.0
  0
POLYLINE
  5
4A
330
1F
100
AcDbEntity
  8
_U+30EC_U+30A4_U+30E4_U+30FC 1
 62
   179
420
  2234388
370
     9
100
AcDb2dPolyline
 66
     1
 10
0.0
 20
0.0
 30
0.0
  0
VERTEX
  5
4B
330
4A
100
AcDbEntity
  8
_U+30EC_U+30A4_U+30E4_U+30FC 1
 62
   179
420
  2234388
370
     9
100
AcDbVertex
100
AcDb2dVertex
 10
98.82187497529453
 20
-147.8576332963688
 30
0.0
  0
VERTEX
  5
4C
330
4A
100
AcDbEntity
  8
_U+30EC_U+30A4_U+30E4_U+30FC 1
 62
   179
420
  2234388
370
     9
100
AcDbVertex
100
AcDb2dVertex
 10
98.82187497529453
 20
-143.9329805195723
 30
0.0
  0
SEQEND
  5
4D
330
4A
100
AcDbEntity
  8
_U+30EC_U+30A4_U+30E4_U+30FC 1
 62
   179
420
  2234388
370
     9
  0
POLYLINE
  5
4E
330
1F
100
AcDbEntity
  8
_U+30EC_U+30A4_U+30E4_U+30FC 1
 62
   179
420
  2234388
370
     9
100
AcDb2dPolyline
 66
     1
 10
0.0
 20
0.0
 30
0.0
  0
VERTEX
  5
4F
330
4E
100
AcDbEntity
  8
_U+30EC_U+30A4_U+30E4_U+30FC 1
 62
   179
420
  2234388
370
     9
100
AcDbVertex
100
AcDb2dVertex
 10
83.56423609022005
 20
-142.9187444087147
 30
0.0
  0
VERTEX
  5
50
330
4E
100
AcDbEntity
  8
_U+30EC_U+30A4_U+30E4_U+30FC 1
 62
   179
420
  2234388
370
     9
100
AcDbVertex
100
AcDb2dVertex
 10
87.40069442259427
 20
-142.9187444087147
 30
0.0
  0
SEQEND
  5
51
330
4E
100
AcDbEntity
  8
_U+30EC_U+30A4_U+30E4_U+30FC 1
 62
   179
420
  2234388
370
     9
  0
POLYLINE
  5
52
330
1F
100
AcDbEntity
  8
_U+30EC_U+30A4_U+30E4_U+30FC 1
 62
   179
420
  2234388
370
     9
100
AcDb2dPolyline
 66
     1
 10
0.0
 20
0.0
 30
0.0
  0
VERTEX
  5
53
330
52
100
AcDbEntity
  8
_U+30EC_U+30A4_U+30E4_U+30FC 1
 62
   179
420
  2234388
370
     9
100
AcDbVertex
100
AcDb2dVertex
 10
83.47604164579766
 20
-139.1704805207629
 30
0.0
  0
VERTEX
  5
54
330
52
100
AcDbEntity
  8
_U+30EC_U+30A4_U+30E4_U+30FC 1
 62
   179
420
  2234388
370
     9
100
AcDbVertex
100
AcDb2dVertex
 10
87.48888886701667
 20
-139.1704805207629
 30
0.0
  0
SEQEND
  5
55
330
52
100
AcDbEntity
  8
_U+30EC_U+30A4_U+30E4_U+30FC 1
 62
   179
420
  2234388
370
     9
  0
POLYLINE
  5
56
330
1F
100
AcDbEntity
  8
_U+30EC_U+30A4_U+30E4_U+30FC 1
 62
   179
420
  2234388
370
     9
100
AcDb2dPolyline
 66
     1
 10
0.0
 20
0.0
 30
0.0
  0
VERTEX
  5
57
330
56
100
AcDbEntity
  8
_U+30EC_U+30A4_U+30E4_U+30FC 1
 62
   179
420
  2234388
370
     9
100
AcDbVertex
100
AcDb2dVertex
 10
83.38784720137527
 20
-132.5558971890832
 30
0.0
  0
VERTEX
  5
58
330
56
100
AcDbEntity
  8
_U+30EC_U+30A4_U+30E4_U+30FC 1
 62
   179
420
  2234388
370
     9
100
AcDbVertex
100
AcDb2dVertex
 10
87.35659720038308
 20
-132.5558971890832
 30
0.0
  0
SEQEND
  5
59
330
56
100
AcDbEntity
  8
_U+30EC_U+30A4_U+30E4_U+30FC 1
 62
   179
420
  2234388
370
     9
  0
POLYLINE
  5
5A
330
1F
100
AcDbEntity
  8
_U+30EC_U+30A4_U+30E4_U+30FC 1
 62
   179
420
  2234388
370
     9
100
AcDb2dPolyline
 66
     1
 10
0.0
 20
0.0
 30
0.0
  0
VERTEX
  5
5B
330
5A
100
AcDbEntity
  8
_U+30EC_U+30A4_U+30E4_U+30FC 1
 62
   179
420
  2234388
370
     9
100
AcDbVertex
100
AcDb2dVertex
 10
84.40208331223282
 20
-133.8350694109857
 30
0.0
  0
VERTEX
  5
5C
330
5A
100
AcDbEntity
  8
_U+30EC_U+30A4_U+30E4_U+30FC 1
 62
   179
420
  2234388
370
     9
100
AcDbVertex
100
AcDb2dVertex
 10
84.40208331223282
 20
-124.7947860799123
 30
0.0
  0
SEQEND
  5
5D
330
5A
100
AcDbEntity
  8
_U+30EC_U+30A4_U+30E4_U+30FC 1
 62
   179
420
  2234388
370
     9
  0
POLYLINE
  5
5E
330
1F
100
AcDbEntity
  8
_U+30EC_U+30A4_U+30E4_U+30FC 1
 62
   179
420
  2234388
370
     9
100
AcDb2dPolyline
 66
     1
 10
0.0
 20
0.0
 30
0.0
  0
VERTEX
  5
5F
330
5E
100
AcDbEntity
  8
_U+30EC_U+30A4_U+30E4_U+30FC 1
 62
   179
420
  2234388
370
     9
100
AcDbVertex
100
AcDb2dVertex
 10
84.44618053444401
 20
-138.0980360765869
 30
0.0
  0
VERTEX
  5
60
330
5E
100
AcDbEntity
  8
_U+30EC_U+30A4_U+30E4_U+30FC 1
 62
   179
420
  2234388
370
     9
100
AcDbVertex
100
AcDb2dVertex
 10
84.44618053444401
 20
-139.9642305205644
 30
0.0
  0
SEQEND
  5
61
330
5E
100
AcDbEntity
  8
_U+30EC_U+30A4_U+30E4_U+30FC 1
 62
   179
420
  2234388
370
     9
  0
POLYLINE
  5
62
330
1F
100
AcDbEntity
  8
_U+30EC_U+30A4_U+30E4_U+30FC 1
 62
   179
420
  2234388
370
     9
100
AcDb2dPolyline
 66
     1
 10
0.0
 20
0.0
 30
0.0
  0
VERTEX
  5
63
330
62
100
AcDbEntity
  8
_U+30EC_U+30A4_U+30E4_U+30FC 1
 62
   179
420
  2234388
370
     9
100
AcDbVertex
100
AcDb2dVertex
 10
84.46995562276967
 20
-142.0816027422574
 30
0.0
  0
VERTEX
  5
64
330
62
100
AcDbEntity
  8
_U+30EC_U+30A4_U+30E4_U+30FC 1
 62
   179
420
  2234388
370
     9
100
AcDbVertex
100
AcDb2dVertex
 10
84.51059562173286
 20
-142.8739769087261
 30
0.0
  0
SEQEND
  5
65
330
62
100
AcDbEntity
  8
_U+30EC_U+30A4_U+30E4_U+30FC 1
 62
   179
420
  2234388
370
     9
  0
POLYLINE
  5
66
330
1F
100
AcDbEntity
  8
_U+30EC_U+30A4_U+30E4_U+30FC 1
 62
   179
420
  2234388
370
     9
100
AcDb2dPolyline
 66
     1
 10
0.0
 20
0.0
 30
0.0
  0
VERTEX
  5
67
330
66
100
AcDbEntity
  8
_U+30EC_U+30A4_U+30E4_U+30FC 1
 62
   179
420
  2234388
370
     9
100
AcDbVertex
100
AcDb2dVertex
 10
83.47604164579766
 20
-114.5201333047032
 30
0.0
  0
VERTEX
  5
68
330
66
100
AcDbEntity
  8
_U+30EC_U+30A4_U+30E4_U+30FC 1
 62
   179
420
  2234388
370
     9
100
AcDbVertex
100
AcDb2dVertex
 10
87.53298608922786
 20
-114.5201333047032
 30
0.0
  0
SEQEND
  5
69
330
66
100
AcDbEntity
  8
_U+30EC_U+30A4_U+30E4_U+30FC 1
 62
   179
420
  2234388
370
     9
  0
POLYLINE
  5
6A
330
1F
100
AcDbEntity
  8
_U+30EC_U+30A4_U+30E4_U+30FC 1
 62
   179
420
  2234388
370
     9
100
AcDb2dPolyline
 66
     1
 10
0.0
 20
0.0
 30
0.0
  0
VERTEX
  5
6B
330
6A
100
AcDbEntity
  8
_U+30EC_U+30A4_U+30E4_U+30FC 1
 62
   179
420
  2234388
370
     9
100
AcDbVertex
100
AcDb2dVertex
 10
84.53437497886641
 20
-114.6083277491256
 30
0.0
  0
VERTEX
  5
6C
330
6A
100
AcDbEntity
  8
_U+30EC_U+30A4_U+30E4_U+30FC 1
 62
   179
420
  2234388
370
     9
100
AcDbVertex
100
AcDb2dVertex
 10
84.53437497886641
 20
-121.2670083030165
 30
0.0
  0
SEQEND
  5
6D
330
6A
100
AcDbEntity
  8
_U+30EC_U+30A4_U+30E4_U+30FC 1
 62
   179
420
  2234388
370
     9
  0
POLYLINE
  5
6E
330
1F
100
AcDbEntity
  8
_U+30EC_U+30A4_U+30E4_U+30FC 1
 62
   179
420
  2234388
370
     9
100
AcDb2dPolyline
 66
     1
 10
0.0
 20
0.0
 30
0.0
  0
VERTEX
  5
6F
330
6E
100
AcDbEntity
  8
_U+30EC_U+30A4_U+30E4_U+30FC 1
 62
   179
420
  2234388
370
     9
100
AcDbVertex
100
AcDb2dVertex
 10
89.1645833110422
 20
-109.1402721949371
 30
0.0
  0
VERTEX
  5
70
330
6E
100
AcDbEntity
  8
_U+30EC_U+30A4_U+30E4_U+30FC 1
 62
   179
420
  2234388
370
     9
100
AcDbVertex
100
AcDb2dVertex
 10
89.1645833110422
 20
-113.3295083050009
 30
0.0
  0
SEQEND
  5
71
330
6E
100
AcDbEntity
  8
_U+30EC_U+30A4_U+30E4_U+30FC 1
 62
   179
420
  2234388
370
     9
  0
POLYLINE
  5
72
330
1F
100
AcDbEntity
  8
_U+30EC_U+30A4_U+30E4_U+30FC 1
 62
   179
420
  2234388
370
     9
100
AcDb2dPolyline
 66
     1
 10
0.0
 20
0.0
 30
0.0
  0
VERTEX
  5
73
330
72
100
AcDbEntity
  8
_U+30EC_U+30A4_U+30E4_U+30FC 1
 62
   179
420
  2234388
370
     9
100
AcDbVertex
100
AcDb2dVertex
 10
89.1645833110422
 20
-110.1986055280058
 30
0.0
  0
VERTEX
  5
74
330
72
100
AcDbEntity
  8
_U+30EC_U+30A4_U+30E4_U+30FC 1
 62
   179
420
  2234388
370
     9
100
AcDbVertex
100
AcDb2dVertex
 10
92.47187497688203
 20
-110.1986055280058
 30
0.0
  0
SEQEND
  5
75
330
72
100
AcDbEntity
  8
_U+30EC_U+30A4_U+30E4_U+30FC 1
 62
   179
420
  2234388
370
     9
  0
POLYLINE
  5
76
330
1F
100
AcDbEntity
  8
_U+30EC_U+30A4_U+30E4_U+30FC 1
 62
   179
420
  2234388
370
     9
100
AcDb2dPolyline
 66
     1
 10
0.0
 20
0.0
 30
0.0
  0
VERTEX
  5
77
330
76
100
AcDbEntity
  8
_U+30EC_U+30A4_U+30E4_U+30FC 1
 62
   179
420
  2234388
370
     9
100
AcDbVertex
100
AcDb2dVertex
 10
95.95555553156667
 20
-110.1104110835834
 30
0.0
  0
VERTEX
  5
78
330
76
100
AcDbEntity
  8
_U+30EC_U+30A4_U+30E4_U+30FC 1
 62
   179
420
  2234388
370
     9
100
AcDbVertex
100
AcDb2dVertex
 10
99.08645830856172
 20
-110.1104110835834
 30
0.0
  0
SEQEND
  5
79
330
76
100
AcDbEntity
  8
_U+30EC_U+30A4_U+30E4_U+30FC 1
 62
   179
420
  2234388
370
     9
  0
POLYLINE
  5
7A
330
1F
100
AcDbEntity
  8
_U+30EC_U+30A4_U+30E4_U+30FC 1
 62
   179
420
  2234388
370
     9
100
AcDb2dPolyline
 66
     1
 10
0.0
 20
0.0
 30
0.0
  0
VERTEX
  5
7B
330
7A
100
AcDbEntity
  8
_U+30EC_U+30A4_U+30E4_U+30FC 1
 62
   179
420
  2234388
370
     9
100
AcDbVertex
100
AcDb2dVertex
 10
98.99826386413933
 20
-109.1402721949371
 30
0.0
  0
VERTEX
  5
7C
330
7A
100
AcDbEntity
  8
_U+30EC_U+30A4_U+30E4_U+30FC 1
 62
   179
420
  2234388
370
     9
100
AcDbVertex
100
AcDb2dVertex
 10
98.99826386413933
 20
-132.1149249669712
 30
0.0
  0
SEQEND
  5
7D
330
7A
100
AcDbEntity
  8
_U+30EC_U+30A4_U+30E4_U+30FC 1
 62
   179
420
  2234388
370
     9
  0
SPLINE
  5
7E
330
1F
100
AcDbEntity
  8
_U+30EC_U+30A4_U+30E4_U+30FC 1
370
     0
100
AcDbSpline
210
0.0
220
0.0
230
1.0
 70
    11
 71
     3
 72
    17
 73
    13
 74
     0
 42
0.0000000001
 43
0.0000000001
 12
1.0
 22
0.0
 32
0.0
 13
1.0
 23
0.0
 33
0.0
 40
0.0
 40
0.0
 40
0.0
 40
0.0
 40
1.0
 40
1.0
 40
1.0
 40
2.0
 40
2.0
 40
2.0
 40
3.0
 40
3.0
 40
3.0
 40
4.0
 40
4.0
 40
4.0
 40
4.0
 10
99.08645830856172
 20
-110.1104110835834
 30
0.0
 10
99.08645830856172
 20
-110.1793085835663
 30
0.0
 10
99.03029358463785
 20
-110.2351180279968
 30
0.0
 10
98.96139608639557
 20
-110.2351180279968
 30
0.0
 10
98.8921458103845
 20
-110.2351180279968
 30
0.0
 10
98.83633886417955
 20
-110.1793085835663
 30
0.0
 10
98.83633886417955
 20
-110.1104110835834
 30
0.0
 10
98.83633886417955
 20
-110.0415135836009
 30
0.0
 10
98.8921458103845
 20
-109.9853513613927
 30
0.0
 10
98.96139608639557
 20
-109.9853513613927
 30
0.0
 10
99.03029358463785
 20
-109.9853513613927
 30
0.0
 10
99.08645830856172
 20
-110.0415135836009
 30
0.0
 10
99.08645830856172
 20
-110.1104110835834
 30
0.0
  0
HATCH
  5
7F
330
1F
100
AcDbEntity
  8
_U+30EC_U+30A4_U+30E4_U+30FC 1
 62
   179
420
  2234388
100
AcDbHatch
 10
0.0
 20
0.0
 30
0.0
210
0.0
220
0.0
230
1.0
  2
SOLID
 70
     1
 71
     0
 91
        1
 92
        1
 93
        1
 72
     4
 94
        3
 73
     0
 74
     1
 95
       17
 96
       13
 40
0.0
 40
0.0
 40
0.0
 40
0.0
 40
1.0
 40
1.0
 40
1.0
 40
2.0
 40
2.0
 40
2.0
 40
3.0
 40
3.0
 40
3.0
 40
4.0
 40
4.0
 40
4.0
 40
4.0
 10
99.08645830856172
 20
-110.1104110835834
 10
99.08645830856172
 20
-110.1793085835663
 10
99.03029358463785
 20
-110.2351180279968
 10
98.96139608639557
 20
-110.2351180279968
 10
98.8921458103845
 20
-110.2351180279968
 10
98.83633886417955
 20
-110.1793085835663
 10
98.83633886417955
 20
-110.1104110835834
 10
98.83633886417955
 20
-110.0415135836009
 10
98.8921458103845
 20
-109.9853513613927
 10
98.96139608639557
 20
-109.9853513613927
 10
99.03029358463785
 20
-109.9853513613927
 10
99.08645830856172
 20
-110.0415135836009
 10
99.08645830856172
 20
-110.1104110835834
 97
        0
 97
        0
 75
     2
 76
     1
 98
        0
  0
SPLINE
  5
80
330
1F
100
AcDbEntity
  8
_U+30EC_U+30A4_U+30E4_U+30FC 1
370
     0
100
AcDbSpline
210
0.0
220
0.0
230
1.0
 70
    11
 71
     3
 72
    17
 73
    13
 74
     0
 42
0.0000000001
 43
0.0000000001
 12
1.0
 22
0.0
 32
0.0
 13
1.0
 23
0.0
 33
0.0
 40
0.0
 40
0.0
 40
0.0
 40
0.0
 40
1.0
 40
1.0
 40
1.0
 40
2.0
 40
2.0
 40
2.0
 40
3.0
 40
3.0
 40
3.0
 40
4.0
 40
4.0
 40
4.0
 40
4.0
 10
89.28964077758704
 20
-110.1913735835633
 30
0.0
 10
89.28964077758704
 20
-110.2602710835462
 30
0.0
 10
89.23347855679764
 20
-110.3160805279767
 30
0.0
 10
89.1645833110422
 20
-110.3160805279767
 30
0.0
 10
89.0955071714287
 20
-110.3160805279767
 30
0.0
 10
89.03952133952367
 20
-110.2602710835462
 30
0.0
 10
89.03952133952367
 20
-110.1913735835633
 30
0.0
 10
89.03952133952367
 20
-110.1224760835805
 30
0.0
 10
89.0955071714287
 20
-110.0663138613722
 30
0.0
 10
89.1645833110422
 20
-110.0663138613722
 30
0.0
 10
89.23347855679764
 20
-110.0663138613722
 30
0.0
 10
89.28964077758704
 20
-110.1224760835805
 30
0.0
 10
89.28964077758704
 20
-110.1913735835633
 30
0.0
  0
HATCH
  5
81
330
1F
100
AcDbEntity
  8
_U+30EC_U+30A4_U+30E4_U+30FC 1
 62
   179
420
  2234388
100
AcDbHatch
 10
0.0
 20
0.0
 30
0.0
210
0.0
220
0.0
230
1.0
  2
SOLID
 70
     1
 71
     0
 91
        1
 92
        1
 93
        1
 72
     4
 94
        3
 73
     0
 74
     1
 95
       17
 96
       13
 40
0.0
 40
0.0
 40
0.0
 40
0.0
 40
1.0
 40
1.0
 40
1.0
 40
2.0
 40
2.0
 40
2.0
 40
3.0
 40
3.0
 40
3.0
 40
4.0
 40
4.0
 40
4.0
 40
4.0
 10
89.28964077758704
 20
-110.1913735835633
 10
89.28964077758704
 20
-110.2602710835462
 10
89.23347855679764
 20
-110.3160805279767
 10
89.1645833110422
 20
-110.3160805279767
 10
89.0955071714287
 20
-110.3160805279767
 10
89.03952133952367
 20
-110.2602710835462
 10
89.03952133952367
 20
-110.1913735835633
 10
89.03952133952367
 20
-110.1224760835805
 10
89.0955071714287
 20
-110.0663138613722
 10
89.1645833110422
 20
-110.0663138613722
 10
89.23347855679764
 20
-110.0663138613722
 10
89.28964077758704
 20
-110.1224760835805
 10
89.28964077758704
 20
-110.1913735835633
 97
        0
 97
        0
 75
     2
 76
     1
 98
        0
  0
SPLINE
  5
82
330
1F
100
AcDbEntity
  8
_U+30EC_U+30A4_U+30E4_U+30FC 1
370
     0
100
AcDbSpline
210
0.0
220
0.0
230
1.0
 70
    11
 71
     3
 72
    17
 73
    13
 74
     0
 42
0.0000000001
 43
0.0000000001
 12
1.0
 22
0.0
 32
0.0
 13
1.0
 23
0.0
 33
0.0
 40
0.0
 40
0.0
 40
0.0
 40
0.0
 40
1.0
 40
1.0
 40
1.0
 40
2.0
 40
2.0
 40
2.0
 40
3.0
 40
3.0
 40
3.0
 40
4.0
 40
4.0
 40
4.0
 40
4.0
 10
84.70352978347736
 20
-114.5201333047032
 30
0.0
 10
84.70352978347736
 20
-114.5890308046861
 30
0.0
 10
84.64736756268796
 20
-114.6448402491166
 30
0.0
 10
84.5784722010776
 20
-114.6448402491166
 30
0.0
 10
84.50939617731902
 20
-114.6448402491166
 30
0.0
 10
84.453410345414
 20
-114.5890308046861
 30
0.0
 10
84.453410345414
 20
-114.5201333047032
 30
0.0
 10
84.453410345414
 20
-114.4512358047207
 30
0.0
 10
84.50939617731902
 20
-114.3950735825125
 30
0.0
 10
84.5784722010776
 20
-114.3950735825125
 30
0.0
 10
84.64736756268796
 20
-114.3950735825125
 30
0.0
 10
84.70352978347736
 20
-114.4512358047207
 30
0.0
 10
84.70352978347736
 20
-114.5201333047032
 30
0.0
  0
HATCH
  5
83
330
1F
100
AcDbEntity
  8
_U+30EC_U+30A4_U+30E4_U+30FC 1
 62
   179
420
  2234388
100
AcDbHatch
 10
0.0
 20
0.0
 30
0.0
210
0.0
220
0.0
230
1.0
  2
SOLID
 70
     1
 71
     0
 91
        1
 92
        1
 93
        1
 72
     4
 94
        3
 73
     0
 74
     1
 95
       17
 96
       13
 40
0.0
 40
0.0
 40
0.0
 40
0.0
 40
1.0
 40
1.0
 40
1.0
 40
2.0
 40
2.0
 40
2.0
 40
3.0
 40
3.0
 40
3.0
 40
4.0
 40
4.0
 40
4.0
 40
4.0
 10
84.70352978347736
 20
-114.5201333047032
 10
84.70352978347736
 20
-114.5890308046861
 10
84.64736756268796
 20
-114.6448402491166
 10
84.5784722010776
 20
-114.6448402491166
 10
84.50939617731902
 20
-114.6448402491166
 10
84.453410345414
 20
-114.5890308046861
 10
84.453410345414
 20
-114.5201333047032
 10
84.453410345414
 20
-114.4512358047207
 10
84.50939617731902
 20
-114.3950735825125
 10
84.5784722010776
 20
-114.3950735825125
 10
84.64736756268796
 20
-114.3950735825125
 10
84.70352978347736
 20
-114.4512358047207
 10
84.70352978347736
 20
-114.5201333047032
 97
        0
 97
        0
 75
     2
 76
     1
 98
        0
  0
SPLINE
  5
84
330
1F
100
AcDbEntity
  8
_U+30EC_U+30A4_U+30E4_U+30FC 1
370
     0
100
AcDbSpline
210
0.0
220
0.0
230
1.0
 70
    11
 71
     3
 72
    17
 73
    13
 74
     0
 42
0.0000000001
 43
0.0000000001
 12
1.0
 22
0.0
 32
0.0
 13
1.0
 23
0.0
 33
0.0
 40
0.0
 40
0.0
 40
0.0
 40
0.0
 40
1.0
 40
1.0
 40
1.0
 40
2.0
 40
2.0
 40
2.0
 40
3.0
 40
3.0
 40
3.0
 40
4.0
 40
4.0
 40
4.0
 40
4.0
 10
84.53437497886641
 20
-132.5558971890832
 30
0.0
 10
84.53437497886641
 20
-132.6247946890657
 30
0.0
 10
84.47821062255908
 20
-132.6806041334968
 30
0.0
 10
84.4093131243168
 20
-132.6806041334968
 30
0.0
 10
84.34023923719013
 20
-132.6806041334968
 30
0.0
 10
84.28425553448456
 20
-132.6247946890657
 30
0.0
 10
84.28425553448456
 20
-132.5558971890832
 30
0.0
 10
84.28425553448456
 20
-132.4869996891006
 30
0.0
 10
84.34023923719013
 20
-132.4308374668924
 30
0.0
 10
84.4093131243168
 20
-132.4308374668924
 30
0.0
 10
84.47821062255908
 20
-132.4308374668924
 30
0.0
 10
84.53437497886641
 20
-132.4869996891006
 30
0.0
 10
84.53437497886641
 20
-132.5558971890832
 30
0.0
  0
HATCH
  5
85
330
1F
100
AcDbEntity
  8
_U+30EC_U+30A4_U+30E4_U+30FC 1
 62
   179
420
  2234388
100
AcDbHatch
 10
0.0
 20
0.0
 30
0.0
210
0.0
220
0.0
230
1.0
  2
SOLID
 70
     1
 71
     0
 91
        1
 92
        1
 93
        1
 72
     4
 94
        3
 73
     0
 74
     1
 95
       17
 96
       13
 40
0.0
 40
0.0
 40
0.0
 40
0.0
 40
1.0
 40
1.0
 40
1.0
 40
2.0
 40
2.0
 40
2.0
 40
3.0
 40
3.0
 40
3.0
 40
4.0
 40
4.0
 40
4.0
 40
4.0
 10
84.53437497886641
 20
-132.5558971890832
 10
84.53437497886641
 20
-132.6247946890657
 10
84.47821062255908
 20
-132.6806041334968
 10
84.4093131243168
 20
-132.6806041334968
 10
84.34023923719013
 20
-132.6806041334968
 10
84.28425553448456
 20
-132.6247946890657
 10
84.28425553448456
 20
-132.5558971890832
 10
84.28425553448456
 20
-132.4869996891006
 10
84.34023923719013
 20
-132.4308374668924
 10
84.4093131243168
 20
-132.4308374668924
 10
84.47821062255908
 20
-132.4308374668924
 10
84.53437497886641
 20
-132.4869996891006
 10
84.53437497886641
 20
-132.5558971890832
 97
        0
 97
        0
 75
     2
 76
     1
 98
        0
  0
SPLINE
  5
86
330
1F
100
AcDbEntity
  8
_U+30EC_U+30A4_U+30E4_U+30FC 1
370
     0
100
AcDbSpline
210
0.0
220
0.0
230
1.0
 70
    11
 71
     3
 72
    17
 73
    13
 74
     0
 42
0.0000000001
 43
0.0000000001
 12
1.0
 22
0.0
 32
0.0
 13
1.0
 23
0.0
 33
0.0
 40
0.0
 40
0.0
 40
0.0
 40
0.0
 40
1.0
 40
1.0
 40
1.0
 40
2.0
 40
2.0
 40
2.0
 40
3.0
 40
3.0
 40
3.0
 40
4.0
 40
4.0
 40
4.0
 40
4.0
 10
84.53437497886641
 20
-139.1704805207629
 30
0.0
 10
84.53437497886641
 20
-139.2393780207454
 30
0.0
 10
84.47821062255908
 20
-139.2951874651765
 30
0.0
 10
84.4093131243168
 20
-139.2951874651765
 30
0.0
 10
84.34023923719013
 20
-139.2951874651765
 30
0.0
 10
84.28425553448456
 20
-139.2393780207454
 30
0.0
 10
84.28425553448456
 20
-139.1704805207629
 30
0.0
 10
84.28425553448456
 20
-139.1015830207803
 30
0.0
 10
84.34023923719013
 20
-139.0454207985721
 30
0.0
 10
84.4093131243168
 20
-139.0454207985721
 30
0.0
 10
84.47821062255908
 20
-139.0454207985721
 30
0.0
 10
84.53437497886641
 20
-139.1015830207803
 30
0.0
 10
84.53437497886641
 20
-139.1704805207629
 30
0.0
  0
HATCH
  5
87
330
1F
100
AcDbEntity
  8
_U+30EC_U+30A4_U+30E4_U+30FC 1
 62
   179
420
  2234388
100
AcDbHatch
 10
0.0
 20
0.0
 30
0.0
210
0.0
220
0.0
230
1.0
  2
SOLID
 70
     1
 71
     0
 91
        1
 92
        1
 93
        1
 72
     4
 94
        3
 73
     0
 74
     1
 95
       17
 96
       13
 40
0.0
 40
0.0
 40
0.0
 40
0.0
 40
1.0
 40
1.0
 40
1.0
 40
2.0
 40
2.0
 40
2.0
 40
3.0
 40
3.0
 40
3.0
 40
4.0
 40
4.0
 40
4.0
 40
4.0
 10
84.53437497886641
 20
-139.1704805207629
 10
84.53437497886641
 20
-139.2393780207454
 10
84.47821062255908
 20
-139.2951874651765
 10
84.4093131243168
 20
-139.2951874651765
 10
84.34023923719013
 20
-139.2951874651765
 10
84.28425553448456
 20
-139.2393780207454
 10
84.28425553448456
 20
-139.1704805207629
 10
84.28425553448456
 20
-139.1015830207803
 10
84.34023923719013
 20
-139.0454207985721
 10
84.4093131243168
 20
-139.0454207985721
 10
84.47821062255908
 20
-139.0454207985721
 10
84.53437497886641
 20
-139.1015830207803
 10
84.53437497886641
 20
-139.1704805207629
 97
        0
 97
        0
 75
     2
 76
     1
 98
        0
  0
SPLINE
  5
88
330
1F
100
AcDbEntity
  8
_U+30EC_U+30A4_U+30E4_U+30FC 1
370
     0
100
AcDbSpline
210
0.0
220
0.0
230
1.0
 70
    11
 71
     3
 72
    17
 73
    13
 74
     0
 42
0.0000000001
 43
0.0000000001
 12
1.0
 22
0.0
 32
0.0
 13
1.0
 23
0.0
 33
0.0
 40
0.0
 40
0.0
 40
0.0
 40
0.0
 40
1.0
 40
1.0
 40
1.0
 40
2.0
 40
2.0
 40
2.0
 40
3.0
 40
3.0
 40
3.0
 40
4.0
 40
4.0
 40
4.0
 40
4.0
 10
84.60810553440348
 20
-142.8746471865035
 30
0.0
 10
84.60810553440348
 20
-142.9435446864861
 30
0.0
 10
84.5519411762336
 20
-142.9993541309171
 30
0.0
 10
84.48304367799133
 20
-142.9993541309171
 30
0.0
 10
84.41396979086466
 20
-142.9993541309171
 30
0.0
 10
84.35798609002161
 20
-142.9435446864861
 30
0.0
 10
84.35798609002161
 20
-142.8746471865035
 30
0.0
 10
84.35798609002161
 20
-142.8057496865209
 30
0.0
 10
84.41396979086466
 20
-142.7495874643127
 30
0.0
 10
84.48304367799133
 20
-142.7495874643127
 30
0.0
 10
84.5519411762336
 20
-142.7495874643127
 30
0.0
 10
84.60810553440348
 20
-142.8057496865209
 30
0.0
 10
84.60810553440348
 20
-142.8746471865035
 30
0.0
  0
HATCH
  5
89
330
1F
100
AcDbEntity
  8
_U+30EC_U+30A4_U+30E4_U+30FC 1
 62
   179
420
  2234388
100
AcDbHatch
 10
0.0
 20
0.0
 30
0.0
210
0.0
220
0.0
230
1.0
  2
SOLID
 70
     1
 71
     0
 91
        1
 92
        1
 93
        1
 72
     4
 94
        3
 73
     0
 74
     1
 95
       17
 96
       13
 40
0.0
 40
0.0
 40
0.0
 40
0.0
 40
1.0
 40
1.0
 40
1.0
 40
2.0
 40
2.0
 40
2.0
 40
3.0
 40
3.0
 40
3.0
 40
4.0
 40
4.0
 40
4.0
 40
4.0
 10
84.60810553440348
 20
-142.8746471865035
 10
84.60810553440348
 20
-142.9435446864861
 10
84.5519411762336
 20
-142.9993541309171
 10
84.48304367799133
 20
-142.9993541309171
 10
84.41396979086466
 20
-142.9993541309171
 10
84.35798609002161
 20
-142.9435446864861
 10
84.35798609002161
 20
-142.8746471865035
 10
84.35798609002161
 20
-142.8057496865209
 10
84.41396979086466
 20
-142.7495874643127
 10
84.48304367799133
 20
-142.7495874643127
 10
84.5519411762336
 20
-142.7495874643127
 10
84.60810553440348
 20
-142.8057496865209
 10
84.60810553440348
 20
-142.8746471865035
 97
        0
 97
        0
 75
     2
 76
     1
 98
        0
  0
SPLINE
  5
8A
330
1F
100
AcDbEntity
  8
_U+30EC_U+30A4_U+30E4_U+30FC 1
370
     0
100
AcDbSpline
210
0.0
220
0.0
230
1.0
 70
    11
 71
     3
 72
    17
 73
    13
 74
     0
 42
0.0000000001
 43
0.0000000001
 12
1.0
 22
0.0
 32
0.0
 13
1.0
 23
0.0
 33
0.0
 40
0.0
 40
0.0
 40
0.0
 40
0.0
 40
1.0
 40
1.0
 40
1.0
 40
2.0
 40
2.0
 40
2.0
 40
3.0
 40
3.0
 40
3.0
 40
4.0
 40
4.0
 40
4.0
 40
4.0
 10
89.11325189319821
 20
-146.8950791299431
 30
0.0
 10
89.11325189319821
 20
-146.9639766299257
 30
0.0
 10
89.05708967240881
 20
-147.0197860743561
 30
0.0
 10
88.9881944221974
 20
-147.0197860743561
 30
0.0
 10
88.91911828703985
 20
-147.0197860743561
 30
0.0
 10
88.86313245513485
 20
-146.9639766299257
 30
0.0
 10
88.86313245513485
 20
-146.8950791299431
 30
0.0
 10
88.86313245513485
 20
-146.8261816299599
 30
0.0
 10
88.91911828703985
 20
-146.7700194077517
 30
0.0
 10
88.9881944221974
 20
-146.7700194077517
 30
0.0
 10
89.05708967240881
 20
-146.7700194077517
 30
0.0
 10
89.11325189319821
 20
-146.8261816299599
 30
0.0
 10
89.11325189319821
 20
-146.8950791299431
 30
0.0
  0
HATCH
  5
8B
330
1F
100
AcDbEntity
  8
_U+30EC_U+30A4_U+30E4_U+30FC 1
 62
   179
420
  2234388
100
AcDbHatch
 10
0.0
 20
0.0
 30
0.0
210
0.0
220
0.0
230
1.0
  2
SOLID
 70
     1
 71
     0
 91
        1
 92
        1
 93
        1
 72
     4
 94
        3
 73
     0
 74
     1
 95
       17
 96
       13
 40
0.0
 40
0.0
 40
0.0
 40
0.0
 40
1.0
 40
1.0
 40
1.0
 40
2.0
 40
2.0
 40
2.0
 40
3.0
 40
3.0
 40
3.0
 40
4.0
 40
4.0
 40
4.0
 40
4.0
 10
89.11325189319821
 20
-146.8950791299431
 10
89.11325189319821
 20
-146.9639766299257
 10
89.05708967240881
 20
-147.0197860743561
 10
88.9881944221974
 20
-147.0197860743561
 10
88.91911828703985
 20
-147.0197860743561
 10
88.86313245513485
 20
-146.9639766299257
 10
88.86313245513485
 20
-146.8950791299431
 10
88.86313245513485
 20
-146.8261816299599
 10
88.91911828703985
 20
-146.7700194077517
 10
88.9881944221974
 20
-146.7700194077517
 10
89.05708967240881
 20
-146.7700194077517
 10
89.11325189319821
 20
-146.8261816299599
 10
89.11325189319821
 20
-146.8950791299431
 97
        0
 97
        0
 75
     2
 76
     1
 98
        0
  0
SPLINE
  5
8C
330
1F
100
AcDbEntity
  8
_U+30EC_U+30A4_U+30E4_U+30FC 1
370
     0
100
AcDbSpline
210
0.0
220
0.0
230
1.0
 70
    11
 71
     3
 72
    17
 73
    13
 74
     0
 42
0.0000000001
 43
0.0000000001
 12
1.0
 22
0.0
 32
0.0
 13
1.0
 23
0.0
 33
0.0
 40
0.0
 40
0.0
 40
0.0
 40
0.0
 40
1.0
 40
1.0
 40
1.0
 40
2.0
 40
2.0
 40
2.0
 40
3.0
 40
3.0
 40
3.0
 40
4.0
 40
4.0
 40
4.0
 40
4.0
 10
98.86597219750573
 20
-146.8874944077225
 30
0.0
 10
98.86597219750573
 20
-146.9563919077051
 30
0.0
 10
98.8098074791518
 20
-147.0122013521361
 30
0.0
 10
98.74090998090952
 20
-147.0122013521361
 30
0.0
 10
98.67165970489846
 20
-147.0122013521361
 30
0.0
 10
98.61585275312356
 20
-146.9563919077051
 30
0.0
 10
98.61585275312356
 20
-146.8874944077225
 30
0.0
 10
98.61585275312356
 20
-146.8185969077399
 30
0.0
 10
98.67165970489846
 20
-146.7624346855317
 30
0.0
 10
98.74090998090952
 20
-146.7624346855317
 30
0.0
 10
98.8098074791518
 20
-146.7624346855317
 30
0.0
 10
98.86597219750573
 20
-146.8185969077399
 30
0.0
 10
98.86597219750573
 20
-146.8874944077225
 30
0.0
  0
HATCH
  5
8D
330
1F
100
AcDbEntity
  8
_U+30EC_U+30A4_U+30E4_U+30FC 1
 62
   179
420
  2234388
100
AcDbHatch
 10
0.0
 20
0.0
 30
0.0
210
0.0
220
0.0
230
1.0
  2
SOLID
 70
     1
 71
     0
 91
        1
 92
        1
 93
        1
 72
     4
 94
        3
 73
     0
 74
     1
 95
       17
 96
       13
 40
0.0
 40
0.0
 40
0.0
 40
0.0
 40
1.0
 40
1.0
 40
1.0
 40
2.0
 40
2.0
 40
2.0
 40
3.0
 40
3.0
 40
3.0
 40
4.0
 40
4.0
 40
4.0
 40
4.0
 10
98.86597219750573
 20
-146.8874944077225
 10
98.86597219750573
 20
-146.9563919077051
 10
98.8098074791518
 20
-147.0122013521361
 10
98.74090998090952
 20
-147.0122013521361
 10
98.67165970489846
 20
-147.0122013521361
 10
98.61585275312356
 20
-146.9563919077051
 10
98.61585275312356
 20
-146.8874944077225
 10
98.61585275312356
 20
-146.8185969077399
 10
98.67165970489846
 20
-146.7624346855317
 10
98.74090998090952
 20
-146.7624346855317
 10
98.8098074791518
 20
-146.7624346855317
 10
98.86597219750573
 20
-146.8185969077399
 10
98.86597219750573
 20
-146.8874944077225
 97
        0
 97
        0
 75
     2
 76
     1
 98
        0
  0
INSERT
  5
8F
330
1F
100
AcDbEntity
  8
_U+30EC_U+30A4_U+30E4_U+30FC 1
100
AcDbBlockReference
  2
block 2
 10
0.0
 20
0.0
 30
0.0
  0
INSERT
  5
98
330
1F
100
AcDbEntity
  8
_U+30EC_U+30A4_U+30E4_U+30FC 1
100
AcDbBlockReference
  2
block 3
 10
0.0
 20
0.0
 30
0.0
  0
INSERT
  5
B4
330
1F
100
AcDbEntity
  8
_U+30EC_U+30A4_U+30E4_U+30FC 1
100
AcDbBlockReference
  2
block 4
 10
0.0
 20
0.0
 30
0.0
  0
INSERT
  5
D9
330
1F
100
AcDbEntity
  8
_U+30EC_U+30A4_U+30E4_U+30FC 1
100
AcDbBlockReference
  2
block 5
 10
0.0
 20
0.0
 30
0.0
  0
INSERT
  5
E0
330
1F
100
AcDbEntity
  8
_U+30EC_U+30A4_U+30E4_U+30FC 1
100
AcDbBlockReference
  2
block 6
 10
0.0
 20
0.0
 30
0.0
  0
SPLINE
  5
E8
330
1F
100
AcDbEntity
  8
_U+30EC_U+30A4_U+30E4_U+30FC 1
 62
     7
420
 16777215
370
    25
100
AcDbSpline
210
0.0
220
0.0
230
1.0
 70
    11
 71
     3
 72
    65
 73
    61
 74
     0
 42
0.0000000001
 43
0.0000000001
 12
1.0
 22
0.0
 32
0.0
 13
1.0
 23
0.0
 33
0.0
 40
0.0
 40
0.0
 40
0.0
 40
0.0
 40
1.0
 40
1.0
 40
1.0
 40
2.0
 40
2.0
 40
2.0
 40
3.0
 40
3.0
 40
3.0
 40
4.0
 40
4.0
 40
4.0
 40
5.0
 40
5.0
 40
5.0
 40
6.0
 40
6.0
 40
6.0
 40
7.0
 40
7.0
 40
7.0
 40
8.0
 40
8.0
 40
8.0
 40
9.0
 40
9.0
 40
9.0
 40
10.0
 40
10.0
 40
10.0
 40
11.0
 40
11.0
 40
11.0
 40
12.0
 40
12.0
 40
12.0
 40
13.0
 40
13.0
 40
13.0
 40
14.0
 40
14.0
 40
14.0
 40
15.0
 40
15.0
 40
15.0
 40
16.0
 40
16.0
 40
16.0
 40
17.0
 40
17.0
 40
17.0
 40
18.0
 40
18.0
 40
18.0
 40
19.0
 40
19.0
 40
19.0
 40
20.0
 40
20.0
 40
20.0
 40
20.0
 10
88.63541664450781
 20
-132.1149249669712
 30
0.0
 10
88.63541664450781
 20
-132.1149249669712
 30
0.0
 10
88.63541664450781
 20
-114.5201333047032
 30
0.0
 10
88.63541664450781
 20
-114.5201333047032
 30
0.0
 10
88.63541664450781
 20
-114.5201333047032
 30
0.0
 10
89.0763888666198
 20
-114.5201333047032
 30
0.0
 10
89.0763888666198
 20
-114.5201333047032
 30
0.0
 10
89.0763888666198
 20
-114.5201333047032
 30
0.0
 10
89.0763888666198
 20
-132.1149249669712
 30
0.0
 10
89.0763888666198
 20
-132.1149249669712
 30
0.0
 10
89.0763888666198
 20
-132.1149249669712
 30
0.0
 10
88.9881944221974
 20
-132.732286077928
 30
0.0
 10
89.38506942209818
 20
-132.732286077928
 30
0.0
 10
89.38506942209818
 20
-132.732286077928
 30
0.0
 10
98.20451386433777
 20
-132.732286077928
 30
0.0
 10
98.20451386433777
 20
-132.732286077928
 30
0.0
 10
98.20451386433777
 20
-132.732286077928
 30
0.0
 10
98.95416664192813
 20
-132.8645777445616
 30
0.0
 10
98.95416664192813
 20
-133.393744411096
 30
0.0
 10
98.95416664192813
 20
-133.393744411096
 30
0.0
 10
98.95416664192813
 20
-142.0367999644907
 30
0.0
 10
98.95416664192813
 20
-142.0367999644907
 30
0.0
 10
98.95416664192813
 20
-142.0367999644907
 30
0.0
 10
99.04236108635052
 20
-142.7423555198699
 30
0.0
 10
98.20451386433777
 20
-142.7423555198699
 30
0.0
 10
98.20451386433777
 20
-142.7423555198699
 30
0.0
 10
89.38506942209818
 20
-142.7423555198699
 30
0.0
 10
89.38506942209818
 20
-142.7423555198699
 30
0.0
 10
89.38506942209818
 20
-142.7423555198699
 30
0.0
 10
88.67951386671902
 20
-142.9187444087147
 30
0.0
 10
88.67951386671902
 20
-141.9927027422795
 30
0.0
 10
88.67951386671902
 20
-141.9927027422795
 30
0.0
 10
88.67951386671902
 20
-139.1704805207629
 30
0.0
 10
88.67951386671902
 20
-139.1704805207629
 30
0.0
 10
88.67951386671902
 20
-139.1704805207629
 30
0.0
 10
89.0763888666198
 20
-139.1704805207629
 30
0.0
 10
89.0763888666198
 20
-139.1704805207629
 30
0.0
 10
89.0763888666198
 20
-139.1704805207629
 30
0.0
 10
89.0763888666198
 20
-142.0367999644907
 30
0.0
 10
89.0763888666198
 20
-142.0367999644907
 30
0.0
 10
89.0763888666198
 20
-142.0367999644907
 30
0.0
 10
89.0763888666198
 20
-142.3895777421803
 30
0.0
 10
89.42916664430938
 20
-142.3895777421803
 30
0.0
 10
89.42916664430938
 20
-142.3895777421803
 30
0.0
 10
98.24861108654896
 20
-142.3895777421803
 30
0.0
 10
98.24861108654896
 20
-142.3895777421803
 30
0.0
 10
98.24861108654896
 20
-142.3895777421803
 30
0.0
 10
98.51319441981614
 20
-142.4336749643915
 30
0.0
 10
98.51319441981614
 20
-141.7281194090124
 30
0.0
 10
98.51319441981614
 20
-141.7281194090124
 30
0.0
 10
98.51319441981614
 20
-133.4819388555183
 30
0.0
 10
98.51319441981614
 20
-133.4819388555183
 30
0.0
 10
98.51319441981614
 20
-133.4819388555183
 30
0.0
 10
98.60138886423854
 20
-133.1732583000399
 30
0.0
 10
98.20451386433777
 20
-133.1732583000399
 30
0.0
 10
98.20451386433777
 20
-133.1732583000399
 30
0.0
 10
89.42916664430938
 20
-133.1732583000399
 30
0.0
 10
89.42916664430938
 20
-133.1732583000399
 30
0.0
 10
89.42916664430938
 20
-133.1732583000399
 30
0.0
 10
88.63541664450781
 20
-133.4378416333071
 30
0.0
 10
88.63541664450781
 20
-132.1149249669712
 30
0.0
  0
HATCH
  5
E9
330
1F
100
AcDbEntity
  8
_U+30EC_U+30A4_U+30E4_U+30FC 1
 62
   253
420
 10066329
100
AcDbHatch
 10
0.0
 20
0.0
 30
0.0
210
0.0
220
0.0
230
1.0
  2
SOLID
 70
     1
 71
     0
 91
        1
 92
        1
 93
        1
 72
     4
 94
        3
 73
     0
 74
     1
 95
       65
 96
       61
 40
0.0
 40
0.0
 40
0.0
 40
0.0
 40
1.0
 40
1.0
 40
1.0
 40
2.0
 40
2.0
 40
2.0
 40
3.0
 40
3.0
 40
3.0
 40
4.0
 40
4.0
 40
4.0
 40
5.0
 40
5.0
 40
5.0
 40
6.0
 40
6.0
 40
6.0
 40
7.0
 40
7.0
 40
7.0
 40
8.0
 40
8.0
 40
8.0
 40
9.0
 40
9.0
 40
9.0
 40
10.0
 40
10.0
 40
10.0
 40
11.0
 40
11.0
 40
11.0
 40
12.0
 40
12.0
 40
12.0
 40
13.0
 40
13.0
 40
13.0
 40
14.0
 40
14.0
 40
14.0
 40
15.0
 40
15.0
 40
15.0
 40
16.0
 40
16.0
 40
16.0
 40
17.0
 40
17.0
 40
17.0
 40
18.0
 40
18.0
 40
18.0
 40
19.0
 40
19.0
 40
19.0
 40
20.0
 40
20.0
 40
20.0
 40
20.0
 10
88.63541664450781
 20
-132.1149249669712
 10
88.63541664450781
 20
-132.1149249669712
 10
88.63541664450781
 20
-114.5201333047032
 10
88.63541664450781
 20
-114.5201333047032
 10
88.63541664450781
 20
-114.5201333047032
 10
89.0763888666198
 20
-114.5201333047032
 10
89.0763888666198
 20
-114.5201333047032
 10
89.0763888666198
 20
-114.5201333047032
 10
89.0763888666198
 20
-132.1149249669712
 10
89.0763888666198
 20
-132.1149249669712
 10
89.0763888666198
 20
-132.1149249669712
 10
88.9881944221974
 20
-132.732286077928
 10
89.38506942209818
 20
-132.732286077928
 10
89.38506942209818
 20
-132.732286077928
 10
98.20451386433777
 20
-132.732286077928
 10
98.20451386433777
 20
-132.732286077928
 10
98.20451386433777
 20
-132.732286077928
 10
98.95416664192813
 20
-132.8645777445616
 10
98.95416664192813
 20
-133.393744411096
 10
98.95416664192813
 20
-133.393744411096
 10
98.95416664192813
 20
-142.0367999644907
 10
98.95416664192813
 20
-142.0367999644907
 10
98.95416664192813
 20
-142.0367999644907
 10
99.04236108635052
 20
-142.7423555198699
 10
98.20451386433777
 20
-142.7423555198699
 10
98.20451386433777
 20
-142.7423555198699
 10
89.38506942209818
 20
-142.7423555198699
 10
89.38506942209818
 20
-142.7423555198699
 10
89.38506942209818
 20
-142.7423555198699
 10
88.67951386671902
 20
-142.9187444087147
 10
88.67951386671902
 20
-141.9927027422795
 10
88.67951386671902
 20
-141.9927027422795
 10
88.67951386671902
 20
-139.1704805207629
 10
88.67951386671902
 20
-139.1704805207629
 10
88.67951386671902
 20
-139.1704805207629
 10
89.0763888666198
 20
-139.1704805207629
 10
89.0763888666198
 20
-139.1704805207629
 10
89.0763888666198
 20
-139.1704805207629
 10
89.0763888666198
 20
-142.0367999644907
 10
89.0763888666198
 20
-142.0367999644907
 10
89.0763888666198
 20
-142.0367999644907
 10
89.0763888666198
 20
-142.3895777421803
 10
89.42916664430938
 20
-142.3895777421803
 10
89.42916664430938
 20
-142.3895777421803
 10
98.24861108654896
 20
-142.3895777421803
 10
98.24861108654896
 20
-142.3895777421803
 10
98.24861108654896
 20
-142.3895777421803
 10
98.51319441981614
 20
-142.4336749643915
 10
98.51319441981614
 20
-141.7281194090124
 10
98.51319441981614
 20
-141.7281194090124
 10
98.51319441981614
 20
-133.4819388555183
 10
98.51319441981614
 20
-133.4819388555183
 10
98.51319441981614
 20
-133.4819388555183
 10
98.60138886423854
 20
-133.1732583000399
 10
98.20451386433777
 20
-133.1732583000399
 10
98.20451386433777
 20
-133.1732583000399
 10
89.42916664430938
 20
-133.1732583000399
 10
89.42916664430938
 20
-133.1732583000399
 10
89.42916664430938
 20
-133.1732583000399
 10
88.63541664450781
 20
-133.4378416333071
 10
88.63541664450781
 20
-132.1149249669712
 97
        0
 97
        0
 75
     2
 76
     1
 98
        0
  0
ENDSEC
  0
SECTION
  2
OBJECTS
  0
DICTIONARY
  5
C
330
0
100
AcDbDictionary
281
     1
  3
ACAD_GROUP
350
D
  3
ACAD_LAYOUT
350
1A
  3
ACAD_MATERIAL
350
3B
  3
ACAD_MLEADERSTYLE
350
EB
  3
ACAD_MLINESTYLE
350
17
  3
ACAD_PLOTSETTINGS
350
19
  3
ACAD_PLOTSTYLENAME
350
E
  3
ACAD_TABLESTYLE
350
EA
  3
ACAD_VISUALSTYLE
350
2A
  0
SUN
  5
3F
330
29
100
AcDbSun
 90
        1
290
     0
 63
     7
421
 16777215
 40
1.0
291
     1
 91
  2455826
 92
 54000000
292
     0
 70
     2
 71
   256
280
     1
  0
DICTIONARY
  5
D
102
{ACAD_REACTORS
330
C
102
}
330
C
100
AcDbDictionary
281
     1
  0
DICTIONARY
  5
1A
102
{ACAD_REACTORS
330
C
102
}
330
C
100
AcDbDictionary
281
     1
  3
Layout1
350
1E
  3
Layout2
350
26
  3
Model
350
22
  0
DICTIONARY
  5
3B
102
{ACAD_REACTORS
330
C
102
}
330
C
100
AcDbDictionary
281
     1
  3
ByBlock
350
3D
  3
ByLayer
350
3C
  3
Global
350
3E
  0
DICTIONARY
  5
EB
102
{ACAD_REACTORS
330
C
102
}
330
C
100
AcDbDictionary
281
     1
  0
DICTIONARY
  5
17
102
{ACAD_REACTORS
330
C
102
}
330
C
100
AcDbDictionary
281
     1
  3
Standard
350
18
  0
DICTIONARY
  5
19
102
{ACAD_REACTORS
330
C
102
}
330
C
100
AcDbDictionary
281
     1
  0
ACDBDICTIONARYWDFLT
  5
E
102
{ACAD_REACTORS
330
C
102
}
330
C
100
AcDbDictionary
281
     1
  3
Normal
350
F
100
AcDbDictionaryWithDefault
340
F
  0
DICTIONARY
  5
EA
102
{ACAD_REACTORS
330
C
102
}
330
C
100
AcDbDictionary
281
     1
  0
DICTIONARY
  5
2A
102
{ACAD_REACTORS
330
C
102
}
330
C
100
AcDbDictionary
281
     1
  3
2dWireframe
350
2F
  3
3D Hidden
350
31
  3
3dWireframe
350
30
  3
Basic
350
32
  3
Brighten
350
36
  3
ColorChange
350
3A
  3
Conceptual
350
34
  3
Dim
350
35
  3
Facepattern
350
39
  3
Flat
350
2B
  3
FlatWithEdges
350
2C
  3
Gouraud
350
2D
  3
GouraudWithEdges
350
2E
  3
Linepattern
350
38
  3
Realistic
350
33
  3
Thicken
350
37
  0
LAYOUT
  5
1E
102
{ACAD_REACTORS
330
1A
102
}
330
1A
100
AcDbPlotSettings
  1

  2
none_device
  4

  6

 40
0.0
 41
0.0
 42
0.0
 43
0.0
 44
0.0
 45
0.0
 46
0.0
 47
0.0
 48
0.0
 49
0.0
140
0.0
141
0.0
142
1.0
143
1.0
 70
   688
 72
     0
 73
     0
 74
     5
  7

 75
    16
 76
     0
 77
     2
 78
   300
147
1.0
148
0.0
149
0.0
100
AcDbLayout
  1
Layout1
 70
     1
 71
     1
 10
0.0
 20
0.0
 11
12.0
 21
9.0
 12
0.0
 22
0.0
 32
0.0
 14
1.000000000000000E+20
 24
1.000000000000000E+20
 34
1.000000000000000E+20
 15
-1.000000000000000E+20
 25
-1.000000000000000E+20
 35
-1.000000000000000E+20
146
0.0
 13
0.0
 23
0.0
 33
0.0
 16
1.0
 26
0.0
 36
0.0
 17
0.0
 27
1.0
 37
0.0
 76
     0
330
1B
  0
LAYOUT
  5
26
102
{ACAD_REACTORS
330
1A
102
}
330
1A
100
AcDbPlotSettings
  1

  2
none_device
  4

  6

 40
0.0
 41
0.0
 42
0.0
 43
0.0
 44
0.0
 45
0.0
 46
0.0
 47
0.0
 48
0.0
 49
0.0
140
0.0
141
0.0
142
1.0
143
1.0
 70
   688
 72
     0
 73
     0
 74
     5
  7

 75
    16
 76
     0
 77
     2
 78
   300
147
1.0
148
0.0
149
0.0
100
AcDbLayout
  1
Layout2
 70
     1
 71
     2
 10
0.0
 20
0.0
 11
0.0
 21
0.0
 12
0.0
 22
0.0
 32
0.0
 14
0.0
 24
0.0
 34
0.0
 15
0.0
 25
0.0
 35
0.0
146
0.0
 13
0.0
 23
0.0
 33
0.0
 16
1.0
 26
0.0
 36
0.0
 17
0.0
 27
1.0
 37
0.0
 76
     0
330
23
  0
LAYOUT
  5
22
102
{ACAD_REACTORS
330
1A
102
}
330
1A
100
AcDbPlotSettings
  1

  2
none_device
  4

  6

 40
0.0
 41
0.0
 42
0.0
 43
0.0
 44
0.0
 45
0.0
 46
0.0
 47
0.0
 48
0.0
 49
0.0
140
0.0
141
0.0
142
1.0
143
1.0
 70
  1712
 72
     0
 73
     0
 74
     0
  7

 75
     0
 76
     0
 77
     2
 78
   300
147
1.0
148
0.0
149
0.0
100
AcDbLayout
  1
Model
 70
     1
 71
     0
 10
0.0
 20
0.0
 11
12.0
 21
9.0
 12
0.0
 22
0.0
 32
0.0
 14
1.000000000000000E+20
 24
1.000000000000000E+20
 34
1.000000000000000E+20
 15
-1.000000000000000E+20
 25
-1.000000000000000E+20
 35
-1.000000000000000E+20
146
0.0
 13
0.0
 23
0.0
 33
0.0
 16
1.0
 26
0.0
 36
0.0
 17
0.0
 27
1.0
 37
0.0
 76
     0
330
1F
331
29
  0
MATERIAL
  5
3D
102
{ACAD_REACTORS
330
3B
102
}
330
3B
100
AcDbMaterial
  1
ByBlock
 72
     1
 94
      127
  0
MATERIAL
  5
3C
102
{ACAD_REACTORS
330
3B
102
}
330
3B
100
AcDbMaterial
  1
ByLayer
 72
     1
 94
      127
  0
MATERIAL
  5
3E
102
{ACAD_REACTORS
330
3B
102
}
330
3B
100
AcDbMaterial
  1
Global
 72
     1
 94
      127
  0
MLINESTYLE
  5
18
102
{ACAD_REACTORS
330
17
102
}
330
17
100
AcDbMlineStyle
  2
Standard
 70
     0
  3

 62
   256
 51
90.0
 52
90.0
 71
     2
 49
0.5
 62
   256
  6
BYLAYER
 49
-0.5
 62
   256
  6
BYLAYER
  0
ACDBPLACEHOLDER
  5
F
102
{ACAD_REACTORS
330
E
102
}
330
E
  0
VISUALSTYLE
  5
2F
102
{ACAD_REACTORS
330
2A
102
}
330
2A
100
AcDbVisualStyle
  2
2dWireframe
 70
     4
177
     2
291
     0
 71
     0
176
     1
 72
     2
176
     1
 73
     0
176
     1
 90
        0
176
     1
 40
-0.6
176
     1
 41
-30.0
176
     1
 62
     5
 63
     7
421
 16777215
176
     1
 74
     1
176
     1
 91
        4
176
     1
 64
     7
176
     1
 65
   257
176
     1
 75
     1
176
     1
175
     1
176
     1
 42
1.0
176
     1
 92
        0
176
     1
 66
   257
176
     1
 43
1.0
176
     1
 76
     1
176
     1
 77
     6
176
     1
 78
     2
176
     1
 67
     7
176
     1
 79
     5
176
     1
170
     0
176
     1
171
     0
176
     1
290
     0
176
     1
 93
        1
176
     1
 44
0.0
176
     1
173
     0
176
     1
  0
VISUALSTYLE
  5
31
102
{ACAD_REACTORS
330
2A
102
}
330
2A
100
AcDbVisualStyle
  2
3D Hidden
 70
     6
177
     2
291
     0
 71
     1
176
     1
 72
     2
176
     1
 73
     2
176
     1
 90
        0
176
     1
 40
-0.6
176
     1
 41
-30.0
176
     1
 62
     5
 63
     7
421
 16777215
176
     1
 74
     2
176
     1
 91
        2
176
     1
 64
     7
176
     1
 65
   257
176
     1
 75
     2
176
     1
175
     1
176
     1
 42
40.0
176
     1
 92
        0
176
     1
 66
   257
176
     1
 43
1.0
176
     1
 76
     1
176
     1
 77
     6
176
     1
 78
     2
176
     1
 67
     7
176
     1
 79
     3
176
     1
170
     0
176
     1
171
     0
176
     1
290
     0
176
     1
 93
        1
176
     1
 44
0.0
176
     1
173
     0
176
     1
  0
VISUALSTYLE
  5
30
102
{ACAD_REACTORS
330
2A
102
}
330
2A
100
AcDbVisualStyle
  2
3dWireframe
 70
     5
177
     2
291
     0
 71
     0
176
     1
 72
     2
176
     1
 73
     0
176
     1
 90
        0
176
     1
 40
-0.6
176
     1
 41
-30.0
176
     1
 62
     5
 63
     7
421
 16777215
176
     1
 74
     1
176
     1
 91
        4
176
     1
 64
     7
176
     1
 65
   257
176
     1
 75
     1
176
     1
175
     1
176
     1
 42
1.0
176
     1
 92
        0
176
     1
 66
   257
176
     1
 43
1.0
176
     1
 76
     1
176
     1
 77
     6
176
     1
 78
     2
176
     1
 67
     7
176
     1
 79
     5
176
     1
170
     0
176
     1
171
     0
176
     1
290
     0
176
     1
 93
        1
176
     1
 44
0.0
176
     1
173
     0
176
     1
  0
VISUALSTYLE
  5
32
102
{ACAD_REACTORS
330
2A
102
}
330
2A
100
AcDbVisualStyle
  2
Basic
 70
     7
177
     2
291
     1
 71
     1
176
     1
 72
     0
176
     1
 73
     1
176
     1
 90
        0
176
     1
 40
-0.6
176
     1
 41
-30.0
176
     1
 62
     5
 63
     7
421
 16777215
176
     1
 74
     0
176
     1
 91
        4
176
     1
 64
     7
176
     1
 65
   257
176
     1
 75
     1
176
     1
175
     1
176
     1
 42
1.0
176
     1
 92
        8
176
     1
 66
     7
176
     1
 43
1.0
176
     1
 76
     1
176
     1
 77
     6
176
     1
 78
     2
176
     1
 67
     7
176
     1
 79
     5
176
     1
170
     0
176
     1
171
     0
176
     1
290
     0
176
     1
 93
        1
176
     1
 44
0.0
176
     1
173
     0
176
     1
  0
VISUALSTYLE
  5
36
102
{ACAD_REACTORS
330
2A
102
}
330
2A
100
AcDbVisualStyle
  2
Brighten
 70
    12
177
     2
291
     1
 71
     2
176
     1
 72
     2
176
     1
 73
     0
176
     1
 90
        0
176
     1
 40
-0.6
176
     1
 41
-30.0
176
     1
 62
     5
 63
     7
421
 16777215
176
     1
 74
     1
176
     1
 91
        4
176
     1
 64
     7
176
     1
 65
   257
176
     1
 75
     1
176
     1
175
     1
176
     1
 42
1.0
176
     1
 92
        8
176
     1
 66
     7
176
     1
 43
1.0
176
     1
 76
     1
176
     1
 77
     6
176
     1
 78
     2
176
     1
 67
     7
176
     1
 79
     5
176
     1
170
     0
176
     1
171
     0
176
     1
290
     0
176
     1
 93
        1
176
     1
 44
50.0
176
     1
173
     0
176
     1
  0
VISUALSTYLE
  5
3A
102
{ACAD_REACTORS
330
2A
102
}
330
2A
100
AcDbVisualStyle
  2
ColorChange
 70
    16
177
     2
291
     1
 71
     2
176
     1
 72
     2
176
     1
 73
     3
176
     1
 90
        0
176
     1
 40
-0.6
176
     1
 41
-30.0
176
     1
 62
     5
 63
     8
421
  8421504
176
     1
 74
     1
176
     1
 91
        4
176
     1
 64
     7
176
     1
 65
   257
176
     1
 75
     1
176
     1
175
     1
176
     1
 42
1.0
176
     1
 92
        8
176
     1
 66
     8
424
  8421504
176
     1
 43
1.0
176
     1
 76
     1
176
     1
 77
     6
176
     1
 78
     2
176
     1
 67
     7
176
     1
 79
     5
176
     1
170
     0
176
     1
171
     0
176
     1
290
     0
176
     1
 93
        1
176
     1
 44
0.0
176
     1
173
     0
176
     1
  0
VISUALSTYLE
  5
34
102
{ACAD_REACTORS
330
2A
102
}
330
2A
100
AcDbVisualStyle
  2
Conceptual
 70
     9
177
     2
291
     0
 71
     3
176
     1
 72
     2
176
     1
 73
     0
176
     1
 90
        0
176
     1
 40
-0.6
176
     1
 41
-30.0
176
     1
 62
     5
 63
     7
421
 16777215
176
     1
 74
     2
176
     1
 91
        2
176
     1
 64
     7
176
     1
 65
   257
176
     1
 75
     1
176
     1
175
     1
176
     1
 42
40.0
176
     1
 92
        8
176
     1
 66
     7
176
     1
 43
1.0
176
     1
 76
     1
176
     1
 77
     6
176
     1
 78
     2
176
     1
 67
     7
176
     1
 79
     3
176
     1
170
     0
176
     1
171
     0
176
     1
290
     0
176
     1
 93
        1
176
     1
 44
0.0
176
     1
173
     0
176
     1
  0
VISUALSTYLE
  5
35
102
{ACAD_REACTORS
330
2A
102
}
330
2A
100
AcDbVisualStyle
  2
Dim
 70
    11
177
     2
291
     1
 71
     2
176
     1
 72
     2
176
     1
 73
     0
176
     1
 90
        0
176
     1
 40
-0.6
176
     1
 41
-30.0
176
     1
 62
     5
 63
     7
421
 16777215
176
     1
 74
     1
176
     1
 91
        4
176
     1
 64
     7
176
     1
 65
   257
176
     1
 75
     1
176
     1
175
     1
176
     1
 42
1.0
176
     1
 92
        8
176
     1
 66
     7
176
     1
 43
1.0
176
     1
 76
     1
176
     1
 77
     6
176
     1
 78
     2
176
     1
 67
     7
176
     1
 79
     5
176
     1
170
     0
176
     1
171
     0
176
     1
290
     0
176
     1
 93
        1
176
     1
 44
-50.0
176
     1
173
     0
176
     1
  0
VISUALSTYLE
  5
39
102
{ACAD_REACTORS
330
2A
102
}
330
2A
100
AcDbVisualStyle
  2
Facepattern
 70
    15
177
     2
291
     1
 71
     2
176
     1
 72
     2
176
     1
 73
     0
176
     1
 90
        0
176
     1
 40
-0.6
176
     1
 41
-30.0
176
     1
 62
     5
 63
     7
421
 16777215
176
     1
 74
     1
176
     1
 91
        4
176
     1
 64
     7
176
     1
 65
   257
176
     1
 75
     1
176
     1
175
     1
176
     1
 42
1.0
176
     1
 92
        8
176
     1
 66
     7
176
     1
 43
1.0
176
     1
 76
     1
176
     1
 77
     6
176
     1
 78
     2
176
     1
 67
     7
176
     1
 79
     5
176
     1
170
     0
176
     1
171
     0
176
     1
290
     0
176
     1
 93
        1
176
     1
 44
0.0
176
     1
173
     0
176
     1
  0
VISUALSTYLE
  5
2B
102
{ACAD_REACTORS
330
2A
102
}
330
2A
100
AcDbVisualStyle
  2
Flat
 70
     0
177
     2
291
     1
 71
     2
176
     1
 72
     1
176
     1
 73
     1
176
     1
 90
        2
176
     1
 40
-0.6
176
     1
 41
30.0
176
     1
 62
     5
 63
     7
421
 16777215
176
     1
 74
     0
176
     1
 91
        4
176
     1
 64
     7
176
     1
 65
   257
176
     1
 75
     1
176
     1
175
     1
176
     1
 42
1.0
176
     1
 92
        8
176
     1
 66
     7
176
     1
 43
1.0
176
     1
 76
     1
176
     1
 77
     6
176
     1
 78
     2
176
     1
 67
     7
176
     1
 79
     5
176
     1
170
     0
176
     1
171
     0
176
     1
290
     0
176
     1
 93
       13
176
     1
 44
0.0
176
     1
173
     0
176
     1
  0
VISUALSTYLE
  5
2C
102
{ACAD_REACTORS
330
2A
102
}
330
2A
100
AcDbVisualStyle
  2
FlatWithEdges
 70
     1
177
     2
291
     1
 71
     2
176
     1
 72
     1
176
     1
 73
     1
176
     1
 90
        2
176
     1
 40
-0.6
176
     1
 41
30.0
176
     1
 62
     5
 63
     7
421
 16777215
176
     1
 74
     1
176
     1
 91
        4
176
     1
 64
     7
176
     1
 65
   257
176
     1
 75
     1
176
     1
175
     1
176
     1
 42
1.0
176
     1
 92
        0
176
     1
 66
   257
176
     1
 43
1.0
176
     1
 76
     1
176
     1
 77
     6
176
     1
 78
     2
176
     1
 67
     7
176
     1
 79
     5
176
     1
170
     0
176
     1
171
     0
176
     1
290
     0
176
     1
 93
       13
176
     1
 44
0.0
176
     1
173
     0
176
     1
  0
VISUALSTYLE
  5
2D
102
{ACAD_REACTORS
330
2A
102
}
330
2A
100
AcDbVisualStyle
  2
Gouraud
 70
     2
177
     2
291
     1
 71
     2
176
     1
 72
     2
176
     1
 73
     1
176
     1
 90
        2
176
     1
 40
-0.6
176
     1
 41
30.0
176
     1
 62
     5
 63
     7
421
 16777215
176
     1
 74
     0
176
     1
 91
        4
176
     1
 64
     7
176
     1
 65
   257
176
     1
 75
     1
176
     1
175
     1
176
     1
 42
1.0
176
     1
 92
        0
176
     1
 66
     7
176
     1
 43
1.0
176
     1
 76
     1
176
     1
 77
     6
176
     1
 78
     2
176
     1
 67
     7
176
     1
 79
     5
176
     1
170
     0
176
     1
171
     0
176
     1
290
     0
176
     1
 93
       13
176
     1
 44
0.0
176
     1
173
     0
176
     1
  0
VISUALSTYLE
  5
2E
102
{ACAD_REACTORS
330
2A
102
}
330
2A
100
AcDbVisualStyle
  2
GouraudWithEdges
 70
     3
177
     2
291
     1
 71
     2
176
     1
 72
     2
176
     1
 73
     1
176
     1
 90
        2
176
     1
 40
-0.6
176
     1
 41
30.0
176
     1
 62
     5
 63
     7
421
 16777215
176
     1
 74
     1
176
     1
 91
        4
176
     1
 64
     7
176
     1
 65
   257
176
     1
 75
     1
176
     1
175
     1
176
     1
 42
1.0
176
     1
 92
        0
176
     1
 66
   257
176
     1
 43
1.0
176
     1
 76
     1
176
     1
 77
     6
176
     1
 78
     2
176
     1
 67
     7
176
     1
 79
     5
176
     1
170
     0
176
     1
171
     0
176
     1
290
     0
176
     1
 93
       13
176
     1
 44
0.0
176
     1
173
     0
176
     1
  0
VISUALSTYLE
  5
38
102
{ACAD_REACTORS
330
2A
102
}
330
2A
100
AcDbVisualStyle
  2
Linepattern
 70
    14
177
     2
291
     1
 71
     2
176
     1
 72
     2
176
     1
 73
     0
176
     1
 90
        0
176
     1
 40
-0.6
176
     1
 41
-30.0
176
     1
 62
     5
 63
     7
421
 16777215
176
     1
 74
     1
176
     1
 91
        4
176
     1
 64
     7
176
     1
 65
   257
176
     1
 75
     7
176
     1
175
     7
176
     1
 42
1.0
176
     1
 92
        8
176
     1
 66
     7
176
     1
 43
1.0
176
     1
 76
     1
176
     1
 77
     6
176
     1
 78
     2
176
     1
 67
     7
176
     1
 79
     5
176
     1
170
     0
176
     1
171
     0
176
     1
290
     0
176
     1
 93
        1
176
     1
 44
0.0
176
     1
173
     0
176
     1
  0
VISUALSTYLE
  5
33
102
{ACAD_REACTORS
330
2A
102
}
330
2A
100
AcDbVisualStyle
  2
Realistic
 70
     8
177
     2
291
     0
 71
     2
176
     1
 72
     2
176
     1
 73
     0
176
     1
 90
        0
176
     1
 40
-0.6
176
     1
 41
-30.0
176
     1
 62
     5
 63
     7
421
 16777215
176
     1
 74
     1
176
     1
 91
        0
176
     1
 64
     7
176
     1
 65
   257
176
     1
 75
     1
176
     1
175
     1
176
     1
 42
1.0
176
     1
 92
        8
176
     1
 66
     8
424
  7895160
176
     1
 43
1.0
176
     1
 76
     1
176
     1
 77
     6
176
     1
 78
     2
176
     1
 67
     7
176
     1
 79
     5
176
     1
170
     0
176
     1
171
     0
176
     1
290
     0
176
     1
 93
       13
176
     1
 44
0.0
176
     1
173
     0
176
     1
  0
VISUALSTYLE
  5
37
102
{ACAD_REACTORS
330
2A
102
}
330
2A
100
AcDbVisualStyle
  2
Thicken
 70
    13
177
     2
291
     1
 71
     2
176
     1
 72
     2
176
     1
 73
     0
176
     1
 90
        0
176
     1
 40
-0.6
176
     1
 41
-30.0
176
     1
 62
     5
 63
     7
421
 16777215
176
     1
 74
     1
176
     1
 91
        4
176
     1
 64
     7
176
     1
 65
   257
176
     1
 75
     1
176
     1
175
     1
176
     1
 42
1.0
176
     1
 92
       12
176
     1
 66
     7
176
     1
 43
1.0
176
     1
 76
     1
176
     1
 77
     6
176
     1
 78
     2
176
     1
 67
     7
176
     1
 79
     5
176
     1
170
     0
176
     1
171
     0
176
     1
290
     0
176
     1
 93
        1
176
     1
 44
0.0
176
     1
173
     0
176
     1
  0
ENDSEC
  0
EOF
