  0
SECTION
  2
HEADER
  9
$ACADVER
  1
AC1024
  9
$ACADMAINTVER
 70
     6
  9
$DWGCODEPAGE
  3
UNDEFINED
  9
$INSBASE
 10
0.0
 20
0.0
 30
0.0
  9
$EXTMIN
 10
1.000000000000000E+20
 20
1.000000000000000E+20
 30
1.000000000000000E+20
  9
$EXTMAX
 10
-1.000000000000000E+20
 20
-1.000000000000000E+20
 30
-1.000000000000000E+20
  9
$LIMMIN
 10
0.0
 20
0.0
  9
$LIMMAX
 10
12.0
 20
9.0
  9
$ORTHOMODE
 70
     0
  9
$REGENMODE
 70
     1
  9
$FILLMODE
 70
     1
  9
$QTEXTMODE
 70
     0
  9
$MIRRTEXT
 70
     1
  9
$LTSCALE
 40
1.0
  9
$ATTMODE
 70
     1
  9
$TEXTSIZE
 40
0.2
  9
$TRACEWID
 40
0.05
  9
$TEXTSTYLE
  7
Standard
  9
$CLAYER
  8
0
  9
$CELTYPE
  6
ByLayer
  9
$CECOLOR
 62
   256
  9
$CELTSCALE
 40
1.0
  9
$DISPSILH
 70
     0
  9
$DIMSCALE
 40
1.0
  9
$DIMASZ
 40
0.18
  9
$DIMEXO
 40
0.0625
  9
$DIMDLI
 40
0.38
  9
$DIMRND
 40
0.0
  9
$DIMDLE
 40
0.0
  9
$DIMEXE
 40
0.18
  9
$DIMTP
 40
0.0
  9
$DIMTM
 40
0.0
  9
$DIMTXT
 40
0.18
  9
$DIMCEN
 40
0.09
  9
$DIMTSZ
 40
0.0
  9
$DIMTOL
 70
     0
  9
$DIMLIM
 70
     0
  9
$DIMTIH
 70
     1
  9
$DIMTOH
 70
     1
  9
$DIMSE1
 70
     0
  9
$DIMSE2
 70
     0
  9
$DIMTAD
 70
     0
  9
$DIMZIN
 70
     0
  9
$DIMBLK
  1

  9
$DIMASO
 70
     1
  9
$DIMSHO
 70
     1
  9
$DIMPOST
  1

  9
$DIMAPOST
  1

  9
$DIMALT
 70
     0
  9
$DIMALTD
 70
     2
  9
$DIMALTF
 40
25.4
  9
$DIMLFAC
 40
1.0
  9
$DIMTOFL
 70
     0
  9
$DIMTVP
 40
0.0
  9
$DIMTIX
 70
     0
  9
$DIMSOXD
 70
     0
  9
$DIMSAH
 70
     0
  9
$DIMBLK1
  1

  9
$DIMBLK2
  1

  9
$DIMSTYLE
  2
Standard
  9
$DIMCLRD
 70
     0
  9
$DIMCLRE
 70
     0
  9
$DIMCLRT
 70
     0
  9
$DIMTFAC
 40
1.0
  9
$DIMGAP
 40
0.09
  9
$DIMJUST
 70
     0
  9
$DIMSD1
 70
     0
  9
$DIMSD2
 70
     0
  9
$DIMTOLJ
 70
     1
  9
$DIMTZIN
 70
     0
  9
$DIMALTZ
 70
     0
  9
$DIMALTTZ
 70
     0
  9
$DIMUPT
 70
     0
  9
$DIMDEC
 70
     4
  9
$DIMTDEC
 70
     4
  9
$DIMALTU
 70
     2
  9
$DIMALTTD
 70
     2
  9
$DIMTXSTY
  7
Standard
  9
$DIMAUNIT
 70
     0
  9
$DIMADEC
 70
     0
  9
$DIMALTRND
 40
0.0
  9
$DIMAZIN
 70
     0
  9
$DIMDSEP
 70
    46
  9
$DIMATFIT
 70
     3
  9
$DIMFRAC
 70
     0
  9
$DIMLDRBLK
  1

  9
$DIMLUNIT
 70
     2
  9
$DIMLWD
 70
    -2
  9
$DIMLWE
 70
    -2
  9
$DIMTMOVE
 70
     0
  9
$DIMFXL
 40
1.0
  9
$DIMFXLON
 70
     0
  9
$DIMJOGANG
 40
0.7853981633974483
  9
$DIMTFILL
 70
     0
  9
$DIMTFILLCLR
 70
     0
  9
$DIMARCSYM
 70
     0
  9
$DIMLTYPE
  6

  9
$DIMLTEX1
  6

  9
$DIMLTEX2
  6

  9
$DIMTXTDIRECTION
 70
     0
  9
$LUNITS
 70
     2
  9
$LUPREC
 70
     4
  9
$SKETCHINC
 40
0.1
  9
$FILLETRAD
 40
0.5
  9
$AUNITS
 70
     0
  9
$AUPREC
 70
     0
  9
$MENU
  1
.
  9
$ELEVATION
 40
0.0
  9
$PELEVATION
 40
0.0
  9
$THICKNESS
 40
0.0
  9
$LIMCHECK
 70
     0
  9
$CHAMFERA
 40
0.5
  9
$CHAMFERB
 40
0.5
  9
$CHAMFERC
 40
1.0
  9
$CHAMFERD
 40
0.0
  9
$SKPOLY
 70
     0
  9
$TDCREATE
 40
2457917.626979155
  9
$TDUCREATE
 40
2457917.251979167
  9
$TDUPDATE
 40
2457917.626979155
  9
$TDUUPDATE
 40
2457917.251979167
  9
$TDINDWG
 40
0.0000000116
  9
$TDUSRTIMER
 40
0.0000000116
  9
$USRTIMER
 70
     1
  9
$ANGBASE
 50
0.0
  9
$ANGDIR
 70
     0
  9
$PDMODE
 70
     0
  9
$PDSIZE
 40
0.0
  9
$PLINEWID
 40
0.0
  9
$SPLFRAME
 70
     0
  9
$SPLINETYPE
 70
     6
  9
$SPLINESEGS
 70
     8
  9
$HANDSEED
  5
9D
  9
$SURFTAB1
 70
     6
  9
$SURFTAB2
 70
     6
  9
$SURFTYPE
 70
     6
  9
$SURFU
 70
     6
  9
$SURFV
 70
     6
  9
$UCSBASE
  2

  9
$UCSNAME
  2

  9
$UCSORG
 10
0.0
 20
0.0
 30
0.0
  9
$UCSXDIR
 10
1.0
 20
0.0
 30
0.0
  9
$UCSYDIR
 10
0.0
 20
1.0
 30
0.0
  9
$UCSORTHOREF
  2

  9
$UCSORTHOVIEW
 70
     0
  9
$UCSORGTOP
 10
0.0
 20
0.0
 30
0.0
  9
$UCSORGBOTTOM
 10
0.0
 20
0.0
 30
0.0
  9
$UCSORGLEFT
 10
0.0
 20
0.0
 30
0.0
  9
$UCSORGRIGHT
 10
0.0
 20
0.0
 30
0.0
  9
$UCSORGFRONT
 10
0.0
 20
0.0
 30
0.0
  9
$UCSORGBACK
 10
0.0
 20
0.0
 30
0.0
  9
$PUCSBASE
  2

  9
$PUCSNAME
  2

  9
$PUCSORG
 10
0.0
 20
0.0
 30
0.0
  9
$PUCSXDIR
 10
1.0
 20
0.0
 30
0.0
  9
$PUCSYDIR
 10
0.0
 20
1.0
 30
0.0
  9
$PUCSORTHOREF
  2

  9
$PUCSORTHOVIEW
 70
     0
  9
$PUCSORGTOP
 10
0.0
 20
0.0
 30
0.0
  9
$PUCSORGBOTTOM
 10
0.0
 20
0.0
 30
0.0
  9
$PUCSORGLEFT
 10
0.0
 20
0.0
 30
0.0
  9
$PUCSORGRIGHT
 10
0.0
 20
0.0
 30
0.0
  9
$PUCSORGFRONT
 10
0.0
 20
0.0
 30
0.0
  9
$PUCSORGBACK
 10
0.0
 20
0.0
 30
0.0
  9
$USERI1
 70
     0
  9
$USERI2
 70
     0
  9
$USERI3
 70
     0
  9
$USERI4
 70
     0
  9
$USERI5
 70
     0
  9
$USERR1
 40
0.0
  9
$USERR2
 40
0.0
  9
$USERR3
 40
0.0
  9
$USERR4
 40
0.0
  9
$USERR5
 40
0.0
  9
$WORLDVIEW
 70
     1
  9
$SHADEDGE
 70
     3
  9
$SHADEDIF
 70
    70
  9
$TILEMODE
 70
     1
  9
$MAXACTVP
 70
    64
  9
$PINSBASE
 10
0.0
 20
0.0
 30
0.0
  9
$PLIMCHECK
 70
     0
  9
$PEXTMIN
 10
1.000000000000000E+20
 20
1.000000000000000E+20
 30
1.000000000000000E+20
  9
$PEXTMAX
 10
-1.000000000000000E+20
 20
-1.000000000000000E+20
 30
-1.000000000000000E+20
  9
$PLIMMIN
 10
0.0
 20
0.0
  9
$PLIMMAX
 10
12.0
 20
9.0
  9
$UNITMODE
 70
     0
  9
$VISRETAIN
 70
     1
  9
$PLINEGEN
 70
     0
  9
$PSLTSCALE
 70
     1
  9
$TREEDEPTH
 70
  3020
  9
$CMLSTYLE
  2
Standard
  9
$CMLJUST
 70
     0
  9
$CMLSCALE
 40
1.0
  9
$PROXYGRAPHICS
 70
     1
  9
$MEASUREMENT
 70
     0
  9
$CELWEIGHT
370
    -1
  9
$ENDCAPS
280
     0
  9
$JOINSTYLE
280
     0
  9
$LWDISPLAY
290
     1
  9
$INSUNITS
 70
     1
  9
$HYPERLINKBASE
  1

  9
$STYLESHEET
  1

  9
$XEDIT
290
     1
  9
$CEPSNTYPE
380
     0
  9
$PSTYLEMODE
290
     1
  9
$FINGERPRINTGUID
  2
{92B23A21-72E8-78C7-8CDA-D6C5F9895F49}
  9
$VERSIONGUID
  2
{FAEB1C32-E019-11D5-929B-00C0DF256EC4}
  9
$EXTNAMES
290
     1
  9
$PSVPSCALE
 40
0.0
  9
$OLESTARTUP
290
     0
  9
$SORTENTS
280
   127
  9
$INDEXCTL
280
     0
  9
$HIDETEXT
280
     1
  9
$XCLIPFRAME
280
     2
  9
$HALOGAP
280
     0
  9
$OBSCOLOR
 70
   257
  9
$OBSLTYPE
280
     0
  9
$INTERSECTIONDISPLAY
280
     0
  9
$INTERSECTIONCOLOR
 70
   257
  9
$DIMASSOC
280
     2
  9
$PROJECTNAME
  1

  9
$CAMERADISPLAY
290
     0
  9
$LENSLENGTH
 40
50.0
  9
$CAMERAHEIGHT
 40
0.0
  9
$STEPSPERSEC
 40
2.0
  9
$STEPSIZE
 40
6.0
  9
$3DDWFPREC
 40
2.0
  9
$PSOLWIDTH
 40
0.25
  9
$PSOLHEIGHT
 40
4.0
  9
$LOFTANG1
 40
1.570796326794897
  9
$LOFTANG2
 40
1.570796326794897
  9
$LOFTMAG1
 40
0.0
  9
$LOFTMAG2
 40
0.0
  9
$LOFTPARAM
 70
     7
  9
$LOFTNORMALS
280
     1
  9
$LATITUDE
 40
37.795
  9
$LONGITUDE
 40
-122.394
  9
$NORTHDIRECTION
 40
0.0
  9
$TIMEZONE
 70
 -8000
  9
$LIGHTGLYPHDISPLAY
280
     1
  9
$TILEMODELIGHTSYNCH
280
     1
  9
$CMATERIAL
347
3C
  9
$SOLIDHIST
280
     1
  9
$SHOWHIST
280
     1
  9
$DWFFRAME
280
     2
  9
$DGNFRAME
280
     2
  9
$REALWORLDSCALE
290
     1
  9
$INTERFERECOLOR
 62
   256
  9
$CSHADOW
280
     0
  9
$SHADOWPLANELOCATION
 40
0.0
  0
ENDSEC
  0
SECTION
  2
CLASSES
  0
CLASS
  1
ACDBDICTIONARYWDFLT
  2
AcDbDictionaryWithDefault
  3
ObjectDBX Classes
 90
        0
 91
        4
280
     0
281
     0
  0
CLASS
  1
VISUALSTYLE
  2
AcDbVisualStyle
  3
ObjectDBX Classes
 90
     4095
 91
        4
280
     0
281
     0
  0
CLASS
  1
MATERIAL
  2
AcDbMaterial
  3
ObjectDBX Classes
 90
     1153
 91
        4
280
     0
281
     0
  0
CLASS
  1
SUN
  2
AcDbSun
  3
SCENEOE
 90
     1024
 91
        4
280
     0
281
     0
  0
ENDSEC
  0
SECTION
  2
TABLES
  0
TABLE
  2
VPORT
  5
8
330
0
100
AcDbSymbolTable
 70
     1
  0
VPORT
  5
29
330
8
100
AcDbSymbolTableRecord
100
AcDbViewportTableRecord
  2
*Active
 70
     0
 10
0.0
 20
0.0
 11
1.0
 21
1.0
 12
0.0
 22
0.0
 13
0.0
 23
0.0
 14
0.5
 24
0.5
 15
0.5
 25
0.5
 16
0.0
 26
0.0
 36
1.0
 17
91.00082462281999
 27
-128.4993055234307
 37
0.0
 40
256.9986110468615
 41
0.7081814508812795
 42
50.0
 43
0.0
 44
0.0
 50
0.0
 51
0.0
 71
     0
 72
   100
 73
     1
 74
     3
 75
     0
 76
     0
 77
     0
 78
     0
281
     0
 65
     1
110
0.0
120
0.0
130
0.0
111
1.0
121
0.0
131
0.0
112
0.0
122
1.0
132
0.0
 79
     0
146
0.0
 60
     3
 61
     5
292
     1
282
     1
141
0.0
142
0.0
 63
   250
361
3F
  0
ENDTAB
  0
TABLE
  2
LTYPE
  5
5
330
0
100
AcDbSymbolTable
 70
     1
  0
LTYPE
  5
14
330
5
100
AcDbSymbolTableRecord
100
AcDbLinetypeTableRecord
  2
ByBlock
 70
     0
  3

 72
    65
 73
     0
 40
0.0
  0
LTYPE
  5
15
330
5
100
AcDbSymbolTableRecord
100
AcDbLinetypeTableRecord
  2
ByLayer
 70
     0
  3

 72
    65
 73
     0
 40
0.0
  0
LTYPE
  5
16
330
5
100
AcDbSymbolTableRecord
100
AcDbLinetypeTableRecord
  2
Continuous
 70
     0
  3
Solid line
 72
    65
 73
     0
 40
0.0
  0
ENDTAB
  0
TABLE
  2
LAYER
  5
2
330
0
100
AcDbSymbolTable
 70
     2
  0
LAYER
  5
10
330
2
100
AcDbSymbolTableRecord
100
AcDbLayerTableRecord
  2
0
 70
     0
 62
     7
  6
Continuous
370
    -3
390
F
347
3E
  0
LAYER
  5
40
330
2
100
AcDbSymbolTableRecord
100
AcDbLayerTableRecord
  2
_U+30EC_U+30A4_U+30E4_U+30FC 1
 70
     0
 62
     7
  6
Continuous
370
    -3
390
F
347
3E
  0
ENDTAB
  0
TABLE
  2
STYLE
  5
3
330
0
100
AcDbSymbolTable
 70
     1
  0
STYLE
  5
11
330
3
100
AcDbSymbolTableRecord
100
AcDbTextStyleTableRecord
  2
Standard
 70
     0
 40
0.0
 41
1.0
 50
0.0
 71
     0
 42
0.2
  3
txt
  4

  0
ENDTAB
  0
TABLE
  2
VIEW
  5
6
330
0
100
AcDbSymbolTable
 70
     0
  0
ENDTAB
  0
TABLE
  2
UCS
  5
7
330
0
100
AcDbSymbolTable
 70
     0
  0
ENDTAB
  0
TABLE
  2
APPID
  5
9
330
0
100
AcDbSymbolTable
 70
     1
  0
APPID
  5
12
330
9
100
AcDbSymbolTableRecord
100
AcDbRegAppTableRecord
  2
ACAD
 70
     0
  0
ENDTAB
  0
TABLE
  2
DIMSTYLE
  5
A
330
0
100
AcDbSymbolTable
 70
     1
100
AcDbDimStyleTable
  0
DIMSTYLE
105
27
330
A
100
AcDbSymbolTableRecord
100
AcDbDimStyleTableRecord
  2
Standard
 70
     0
178
     0
340
11
  0
ENDTAB
  0
TABLE
  2
BLOCK_RECORD
  5
1
330
0
100
AcDbSymbolTable
 70
     5
  0
BLOCK_RECORD
  5
1F
330
1
100
AcDbSymbolTableRecord
100
AcDbBlockTableRecord
  2
*Model_Space
340
22
 70
     0
280
     1
281
     0
  0
BLOCK_RECORD
  5
1B
330
1
100
AcDbSymbolTableRecord
100
AcDbBlockTableRecord
  2
*Paper_Space
340
1E
 70
     0
280
     1
281
     0
  0
BLOCK_RECORD
  5
23
330
1
100
AcDbSymbolTableRecord
100
AcDbBlockTableRecord
  2
*Paper_Space0
340
26
 70
     0
280
     1
281
     0
  0
BLOCK_RECORD
  5
55
330
1
100
AcDbSymbolTableRecord
100
AcDbBlockTableRecord
  2
block 2
340
0
102
{BLKREFS
331
56
102
}
 70
     0
280
     1
281
     0
  0
BLOCK_RECORD
  5
69
330
1
100
AcDbSymbolTableRecord
100
AcDbBlockTableRecord
  2
block 3
340
0
102
{BLKREFS
331
6A
102
}
 70
     0
280
     1
281
     0
  0
BLOCK_RECORD
  5
7E
330
1
100
AcDbSymbolTableRecord
100
AcDbBlockTableRecord
  2
block 4
340
0
102
{BLKREFS
331
7F
102
}
 70
     0
280
     1
281
     0
  0
BLOCK_RECORD
  5
92
330
1
100
AcDbSymbolTableRecord
100
AcDbBlockTableRecord
  2
block 5
340
0
102
{BLKREFS
331
93
102
}
 70
     0
280
     1
281
     0
  0
ENDTAB
  0
ENDSEC
  0
SECTION
  2
BLOCKS
  0
BLOCK
  5
20
330
1F
100
AcDbEntity
  8
0
100
AcDbBlockBegin
  2
*Model_Space
 70
     0
 10
0.0
 20
0.0
 30
0.0
  3
*Model_Space
  1

  0
ENDBLK
  5
21
330
1F
100
AcDbEntity
  8
0
100
AcDbBlockEnd
  0
BLOCK
  5
1C
330
1B
100
AcDbEntity
 67
     1
  8
0
100
AcDbBlockBegin
  2
*Paper_Space
 70
     0
 10
0.0
 20
0.0
 30
0.0
  3
*Paper_Space
  1

  0
ENDBLK
  5
1D
330
1B
100
AcDbEntity
 67
     1
  8
0
100
AcDbBlockEnd
  0
BLOCK
  5
24
330
23
100
AcDbEntity
  8
0
100
AcDbBlockBegin
  2
*Paper_Space0
 70
     0
 10
0.0
 20
0.0
 30
0.0
  3
*Paper_Space0
  1

  0
ENDBLK
  5
25
330
23
100
AcDbEntity
  8
0
100
AcDbBlockEnd
  0
BLOCK
  5
57
330
55
100
AcDbEntity
  8
0
100
AcDbBlockBegin
  2
block 2
 70
     0
 10
0.0
 20
0.0
 30
0.0
  3
block 2
  1

  0
SPLINE
  5
59
330
55
100
AcDbEntity
  8
_U+30EC_U+30A4_U+30E4_U+30FC 1
370
     0
100
AcDbSpline
210
0.0
220
0.0
230
1.0
 70
    11
 71
     3
 72
    26
 73
    22
 74
     0
 42
0.0000000001
 43
0.0000000001
 12
1.0
 22
0.0
 32
0.0
 13
1.0
 23
0.0
 33
0.0
 40
0.0
 40
0.0
 40
0.0
 40
0.0
 40
1.0
 40
1.0
 40
1.0
 40
2.0
 40
2.0
 40
2.0
 40
3.0
 40
3.0
 40
3.0
 40
4.0
 40
4.0
 40
4.0
 40
5.0
 40
5.0
 40
5.0
 40
6.0
 40
6.0
 40
6.0
 40
7.0
 40
7.0
 40
7.0
 40
7.0
 10
91.22130531573634
 20
-115.4368814815574
 30
0.0
 10
91.22130531573634
 20
-115.4368814815574
 30
0.0
 10
91.22130531573634
 20
-114.2428113863699
 30
0.0
 10
91.22130531573634
 20
-114.2428113863699
 30
0.0
 10
91.22130531573634
 20
-114.2428113863699
 30
0.0
 10
90.87782929585694
 20
-114.2428113863699
 30
0.0
 10
90.87782929585694
 20
-114.2428113863699
 30
0.0
 10
90.87782929585694
 20
-114.2428113863699
 30
0.0
 10
90.87782929585694
 20
-114.0826144463057
 30
0.0
 10
90.87782929585694
 20
-114.0826144463057
 30
0.0
 10
91.22354462780176
 20
-114.0664224975251
 30
0.0
 10
91.27194821936952
 20
-113.8903781182288
 30
0.0
 10
91.3027818239625
 20
-113.7666991903083
 30
0.0
 10
91.3027818239625
 20
-113.7666991903083
 30
0.0
 10
91.45488278963629
 20
-113.7666991903083
 30
0.0
 10
91.45488278963629
 20
-113.7666991903083
 30
0.0
 10
91.45488278963629
 20
-113.7666991903083
 30
0.0
 10
91.45488278963629
 20
-115.4368814815574
 30
0.0
 10
91.45488278963629
 20
-115.4368814815574
 30
0.0
 10
91.45488278963629
 20
-115.4368814815574
 30
0.0
 10
91.22130531573634
 20
-115.4368814815574
 30
0.0
 10
91.22130531573634
 20
-115.4368814815574
 30
0.0
  0
HATCH
  5
5A
330
55
100
AcDbEntity
  8
_U+30EC_U+30A4_U+30E4_U+30FC 1
 62
   179
420
  2234388
100
AcDbHatch
 10
0.0
 20
0.0
 30
0.0
210
0.0
220
0.0
230
1.0
  2
SOLID
 70
     1
 71
     0
 91
        1
 92
        1
 93
        1
 72
     4
 94
        3
 73
     0
 74
     1
 95
       26
 96
       22
 40
0.0
 40
0.0
 40
0.0
 40
0.0
 40
1.0
 40
1.0
 40
1.0
 40
2.0
 40
2.0
 40
2.0
 40
3.0
 40
3.0
 40
3.0
 40
4.0
 40
4.0
 40
4.0
 40
5.0
 40
5.0
 40
5.0
 40
6.0
 40
6.0
 40
6.0
 40
7.0
 40
7.0
 40
7.0
 40
7.0
 10
91.22130531573634
 20
-115.4368814815574
 10
91.22130531573634
 20
-115.4368814815574
 10
91.22130531573634
 20
-114.2428113863699
 10
91.22130531573634
 20
-114.2428113863699
 10
91.22130531573634
 20
-114.2428113863699
 10
90.87782929585694
 20
-114.2428113863699
 10
90.87782929585694
 20
-114.2428113863699
 10
90.87782929585694
 20
-114.2428113863699
 10
90.87782929585694
 20
-114.0826144463057
 10
90.87782929585694
 20
-114.0826144463057
 10
91.22354462780176
 20
-114.0664224975251
 10
91.27194821936952
 20
-113.8903781182288
 10
91.3027818239625
 20
-113.7666991903083
 10
91.3027818239625
 20
-113.7666991903083
 10
91.45488278963629
 20
-113.7666991903083
 10
91.45488278963629
 20
-113.7666991903083
 10
91.45488278963629
 20
-113.7666991903083
 10
91.45488278963629
 20
-115.4368814815574
 10
91.45488278963629
 20
-115.4368814815574
 10
91.45488278963629
 20
-115.4368814815574
 10
91.22130531573634
 20
-115.4368814815574
 10
91.22130531573634
 20
-115.4368814815574
 97
        0
 97
        0
 75
     2
 76
     1
 98
        0
  0
SPLINE
  5
5B
330
55
100
AcDbEntity
  8
_U+30EC_U+30A4_U+30E4_U+30FC 1
370
     0
100
AcDbSpline
210
0.0
220
0.0
230
1.0
 70
    11
 71
     3
 72
    53
 73
    49
 74
     0
 42
0.0000000001
 43
0.0000000001
 12
1.0
 22
0.0
 32
0.0
 13
1.0
 23
0.0
 33
0.0
 40
0.0
 40
0.0
 40
0.0
 40
0.0
 40
1.0
 40
1.0
 40
1.0
 40
2.0
 40
2.0
 40
2.0
 40
3.0
 40
3.0
 40
3.0
 40
4.0
 40
4.0
 40
4.0
 40
5.0
 40
5.0
 40
5.0
 40
6.0
 40
6.0
 40
6.0
 40
7.0
 40
7.0
 40
7.0
 40
8.0
 40
8.0
 40
8.0
 40
9.0
 40
9.0
 40
9.0
 40
10.0
 40
10.0
 40
10.0
 40
11.0
 40
11.0
 40
11.0
 40
12.0
 40
12.0
 40
12.0
 40
13.0
 40
13.0
 40
13.0
 40
14.0
 40
14.0
 40
14.0
 40
15.0
 40
15.0
 40
15.0
 40
16.0
 40
16.0
 40
16.0
 40
16.0
 10
92.47600909146433
 20
-115.4916584997729
 30
0.0
 10
92.39470483801244
 20
-115.4916584997729
 30
0.0
 10
92.2892849161638
 20
-115.4733994937011
 30
0.0
 10
92.1831759752181
 20
-115.4048420935446
 30
0.0
 10
92.00265297179101
 20
-115.2859862993035
 30
0.0
 10
91.9806043606854
 20
-115.1440483653112
 30
0.0
 10
91.96096731641948
 20
-115.0272596283613
 30
0.0
 10
91.96096731641948
 20
-115.0272596283613
 30
0.0
 10
92.19213322347974
 20
-115.0272596283613
 30
0.0
 10
92.19213322347974
 20
-115.0272596283613
 30
0.0
 10
92.2493218085349
 20
-115.2425780961894
 30
0.0
 10
92.38161347516849
 20
-115.2746174842022
 30
0.0
 10
92.478420658304
 20
-115.2746174842022
 30
0.0
 10
92.62380368778156
 20
-115.2746174842022
 30
0.0
 10
92.78227808010304
 20
-115.1667859955139
 30
0.0
 10
92.78227808010304
 20
-114.9152940250906
 30
0.0
 10
92.78227808010304
 20
-114.6383083480765
 30
0.0
 10
92.59520939525397
 20
-114.5628607569496
 30
0.0
 10
92.46980791959089
 20
-114.5628607569496
 30
0.0
 10
92.4367350029325
 20
-114.5628607569496
 30
0.0
 10
92.2892849161638
 20
-114.5628607569496
 30
0.0
 10
92.19661184761057
 20
-114.7023871241022
 30
0.0
 10
92.19661184761057
 20
-114.7023871241022
 30
0.0
 10
92.0136772773438
 20
-114.6820610607392
 30
0.0
 10
92.0136772773438
 20
-114.6820610607392
 30
0.0
 10
92.0136772773438
 20
-114.6820610607392
 30
0.0
 10
92.13942326255543
 20
-113.7666991903083
 30
0.0
 10
92.13942326255543
 20
-113.7666991903083
 30
0.0
 10
92.13942326255543
 20
-113.7666991903083
 30
0.0
 10
92.94936521113766
 20
-113.7666991903083
 30
0.0
 10
92.94936521113766
 20
-113.7666991903083
 30
0.0
 10
92.94936521113766
 20
-113.7666991903083
 30
0.0
 10
92.94936521113766
 20
-113.9771945244571
 30
0.0
 10
92.94936521113766
 20
-113.9771945244571
 30
0.0
 10
92.94936521113766
 20
-113.9771945244571
 30
0.0
 10
92.30892196042971
 20
-113.9771945244571
 30
0.0
 10
92.30892196042971
 20
-113.9771945244571
 30
0.0
 10
92.30892196042971
 20
-113.9771945244571
 30
0.0
 10
92.24070906982178
 20
-114.4347032048983
 30
0.0
 10
92.24070906982178
 20
-114.4347032048983
 30
0.0
 10
92.30444333629889
 20
-114.3981851927546
 30
0.0
 10
92.39057072343014
 20
-114.3547769896405
 30
0.0
 10
92.51356063225356
 20
-114.3547769896405
 30
0.0
 10
92.77779945597221
 20
-114.3547769896405
 30
0.0
 10
93.02446829271611
 20
-114.5559705659791
 30
0.0
 10
93.02446829271611
 20
-114.8946234521791
 30
0.0
 10
93.02446829271611
 20
-115.23775496251
 30
0.0
 10
92.79089081881617
 20
-115.4916584997729
 30
0.0
 10
92.47600909146433
 20
-115.4916584997729
 30
0.0
  0
HATCH
  5
5C
330
55
100
AcDbEntity
  8
_U+30EC_U+30A4_U+30E4_U+30FC 1
 62
   179
420
  2234388
100
AcDbHatch
 10
0.0
 20
0.0
 30
0.0
210
0.0
220
0.0
230
1.0
  2
SOLID
 70
     1
 71
     0
 91
        1
 92
        1
 93
        1
 72
     4
 94
        3
 73
     0
 74
     1
 95
       53
 96
       49
 40
0.0
 40
0.0
 40
0.0
 40
0.0
 40
1.0
 40
1.0
 40
1.0
 40
2.0
 40
2.0
 40
2.0
 40
3.0
 40
3.0
 40
3.0
 40
4.0
 40
4.0
 40
4.0
 40
5.0
 40
5.0
 40
5.0
 40
6.0
 40
6.0
 40
6.0
 40
7.0
 40
7.0
 40
7.0
 40
8.0
 40
8.0
 40
8.0
 40
9.0
 40
9.0
 40
9.0
 40
10.0
 40
10.0
 40
10.0
 40
11.0
 40
11.0
 40
11.0
 40
12.0
 40
12.0
 40
12.0
 40
13.0
 40
13.0
 40
13.0
 40
14.0
 40
14.0
 40
14.0
 40
15.0
 40
15.0
 40
15.0
 40
16.0
 40
16.0
 40
16.0
 40
16.0
 10
92.47600909146433
 20
-115.4916584997729
 10
92.39470483801244
 20
-115.4916584997729
 10
92.2892849161638
 20
-115.4733994937011
 10
92.1831759752181
 20
-115.4048420935446
 10
92.00265297179101
 20
-115.2859862993035
 10
91.9806043606854
 20
-115.1440483653112
 10
91.96096731641948
 20
-115.0272596283613
 10
91.96096731641948
 20
-115.0272596283613
 10
92.19213322347974
 20
-115.0272596283613
 10
92.19213322347974
 20
-115.0272596283613
 10
92.2493218085349
 20
-115.2425780961894
 10
92.38161347516849
 20
-115.2746174842022
 10
92.478420658304
 20
-115.2746174842022
 10
92.62380368778156
 20
-115.2746174842022
 10
92.78227808010304
 20
-115.1667859955139
 10
92.78227808010304
 20
-114.9152940250906
 10
92.78227808010304
 20
-114.6383083480765
 10
92.59520939525397
 20
-114.5628607569496
 10
92.46980791959089
 20
-114.5628607569496
 10
92.4367350029325
 20
-114.5628607569496
 10
92.2892849161638
 20
-114.5628607569496
 10
92.19661184761057
 20
-114.7023871241022
 10
92.19661184761057
 20
-114.7023871241022
 10
92.0136772773438
 20
-114.6820610607392
 10
92.0136772773438
 20
-114.6820610607392
 10
92.0136772773438
 20
-114.6820610607392
 10
92.13942326255543
 20
-113.7666991903083
 10
92.13942326255543
 20
-113.7666991903083
 10
92.13942326255543
 20
-113.7666991903083
 10
92.94936521113766
 20
-113.7666991903083
 10
92.94936521113766
 20
-113.7666991903083
 10
92.94936521113766
 20
-113.7666991903083
 10
92.94936521113766
 20
-113.9771945244571
 10
92.94936521113766
 20
-113.9771945244571
 10
92.94936521113766
 20
-113.9771945244571
 10
92.30892196042971
 20
-113.9771945244571
 10
92.30892196042971
 20
-113.9771945244571
 10
92.30892196042971
 20
-113.9771945244571
 10
92.24070906982178
 20
-114.4347032048983
 10
92.24070906982178
 20
-114.4347032048983
 10
92.30444333629889
 20
-114.3981851927546
 10
92.39057072343014
 20
-114.3547769896405
 10
92.51356063225356
 20
-114.3547769896405
 10
92.77779945597221
 20
-114.3547769896405
 10
93.02446829271611
 20
-114.5559705659791
 10
93.02446829271611
 20
-114.8946234521791
 10
93.02446829271611
 20
-115.23775496251
 10
92.79089081881617
 20
-115.4916584997729
 10
92.47600909146433
 20
-115.4916584997729
 97
        0
 97
        0
 75
     2
 76
     1
 98
        0
  0
ENDBLK
  5
58
330
55
100
AcDbEntity
  8
0
100
AcDbBlockEnd
  0
BLOCK
  5
6B
330
69
100
AcDbEntity
  8
0
100
AcDbBlockBegin
  2
block 3
 70
     0
 10
0.0
 20
0.0
 30
0.0
  3
block 3
  1

  0
SPLINE
  5
6D
330
69
100
AcDbEntity
  8
_U+30EC_U+30A4_U+30E4_U+30FC 1
370
     0
100
AcDbSpline
210
0.0
220
0.0
230
1.0
 70
    11
 71
     3
 72
    62
 73
    58
 74
     0
 42
0.0000000001
 43
0.0000000001
 12
1.0
 22
0.0
 32
0.0
 13
1.0
 23
0.0
 33
0.0
 40
0.0
 40
0.0
 40
0.0
 40
0.0
 40
1.0
 40
1.0
 40
1.0
 40
2.0
 40
2.0
 40
2.0
 40
3.0
 40
3.0
 40
3.0
 40
4.0
 40
4.0
 40
4.0
 40
5.0
 40
5.0
 40
5.0
 40
6.0
 40
6.0
 40
6.0
 40
7.0
 40
7.0
 40
7.0
 40
8.0
 40
8.0
 40
8.0
 40
9.0
 40
9.0
 40
9.0
 40
10.0
 40
10.0
 40
10.0
 40
11.0
 40
11.0
 40
11.0
 40
12.0
 40
12.0
 40
12.0
 40
13.0
 40
13.0
 40
13.0
 40
14.0
 40
14.0
 40
14.0
 40
15.0
 40
15.0
 40
15.0
 40
16.0
 40
16.0
 40
16.0
 40
17.0
 40
17.0
 40
17.0
 40
18.0
 40
18.0
 40
18.0
 40
19.0
 40
19.0
 40
19.0
 40
19.0
 10
84.00727536962319
 20
-128.0097574549767
 30
0.0
 10
84.00727536962319
 20
-128.1089762049519
 30
0.0
 10
83.98436548464628
 20
-128.3356634878814
 30
0.0
 10
83.78299965353342
 20
-128.4655435876753
 30
0.0
 10
83.66173229245263
 20
-128.5427137265449
 30
0.0
 10
83.55424531331283
 20
-128.5468478411272
 30
0.0
 10
83.46277802817944
 20
-128.551326465258
 30
0.0
 10
83.46277802817944
 20
-128.551326465258
 30
0.0
 10
83.46277802817944
 20
-128.3222276154889
 30
0.0
 10
83.46277802817944
 20
-128.3222276154889
 30
0.0
 10
83.54287649821151
 20
-128.3201605581978
 30
0.0
 10
83.79678003547443
 20
-128.3091362526449
 30
0.0
 10
83.79678003547443
 20
-128.0142360791075
 30
0.0
 10
83.79678003547443
 20
-127.8709201069212
 30
0.0
 10
83.72133244434745
 20
-127.7124457145997
 30
0.0
 10
83.47414684328078
 20
-127.7124457145997
 30
0.0
 10
83.34840085806916
 20
-127.7124457145997
 30
0.0
 10
83.29569089714484
 20
-127.75206431268
 30
0.0
 10
83.26141219706659
 20
-127.7851372293384
 30
0.0
 10
83.18131372703454
 20
-127.862307368208
 30
0.0
 10
83.1677055998678
 20
-127.9832302197403
 30
0.0
 10
83.1677055998678
 20
-128.0404188047955
 30
0.0
 10
83.1677055998678
 20
-128.0604003586099
 30
0.0
 10
83.16994491193321
 20
-128.0979518993991
 30
0.0
 10
83.17442353606404
 20
-128.1265461919267
 30
0.0
 10
83.17442353606404
 20
-128.1265461919267
 30
0.0
 10
82.96410045668954
 20
-128.1265461919267
 30
0.0
 10
82.96410045668954
 20
-128.1265461919267
 30
0.0
 10
82.97081839288577
 20
-128.0869275938463
 30
0.0
 10
82.97322995972544
 20
-128.0428303716351
 30
0.0
 10
82.97322995972544
 20
-128.0362846902132
 30
0.0
 10
82.97322995972544
 20
-127.9680717996052
 30
0.0
 10
82.95032007474853
 20
-127.7610215609417
 30
0.0
 10
82.69400497064595
 20
-127.7610215609417
 30
0.0
 10
82.50194089734327
 20
-127.7610215609417
 30
0.0
 10
82.44234074544845
 20
-127.8974473421576
 30
0.0
 10
82.44234074544845
 20
-128.0118245122679
 30
0.0
 10
82.44234074544845
 20
-128.2870876415394
 30
0.0
 10
82.69400497064595
 20
-128.296044889801
 30
0.0
 10
82.77186412861259
 20
-128.3005235139318
 30
0.0
 10
82.77186412861259
 20
-128.3005235139318
 30
0.0
 10
82.77186412861259
 20
-128.5117078671776
 30
0.0
 10
82.77186412861259
 20
-128.5117078671776
 30
0.0
 10
82.6368163855908
 20
-128.502750618916
 30
0.0
 10
82.22960609923427
 20
-128.4741563263884
 30
0.0
 10
82.22960609923427
 20
-127.9987331494239
 30
0.0
 10
82.22960609923427
 20
-127.7655001850725
 30
0.0
 10
82.36689315432147
 20
-127.5143527241978
 30
0.0
 10
82.68711477967545
 20
-127.5143527241978
 30
0.0
 10
82.8884806107883
 20
-127.5143527241978
 30
0.0
 10
82.97770858385627
 20
-127.613571474173
 30
0.0
 10
83.04402667194734
 20
-127.7169243387305
 30
0.0
 10
83.07382674789474
 20
-127.6531900722534
 30
0.0
 10
83.1608154088973
 20
-127.4637098205646
 30
0.0
 10
83.46053871611403
 20
-127.4637098205646
 30
0.0
 10
83.82658011142183
 20
-127.4637098205646
 30
0.0
 10
84.00727536962319
 20
-127.7214029628613
 30
0.0
 10
84.00727536962319
 20
-128.0097574549767
 30
0.0
  0
HATCH
  5
6E
330
69
100
AcDbEntity
  8
_U+30EC_U+30A4_U+30E4_U+30FC 1
 62
   179
420
  2234388
100
AcDbHatch
 10
0.0
 20
0.0
 30
0.0
210
0.0
220
0.0
230
1.0
  2
SOLID
 70
     1
 71
     0
 91
        1
 92
        1
 93
        1
 72
     4
 94
        3
 73
     0
 74
     1
 95
       62
 96
       58
 40
0.0
 40
0.0
 40
0.0
 40
0.0
 40
1.0
 40
1.0
 40
1.0
 40
2.0
 40
2.0
 40
2.0
 40
3.0
 40
3.0
 40
3.0
 40
4.0
 40
4.0
 40
4.0
 40
5.0
 40
5.0
 40
5.0
 40
6.0
 40
6.0
 40
6.0
 40
7.0
 40
7.0
 40
7.0
 40
8.0
 40
8.0
 40
8.0
 40
9.0
 40
9.0
 40
9.0
 40
10.0
 40
10.0
 40
10.0
 40
11.0
 40
11.0
 40
11.0
 40
12.0
 40
12.0
 40
12.0
 40
13.0
 40
13.0
 40
13.0
 40
14.0
 40
14.0
 40
14.0
 40
15.0
 40
15.0
 40
15.0
 40
16.0
 40
16.0
 40
16.0
 40
17.0
 40
17.0
 40
17.0
 40
18.0
 40
18.0
 40
18.0
 40
19.0
 40
19.0
 40
19.0
 40
19.0
 10
84.00727536962319
 20
-128.0097574549767
 10
84.00727536962319
 20
-128.1089762049519
 10
83.98436548464628
 20
-128.3356634878814
 10
83.78299965353342
 20
-128.4655435876753
 10
83.66173229245263
 20
-128.5427137265449
 10
83.55424531331283
 20
-128.5468478411272
 10
83.46277802817944
 20
-128.551326465258
 10
83.46277802817944
 20
-128.551326465258
 10
83.46277802817944
 20
-128.3222276154889
 10
83.46277802817944
 20
-128.3222276154889
 10
83.54287649821151
 20
-128.3201605581978
 10
83.79678003547443
 20
-128.3091362526449
 10
83.79678003547443
 20
-128.0142360791075
 10
83.79678003547443
 20
-127.8709201069212
 10
83.72133244434745
 20
-127.7124457145997
 10
83.47414684328078
 20
-127.7124457145997
 10
83.34840085806916
 20
-127.7124457145997
 10
83.29569089714484
 20
-127.75206431268
 10
83.26141219706659
 20
-127.7851372293384
 10
83.18131372703454
 20
-127.862307368208
 10
83.1677055998678
 20
-127.9832302197403
 10
83.1677055998678
 20
-128.0404188047955
 10
83.1677055998678
 20
-128.0604003586099
 10
83.16994491193321
 20
-128.0979518993991
 10
83.17442353606404
 20
-128.1265461919267
 10
83.17442353606404
 20
-128.1265461919267
 10
82.96410045668954
 20
-128.1265461919267
 10
82.96410045668954
 20
-128.1265461919267
 10
82.97081839288577
 20
-128.0869275938463
 10
82.97322995972544
 20
-128.0428303716351
 10
82.97322995972544
 20
-128.0362846902132
 10
82.97322995972544
 20
-127.9680717996052
 10
82.95032007474853
 20
-127.7610215609417
 10
82.69400497064595
 20
-127.7610215609417
 10
82.50194089734327
 20
-127.7610215609417
 10
82.44234074544845
 20
-127.8974473421576
 10
82.44234074544845
 20
-128.0118245122679
 10
82.44234074544845
 20
-128.2870876415394
 10
82.69400497064595
 20
-128.296044889801
 10
82.77186412861259
 20
-128.3005235139318
 10
82.77186412861259
 20
-128.3005235139318
 10
82.77186412861259
 20
-128.5117078671776
 10
82.77186412861259
 20
-128.5117078671776
 10
82.6368163855908
 20
-128.502750618916
 10
82.22960609923427
 20
-128.4741563263884
 10
82.22960609923427
 20
-127.9987331494239
 10
82.22960609923427
 20
-127.7655001850725
 10
82.36689315432147
 20
-127.5143527241978
 10
82.68711477967545
 20
-127.5143527241978
 10
82.8884806107883
 20
-127.5143527241978
 10
82.97770858385627
 20
-127.613571474173
 10
83.04402667194734
 20
-127.7169243387305
 10
83.07382674789474
 20
-127.6531900722534
 10
83.1608154088973
 20
-127.4637098205646
 10
83.46053871611403
 20
-127.4637098205646
 10
83.82658011142183
 20
-127.4637098205646
 10
84.00727536962319
 20
-127.7214029628613
 10
84.00727536962319
 20
-128.0097574549767
 97
        0
 97
        0
 75
     2
 76
     1
 98
        0
  0
SPLINE
  5
6F
330
69
100
AcDbEntity
  8
_U+30EC_U+30A4_U+30E4_U+30FC 1
370
     0
100
AcDbSpline
210
0.0
220
0.0
230
1.0
 70
    11
 71
     3
 72
    29
 73
    25
 74
     0
 42
0.0000000001
 43
0.0000000001
 12
1.0
 22
0.0
 32
0.0
 13
1.0
 23
0.0
 33
0.0
 40
0.0
 40
0.0
 40
0.0
 40
0.0
 40
1.0
 40
1.0
 40
1.0
 40
2.0
 40
2.0
 40
2.0
 40
3.0
 40
3.0
 40
3.0
 40
4.0
 40
4.0
 40
4.0
 40
5.0
 40
5.0
 40
5.0
 40
6.0
 40
6.0
 40
6.0
 40
7.0
 40
7.0
 40
7.0
 40
8.0
 40
8.0
 40
8.0
 40
8.0
 10
83.76008976855651
 20
-126.3630018130273
 30
0.0
 10
83.98660479671169
 20
-126.4753119258465
 30
0.0
 10
84.00727536962319
 20
-126.6558349292736
 30
0.0
 10
84.00727536962319
 20
-126.7767577808058
 30
0.0
 10
84.00727536962319
 20
-126.944189421389
 30
0.0
 10
83.95697697553854
 20
-127.0916395081577
 30
0.0
 10
83.76008976855651
 20
-127.1908582581328
 30
0.0
 10
83.54976668918201
 20
-127.2986897468212
 30
0.0
 10
83.29345158507942
 20
-127.3183267910871
 30
0.0
 10
83.1172349510089
 20
-127.3183267910871
 30
0.0
 10
82.96168888984985
 20
-127.3183267910871
 30
0.0
 10
82.68952634651512
 20
-127.3007568041123
 30
0.0
 10
82.47438013346127
 20
-127.1908582581328
 30
0.0
 10
82.2547552962766
 20
-127.0785481453137
 30
0.0
 10
82.22960609923427
 20
-126.9111165047306
 30
0.0
 10
82.22960609923427
 20
-126.7767577808058
 30
0.0
 10
82.22960609923427
 20
-126.6117377070623
 30
0.0
 10
82.27766518125351
 20
-126.4622205630025
 30
0.0
 10
82.47438013346127
 20
-126.3630018130273
 30
0.0
 10
82.68263615554463
 20
-126.2596489484698
 30
0.0
 10
82.92964950183703
 20
-126.2351887705245
 30
0.0
 10
83.1172349510089
 20
-126.2351887705245
 30
0.0
 10
83.30258108811533
 20
-126.2351887705245
 30
0.0
 10
83.55200600124742
 20
-126.2572373816301
 30
0.0
 10
83.76008976855651
 20
-126.3630018130273
 30
0.0
  0
SPLINE
  5
70
330
69
100
AcDbEntity
  8
_U+30EC_U+30A4_U+30E4_U+30FC 1
370
     0
100
AcDbSpline
210
0.0
220
0.0
230
1.0
 70
    11
 71
     3
 72
    17
 73
    13
 74
     0
 42
0.0000000001
 43
0.0000000001
 12
1.0
 22
0.0
 32
0.0
 13
1.0
 23
0.0
 33
0.0
 40
0.0
 40
0.0
 40
0.0
 40
0.0
 40
1.0
 40
1.0
 40
1.0
 40
2.0
 40
2.0
 40
2.0
 40
3.0
 40
3.0
 40
3.0
 40
4.0
 40
4.0
 40
4.0
 40
4.0
 10
82.43786212131762
 20
-126.7767577808058
 30
0.0
 10
82.43786212131762
 20
-127.0365179803937
 30
0.0
 10
82.7443033647306
 20
-127.0850938267357
 30
0.0
 10
83.1172349510089
 20
-127.0850938267357
 30
0.0
 10
83.46277802817944
 20
-127.0850938267357
 30
0.0
 10
83.79678003547443
 20
-127.0475422859464
 30
0.0
 10
83.79678003547443
 20
-126.7767577808058
 30
0.0
 10
83.79678003547443
 20
-126.5194091480576
 30
0.0
 10
83.4924058493526
 20
-126.4687662444245
 30
0.0
 10
83.1172349510089
 20
-126.4687662444245
 30
0.0
 10
82.77186412861259
 20
-126.4687662444245
 30
0.0
 10
82.43786212131762
 20
-126.5083848425049
 30
0.0
 10
82.43786212131762
 20
-126.7767577808058
 30
0.0
  0
HATCH
  5
71
330
69
100
AcDbEntity
  8
_U+30EC_U+30A4_U+30E4_U+30FC 1
 62
   179
420
  2234388
100
AcDbHatch
 10
0.0
 20
0.0
 30
0.0
210
0.0
220
0.0
230
1.0
  2
SOLID
 70
     1
 71
     0
 91
        2
 92
        1
 93
        1
 72
     4
 94
        3
 73
     0
 74
     1
 95
       29
 96
       25
 40
0.0
 40
0.0
 40
0.0
 40
0.0
 40
1.0
 40
1.0
 40
1.0
 40
2.0
 40
2.0
 40
2.0
 40
3.0
 40
3.0
 40
3.0
 40
4.0
 40
4.0
 40
4.0
 40
5.0
 40
5.0
 40
5.0
 40
6.0
 40
6.0
 40
6.0
 40
7.0
 40
7.0
 40
7.0
 40
8.0
 40
8.0
 40
8.0
 40
8.0
 10
83.76008976855651
 20
-126.3630018130273
 10
83.98660479671169
 20
-126.4753119258465
 10
84.00727536962319
 20
-126.6558349292736
 10
84.00727536962319
 20
-126.7767577808058
 10
84.00727536962319
 20
-126.944189421389
 10
83.95697697553854
 20
-127.0916395081577
 10
83.76008976855651
 20
-127.1908582581328
 10
83.54976668918201
 20
-127.2986897468212
 10
83.29345158507942
 20
-127.3183267910871
 10
83.1172349510089
 20
-127.3183267910871
 10
82.96168888984985
 20
-127.3183267910871
 10
82.68952634651512
 20
-127.3007568041123
 10
82.47438013346127
 20
-127.1908582581328
 10
82.2547552962766
 20
-127.0785481453137
 10
82.22960609923427
 20
-126.9111165047306
 10
82.22960609923427
 20
-126.7767577808058
 10
82.22960609923427
 20
-126.6117377070623
 10
82.27766518125351
 20
-126.4622205630025
 10
82.47438013346127
 20
-126.3630018130273
 10
82.68263615554463
 20
-126.2596489484698
 10
82.92964950183703
 20
-126.2351887705245
 10
83.1172349510089
 20
-126.2351887705245
 10
83.30258108811533
 20
-126.2351887705245
 10
83.55200600124742
 20
-126.2572373816301
 10
83.76008976855651
 20
-126.3630018130273
 97
        0
 97
        0
 92
        1
 93
        1
 72
     4
 94
        3
 73
     0
 74
     1
 95
       17
 96
       13
 40
0.0
 40
0.0
 40
0.0
 40
0.0
 40
1.0
 40
1.0
 40
1.0
 40
2.0
 40
2.0
 40
2.0
 40
3.0
 40
3.0
 40
3.0
 40
4.0
 40
4.0
 40
4.0
 40
4.0
 10
82.43786212131762
 20
-126.7767577808058
 10
82.43786212131762
 20
-127.0365179803937
 10
82.7443033647306
 20
-127.0850938267357
 10
83.1172349510089
 20
-127.0850938267357
 10
83.46277802817944
 20
-127.0850938267357
 10
83.79678003547443
 20
-127.0475422859464
 10
83.79678003547443
 20
-126.7767577808058
 10
83.79678003547443
 20
-126.5194091480576
 10
83.4924058493526
 20
-126.4687662444245
 10
83.1172349510089
 20
-126.4687662444245
 10
82.77186412861259
 20
-126.4687662444245
 10
82.43786212131762
 20
-126.5083848425049
 10
82.43786212131762
 20
-126.7767577808058
 97
        0
 97
        0
 75
     2
 76
     1
 98
        0
  0
ENDBLK
  5
6C
330
69
100
AcDbEntity
  8
0
100
AcDbBlockEnd
  0
BLOCK
  5
80
330
7E
100
AcDbEntity
  8
0
100
AcDbBlockBegin
  2
block 4
 70
     0
 10
0.0
 20
0.0
 30
0.0
  3
block 4
  1

  0
SPLINE
  5
82
330
7E
100
AcDbEntity
  8
_U+30EC_U+30A4_U+30E4_U+30FC 1
370
     0
100
AcDbSpline
210
0.0
220
0.0
230
1.0
 70
    11
 71
     3
 72
    26
 73
    22
 74
     0
 42
0.0000000001
 43
0.0000000001
 12
1.0
 22
0.0
 32
0.0
 13
1.0
 23
0.0
 33
0.0
 40
0.0
 40
0.0
 40
0.0
 40
0.0
 40
1.0
 40
1.0
 40
1.0
 40
2.0
 40
2.0
 40
2.0
 40
3.0
 40
3.0
 40
3.0
 40
4.0
 40
4.0
 40
4.0
 40
5.0
 40
5.0
 40
5.0
 40
6.0
 40
6.0
 40
6.0
 40
7.0
 40
7.0
 40
7.0
 40
7.0
 10
99.21117076512776
 20
-141.5513942788483
 30
0.0
 10
99.21117076512776
 20
-141.5513942788483
 30
0.0
 10
98.01675616039165
 20
-141.5513942788483
 30
0.0
 10
98.01675616039165
 20
-141.5513942788483
 30
0.0
 10
98.01675616039165
 20
-141.5513942788483
 30
0.0
 10
98.01675616039165
 20
-141.8948702987277
 30
0.0
 10
98.01675616039165
 20
-141.8948702987277
 30
0.0
 10
98.01675616039165
 20
-141.8948702987277
 30
0.0
 10
97.85655922032753
 20
-141.8948702987277
 30
0.0
 10
97.85655922032753
 20
-141.8948702987277
 30
0.0
 10
97.84071178109538
 20
-141.5493272215571
 30
0.0
 10
97.66466740179912
 20
-141.5007513752151
 30
0.0
 10
97.54098847387864
 20
-141.4700900253964
 30
0.0
 10
97.54098847387864
 20
-141.4700900253964
 30
0.0
 10
97.54098847387864
 20
-141.3181613144968
 30
0.0
 10
97.54098847387864
 20
-141.3181613144968
 30
0.0
 10
97.54098847387864
 20
-141.3181613144968
 30
0.0
 10
99.21117076512776
 20
-141.3181613144968
 30
0.0
 10
99.21117076512776
 20
-141.3181613144968
 30
0.0
 10
99.21117076512776
 20
-141.3181613144968
 30
0.0
 10
99.21117076512776
 20
-141.5513942788483
 30
0.0
 10
99.21117076512776
 20
-141.5513942788483
 30
0.0
  0
HATCH
  5
83
330
7E
100
AcDbEntity
  8
_U+30EC_U+30A4_U+30E4_U+30FC 1
 62
   179
420
  2234388
100
AcDbHatch
 10
0.0
 20
0.0
 30
0.0
210
0.0
220
0.0
230
1.0
  2
SOLID
 70
     1
 71
     0
 91
        1
 92
        1
 93
        1
 72
     4
 94
        3
 73
     0
 74
     1
 95
       26
 96
       22
 40
0.0
 40
0.0
 40
0.0
 40
0.0
 40
1.0
 40
1.0
 40
1.0
 40
2.0
 40
2.0
 40
2.0
 40
3.0
 40
3.0
 40
3.0
 40
4.0
 40
4.0
 40
4.0
 40
5.0
 40
5.0
 40
5.0
 40
6.0
 40
6.0
 40
6.0
 40
7.0
 40
7.0
 40
7.0
 40
7.0
 10
99.21117076512776
 20
-141.5513942788483
 10
99.21117076512776
 20
-141.5513942788483
 10
98.01675616039165
 20
-141.5513942788483
 10
98.01675616039165
 20
-141.5513942788483
 10
98.01675616039165
 20
-141.5513942788483
 10
98.01675616039165
 20
-141.8948702987277
 10
98.01675616039165
 20
-141.8948702987277
 10
98.01675616039165
 20
-141.8948702987277
 10
97.85655922032753
 20
-141.8948702987277
 10
97.85655922032753
 20
-141.8948702987277
 10
97.84071178109538
 20
-141.5493272215571
 10
97.66466740179912
 20
-141.5007513752151
 10
97.54098847387864
 20
-141.4700900253964
 10
97.54098847387864
 20
-141.4700900253964
 10
97.54098847387864
 20
-141.3181613144968
 10
97.54098847387864
 20
-141.3181613144968
 10
97.54098847387864
 20
-141.3181613144968
 10
99.21117076512776
 20
-141.3181613144968
 10
99.21117076512776
 20
-141.3181613144968
 10
99.21117076512776
 20
-141.3181613144968
 10
99.21117076512776
 20
-141.5513942788483
 10
99.21117076512776
 20
-141.5513942788483
 97
        0
 97
        0
 75
     2
 76
     1
 98
        0
  0
SPLINE
  5
84
330
7E
100
AcDbEntity
  8
_U+30EC_U+30A4_U+30E4_U+30FC 1
370
     0
100
AcDbSpline
210
0.0
220
0.0
230
1.0
 70
    11
 71
     3
 72
    53
 73
    49
 74
     0
 42
0.0000000001
 43
0.0000000001
 12
1.0
 22
0.0
 32
0.0
 13
1.0
 23
0.0
 33
0.0
 40
0.0
 40
0.0
 40
0.0
 40
0.0
 40
1.0
 40
1.0
 40
1.0
 40
2.0
 40
2.0
 40
2.0
 40
3.0
 40
3.0
 40
3.0
 40
4.0
 40
4.0
 40
4.0
 40
5.0
 40
5.0
 40
5.0
 40
6.0
 40
6.0
 40
6.0
 40
7.0
 40
7.0
 40
7.0
 40
8.0
 40
8.0
 40
8.0
 40
9.0
 40
9.0
 40
9.0
 40
10.0
 40
10.0
 40
10.0
 40
11.0
 40
11.0
 40
11.0
 40
12.0
 40
12.0
 40
12.0
 40
13.0
 40
13.0
 40
13.0
 40
14.0
 40
14.0
 40
14.0
 40
15.0
 40
15.0
 40
15.0
 40
16.0
 40
16.0
 40
16.0
 40
16.0
 10
99.26594778334324
 20
-140.2966905031203
 30
0.0
 10
99.26594778334324
 20
-140.3779947565722
 30
0.0
 10
99.24768877727142
 20
-140.4837591879694
 30
0.0
 10
99.17913137711494
 20
-140.5895236193665
 30
0.0
 10
99.0599310733253
 20
-140.7700466227936
 30
0.0
 10
98.91833764888153
 20
-140.7920952338992
 30
0.0
 10
98.80154891193156
 20
-140.8117322781651
 30
0.0
 10
98.80154891193156
 20
-140.8117322781651
 30
0.0
 10
98.80154891193156
 20
-140.5805663711049
 30
0.0
 10
98.80154891193156
 20
-140.5805663711049
 30
0.0
 10
99.01652287021115
 20
-140.5233777860497
 30
0.0
 10
99.04856225822398
 20
-140.3914306289647
 30
0.0
 10
99.04856225822398
 20
-140.2946234458291
 30
0.0
 10
99.04856225822398
 20
-140.1492404163516
 30
0.0
 10
98.94107527908417
 20
-139.9907660240301
 30
0.0
 10
98.68958330866094
 20
-139.9907660240301
 30
0.0
 10
98.41259763164686
 20
-139.9907660240301
 30
0.0
 10
98.33715004051989
 20
-140.1778347088791
 30
0.0
 10
98.33715004051989
 20
-140.3032361845422
 30
0.0
 10
98.33715004051989
 20
-140.3363091012006
 30
0.0
 10
98.33715004051989
 20
-140.4837591879694
 30
0.0
 10
98.4766764076725
 20
-140.5764322565226
 30
0.0
 10
98.4766764076725
 20
-140.5764322565226
 30
0.0
 10
98.456005834761
 20
-140.7590223172408
 30
0.0
 10
98.456005834761
 20
-140.7590223172408
 30
0.0
 10
98.456005834761
 20
-140.7590223172408
 30
0.0
 10
97.54098847387864
 20
-140.6336208415777
 30
0.0
 10
97.54098847387864
 20
-140.6336208415777
 30
0.0
 10
97.54098847387864
 20
-140.6336208415777
 30
0.0
 10
97.54098847387864
 20
-139.823334383447
 30
0.0
 10
97.54098847387864
 20
-139.823334383447
 30
0.0
 10
97.54098847387864
 20
-139.823334383447
 30
0.0
 10
97.75148380802742
 20
-139.823334383447
 30
0.0
 10
97.75148380802742
 20
-139.823334383447
 30
0.0
 10
97.75148380802742
 20
-139.823334383447
 30
0.0
 10
97.75148380802742
 20
-140.4641221437034
 30
0.0
 10
97.75148380802742
 20
-140.4641221437034
 30
0.0
 10
97.75148380802742
 20
-140.4641221437034
 30
0.0
 10
98.2089924884686
 20
-140.5323350343114
 30
0.0
 10
98.2089924884686
 20
-140.5323350343114
 30
0.0
 10
98.17247447632494
 20
-140.4682562582857
 30
0.0
 10
98.1290662732108
 20
-140.382473380703
 30
0.0
 10
98.1290662732108
 20
-140.2591389623311
 30
0.0
 10
98.1290662732108
 20
-139.9949001386124
 30
0.0
 10
98.33025984954938
 20
-139.748575811417
 30
0.0
 10
98.66891273574944
 20
-139.748575811417
 30
0.0
 10
99.01204424608032
 20
-139.748575811417
 30
0.0
 10
99.26594778334324
 20
-139.9818087757685
 30
0.0
 10
99.26594778334324
 20
-140.2966905031203
 30
0.0
  0
HATCH
  5
85
330
7E
100
AcDbEntity
  8
_U+30EC_U+30A4_U+30E4_U+30FC 1
 62
   179
420
  2234388
100
AcDbHatch
 10
0.0
 20
0.0
 30
0.0
210
0.0
220
0.0
230
1.0
  2
SOLID
 70
     1
 71
     0
 91
        1
 92
        1
 93
        1
 72
     4
 94
        3
 73
     0
 74
     1
 95
       53
 96
       49
 40
0.0
 40
0.0
 40
0.0
 40
0.0
 40
1.0
 40
1.0
 40
1.0
 40
2.0
 40
2.0
 40
2.0
 40
3.0
 40
3.0
 40
3.0
 40
4.0
 40
4.0
 40
4.0
 40
5.0
 40
5.0
 40
5.0
 40
6.0
 40
6.0
 40
6.0
 40
7.0
 40
7.0
 40
7.0
 40
8.0
 40
8.0
 40
8.0
 40
9.0
 40
9.0
 40
9.0
 40
10.0
 40
10.0
 40
10.0
 40
11.0
 40
11.0
 40
11.0
 40
12.0
 40
12.0
 40
12.0
 40
13.0
 40
13.0
 40
13.0
 40
14.0
 40
14.0
 40
14.0
 40
15.0
 40
15.0
 40
15.0
 40
16.0
 40
16.0
 40
16.0
 40
16.0
 10
99.26594778334324
 20
-140.2966905031203
 10
99.26594778334324
 20
-140.3779947565722
 10
99.24768877727142
 20
-140.4837591879694
 10
99.17913137711494
 20
-140.5895236193665
 10
99.0599310733253
 20
-140.7700466227936
 10
98.91833764888153
 20
-140.7920952338992
 10
98.80154891193156
 20
-140.8117322781651
 10
98.80154891193156
 20
-140.8117322781651
 10
98.80154891193156
 20
-140.5805663711049
 10
98.80154891193156
 20
-140.5805663711049
 10
99.01652287021115
 20
-140.5233777860497
 10
99.04856225822398
 20
-140.3914306289647
 10
99.04856225822398
 20
-140.2946234458291
 10
99.04856225822398
 20
-140.1492404163516
 10
98.94107527908417
 20
-139.9907660240301
 10
98.68958330866094
 20
-139.9907660240301
 10
98.41259763164686
 20
-139.9907660240301
 10
98.33715004051989
 20
-140.1778347088791
 10
98.33715004051989
 20
-140.3032361845422
 10
98.33715004051989
 20
-140.3363091012006
 10
98.33715004051989
 20
-140.4837591879694
 10
98.4766764076725
 20
-140.5764322565226
 10
98.4766764076725
 20
-140.5764322565226
 10
98.456005834761
 20
-140.7590223172408
 10
98.456005834761
 20
-140.7590223172408
 10
98.456005834761
 20
-140.7590223172408
 10
97.54098847387864
 20
-140.6336208415777
 10
97.54098847387864
 20
-140.6336208415777
 10
97.54098847387864
 20
-140.6336208415777
 10
97.54098847387864
 20
-139.823334383447
 10
97.54098847387864
 20
-139.823334383447
 10
97.54098847387864
 20
-139.823334383447
 10
97.75148380802742
 20
-139.823334383447
 10
97.75148380802742
 20
-139.823334383447
 10
97.75148380802742
 20
-139.823334383447
 10
97.75148380802742
 20
-140.4641221437034
 10
97.75148380802742
 20
-140.4641221437034
 10
97.75148380802742
 20
-140.4641221437034
 10
98.2089924884686
 20
-140.5323350343114
 10
98.2089924884686
 20
-140.5323350343114
 10
98.17247447632494
 20
-140.4682562582857
 10
98.1290662732108
 20
-140.382473380703
 10
98.1290662732108
 20
-140.2591389623311
 10
98.1290662732108
 20
-139.9949001386124
 10
98.33025984954938
 20
-139.748575811417
 10
98.66891273574944
 20
-139.748575811417
 10
99.01204424608032
 20
-139.748575811417
 10
99.26594778334324
 20
-139.9818087757685
 10
99.26594778334324
 20
-140.2966905031203
 97
        0
 97
        0
 75
     2
 76
     1
 98
        0
  0
ENDBLK
  5
81
330
7E
100
AcDbEntity
  8
0
100
AcDbBlockEnd
  0
BLOCK
  5
94
330
92
100
AcDbEntity
  8
0
100
AcDbBlockBegin
  2
block 5
 70
     0
 10
0.0
 20
0.0
 30
0.0
  3
block 5
  1

  0
SPLINE
  5
96
330
92
100
AcDbEntity
  8
_U+30EC_U+30A4_U+30E4_U+30FC 1
370
     0
100
AcDbSpline
210
0.0
220
0.0
230
1.0
 70
    11
 71
     3
 72
    32
 73
    28
 74
     0
 42
0.0000000001
 43
0.0000000001
 12
1.0
 22
0.0
 32
0.0
 13
1.0
 23
0.0
 33
0.0
 40
0.0
 40
0.0
 40
0.0
 40
0.0
 40
1.0
 40
1.0
 40
1.0
 40
2.0
 40
2.0
 40
2.0
 40
3.0
 40
3.0
 40
3.0
 40
4.0
 40
4.0
 40
4.0
 40
5.0
 40
5.0
 40
5.0
 40
6.0
 40
6.0
 40
6.0
 40
7.0
 40
7.0
 40
7.0
 40
8.0
 40
8.0
 40
8.0
 40
9.0
 40
9.0
 40
9.0
 40
9.0
 10
91.56719290245543
 20
-142.7327175207404
 30
0.0
 10
91.56719290245543
 20
-142.9132405241675
 30
0.0
 10
91.49140080177993
 20
-143.1688666091731
 30
0.0
 10
91.1324218522169
 20
-143.2084852072534
 30
0.0
 10
91.1324218522169
 20
-143.2084852072534
 30
0.0
 10
91.1324218522169
 20
-142.9859320389063
 30
0.0
 10
91.1324218522169
 20
-142.9859320389063
 30
0.0
 10
91.19650062824255
 20
-142.9749077333535
 30
0.0
 10
91.35669756830666
 20
-142.9418348166951
 30
0.0
 10
91.35669756830666
 20
-142.7306504634493
 30
0.0
 10
91.35669756830666
 20
-142.4267930416503
 30
0.0
 10
90.99978567603478
 20
-142.3871744435699
 30
0.0
 10
90.7779215267847
 20
-142.3740830807259
 30
0.0
 10
90.86473793301299
 20
-142.4684786970218
 30
0.0
 10
90.92657739697322
 20
-142.5391031544694
 30
0.0
 10
90.92657739697322
 20
-142.7282388966096
 30
0.0
 10
90.92657739697322
 20
-142.9156520910072
 30
0.0
 10
90.81220022686293
 20
-143.230533818359
 30
0.0
 10
90.37295055249358
 20
-143.230533818359
 30
0.0
 10
90.02740747532302
 20
-143.230533818359
 30
0.0
 10
89.78952363206652
 20
-143.0234835796955
 30
0.0
 10
89.78952363206652
 20
-142.6930989226601
 30
0.0
 10
89.78952363206652
 20
-142.1580755938008
 30
0.0
 10
90.38897024649998
 20
-142.147051288248
 30
0.0
 10
90.61996389878598
 20
-142.147051288248
 30
0.0
 10
90.86938881191807
 20
-142.147051288248
 30
0.0
 10
91.56719290245543
 20
-142.1670328420624
 30
0.0
 10
91.56719290245543
 20
-142.7327175207404
 30
0.0
  0
SPLINE
  5
97
330
92
100
AcDbEntity
  8
_U+30EC_U+30A4_U+30E4_U+30FC 1
370
     0
100
AcDbSpline
210
0.0
220
0.0
230
1.0
 70
    11
 71
     3
 72
    17
 73
    13
 74
     0
 42
0.0000000001
 43
0.0000000001
 12
1.0
 22
0.0
 32
0.0
 13
1.0
 23
0.0
 33
0.0
 40
0.0
 40
0.0
 40
0.0
 40
0.0
 40
1.0
 40
1.0
 40
1.0
 40
2.0
 40
2.0
 40
2.0
 40
3.0
 40
3.0
 40
3.0
 40
4.0
 40
4.0
 40
4.0
 40
4.0
 10
89.99777965414987
 20
-142.6910318653689
 30
0.0
 10
89.99777965414987
 20
-142.8143662837409
 30
0.0
 10
90.05944686333584
 20
-142.9969563444591
 30
0.0
 10
90.36829967358848
 20
-142.9969563444591
 30
0.0
 10
90.61307370781549
 20
-142.9969563444591
 30
0.0
 10
90.71608206282446
 20
-142.8515733149816
 30
0.0
 10
90.71608206282446
 20
-142.7106689096348
 30
0.0
 10
90.71608206282446
 20
-142.4378173472031
 30
0.0
 10
90.48956703466928
 20
-142.3981987491227
 30
0.0
 10
90.36382104945766
 20
-142.3981987491227
 30
0.0
 10
90.17382403344614
 20
-142.3981987491227
 30
0.0
 10
89.99777965414987
 20
-142.4970729895493
 30
0.0
 10
89.99777965414987
 20
-142.6910318653689
 30
0.0
  0
HATCH
  5
98
330
92
100
AcDbEntity
  8
_U+30EC_U+30A4_U+30E4_U+30FC 1
 62
   179
420
  2234388
100
AcDbHatch
 10
0.0
 20
0.0
 30
0.0
210
0.0
220
0.0
230
1.0
  2
SOLID
 70
     1
 71
     0
 91
        2
 92
        1
 93
        1
 72
     4
 94
        3
 73
     0
 74
     1
 95
       32
 96
       28
 40
0.0
 40
0.0
 40
0.0
 40
0.0
 40
1.0
 40
1.0
 40
1.0
 40
2.0
 40
2.0
 40
2.0
 40
3.0
 40
3.0
 40
3.0
 40
4.0
 40
4.0
 40
4.0
 40
5.0
 40
5.0
 40
5.0
 40
6.0
 40
6.0
 40
6.0
 40
7.0
 40
7.0
 40
7.0
 40
8.0
 40
8.0
 40
8.0
 40
9.0
 40
9.0
 40
9.0
 40
9.0
 10
91.56719290245543
 20
-142.7327175207404
 10
91.56719290245543
 20
-142.9132405241675
 10
91.49140080177993
 20
-143.1688666091731
 10
91.1324218522169
 20
-143.2084852072534
 10
91.1324218522169
 20
-143.2084852072534
 10
91.1324218522169
 20
-142.9859320389063
 10
91.1324218522169
 20
-142.9859320389063
 10
91.19650062824255
 20
-142.9749077333535
 10
91.35669756830666
 20
-142.9418348166951
 10
91.35669756830666
 20
-142.7306504634493
 10
91.35669756830666
 20
-142.4267930416503
 10
90.99978567603478
 20
-142.3871744435699
 10
90.7779215267847
 20
-142.3740830807259
 10
90.86473793301299
 20
-142.4684786970218
 10
90.92657739697322
 20
-142.5391031544694
 10
90.92657739697322
 20
-142.7282388966096
 10
90.92657739697322
 20
-142.9156520910072
 10
90.81220022686293
 20
-143.230533818359
 10
90.37295055249358
 20
-143.230533818359
 10
90.02740747532302
 20
-143.230533818359
 10
89.78952363206652
 20
-143.0234835796955
 10
89.78952363206652
 20
-142.6930989226601
 10
89.78952363206652
 20
-142.1580755938008
 10
90.38897024649998
 20
-142.147051288248
 10
90.61996389878598
 20
-142.147051288248
 10
90.86938881191807
 20
-142.147051288248
 10
91.56719290245543
 20
-142.1670328420624
 10
91.56719290245543
 20
-142.7327175207404
 97
        0
 97
        0
 92
        1
 93
        1
 72
     4
 94
        3
 73
     0
 74
     1
 95
       17
 96
       13
 40
0.0
 40
0.0
 40
0.0
 40
0.0
 40
1.0
 40
1.0
 40
1.0
 40
2.0
 40
2.0
 40
2.0
 40
3.0
 40
3.0
 40
3.0
 40
4.0
 40
4.0
 40
4.0
 40
4.0
 10
89.99777965414987
 20
-142.6910318653689
 10
89.99777965414987
 20
-142.8143662837409
 10
90.05944686333584
 20
-142.9969563444591
 10
90.36829967358848
 20
-142.9969563444591
 10
90.61307370781549
 20
-142.9969563444591
 10
90.71608206282446
 20
-142.8515733149816
 10
90.71608206282446
 20
-142.7106689096348
 10
90.71608206282446
 20
-142.4378173472031
 10
90.48956703466928
 20
-142.3981987491227
 10
90.36382104945766
 20
-142.3981987491227
 10
90.17382403344614
 20
-142.3981987491227
 10
89.99777965414987
 20
-142.4970729895493
 10
89.99777965414987
 20
-142.6910318653689
 97
        0
 97
        0
 75
     2
 76
     1
 98
        0
  0
ENDBLK
  5
95
330
92
100
AcDbEntity
  8
0
100
AcDbBlockEnd
  0
ENDSEC
  0
SECTION
  2
ENTITIES
  0
SPLINE
  5
41
330
1F
100
AcDbEntity
  8
_U+30EC_U+30A4_U+30E4_U+30FC 1
 62
   179
420
  2234388
370
     9
100
AcDbSpline
210
0.0
220
0.0
230
1.0
 70
    11
 71
     3
 72
    17
 73
    13
 74
     0
 42
0.0000000001
 43
0.0000000001
 12
1.0
 22
0.0
 32
0.0
 13
1.0
 23
0.0
 33
0.0
 40
0.0
 40
0.0
 40
0.0
 40
0.0
 40
1.0
 40
1.0
 40
1.0
 40
2.0
 40
2.0
 40
2.0
 40
3.0
 40
3.0
 40
3.0
 40
4.0
 40
4.0
 40
4.0
 40
4.0
 10
88.20872969405227
 20
-115.9887824710027
 30
0.0
 10
88.20872969405227
 20
-115.9557271932333
 30
0.0
 10
88.1820244169558
 20
-115.9288455265732
 30
0.0
 10
88.14879275113694
 20
-115.9288455265732
 30
0.0
 10
88.11556108531809
 20
-115.9288455265732
 30
0.0
 10
88.08867941933723
 20
-115.9557271932333
 30
0.0
 10
88.08867941933723
 20
-115.9887824710027
 30
0.0
 10
88.08867941933723
 20
-116.0218730265501
 30
0.0
 10
88.11556108531809
 20
-116.0487194154324
 30
0.0
 10
88.14879275113694
 20
-116.0487194154324
 30
0.0
 10
88.1820244169558
 20
-116.0487194154324
 30
0.0
 10
88.20872969405227
 20
-116.0218730265501
 30
0.0
 10
88.20872969405227
 20
-115.9887824710027
 30
0.0
  0
SPLINE
  5
42
330
1F
100
AcDbEntity
  8
_U+30EC_U+30A4_U+30E4_U+30FC 1
 62
   179
420
  2234388
370
     9
100
AcDbSpline
210
0.0
220
0.0
230
1.0
 70
    11
 71
     3
 72
    17
 73
    13
 74
     0
 42
0.0000000001
 43
0.0000000001
 12
1.0
 22
0.0
 32
0.0
 13
1.0
 23
0.0
 33
0.0
 40
0.0
 40
0.0
 40
0.0
 40
0.0
 40
1.0
 40
1.0
 40
1.0
 40
2.0
 40
2.0
 40
2.0
 40
3.0
 40
3.0
 40
3.0
 40
4.0
 40
4.0
 40
4.0
 40
4.0
 10
97.20886668666186
 20
-115.9887824710027
 30
0.0
 10
97.20886668666186
 20
-115.9557271932333
 30
0.0
 10
97.18202029845789
 20
-115.9288455265732
 30
0.0
 10
97.14892974374654
 20
-115.9288455265732
 30
0.0
 10
97.11587446681207
 20
-115.9288455265732
 30
0.0
 10
97.08899280083122
 20
-115.9557271932333
 30
0.0
 10
97.08899280083122
 20
-115.9887824710027
 30
0.0
 10
97.08899280083122
 20
-116.0218730265501
 30
0.0
 10
97.11587446681207
 20
-116.0487194154324
 30
0.0
 10
97.14892974374654
 20
-116.0487194154324
 30
0.0
 10
97.18202029845789
 20
-116.0487194154324
 30
0.0
 10
97.20886668666186
 20
-116.0218730265501
 30
0.0
 10
97.20886668666186
 20
-115.9887824710027
 30
0.0
  0
SPLINE
  5
43
330
1F
100
AcDbEntity
  8
_U+30EC_U+30A4_U+30E4_U+30FC 1
 62
   179
420
  2234388
370
     9
100
AcDbSpline
210
0.0
220
0.0
230
1.0
 70
    11
 71
     3
 72
    17
 73
    13
 74
     0
 42
0.0000000001
 43
0.0000000001
 12
1.0
 22
0.0
 32
0.0
 13
1.0
 23
0.0
 33
0.0
 40
0.0
 40
0.0
 40
0.0
 40
0.0
 40
1.0
 40
1.0
 40
1.0
 40
2.0
 40
2.0
 40
2.0
 40
3.0
 40
3.0
 40
3.0
 40
4.0
 40
4.0
 40
4.0
 40
4.0
 10
85.3288305342235
 20
-118.3886238592916
 30
0.0
 10
85.3288305342235
 20
-118.3555685815223
 30
0.0
 10
85.30194671265492
 20
-118.3286869148622
 30
0.0
 10
85.26867976905919
 20
-118.3286869148622
 30
0.0
 10
85.23562449212473
 20
-118.3286869148622
 30
0.0
 10
85.20874282614386
 20
-118.3555685815223
 30
0.0
 10
85.20874282614386
 20
-118.3886238592916
 30
0.0
 10
85.20874282614386
 20
-118.4217144148391
 30
0.0
 10
85.23562449212473
 20
-118.4485960814989
 30
0.0
 10
85.26867976905919
 20
-118.4485960814989
 30
0.0
 10
85.30194671265492
 20
-118.4485960814989
 30
0.0
 10
85.3288305342235
 20
-118.4217144148391
 30
0.0
 10
85.3288305342235
 20
-118.3886238592916
 30
0.0
  0
SPLINE
  5
44
330
1F
100
AcDbEntity
  8
_U+30EC_U+30A4_U+30E4_U+30FC 1
 62
   179
420
  2234388
370
     9
100
AcDbSpline
210
0.0
220
0.0
230
1.0
 70
    11
 71
     3
 72
    17
 73
    13
 74
     0
 42
0.0000000001
 43
0.0000000001
 12
1.0
 22
0.0
 32
0.0
 13
1.0
 23
0.0
 33
0.0
 40
0.0
 40
0.0
 40
0.0
 40
0.0
 40
1.0
 40
1.0
 40
1.0
 40
2.0
 40
2.0
 40
2.0
 40
3.0
 40
3.0
 40
3.0
 40
4.0
 40
4.0
 40
4.0
 40
4.0
 10
85.3288305342235
 20
-136.3885807992365
 30
0.0
 10
85.3288305342235
 20
-136.355490243689
 30
0.0
 10
85.30194671265492
 20
-136.3286438548068
 30
0.0
 10
85.26867976905919
 20
-136.3286438548068
 30
0.0
 10
85.23562449212473
 20
-136.3286438548068
 30
0.0
 10
85.20874282614386
 20
-136.355490243689
 30
0.0
 10
85.20874282614386
 20
-136.3885807992365
 30
0.0
 10
85.20874282614386
 20
-136.4216360770058
 30
0.0
 10
85.23562449212473
 20
-136.4485177436656
 30
0.0
 10
85.26867976905919
 20
-136.4485177436656
 30
0.0
 10
85.30194671265492
 20
-136.4485177436656
 30
0.0
 10
85.3288305342235
 20
-136.4216360770058
 30
0.0
 10
85.3288305342235
 20
-136.3885807992365
 30
0.0
  0
SPLINE
  5
45
330
1F
100
AcDbEntity
  8
_U+30EC_U+30A4_U+30E4_U+30FC 1
 62
   179
420
  2234388
370
     9
100
AcDbSpline
210
0.0
220
0.0
230
1.0
 70
    11
 71
     3
 72
    17
 73
    13
 74
     0
 42
0.0000000001
 43
0.0000000001
 12
1.0
 22
0.0
 32
0.0
 13
1.0
 23
0.0
 33
0.0
 40
0.0
 40
0.0
 40
0.0
 40
0.0
 40
1.0
 40
1.0
 40
1.0
 40
2.0
 40
2.0
 40
2.0
 40
3.0
 40
3.0
 40
3.0
 40
4.0
 40
4.0
 40
4.0
 40
4.0
 10
92.88871485243368
 20
-139.9887132983362
 30
0.0
 10
92.88871485243368
 20
-139.9556227427887
 30
0.0
 10
92.8618684642297
 20
-139.9287410761289
 30
0.0
 10
92.82877790951835
 20
-139.9287410761289
 30
0.0
 10
92.79572497680095
 20
-139.9287410761289
 30
0.0
 10
92.76884096660302
 20
-139.9556227427887
 30
0.0
 10
92.76884096660302
 20
-139.9887132983362
 30
0.0
 10
92.76884096660302
 20
-140.0217685761055
 30
0.0
 10
92.79572497680095
 20
-140.0486502427659
 30
0.0
 10
92.82877790951835
 20
-140.0486502427659
 30
0.0
 10
92.8618684642297
 20
-140.0486502427659
 30
0.0
 10
92.88871485243368
 20
-140.0217685761055
 30
0.0
 10
92.88871485243368
 20
-139.9887132983362
 30
0.0
  0
SPLINE
  5
46
330
1F
100
AcDbEntity
  8
_U+30EC_U+30A4_U+30E4_U+30FC 1
 62
   179
420
  2234388
370
     9
100
AcDbSpline
210
0.0
220
0.0
230
1.0
 70
    11
 71
     3
 72
    17
 73
    13
 74
     0
 42
0.0000000001
 43
0.0000000001
 12
1.0
 22
0.0
 32
0.0
 13
1.0
 23
0.0
 33
0.0
 40
0.0
 40
0.0
 40
0.0
 40
0.0
 40
1.0
 40
1.0
 40
1.0
 40
2.0
 40
2.0
 40
2.0
 40
3.0
 40
3.0
 40
3.0
 40
4.0
 40
4.0
 40
4.0
 40
4.0
 10
92.88871485243368
 20
-145.3885416303195
 30
0.0
 10
92.88871485243368
 20
-145.3554863525502
 30
0.0
 10
92.8618684642297
 20
-145.3286046858898
 30
0.0
 10
92.82877790951835
 20
-145.3286046858898
 30
0.0
 10
92.79572497680095
 20
-145.3286046858898
 30
0.0
 10
92.76884096660302
 20
-145.3554863525502
 30
0.0
 10
92.76884096660302
 20
-145.3885416303195
 30
0.0
 10
92.76884096660302
 20
-145.421632185867
 30
0.0
 10
92.79572497680095
 20
-145.4484785747493
 30
0.0
 10
92.82877790951835
 20
-145.4484785747493
 30
0.0
 10
92.8618684642297
 20
-145.4484785747493
 30
0.0
 10
92.88871485243368
 20
-145.421632185867
 30
0.0
 10
92.88871485243368
 20
-145.3885416303195
 30
0.0
  0
SPLINE
  5
47
330
1F
100
AcDbEntity
  8
_U+30EC_U+30A4_U+30E4_U+30FC 1
 62
   179
420
  2234388
370
     9
100
AcDbSpline
210
0.0
220
0.0
230
1.0
 70
    11
 71
     3
 72
    17
 73
    13
 74
     0
 42
0.0000000001
 43
0.0000000001
 12
1.0
 22
0.0
 32
0.0
 13
1.0
 23
0.0
 33
0.0
 40
0.0
 40
0.0
 40
0.0
 40
0.0
 40
1.0
 40
1.0
 40
1.0
 40
2.0
 40
2.0
 40
2.0
 40
3.0
 40
3.0
 40
3.0
 40
4.0
 40
4.0
 40
4.0
 40
4.0
 10
99.60874329210257
 20
-145.3885416303195
 30
0.0
 10
99.60874329210257
 20
-145.3554863525502
 30
0.0
 10
99.58186162612172
 20
-145.3286046858898
 30
0.0
 10
99.54877107141037
 20
-145.3286046858898
 30
0.0
 10
99.51571579447591
 20
-145.3286046858898
 30
0.0
 10
99.48883412849506
 20
-145.3554863525502
 30
0.0
 10
99.48883412849506
 20
-145.3885416303195
 30
0.0
 10
99.48883412849506
 20
-145.421632185867
 30
0.0
 10
99.51571579447591
 20
-145.4484785747493
 30
0.0
 10
99.54877107141037
 20
-145.4484785747493
 30
0.0
 10
99.58186162612172
 20
-145.4484785747493
 30
0.0
 10
99.60874329210257
 20
-145.421632185867
 30
0.0
 10
99.60874329210257
 20
-145.3885416303195
 30
0.0
  0
SPLINE
  5
48
330
1F
100
AcDbEntity
  8
_U+30EC_U+30A4_U+30E4_U+30FC 1
 62
   179
420
  2234388
370
     9
100
AcDbSpline
210
0.0
220
0.0
230
1.0
 70
    11
 71
     3
 72
    17
 73
    13
 74
     0
 42
0.0000000001
 43
0.0000000001
 12
1.0
 22
0.0
 32
0.0
 13
1.0
 23
0.0
 33
0.0
 40
0.0
 40
0.0
 40
0.0
 40
0.0
 40
1.0
 40
1.0
 40
1.0
 40
2.0
 40
2.0
 40
2.0
 40
3.0
 40
3.0
 40
3.0
 40
4.0
 40
4.0
 40
4.0
 40
4.0
 10
99.60874329210257
 20
-136.3885807992365
 30
0.0
 10
99.60874329210257
 20
-136.355490243689
 30
0.0
 10
99.58186162612172
 20
-136.3286438548068
 30
0.0
 10
99.54877107141037
 20
-136.3286438548068
 30
0.0
 10
99.51571579447591
 20
-136.3286438548068
 30
0.0
 10
99.48883412849506
 20
-136.355490243689
 30
0.0
 10
99.48883412849506
 20
-136.3885807992365
 30
0.0
 10
99.48883412849506
 20
-136.4216360770058
 30
0.0
 10
99.51571579447591
 20
-136.4485177436656
 30
0.0
 10
99.54877107141037
 20
-136.4485177436656
 30
0.0
 10
99.58186162612172
 20
-136.4485177436656
 30
0.0
 10
99.60874329210257
 20
-136.4216360770058
 30
0.0
 10
99.60874329210257
 20
-136.3885807992365
 30
0.0
  0
POLYLINE
  5
49
330
1F
100
AcDbEntity
  8
_U+30EC_U+30A4_U+30E4_U+30FC 1
 62
   179
420
  2234388
370
     9
100
AcDb2dPolyline
 66
     1
 10
0.0
 20
0.0
 30
0.0
  0
VERTEX
  5
4A
330
49
100
AcDbEntity
  8
_U+30EC_U+30A4_U+30E4_U+30FC 1
 62
   179
420
  2234388
370
     9
100
AcDbVertex
100
AcDb2dVertex
 10
88.14879275113694
 20
-115.9887824710027
 30
0.0
  0
VERTEX
  5
4B
330
49
100
AcDbEntity
  8
_U+30EC_U+30A4_U+30E4_U+30FC 1
 62
   179
420
  2234388
370
     9
100
AcDbVertex
100
AcDb2dVertex
 10
97.14892974374654
 20
-115.9887824710027
 30
0.0
  0
SEQEND
  5
4C
330
49
100
AcDbEntity
  8
_U+30EC_U+30A4_U+30E4_U+30FC 1
 62
   179
420
  2234388
370
     9
  0
POLYLINE
  5
4D
330
1F
100
AcDbEntity
  8
_U+30EC_U+30A4_U+30E4_U+30FC 1
 62
   179
420
  2234388
370
     9
100
AcDb2dPolyline
 66
     1
 10
0.0
 20
0.0
 30
0.0
  0
VERTEX
  5
4E
330
4D
100
AcDbEntity
  8
_U+30EC_U+30A4_U+30E4_U+30FC 1
 62
   179
420
  2234388
370
     9
100
AcDbVertex
100
AcDb2dVertex
 10
88.14879275113694
 20
-117.1046538596128
 30
0.0
  0
VERTEX
  5
4F
330
4D
100
AcDbEntity
  8
_U+30EC_U+30A4_U+30E4_U+30FC 1
 62
   179
420
  2234388
370
     9
100
AcDbVertex
100
AcDb2dVertex
 10
88.14879275113694
 20
-115.3886369155973
 30
0.0
  0
SEQEND
  5
50
330
4D
100
AcDbEntity
  8
_U+30EC_U+30A4_U+30E4_U+30FC 1
 62
   179
420
  2234388
370
     9
  0
POLYLINE
  5
51
330
1F
100
AcDbEntity
  8
_U+30EC_U+30A4_U+30E4_U+30FC 1
 62
   179
420
  2234388
370
     9
100
AcDb2dPolyline
 66
     1
 10
0.0
 20
0.0
 30
0.0
  0
VERTEX
  5
52
330
51
100
AcDbEntity
  8
_U+30EC_U+30A4_U+30E4_U+30FC 1
 62
   179
420
  2234388
370
     9
100
AcDbVertex
100
AcDb2dVertex
 10
97.14892974374654
 20
-134.9843488551426
 30
0.0
  0
VERTEX
  5
53
330
51
100
AcDbEntity
  8
_U+30EC_U+30A4_U+30E4_U+30FC 1
 62
   179
420
  2234388
370
     9
100
AcDbVertex
100
AcDb2dVertex
 10
97.14892974374654
 20
-115.3886369155973
 30
0.0
  0
SEQEND
  5
54
330
51
100
AcDbEntity
  8
_U+30EC_U+30A4_U+30E4_U+30FC 1
 62
   179
420
  2234388
370
     9
  0
INSERT
  5
56
330
1F
100
AcDbEntity
  8
_U+30EC_U+30A4_U+30E4_U+30FC 1
100
AcDbBlockReference
  2
block 2
 10
0.0
 20
0.0
 30
0.0
  0
POLYLINE
  5
5D
330
1F
100
AcDbEntity
  8
_U+30EC_U+30A4_U+30E4_U+30FC 1
 62
   179
420
  2234388
370
     9
100
AcDb2dPolyline
 66
     1
 10
0.0
 20
0.0
 30
0.0
  0
VERTEX
  5
5E
330
5D
100
AcDbEntity
  8
_U+30EC_U+30A4_U+30E4_U+30FC 1
 62
   179
420
  2234388
370
     9
100
AcDbVertex
100
AcDb2dVertex
 10
85.26867976905919
 20
-136.3885807992365
 30
0.0
  0
VERTEX
  5
5F
330
5D
100
AcDbEntity
  8
_U+30EC_U+30A4_U+30E4_U+30FC 1
 62
   179
420
  2234388
370
     9
100
AcDbVertex
100
AcDb2dVertex
 10
85.26867976905919
 20
-118.3886238592916
 30
0.0
  0
SEQEND
  5
60
330
5D
100
AcDbEntity
  8
_U+30EC_U+30A4_U+30E4_U+30FC 1
 62
   179
420
  2234388
370
     9
  0
POLYLINE
  5
61
330
1F
100
AcDbEntity
  8
_U+30EC_U+30A4_U+30E4_U+30FC 1
 62
   179
420
  2234388
370
     9
100
AcDb2dPolyline
 66
     1
 10
0.0
 20
0.0
 30
0.0
  0
VERTEX
  5
62
330
61
100
AcDbEntity
  8
_U+30EC_U+30A4_U+30E4_U+30FC 1
 62
   179
420
  2234388
370
     9
100
AcDbVertex
100
AcDb2dVertex
 10
86.74473723140183
 20
-136.3885807992365
 30
0.0
  0
VERTEX
  5
63
330
61
100
AcDbEntity
  8
_U+30EC_U+30A4_U+30E4_U+30FC 1
 62
   179
420
  2234388
370
     9
100
AcDbVertex
100
AcDb2dVertex
 10
84.6687458954759
 20
-136.3885807992365
 30
0.0
  0
SEQEND
  5
64
330
61
100
AcDbEntity
  8
_U+30EC_U+30A4_U+30E4_U+30FC 1
 62
   179
420
  2234388
370
     9
  0
POLYLINE
  5
65
330
1F
100
AcDbEntity
  8
_U+30EC_U+30A4_U+30E4_U+30FC 1
 62
   179
420
  2234388
370
     9
100
AcDb2dPolyline
 66
     1
 10
0.0
 20
0.0
 30
0.0
  0
VERTEX
  5
66
330
65
100
AcDbEntity
  8
_U+30EC_U+30A4_U+30E4_U+30FC 1
 62
   179
420
  2234388
370
     9
100
AcDbVertex
100
AcDb2dVertex
 10
86.38472751836422
 20
-118.3886238592916
 30
0.0
  0
VERTEX
  5
67
330
65
100
AcDbEntity
  8
_U+30EC_U+30A4_U+30E4_U+30FC 1
 62
   179
420
  2234388
370
     9
100
AcDbVertex
100
AcDb2dVertex
 10
84.6687458954759
 20
-118.3886238592916
 30
0.0
  0
SEQEND
  5
68
330
65
100
AcDbEntity
  8
_U+30EC_U+30A4_U+30E4_U+30FC 1
 62
   179
420
  2234388
370
     9
  0
INSERT
  5
6A
330
1F
100
AcDbEntity
  8
_U+30EC_U+30A4_U+30E4_U+30FC 1
100
AcDbBlockReference
  2
block 3
 10
0.0
 20
0.0
 30
0.0
  0
POLYLINE
  5
72
330
1F
100
AcDbEntity
  8
_U+30EC_U+30A4_U+30E4_U+30FC 1
 62
   179
420
  2234388
370
     9
100
AcDb2dPolyline
 66
     1
 10
0.0
 20
0.0
 30
0.0
  0
VERTEX
  5
73
330
72
100
AcDbEntity
  8
_U+30EC_U+30A4_U+30E4_U+30FC 1
 62
   179
420
  2234388
370
     9
100
AcDbVertex
100
AcDb2dVertex
 10
99.54877107141037
 20
-136.3885807992365
 30
0.0
  0
VERTEX
  5
74
330
72
100
AcDbEntity
  8
_U+30EC_U+30A4_U+30E4_U+30FC 1
 62
   179
420
  2234388
370
     9
100
AcDbVertex
100
AcDb2dVertex
 10
99.54877107141037
 20
-145.3885416303195
 30
0.0
  0
SEQEND
  5
75
330
72
100
AcDbEntity
  8
_U+30EC_U+30A4_U+30E4_U+30FC 1
 62
   179
420
  2234388
370
     9
  0
POLYLINE
  5
76
330
1F
100
AcDbEntity
  8
_U+30EC_U+30A4_U+30E4_U+30FC 1
 62
   179
420
  2234388
370
     9
100
AcDb2dPolyline
 66
     1
 10
0.0
 20
0.0
 30
0.0
  0
VERTEX
  5
77
330
76
100
AcDbEntity
  8
_U+30EC_U+30A4_U+30E4_U+30FC 1
 62
   179
420
  2234388
370
     9
100
AcDbVertex
100
AcDb2dVertex
 10
98.19279916155966
 20
-136.3885807992365
 30
0.0
  0
VERTEX
  5
78
330
76
100
AcDbEntity
  8
_U+30EC_U+30A4_U+30E4_U+30FC 1
 62
   179
420
  2234388
370
     9
100
AcDbVertex
100
AcDb2dVertex
 10
100.1489166116549
 20
-136.3885807992365
 30
0.0
  0
SEQEND
  5
79
330
76
100
AcDbEntity
  8
_U+30EC_U+30A4_U+30E4_U+30FC 1
 62
   179
420
  2234388
370
     9
  0
POLYLINE
  5
7A
330
1F
100
AcDbEntity
  8
_U+30EC_U+30A4_U+30E4_U+30FC 1
 62
   179
420
  2234388
370
     9
100
AcDb2dPolyline
 66
     1
 10
0.0
 20
0.0
 30
0.0
  0
VERTEX
  5
7B
330
7A
100
AcDbEntity
  8
_U+30EC_U+30A4_U+30E4_U+30FC 1
 62
   179
420
  2234388
370
     9
100
AcDbVertex
100
AcDb2dVertex
 10
97.71256278492262
 20
-145.3885416303195
 30
0.0
  0
VERTEX
  5
7C
330
7A
100
AcDbEntity
  8
_U+30EC_U+30A4_U+30E4_U+30FC 1
 62
   179
420
  2234388
370
     9
100
AcDbVertex
100
AcDb2dVertex
 10
100.1489166116549
 20
-145.3885416303195
 30
0.0
  0
SEQEND
  5
7D
330
7A
100
AcDbEntity
  8
_U+30EC_U+30A4_U+30E4_U+30FC 1
 62
   179
420
  2234388
370
     9
  0
INSERT
  5
7F
330
1F
100
AcDbEntity
  8
_U+30EC_U+30A4_U+30E4_U+30FC 1
100
AcDbBlockReference
  2
block 4
 10
0.0
 20
0.0
 30
0.0
  0
POLYLINE
  5
86
330
1F
100
AcDbEntity
  8
_U+30EC_U+30A4_U+30E4_U+30FC 1
 62
   179
420
  2234388
370
     9
100
AcDb2dPolyline
 66
     1
 10
0.0
 20
0.0
 30
0.0
  0
VERTEX
  5
87
330
86
100
AcDbEntity
  8
_U+30EC_U+30A4_U+30E4_U+30FC 1
 62
   179
420
  2234388
370
     9
100
AcDbVertex
100
AcDb2dVertex
 10
92.82877790951835
 20
-139.9887132983362
 30
0.0
  0
VERTEX
  5
88
330
86
100
AcDbEntity
  8
_U+30EC_U+30A4_U+30E4_U+30FC 1
 62
   179
420
  2234388
370
     9
100
AcDbVertex
100
AcDb2dVertex
 10
92.82877790951835
 20
-145.3885416303195
 30
0.0
  0
SEQEND
  5
89
330
86
100
AcDbEntity
  8
_U+30EC_U+30A4_U+30E4_U+30FC 1
 62
   179
420
  2234388
370
     9
  0
POLYLINE
  5
8A
330
1F
100
AcDbEntity
  8
_U+30EC_U+30A4_U+30E4_U+30FC 1
 62
   179
420
  2234388
370
     9
100
AcDb2dPolyline
 66
     1
 10
0.0
 20
0.0
 30
0.0
  0
VERTEX
  5
8B
330
8A
100
AcDbEntity
  8
_U+30EC_U+30A4_U+30E4_U+30FC 1
 62
   179
420
  2234388
370
     9
100
AcDbVertex
100
AcDb2dVertex
 10
93.94500204770777
 20
-139.9887132983362
 30
0.0
  0
VERTEX
  5
8C
330
8A
100
AcDbEntity
  8
_U+30EC_U+30A4_U+30E4_U+30FC 1
 62
   179
420
  2234388
370
     9
100
AcDbVertex
100
AcDb2dVertex
 10
92.22863236927378
 20
-139.9887132983362
 30
0.0
  0
SEQEND
  5
8D
330
8A
100
AcDbEntity
  8
_U+30EC_U+30A4_U+30E4_U+30FC 1
 62
   179
420
  2234388
370
     9
  0
POLYLINE
  5
8E
330
1F
100
AcDbEntity
  8
_U+30EC_U+30A4_U+30E4_U+30FC 1
 62
   179
420
  2234388
370
     9
100
AcDb2dPolyline
 66
     1
 10
0.0
 20
0.0
 30
0.0
  0
VERTEX
  5
8F
330
8E
100
AcDbEntity
  8
_U+30EC_U+30A4_U+30E4_U+30FC 1
 62
   179
420
  2234388
370
     9
100
AcDbVertex
100
AcDb2dVertex
 10
94.66502147378299
 20
-145.3885416303195
 30
0.0
  0
VERTEX
  5
90
330
8E
100
AcDbEntity
  8
_U+30EC_U+30A4_U+30E4_U+30FC 1
 62
   179
420
  2234388
370
     9
100
AcDbVertex
100
AcDb2dVertex
 10
92.22863236927378
 20
-145.3885416303195
 30
0.0
  0
SEQEND
  5
91
330
8E
100
AcDbEntity
  8
_U+30EC_U+30A4_U+30E4_U+30FC 1
 62
   179
420
  2234388
370
     9
  0
INSERT
  5
93
330
1F
100
AcDbEntity
  8
_U+30EC_U+30A4_U+30E4_U+30FC 1
100
AcDbBlockReference
  2
block 5
 10
0.0
 20
0.0
 30
0.0
  0
SPLINE
  5
99
330
1F
100
AcDbEntity
  8
_U+30EC_U+30A4_U+30E4_U+30FC 1
 62
     7
420
 16777215
370
    25
100
AcDbSpline
210
0.0
220
0.0
230
1.0
 70
    11
 71
     3
 72
    53
 73
    49
 74
     0
 42
0.0000000001
 43
0.0000000001
 12
1.0
 22
0.0
 32
0.0
 13
1.0
 23
0.0
 33
0.0
 40
0.0
 40
0.0
 40
0.0
 40
0.0
 40
1.0
 40
1.0
 40
1.0
 40
2.0
 40
2.0
 40
2.0
 40
3.0
 40
3.0
 40
3.0
 40
4.0
 40
4.0
 40
4.0
 40
5.0
 40
5.0
 40
5.0
 40
6.0
 40
6.0
 40
6.0
 40
7.0
 40
7.0
 40
7.0
 40
8.0
 40
8.0
 40
8.0
 40
9.0
 40
9.0
 40
9.0
 40
10.0
 40
10.0
 40
10.0
 40
11.0
 40
11.0
 40
11.0
 40
12.0
 40
12.0
 40
12.0
 40
13.0
 40
13.0
 40
13.0
 40
14.0
 40
14.0
 40
14.0
 40
15.0
 40
15.0
 40
15.0
 40
16.0
 40
16.0
 40
16.0
 40
16.0
 10
95.7088908915961
 20
-139.9887132983362
 30
0.0
 10
95.7088908915961
 20
-139.9887132983362
 30
0.0
 10
95.22865451495906
 20
-139.9887132983362
 30
0.0
 10
95.22865451495906
 20
-139.9887132983362
 30
0.0
 10
95.22865451495906
 20
-139.9887132983362
 30
0.0
 10
95.22865451495906
 20
-144.4287391305595
 30
0.0
 10
95.22865451495906
 20
-144.4287391305595
 30
0.0
 10
95.22865451495906
 20
-144.9589288526491
 30
0.0
 10
95.65858478176841
 20
-145.3885416303195
 30
0.0
 10
96.18877449046437
 20
-145.3885416303195
 30
0.0
 10
96.7189994769372
 20
-145.3885416303195
 30
0.0
 10
97.14892974374654
 20
-144.9589288526491
 30
0.0
 10
97.14892974374654
 20
-144.4287391305595
 30
0.0
 10
97.14892974374654
 20
-144.4287391305595
 30
0.0
 10
97.14892974374654
 20
-136.5088074658731
 30
0.0
 10
97.14892974374654
 20
-136.5088074658731
 30
0.0
 10
97.14892974374654
 20
-136.1770552437333
 30
0.0
 10
96.88021891726859
 20
-135.9086619104671
 30
0.0
 10
96.54878420350197
 20
-135.9086619104671
 30
0.0
 10
96.54878420350197
 20
-135.9086619104671
 30
0.0
 10
88.14879275113694
 20
-135.9086619104671
 30
0.0
 10
88.14879275113694
 20
-135.9086619104671
 30
0.0
 10
88.14879275113694
 20
-135.9086619104671
 30
0.0
 10
88.14879275113694
 20
-118.3886238592916
 30
0.0
 10
88.14879275113694
 20
-118.3886238592916
 30
0.0
 10
88.14879275113694
 20
-118.3886238592916
 30
0.0
 10
87.66890915226868
 20
-118.3886238592916
 30
0.0
 10
87.66890915226868
 20
-118.3886238592916
 30
0.0
 10
87.66890915226868
 20
-118.3886238592916
 30
0.0
 10
87.66890915226868
 20
-135.7884352438305
 30
0.0
 10
87.66890915226868
 20
-135.7884352438305
 30
0.0
 10
87.66890915226868
 20
-136.1201874659703
 30
0.0
 10
87.93744358986224
 20
-136.3885807992365
 30
0.0
 10
88.26884302585198
 20
-136.3885807992365
 30
0.0
 10
88.26884302585198
 20
-136.3885807992365
 30
0.0
 10
96.6686933671095
 20
-136.3885807992365
 30
0.0
 10
96.6686933671095
 20
-136.3885807992365
 30
0.0
 10
96.6686933671095
 20
-136.3885807992365
 30
0.0
 10
96.6686933671095
 20
-144.4287391305595
 30
0.0
 10
96.6686933671095
 20
-144.4287391305595
 30
0.0
 10
96.6686933671095
 20
-144.6936752416045
 30
0.0
 10
96.45371059481639
 20
-144.9086227415508
 30
0.0
 10
96.18877449046437
 20
-144.9086227415508
 30
0.0
 10
95.92387366388921
 20
-144.9086227415508
 30
0.0
 10
95.7088908915961
 20
-144.6936752416045
 30
0.0
 10
95.7088908915961
 20
-144.4287391305595
 30
0.0
 10
95.7088908915961
 20
-144.4287391305595
 30
0.0
 10
95.7088908915961
 20
-139.9887132983362
 30
0.0
 10
95.7088908915961
 20
-139.9887132983362
 30
0.0
  0
HATCH
  5
9A
330
1F
100
AcDbEntity
  8
_U+30EC_U+30A4_U+30E4_U+30FC 1
 62
   253
420
 10066329
100
AcDbHatch
 10
0.0
 20
0.0
 30
0.0
210
0.0
220
0.0
230
1.0
  2
SOLID
 70
     1
 71
     0
 91
        1
 92
        1
 93
        1
 72
     4
 94
        3
 73
     0
 74
     1
 95
       53
 96
       49
 40
0.0
 40
0.0
 40
0.0
 40
0.0
 40
1.0
 40
1.0
 40
1.0
 40
2.0
 40
2.0
 40
2.0
 40
3.0
 40
3.0
 40
3.0
 40
4.0
 40
4.0
 40
4.0
 40
5.0
 40
5.0
 40
5.0
 40
6.0
 40
6.0
 40
6.0
 40
7.0
 40
7.0
 40
7.0
 40
8.0
 40
8.0
 40
8.0
 40
9.0
 40
9.0
 40
9.0
 40
10.0
 40
10.0
 40
10.0
 40
11.0
 40
11.0
 40
11.0
 40
12.0
 40
12.0
 40
12.0
 40
13.0
 40
13.0
 40
13.0
 40
14.0
 40
14.0
 40
14.0
 40
15.0
 40
15.0
 40
15.0
 40
16.0
 40
16.0
 40
16.0
 40
16.0
 10
95.7088908915961
 20
-139.9887132983362
 10
95.7088908915961
 20
-139.9887132983362
 10
95.22865451495906
 20
-139.9887132983362
 10
95.22865451495906
 20
-139.9887132983362
 10
95.22865451495906
 20
-139.9887132983362
 10
95.22865451495906
 20
-144.4287391305595
 10
95.22865451495906
 20
-144.4287391305595
 10
95.22865451495906
 20
-144.9589288526491
 10
95.65858478176841
 20
-145.3885416303195
 10
96.18877449046437
 20
-145.3885416303195
 10
96.7189994769372
 20
-145.3885416303195
 10
97.14892974374654
 20
-144.9589288526491
 10
97.14892974374654
 20
-144.4287391305595
 10
97.14892974374654
 20
-144.4287391305595
 10
97.14892974374654
 20
-136.5088074658731
 10
97.14892974374654
 20
-136.5088074658731
 10
97.14892974374654
 20
-136.1770552437333
 10
96.88021891726859
 20
-135.9086619104671
 10
96.54878420350197
 20
-135.9086619104671
 10
96.54878420350197
 20
-135.9086619104671
 10
88.14879275113694
 20
-135.9086619104671
 10
88.14879275113694
 20
-135.9086619104671
 10
88.14879275113694
 20
-135.9086619104671
 10
88.14879275113694
 20
-118.3886238592916
 10
88.14879275113694
 20
-118.3886238592916
 10
88.14879275113694
 20
-118.3886238592916
 10
87.66890915226868
 20
-118.3886238592916
 10
87.66890915226868
 20
-118.3886238592916
 10
87.66890915226868
 20
-118.3886238592916
 10
87.66890915226868
 20
-135.7884352438305
 10
87.66890915226868
 20
-135.7884352438305
 10
87.66890915226868
 20
-136.1201874659703
 10
87.93744358986224
 20
-136.3885807992365
 10
88.26884302585198
 20
-136.3885807992365
 10
88.26884302585198
 20
-136.3885807992365
 10
96.6686933671095
 20
-136.3885807992365
 10
96.6686933671095
 20
-136.3885807992365
 10
96.6686933671095
 20
-136.3885807992365
 10
96.6686933671095
 20
-144.4287391305595
 10
96.6686933671095
 20
-144.4287391305595
 10
96.6686933671095
 20
-144.6936752416045
 10
96.45371059481639
 20
-144.9086227415508
 10
96.18877449046437
 20
-144.9086227415508
 10
95.92387366388921
 20
-144.9086227415508
 10
95.7088908915961
 20
-144.6936752416045
 10
95.7088908915961
 20
-144.4287391305595
 10
95.7088908915961
 20
-144.4287391305595
 10
95.7088908915961
 20
-139.9887132983362
 10
95.7088908915961
 20
-139.9887132983362
 97
        0
 97
        0
 75
     2
 76
     1
 98
        0
  0
ENDSEC
  0
SECTION
  2
OBJECTS
  0
DICTIONARY
  5
C
330
0
100
AcDbDictionary
281
     1
  3
ACAD_GROUP
350
D
  3
ACAD_LAYOUT
350
1A
  3
ACAD_MATERIAL
350
3B
  3
ACAD_MLEADERSTYLE
350
9C
  3
ACAD_MLINESTYLE
350
17
  3
ACAD_PLOTSETTINGS
350
19
  3
ACAD_PLOTSTYLENAME
350
E
  3
ACAD_TABLESTYLE
350
9B
  3
ACAD_VISUALSTYLE
350
2A
  0
SUN
  5
3F
330
29
100
AcDbSun
 90
        1
290
     0
 63
     7
421
 16777215
 40
1.0
291
     1
 91
  2455826
 92
 54000000
292
     0
 70
     2
 71
   256
280
     1
  0
DICTIONARY
  5
D
102
{ACAD_REACTORS
330
C
102
}
330
C
100
AcDbDictionary
281
     1
  0
DICTIONARY
  5
1A
102
{ACAD_REACTORS
330
C
102
}
330
C
100
AcDbDictionary
281
     1
  3
Layout1
350
1E
  3
Layout2
350
26
  3
Model
350
22
  0
DICTIONARY
  5
3B
102
{ACAD_REACTORS
330
C
102
}
330
C
100
AcDbDictionary
281
     1
  3
ByBlock
350
3D
  3
ByLayer
350
3C
  3
Global
350
3E
  0
DICTIONARY
  5
9C
102
{ACAD_REACTORS
330
C
102
}
330
C
100
AcDbDictionary
281
     1
  0
DICTIONARY
  5
17
102
{ACAD_REACTORS
330
C
102
}
330
C
100
AcDbDictionary
281
     1
  3
Standard
350
18
  0
DICTIONARY
  5
19
102
{ACAD_REACTORS
330
C
102
}
330
C
100
AcDbDictionary
281
     1
  0
ACDBDICTIONARYWDFLT
  5
E
102
{ACAD_REACTORS
330
C
102
}
330
C
100
AcDbDictionary
281
     1
  3
Normal
350
F
100
AcDbDictionaryWithDefault
340
F
  0
DICTIONARY
  5
9B
102
{ACAD_REACTORS
330
C
102
}
330
C
100
AcDbDictionary
281
     1
  0
DICTIONARY
  5
2A
102
{ACAD_REACTORS
330
C
102
}
330
C
100
AcDbDictionary
281
     1
  3
2dWireframe
350
2F
  3
3D Hidden
350
31
  3
3dWireframe
350
30
  3
Basic
350
32
  3
Brighten
350
36
  3
ColorChange
350
3A
  3
Conceptual
350
34
  3
Dim
350
35
  3
Facepattern
350
39
  3
Flat
350
2B
  3
FlatWithEdges
350
2C
  3
Gouraud
350
2D
  3
GouraudWithEdges
350
2E
  3
Linepattern
350
38
  3
Realistic
350
33
  3
Thicken
350
37
  0
LAYOUT
  5
1E
102
{ACAD_REACTORS
330
1A
102
}
330
1A
100
AcDbPlotSettings
  1

  2
none_device
  4

  6

 40
0.0
 41
0.0
 42
0.0
 43
0.0
 44
0.0
 45
0.0
 46
0.0
 47
0.0
 48
0.0
 49
0.0
140
0.0
141
0.0
142
1.0
143
1.0
 70
   688
 72
     0
 73
     0
 74
     5
  7

 75
    16
 76
     0
 77
     2
 78
   300
147
1.0
148
0.0
149
0.0
100
AcDbLayout
  1
Layout1
 70
     1
 71
     1
 10
0.0
 20
0.0
 11
12.0
 21
9.0
 12
0.0
 22
0.0
 32
0.0
 14
1.000000000000000E+20
 24
1.000000000000000E+20
 34
1.000000000000000E+20
 15
-1.000000000000000E+20
 25
-1.000000000000000E+20
 35
-1.000000000000000E+20
146
0.0
 13
0.0
 23
0.0
 33
0.0
 16
1.0
 26
0.0
 36
0.0
 17
0.0
 27
1.0
 37
0.0
 76
     0
330
1B
  0
LAYOUT
  5
26
102
{ACAD_REACTORS
330
1A
102
}
330
1A
100
AcDbPlotSettings
  1

  2
none_device
  4

  6

 40
0.0
 41
0.0
 42
0.0
 43
0.0
 44
0.0
 45
0.0
 46
0.0
 47
0.0
 48
0.0
 49
0.0
140
0.0
141
0.0
142
1.0
143
1.0
 70
   688
 72
     0
 73
     0
 74
     5
  7

 75
    16
 76
     0
 77
     2
 78
   300
147
1.0
148
0.0
149
0.0
100
AcDbLayout
  1
Layout2
 70
     1
 71
     2
 10
0.0
 20
0.0
 11
0.0
 21
0.0
 12
0.0
 22
0.0
 32
0.0
 14
0.0
 24
0.0
 34
0.0
 15
0.0
 25
0.0
 35
0.0
146
0.0
 13
0.0
 23
0.0
 33
0.0
 16
1.0
 26
0.0
 36
0.0
 17
0.0
 27
1.0
 37
0.0
 76
     0
330
23
  0
LAYOUT
  5
22
102
{ACAD_REACTORS
330
1A
102
}
330
1A
100
AcDbPlotSettings
  1

  2
none_device
  4

  6

 40
0.0
 41
0.0
 42
0.0
 43
0.0
 44
0.0
 45
0.0
 46
0.0
 47
0.0
 48
0.0
 49
0.0
140
0.0
141
0.0
142
1.0
143
1.0
 70
  1712
 72
     0
 73
     0
 74
     0
  7

 75
     0
 76
     0
 77
     2
 78
   300
147
1.0
148
0.0
149
0.0
100
AcDbLayout
  1
Model
 70
     1
 71
     0
 10
0.0
 20
0.0
 11
12.0
 21
9.0
 12
0.0
 22
0.0
 32
0.0
 14
1.000000000000000E+20
 24
1.000000000000000E+20
 34
1.000000000000000E+20
 15
-1.000000000000000E+20
 25
-1.000000000000000E+20
 35
-1.000000000000000E+20
146
0.0
 13
0.0
 23
0.0
 33
0.0
 16
1.0
 26
0.0
 36
0.0
 17
0.0
 27
1.0
 37
0.0
 76
     0
330
1F
331
29
  0
MATERIAL
  5
3D
102
{ACAD_REACTORS
330
3B
102
}
330
3B
100
AcDbMaterial
  1
ByBlock
 72
     1
 94
      127
  0
MATERIAL
  5
3C
102
{ACAD_REACTORS
330
3B
102
}
330
3B
100
AcDbMaterial
  1
ByLayer
 72
     1
 94
      127
  0
MATERIAL
  5
3E
102
{ACAD_REACTORS
330
3B
102
}
330
3B
100
AcDbMaterial
  1
Global
 72
     1
 94
      127
  0
MLINESTYLE
  5
18
102
{ACAD_REACTORS
330
17
102
}
330
17
100
AcDbMlineStyle
  2
Standard
 70
     0
  3

 62
   256
 51
90.0
 52
90.0
 71
     2
 49
0.5
 62
   256
  6
BYLAYER
 49
-0.5
 62
   256
  6
BYLAYER
  0
ACDBPLACEHOLDER
  5
F
102
{ACAD_REACTORS
330
E
102
}
330
E
  0
VISUALSTYLE
  5
2F
102
{ACAD_REACTORS
330
2A
102
}
330
2A
100
AcDbVisualStyle
  2
2dWireframe
 70
     4
177
     2
291
     0
 71
     0
176
     1
 72
     2
176
     1
 73
     0
176
     1
 90
        0
176
     1
 40
-0.6
176
     1
 41
-30.0
176
     1
 62
     5
 63
     7
421
 16777215
176
     1
 74
     1
176
     1
 91
        4
176
     1
 64
     7
176
     1
 65
   257
176
     1
 75
     1
176
     1
175
     1
176
     1
 42
1.0
176
     1
 92
        0
176
     1
 66
   257
176
     1
 43
1.0
176
     1
 76
     1
176
     1
 77
     6
176
     1
 78
     2
176
     1
 67
     7
176
     1
 79
     5
176
     1
170
     0
176
     1
171
     0
176
     1
290
     0
176
     1
 93
        1
176
     1
 44
0.0
176
     1
173
     0
176
     1
  0
VISUALSTYLE
  5
31
102
{ACAD_REACTORS
330
2A
102
}
330
2A
100
AcDbVisualStyle
  2
3D Hidden
 70
     6
177
     2
291
     0
 71
     1
176
     1
 72
     2
176
     1
 73
     2
176
     1
 90
        0
176
     1
 40
-0.6
176
     1
 41
-30.0
176
     1
 62
     5
 63
     7
421
 16777215
176
     1
 74
     2
176
     1
 91
        2
176
     1
 64
     7
176
     1
 65
   257
176
     1
 75
     2
176
     1
175
     1
176
     1
 42
40.0
176
     1
 92
        0
176
     1
 66
   257
176
     1
 43
1.0
176
     1
 76
     1
176
     1
 77
     6
176
     1
 78
     2
176
     1
 67
     7
176
     1
 79
     3
176
     1
170
     0
176
     1
171
     0
176
     1
290
     0
176
     1
 93
        1
176
     1
 44
0.0
176
     1
173
     0
176
     1
  0
VISUALSTYLE
  5
30
102
{ACAD_REACTORS
330
2A
102
}
330
2A
100
AcDbVisualStyle
  2
3dWireframe
 70
     5
177
     2
291
     0
 71
     0
176
     1
 72
     2
176
     1
 73
     0
176
     1
 90
        0
176
     1
 40
-0.6
176
     1
 41
-30.0
176
     1
 62
     5
 63
     7
421
 16777215
176
     1
 74
     1
176
     1
 91
        4
176
     1
 64
     7
176
     1
 65
   257
176
     1
 75
     1
176
     1
175
     1
176
     1
 42
1.0
176
     1
 92
        0
176
     1
 66
   257
176
     1
 43
1.0
176
     1
 76
     1
176
     1
 77
     6
176
     1
 78
     2
176
     1
 67
     7
176
     1
 79
     5
176
     1
170
     0
176
     1
171
     0
176
     1
290
     0
176
     1
 93
        1
176
     1
 44
0.0
176
     1
173
     0
176
     1
  0
VISUALSTYLE
  5
32
102
{ACAD_REACTORS
330
2A
102
}
330
2A
100
AcDbVisualStyle
  2
Basic
 70
     7
177
     2
291
     1
 71
     1
176
     1
 72
     0
176
     1
 73
     1
176
     1
 90
        0
176
     1
 40
-0.6
176
     1
 41
-30.0
176
     1
 62
     5
 63
     7
421
 16777215
176
     1
 74
     0
176
     1
 91
        4
176
     1
 64
     7
176
     1
 65
   257
176
     1
 75
     1
176
     1
175
     1
176
     1
 42
1.0
176
     1
 92
        8
176
     1
 66
     7
176
     1
 43
1.0
176
     1
 76
     1
176
     1
 77
     6
176
     1
 78
     2
176
     1
 67
     7
176
     1
 79
     5
176
     1
170
     0
176
     1
171
     0
176
     1
290
     0
176
     1
 93
        1
176
     1
 44
0.0
176
     1
173
     0
176
     1
  0
VISUALSTYLE
  5
36
102
{ACAD_REACTORS
330
2A
102
}
330
2A
100
AcDbVisualStyle
  2
Brighten
 70
    12
177
     2
291
     1
 71
     2
176
     1
 72
     2
176
     1
 73
     0
176
     1
 90
        0
176
     1
 40
-0.6
176
     1
 41
-30.0
176
     1
 62
     5
 63
     7
421
 16777215
176
     1
 74
     1
176
     1
 91
        4
176
     1
 64
     7
176
     1
 65
   257
176
     1
 75
     1
176
     1
175
     1
176
     1
 42
1.0
176
     1
 92
        8
176
     1
 66
     7
176
     1
 43
1.0
176
     1
 76
     1
176
     1
 77
     6
176
     1
 78
     2
176
     1
 67
     7
176
     1
 79
     5
176
     1
170
     0
176
     1
171
     0
176
     1
290
     0
176
     1
 93
        1
176
     1
 44
50.0
176
     1
173
     0
176
     1
  0
VISUALSTYLE
  5
3A
102
{ACAD_REACTORS
330
2A
102
}
330
2A
100
AcDbVisualStyle
  2
ColorChange
 70
    16
177
     2
291
     1
 71
     2
176
     1
 72
     2
176
     1
 73
     3
176
     1
 90
        0
176
     1
 40
-0.6
176
     1
 41
-30.0
176
     1
 62
     5
 63
     8
421
  8421504
176
     1
 74
     1
176
     1
 91
        4
176
     1
 64
     7
176
     1
 65
   257
176
     1
 75
     1
176
     1
175
     1
176
     1
 42
1.0
176
     1
 92
        8
176
     1
 66
     8
424
  8421504
176
     1
 43
1.0
176
     1
 76
     1
176
     1
 77
     6
176
     1
 78
     2
176
     1
 67
     7
176
     1
 79
     5
176
     1
170
     0
176
     1
171
     0
176
     1
290
     0
176
     1
 93
        1
176
     1
 44
0.0
176
     1
173
     0
176
     1
  0
VISUALSTYLE
  5
34
102
{ACAD_REACTORS
330
2A
102
}
330
2A
100
AcDbVisualStyle
  2
Conceptual
 70
     9
177
     2
291
     0
 71
     3
176
     1
 72
     2
176
     1
 73
     0
176
     1
 90
        0
176
     1
 40
-0.6
176
     1
 41
-30.0
176
     1
 62
     5
 63
     7
421
 16777215
176
     1
 74
     2
176
     1
 91
        2
176
     1
 64
     7
176
     1
 65
   257
176
     1
 75
     1
176
     1
175
     1
176
     1
 42
40.0
176
     1
 92
        8
176
     1
 66
     7
176
     1
 43
1.0
176
     1
 76
     1
176
     1
 77
     6
176
     1
 78
     2
176
     1
 67
     7
176
     1
 79
     3
176
     1
170
     0
176
     1
171
     0
176
     1
290
     0
176
     1
 93
        1
176
     1
 44
0.0
176
     1
173
     0
176
     1
  0
VISUALSTYLE
  5
35
102
{ACAD_REACTORS
330
2A
102
}
330
2A
100
AcDbVisualStyle
  2
Dim
 70
    11
177
     2
291
     1
 71
     2
176
     1
 72
     2
176
     1
 73
     0
176
     1
 90
        0
176
     1
 40
-0.6
176
     1
 41
-30.0
176
     1
 62
     5
 63
     7
421
 16777215
176
     1
 74
     1
176
     1
 91
        4
176
     1
 64
     7
176
     1
 65
   257
176
     1
 75
     1
176
     1
175
     1
176
     1
 42
1.0
176
     1
 92
        8
176
     1
 66
     7
176
     1
 43
1.0
176
     1
 76
     1
176
     1
 77
     6
176
     1
 78
     2
176
     1
 67
     7
176
     1
 79
     5
176
     1
170
     0
176
     1
171
     0
176
     1
290
     0
176
     1
 93
        1
176
     1
 44
-50.0
176
     1
173
     0
176
     1
  0
VISUALSTYLE
  5
39
102
{ACAD_REACTORS
330
2A
102
}
330
2A
100
AcDbVisualStyle
  2
Facepattern
 70
    15
177
     2
291
     1
 71
     2
176
     1
 72
     2
176
     1
 73
     0
176
     1
 90
        0
176
     1
 40
-0.6
176
     1
 41
-30.0
176
     1
 62
     5
 63
     7
421
 16777215
176
     1
 74
     1
176
     1
 91
        4
176
     1
 64
     7
176
     1
 65
   257
176
     1
 75
     1
176
     1
175
     1
176
     1
 42
1.0
176
     1
 92
        8
176
     1
 66
     7
176
     1
 43
1.0
176
     1
 76
     1
176
     1
 77
     6
176
     1
 78
     2
176
     1
 67
     7
176
     1
 79
     5
176
     1
170
     0
176
     1
171
     0
176
     1
290
     0
176
     1
 93
        1
176
     1
 44
0.0
176
     1
173
     0
176
     1
  0
VISUALSTYLE
  5
2B
102
{ACAD_REACTORS
330
2A
102
}
330
2A
100
AcDbVisualStyle
  2
Flat
 70
     0
177
     2
291
     1
 71
     2
176
     1
 72
     1
176
     1
 73
     1
176
     1
 90
        2
176
     1
 40
-0.6
176
     1
 41
30.0
176
     1
 62
     5
 63
     7
421
 16777215
176
     1
 74
     0
176
     1
 91
        4
176
     1
 64
     7
176
     1
 65
   257
176
     1
 75
     1
176
     1
175
     1
176
     1
 42
1.0
176
     1
 92
        8
176
     1
 66
     7
176
     1
 43
1.0
176
     1
 76
     1
176
     1
 77
     6
176
     1
 78
     2
176
     1
 67
     7
176
     1
 79
     5
176
     1
170
     0
176
     1
171
     0
176
     1
290
     0
176
     1
 93
       13
176
     1
 44
0.0
176
     1
173
     0
176
     1
  0
VISUALSTYLE
  5
2C
102
{ACAD_REACTORS
330
2A
102
}
330
2A
100
AcDbVisualStyle
  2
FlatWithEdges
 70
     1
177
     2
291
     1
 71
     2
176
     1
 72
     1
176
     1
 73
     1
176
     1
 90
        2
176
     1
 40
-0.6
176
     1
 41
30.0
176
     1
 62
     5
 63
     7
421
 16777215
176
     1
 74
     1
176
     1
 91
        4
176
     1
 64
     7
176
     1
 65
   257
176
     1
 75
     1
176
     1
175
     1
176
     1
 42
1.0
176
     1
 92
        0
176
     1
 66
   257
176
     1
 43
1.0
176
     1
 76
     1
176
     1
 77
     6
176
     1
 78
     2
176
     1
 67
     7
176
     1
 79
     5
176
     1
170
     0
176
     1
171
     0
176
     1
290
     0
176
     1
 93
       13
176
     1
 44
0.0
176
     1
173
     0
176
     1
  0
VISUALSTYLE
  5
2D
102
{ACAD_REACTORS
330
2A
102
}
330
2A
100
AcDbVisualStyle
  2
Gouraud
 70
     2
177
     2
291
     1
 71
     2
176
     1
 72
     2
176
     1
 73
     1
176
     1
 90
        2
176
     1
 40
-0.6
176
     1
 41
30.0
176
     1
 62
     5
 63
     7
421
 16777215
176
     1
 74
     0
176
     1
 91
        4
176
     1
 64
     7
176
     1
 65
   257
176
     1
 75
     1
176
     1
175
     1
176
     1
 42
1.0
176
     1
 92
        0
176
     1
 66
     7
176
     1
 43
1.0
176
     1
 76
     1
176
     1
 77
     6
176
     1
 78
     2
176
     1
 67
     7
176
     1
 79
     5
176
     1
170
     0
176
     1
171
     0
176
     1
290
     0
176
     1
 93
       13
176
     1
 44
0.0
176
     1
173
     0
176
     1
  0
VISUALSTYLE
  5
2E
102
{ACAD_REACTORS
330
2A
102
}
330
2A
100
AcDbVisualStyle
  2
GouraudWithEdges
 70
     3
177
     2
291
     1
 71
     2
176
     1
 72
     2
176
     1
 73
     1
176
     1
 90
        2
176
     1
 40
-0.6
176
     1
 41
30.0
176
     1
 62
     5
 63
     7
421
 16777215
176
     1
 74
     1
176
     1
 91
        4
176
     1
 64
     7
176
     1
 65
   257
176
     1
 75
     1
176
     1
175
     1
176
     1
 42
1.0
176
     1
 92
        0
176
     1
 66
   257
176
     1
 43
1.0
176
     1
 76
     1
176
     1
 77
     6
176
     1
 78
     2
176
     1
 67
     7
176
     1
 79
     5
176
     1
170
     0
176
     1
171
     0
176
     1
290
     0
176
     1
 93
       13
176
     1
 44
0.0
176
     1
173
     0
176
     1
  0
VISUALSTYLE
  5
38
102
{ACAD_REACTORS
330
2A
102
}
330
2A
100
AcDbVisualStyle
  2
Linepattern
 70
    14
177
     2
291
     1
 71
     2
176
     1
 72
     2
176
     1
 73
     0
176
     1
 90
        0
176
     1
 40
-0.6
176
     1
 41
-30.0
176
     1
 62
     5
 63
     7
421
 16777215
176
     1
 74
     1
176
     1
 91
        4
176
     1
 64
     7
176
     1
 65
   257
176
     1
 75
     7
176
     1
175
     7
176
     1
 42
1.0
176
     1
 92
        8
176
     1
 66
     7
176
     1
 43
1.0
176
     1
 76
     1
176
     1
 77
     6
176
     1
 78
     2
176
     1
 67
     7
176
     1
 79
     5
176
     1
170
     0
176
     1
171
     0
176
     1
290
     0
176
     1
 93
        1
176
     1
 44
0.0
176
     1
173
     0
176
     1
  0
VISUALSTYLE
  5
33
102
{ACAD_REACTORS
330
2A
102
}
330
2A
100
AcDbVisualStyle
  2
Realistic
 70
     8
177
     2
291
     0
 71
     2
176
     1
 72
     2
176
     1
 73
     0
176
     1
 90
        0
176
     1
 40
-0.6
176
     1
 41
-30.0
176
     1
 62
     5
 63
     7
421
 16777215
176
     1
 74
     1
176
     1
 91
        0
176
     1
 64
     7
176
     1
 65
   257
176
     1
 75
     1
176
     1
175
     1
176
     1
 42
1.0
176
     1
 92
        8
176
     1
 66
     8
424
  7895160
176
     1
 43
1.0
176
     1
 76
     1
176
     1
 77
     6
176
     1
 78
     2
176
     1
 67
     7
176
     1
 79
     5
176
     1
170
     0
176
     1
171
     0
176
     1
290
     0
176
     1
 93
       13
176
     1
 44
0.0
176
     1
173
     0
176
     1
  0
VISUALSTYLE
  5
37
102
{ACAD_REACTORS
330
2A
102
}
330
2A
100
AcDbVisualStyle
  2
Thicken
 70
    13
177
     2
291
     1
 71
     2
176
     1
 72
     2
176
     1
 73
     0
176
     1
 90
        0
176
     1
 40
-0.6
176
     1
 41
-30.0
176
     1
 62
     5
 63
     7
421
 16777215
176
     1
 74
     1
176
     1
 91
        4
176
     1
 64
     7
176
     1
 65
   257
176
     1
 75
     1
176
     1
175
     1
176
     1
 42
1.0
176
     1
 92
       12
176
     1
 66
     7
176
     1
 43
1.0
176
     1
 76
     1
176
     1
 77
     6
176
     1
 78
     2
176
     1
 67
     7
176
     1
 79
     5
176
     1
170
     0
176
     1
171
     0
176
     1
290
     0
176
     1
 93
        1
176
     1
 44
0.0
176
     1
173
     0
176
     1
  0
ENDSEC
  0
EOF
