  0
SECTION
  2
HEADER
  9
$ACADVER
  1
AC1024
  9
$ACADMAINTVER
 70
     6
  9
$DWGCODEPAGE
  3
UNDEFINED
  9
$INSBASE
 10
0.0
 20
0.0
 30
0.0
  9
$EXTMIN
 10
1.000000000000000E+20
 20
1.000000000000000E+20
 30
1.000000000000000E+20
  9
$EXTMAX
 10
-1.000000000000000E+20
 20
-1.000000000000000E+20
 30
-1.000000000000000E+20
  9
$LIMMIN
 10
0.0
 20
0.0
  9
$LIMMAX
 10
12.0
 20
9.0
  9
$ORTHOMODE
 70
     0
  9
$REGENMODE
 70
     1
  9
$FILLMODE
 70
     1
  9
$QTEXTMODE
 70
     0
  9
$MIRRTEXT
 70
     1
  9
$LTSCALE
 40
1.0
  9
$ATTMODE
 70
     1
  9
$TEXTSIZE
 40
0.2
  9
$TRACEWID
 40
0.05
  9
$TEXTSTYLE
  7
Standard
  9
$CLAYER
  8
0
  9
$CELTYPE
  6
ByLayer
  9
$CECOLOR
 62
   256
  9
$CELTSCALE
 40
1.0
  9
$DISPSILH
 70
     0
  9
$DIMSCALE
 40
1.0
  9
$DIMASZ
 40
0.18
  9
$DIMEXO
 40
0.0625
  9
$DIMDLI
 40
0.38
  9
$DIMRND
 40
0.0
  9
$DIMDLE
 40
0.0
  9
$DIMEXE
 40
0.18
  9
$DIMTP
 40
0.0
  9
$DIMTM
 40
0.0
  9
$DIMTXT
 40
0.18
  9
$DIMCEN
 40
0.09
  9
$DIMTSZ
 40
0.0
  9
$DIMTOL
 70
     0
  9
$DIMLIM
 70
     0
  9
$DIMTIH
 70
     1
  9
$DIMTOH
 70
     1
  9
$DIMSE1
 70
     0
  9
$DIMSE2
 70
     0
  9
$DIMTAD
 70
     0
  9
$DIMZIN
 70
     0
  9
$DIMBLK
  1

  9
$DIMASO
 70
     1
  9
$DIMSHO
 70
     1
  9
$DIMPOST
  1

  9
$DIMAPOST
  1

  9
$DIMALT
 70
     0
  9
$DIMALTD
 70
     2
  9
$DIMALTF
 40
25.4
  9
$DIMLFAC
 40
1.0
  9
$DIMTOFL
 70
     0
  9
$DIMTVP
 40
0.0
  9
$DIMTIX
 70
     0
  9
$DIMSOXD
 70
     0
  9
$DIMSAH
 70
     0
  9
$DIMBLK1
  1

  9
$DIMBLK2
  1

  9
$DIMSTYLE
  2
Standard
  9
$DIMCLRD
 70
     0
  9
$DIMCLRE
 70
     0
  9
$DIMCLRT
 70
     0
  9
$DIMTFAC
 40
1.0
  9
$DIMGAP
 40
0.09
  9
$DIMJUST
 70
     0
  9
$DIMSD1
 70
     0
  9
$DIMSD2
 70
     0
  9
$DIMTOLJ
 70
     1
  9
$DIMTZIN
 70
     0
  9
$DIMALTZ
 70
     0
  9
$DIMALTTZ
 70
     0
  9
$DIMUPT
 70
     0
  9
$DIMDEC
 70
     4
  9
$DIMTDEC
 70
     4
  9
$DIMALTU
 70
     2
  9
$DIMALTTD
 70
     2
  9
$DIMTXSTY
  7
Standard
  9
$DIMAUNIT
 70
     0
  9
$DIMADEC
 70
     0
  9
$DIMALTRND
 40
0.0
  9
$DIMAZIN
 70
     0
  9
$DIMDSEP
 70
    46
  9
$DIMATFIT
 70
     3
  9
$DIMFRAC
 70
     0
  9
$DIMLDRBLK
  1

  9
$DIMLUNIT
 70
     2
  9
$DIMLWD
 70
    -2
  9
$DIMLWE
 70
    -2
  9
$DIMTMOVE
 70
     0
  9
$DIMFXL
 40
1.0
  9
$DIMFXLON
 70
     0
  9
$DIMJOGANG
 40
0.7853981633974483
  9
$DIMTFILL
 70
     0
  9
$DIMTFILLCLR
 70
     0
  9
$DIMARCSYM
 70
     0
  9
$DIMLTYPE
  6

  9
$DIMLTEX1
  6

  9
$DIMLTEX2
  6

  9
$DIMTXTDIRECTION
 70
     0
  9
$LUNITS
 70
     2
  9
$LUPREC
 70
     4
  9
$SKETCHINC
 40
0.1
  9
$FILLETRAD
 40
0.5
  9
$AUNITS
 70
     0
  9
$AUPREC
 70
     0
  9
$MENU
  1
.
  9
$ELEVATION
 40
0.0
  9
$PELEVATION
 40
0.0
  9
$THICKNESS
 40
0.0
  9
$LIMCHECK
 70
     0
  9
$CHAMFERA
 40
0.5
  9
$CHAMFERB
 40
0.5
  9
$CHAMFERC
 40
1.0
  9
$CHAMFERD
 40
0.0
  9
$SKPOLY
 70
     0
  9
$TDCREATE
 40
2457917.626932871
  9
$TDUCREATE
 40
2457917.251932871
  9
$TDUPDATE
 40
2457917.626932871
  9
$TDUUPDATE
 40
2457917.251932871
  9
$TDINDWG
 40
0.0000000116
  9
$TDUSRTIMER
 40
0.0000000116
  9
$USRTIMER
 70
     1
  9
$ANGBASE
 50
0.0
  9
$ANGDIR
 70
     0
  9
$PDMODE
 70
     0
  9
$PDSIZE
 40
0.0
  9
$PLINEWID
 40
0.0
  9
$SPLFRAME
 70
     0
  9
$SPLINETYPE
 70
     6
  9
$SPLINESEGS
 70
     8
  9
$HANDSEED
  5
188
  9
$SURFTAB1
 70
     6
  9
$SURFTAB2
 70
     6
  9
$SURFTYPE
 70
     6
  9
$SURFU
 70
     6
  9
$SURFV
 70
     6
  9
$UCSBASE
  2

  9
$UCSNAME
  2

  9
$UCSORG
 10
0.0
 20
0.0
 30
0.0
  9
$UCSXDIR
 10
1.0
 20
0.0
 30
0.0
  9
$UCSYDIR
 10
0.0
 20
1.0
 30
0.0
  9
$UCSORTHOREF
  2

  9
$UCSORTHOVIEW
 70
     0
  9
$UCSORGTOP
 10
0.0
 20
0.0
 30
0.0
  9
$UCSORGBOTTOM
 10
0.0
 20
0.0
 30
0.0
  9
$UCSORGLEFT
 10
0.0
 20
0.0
 30
0.0
  9
$UCSORGRIGHT
 10
0.0
 20
0.0
 30
0.0
  9
$UCSORGFRONT
 10
0.0
 20
0.0
 30
0.0
  9
$UCSORGBACK
 10
0.0
 20
0.0
 30
0.0
  9
$PUCSBASE
  2

  9
$PUCSNAME
  2

  9
$PUCSORG
 10
0.0
 20
0.0
 30
0.0
  9
$PUCSXDIR
 10
1.0
 20
0.0
 30
0.0
  9
$PUCSYDIR
 10
0.0
 20
1.0
 30
0.0
  9
$PUCSORTHOREF
  2

  9
$PUCSORTHOVIEW
 70
     0
  9
$PUCSORGTOP
 10
0.0
 20
0.0
 30
0.0
  9
$PUCSORGBOTTOM
 10
0.0
 20
0.0
 30
0.0
  9
$PUCSORGLEFT
 10
0.0
 20
0.0
 30
0.0
  9
$PUCSORGRIGHT
 10
0.0
 20
0.0
 30
0.0
  9
$PUCSORGFRONT
 10
0.0
 20
0.0
 30
0.0
  9
$PUCSORGBACK
 10
0.0
 20
0.0
 30
0.0
  9
$USERI1
 70
     0
  9
$USERI2
 70
     0
  9
$USERI3
 70
     0
  9
$USERI4
 70
     0
  9
$USERI5
 70
     0
  9
$USERR1
 40
0.0
  9
$USERR2
 40
0.0
  9
$USERR3
 40
0.0
  9
$USERR4
 40
0.0
  9
$USERR5
 40
0.0
  9
$WORLDVIEW
 70
     1
  9
$SHADEDGE
 70
     3
  9
$SHADEDIF
 70
    70
  9
$TILEMODE
 70
     1
  9
$MAXACTVP
 70
    64
  9
$PINSBASE
 10
0.0
 20
0.0
 30
0.0
  9
$PLIMCHECK
 70
     0
  9
$PEXTMIN
 10
1.000000000000000E+20
 20
1.000000000000000E+20
 30
1.000000000000000E+20
  9
$PEXTMAX
 10
-1.000000000000000E+20
 20
-1.000000000000000E+20
 30
-1.000000000000000E+20
  9
$PLIMMIN
 10
0.0
 20
0.0
  9
$PLIMMAX
 10
12.0
 20
9.0
  9
$UNITMODE
 70
     0
  9
$VISRETAIN
 70
     1
  9
$PLINEGEN
 70
     0
  9
$PSLTSCALE
 70
     1
  9
$TREEDEPTH
 70
  3020
  9
$CMLSTYLE
  2
Standard
  9
$CMLJUST
 70
     0
  9
$CMLSCALE
 40
1.0
  9
$PROXYGRAPHICS
 70
     1
  9
$MEASUREMENT
 70
     0
  9
$CELWEIGHT
370
    -1
  9
$ENDCAPS
280
     0
  9
$JOINSTYLE
280
     0
  9
$LWDISPLAY
290
     1
  9
$INSUNITS
 70
     1
  9
$HYPERLINKBASE
  1

  9
$STYLESHEET
  1

  9
$XEDIT
290
     1
  9
$CEPSNTYPE
380
     0
  9
$PSTYLEMODE
290
     1
  9
$FINGERPRINTGUID
  2
{CB4355D7-A70C-EC6E-D225-06A74A642BC3}
  9
$VERSIONGUID
  2
{FAEB1C32-E019-11D5-929B-00C0DF256EC4}
  9
$EXTNAMES
290
     1
  9
$PSVPSCALE
 40
0.0
  9
$OLESTARTUP
290
     0
  9
$SORTENTS
280
   127
  9
$INDEXCTL
280
     0
  9
$HIDETEXT
280
     1
  9
$XCLIPFRAME
280
     2
  9
$HALOGAP
280
     0
  9
$OBSCOLOR
 70
   257
  9
$OBSLTYPE
280
     0
  9
$INTERSECTIONDISPLAY
280
     0
  9
$INTERSECTIONCOLOR
 70
   257
  9
$DIMASSOC
280
     2
  9
$PROJECTNAME
  1

  9
$CAMERADISPLAY
290
     0
  9
$LENSLENGTH
 40
50.0
  9
$CAMERAHEIGHT
 40
0.0
  9
$STEPSPERSEC
 40
2.0
  9
$STEPSIZE
 40
6.0
  9
$3DDWFPREC
 40
2.0
  9
$PSOLWIDTH
 40
0.25
  9
$PSOLHEIGHT
 40
4.0
  9
$LOFTANG1
 40
1.570796326794897
  9
$LOFTANG2
 40
1.570796326794897
  9
$LOFTMAG1
 40
0.0
  9
$LOFTMAG2
 40
0.0
  9
$LOFTPARAM
 70
     7
  9
$LOFTNORMALS
280
     1
  9
$LATITUDE
 40
37.795
  9
$LONGITUDE
 40
-122.394
  9
$NORTHDIRECTION
 40
0.0
  9
$TIMEZONE
 70
 -8000
  9
$LIGHTGLYPHDISPLAY
280
     1
  9
$TILEMODELIGHTSYNCH
280
     1
  9
$CMATERIAL
347
3C
  9
$SOLIDHIST
280
     1
  9
$SHOWHIST
280
     1
  9
$DWFFRAME
280
     2
  9
$DGNFRAME
280
     2
  9
$REALWORLDSCALE
290
     1
  9
$INTERFERECOLOR
 62
   256
  9
$CSHADOW
280
     0
  9
$SHADOWPLANELOCATION
 40
0.0
  0
ENDSEC
  0
SECTION
  2
CLASSES
  0
CLASS
  1
ACDBDICTIONARYWDFLT
  2
AcDbDictionaryWithDefault
  3
ObjectDBX Classes
 90
        0
 91
        4
280
     0
281
     0
  0
CLASS
  1
VISUALSTYLE
  2
AcDbVisualStyle
  3
ObjectDBX Classes
 90
     4095
 91
        4
280
     0
281
     0
  0
CLASS
  1
MATERIAL
  2
AcDbMaterial
  3
ObjectDBX Classes
 90
     1153
 91
        4
280
     0
281
     0
  0
CLASS
  1
SUN
  2
AcDbSun
  3
SCENEOE
 90
     1024
 91
        4
280
     0
281
     0
  0
ENDSEC
  0
SECTION
  2
TABLES
  0
TABLE
  2
VPORT
  5
8
330
0
100
AcDbSymbolTable
 70
     1
  0
VPORT
  5
29
330
8
100
AcDbSymbolTableRecord
100
AcDbViewportTableRecord
  2
*Active
 70
     0
 10
0.0
 20
0.0
 11
1.0
 21
1.0
 12
0.0
 22
0.0
 13
0.0
 23
0.0
 14
0.5
 24
0.5
 15
0.5
 25
0.5
 16
0.0
 26
0.0
 36
1.0
 17
91.00082462281999
 27
-128.4993055234307
 37
0.0
 40
256.9986110468615
 41
0.7081814508812795
 42
50.0
 43
0.0
 44
0.0
 50
0.0
 51
0.0
 71
     0
 72
   100
 73
     1
 74
     3
 75
     0
 76
     0
 77
     0
 78
     0
281
     0
 65
     1
110
0.0
120
0.0
130
0.0
111
1.0
121
0.0
131
0.0
112
0.0
122
1.0
132
0.0
 79
     0
146
0.0
 60
     3
 61
     5
292
     1
282
     1
141
0.0
142
0.0
 63
   250
361
3F
  0
ENDTAB
  0
TABLE
  2
LTYPE
  5
5
330
0
100
AcDbSymbolTable
 70
     2
  0
LTYPE
  5
14
330
5
100
AcDbSymbolTableRecord
100
AcDbLinetypeTableRecord
  2
ByBlock
 70
     0
  3

 72
    65
 73
     0
 40
0.0
  0
LTYPE
  5
15
330
5
100
AcDbSymbolTableRecord
100
AcDbLinetypeTableRecord
  2
ByLayer
 70
     0
  3

 72
    65
 73
     0
 40
0.0
  0
LTYPE
  5
16
330
5
100
AcDbSymbolTableRecord
100
AcDbLinetypeTableRecord
  2
Continuous
 70
     0
  3
Solid line
 72
    65
 73
     0
 40
0.0
  0
LTYPE
  5
55
330
5
100
AcDbSymbolTableRecord
100
AcDbLinetypeTableRecord
  2
AI-Linetype-1
 70
     0
  3
Adobe Illustrator Linetype No. 1
 72
    65
 73
     2
 40
1.763888888447917
 49
0.7055555553791667
 74
     0
 49
-1.05833333306875
 74
     0
  0
ENDTAB
  0
TABLE
  2
LAYER
  5
2
330
0
100
AcDbSymbolTable
 70
     2
  0
LAYER
  5
10
330
2
100
AcDbSymbolTableRecord
100
AcDbLayerTableRecord
  2
0
 70
     0
 62
     7
  6
Continuous
370
    -3
390
F
347
3E
  0
LAYER
  5
40
330
2
100
AcDbSymbolTableRecord
100
AcDbLayerTableRecord
  2
_U+30EC_U+30A4_U+30E4_U+30FC 1
 70
     0
 62
     7
  6
Continuous
370
    -3
390
F
347
3E
  0
ENDTAB
  0
TABLE
  2
STYLE
  5
3
330
0
100
AcDbSymbolTable
 70
     1
  0
STYLE
  5
11
330
3
100
AcDbSymbolTableRecord
100
AcDbTextStyleTableRecord
  2
Standard
 70
     0
 40
0.0
 41
1.0
 50
0.0
 71
     0
 42
0.2
  3
txt
  4

  0
ENDTAB
  0
TABLE
  2
VIEW
  5
6
330
0
100
AcDbSymbolTable
 70
     0
  0
ENDTAB
  0
TABLE
  2
UCS
  5
7
330
0
100
AcDbSymbolTable
 70
     0
  0
ENDTAB
  0
TABLE
  2
APPID
  5
9
330
0
100
AcDbSymbolTable
 70
     1
  0
APPID
  5
12
330
9
100
AcDbSymbolTableRecord
100
AcDbRegAppTableRecord
  2
ACAD
 70
     0
  0
ENDTAB
  0
TABLE
  2
DIMSTYLE
  5
A
330
0
100
AcDbSymbolTable
 70
     1
100
AcDbDimStyleTable
  0
DIMSTYLE
105
27
330
A
100
AcDbSymbolTableRecord
100
AcDbDimStyleTableRecord
  2
Standard
 70
     0
178
     0
340
11
  0
ENDTAB
  0
TABLE
  2
BLOCK_RECORD
  5
1
330
0
100
AcDbSymbolTable
 70
    16
  0
BLOCK_RECORD
  5
1F
330
1
100
AcDbSymbolTableRecord
100
AcDbBlockTableRecord
  2
*Model_Space
340
22
 70
     0
280
     1
281
     0
  0
BLOCK_RECORD
  5
1B
330
1
100
AcDbSymbolTableRecord
100
AcDbBlockTableRecord
  2
*Paper_Space
340
1E
 70
     0
280
     1
281
     0
  0
BLOCK_RECORD
  5
23
330
1
100
AcDbSymbolTableRecord
100
AcDbBlockTableRecord
  2
*Paper_Space0
340
26
 70
     0
280
     1
281
     0
  0
BLOCK_RECORD
  5
41
330
1
100
AcDbSymbolTableRecord
100
AcDbBlockTableRecord
  2
block 2
340
0
102
{BLKREFS
331
42
102
}
 70
     0
280
     1
281
     0
  0
BLOCK_RECORD
  5
106
330
1
100
AcDbSymbolTableRecord
100
AcDbBlockTableRecord
  2
block 3
340
0
102
{BLKREFS
331
107
102
}
 70
     0
280
     1
281
     0
  0
BLOCK_RECORD
  5
10F
330
1
100
AcDbSymbolTableRecord
100
AcDbBlockTableRecord
  2
block 4
340
0
102
{BLKREFS
331
110
102
}
 70
     0
280
     1
281
     0
  0
BLOCK_RECORD
  5
118
330
1
100
AcDbSymbolTableRecord
100
AcDbBlockTableRecord
  2
block 5
340
0
102
{BLKREFS
331
119
102
}
 70
     0
280
     1
281
     0
  0
BLOCK_RECORD
  5
121
330
1
100
AcDbSymbolTableRecord
100
AcDbBlockTableRecord
  2
block 6
340
0
102
{BLKREFS
331
122
102
}
 70
     0
280
     1
281
     0
  0
BLOCK_RECORD
  5
12A
330
1
100
AcDbSymbolTableRecord
100
AcDbBlockTableRecord
  2
block 7
340
0
102
{BLKREFS
331
12B
102
}
 70
     0
280
     1
281
     0
  0
BLOCK_RECORD
  5
133
330
1
100
AcDbSymbolTableRecord
100
AcDbBlockTableRecord
  2
block 8
340
0
102
{BLKREFS
331
134
102
}
 70
     0
280
     1
281
     0
  0
BLOCK_RECORD
  5
13C
330
1
100
AcDbSymbolTableRecord
100
AcDbBlockTableRecord
  2
block 9
340
0
102
{BLKREFS
331
13D
102
}
 70
     0
280
     1
281
     0
  0
BLOCK_RECORD
  5
145
330
1
100
AcDbSymbolTableRecord
100
AcDbBlockTableRecord
  2
block 10
340
0
102
{BLKREFS
331
146
102
}
 70
     0
280
     1
281
     0
  0
BLOCK_RECORD
  5
14E
330
1
100
AcDbSymbolTableRecord
100
AcDbBlockTableRecord
  2
block 11
340
0
102
{BLKREFS
331
14F
102
}
 70
     0
280
     1
281
     0
  0
BLOCK_RECORD
  5
157
330
1
100
AcDbSymbolTableRecord
100
AcDbBlockTableRecord
  2
block 12
340
0
102
{BLKREFS
331
158
102
}
 70
     0
280
     1
281
     0
  0
BLOCK_RECORD
  5
160
330
1
100
AcDbSymbolTableRecord
100
AcDbBlockTableRecord
  2
block 13
340
0
102
{BLKREFS
331
161
102
}
 70
     0
280
     1
281
     0
  0
BLOCK_RECORD
  5
169
330
1
100
AcDbSymbolTableRecord
100
AcDbBlockTableRecord
  2
block 14
340
0
102
{BLKREFS
331
16A
102
}
 70
     0
280
     1
281
     0
  0
BLOCK_RECORD
  5
175
330
1
100
AcDbSymbolTableRecord
100
AcDbBlockTableRecord
  2
block 15
340
0
102
{BLKREFS
331
176
102
}
 70
     0
280
     1
281
     0
  0
BLOCK_RECORD
  5
17E
330
1
100
AcDbSymbolTableRecord
100
AcDbBlockTableRecord
  2
block 16
340
0
102
{BLKREFS
331
17F
102
}
 70
     0
280
     1
281
     0
  0
ENDTAB
  0
ENDSEC
  0
SECTION
  2
BLOCKS
  0
BLOCK
  5
20
330
1F
100
AcDbEntity
  8
0
100
AcDbBlockBegin
  2
*Model_Space
 70
     0
 10
0.0
 20
0.0
 30
0.0
  3
*Model_Space
  1

  0
ENDBLK
  5
21
330
1F
100
AcDbEntity
  8
0
100
AcDbBlockEnd
  0
BLOCK
  5
1C
330
1B
100
AcDbEntity
 67
     1
  8
0
100
AcDbBlockBegin
  2
*Paper_Space
 70
     0
 10
0.0
 20
0.0
 30
0.0
  3
*Paper_Space
  1

  0
ENDBLK
  5
1D
330
1B
100
AcDbEntity
 67
     1
  8
0
100
AcDbBlockEnd
  0
BLOCK
  5
24
330
23
100
AcDbEntity
  8
0
100
AcDbBlockBegin
  2
*Paper_Space0
 70
     0
 10
0.0
 20
0.0
 30
0.0
  3
*Paper_Space0
  1

  0
ENDBLK
  5
25
330
23
100
AcDbEntity
  8
0
100
AcDbBlockEnd
  0
BLOCK
  5
43
330
41
100
AcDbEntity
  8
0
100
AcDbBlockBegin
  2
block 2
 70
     0
 10
0.0
 20
0.0
 30
0.0
  3
block 2
  1

  0
SPLINE
  5
45
330
41
100
AcDbEntity
  8
_U+30EC_U+30A4_U+30E4_U+30FC 1
370
     0
100
AcDbSpline
210
0.0
220
0.0
230
1.0
 70
    11
 71
     3
 72
    32
 73
    28
 74
     0
 42
0.0000000001
 43
0.0000000001
 12
1.0
 22
0.0
 32
0.0
 13
1.0
 23
0.0
 33
0.0
 40
0.0
 40
0.0
 40
0.0
 40
0.0
 40
1.0
 40
1.0
 40
1.0
 40
2.0
 40
2.0
 40
2.0
 40
3.0
 40
3.0
 40
3.0
 40
4.0
 40
4.0
 40
4.0
 40
5.0
 40
5.0
 40
5.0
 40
6.0
 40
6.0
 40
6.0
 40
7.0
 40
7.0
 40
7.0
 40
8.0
 40
8.0
 40
8.0
 40
9.0
 40
9.0
 40
9.0
 40
9.0
 10
54.26404349771872
 20
-126.2362222991701
 30
0.0
 10
54.26404349771872
 20
-126.4365546016374
 30
0.0
 10
54.18842365181748
 20
-126.7200859600735
 30
0.0
 10
53.82927244748019
 20
-126.7640109275104
 30
0.0
 10
53.82927244748019
 20
-126.7640109275104
 30
0.0
 10
53.82927244748019
 20
-126.5171698359922
 30
0.0
 10
53.82927244748019
 20
-126.5171698359922
 30
0.0
 10
53.89335122350583
 20
-126.5049397470196
 30
0.0
 10
54.05354816356995
 20
-126.4682494801017
 30
0.0
 10
54.05354816356995
 20
-126.2336384775562
 30
0.0
 10
54.05354816356995
 20
-125.8965358843245
 30
0.0
 10
53.69663627129807
 20
-125.8524386621133
 30
0.0
 10
53.47477212204797
 20
-125.837797006301
 30
0.0
 10
53.56158852827627
 20
-125.9428724186011
 30
0.0
 10
53.62342799223651
 20
-126.0210760861163
 30
0.0
 10
53.62342799223651
 20
-126.2312269107165
 30
0.0
 10
53.62342799223651
 20
-126.4389661684771
 30
0.0
 10
53.50905082212621
 20
-126.7884711054557
 30
0.0
 10
53.06980114775686
 20
-126.7884711054557
 30
0.0
 10
52.7242580705863
 20
-126.7884711054557
 30
0.0
 10
52.4863742273298
 20
-126.5586832365895
 30
0.0
 10
52.4863742273298
 20
-126.1921250769589
 30
0.0
 10
52.4863742273298
 20
-125.5983628700761
 30
0.0
 10
53.08582084176327
 20
-125.5861327811035
 30
0.0
 10
53.31681449404927
 20
-125.5861327811035
 30
0.0
 10
53.56623940718136
 20
-125.5861327811035
 30
0.0
 10
54.26404349771872
 20
-125.6080091374348
 30
0.0
 10
54.26404349771872
 20
-126.2362222991701
 30
0.0
  0
SPLINE
  5
46
330
41
100
AcDbEntity
  8
_U+30EC_U+30A4_U+30E4_U+30FC 1
370
     0
100
AcDbSpline
210
0.0
220
0.0
230
1.0
 70
    11
 71
     3
 72
    17
 73
    13
 74
     0
 42
0.0000000001
 43
0.0000000001
 12
1.0
 22
0.0
 32
0.0
 13
1.0
 23
0.0
 33
0.0
 40
0.0
 40
0.0
 40
0.0
 40
0.0
 40
1.0
 40
1.0
 40
1.0
 40
2.0
 40
2.0
 40
2.0
 40
3.0
 40
3.0
 40
3.0
 40
4.0
 40
4.0
 40
4.0
 40
4.0
 10
52.69463024941315
 20
-126.1897135101192
 30
0.0
 10
52.69463024941315
 20
-126.3266560556579
 30
0.0
 10
52.75629745859912
 20
-126.5293999249649
 30
0.0
 10
53.06515026885177
 20
-126.5293999249649
 30
0.0
 10
53.30992430307877
 20
-126.5293999249649
 30
0.0
 10
53.41293265808774
 20
-126.3681694562552
 30
0.0
 10
53.41293265808774
 20
-126.2117621212248
 30
0.0
 10
53.41293265808774
 20
-125.9085937185229
 30
0.0
 10
53.18641762993256
 20
-125.8646687510859
 30
0.0
 10
53.06067164472095
 20
-125.8646687510859
 30
0.0
 10
52.87067462870942
 20
-125.8646687510859
 30
0.0
 10
52.69463024941315
 20
-125.9747395518396
 30
0.0
 10
52.69463024941315
 20
-126.1897135101192
 30
0.0
  0
HATCH
  5
47
330
41
100
AcDbEntity
  8
_U+30EC_U+30A4_U+30E4_U+30FC 1
 62
   179
420
  2234388
100
AcDbHatch
 10
0.0
 20
0.0
 30
0.0
210
0.0
220
0.0
230
1.0
  2
SOLID
 70
     1
 71
     0
 91
        2
 92
        1
 93
        1
 72
     4
 94
        3
 73
     0
 74
     1
 95
       32
 96
       28
 40
0.0
 40
0.0
 40
0.0
 40
0.0
 40
1.0
 40
1.0
 40
1.0
 40
2.0
 40
2.0
 40
2.0
 40
3.0
 40
3.0
 40
3.0
 40
4.0
 40
4.0
 40
4.0
 40
5.0
 40
5.0
 40
5.0
 40
6.0
 40
6.0
 40
6.0
 40
7.0
 40
7.0
 40
7.0
 40
8.0
 40
8.0
 40
8.0
 40
9.0
 40
9.0
 40
9.0
 40
9.0
 10
54.26404349771872
 20
-126.2362222991701
 10
54.26404349771872
 20
-126.4365546016374
 10
54.18842365181748
 20
-126.7200859600735
 10
53.82927244748019
 20
-126.7640109275104
 10
53.82927244748019
 20
-126.7640109275104
 10
53.82927244748019
 20
-126.5171698359922
 10
53.82927244748019
 20
-126.5171698359922
 10
53.89335122350583
 20
-126.5049397470196
 10
54.05354816356995
 20
-126.4682494801017
 10
54.05354816356995
 20
-126.2336384775562
 10
54.05354816356995
 20
-125.8965358843245
 10
53.69663627129807
 20
-125.8524386621133
 10
53.47477212204797
 20
-125.837797006301
 10
53.56158852827627
 20
-125.9428724186011
 10
53.62342799223651
 20
-126.0210760861163
 10
53.62342799223651
 20
-126.2312269107165
 10
53.62342799223651
 20
-126.4389661684771
 10
53.50905082212621
 20
-126.7884711054557
 10
53.06980114775686
 20
-126.7884711054557
 10
52.7242580705863
 20
-126.7884711054557
 10
52.4863742273298
 20
-126.5586832365895
 10
52.4863742273298
 20
-126.1921250769589
 10
52.4863742273298
 20
-125.5983628700761
 10
53.08582084176327
 20
-125.5861327811035
 10
53.31681449404927
 20
-125.5861327811035
 10
53.56623940718136
 20
-125.5861327811035
 10
54.26404349771872
 20
-125.6080091374348
 10
54.26404349771872
 20
-126.2362222991701
 97
        0
 97
        0
 92
        1
 93
        1
 72
     4
 94
        3
 73
     0
 74
     1
 95
       17
 96
       13
 40
0.0
 40
0.0
 40
0.0
 40
0.0
 40
1.0
 40
1.0
 40
1.0
 40
2.0
 40
2.0
 40
2.0
 40
3.0
 40
3.0
 40
3.0
 40
4.0
 40
4.0
 40
4.0
 40
4.0
 10
52.69463024941315
 20
-126.1897135101192
 10
52.69463024941315
 20
-126.3266560556579
 10
52.75629745859912
 20
-126.5293999249649
 10
53.06515026885177
 20
-126.5293999249649
 10
53.30992430307877
 20
-126.5293999249649
 10
53.41293265808774
 20
-126.3681694562552
 10
53.41293265808774
 20
-126.2117621212248
 10
53.41293265808774
 20
-125.9085937185229
 10
53.18641762993256
 20
-125.8646687510859
 10
53.06067164472095
 20
-125.8646687510859
 10
52.87067462870942
 20
-125.8646687510859
 10
52.69463024941315
 20
-125.9747395518396
 10
52.69463024941315
 20
-126.1897135101192
 97
        0
 97
        0
 75
     2
 76
     1
 98
        0
  0
POLYLINE
  5
48
330
41
100
AcDbEntity
  8
_U+30EC_U+30A4_U+30E4_U+30FC 1
370
     0
100
AcDb2dPolyline
 66
     1
 10
0.0
 20
0.0
 30
0.0
  0
VERTEX
  5
49
330
48
100
AcDbEntity
  8
_U+30EC_U+30A4_U+30E4_U+30FC 1
370
     0
100
AcDbVertex
100
AcDb2dVertex
 10
54.20909422472898
 20
-125.3372246322942
 30
0.0
  0
VERTEX
  5
4A
330
48
100
AcDbEntity
  8
_U+30EC_U+30A4_U+30E4_U+30FC 1
370
     0
100
AcDbVertex
100
AcDb2dVertex
 10
53.93693168139424
 20
-125.3372246322942
 30
0.0
  0
VERTEX
  5
4B
330
48
100
AcDbEntity
  8
_U+30EC_U+30A4_U+30E4_U+30FC 1
370
     0
100
AcDbVertex
100
AcDb2dVertex
 10
53.93693168139424
 20
-125.0464585733391
 30
0.0
  0
VERTEX
  5
4C
330
48
100
AcDbEntity
  8
_U+30EC_U+30A4_U+30E4_U+30FC 1
370
     0
100
AcDbVertex
100
AcDb2dVertex
 10
54.20909422472898
 20
-125.0464585733391
 30
0.0
  0
VERTEX
  5
4D
330
48
100
AcDbEntity
  8
_U+30EC_U+30A4_U+30E4_U+30FC 1
370
     0
100
AcDbVertex
100
AcDb2dVertex
 10
54.20909422472898
 20
-125.3372246322942
 30
0.0
  0
SEQEND
  5
4E
330
48
100
AcDbEntity
  8
_U+30EC_U+30A4_U+30E4_U+30FC 1
370
     0
  0
HATCH
  5
4F
330
41
100
AcDbEntity
  8
_U+30EC_U+30A4_U+30E4_U+30FC 1
 62
   179
420
  2234388
100
AcDbHatch
 10
0.0
 20
0.0
 30
0.0
210
0.0
220
0.0
230
1.0
  2
SOLID
 70
     1
 71
     0
 91
        1
 92
        1
 93
        4
 72
     1
 10
54.20909422472898
 20
-125.3372246322942
 11
53.93693168139424
 21
-125.3372246322942
 72
     1
 10
53.93693168139424
 20
-125.3372246322942
 11
53.93693168139424
 21
-125.0464585733391
 72
     1
 10
53.93693168139424
 20
-125.0464585733391
 11
54.20909422472898
 21
-125.0464585733391
 72
     1
 10
54.20909422472898
 20
-125.0464585733391
 11
54.20909422472898
 21
-125.3372246322942
 97
        0
 75
     2
 76
     1
 98
        0
  0
SPLINE
  5
50
330
41
100
AcDbEntity
  8
_U+30EC_U+30A4_U+30E4_U+30FC 1
370
     0
100
AcDbSpline
210
0.0
220
0.0
230
1.0
 70
    11
 71
     3
 72
    53
 73
    49
 74
     0
 42
0.0000000001
 43
0.0000000001
 12
1.0
 22
0.0
 32
0.0
 13
1.0
 23
0.0
 33
0.0
 40
0.0
 40
0.0
 40
0.0
 40
0.0
 40
1.0
 40
1.0
 40
1.0
 40
2.0
 40
2.0
 40
2.0
 40
3.0
 40
3.0
 40
3.0
 40
4.0
 40
4.0
 40
4.0
 40
5.0
 40
5.0
 40
5.0
 40
6.0
 40
6.0
 40
6.0
 40
7.0
 40
7.0
 40
7.0
 40
8.0
 40
8.0
 40
8.0
 40
9.0
 40
9.0
 40
9.0
 40
10.0
 40
10.0
 40
10.0
 40
11.0
 40
11.0
 40
11.0
 40
12.0
 40
12.0
 40
12.0
 40
13.0
 40
13.0
 40
13.0
 40
14.0
 40
14.0
 40
14.0
 40
15.0
 40
15.0
 40
15.0
 40
16.0
 40
16.0
 40
16.0
 40
16.0
 10
54.26404349771872
 20
-124.218257618685
 30
0.0
 10
54.26404349771872
 20
-124.3086913751728
 30
0.0
 10
54.24578449164689
 20
-124.4258246216713
 30
0.0
 10
54.17705483671615
 20
-124.5433023777183
 30
0.0
 10
54.05802678770078
 20
-124.7436346801856
 30
0.0
 10
53.91626110848274
 20
-124.7680948581309
 30
0.0
 10
53.79964462630704
 20
-124.7899712144622
 30
0.0
 10
53.79964462630704
 20
-124.7899712144622
 30
0.0
 10
53.79964462630704
 20
-124.5334838555854
 30
0.0
 10
53.79964462630704
 20
-124.5334838555854
 30
0.0
 10
54.01461858458663
 20
-124.4699218438825
 30
0.0
 10
54.04665797259945
 20
-124.3233330309851
 30
0.0
 10
54.04665797259945
 20
-124.2156737970711
 30
0.0
 10
54.04665797259945
 20
-124.0544433283614
 30
0.0
 10
53.93917099345965
 20
-123.8783989490651
 30
0.0
 10
53.68750676826215
 20
-123.8783989490651
 30
0.0
 10
53.41069334602233
 20
-123.8783989490651
 30
0.0
 10
53.33524575489536
 20
-124.0861382068257
 30
0.0
 10
53.33524575489536
 20
-124.2254923192041
 30
0.0
 10
53.33524575489536
 20
-124.262182586122
 30
0.0
 10
53.33524575489536
 20
-124.4258246216713
 30
0.0
 10
53.47477212204797
 20
-124.5284884671318
 30
0.0
 10
53.47477212204797
 20
-124.5284884671318
 30
0.0
 10
53.45410154913647
 20
-124.731404591213
 30
0.0
 10
53.45410154913647
 20
-124.731404591213
 30
0.0
 10
53.45410154913647
 20
-124.731404591213
 30
0.0
 10
52.53908418825412
 20
-124.5920504788346
 30
0.0
 10
52.53908418825412
 20
-124.5920504788346
 30
0.0
 10
52.53908418825412
 20
-124.5920504788346
 30
0.0
 10
52.53908418825412
 20
-123.6927083024102
 30
0.0
 10
52.53908418825412
 20
-123.6927083024102
 30
0.0
 10
52.53908418825412
 20
-123.6927083024102
 30
0.0
 10
52.74957952240288
 20
-123.6927083024102
 30
0.0
 10
52.74957952240288
 20
-123.6927083024102
 30
0.0
 10
52.74957952240288
 20
-123.6927083024102
 30
0.0
 10
52.74957952240288
 20
-124.40394826534
 30
0.0
 10
52.74957952240288
 20
-124.40394826534
 30
0.0
 10
52.74957952240288
 20
-124.40394826534
 30
0.0
 10
53.20708820284406
 20
-124.4797403660155
 30
0.0
 10
53.20708820284406
 20
-124.4797403660155
 30
0.0
 10
53.17039793592615
 20
-124.4087713990193
 30
0.0
 10
53.12698973281201
 20
-124.3135145088522
 30
0.0
 10
53.12698973281201
 20
-124.1765719633135
 30
0.0
 10
53.12698973281201
 20
-123.8833943375187
 30
0.0
 10
53.32835556392486
 20
-123.6096815012156
 30
0.0
 10
53.66683619535065
 20
-123.6096815012156
 30
0.0
 10
54.0101399604558
 20
-123.6096815012156
 30
0.0
 10
54.26404349771872
 20
-123.8687526817064
 30
0.0
 10
54.26404349771872
 20
-124.218257618685
 30
0.0
  0
HATCH
  5
51
330
41
100
AcDbEntity
  8
_U+30EC_U+30A4_U+30E4_U+30FC 1
 62
   179
420
  2234388
100
AcDbHatch
 10
0.0
 20
0.0
 30
0.0
210
0.0
220
0.0
230
1.0
  2
SOLID
 70
     1
 71
     0
 91
        1
 92
        1
 93
        1
 72
     4
 94
        3
 73
     0
 74
     1
 95
       53
 96
       49
 40
0.0
 40
0.0
 40
0.0
 40
0.0
 40
1.0
 40
1.0
 40
1.0
 40
2.0
 40
2.0
 40
2.0
 40
3.0
 40
3.0
 40
3.0
 40
4.0
 40
4.0
 40
4.0
 40
5.0
 40
5.0
 40
5.0
 40
6.0
 40
6.0
 40
6.0
 40
7.0
 40
7.0
 40
7.0
 40
8.0
 40
8.0
 40
8.0
 40
9.0
 40
9.0
 40
9.0
 40
10.0
 40
10.0
 40
10.0
 40
11.0
 40
11.0
 40
11.0
 40
12.0
 40
12.0
 40
12.0
 40
13.0
 40
13.0
 40
13.0
 40
14.0
 40
14.0
 40
14.0
 40
15.0
 40
15.0
 40
15.0
 40
16.0
 40
16.0
 40
16.0
 40
16.0
 10
54.26404349771872
 20
-124.218257618685
 10
54.26404349771872
 20
-124.3086913751728
 10
54.24578449164689
 20
-124.4258246216713
 10
54.17705483671615
 20
-124.5433023777183
 10
54.05802678770078
 20
-124.7436346801856
 10
53.91626110848274
 20
-124.7680948581309
 10
53.79964462630704
 20
-124.7899712144622
 10
53.79964462630704
 20
-124.7899712144622
 10
53.79964462630704
 20
-124.5334838555854
 10
53.79964462630704
 20
-124.5334838555854
 10
54.01461858458663
 20
-124.4699218438825
 10
54.04665797259945
 20
-124.3233330309851
 10
54.04665797259945
 20
-124.2156737970711
 10
54.04665797259945
 20
-124.0544433283614
 10
53.93917099345965
 20
-123.8783989490651
 10
53.68750676826215
 20
-123.8783989490651
 10
53.41069334602233
 20
-123.8783989490651
 10
53.33524575489536
 20
-124.0861382068257
 10
53.33524575489536
 20
-124.2254923192041
 10
53.33524575489536
 20
-124.262182586122
 10
53.33524575489536
 20
-124.4258246216713
 10
53.47477212204797
 20
-124.5284884671318
 10
53.47477212204797
 20
-124.5284884671318
 10
53.45410154913647
 20
-124.731404591213
 10
53.45410154913647
 20
-124.731404591213
 10
53.45410154913647
 20
-124.731404591213
 10
52.53908418825412
 20
-124.5920504788346
 10
52.53908418825412
 20
-124.5920504788346
 10
52.53908418825412
 20
-124.5920504788346
 10
52.53908418825412
 20
-123.6927083024102
 10
52.53908418825412
 20
-123.6927083024102
 10
52.53908418825412
 20
-123.6927083024102
 10
52.74957952240288
 20
-123.6927083024102
 10
52.74957952240288
 20
-123.6927083024102
 10
52.74957952240288
 20
-123.6927083024102
 10
52.74957952240288
 20
-124.40394826534
 10
52.74957952240288
 20
-124.40394826534
 10
52.74957952240288
 20
-124.40394826534
 10
53.20708820284406
 20
-124.4797403660155
 10
53.20708820284406
 20
-124.4797403660155
 10
53.17039793592615
 20
-124.4087713990193
 10
53.12698973281201
 20
-124.3135145088522
 10
53.12698973281201
 20
-124.1765719633135
 10
53.12698973281201
 20
-123.8833943375187
 10
53.32835556392486
 20
-123.6096815012156
 10
53.66683619535065
 20
-123.6096815012156
 10
54.0101399604558
 20
-123.6096815012156
 10
54.26404349771872
 20
-123.8687526817064
 10
54.26404349771872
 20
-124.218257618685
 97
        0
 97
        0
 75
     2
 76
     1
 98
        0
  0
ENDBLK
  5
44
330
41
100
AcDbEntity
  8
0
100
AcDbBlockEnd
  0
BLOCK
  5
108
330
106
100
AcDbEntity
  8
0
100
AcDbBlockBegin
  2
block 3
 70
     0
 10
0.0
 20
0.0
 30
0.0
  3
block 3
  1

  0
SPLINE
  5
10A
330
106
100
AcDbEntity
  8
_U+30EC_U+30A4_U+30E4_U+30FC 1
370
     0
100
AcDbSpline
210
0.0
220
0.0
230
1.0
 70
    11
 71
     3
 72
    26
 73
    22
 74
     0
 42
0.0000000001
 43
0.0000000001
 12
1.0
 22
0.0
 32
0.0
 13
1.0
 23
0.0
 33
0.0
 40
0.0
 40
0.0
 40
0.0
 40
0.0
 40
1.0
 40
1.0
 40
1.0
 40
2.0
 40
2.0
 40
2.0
 40
3.0
 40
3.0
 40
3.0
 40
4.0
 40
4.0
 40
4.0
 40
5.0
 40
5.0
 40
5.0
 40
6.0
 40
6.0
 40
6.0
 40
7.0
 40
7.0
 40
7.0
 40
7.0
 10
60.2471408269521
 20
-131.997799988702
 30
0.0
 10
60.2471408269521
 20
-131.997799988702
 30
0.0
 10
60.2471408269521
 20
-130.8936468856794
 30
0.0
 10
60.2471408269521
 20
-130.8936468856794
 30
0.0
 10
60.2471408269521
 20
-130.8936468856794
 30
0.0
 10
59.91710067946517
 20
-130.8936468856794
 30
0.0
 10
59.91710067946517
 20
-130.8936468856794
 30
0.0
 10
59.91710067946517
 20
-130.8936468856794
 30
0.0
 10
59.91710067946517
 20
-130.7455077798136
 30
0.0
 10
59.91710067946517
 20
-130.7455077798136
 30
0.0
 10
60.24920788424325
 20
-130.7306938692271
 30
0.0
 10
60.29571667329413
 20
-130.5677408527747
 30
0.0
 10
60.32534449446728
 20
-130.4533636826644
 30
0.0
 10
60.32534449446728
 20
-130.4533636826644
 30
0.0
 10
60.47141654304187
 20
-130.4533636826644
 30
0.0
 10
60.47141654304187
 20
-130.4533636826644
 30
0.0
 10
60.47141654304187
 20
-130.4533636826644
 30
0.0
 10
60.47141654304187
 20
-131.997799988702
 30
0.0
 10
60.47141654304187
 20
-131.997799988702
 30
0.0
 10
60.47141654304187
 20
-131.997799988702
 30
0.0
 10
60.2471408269521
 20
-131.997799988702
 30
0.0
 10
60.2471408269521
 20
-131.997799988702
 30
0.0
  0
HATCH
  5
10B
330
106
100
AcDbEntity
  8
_U+30EC_U+30A4_U+30E4_U+30FC 1
 62
   179
420
  2234388
100
AcDbHatch
 10
0.0
 20
0.0
 30
0.0
210
0.0
220
0.0
230
1.0
  2
SOLID
 70
     1
 71
     0
 91
        1
 92
        1
 93
        1
 72
     4
 94
        3
 73
     0
 74
     1
 95
       26
 96
       22
 40
0.0
 40
0.0
 40
0.0
 40
0.0
 40
1.0
 40
1.0
 40
1.0
 40
2.0
 40
2.0
 40
2.0
 40
3.0
 40
3.0
 40
3.0
 40
4.0
 40
4.0
 40
4.0
 40
5.0
 40
5.0
 40
5.0
 40
6.0
 40
6.0
 40
6.0
 40
7.0
 40
7.0
 40
7.0
 40
7.0
 10
60.2471408269521
 20
-131.997799988702
 10
60.2471408269521
 20
-131.997799988702
 10
60.2471408269521
 20
-130.8936468856794
 10
60.2471408269521
 20
-130.8936468856794
 10
60.2471408269521
 20
-130.8936468856794
 10
59.91710067946517
 20
-130.8936468856794
 10
59.91710067946517
 20
-130.8936468856794
 10
59.91710067946517
 20
-130.8936468856794
 10
59.91710067946517
 20
-130.7455077798136
 10
59.91710067946517
 20
-130.7455077798136
 10
60.24920788424325
 20
-130.7306938692271
 10
60.29571667329413
 20
-130.5677408527747
 10
60.32534449446728
 20
-130.4533636826644
 10
60.32534449446728
 20
-130.4533636826644
 10
60.47141654304187
 20
-130.4533636826644
 10
60.47141654304187
 20
-130.4533636826644
 10
60.47141654304187
 20
-130.4533636826644
 10
60.47141654304187
 20
-131.997799988702
 10
60.47141654304187
 20
-131.997799988702
 10
60.47141654304187
 20
-131.997799988702
 10
60.2471408269521
 20
-131.997799988702
 10
60.2471408269521
 20
-131.997799988702
 97
        0
 97
        0
 75
     2
 76
     1
 98
        0
  0
SPLINE
  5
10C
330
106
100
AcDbEntity
  8
_U+30EC_U+30A4_U+30E4_U+30FC 1
370
     0
100
AcDbSpline
210
0.0
220
0.0
230
1.0
 70
    11
 71
     3
 72
    32
 73
    28
 74
     0
 42
0.0000000001
 43
0.0000000001
 12
1.0
 22
0.0
 32
0.0
 13
1.0
 23
0.0
 33
0.0
 40
0.0
 40
0.0
 40
0.0
 40
0.0
 40
1.0
 40
1.0
 40
1.0
 40
2.0
 40
2.0
 40
2.0
 40
3.0
 40
3.0
 40
3.0
 40
4.0
 40
4.0
 40
4.0
 40
5.0
 40
5.0
 40
5.0
 40
6.0
 40
6.0
 40
6.0
 40
7.0
 40
7.0
 40
7.0
 40
8.0
 40
8.0
 40
8.0
 40
9.0
 40
9.0
 40
9.0
 40
9.0
 10
61.47686766041203
 20
-132.0484428923351
 30
0.0
 10
60.96062010194735
 20
-132.0484428923351
 30
0.0
 10
60.95217961800849
 20
-131.494471538307
 30
0.0
 10
60.95217961800849
 20
-131.2805311086729
 30
0.0
 10
60.95217961800849
 20
-131.0500542207097
 30
0.0
 10
60.97129989795162
 20
-130.4027207790313
 30
0.0
 10
61.51493596552405
 20
-130.4027207790313
 30
0.0
 10
61.68839652320638
 20
-130.4027207790313
 30
0.0
 10
61.93385957653042
 20
-130.4726562173819
 30
0.0
 10
61.97192788164244
 20
-130.8047634221599
 30
0.0
 10
61.97192788164244
 20
-130.8047634221599
 30
0.0
 10
61.75815970678268
 20
-130.8047634221599
 30
0.0
 10
61.75815970678268
 20
-130.8047634221599
 30
0.0
 10
61.74765216555267
 20
-130.7475748371048
 30
0.0
 10
61.71595728708837
 20
-130.599435731239
 30
0.0
 10
61.5128689082329
 20
-130.599435731239
 30
0.0
 10
61.22089706585798
 20
-130.599435731239
 30
0.0
 10
61.18058944868055
 20
-130.9274088214348
 30
0.0
 10
61.16801485015939
 20
-131.1323920028072
 30
0.0
 10
61.26103242826113
 20
-131.054188335292
 30
0.0
 10
61.3287285545463
 20
-130.9949326929457
 30
0.0
 10
61.51062959616748
 20
-130.9949326929457
 30
0.0
 10
61.69046358049753
 20
-130.9949326929457
 30
0.0
 10
61.99294296410246
 20
-131.1031086911826
 30
0.0
 10
61.99294296410246
 20
-131.5092854488935
 30
0.0
 10
61.99294296410246
 20
-131.8286458003762
 30
0.0
 10
61.79416095460355
 20
-132.0484428923351
 30
0.0
 10
61.47686766041203
 20
-132.0484428923351
 30
0.0
  0
SPLINE
  5
10D
330
106
100
AcDbEntity
  8
_U+30EC_U+30A4_U+30E4_U+30FC 1
370
     0
100
AcDbSpline
210
0.0
220
0.0
230
1.0
 70
    11
 71
     3
 72
    17
 73
    13
 74
     0
 42
0.0000000001
 43
0.0000000001
 12
1.0
 22
0.0
 32
0.0
 13
1.0
 23
0.0
 33
0.0
 40
0.0
 40
0.0
 40
0.0
 40
0.0
 40
1.0
 40
1.0
 40
1.0
 40
2.0
 40
2.0
 40
2.0
 40
3.0
 40
3.0
 40
3.0
 40
4.0
 40
4.0
 40
4.0
 40
4.0
 10
61.49374862828976
 20
-131.1895805878623
 30
0.0
 10
61.23140460708799
 20
-131.1895805878623
 30
0.0
 10
61.19333630197598
 20
-131.4011094506567
 30
0.0
 10
61.19333630197598
 20
-131.5175536780581
 30
0.0
 10
61.19333630197598
 20
-131.6932535478059
 30
0.0
 10
61.28859319214313
 20
-131.8562065642582
 30
0.0
 10
61.47256129105547
 20
-131.8562065642582
 30
0.0
 10
61.59313963303921
 20
-131.8562065642582
 30
0.0
 10
61.76883950278696
 20
-131.7969509219119
 30
0.0
 10
61.76883950278696
 20
-131.5113525061847
 30
0.0
 10
61.76883950278696
 20
-131.2870767900949
 30
0.0
 10
61.62914088086008
 20
-131.1895805878623
 30
0.0
 10
61.49374862828976
 20
-131.1895805878623
 30
0.0
  0
HATCH
  5
10E
330
106
100
AcDbEntity
  8
_U+30EC_U+30A4_U+30E4_U+30FC 1
 62
   179
420
  2234388
100
AcDbHatch
 10
0.0
 20
0.0
 30
0.0
210
0.0
220
0.0
230
1.0
  2
SOLID
 70
     1
 71
     0
 91
        2
 92
        1
 93
        1
 72
     4
 94
        3
 73
     0
 74
     1
 95
       32
 96
       28
 40
0.0
 40
0.0
 40
0.0
 40
0.0
 40
1.0
 40
1.0
 40
1.0
 40
2.0
 40
2.0
 40
2.0
 40
3.0
 40
3.0
 40
3.0
 40
4.0
 40
4.0
 40
4.0
 40
5.0
 40
5.0
 40
5.0
 40
6.0
 40
6.0
 40
6.0
 40
7.0
 40
7.0
 40
7.0
 40
8.0
 40
8.0
 40
8.0
 40
9.0
 40
9.0
 40
9.0
 40
9.0
 10
61.47686766041203
 20
-132.0484428923351
 10
60.96062010194735
 20
-132.0484428923351
 10
60.95217961800849
 20
-131.494471538307
 10
60.95217961800849
 20
-131.2805311086729
 10
60.95217961800849
 20
-131.0500542207097
 10
60.97129989795162
 20
-130.4027207790313
 10
61.51493596552405
 20
-130.4027207790313
 10
61.68839652320638
 20
-130.4027207790313
 10
61.93385957653042
 20
-130.4726562173819
 10
61.97192788164244
 20
-130.8047634221599
 10
61.97192788164244
 20
-130.8047634221599
 10
61.75815970678268
 20
-130.8047634221599
 10
61.75815970678268
 20
-130.8047634221599
 10
61.74765216555267
 20
-130.7475748371048
 10
61.71595728708837
 20
-130.599435731239
 10
61.5128689082329
 20
-130.599435731239
 10
61.22089706585798
 20
-130.599435731239
 10
61.18058944868055
 20
-130.9274088214348
 10
61.16801485015939
 20
-131.1323920028072
 10
61.26103242826113
 20
-131.054188335292
 10
61.3287285545463
 20
-130.9949326929457
 10
61.51062959616748
 20
-130.9949326929457
 10
61.69046358049753
 20
-130.9949326929457
 10
61.99294296410246
 20
-131.1031086911826
 10
61.99294296410246
 20
-131.5092854488935
 10
61.99294296410246
 20
-131.8286458003762
 10
61.79416095460355
 20
-132.0484428923351
 10
61.47686766041203
 20
-132.0484428923351
 97
        0
 97
        0
 92
        1
 93
        1
 72
     4
 94
        3
 73
     0
 74
     1
 95
       17
 96
       13
 40
0.0
 40
0.0
 40
0.0
 40
0.0
 40
1.0
 40
1.0
 40
1.0
 40
2.0
 40
2.0
 40
2.0
 40
3.0
 40
3.0
 40
3.0
 40
4.0
 40
4.0
 40
4.0
 40
4.0
 10
61.49374862828976
 20
-131.1895805878623
 10
61.23140460708799
 20
-131.1895805878623
 10
61.19333630197598
 20
-131.4011094506567
 10
61.19333630197598
 20
-131.5175536780581
 10
61.19333630197598
 20
-131.6932535478059
 10
61.28859319214313
 20
-131.8562065642582
 10
61.47256129105547
 20
-131.8562065642582
 10
61.59313963303921
 20
-131.8562065642582
 10
61.76883950278696
 20
-131.7969509219119
 10
61.76883950278696
 20
-131.5113525061847
 10
61.76883950278696
 20
-131.2870767900949
 10
61.62914088086008
 20
-131.1895805878623
 10
61.49374862828976
 20
-131.1895805878623
 97
        0
 97
        0
 75
     2
 76
     1
 98
        0
  0
ENDBLK
  5
109
330
106
100
AcDbEntity
  8
0
100
AcDbBlockEnd
  0
BLOCK
  5
111
330
10F
100
AcDbEntity
  8
0
100
AcDbBlockBegin
  2
block 4
 70
     0
 10
0.0
 20
0.0
 30
0.0
  3
block 4
  1

  0
SPLINE
  5
113
330
10F
100
AcDbEntity
  8
_U+30EC_U+30A4_U+30E4_U+30FC 1
370
     0
100
AcDbSpline
210
0.0
220
0.0
230
1.0
 70
    11
 71
     3
 72
    26
 73
    22
 74
     0
 42
0.0000000001
 43
0.0000000001
 12
1.0
 22
0.0
 32
0.0
 13
1.0
 23
0.0
 33
0.0
 40
0.0
 40
0.0
 40
0.0
 40
0.0
 40
1.0
 40
1.0
 40
1.0
 40
2.0
 40
2.0
 40
2.0
 40
3.0
 40
3.0
 40
3.0
 40
4.0
 40
4.0
 40
4.0
 40
5.0
 40
5.0
 40
5.0
 40
6.0
 40
6.0
 40
6.0
 40
7.0
 40
7.0
 40
7.0
 40
7.0
 10
67.47908526958857
 20
-132.1156222542975
 30
0.0
 10
67.47908526958857
 20
-132.1156222542975
 30
0.0
 10
67.47908526958857
 20
-131.0114691512749
 30
0.0
 10
67.47908526958857
 20
-131.0114691512749
 30
0.0
 10
67.47908526958857
 20
-131.0114691512749
 30
0.0
 10
67.14904512210163
 20
-131.0114691512749
 30
0.0
 10
67.14904512210163
 20
-131.0114691512749
 30
0.0
 10
67.14904512210163
 20
-131.0114691512749
 30
0.0
 10
67.14904512210163
 20
-130.8633300454092
 30
0.0
 10
67.14904512210163
 20
-130.8633300454092
 30
0.0
 10
67.48115232687971
 20
-130.8485161348226
 30
0.0
 10
67.52766111593058
 20
-130.6855631183703
 30
0.0
 10
67.55728893710373
 20
-130.57118594826
 30
0.0
 10
67.55728893710373
 20
-130.57118594826
 30
0.0
 10
67.70336098567833
 20
-130.57118594826
 30
0.0
 10
67.70336098567833
 20
-130.57118594826
 30
0.0
 10
67.70336098567833
 20
-130.57118594826
 30
0.0
 10
67.70336098567833
 20
-132.1156222542975
 30
0.0
 10
67.70336098567833
 20
-132.1156222542975
 30
0.0
 10
67.70336098567833
 20
-132.1156222542975
 30
0.0
 10
67.47908526958857
 20
-132.1156222542975
 30
0.0
 10
67.47908526958857
 20
-132.1156222542975
 30
0.0
  0
HATCH
  5
114
330
10F
100
AcDbEntity
  8
_U+30EC_U+30A4_U+30E4_U+30FC 1
 62
   179
420
  2234388
100
AcDbHatch
 10
0.0
 20
0.0
 30
0.0
210
0.0
220
0.0
230
1.0
  2
SOLID
 70
     1
 71
     0
 91
        1
 92
        1
 93
        1
 72
     4
 94
        3
 73
     0
 74
     1
 95
       26
 96
       22
 40
0.0
 40
0.0
 40
0.0
 40
0.0
 40
1.0
 40
1.0
 40
1.0
 40
2.0
 40
2.0
 40
2.0
 40
3.0
 40
3.0
 40
3.0
 40
4.0
 40
4.0
 40
4.0
 40
5.0
 40
5.0
 40
5.0
 40
6.0
 40
6.0
 40
6.0
 40
7.0
 40
7.0
 40
7.0
 40
7.0
 10
67.47908526958857
 20
-132.1156222542975
 10
67.47908526958857
 20
-132.1156222542975
 10
67.47908526958857
 20
-131.0114691512749
 10
67.47908526958857
 20
-131.0114691512749
 10
67.47908526958857
 20
-131.0114691512749
 10
67.14904512210163
 20
-131.0114691512749
 10
67.14904512210163
 20
-131.0114691512749
 10
67.14904512210163
 20
-131.0114691512749
 10
67.14904512210163
 20
-130.8633300454092
 10
67.14904512210163
 20
-130.8633300454092
 10
67.48115232687971
 20
-130.8485161348226
 10
67.52766111593058
 20
-130.6855631183703
 10
67.55728893710373
 20
-130.57118594826
 10
67.55728893710373
 20
-130.57118594826
 10
67.70336098567833
 20
-130.57118594826
 10
67.70336098567833
 20
-130.57118594826
 10
67.70336098567833
 20
-130.57118594826
 10
67.70336098567833
 20
-132.1156222542975
 10
67.70336098567833
 20
-132.1156222542975
 10
67.70336098567833
 20
-132.1156222542975
 10
67.47908526958857
 20
-132.1156222542975
 10
67.47908526958857
 20
-132.1156222542975
 97
        0
 97
        0
 75
     2
 76
     1
 98
        0
  0
SPLINE
  5
115
330
10F
100
AcDbEntity
  8
_U+30EC_U+30A4_U+30E4_U+30FC 1
370
     0
100
AcDbSpline
210
0.0
220
0.0
230
1.0
 70
    11
 71
     3
 72
    29
 73
    25
 74
     0
 42
0.0000000001
 43
0.0000000001
 12
1.0
 22
0.0
 32
0.0
 13
1.0
 23
0.0
 33
0.0
 40
0.0
 40
0.0
 40
0.0
 40
0.0
 40
1.0
 40
1.0
 40
1.0
 40
2.0
 40
2.0
 40
2.0
 40
3.0
 40
3.0
 40
3.0
 40
4.0
 40
4.0
 40
4.0
 40
5.0
 40
5.0
 40
5.0
 40
6.0
 40
6.0
 40
6.0
 40
7.0
 40
7.0
 40
7.0
 40
8.0
 40
8.0
 40
8.0
 40
8.0
 10
69.10224200746403
 20
-131.9378553272586
 30
0.0
 10
68.99441051877571
 20
-132.1473171327618
 30
0.0
 10
68.82094996109338
 20
-132.1662651579307
 30
0.0
 10
68.70450573369193
 20
-132.1662651579307
 30
0.0
 10
68.54379202930502
 20
-132.1662651579307
 30
0.0
 10
68.402026350087
 20
-132.1197563688798
 30
0.0
 10
68.30676945991983
 20
-131.9378553272586
 30
0.0
 10
68.20324434058809
 20
-131.743207432342
 30
0.0
 10
68.18412406064495
 20
-131.5061848629568
 30
0.0
 10
68.18412406064495
 20
-131.343576356053
 30
0.0
 10
68.18412406064495
 20
-131.1995713647696
 30
0.0
 10
68.20100502852267
 20
-130.9477348847978
 30
0.0
 10
68.30676945991983
 20
-130.7489528752989
 30
0.0
 10
68.41477320338242
 20
-130.5460367512177
 30
0.0
 10
68.57548690776933
 20
-130.522610101918
 30
0.0
 10
68.70450573369193
 20
-130.522610101918
 30
0.0
 10
68.86315238078768
 20
-130.522610101918
 30
0.0
 10
69.00698511729686
 20
-130.5670518336777
 30
0.0
 10
69.10224200746403
 20
-130.7489528752989
 30
0.0
 10
69.20163301221348
 20
-130.9415337129244
 30
0.0
 10
69.22488740673892
 20
-131.1699435435964
 30
0.0
 10
69.22488740673892
 20
-131.343576356053
 30
0.0
 10
69.22488740673892
 20
-131.5147976016699
 30
0.0
 10
69.20387232427889
 20
-131.7452744896331
 30
0.0
 10
69.10224200746403
 20
-131.9378553272586
 30
0.0
  0
SPLINE
  5
116
330
10F
100
AcDbEntity
  8
_U+30EC_U+30A4_U+30E4_U+30FC 1
370
     0
100
AcDbSpline
210
0.0
220
0.0
230
1.0
 70
    11
 71
     3
 72
    17
 73
    13
 74
     0
 42
0.0000000001
 43
0.0000000001
 12
1.0
 22
0.0
 32
0.0
 13
1.0
 23
0.0
 33
0.0
 40
0.0
 40
0.0
 40
0.0
 40
0.0
 40
1.0
 40
1.0
 40
1.0
 40
2.0
 40
2.0
 40
2.0
 40
3.0
 40
3.0
 40
3.0
 40
4.0
 40
4.0
 40
4.0
 40
4.0
 10
68.70450573369193
 20
-130.7151909395434
 30
0.0
 10
68.45490856578559
 20
-130.7151909395434
 30
0.0
 10
68.40839977673471
 20
-130.9987222979795
 30
0.0
 10
68.40839977673471
 20
-131.343576356053
 30
0.0
 10
68.40839977673471
 20
-131.6629367075357
 30
0.0
 10
68.44440102455557
 20
-131.9716172630141
 30
0.0
 10
68.70450573369193
 20
-131.9716172630141
 30
0.0
 10
68.95203584430713
 20
-131.9716172630141
 30
0.0
 10
69.00078394542342
 20
-131.6904974714177
 30
0.0
 10
69.00078394542342
 20
-131.343576356053
 30
0.0
 10
69.00078394542342
 20
-131.0238714950218
 30
0.0
 10
68.9627156403114
 20
-130.7151909395434
 30
0.0
 10
68.70450573369193
 20
-130.7151909395434
 30
0.0
  0
HATCH
  5
117
330
10F
100
AcDbEntity
  8
_U+30EC_U+30A4_U+30E4_U+30FC 1
 62
   179
420
  2234388
100
AcDbHatch
 10
0.0
 20
0.0
 30
0.0
210
0.0
220
0.0
230
1.0
  2
SOLID
 70
     1
 71
     0
 91
        2
 92
        1
 93
        1
 72
     4
 94
        3
 73
     0
 74
     1
 95
       29
 96
       25
 40
0.0
 40
0.0
 40
0.0
 40
0.0
 40
1.0
 40
1.0
 40
1.0
 40
2.0
 40
2.0
 40
2.0
 40
3.0
 40
3.0
 40
3.0
 40
4.0
 40
4.0
 40
4.0
 40
5.0
 40
5.0
 40
5.0
 40
6.0
 40
6.0
 40
6.0
 40
7.0
 40
7.0
 40
7.0
 40
8.0
 40
8.0
 40
8.0
 40
8.0
 10
69.10224200746403
 20
-131.9378553272586
 10
68.99441051877571
 20
-132.1473171327618
 10
68.82094996109338
 20
-132.1662651579307
 10
68.70450573369193
 20
-132.1662651579307
 10
68.54379202930502
 20
-132.1662651579307
 10
68.402026350087
 20
-132.1197563688798
 10
68.30676945991983
 20
-131.9378553272586
 10
68.20324434058809
 20
-131.743207432342
 10
68.18412406064495
 20
-131.5061848629568
 10
68.18412406064495
 20
-131.343576356053
 10
68.18412406064495
 20
-131.1995713647696
 10
68.20100502852267
 20
-130.9477348847978
 10
68.30676945991983
 20
-130.7489528752989
 10
68.41477320338242
 20
-130.5460367512177
 10
68.57548690776933
 20
-130.522610101918
 10
68.70450573369193
 20
-130.522610101918
 10
68.86315238078768
 20
-130.522610101918
 10
69.00698511729686
 20
-130.5670518336777
 10
69.10224200746403
 20
-130.7489528752989
 10
69.20163301221348
 20
-130.9415337129244
 10
69.22488740673892
 20
-131.1699435435964
 10
69.22488740673892
 20
-131.343576356053
 10
69.22488740673892
 20
-131.5147976016699
 10
69.20387232427889
 20
-131.7452744896331
 10
69.10224200746403
 20
-131.9378553272586
 97
        0
 97
        0
 92
        1
 93
        1
 72
     4
 94
        3
 73
     0
 74
     1
 95
       17
 96
       13
 40
0.0
 40
0.0
 40
0.0
 40
0.0
 40
1.0
 40
1.0
 40
1.0
 40
2.0
 40
2.0
 40
2.0
 40
3.0
 40
3.0
 40
3.0
 40
4.0
 40
4.0
 40
4.0
 40
4.0
 10
68.70450573369193
 20
-130.7151909395434
 10
68.45490856578559
 20
-130.7151909395434
 10
68.40839977673471
 20
-130.9987222979795
 10
68.40839977673471
 20
-131.343576356053
 10
68.40839977673471
 20
-131.6629367075357
 10
68.44440102455557
 20
-131.9716172630141
 10
68.70450573369193
 20
-131.9716172630141
 10
68.95203584430713
 20
-131.9716172630141
 10
69.00078394542342
 20
-131.6904974714177
 10
69.00078394542342
 20
-131.343576356053
 10
69.00078394542342
 20
-131.0238714950218
 10
68.9627156403114
 20
-130.7151909395434
 10
68.70450573369193
 20
-130.7151909395434
 97
        0
 97
        0
 75
     2
 76
     1
 98
        0
  0
ENDBLK
  5
112
330
10F
100
AcDbEntity
  8
0
100
AcDbBlockEnd
  0
BLOCK
  5
11A
330
118
100
AcDbEntity
  8
0
100
AcDbBlockBegin
  2
block 5
 70
     0
 10
0.0
 20
0.0
 30
0.0
  3
block 5
  1

  0
SPLINE
  5
11C
330
118
100
AcDbEntity
  8
_U+30EC_U+30A4_U+30E4_U+30FC 1
370
     0
100
AcDbSpline
210
0.0
220
0.0
230
1.0
 70
    11
 71
     3
 72
    26
 73
    22
 74
     0
 42
0.0000000001
 43
0.0000000001
 12
1.0
 22
0.0
 32
0.0
 13
1.0
 23
0.0
 33
0.0
 40
0.0
 40
0.0
 40
0.0
 40
0.0
 40
1.0
 40
1.0
 40
1.0
 40
2.0
 40
2.0
 40
2.0
 40
3.0
 40
3.0
 40
3.0
 40
4.0
 40
4.0
 40
4.0
 40
5.0
 40
5.0
 40
5.0
 40
6.0
 40
6.0
 40
6.0
 40
7.0
 40
7.0
 40
7.0
 40
7.0
 10
73.00587970180062
 20
-132.1156222542975
 30
0.0
 10
73.00587970180062
 20
-132.1156222542975
 30
0.0
 10
73.00587970180062
 20
-131.0114691512749
 30
0.0
 10
73.00587970180062
 20
-131.0114691512749
 30
0.0
 10
73.00587970180062
 20
-131.0114691512749
 30
0.0
 10
72.67583955431368
 20
-131.0114691512749
 30
0.0
 10
72.67583955431368
 20
-131.0114691512749
 30
0.0
 10
72.67583955431368
 20
-131.0114691512749
 30
0.0
 10
72.67583955431368
 20
-130.8633300454092
 30
0.0
 10
72.67583955431368
 20
-130.8633300454092
 30
0.0
 10
73.00794675909177
 20
-130.8485161348226
 30
0.0
 10
73.05445554814264
 20
-130.6855631183703
 30
0.0
 10
73.08408336931579
 20
-130.57118594826
 30
0.0
 10
73.08408336931579
 20
-130.57118594826
 30
0.0
 10
73.23015541789039
 20
-130.57118594826
 30
0.0
 10
73.23015541789039
 20
-130.57118594826
 30
0.0
 10
73.23015541789039
 20
-130.57118594826
 30
0.0
 10
73.23015541789039
 20
-132.1156222542975
 30
0.0
 10
73.23015541789039
 20
-132.1156222542975
 30
0.0
 10
73.23015541789039
 20
-132.1156222542975
 30
0.0
 10
73.00587970180062
 20
-132.1156222542975
 30
0.0
 10
73.00587970180062
 20
-132.1156222542975
 30
0.0
  0
HATCH
  5
11D
330
118
100
AcDbEntity
  8
_U+30EC_U+30A4_U+30E4_U+30FC 1
 62
   179
420
  2234388
100
AcDbHatch
 10
0.0
 20
0.0
 30
0.0
210
0.0
220
0.0
230
1.0
  2
SOLID
 70
     1
 71
     0
 91
        1
 92
        1
 93
        1
 72
     4
 94
        3
 73
     0
 74
     1
 95
       26
 96
       22
 40
0.0
 40
0.0
 40
0.0
 40
0.0
 40
1.0
 40
1.0
 40
1.0
 40
2.0
 40
2.0
 40
2.0
 40
3.0
 40
3.0
 40
3.0
 40
4.0
 40
4.0
 40
4.0
 40
5.0
 40
5.0
 40
5.0
 40
6.0
 40
6.0
 40
6.0
 40
7.0
 40
7.0
 40
7.0
 40
7.0
 10
73.00587970180062
 20
-132.1156222542975
 10
73.00587970180062
 20
-132.1156222542975
 10
73.00587970180062
 20
-131.0114691512749
 10
73.00587970180062
 20
-131.0114691512749
 10
73.00587970180062
 20
-131.0114691512749
 10
72.67583955431368
 20
-131.0114691512749
 10
72.67583955431368
 20
-131.0114691512749
 10
72.67583955431368
 20
-131.0114691512749
 10
72.67583955431368
 20
-130.8633300454092
 10
72.67583955431368
 20
-130.8633300454092
 10
73.00794675909177
 20
-130.8485161348226
 10
73.05445554814264
 20
-130.6855631183703
 10
73.08408336931579
 20
-130.57118594826
 10
73.08408336931579
 20
-130.57118594826
 10
73.23015541789039
 20
-130.57118594826
 10
73.23015541789039
 20
-130.57118594826
 10
73.23015541789039
 20
-130.57118594826
 10
73.23015541789039
 20
-132.1156222542975
 10
73.23015541789039
 20
-132.1156222542975
 10
73.23015541789039
 20
-132.1156222542975
 10
73.00587970180062
 20
-132.1156222542975
 10
73.00587970180062
 20
-132.1156222542975
 97
        0
 97
        0
 75
     2
 76
     1
 98
        0
  0
SPLINE
  5
11E
330
118
100
AcDbEntity
  8
_U+30EC_U+30A4_U+30E4_U+30FC 1
370
     0
100
AcDbSpline
210
0.0
220
0.0
230
1.0
 70
    11
 71
     3
 72
    29
 73
    25
 74
     0
 42
0.0000000001
 43
0.0000000001
 12
1.0
 22
0.0
 32
0.0
 13
1.0
 23
0.0
 33
0.0
 40
0.0
 40
0.0
 40
0.0
 40
0.0
 40
1.0
 40
1.0
 40
1.0
 40
2.0
 40
2.0
 40
2.0
 40
3.0
 40
3.0
 40
3.0
 40
4.0
 40
4.0
 40
4.0
 40
5.0
 40
5.0
 40
5.0
 40
6.0
 40
6.0
 40
6.0
 40
7.0
 40
7.0
 40
7.0
 40
8.0
 40
8.0
 40
8.0
 40
8.0
 10
74.62903643967607
 20
-131.9378553272586
 30
0.0
 10
74.52120495098775
 20
-132.1473171327618
 30
0.0
 10
74.34774439330543
 20
-132.1662651579307
 30
0.0
 10
74.23130016590399
 20
-132.1662651579307
 30
0.0
 10
74.07058646151708
 20
-132.1662651579307
 30
0.0
 10
73.92882078229904
 20
-132.1197563688798
 30
0.0
 10
73.83356389213189
 20
-131.9378553272586
 30
0.0
 10
73.73003877280013
 20
-131.743207432342
 30
0.0
 10
73.71091849285699
 20
-131.5061848629568
 30
0.0
 10
73.71091849285699
 20
-131.343576356053
 30
0.0
 10
73.71091849285699
 20
-131.1995713647696
 30
0.0
 10
73.72779946073472
 20
-130.9477348847978
 30
0.0
 10
73.83356389213189
 20
-130.7489528752989
 30
0.0
 10
73.94156763559447
 20
-130.5460367512177
 30
0.0
 10
74.10228133998137
 20
-130.522610101918
 30
0.0
 10
74.23130016590399
 20
-130.522610101918
 30
0.0
 10
74.38994681299974
 20
-130.522610101918
 30
0.0
 10
74.53377954950892
 20
-130.5670518336777
 30
0.0
 10
74.62903643967607
 20
-130.7489528752989
 30
0.0
 10
74.72842744442553
 20
-130.9415337129244
 30
0.0
 10
74.75168183895097
 20
-131.1699435435964
 30
0.0
 10
74.75168183895097
 20
-131.343576356053
 30
0.0
 10
74.75168183895097
 20
-131.5147976016699
 30
0.0
 10
74.73066675649095
 20
-131.7452744896331
 30
0.0
 10
74.62903643967607
 20
-131.9378553272586
 30
0.0
  0
SPLINE
  5
11F
330
118
100
AcDbEntity
  8
_U+30EC_U+30A4_U+30E4_U+30FC 1
370
     0
100
AcDbSpline
210
0.0
220
0.0
230
1.0
 70
    11
 71
     3
 72
    17
 73
    13
 74
     0
 42
0.0000000001
 43
0.0000000001
 12
1.0
 22
0.0
 32
0.0
 13
1.0
 23
0.0
 33
0.0
 40
0.0
 40
0.0
 40
0.0
 40
0.0
 40
1.0
 40
1.0
 40
1.0
 40
2.0
 40
2.0
 40
2.0
 40
3.0
 40
3.0
 40
3.0
 40
4.0
 40
4.0
 40
4.0
 40
4.0
 10
74.23130016590399
 20
-130.7151909395434
 30
0.0
 10
73.98170299799763
 20
-130.7151909395434
 30
0.0
 10
73.93519420894675
 20
-130.9987222979795
 30
0.0
 10
73.93519420894675
 20
-131.343576356053
 30
0.0
 10
73.93519420894675
 20
-131.6629367075357
 30
0.0
 10
73.97119545676762
 20
-131.9716172630141
 30
0.0
 10
74.23130016590399
 20
-131.9716172630141
 30
0.0
 10
74.47883027651919
 20
-131.9716172630141
 30
0.0
 10
74.52757837763546
 20
-131.6904974714177
 30
0.0
 10
74.52757837763546
 20
-131.343576356053
 30
0.0
 10
74.52757837763546
 20
-131.0238714950218
 30
0.0
 10
74.48951007252346
 20
-130.7151909395434
 30
0.0
 10
74.23130016590399
 20
-130.7151909395434
 30
0.0
  0
HATCH
  5
120
330
118
100
AcDbEntity
  8
_U+30EC_U+30A4_U+30E4_U+30FC 1
 62
   179
420
  2234388
100
AcDbHatch
 10
0.0
 20
0.0
 30
0.0
210
0.0
220
0.0
230
1.0
  2
SOLID
 70
     1
 71
     0
 91
        2
 92
        1
 93
        1
 72
     4
 94
        3
 73
     0
 74
     1
 95
       29
 96
       25
 40
0.0
 40
0.0
 40
0.0
 40
0.0
 40
1.0
 40
1.0
 40
1.0
 40
2.0
 40
2.0
 40
2.0
 40
3.0
 40
3.0
 40
3.0
 40
4.0
 40
4.0
 40
4.0
 40
5.0
 40
5.0
 40
5.0
 40
6.0
 40
6.0
 40
6.0
 40
7.0
 40
7.0
 40
7.0
 40
8.0
 40
8.0
 40
8.0
 40
8.0
 10
74.62903643967607
 20
-131.9378553272586
 10
74.52120495098775
 20
-132.1473171327618
 10
74.34774439330543
 20
-132.1662651579307
 10
74.23130016590399
 20
-132.1662651579307
 10
74.07058646151708
 20
-132.1662651579307
 10
73.92882078229904
 20
-132.1197563688798
 10
73.83356389213189
 20
-131.9378553272586
 10
73.73003877280013
 20
-131.743207432342
 10
73.71091849285699
 20
-131.5061848629568
 10
73.71091849285699
 20
-131.343576356053
 10
73.71091849285699
 20
-131.1995713647696
 10
73.72779946073472
 20
-130.9477348847978
 10
73.83356389213189
 20
-130.7489528752989
 10
73.94156763559447
 20
-130.5460367512177
 10
74.10228133998137
 20
-130.522610101918
 10
74.23130016590399
 20
-130.522610101918
 10
74.38994681299974
 20
-130.522610101918
 10
74.53377954950892
 20
-130.5670518336777
 10
74.62903643967607
 20
-130.7489528752989
 10
74.72842744442553
 20
-130.9415337129244
 10
74.75168183895097
 20
-131.1699435435964
 10
74.75168183895097
 20
-131.343576356053
 10
74.75168183895097
 20
-131.5147976016699
 10
74.73066675649095
 20
-131.7452744896331
 10
74.62903643967607
 20
-131.9378553272586
 97
        0
 97
        0
 92
        1
 93
        1
 72
     4
 94
        3
 73
     0
 74
     1
 95
       17
 96
       13
 40
0.0
 40
0.0
 40
0.0
 40
0.0
 40
1.0
 40
1.0
 40
1.0
 40
2.0
 40
2.0
 40
2.0
 40
3.0
 40
3.0
 40
3.0
 40
4.0
 40
4.0
 40
4.0
 40
4.0
 10
74.23130016590399
 20
-130.7151909395434
 10
73.98170299799763
 20
-130.7151909395434
 10
73.93519420894675
 20
-130.9987222979795
 10
73.93519420894675
 20
-131.343576356053
 10
73.93519420894675
 20
-131.6629367075357
 10
73.97119545676762
 20
-131.9716172630141
 10
74.23130016590399
 20
-131.9716172630141
 10
74.47883027651919
 20
-131.9716172630141
 10
74.52757837763546
 20
-131.6904974714177
 10
74.52757837763546
 20
-131.343576356053
 10
74.52757837763546
 20
-131.0238714950218
 10
74.48951007252346
 20
-130.7151909395434
 10
74.23130016590399
 20
-130.7151909395434
 97
        0
 97
        0
 75
     2
 76
     1
 98
        0
  0
ENDBLK
  5
11B
330
118
100
AcDbEntity
  8
0
100
AcDbBlockEnd
  0
BLOCK
  5
123
330
121
100
AcDbEntity
  8
0
100
AcDbBlockBegin
  2
block 6
 70
     0
 10
0.0
 20
0.0
 30
0.0
  3
block 6
  1

  0
SPLINE
  5
125
330
121
100
AcDbEntity
  8
_U+30EC_U+30A4_U+30E4_U+30FC 1
370
     0
100
AcDbSpline
210
0.0
220
0.0
230
1.0
 70
    11
 71
     3
 72
    26
 73
    22
 74
     0
 42
0.0000000001
 43
0.0000000001
 12
1.0
 22
0.0
 32
0.0
 13
1.0
 23
0.0
 33
0.0
 40
0.0
 40
0.0
 40
0.0
 40
0.0
 40
1.0
 40
1.0
 40
1.0
 40
2.0
 40
2.0
 40
2.0
 40
3.0
 40
3.0
 40
3.0
 40
4.0
 40
4.0
 40
4.0
 40
5.0
 40
5.0
 40
5.0
 40
6.0
 40
6.0
 40
6.0
 40
7.0
 40
7.0
 40
7.0
 40
7.0
 10
78.59158526681044
 20
-132.1156222542975
 30
0.0
 10
78.59158526681044
 20
-132.1156222542975
 30
0.0
 10
78.59158526681044
 20
-131.0114691512749
 30
0.0
 10
78.59158526681044
 20
-131.0114691512749
 30
0.0
 10
78.59158526681044
 20
-131.0114691512749
 30
0.0
 10
78.2615451193235
 20
-131.0114691512749
 30
0.0
 10
78.2615451193235
 20
-131.0114691512749
 30
0.0
 10
78.2615451193235
 20
-131.0114691512749
 30
0.0
 10
78.2615451193235
 20
-130.8633300454092
 30
0.0
 10
78.2615451193235
 20
-130.8633300454092
 30
0.0
 10
78.59365232410158
 20
-130.8485161348226
 30
0.0
 10
78.64016111315246
 20
-130.6855631183703
 30
0.0
 10
78.66978893432561
 20
-130.57118594826
 30
0.0
 10
78.66978893432561
 20
-130.57118594826
 30
0.0
 10
78.8158609829002
 20
-130.57118594826
 30
0.0
 10
78.8158609829002
 20
-130.57118594826
 30
0.0
 10
78.8158609829002
 20
-130.57118594826
 30
0.0
 10
78.8158609829002
 20
-132.1156222542975
 30
0.0
 10
78.8158609829002
 20
-132.1156222542975
 30
0.0
 10
78.8158609829002
 20
-132.1156222542975
 30
0.0
 10
78.59158526681044
 20
-132.1156222542975
 30
0.0
 10
78.59158526681044
 20
-132.1156222542975
 30
0.0
  0
HATCH
  5
126
330
121
100
AcDbEntity
  8
_U+30EC_U+30A4_U+30E4_U+30FC 1
 62
   179
420
  2234388
100
AcDbHatch
 10
0.0
 20
0.0
 30
0.0
210
0.0
220
0.0
230
1.0
  2
SOLID
 70
     1
 71
     0
 91
        1
 92
        1
 93
        1
 72
     4
 94
        3
 73
     0
 74
     1
 95
       26
 96
       22
 40
0.0
 40
0.0
 40
0.0
 40
0.0
 40
1.0
 40
1.0
 40
1.0
 40
2.0
 40
2.0
 40
2.0
 40
3.0
 40
3.0
 40
3.0
 40
4.0
 40
4.0
 40
4.0
 40
5.0
 40
5.0
 40
5.0
 40
6.0
 40
6.0
 40
6.0
 40
7.0
 40
7.0
 40
7.0
 40
7.0
 10
78.59158526681044
 20
-132.1156222542975
 10
78.59158526681044
 20
-132.1156222542975
 10
78.59158526681044
 20
-131.0114691512749
 10
78.59158526681044
 20
-131.0114691512749
 10
78.59158526681044
 20
-131.0114691512749
 10
78.2615451193235
 20
-131.0114691512749
 10
78.2615451193235
 20
-131.0114691512749
 10
78.2615451193235
 20
-131.0114691512749
 10
78.2615451193235
 20
-130.8633300454092
 10
78.2615451193235
 20
-130.8633300454092
 10
78.59365232410158
 20
-130.8485161348226
 10
78.64016111315246
 20
-130.6855631183703
 10
78.66978893432561
 20
-130.57118594826
 10
78.66978893432561
 20
-130.57118594826
 10
78.8158609829002
 20
-130.57118594826
 10
78.8158609829002
 20
-130.57118594826
 10
78.8158609829002
 20
-130.57118594826
 10
78.8158609829002
 20
-132.1156222542975
 10
78.8158609829002
 20
-132.1156222542975
 10
78.8158609829002
 20
-132.1156222542975
 10
78.59158526681044
 20
-132.1156222542975
 10
78.59158526681044
 20
-132.1156222542975
 97
        0
 97
        0
 75
     2
 76
     1
 98
        0
  0
SPLINE
  5
127
330
121
100
AcDbEntity
  8
_U+30EC_U+30A4_U+30E4_U+30FC 1
370
     0
100
AcDbSpline
210
0.0
220
0.0
230
1.0
 70
    11
 71
     3
 72
    29
 73
    25
 74
     0
 42
0.0000000001
 43
0.0000000001
 12
1.0
 22
0.0
 32
0.0
 13
1.0
 23
0.0
 33
0.0
 40
0.0
 40
0.0
 40
0.0
 40
0.0
 40
1.0
 40
1.0
 40
1.0
 40
2.0
 40
2.0
 40
2.0
 40
3.0
 40
3.0
 40
3.0
 40
4.0
 40
4.0
 40
4.0
 40
5.0
 40
5.0
 40
5.0
 40
6.0
 40
6.0
 40
6.0
 40
7.0
 40
7.0
 40
7.0
 40
8.0
 40
8.0
 40
8.0
 40
8.0
 10
80.2147420046859
 20
-131.9378553272586
 30
0.0
 10
80.10691051599758
 20
-132.1473171327618
 30
0.0
 10
79.93344995831525
 20
-132.1662651579307
 30
0.0
 10
79.8170057309138
 20
-132.1662651579307
 30
0.0
 10
79.6562920265269
 20
-132.1662651579307
 30
0.0
 10
79.51452634730887
 20
-132.1197563688798
 30
0.0
 10
79.41926945714171
 20
-131.9378553272586
 30
0.0
 10
79.31574433780996
 20
-131.743207432342
 30
0.0
 10
79.29662405786682
 20
-131.5061848629568
 30
0.0
 10
79.29662405786682
 20
-131.343576356053
 30
0.0
 10
79.29662405786682
 20
-131.1995713647696
 30
0.0
 10
79.31350502574455
 20
-130.9477348847978
 30
0.0
 10
79.41926945714171
 20
-130.7489528752989
 30
0.0
 10
79.5272732006043
 20
-130.5460367512177
 30
0.0
 10
79.6879869049912
 20
-130.522610101918
 30
0.0
 10
79.8170057309138
 20
-130.522610101918
 30
0.0
 10
79.97565237800956
 20
-130.522610101918
 30
0.0
 10
80.11948511451874
 20
-130.5670518336777
 30
0.0
 10
80.2147420046859
 20
-130.7489528752989
 30
0.0
 10
80.31413300943537
 20
-130.9415337129244
 30
0.0
 10
80.33738740396079
 20
-131.1699435435964
 30
0.0
 10
80.33738740396079
 20
-131.343576356053
 30
0.0
 10
80.33738740396079
 20
-131.5147976016699
 30
0.0
 10
80.31637232150076
 20
-131.7452744896331
 30
0.0
 10
80.2147420046859
 20
-131.9378553272586
 30
0.0
  0
SPLINE
  5
128
330
121
100
AcDbEntity
  8
_U+30EC_U+30A4_U+30E4_U+30FC 1
370
     0
100
AcDbSpline
210
0.0
220
0.0
230
1.0
 70
    11
 71
     3
 72
    17
 73
    13
 74
     0
 42
0.0000000001
 43
0.0000000001
 12
1.0
 22
0.0
 32
0.0
 13
1.0
 23
0.0
 33
0.0
 40
0.0
 40
0.0
 40
0.0
 40
0.0
 40
1.0
 40
1.0
 40
1.0
 40
2.0
 40
2.0
 40
2.0
 40
3.0
 40
3.0
 40
3.0
 40
4.0
 40
4.0
 40
4.0
 40
4.0
 10
79.8170057309138
 20
-130.7151909395434
 30
0.0
 10
79.56740856300746
 20
-130.7151909395434
 30
0.0
 10
79.52089977395659
 20
-130.9987222979795
 30
0.0
 10
79.52089977395659
 20
-131.343576356053
 30
0.0
 10
79.52089977395659
 20
-131.6629367075357
 30
0.0
 10
79.55690102177745
 20
-131.9716172630141
 30
0.0
 10
79.8170057309138
 20
-131.9716172630141
 30
0.0
 10
80.06453584152901
 20
-131.9716172630141
 30
0.0
 10
80.1132839426453
 20
-131.6904974714177
 30
0.0
 10
80.1132839426453
 20
-131.343576356053
 30
0.0
 10
80.1132839426453
 20
-131.0238714950218
 30
0.0
 10
80.07521563753328
 20
-130.7151909395434
 30
0.0
 10
79.8170057309138
 20
-130.7151909395434
 30
0.0
  0
HATCH
  5
129
330
121
100
AcDbEntity
  8
_U+30EC_U+30A4_U+30E4_U+30FC 1
 62
   179
420
  2234388
100
AcDbHatch
 10
0.0
 20
0.0
 30
0.0
210
0.0
220
0.0
230
1.0
  2
SOLID
 70
     1
 71
     0
 91
        2
 92
        1
 93
        1
 72
     4
 94
        3
 73
     0
 74
     1
 95
       29
 96
       25
 40
0.0
 40
0.0
 40
0.0
 40
0.0
 40
1.0
 40
1.0
 40
1.0
 40
2.0
 40
2.0
 40
2.0
 40
3.0
 40
3.0
 40
3.0
 40
4.0
 40
4.0
 40
4.0
 40
5.0
 40
5.0
 40
5.0
 40
6.0
 40
6.0
 40
6.0
 40
7.0
 40
7.0
 40
7.0
 40
8.0
 40
8.0
 40
8.0
 40
8.0
 10
80.2147420046859
 20
-131.9378553272586
 10
80.10691051599758
 20
-132.1473171327618
 10
79.93344995831525
 20
-132.1662651579307
 10
79.8170057309138
 20
-132.1662651579307
 10
79.6562920265269
 20
-132.1662651579307
 10
79.51452634730887
 20
-132.1197563688798
 10
79.41926945714171
 20
-131.9378553272586
 10
79.31574433780996
 20
-131.743207432342
 10
79.29662405786682
 20
-131.5061848629568
 10
79.29662405786682
 20
-131.343576356053
 10
79.29662405786682
 20
-131.1995713647696
 10
79.31350502574455
 20
-130.9477348847978
 10
79.41926945714171
 20
-130.7489528752989
 10
79.5272732006043
 20
-130.5460367512177
 10
79.6879869049912
 20
-130.522610101918
 10
79.8170057309138
 20
-130.522610101918
 10
79.97565237800956
 20
-130.522610101918
 10
80.11948511451874
 20
-130.5670518336777
 10
80.2147420046859
 20
-130.7489528752989
 10
80.31413300943537
 20
-130.9415337129244
 10
80.33738740396079
 20
-131.1699435435964
 10
80.33738740396079
 20
-131.343576356053
 10
80.33738740396079
 20
-131.5147976016699
 10
80.31637232150076
 20
-131.7452744896331
 10
80.2147420046859
 20
-131.9378553272586
 97
        0
 97
        0
 92
        1
 93
        1
 72
     4
 94
        3
 73
     0
 74
     1
 95
       17
 96
       13
 40
0.0
 40
0.0
 40
0.0
 40
0.0
 40
1.0
 40
1.0
 40
1.0
 40
2.0
 40
2.0
 40
2.0
 40
3.0
 40
3.0
 40
3.0
 40
4.0
 40
4.0
 40
4.0
 40
4.0
 10
79.8170057309138
 20
-130.7151909395434
 10
79.56740856300746
 20
-130.7151909395434
 10
79.52089977395659
 20
-130.9987222979795
 10
79.52089977395659
 20
-131.343576356053
 10
79.52089977395659
 20
-131.6629367075357
 10
79.55690102177745
 20
-131.9716172630141
 10
79.8170057309138
 20
-131.9716172630141
 10
80.06453584152901
 20
-131.9716172630141
 10
80.1132839426453
 20
-131.6904974714177
 10
80.1132839426453
 20
-131.343576356053
 10
80.1132839426453
 20
-131.0238714950218
 10
80.07521563753328
 20
-130.7151909395434
 10
79.8170057309138
 20
-130.7151909395434
 97
        0
 97
        0
 75
     2
 76
     1
 98
        0
  0
ENDBLK
  5
124
330
121
100
AcDbEntity
  8
0
100
AcDbBlockEnd
  0
BLOCK
  5
12C
330
12A
100
AcDbEntity
  8
0
100
AcDbBlockBegin
  2
block 7
 70
     0
 10
0.0
 20
0.0
 30
0.0
  3
block 7
  1

  0
SPLINE
  5
12E
330
12A
100
AcDbEntity
  8
_U+30EC_U+30A4_U+30E4_U+30FC 1
370
     0
100
AcDbSpline
210
0.0
220
0.0
230
1.0
 70
    11
 71
     3
 72
    26
 73
    22
 74
     0
 42
0.0000000001
 43
0.0000000001
 12
1.0
 22
0.0
 32
0.0
 13
1.0
 23
0.0
 33
0.0
 40
0.0
 40
0.0
 40
0.0
 40
0.0
 40
1.0
 40
1.0
 40
1.0
 40
2.0
 40
2.0
 40
2.0
 40
3.0
 40
3.0
 40
3.0
 40
4.0
 40
4.0
 40
4.0
 40
5.0
 40
5.0
 40
5.0
 40
6.0
 40
6.0
 40
6.0
 40
7.0
 40
7.0
 40
7.0
 40
7.0
 10
84.1183796990225
 20
-132.1156222542975
 30
0.0
 10
84.1183796990225
 20
-132.1156222542975
 30
0.0
 10
84.1183796990225
 20
-131.0114691512749
 30
0.0
 10
84.1183796990225
 20
-131.0114691512749
 30
0.0
 10
84.1183796990225
 20
-131.0114691512749
 30
0.0
 10
83.78833955153556
 20
-131.0114691512749
 30
0.0
 10
83.78833955153556
 20
-131.0114691512749
 30
0.0
 10
83.78833955153556
 20
-131.0114691512749
 30
0.0
 10
83.78833955153556
 20
-130.8633300454092
 30
0.0
 10
83.78833955153556
 20
-130.8633300454092
 30
0.0
 10
84.12044675631364
 20
-130.8485161348226
 30
0.0
 10
84.16695554536452
 20
-130.6855631183703
 30
0.0
 10
84.19658336653767
 20
-130.57118594826
 30
0.0
 10
84.19658336653767
 20
-130.57118594826
 30
0.0
 10
84.34265541511226
 20
-130.57118594826
 30
0.0
 10
84.34265541511226
 20
-130.57118594826
 30
0.0
 10
84.34265541511226
 20
-130.57118594826
 30
0.0
 10
84.34265541511226
 20
-132.1156222542975
 30
0.0
 10
84.34265541511226
 20
-132.1156222542975
 30
0.0
 10
84.34265541511226
 20
-132.1156222542975
 30
0.0
 10
84.1183796990225
 20
-132.1156222542975
 30
0.0
 10
84.1183796990225
 20
-132.1156222542975
 30
0.0
  0
HATCH
  5
12F
330
12A
100
AcDbEntity
  8
_U+30EC_U+30A4_U+30E4_U+30FC 1
 62
   179
420
  2234388
100
AcDbHatch
 10
0.0
 20
0.0
 30
0.0
210
0.0
220
0.0
230
1.0
  2
SOLID
 70
     1
 71
     0
 91
        1
 92
        1
 93
        1
 72
     4
 94
        3
 73
     0
 74
     1
 95
       26
 96
       22
 40
0.0
 40
0.0
 40
0.0
 40
0.0
 40
1.0
 40
1.0
 40
1.0
 40
2.0
 40
2.0
 40
2.0
 40
3.0
 40
3.0
 40
3.0
 40
4.0
 40
4.0
 40
4.0
 40
5.0
 40
5.0
 40
5.0
 40
6.0
 40
6.0
 40
6.0
 40
7.0
 40
7.0
 40
7.0
 40
7.0
 10
84.1183796990225
 20
-132.1156222542975
 10
84.1183796990225
 20
-132.1156222542975
 10
84.1183796990225
 20
-131.0114691512749
 10
84.1183796990225
 20
-131.0114691512749
 10
84.1183796990225
 20
-131.0114691512749
 10
83.78833955153556
 20
-131.0114691512749
 10
83.78833955153556
 20
-131.0114691512749
 10
83.78833955153556
 20
-131.0114691512749
 10
83.78833955153556
 20
-130.8633300454092
 10
83.78833955153556
 20
-130.8633300454092
 10
84.12044675631364
 20
-130.8485161348226
 10
84.16695554536452
 20
-130.6855631183703
 10
84.19658336653767
 20
-130.57118594826
 10
84.19658336653767
 20
-130.57118594826
 10
84.34265541511226
 20
-130.57118594826
 10
84.34265541511226
 20
-130.57118594826
 10
84.34265541511226
 20
-130.57118594826
 10
84.34265541511226
 20
-132.1156222542975
 10
84.34265541511226
 20
-132.1156222542975
 10
84.34265541511226
 20
-132.1156222542975
 10
84.1183796990225
 20
-132.1156222542975
 10
84.1183796990225
 20
-132.1156222542975
 97
        0
 97
        0
 75
     2
 76
     1
 98
        0
  0
SPLINE
  5
130
330
12A
100
AcDbEntity
  8
_U+30EC_U+30A4_U+30E4_U+30FC 1
370
     0
100
AcDbSpline
210
0.0
220
0.0
230
1.0
 70
    11
 71
     3
 72
    29
 73
    25
 74
     0
 42
0.0000000001
 43
0.0000000001
 12
1.0
 22
0.0
 32
0.0
 13
1.0
 23
0.0
 33
0.0
 40
0.0
 40
0.0
 40
0.0
 40
0.0
 40
1.0
 40
1.0
 40
1.0
 40
2.0
 40
2.0
 40
2.0
 40
3.0
 40
3.0
 40
3.0
 40
4.0
 40
4.0
 40
4.0
 40
5.0
 40
5.0
 40
5.0
 40
6.0
 40
6.0
 40
6.0
 40
7.0
 40
7.0
 40
7.0
 40
8.0
 40
8.0
 40
8.0
 40
8.0
 10
85.74153643689796
 20
-131.9378553272586
 30
0.0
 10
85.63370494820963
 20
-132.1473171327618
 30
0.0
 10
85.46024439052731
 20
-132.1662651579307
 30
0.0
 10
85.34380016312586
 20
-132.1662651579307
 30
0.0
 10
85.18308645873896
 20
-132.1662651579307
 30
0.0
 10
85.04132077952093
 20
-132.1197563688798
 30
0.0
 10
84.94606388935377
 20
-131.9378553272586
 30
0.0
 10
84.842538770022
 20
-131.743207432342
 30
0.0
 10
84.82341849007886
 20
-131.5061848629568
 30
0.0
 10
84.82341849007886
 20
-131.343576356053
 30
0.0
 10
84.82341849007886
 20
-131.1995713647696
 30
0.0
 10
84.84029945795659
 20
-130.9477348847978
 30
0.0
 10
84.94606388935377
 20
-130.7489528752989
 30
0.0
 10
85.05406763281634
 20
-130.5460367512177
 30
0.0
 10
85.21478133720325
 20
-130.522610101918
 30
0.0
 10
85.34380016312586
 20
-130.522610101918
 30
0.0
 10
85.50244681022161
 20
-130.522610101918
 30
0.0
 10
85.6462795467308
 20
-130.5670518336777
 30
0.0
 10
85.74153643689796
 20
-130.7489528752989
 30
0.0
 10
85.84092744164741
 20
-130.9415337129244
 30
0.0
 10
85.86418183617285
 20
-131.1699435435964
 30
0.0
 10
85.86418183617285
 20
-131.343576356053
 30
0.0
 10
85.86418183617285
 20
-131.5147976016699
 30
0.0
 10
85.84316675371282
 20
-131.7452744896331
 30
0.0
 10
85.74153643689796
 20
-131.9378553272586
 30
0.0
  0
SPLINE
  5
131
330
12A
100
AcDbEntity
  8
_U+30EC_U+30A4_U+30E4_U+30FC 1
370
     0
100
AcDbSpline
210
0.0
220
0.0
230
1.0
 70
    11
 71
     3
 72
    17
 73
    13
 74
     0
 42
0.0000000001
 43
0.0000000001
 12
1.0
 22
0.0
 32
0.0
 13
1.0
 23
0.0
 33
0.0
 40
0.0
 40
0.0
 40
0.0
 40
0.0
 40
1.0
 40
1.0
 40
1.0
 40
2.0
 40
2.0
 40
2.0
 40
3.0
 40
3.0
 40
3.0
 40
4.0
 40
4.0
 40
4.0
 40
4.0
 10
85.34380016312586
 20
-130.7151909395434
 30
0.0
 10
85.0942029952195
 20
-130.7151909395434
 30
0.0
 10
85.04769420616864
 20
-130.9987222979795
 30
0.0
 10
85.04769420616864
 20
-131.343576356053
 30
0.0
 10
85.04769420616864
 20
-131.6629367075357
 30
0.0
 10
85.08369545398949
 20
-131.9716172630141
 30
0.0
 10
85.34380016312586
 20
-131.9716172630141
 30
0.0
 10
85.59133027374106
 20
-131.9716172630141
 30
0.0
 10
85.64007837485734
 20
-131.6904974714177
 30
0.0
 10
85.64007837485734
 20
-131.343576356053
 30
0.0
 10
85.64007837485734
 20
-131.0238714950218
 30
0.0
 10
85.60201006974533
 20
-130.7151909395434
 30
0.0
 10
85.34380016312586
 20
-130.7151909395434
 30
0.0
  0
HATCH
  5
132
330
12A
100
AcDbEntity
  8
_U+30EC_U+30A4_U+30E4_U+30FC 1
 62
   179
420
  2234388
100
AcDbHatch
 10
0.0
 20
0.0
 30
0.0
210
0.0
220
0.0
230
1.0
  2
SOLID
 70
     1
 71
     0
 91
        2
 92
        1
 93
        1
 72
     4
 94
        3
 73
     0
 74
     1
 95
       29
 96
       25
 40
0.0
 40
0.0
 40
0.0
 40
0.0
 40
1.0
 40
1.0
 40
1.0
 40
2.0
 40
2.0
 40
2.0
 40
3.0
 40
3.0
 40
3.0
 40
4.0
 40
4.0
 40
4.0
 40
5.0
 40
5.0
 40
5.0
 40
6.0
 40
6.0
 40
6.0
 40
7.0
 40
7.0
 40
7.0
 40
8.0
 40
8.0
 40
8.0
 40
8.0
 10
85.74153643689796
 20
-131.9378553272586
 10
85.63370494820963
 20
-132.1473171327618
 10
85.46024439052731
 20
-132.1662651579307
 10
85.34380016312586
 20
-132.1662651579307
 10
85.18308645873896
 20
-132.1662651579307
 10
85.04132077952093
 20
-132.1197563688798
 10
84.94606388935377
 20
-131.9378553272586
 10
84.842538770022
 20
-131.743207432342
 10
84.82341849007886
 20
-131.5061848629568
 10
84.82341849007886
 20
-131.343576356053
 10
84.82341849007886
 20
-131.1995713647696
 10
84.84029945795659
 20
-130.9477348847978
 10
84.94606388935377
 20
-130.7489528752989
 10
85.05406763281634
 20
-130.5460367512177
 10
85.21478133720325
 20
-130.522610101918
 10
85.34380016312586
 20
-130.522610101918
 10
85.50244681022161
 20
-130.522610101918
 10
85.6462795467308
 20
-130.5670518336777
 10
85.74153643689796
 20
-130.7489528752989
 10
85.84092744164741
 20
-130.9415337129244
 10
85.86418183617285
 20
-131.1699435435964
 10
85.86418183617285
 20
-131.343576356053
 10
85.86418183617285
 20
-131.5147976016699
 10
85.84316675371282
 20
-131.7452744896331
 10
85.74153643689796
 20
-131.9378553272586
 97
        0
 97
        0
 92
        1
 93
        1
 72
     4
 94
        3
 73
     0
 74
     1
 95
       17
 96
       13
 40
0.0
 40
0.0
 40
0.0
 40
0.0
 40
1.0
 40
1.0
 40
1.0
 40
2.0
 40
2.0
 40
2.0
 40
3.0
 40
3.0
 40
3.0
 40
4.0
 40
4.0
 40
4.0
 40
4.0
 10
85.34380016312586
 20
-130.7151909395434
 10
85.0942029952195
 20
-130.7151909395434
 10
85.04769420616864
 20
-130.9987222979795
 10
85.04769420616864
 20
-131.343576356053
 10
85.04769420616864
 20
-131.6629367075357
 10
85.08369545398949
 20
-131.9716172630141
 10
85.34380016312586
 20
-131.9716172630141
 10
85.59133027374106
 20
-131.9716172630141
 10
85.64007837485734
 20
-131.6904974714177
 10
85.64007837485734
 20
-131.343576356053
 10
85.64007837485734
 20
-131.0238714950218
 10
85.60201006974533
 20
-130.7151909395434
 10
85.34380016312586
 20
-130.7151909395434
 97
        0
 97
        0
 75
     2
 76
     1
 98
        0
  0
ENDBLK
  5
12D
330
12A
100
AcDbEntity
  8
0
100
AcDbBlockEnd
  0
BLOCK
  5
135
330
133
100
AcDbEntity
  8
0
100
AcDbBlockBegin
  2
block 8
 70
     0
 10
0.0
 20
0.0
 30
0.0
  3
block 8
  1

  0
SPLINE
  5
137
330
133
100
AcDbEntity
  8
_U+30EC_U+30A4_U+30E4_U+30FC 1
370
     0
100
AcDbSpline
210
0.0
220
0.0
230
1.0
 70
    11
 71
     3
 72
    26
 73
    22
 74
     0
 42
0.0000000001
 43
0.0000000001
 12
1.0
 22
0.0
 32
0.0
 13
1.0
 23
0.0
 33
0.0
 40
0.0
 40
0.0
 40
0.0
 40
0.0
 40
1.0
 40
1.0
 40
1.0
 40
2.0
 40
2.0
 40
2.0
 40
3.0
 40
3.0
 40
3.0
 40
4.0
 40
4.0
 40
4.0
 40
5.0
 40
5.0
 40
5.0
 40
6.0
 40
6.0
 40
6.0
 40
7.0
 40
7.0
 40
7.0
 40
7.0
 10
89.64517413123454
 20
-132.1156222542975
 30
0.0
 10
89.64517413123454
 20
-132.1156222542975
 30
0.0
 10
89.64517413123454
 20
-131.0114691512749
 30
0.0
 10
89.64517413123454
 20
-131.0114691512749
 30
0.0
 10
89.64517413123454
 20
-131.0114691512749
 30
0.0
 10
89.31513398374761
 20
-131.0114691512749
 30
0.0
 10
89.31513398374761
 20
-131.0114691512749
 30
0.0
 10
89.31513398374761
 20
-131.0114691512749
 30
0.0
 10
89.31513398374761
 20
-130.8633300454092
 30
0.0
 10
89.31513398374761
 20
-130.8633300454092
 30
0.0
 10
89.6472411885257
 20
-130.8485161348226
 30
0.0
 10
89.69374997757657
 20
-130.6855631183703
 30
0.0
 10
89.72337779874971
 20
-130.57118594826
 30
0.0
 10
89.72337779874971
 20
-130.57118594826
 30
0.0
 10
89.8694498473243
 20
-130.57118594826
 30
0.0
 10
89.8694498473243
 20
-130.57118594826
 30
0.0
 10
89.8694498473243
 20
-130.57118594826
 30
0.0
 10
89.8694498473243
 20
-132.1156222542975
 30
0.0
 10
89.8694498473243
 20
-132.1156222542975
 30
0.0
 10
89.8694498473243
 20
-132.1156222542975
 30
0.0
 10
89.64517413123454
 20
-132.1156222542975
 30
0.0
 10
89.64517413123454
 20
-132.1156222542975
 30
0.0
  0
HATCH
  5
138
330
133
100
AcDbEntity
  8
_U+30EC_U+30A4_U+30E4_U+30FC 1
 62
   179
420
  2234388
100
AcDbHatch
 10
0.0
 20
0.0
 30
0.0
210
0.0
220
0.0
230
1.0
  2
SOLID
 70
     1
 71
     0
 91
        1
 92
        1
 93
        1
 72
     4
 94
        3
 73
     0
 74
     1
 95
       26
 96
       22
 40
0.0
 40
0.0
 40
0.0
 40
0.0
 40
1.0
 40
1.0
 40
1.0
 40
2.0
 40
2.0
 40
2.0
 40
3.0
 40
3.0
 40
3.0
 40
4.0
 40
4.0
 40
4.0
 40
5.0
 40
5.0
 40
5.0
 40
6.0
 40
6.0
 40
6.0
 40
7.0
 40
7.0
 40
7.0
 40
7.0
 10
89.64517413123454
 20
-132.1156222542975
 10
89.64517413123454
 20
-132.1156222542975
 10
89.64517413123454
 20
-131.0114691512749
 10
89.64517413123454
 20
-131.0114691512749
 10
89.64517413123454
 20
-131.0114691512749
 10
89.31513398374761
 20
-131.0114691512749
 10
89.31513398374761
 20
-131.0114691512749
 10
89.31513398374761
 20
-131.0114691512749
 10
89.31513398374761
 20
-130.8633300454092
 10
89.31513398374761
 20
-130.8633300454092
 10
89.6472411885257
 20
-130.8485161348226
 10
89.69374997757657
 20
-130.6855631183703
 10
89.72337779874971
 20
-130.57118594826
 10
89.72337779874971
 20
-130.57118594826
 10
89.8694498473243
 20
-130.57118594826
 10
89.8694498473243
 20
-130.57118594826
 10
89.8694498473243
 20
-130.57118594826
 10
89.8694498473243
 20
-132.1156222542975
 10
89.8694498473243
 20
-132.1156222542975
 10
89.8694498473243
 20
-132.1156222542975
 10
89.64517413123454
 20
-132.1156222542975
 10
89.64517413123454
 20
-132.1156222542975
 97
        0
 97
        0
 75
     2
 76
     1
 98
        0
  0
SPLINE
  5
139
330
133
100
AcDbEntity
  8
_U+30EC_U+30A4_U+30E4_U+30FC 1
370
     0
100
AcDbSpline
210
0.0
220
0.0
230
1.0
 70
    11
 71
     3
 72
    29
 73
    25
 74
     0
 42
0.0000000001
 43
0.0000000001
 12
1.0
 22
0.0
 32
0.0
 13
1.0
 23
0.0
 33
0.0
 40
0.0
 40
0.0
 40
0.0
 40
0.0
 40
1.0
 40
1.0
 40
1.0
 40
2.0
 40
2.0
 40
2.0
 40
3.0
 40
3.0
 40
3.0
 40
4.0
 40
4.0
 40
4.0
 40
5.0
 40
5.0
 40
5.0
 40
6.0
 40
6.0
 40
6.0
 40
7.0
 40
7.0
 40
7.0
 40
8.0
 40
8.0
 40
8.0
 40
8.0
 10
91.26833086911
 20
-131.9378553272586
 30
0.0
 10
91.16049938042168
 20
-132.1473171327618
 30
0.0
 10
90.98703882273935
 20
-132.1662651579307
 30
0.0
 10
90.8705945953379
 20
-132.1662651579307
 30
0.0
 10
90.70988089095101
 20
-132.1662651579307
 30
0.0
 10
90.56811521173297
 20
-132.1197563688798
 30
0.0
 10
90.47285832156582
 20
-131.9378553272586
 30
0.0
 10
90.36933320223406
 20
-131.743207432342
 30
0.0
 10
90.35021292229092
 20
-131.5061848629568
 30
0.0
 10
90.35021292229092
 20
-131.343576356053
 30
0.0
 10
90.35021292229092
 20
-131.1995713647696
 30
0.0
 10
90.36709389016865
 20
-130.9477348847978
 30
0.0
 10
90.47285832156582
 20
-130.7489528752989
 30
0.0
 10
90.5808620650284
 20
-130.5460367512177
 30
0.0
 10
90.7415757694153
 20
-130.522610101918
 30
0.0
 10
90.8705945953379
 20
-130.522610101918
 30
0.0
 10
91.02924124243367
 20
-130.522610101918
 30
0.0
 10
91.17307397894285
 20
-130.5670518336777
 30
0.0
 10
91.26833086911
 20
-130.7489528752989
 30
0.0
 10
91.36772187385947
 20
-130.9415337129244
 30
0.0
 10
91.39080401361063
 20
-131.1699435435964
 30
0.0
 10
91.39080401361063
 20
-131.343576356053
 30
0.0
 10
91.39080401361063
 20
-131.5147976016699
 30
0.0
 10
91.37013344069914
 20
-131.7452744896331
 30
0.0
 10
91.26833086911
 20
-131.9378553272586
 30
0.0
  0
SPLINE
  5
13A
330
133
100
AcDbEntity
  8
_U+30EC_U+30A4_U+30E4_U+30FC 1
370
     0
100
AcDbSpline
210
0.0
220
0.0
230
1.0
 70
    11
 71
     3
 72
    17
 73
    13
 74
     0
 42
0.0000000001
 43
0.0000000001
 12
1.0
 22
0.0
 32
0.0
 13
1.0
 23
0.0
 33
0.0
 40
0.0
 40
0.0
 40
0.0
 40
0.0
 40
1.0
 40
1.0
 40
1.0
 40
2.0
 40
2.0
 40
2.0
 40
3.0
 40
3.0
 40
3.0
 40
4.0
 40
4.0
 40
4.0
 40
4.0
 10
90.8705945953379
 20
-130.7151909395434
 30
0.0
 10
90.62099742743156
 20
-130.7151909395434
 30
0.0
 10
90.57448863838069
 20
-130.9987222979795
 30
0.0
 10
90.57448863838069
 20
-131.343576356053
 30
0.0
 10
90.57448863838069
 20
-131.6629367075357
 30
0.0
 10
90.61048988620155
 20
-131.9716172630141
 30
0.0
 10
90.8705945953379
 20
-131.9716172630141
 30
0.0
 10
91.11812470595311
 20
-131.9716172630141
 30
0.0
 10
91.1668728070694
 20
-131.6904974714177
 30
0.0
 10
91.1668728070694
 20
-131.343576356053
 30
0.0
 10
91.1668728070694
 20
-131.0238714950218
 30
0.0
 10
91.12880450195739
 20
-130.7151909395434
 30
0.0
 10
90.8705945953379
 20
-130.7151909395434
 30
0.0
  0
HATCH
  5
13B
330
133
100
AcDbEntity
  8
_U+30EC_U+30A4_U+30E4_U+30FC 1
 62
   179
420
  2234388
100
AcDbHatch
 10
0.0
 20
0.0
 30
0.0
210
0.0
220
0.0
230
1.0
  2
SOLID
 70
     1
 71
     0
 91
        2
 92
        1
 93
        1
 72
     4
 94
        3
 73
     0
 74
     1
 95
       29
 96
       25
 40
0.0
 40
0.0
 40
0.0
 40
0.0
 40
1.0
 40
1.0
 40
1.0
 40
2.0
 40
2.0
 40
2.0
 40
3.0
 40
3.0
 40
3.0
 40
4.0
 40
4.0
 40
4.0
 40
5.0
 40
5.0
 40
5.0
 40
6.0
 40
6.0
 40
6.0
 40
7.0
 40
7.0
 40
7.0
 40
8.0
 40
8.0
 40
8.0
 40
8.0
 10
91.26833086911
 20
-131.9378553272586
 10
91.16049938042168
 20
-132.1473171327618
 10
90.98703882273935
 20
-132.1662651579307
 10
90.8705945953379
 20
-132.1662651579307
 10
90.70988089095101
 20
-132.1662651579307
 10
90.56811521173297
 20
-132.1197563688798
 10
90.47285832156582
 20
-131.9378553272586
 10
90.36933320223406
 20
-131.743207432342
 10
90.35021292229092
 20
-131.5061848629568
 10
90.35021292229092
 20
-131.343576356053
 10
90.35021292229092
 20
-131.1995713647696
 10
90.36709389016865
 20
-130.9477348847978
 10
90.47285832156582
 20
-130.7489528752989
 10
90.5808620650284
 20
-130.5460367512177
 10
90.7415757694153
 20
-130.522610101918
 10
90.8705945953379
 20
-130.522610101918
 10
91.02924124243367
 20
-130.522610101918
 10
91.17307397894285
 20
-130.5670518336777
 10
91.26833086911
 20
-130.7489528752989
 10
91.36772187385947
 20
-130.9415337129244
 10
91.39080401361063
 20
-131.1699435435964
 10
91.39080401361063
 20
-131.343576356053
 10
91.39080401361063
 20
-131.5147976016699
 10
91.37013344069914
 20
-131.7452744896331
 10
91.26833086911
 20
-131.9378553272586
 97
        0
 97
        0
 92
        1
 93
        1
 72
     4
 94
        3
 73
     0
 74
     1
 95
       17
 96
       13
 40
0.0
 40
0.0
 40
0.0
 40
0.0
 40
1.0
 40
1.0
 40
1.0
 40
2.0
 40
2.0
 40
2.0
 40
3.0
 40
3.0
 40
3.0
 40
4.0
 40
4.0
 40
4.0
 40
4.0
 10
90.8705945953379
 20
-130.7151909395434
 10
90.62099742743156
 20
-130.7151909395434
 10
90.57448863838069
 20
-130.9987222979795
 10
90.57448863838069
 20
-131.343576356053
 10
90.57448863838069
 20
-131.6629367075357
 10
90.61048988620155
 20
-131.9716172630141
 10
90.8705945953379
 20
-131.9716172630141
 10
91.11812470595311
 20
-131.9716172630141
 10
91.1668728070694
 20
-131.6904974714177
 10
91.1668728070694
 20
-131.343576356053
 10
91.1668728070694
 20
-131.0238714950218
 10
91.12880450195739
 20
-130.7151909395434
 10
90.8705945953379
 20
-130.7151909395434
 97
        0
 97
        0
 75
     2
 76
     1
 98
        0
  0
ENDBLK
  5
136
330
133
100
AcDbEntity
  8
0
100
AcDbBlockEnd
  0
BLOCK
  5
13E
330
13C
100
AcDbEntity
  8
0
100
AcDbBlockBegin
  2
block 9
 70
     0
 10
0.0
 20
0.0
 30
0.0
  3
block 9
  1

  0
SPLINE
  5
140
330
13C
100
AcDbEntity
  8
_U+30EC_U+30A4_U+30E4_U+30FC 1
370
     0
100
AcDbSpline
210
0.0
220
0.0
230
1.0
 70
    11
 71
     3
 72
    26
 73
    22
 74
     0
 42
0.0000000001
 43
0.0000000001
 12
1.0
 22
0.0
 32
0.0
 13
1.0
 23
0.0
 33
0.0
 40
0.0
 40
0.0
 40
0.0
 40
0.0
 40
1.0
 40
1.0
 40
1.0
 40
2.0
 40
2.0
 40
2.0
 40
3.0
 40
3.0
 40
3.0
 40
4.0
 40
4.0
 40
4.0
 40
5.0
 40
5.0
 40
5.0
 40
6.0
 40
6.0
 40
6.0
 40
7.0
 40
7.0
 40
7.0
 40
7.0
 10
95.2307074414701
 20
-132.1156222542975
 30
0.0
 10
95.2307074414701
 20
-132.1156222542975
 30
0.0
 10
95.2307074414701
 20
-131.0114691512749
 30
0.0
 10
95.2307074414701
 20
-131.0114691512749
 30
0.0
 10
95.2307074414701
 20
-131.0114691512749
 30
0.0
 10
94.90066729398318
 20
-131.0114691512749
 30
0.0
 10
94.90066729398318
 20
-131.0114691512749
 30
0.0
 10
94.90066729398318
 20
-131.0114691512749
 30
0.0
 10
94.90066729398318
 20
-130.8633300454092
 30
0.0
 10
94.90066729398318
 20
-130.8633300454092
 30
0.0
 10
95.23277449876126
 20
-130.8485161348226
 30
0.0
 10
95.27962779736065
 20
-130.6855631183703
 30
0.0
 10
95.3092556185338
 20
-130.57118594826
 30
0.0
 10
95.3092556185338
 20
-130.57118594826
 30
0.0
 10
95.45532766710839
 20
-130.57118594826
 30
0.0
 10
95.45532766710839
 20
-130.57118594826
 30
0.0
 10
95.45532766710839
 20
-130.57118594826
 30
0.0
 10
95.45532766710839
 20
-132.1156222542975
 30
0.0
 10
95.45532766710839
 20
-132.1156222542975
 30
0.0
 10
95.45532766710839
 20
-132.1156222542975
 30
0.0
 10
95.2307074414701
 20
-132.1156222542975
 30
0.0
 10
95.2307074414701
 20
-132.1156222542975
 30
0.0
  0
HATCH
  5
141
330
13C
100
AcDbEntity
  8
_U+30EC_U+30A4_U+30E4_U+30FC 1
 62
   179
420
  2234388
100
AcDbHatch
 10
0.0
 20
0.0
 30
0.0
210
0.0
220
0.0
230
1.0
  2
SOLID
 70
     1
 71
     0
 91
        1
 92
        1
 93
        1
 72
     4
 94
        3
 73
     0
 74
     1
 95
       26
 96
       22
 40
0.0
 40
0.0
 40
0.0
 40
0.0
 40
1.0
 40
1.0
 40
1.0
 40
2.0
 40
2.0
 40
2.0
 40
3.0
 40
3.0
 40
3.0
 40
4.0
 40
4.0
 40
4.0
 40
5.0
 40
5.0
 40
5.0
 40
6.0
 40
6.0
 40
6.0
 40
7.0
 40
7.0
 40
7.0
 40
7.0
 10
95.2307074414701
 20
-132.1156222542975
 10
95.2307074414701
 20
-132.1156222542975
 10
95.2307074414701
 20
-131.0114691512749
 10
95.2307074414701
 20
-131.0114691512749
 10
95.2307074414701
 20
-131.0114691512749
 10
94.90066729398318
 20
-131.0114691512749
 10
94.90066729398318
 20
-131.0114691512749
 10
94.90066729398318
 20
-131.0114691512749
 10
94.90066729398318
 20
-130.8633300454092
 10
94.90066729398318
 20
-130.8633300454092
 10
95.23277449876126
 20
-130.8485161348226
 10
95.27962779736065
 20
-130.6855631183703
 10
95.3092556185338
 20
-130.57118594826
 10
95.3092556185338
 20
-130.57118594826
 10
95.45532766710839
 20
-130.57118594826
 10
95.45532766710839
 20
-130.57118594826
 10
95.45532766710839
 20
-130.57118594826
 10
95.45532766710839
 20
-132.1156222542975
 10
95.45532766710839
 20
-132.1156222542975
 10
95.45532766710839
 20
-132.1156222542975
 10
95.2307074414701
 20
-132.1156222542975
 10
95.2307074414701
 20
-132.1156222542975
 97
        0
 97
        0
 75
     2
 76
     1
 98
        0
  0
SPLINE
  5
142
330
13C
100
AcDbEntity
  8
_U+30EC_U+30A4_U+30E4_U+30FC 1
370
     0
100
AcDbSpline
210
0.0
220
0.0
230
1.0
 70
    11
 71
     3
 72
    29
 73
    25
 74
     0
 42
0.0000000001
 43
0.0000000001
 12
1.0
 22
0.0
 32
0.0
 13
1.0
 23
0.0
 33
0.0
 40
0.0
 40
0.0
 40
0.0
 40
0.0
 40
1.0
 40
1.0
 40
1.0
 40
2.0
 40
2.0
 40
2.0
 40
3.0
 40
3.0
 40
3.0
 40
4.0
 40
4.0
 40
4.0
 40
5.0
 40
5.0
 40
5.0
 40
6.0
 40
6.0
 40
6.0
 40
7.0
 40
7.0
 40
7.0
 40
8.0
 40
8.0
 40
8.0
 40
8.0
 10
96.85403643411983
 20
-131.9378553272586
 30
0.0
 10
96.74620494543151
 20
-132.1473171327618
 30
0.0
 10
96.57291664252344
 20
-132.1662651579307
 30
0.0
 10
96.456472415122
 20
-132.1662651579307
 30
0.0
 10
96.29558645596083
 20
-132.1662651579307
 30
0.0
 10
96.15399303151706
 20
-132.1197563688798
 30
0.0
 10
96.05856388657564
 20
-131.9378553272586
 30
0.0
 10
95.95486651246962
 20
-131.743207432342
 30
0.0
 10
95.93591848730075
 20
-131.5061848629568
 30
0.0
 10
95.93591848730075
 20
-131.343576356053
 30
0.0
 10
95.93591848730075
 20
-131.1995713647696
 30
0.0
 10
95.95279945517846
 20
-130.9477348847978
 30
0.0
 10
96.05856388657564
 20
-130.7489528752989
 30
0.0
 10
96.16639537526396
 20
-130.5460367512177
 30
0.0
 10
96.32728133442512
 20
-130.522610101918
 30
0.0
 10
96.456472415122
 20
-130.522610101918
 30
0.0
 10
96.61494680744349
 20
-130.522610101918
 30
0.0
 10
96.75895179872693
 20
-130.5670518336777
 30
0.0
 10
96.85403643411983
 20
-130.7489528752989
 30
0.0
 10
96.95325518409503
 20
-130.9415337129244
 30
0.0
 10
96.97668183339472
 20
-131.1699435435964
 30
0.0
 10
96.97668183339472
 20
-131.343576356053
 30
0.0
 10
96.97668183339472
 20
-131.5147976016699
 30
0.0
 10
96.9556667509347
 20
-131.7452744896331
 30
0.0
 10
96.85403643411983
 20
-131.9378553272586
 30
0.0
  0
SPLINE
  5
143
330
13C
100
AcDbEntity
  8
_U+30EC_U+30A4_U+30E4_U+30FC 1
370
     0
100
AcDbSpline
210
0.0
220
0.0
230
1.0
 70
    11
 71
     3
 72
    17
 73
    13
 74
     0
 42
0.0000000001
 43
0.0000000001
 12
1.0
 22
0.0
 32
0.0
 13
1.0
 23
0.0
 33
0.0
 40
0.0
 40
0.0
 40
0.0
 40
0.0
 40
1.0
 40
1.0
 40
1.0
 40
2.0
 40
2.0
 40
2.0
 40
3.0
 40
3.0
 40
3.0
 40
4.0
 40
4.0
 40
4.0
 40
4.0
 10
96.456472415122
 20
-130.7151909395434
 30
0.0
 10
96.20670299244138
 20
-130.7151909395434
 30
0.0
 10
96.16019420339052
 20
-130.9987222979795
 30
0.0
 10
96.16019420339052
 20
-131.343576356053
 30
0.0
 10
96.16019420339052
 20
-131.6629367075357
 30
0.0
 10
96.19602319643711
 20
-131.9716172630141
 30
0.0
 10
96.456472415122
 20
-131.9716172630141
 30
0.0
 10
96.70383027096294
 20
-131.9716172630141
 30
0.0
 10
96.75275062685348
 20
-131.6904974714177
 30
0.0
 10
96.75275062685348
 20
-131.343576356053
 30
0.0
 10
96.75275062685348
 20
-131.0238714950218
 30
0.0
 10
96.71451006696721
 20
-130.7151909395434
 30
0.0
 10
96.456472415122
 20
-130.7151909395434
 30
0.0
  0
HATCH
  5
144
330
13C
100
AcDbEntity
  8
_U+30EC_U+30A4_U+30E4_U+30FC 1
 62
   179
420
  2234388
100
AcDbHatch
 10
0.0
 20
0.0
 30
0.0
210
0.0
220
0.0
230
1.0
  2
SOLID
 70
     1
 71
     0
 91
        2
 92
        1
 93
        1
 72
     4
 94
        3
 73
     0
 74
     1
 95
       29
 96
       25
 40
0.0
 40
0.0
 40
0.0
 40
0.0
 40
1.0
 40
1.0
 40
1.0
 40
2.0
 40
2.0
 40
2.0
 40
3.0
 40
3.0
 40
3.0
 40
4.0
 40
4.0
 40
4.0
 40
5.0
 40
5.0
 40
5.0
 40
6.0
 40
6.0
 40
6.0
 40
7.0
 40
7.0
 40
7.0
 40
8.0
 40
8.0
 40
8.0
 40
8.0
 10
96.85403643411983
 20
-131.9378553272586
 10
96.74620494543151
 20
-132.1473171327618
 10
96.57291664252344
 20
-132.1662651579307
 10
96.456472415122
 20
-132.1662651579307
 10
96.29558645596083
 20
-132.1662651579307
 10
96.15399303151706
 20
-132.1197563688798
 10
96.05856388657564
 20
-131.9378553272586
 10
95.95486651246962
 20
-131.743207432342
 10
95.93591848730075
 20
-131.5061848629568
 10
95.93591848730075
 20
-131.343576356053
 10
95.93591848730075
 20
-131.1995713647696
 10
95.95279945517846
 20
-130.9477348847978
 10
96.05856388657564
 20
-130.7489528752989
 10
96.16639537526396
 20
-130.5460367512177
 10
96.32728133442512
 20
-130.522610101918
 10
96.456472415122
 20
-130.522610101918
 10
96.61494680744349
 20
-130.522610101918
 10
96.75895179872693
 20
-130.5670518336777
 10
96.85403643411983
 20
-130.7489528752989
 10
96.95325518409503
 20
-130.9415337129244
 10
96.97668183339472
 20
-131.1699435435964
 10
96.97668183339472
 20
-131.343576356053
 10
96.97668183339472
 20
-131.5147976016699
 10
96.9556667509347
 20
-131.7452744896331
 10
96.85403643411983
 20
-131.9378553272586
 97
        0
 97
        0
 92
        1
 93
        1
 72
     4
 94
        3
 73
     0
 74
     1
 95
       17
 96
       13
 40
0.0
 40
0.0
 40
0.0
 40
0.0
 40
1.0
 40
1.0
 40
1.0
 40
2.0
 40
2.0
 40
2.0
 40
3.0
 40
3.0
 40
3.0
 40
4.0
 40
4.0
 40
4.0
 40
4.0
 10
96.456472415122
 20
-130.7151909395434
 10
96.20670299244138
 20
-130.7151909395434
 10
96.16019420339052
 20
-130.9987222979795
 10
96.16019420339052
 20
-131.343576356053
 10
96.16019420339052
 20
-131.6629367075357
 10
96.19602319643711
 20
-131.9716172630141
 10
96.456472415122
 20
-131.9716172630141
 10
96.70383027096294
 20
-131.9716172630141
 10
96.75275062685348
 20
-131.6904974714177
 10
96.75275062685348
 20
-131.343576356053
 10
96.75275062685348
 20
-131.0238714950218
 10
96.71451006696721
 20
-130.7151909395434
 10
96.456472415122
 20
-130.7151909395434
 97
        0
 97
        0
 75
     2
 76
     1
 98
        0
  0
ENDBLK
  5
13F
330
13C
100
AcDbEntity
  8
0
100
AcDbBlockEnd
  0
BLOCK
  5
147
330
145
100
AcDbEntity
  8
0
100
AcDbBlockBegin
  2
block 10
 70
     0
 10
0.0
 20
0.0
 30
0.0
  3
block 10
  1

  0
SPLINE
  5
149
330
145
100
AcDbEntity
  8
_U+30EC_U+30A4_U+30E4_U+30FC 1
370
     0
100
AcDbSpline
210
0.0
220
0.0
230
1.0
 70
    11
 71
     3
 72
    26
 73
    22
 74
     0
 42
0.0000000001
 43
0.0000000001
 12
1.0
 22
0.0
 32
0.0
 13
1.0
 23
0.0
 33
0.0
 40
0.0
 40
0.0
 40
0.0
 40
0.0
 40
1.0
 40
1.0
 40
1.0
 40
2.0
 40
2.0
 40
2.0
 40
3.0
 40
3.0
 40
3.0
 40
4.0
 40
4.0
 40
4.0
 40
5.0
 40
5.0
 40
5.0
 40
6.0
 40
6.0
 40
6.0
 40
7.0
 40
7.0
 40
7.0
 40
7.0
 10
100.5223741068139
 20
-132.1156222542975
 30
0.0
 10
100.5223741068139
 20
-132.1156222542975
 30
0.0
 10
100.5223741068139
 20
-131.0114691512749
 30
0.0
 10
100.5223741068139
 20
-131.0114691512749
 30
0.0
 10
100.5223741068139
 20
-131.0114691512749
 30
0.0
 10
100.1923339593269
 20
-131.0114691512749
 30
0.0
 10
100.1923339593269
 20
-131.0114691512749
 30
0.0
 10
100.1923339593269
 20
-131.0114691512749
 30
0.0
 10
100.1923339593269
 20
-130.8633300454092
 30
0.0
 10
100.1923339593269
 20
-130.8633300454092
 30
0.0
 10
100.524441164105
 20
-130.8485161348226
 30
0.0
 10
100.5712944627044
 20
-130.6855631183703
 30
0.0
 10
100.6009222838776
 20
-130.57118594826
 30
0.0
 10
100.6009222838776
 20
-130.57118594826
 30
0.0
 10
100.7469943324521
 20
-130.57118594826
 30
0.0
 10
100.7469943324521
 20
-130.57118594826
 30
0.0
 10
100.7469943324521
 20
-130.57118594826
 30
0.0
 10
100.7469943324521
 20
-132.1156222542975
 30
0.0
 10
100.7469943324521
 20
-132.1156222542975
 30
0.0
 10
100.7469943324521
 20
-132.1156222542975
 30
0.0
 10
100.5223741068139
 20
-132.1156222542975
 30
0.0
 10
100.5223741068139
 20
-132.1156222542975
 30
0.0
  0
HATCH
  5
14A
330
145
100
AcDbEntity
  8
_U+30EC_U+30A4_U+30E4_U+30FC 1
 62
   179
420
  2234388
100
AcDbHatch
 10
0.0
 20
0.0
 30
0.0
210
0.0
220
0.0
230
1.0
  2
SOLID
 70
     1
 71
     0
 91
        1
 92
        1
 93
        1
 72
     4
 94
        3
 73
     0
 74
     1
 95
       26
 96
       22
 40
0.0
 40
0.0
 40
0.0
 40
0.0
 40
1.0
 40
1.0
 40
1.0
 40
2.0
 40
2.0
 40
2.0
 40
3.0
 40
3.0
 40
3.0
 40
4.0
 40
4.0
 40
4.0
 40
5.0
 40
5.0
 40
5.0
 40
6.0
 40
6.0
 40
6.0
 40
7.0
 40
7.0
 40
7.0
 40
7.0
 10
100.5223741068139
 20
-132.1156222542975
 10
100.5223741068139
 20
-132.1156222542975
 10
100.5223741068139
 20
-131.0114691512749
 10
100.5223741068139
 20
-131.0114691512749
 10
100.5223741068139
 20
-131.0114691512749
 10
100.1923339593269
 20
-131.0114691512749
 10
100.1923339593269
 20
-131.0114691512749
 10
100.1923339593269
 20
-131.0114691512749
 10
100.1923339593269
 20
-130.8633300454092
 10
100.1923339593269
 20
-130.8633300454092
 10
100.524441164105
 20
-130.8485161348226
 10
100.5712944627044
 20
-130.6855631183703
 10
100.6009222838776
 20
-130.57118594826
 10
100.6009222838776
 20
-130.57118594826
 10
100.7469943324521
 20
-130.57118594826
 10
100.7469943324521
 20
-130.57118594826
 10
100.7469943324521
 20
-130.57118594826
 10
100.7469943324521
 20
-132.1156222542975
 10
100.7469943324521
 20
-132.1156222542975
 10
100.7469943324521
 20
-132.1156222542975
 10
100.5223741068139
 20
-132.1156222542975
 10
100.5223741068139
 20
-132.1156222542975
 97
        0
 97
        0
 75
     2
 76
     1
 98
        0
  0
SPLINE
  5
14B
330
145
100
AcDbEntity
  8
_U+30EC_U+30A4_U+30E4_U+30FC 1
370
     0
100
AcDbSpline
210
0.0
220
0.0
230
1.0
 70
    11
 71
     3
 72
    29
 73
    25
 74
     0
 42
0.0000000001
 43
0.0000000001
 12
1.0
 22
0.0
 32
0.0
 13
1.0
 23
0.0
 33
0.0
 40
0.0
 40
0.0
 40
0.0
 40
0.0
 40
1.0
 40
1.0
 40
1.0
 40
2.0
 40
2.0
 40
2.0
 40
3.0
 40
3.0
 40
3.0
 40
4.0
 40
4.0
 40
4.0
 40
5.0
 40
5.0
 40
5.0
 40
6.0
 40
6.0
 40
6.0
 40
7.0
 40
7.0
 40
7.0
 40
8.0
 40
8.0
 40
8.0
 40
8.0
 10
102.1457030994636
 20
-131.9378553272586
 30
0.0
 10
102.0378716107753
 20
-132.1473171327618
 30
0.0
 10
101.8645833078672
 20
-132.1662651579307
 30
0.0
 10
101.7481390804657
 20
-132.1662651579307
 30
0.0
 10
101.5872531213046
 20
-132.1662651579307
 30
0.0
 10
101.4456596968608
 20
-132.1197563688798
 30
0.0
 10
101.3502305519194
 20
-131.9378553272586
 30
0.0
 10
101.2465331778134
 20
-131.743207432342
 30
0.0
 10
101.2275851526445
 20
-131.5061848629568
 30
0.0
 10
101.2275851526445
 20
-131.343576356053
 30
0.0
 10
101.2275851526445
 20
-131.1995713647696
 30
0.0
 10
101.2444661205222
 20
-130.9477348847978
 30
0.0
 10
101.3502305519194
 20
-130.7489528752989
 30
0.0
 10
101.4580620406077
 20
-130.5460367512177
 30
0.0
 10
101.6189479997689
 20
-130.522610101918
 30
0.0
 10
101.7481390804657
 20
-130.522610101918
 30
0.0
 10
101.9066134727872
 20
-130.522610101918
 30
0.0
 10
102.0506184640707
 20
-130.5670518336777
 30
0.0
 10
102.1457030994636
 20
-130.7489528752989
 30
0.0
 10
102.2449218494388
 20
-130.9415337129244
 30
0.0
 10
102.2683484987385
 20
-131.1699435435964
 30
0.0
 10
102.2683484987385
 20
-131.343576356053
 30
0.0
 10
102.2683484987385
 20
-131.5147976016699
 30
0.0
 10
102.2473334162785
 20
-131.7452744896331
 30
0.0
 10
102.1457030994636
 20
-131.9378553272586
 30
0.0
  0
SPLINE
  5
14C
330
145
100
AcDbEntity
  8
_U+30EC_U+30A4_U+30E4_U+30FC 1
370
     0
100
AcDbSpline
210
0.0
220
0.0
230
1.0
 70
    11
 71
     3
 72
    17
 73
    13
 74
     0
 42
0.0000000001
 43
0.0000000001
 12
1.0
 22
0.0
 32
0.0
 13
1.0
 23
0.0
 33
0.0
 40
0.0
 40
0.0
 40
0.0
 40
0.0
 40
1.0
 40
1.0
 40
1.0
 40
2.0
 40
2.0
 40
2.0
 40
3.0
 40
3.0
 40
3.0
 40
4.0
 40
4.0
 40
4.0
 40
4.0
 10
101.7481390804657
 20
-130.7151909395434
 30
0.0
 10
101.4983696577851
 20
-130.7151909395434
 30
0.0
 10
101.4518608687343
 20
-130.9987222979795
 30
0.0
 10
101.4518608687343
 20
-131.343576356053
 30
0.0
 10
101.4518608687343
 20
-131.6629367075357
 30
0.0
 10
101.4876898617809
 20
-131.9716172630141
 30
0.0
 10
101.7481390804657
 20
-131.9716172630141
 30
0.0
 10
101.9954969363067
 20
-131.9716172630141
 30
0.0
 10
102.0444172921972
 20
-131.6904974714177
 30
0.0
 10
102.0444172921972
 20
-131.343576356053
 30
0.0
 10
102.0444172921972
 20
-131.0238714950218
 30
0.0
 10
102.006176732311
 20
-130.7151909395434
 30
0.0
 10
101.7481390804657
 20
-130.7151909395434
 30
0.0
  0
HATCH
  5
14D
330
145
100
AcDbEntity
  8
_U+30EC_U+30A4_U+30E4_U+30FC 1
 62
   179
420
  2234388
100
AcDbHatch
 10
0.0
 20
0.0
 30
0.0
210
0.0
220
0.0
230
1.0
  2
SOLID
 70
     1
 71
     0
 91
        2
 92
        1
 93
        1
 72
     4
 94
        3
 73
     0
 74
     1
 95
       29
 96
       25
 40
0.0
 40
0.0
 40
0.0
 40
0.0
 40
1.0
 40
1.0
 40
1.0
 40
2.0
 40
2.0
 40
2.0
 40
3.0
 40
3.0
 40
3.0
 40
4.0
 40
4.0
 40
4.0
 40
5.0
 40
5.0
 40
5.0
 40
6.0
 40
6.0
 40
6.0
 40
7.0
 40
7.0
 40
7.0
 40
8.0
 40
8.0
 40
8.0
 40
8.0
 10
102.1457030994636
 20
-131.9378553272586
 10
102.0378716107753
 20
-132.1473171327618
 10
101.8645833078672
 20
-132.1662651579307
 10
101.7481390804657
 20
-132.1662651579307
 10
101.5872531213046
 20
-132.1662651579307
 10
101.4456596968608
 20
-132.1197563688798
 10
101.3502305519194
 20
-131.9378553272586
 10
101.2465331778134
 20
-131.743207432342
 10
101.2275851526445
 20
-131.5061848629568
 10
101.2275851526445
 20
-131.343576356053
 10
101.2275851526445
 20
-131.1995713647696
 10
101.2444661205222
 20
-130.9477348847978
 10
101.3502305519194
 20
-130.7489528752989
 10
101.4580620406077
 20
-130.5460367512177
 10
101.6189479997689
 20
-130.522610101918
 10
101.7481390804657
 20
-130.522610101918
 10
101.9066134727872
 20
-130.522610101918
 10
102.0506184640707
 20
-130.5670518336777
 10
102.1457030994636
 20
-130.7489528752989
 10
102.2449218494388
 20
-130.9415337129244
 10
102.2683484987385
 20
-131.1699435435964
 10
102.2683484987385
 20
-131.343576356053
 10
102.2683484987385
 20
-131.5147976016699
 10
102.2473334162785
 20
-131.7452744896331
 10
102.1457030994636
 20
-131.9378553272586
 97
        0
 97
        0
 92
        1
 93
        1
 72
     4
 94
        3
 73
     0
 74
     1
 95
       17
 96
       13
 40
0.0
 40
0.0
 40
0.0
 40
0.0
 40
1.0
 40
1.0
 40
1.0
 40
2.0
 40
2.0
 40
2.0
 40
3.0
 40
3.0
 40
3.0
 40
4.0
 40
4.0
 40
4.0
 40
4.0
 10
101.7481390804657
 20
-130.7151909395434
 10
101.4983696577851
 20
-130.7151909395434
 10
101.4518608687343
 20
-130.9987222979795
 10
101.4518608687343
 20
-131.343576356053
 10
101.4518608687343
 20
-131.6629367075357
 10
101.4876898617809
 20
-131.9716172630141
 10
101.7481390804657
 20
-131.9716172630141
 10
101.9954969363067
 20
-131.9716172630141
 10
102.0444172921972
 20
-131.6904974714177
 10
102.0444172921972
 20
-131.343576356053
 10
102.0444172921972
 20
-131.0238714950218
 10
102.006176732311
 20
-130.7151909395434
 10
101.7481390804657
 20
-130.7151909395434
 97
        0
 97
        0
 75
     2
 76
     1
 98
        0
  0
ENDBLK
  5
148
330
145
100
AcDbEntity
  8
0
100
AcDbBlockEnd
  0
BLOCK
  5
150
330
14E
100
AcDbEntity
  8
0
100
AcDbBlockBegin
  2
block 11
 70
     0
 10
0.0
 20
0.0
 30
0.0
  3
block 11
  1

  0
SPLINE
  5
152
330
14E
100
AcDbEntity
  8
_U+30EC_U+30A4_U+30E4_U+30FC 1
370
     0
100
AcDbSpline
210
0.0
220
0.0
230
1.0
 70
    11
 71
     3
 72
    26
 73
    22
 74
     0
 42
0.0000000001
 43
0.0000000001
 12
1.0
 22
0.0
 32
0.0
 13
1.0
 23
0.0
 33
0.0
 40
0.0
 40
0.0
 40
0.0
 40
0.0
 40
1.0
 40
1.0
 40
1.0
 40
2.0
 40
2.0
 40
2.0
 40
3.0
 40
3.0
 40
3.0
 40
4.0
 40
4.0
 40
4.0
 40
5.0
 40
5.0
 40
5.0
 40
6.0
 40
6.0
 40
6.0
 40
7.0
 40
7.0
 40
7.0
 40
7.0
 10
106.0493407938002
 20
-132.1156222542975
 30
0.0
 10
106.0493407938002
 20
-132.1156222542975
 30
0.0
 10
106.0493407938002
 20
-131.0114691512749
 30
0.0
 10
106.0493407938002
 20
-131.0114691512749
 30
0.0
 10
106.0493407938002
 20
-131.0114691512749
 30
0.0
 10
105.7193006463132
 20
-131.0114691512749
 30
0.0
 10
105.7193006463132
 20
-131.0114691512749
 30
0.0
 10
105.7193006463132
 20
-131.0114691512749
 30
0.0
 10
105.7193006463132
 20
-130.8633300454092
 30
0.0
 10
105.7193006463132
 20
-130.8633300454092
 30
0.0
 10
106.0514078510913
 20
-130.8485161348226
 30
0.0
 10
106.0979166401422
 20
-130.6855631183703
 30
0.0
 10
106.1275444613153
 20
-130.57118594826
 30
0.0
 10
106.1275444613153
 20
-130.57118594826
 30
0.0
 10
106.2736165098899
 20
-130.57118594826
 30
0.0
 10
106.2736165098899
 20
-130.57118594826
 30
0.0
 10
106.2736165098899
 20
-130.57118594826
 30
0.0
 10
106.2736165098899
 20
-132.1156222542975
 30
0.0
 10
106.2736165098899
 20
-132.1156222542975
 30
0.0
 10
106.2736165098899
 20
-132.1156222542975
 30
0.0
 10
106.0493407938002
 20
-132.1156222542975
 30
0.0
 10
106.0493407938002
 20
-132.1156222542975
 30
0.0
  0
HATCH
  5
153
330
14E
100
AcDbEntity
  8
_U+30EC_U+30A4_U+30E4_U+30FC 1
 62
   179
420
  2234388
100
AcDbHatch
 10
0.0
 20
0.0
 30
0.0
210
0.0
220
0.0
230
1.0
  2
SOLID
 70
     1
 71
     0
 91
        1
 92
        1
 93
        1
 72
     4
 94
        3
 73
     0
 74
     1
 95
       26
 96
       22
 40
0.0
 40
0.0
 40
0.0
 40
0.0
 40
1.0
 40
1.0
 40
1.0
 40
2.0
 40
2.0
 40
2.0
 40
3.0
 40
3.0
 40
3.0
 40
4.0
 40
4.0
 40
4.0
 40
5.0
 40
5.0
 40
5.0
 40
6.0
 40
6.0
 40
6.0
 40
7.0
 40
7.0
 40
7.0
 40
7.0
 10
106.0493407938002
 20
-132.1156222542975
 10
106.0493407938002
 20
-132.1156222542975
 10
106.0493407938002
 20
-131.0114691512749
 10
106.0493407938002
 20
-131.0114691512749
 10
106.0493407938002
 20
-131.0114691512749
 10
105.7193006463132
 20
-131.0114691512749
 10
105.7193006463132
 20
-131.0114691512749
 10
105.7193006463132
 20
-131.0114691512749
 10
105.7193006463132
 20
-130.8633300454092
 10
105.7193006463132
 20
-130.8633300454092
 10
106.0514078510913
 20
-130.8485161348226
 10
106.0979166401422
 20
-130.6855631183703
 10
106.1275444613153
 20
-130.57118594826
 10
106.1275444613153
 20
-130.57118594826
 10
106.2736165098899
 20
-130.57118594826
 10
106.2736165098899
 20
-130.57118594826
 10
106.2736165098899
 20
-130.57118594826
 10
106.2736165098899
 20
-132.1156222542975
 10
106.2736165098899
 20
-132.1156222542975
 10
106.2736165098899
 20
-132.1156222542975
 10
106.0493407938002
 20
-132.1156222542975
 10
106.0493407938002
 20
-132.1156222542975
 97
        0
 97
        0
 75
     2
 76
     1
 98
        0
  0
SPLINE
  5
154
330
14E
100
AcDbEntity
  8
_U+30EC_U+30A4_U+30E4_U+30FC 1
370
     0
100
AcDbSpline
210
0.0
220
0.0
230
1.0
 70
    11
 71
     3
 72
    29
 73
    25
 74
     0
 42
0.0000000001
 43
0.0000000001
 12
1.0
 22
0.0
 32
0.0
 13
1.0
 23
0.0
 33
0.0
 40
0.0
 40
0.0
 40
0.0
 40
0.0
 40
1.0
 40
1.0
 40
1.0
 40
2.0
 40
2.0
 40
2.0
 40
3.0
 40
3.0
 40
3.0
 40
4.0
 40
4.0
 40
4.0
 40
5.0
 40
5.0
 40
5.0
 40
6.0
 40
6.0
 40
6.0
 40
7.0
 40
7.0
 40
7.0
 40
8.0
 40
8.0
 40
8.0
 40
8.0
 10
107.6723252769014
 20
-131.9378553272586
 30
0.0
 10
107.5648382977616
 20
-132.1473171327618
 30
0.0
 10
107.391205485305
 20
-132.1662651579307
 30
0.0
 10
107.2747612579035
 20
-132.1662651579307
 30
0.0
 10
107.1142198082909
 20
-132.1662651579307
 30
0.0
 10
106.9722818742986
 20
-132.1197563688798
 30
0.0
 10
106.8771972389057
 20
-131.9378553272586
 30
0.0
 10
106.7734998647997
 20
-131.743207432342
 30
0.0
 10
106.7545518396308
 20
-131.5061848629568
 30
0.0
 10
106.7545518396308
 20
-131.343576356053
 30
0.0
 10
106.7545518396308
 20
-131.1995713647696
 30
0.0
 10
106.77108829796
 20
-130.9477348847978
 30
0.0
 10
106.8771972389057
 20
-130.7489528752989
 30
0.0
 10
106.985028727594
 20
-130.5460367512177
 30
0.0
 10
107.1459146867552
 20
-130.522610101918
 30
0.0
 10
107.2747612579035
 20
-130.522610101918
 30
0.0
 10
107.433235650225
 20
-130.522610101918
 30
0.0
 10
107.5772406415085
 20
-130.5670518336777
 30
0.0
 10
107.6723252769014
 20
-130.7489528752989
 30
0.0
 10
107.7718885364251
 20
-130.9415337129244
 30
0.0
 10
107.7949706761763
 20
-131.1699435435964
 30
0.0
 10
107.7949706761763
 20
-131.343576356053
 30
0.0
 10
107.7949706761763
 20
-131.5147976016699
 30
0.0
 10
107.7743001032648
 20
-131.7452744896331
 30
0.0
 10
107.6723252769014
 20
-131.9378553272586
 30
0.0
  0
SPLINE
  5
155
330
14E
100
AcDbEntity
  8
_U+30EC_U+30A4_U+30E4_U+30FC 1
370
     0
100
AcDbSpline
210
0.0
220
0.0
230
1.0
 70
    11
 71
     3
 72
    17
 73
    13
 74
     0
 42
0.0000000001
 43
0.0000000001
 12
1.0
 22
0.0
 32
0.0
 13
1.0
 23
0.0
 33
0.0
 40
0.0
 40
0.0
 40
0.0
 40
0.0
 40
1.0
 40
1.0
 40
1.0
 40
2.0
 40
2.0
 40
2.0
 40
3.0
 40
3.0
 40
3.0
 40
4.0
 40
4.0
 40
4.0
 40
4.0
 10
107.2747612579035
 20
-130.7151909395434
 30
0.0
 10
107.0253363447714
 20
-130.7151909395434
 30
0.0
 10
106.978483046172
 20
-130.9987222979795
 30
0.0
 10
106.978483046172
 20
-131.343576356053
 30
0.0
 10
106.978483046172
 20
-131.6629367075357
 30
0.0
 10
107.0146565487672
 20
-131.9716172630141
 30
0.0
 10
107.2747612579035
 20
-131.9716172630141
 30
0.0
 10
107.5221191137445
 20
-131.9716172630141
 30
0.0
 10
107.571039469635
 20
-131.6904974714177
 30
0.0
 10
107.571039469635
 20
-131.343576356053
 30
0.0
 10
107.571039469635
 20
-131.0238714950218
 30
0.0
 10
107.5331434192973
 20
-130.7151909395434
 30
0.0
 10
107.2747612579035
 20
-130.7151909395434
 30
0.0
  0
HATCH
  5
156
330
14E
100
AcDbEntity
  8
_U+30EC_U+30A4_U+30E4_U+30FC 1
 62
   179
420
  2234388
100
AcDbHatch
 10
0.0
 20
0.0
 30
0.0
210
0.0
220
0.0
230
1.0
  2
SOLID
 70
     1
 71
     0
 91
        2
 92
        1
 93
        1
 72
     4
 94
        3
 73
     0
 74
     1
 95
       29
 96
       25
 40
0.0
 40
0.0
 40
0.0
 40
0.0
 40
1.0
 40
1.0
 40
1.0
 40
2.0
 40
2.0
 40
2.0
 40
3.0
 40
3.0
 40
3.0
 40
4.0
 40
4.0
 40
4.0
 40
5.0
 40
5.0
 40
5.0
 40
6.0
 40
6.0
 40
6.0
 40
7.0
 40
7.0
 40
7.0
 40
8.0
 40
8.0
 40
8.0
 40
8.0
 10
107.6723252769014
 20
-131.9378553272586
 10
107.5648382977616
 20
-132.1473171327618
 10
107.391205485305
 20
-132.1662651579307
 10
107.2747612579035
 20
-132.1662651579307
 10
107.1142198082909
 20
-132.1662651579307
 10
106.9722818742986
 20
-132.1197563688798
 10
106.8771972389057
 20
-131.9378553272586
 10
106.7734998647997
 20
-131.743207432342
 10
106.7545518396308
 20
-131.5061848629568
 10
106.7545518396308
 20
-131.343576356053
 10
106.7545518396308
 20
-131.1995713647696
 10
106.77108829796
 20
-130.9477348847978
 10
106.8771972389057
 20
-130.7489528752989
 10
106.985028727594
 20
-130.5460367512177
 10
107.1459146867552
 20
-130.522610101918
 10
107.2747612579035
 20
-130.522610101918
 10
107.433235650225
 20
-130.522610101918
 10
107.5772406415085
 20
-130.5670518336777
 10
107.6723252769014
 20
-130.7489528752989
 10
107.7718885364251
 20
-130.9415337129244
 10
107.7949706761763
 20
-131.1699435435964
 10
107.7949706761763
 20
-131.343576356053
 10
107.7949706761763
 20
-131.5147976016699
 10
107.7743001032648
 20
-131.7452744896331
 10
107.6723252769014
 20
-131.9378553272586
 97
        0
 97
        0
 92
        1
 93
        1
 72
     4
 94
        3
 73
     0
 74
     1
 95
       17
 96
       13
 40
0.0
 40
0.0
 40
0.0
 40
0.0
 40
1.0
 40
1.0
 40
1.0
 40
2.0
 40
2.0
 40
2.0
 40
3.0
 40
3.0
 40
3.0
 40
4.0
 40
4.0
 40
4.0
 40
4.0
 10
107.2747612579035
 20
-130.7151909395434
 10
107.0253363447714
 20
-130.7151909395434
 10
106.978483046172
 20
-130.9987222979795
 10
106.978483046172
 20
-131.343576356053
 10
106.978483046172
 20
-131.6629367075357
 10
107.0146565487672
 20
-131.9716172630141
 10
107.2747612579035
 20
-131.9716172630141
 10
107.5221191137445
 20
-131.9716172630141
 10
107.571039469635
 20
-131.6904974714177
 10
107.571039469635
 20
-131.343576356053
 10
107.571039469635
 20
-131.0238714950218
 10
107.5331434192973
 20
-130.7151909395434
 10
107.2747612579035
 20
-130.7151909395434
 97
        0
 97
        0
 75
     2
 76
     1
 98
        0
  0
ENDBLK
  5
151
330
14E
100
AcDbEntity
  8
0
100
AcDbBlockEnd
  0
BLOCK
  5
159
330
157
100
AcDbEntity
  8
0
100
AcDbBlockBegin
  2
block 12
 70
     0
 10
0.0
 20
0.0
 30
0.0
  3
block 12
  1

  0
SPLINE
  5
15B
330
157
100
AcDbEntity
  8
_U+30EC_U+30A4_U+30E4_U+30FC 1
370
     0
100
AcDbSpline
210
0.0
220
0.0
230
1.0
 70
    11
 71
     3
 72
    26
 73
    22
 74
     0
 42
0.0000000001
 43
0.0000000001
 12
1.0
 22
0.0
 32
0.0
 13
1.0
 23
0.0
 33
0.0
 40
0.0
 40
0.0
 40
0.0
 40
0.0
 40
1.0
 40
1.0
 40
1.0
 40
2.0
 40
2.0
 40
2.0
 40
3.0
 40
3.0
 40
3.0
 40
4.0
 40
4.0
 40
4.0
 40
5.0
 40
5.0
 40
5.0
 40
6.0
 40
6.0
 40
6.0
 40
7.0
 40
7.0
 40
7.0
 40
7.0
 10
111.6348741040357
 20
-132.1156222542975
 30
0.0
 10
111.6348741040357
 20
-132.1156222542975
 30
0.0
 10
111.6348741040357
 20
-131.0114691512749
 30
0.0
 10
111.6348741040357
 20
-131.0114691512749
 30
0.0
 10
111.6348741040357
 20
-131.0114691512749
 30
0.0
 10
111.3048339565488
 20
-131.0114691512749
 30
0.0
 10
111.3048339565488
 20
-131.0114691512749
 30
0.0
 10
111.3048339565488
 20
-131.0114691512749
 30
0.0
 10
111.3048339565488
 20
-130.8633300454092
 30
0.0
 10
111.3048339565488
 20
-130.8633300454092
 30
0.0
 10
111.6369411613269
 20
-130.8485161348226
 30
0.0
 10
111.6837944599263
 20
-130.6855631183703
 30
0.0
 10
111.7134222810994
 20
-130.57118594826
 30
0.0
 10
111.7134222810994
 20
-130.57118594826
 30
0.0
 10
111.859494329674
 20
-130.57118594826
 30
0.0
 10
111.859494329674
 20
-130.57118594826
 30
0.0
 10
111.859494329674
 20
-130.57118594826
 30
0.0
 10
111.859494329674
 20
-132.1156222542975
 30
0.0
 10
111.859494329674
 20
-132.1156222542975
 30
0.0
 10
111.859494329674
 20
-132.1156222542975
 30
0.0
 10
111.6348741040357
 20
-132.1156222542975
 30
0.0
 10
111.6348741040357
 20
-132.1156222542975
 30
0.0
  0
HATCH
  5
15C
330
157
100
AcDbEntity
  8
_U+30EC_U+30A4_U+30E4_U+30FC 1
 62
   179
420
  2234388
100
AcDbHatch
 10
0.0
 20
0.0
 30
0.0
210
0.0
220
0.0
230
1.0
  2
SOLID
 70
     1
 71
     0
 91
        1
 92
        1
 93
        1
 72
     4
 94
        3
 73
     0
 74
     1
 95
       26
 96
       22
 40
0.0
 40
0.0
 40
0.0
 40
0.0
 40
1.0
 40
1.0
 40
1.0
 40
2.0
 40
2.0
 40
2.0
 40
3.0
 40
3.0
 40
3.0
 40
4.0
 40
4.0
 40
4.0
 40
5.0
 40
5.0
 40
5.0
 40
6.0
 40
6.0
 40
6.0
 40
7.0
 40
7.0
 40
7.0
 40
7.0
 10
111.6348741040357
 20
-132.1156222542975
 10
111.6348741040357
 20
-132.1156222542975
 10
111.6348741040357
 20
-131.0114691512749
 10
111.6348741040357
 20
-131.0114691512749
 10
111.6348741040357
 20
-131.0114691512749
 10
111.3048339565488
 20
-131.0114691512749
 10
111.3048339565488
 20
-131.0114691512749
 10
111.3048339565488
 20
-131.0114691512749
 10
111.3048339565488
 20
-130.8633300454092
 10
111.3048339565488
 20
-130.8633300454092
 10
111.6369411613269
 20
-130.8485161348226
 10
111.6837944599263
 20
-130.6855631183703
 10
111.7134222810994
 20
-130.57118594826
 10
111.7134222810994
 20
-130.57118594826
 10
111.859494329674
 20
-130.57118594826
 10
111.859494329674
 20
-130.57118594826
 10
111.859494329674
 20
-130.57118594826
 10
111.859494329674
 20
-132.1156222542975
 10
111.859494329674
 20
-132.1156222542975
 10
111.859494329674
 20
-132.1156222542975
 10
111.6348741040357
 20
-132.1156222542975
 10
111.6348741040357
 20
-132.1156222542975
 97
        0
 97
        0
 75
     2
 76
     1
 98
        0
  0
SPLINE
  5
15D
330
157
100
AcDbEntity
  8
_U+30EC_U+30A4_U+30E4_U+30FC 1
370
     0
100
AcDbSpline
210
0.0
220
0.0
230
1.0
 70
    11
 71
     3
 72
    29
 73
    25
 74
     0
 42
0.0000000001
 43
0.0000000001
 12
1.0
 22
0.0
 32
0.0
 13
1.0
 23
0.0
 33
0.0
 40
0.0
 40
0.0
 40
0.0
 40
0.0
 40
1.0
 40
1.0
 40
1.0
 40
2.0
 40
2.0
 40
2.0
 40
3.0
 40
3.0
 40
3.0
 40
4.0
 40
4.0
 40
4.0
 40
5.0
 40
5.0
 40
5.0
 40
6.0
 40
6.0
 40
6.0
 40
7.0
 40
7.0
 40
7.0
 40
8.0
 40
8.0
 40
8.0
 40
8.0
 10
113.2582030966854
 20
-131.9378553272586
 30
0.0
 10
113.1503716079971
 20
-132.1473171327618
 30
0.0
 10
112.9770833050891
 20
-132.1662651579307
 30
0.0
 10
112.8606390776876
 20
-132.1662651579307
 30
0.0
 10
112.6997531185265
 20
-132.1662651579307
 30
0.0
 10
112.5581596940827
 20
-132.1197563688798
 30
0.0
 10
112.4627305491413
 20
-131.9378553272586
 30
0.0
 10
112.3590331750353
 20
-131.743207432342
 30
0.0
 10
112.3400851498664
 20
-131.5061848629568
 30
0.0
 10
112.3400851498664
 20
-131.343576356053
 30
0.0
 10
112.3400851498664
 20
-131.1995713647696
 30
0.0
 10
112.3569661177441
 20
-130.9477348847978
 30
0.0
 10
112.4627305491413
 20
-130.7489528752989
 30
0.0
 10
112.5705620378296
 20
-130.5460367512177
 30
0.0
 10
112.7314479969908
 20
-130.522610101918
 30
0.0
 10
112.8606390776876
 20
-130.522610101918
 30
0.0
 10
113.0191134700091
 20
-130.522610101918
 30
0.0
 10
113.1631184612926
 20
-130.5670518336777
 30
0.0
 10
113.2582030966854
 20
-130.7489528752989
 30
0.0
 10
113.3574218466607
 20
-130.9415337129244
 30
0.0
 10
113.3808484959604
 20
-131.1699435435964
 30
0.0
 10
113.3808484959604
 20
-131.343576356053
 30
0.0
 10
113.3808484959604
 20
-131.5147976016699
 30
0.0
 10
113.3598334135003
 20
-131.7452744896331
 30
0.0
 10
113.2582030966854
 20
-131.9378553272586
 30
0.0
  0
SPLINE
  5
15E
330
157
100
AcDbEntity
  8
_U+30EC_U+30A4_U+30E4_U+30FC 1
370
     0
100
AcDbSpline
210
0.0
220
0.0
230
1.0
 70
    11
 71
     3
 72
    17
 73
    13
 74
     0
 42
0.0000000001
 43
0.0000000001
 12
1.0
 22
0.0
 32
0.0
 13
1.0
 23
0.0
 33
0.0
 40
0.0
 40
0.0
 40
0.0
 40
0.0
 40
1.0
 40
1.0
 40
1.0
 40
2.0
 40
2.0
 40
2.0
 40
3.0
 40
3.0
 40
3.0
 40
4.0
 40
4.0
 40
4.0
 40
4.0
 10
112.8606390776876
 20
-130.7151909395434
 30
0.0
 10
112.610869655007
 20
-130.7151909395434
 30
0.0
 10
112.5643608659561
 20
-130.9987222979795
 30
0.0
 10
112.5643608659561
 20
-131.343576356053
 30
0.0
 10
112.5643608659561
 20
-131.6629367075357
 30
0.0
 10
112.6001898590027
 20
-131.9716172630141
 30
0.0
 10
112.8606390776876
 20
-131.9716172630141
 30
0.0
 10
113.1079969335286
 20
-131.9716172630141
 30
0.0
 10
113.1569172894191
 20
-131.6904974714177
 30
0.0
 10
113.1569172894191
 20
-131.343576356053
 30
0.0
 10
113.1569172894191
 20
-131.0238714950218
 30
0.0
 10
113.1186767295328
 20
-130.7151909395434
 30
0.0
 10
112.8606390776876
 20
-130.7151909395434
 30
0.0
  0
HATCH
  5
15F
330
157
100
AcDbEntity
  8
_U+30EC_U+30A4_U+30E4_U+30FC 1
 62
   179
420
  2234388
100
AcDbHatch
 10
0.0
 20
0.0
 30
0.0
210
0.0
220
0.0
230
1.0
  2
SOLID
 70
     1
 71
     0
 91
        2
 92
        1
 93
        1
 72
     4
 94
        3
 73
     0
 74
     1
 95
       29
 96
       25
 40
0.0
 40
0.0
 40
0.0
 40
0.0
 40
1.0
 40
1.0
 40
1.0
 40
2.0
 40
2.0
 40
2.0
 40
3.0
 40
3.0
 40
3.0
 40
4.0
 40
4.0
 40
4.0
 40
5.0
 40
5.0
 40
5.0
 40
6.0
 40
6.0
 40
6.0
 40
7.0
 40
7.0
 40
7.0
 40
8.0
 40
8.0
 40
8.0
 40
8.0
 10
113.2582030966854
 20
-131.9378553272586
 10
113.1503716079971
 20
-132.1473171327618
 10
112.9770833050891
 20
-132.1662651579307
 10
112.8606390776876
 20
-132.1662651579307
 10
112.6997531185265
 20
-132.1662651579307
 10
112.5581596940827
 20
-132.1197563688798
 10
112.4627305491413
 20
-131.9378553272586
 10
112.3590331750353
 20
-131.743207432342
 10
112.3400851498664
 20
-131.5061848629568
 10
112.3400851498664
 20
-131.343576356053
 10
112.3400851498664
 20
-131.1995713647696
 10
112.3569661177441
 20
-130.9477348847978
 10
112.4627305491413
 20
-130.7489528752989
 10
112.5705620378296
 20
-130.5460367512177
 10
112.7314479969908
 20
-130.522610101918
 10
112.8606390776876
 20
-130.522610101918
 10
113.0191134700091
 20
-130.522610101918
 10
113.1631184612926
 20
-130.5670518336777
 10
113.2582030966854
 20
-130.7489528752989
 10
113.3574218466607
 20
-130.9415337129244
 10
113.3808484959604
 20
-131.1699435435964
 10
113.3808484959604
 20
-131.343576356053
 10
113.3808484959604
 20
-131.5147976016699
 10
113.3598334135003
 20
-131.7452744896331
 10
113.2582030966854
 20
-131.9378553272586
 97
        0
 97
        0
 92
        1
 93
        1
 72
     4
 94
        3
 73
     0
 74
     1
 95
       17
 96
       13
 40
0.0
 40
0.0
 40
0.0
 40
0.0
 40
1.0
 40
1.0
 40
1.0
 40
2.0
 40
2.0
 40
2.0
 40
3.0
 40
3.0
 40
3.0
 40
4.0
 40
4.0
 40
4.0
 40
4.0
 10
112.8606390776876
 20
-130.7151909395434
 10
112.610869655007
 20
-130.7151909395434
 10
112.5643608659561
 20
-130.9987222979795
 10
112.5643608659561
 20
-131.343576356053
 10
112.5643608659561
 20
-131.6629367075357
 10
112.6001898590027
 20
-131.9716172630141
 10
112.8606390776876
 20
-131.9716172630141
 10
113.1079969335286
 20
-131.9716172630141
 10
113.1569172894191
 20
-131.6904974714177
 10
113.1569172894191
 20
-131.343576356053
 10
113.1569172894191
 20
-131.0238714950218
 10
113.1186767295328
 20
-130.7151909395434
 10
112.8606390776876
 20
-130.7151909395434
 97
        0
 97
        0
 75
     2
 76
     1
 98
        0
  0
ENDBLK
  5
15A
330
157
100
AcDbEntity
  8
0
100
AcDbBlockEnd
  0
BLOCK
  5
162
330
160
100
AcDbEntity
  8
0
100
AcDbBlockBegin
  2
block 13
 70
     0
 10
0.0
 20
0.0
 30
0.0
  3
block 13
  1

  0
SPLINE
  5
164
330
160
100
AcDbEntity
  8
_U+30EC_U+30A4_U+30E4_U+30FC 1
370
     0
100
AcDbSpline
210
0.0
220
0.0
230
1.0
 70
    11
 71
     3
 72
    26
 73
    22
 74
     0
 42
0.0000000001
 43
0.0000000001
 12
1.0
 22
0.0
 32
0.0
 13
1.0
 23
0.0
 33
0.0
 40
0.0
 40
0.0
 40
0.0
 40
0.0
 40
1.0
 40
1.0
 40
1.0
 40
2.0
 40
2.0
 40
2.0
 40
3.0
 40
3.0
 40
3.0
 40
4.0
 40
4.0
 40
4.0
 40
5.0
 40
5.0
 40
5.0
 40
6.0
 40
6.0
 40
6.0
 40
7.0
 40
7.0
 40
7.0
 40
7.0
 10
116.5151963684407
 20
-132.1156222542975
 30
0.0
 10
116.5151963684407
 20
-132.1156222542975
 30
0.0
 10
116.5151963684407
 20
-131.0114691512749
 30
0.0
 10
116.5151963684407
 20
-131.0114691512749
 30
0.0
 10
116.5151963684407
 20
-131.0114691512749
 30
0.0
 10
116.1851562209537
 20
-131.0114691512749
 30
0.0
 10
116.1851562209537
 20
-131.0114691512749
 30
0.0
 10
116.1851562209537
 20
-131.0114691512749
 30
0.0
 10
116.1851562209537
 20
-130.8633300454092
 30
0.0
 10
116.1851562209537
 20
-130.8633300454092
 30
0.0
 10
116.5172634257318
 20
-130.8485161348226
 30
0.0
 10
116.5634277052341
 20
-130.6855631183703
 30
0.0
 10
116.5930555264073
 20
-130.57118594826
 30
0.0
 10
116.5930555264073
 20
-130.57118594826
 30
0.0
 10
116.7391275749819
 20
-130.57118594826
 30
0.0
 10
116.7391275749819
 20
-130.57118594826
 30
0.0
 10
116.7391275749819
 20
-130.57118594826
 30
0.0
 10
116.7391275749819
 20
-132.1156222542975
 30
0.0
 10
116.7391275749819
 20
-132.1156222542975
 30
0.0
 10
116.7391275749819
 20
-132.1156222542975
 30
0.0
 10
116.5151963684407
 20
-132.1156222542975
 30
0.0
 10
116.5151963684407
 20
-132.1156222542975
 30
0.0
  0
HATCH
  5
165
330
160
100
AcDbEntity
  8
_U+30EC_U+30A4_U+30E4_U+30FC 1
 62
   179
420
  2234388
100
AcDbHatch
 10
0.0
 20
0.0
 30
0.0
210
0.0
220
0.0
230
1.0
  2
SOLID
 70
     1
 71
     0
 91
        1
 92
        1
 93
        1
 72
     4
 94
        3
 73
     0
 74
     1
 95
       26
 96
       22
 40
0.0
 40
0.0
 40
0.0
 40
0.0
 40
1.0
 40
1.0
 40
1.0
 40
2.0
 40
2.0
 40
2.0
 40
3.0
 40
3.0
 40
3.0
 40
4.0
 40
4.0
 40
4.0
 40
5.0
 40
5.0
 40
5.0
 40
6.0
 40
6.0
 40
6.0
 40
7.0
 40
7.0
 40
7.0
 40
7.0
 10
116.5151963684407
 20
-132.1156222542975
 10
116.5151963684407
 20
-132.1156222542975
 10
116.5151963684407
 20
-131.0114691512749
 10
116.5151963684407
 20
-131.0114691512749
 10
116.5151963684407
 20
-131.0114691512749
 10
116.1851562209537
 20
-131.0114691512749
 10
116.1851562209537
 20
-131.0114691512749
 10
116.1851562209537
 20
-131.0114691512749
 10
116.1851562209537
 20
-130.8633300454092
 10
116.1851562209537
 20
-130.8633300454092
 10
116.5172634257318
 20
-130.8485161348226
 10
116.5634277052341
 20
-130.6855631183703
 10
116.5930555264073
 20
-130.57118594826
 10
116.5930555264073
 20
-130.57118594826
 10
116.7391275749819
 20
-130.57118594826
 10
116.7391275749819
 20
-130.57118594826
 10
116.7391275749819
 20
-130.57118594826
 10
116.7391275749819
 20
-132.1156222542975
 10
116.7391275749819
 20
-132.1156222542975
 10
116.7391275749819
 20
-132.1156222542975
 10
116.5151963684407
 20
-132.1156222542975
 10
116.5151963684407
 20
-132.1156222542975
 97
        0
 97
        0
 75
     2
 76
     1
 98
        0
  0
SPLINE
  5
166
330
160
100
AcDbEntity
  8
_U+30EC_U+30A4_U+30E4_U+30FC 1
370
     0
100
AcDbSpline
210
0.0
220
0.0
230
1.0
 70
    11
 71
     3
 72
    29
 73
    25
 74
     0
 42
0.0000000001
 43
0.0000000001
 12
1.0
 22
0.0
 32
0.0
 13
1.0
 23
0.0
 33
0.0
 40
0.0
 40
0.0
 40
0.0
 40
0.0
 40
1.0
 40
1.0
 40
1.0
 40
2.0
 40
2.0
 40
2.0
 40
3.0
 40
3.0
 40
3.0
 40
4.0
 40
4.0
 40
4.0
 40
5.0
 40
5.0
 40
5.0
 40
6.0
 40
6.0
 40
6.0
 40
7.0
 40
7.0
 40
7.0
 40
8.0
 40
8.0
 40
8.0
 40
8.0
 10
118.1381808515418
 20
-131.9378553272586
 30
0.0
 10
118.0303493628535
 20
-132.1473171327618
 30
0.0
 10
117.8567165503969
 20
-132.1662651579307
 30
0.0
 10
117.7402723229955
 20
-132.1662651579307
 30
0.0
 10
117.5797308733829
 20
-132.1662651579307
 30
0.0
 10
117.4377929393906
 20
-132.1197563688798
 30
0.0
 10
117.3427083039977
 20
-131.9378553272586
 30
0.0
 10
117.2393554394402
 20
-131.743207432342
 30
0.0
 10
117.2200629047228
 20
-131.5061848629568
 30
0.0
 10
117.2200629047228
 20
-131.343576356053
 30
0.0
 10
117.2200629047228
 20
-131.1995713647696
 30
0.0
 10
117.2369438726005
 20
-130.9477348847978
 30
0.0
 10
117.3427083039977
 20
-130.7489528752989
 30
0.0
 10
117.4508843022345
 20
-130.5460367512177
 30
0.0
 10
117.6114257518472
 20
-130.522610101918
 30
0.0
 10
117.7402723229955
 20
-130.522610101918
 30
0.0
 10
117.8990912248655
 20
-130.522610101918
 30
0.0
 10
118.0427517066004
 20
-130.5670518336777
 30
0.0
 10
118.1381808515418
 20
-130.7489528752989
 30
0.0
 10
118.2377441110656
 20
-130.9415337129244
 30
0.0
 10
118.2608262508167
 20
-131.1699435435964
 30
0.0
 10
118.2608262508167
 20
-131.343576356053
 30
0.0
 10
118.2608262508167
 20
-131.5147976016699
 30
0.0
 10
118.2398111683567
 20
-131.7452744896331
 30
0.0
 10
118.1381808515418
 20
-131.9378553272586
 30
0.0
  0
SPLINE
  5
167
330
160
100
AcDbEntity
  8
_U+30EC_U+30A4_U+30E4_U+30FC 1
370
     0
100
AcDbSpline
210
0.0
220
0.0
230
1.0
 70
    11
 71
     3
 72
    17
 73
    13
 74
     0
 42
0.0000000001
 43
0.0000000001
 12
1.0
 22
0.0
 32
0.0
 13
1.0
 23
0.0
 33
0.0
 40
0.0
 40
0.0
 40
0.0
 40
0.0
 40
1.0
 40
1.0
 40
1.0
 40
2.0
 40
2.0
 40
2.0
 40
3.0
 40
3.0
 40
3.0
 40
4.0
 40
4.0
 40
4.0
 40
4.0
 10
117.7402723229955
 20
-130.7151909395434
 30
0.0
 10
117.4908474098634
 20
-130.7151909395434
 30
0.0
 10
117.4443386208125
 20
-130.9987222979795
 30
0.0
 10
117.4443386208125
 20
-131.343576356053
 30
0.0
 10
117.4443386208125
 20
-131.6629367075357
 30
0.0
 10
117.4805121234076
 20
-131.9716172630141
 30
0.0
 10
117.7402723229955
 20
-131.9716172630141
 30
0.0
 10
117.987974688385
 20
-131.9716172630141
 30
0.0
 10
118.036550534727
 20
-131.6904974714177
 30
0.0
 10
118.036550534727
 20
-131.343576356053
 30
0.0
 10
118.036550534727
 20
-131.0238714950218
 30
0.0
 10
117.9986544843892
 20
-130.7151909395434
 30
0.0
 10
117.7402723229955
 20
-130.7151909395434
 30
0.0
  0
HATCH
  5
168
330
160
100
AcDbEntity
  8
_U+30EC_U+30A4_U+30E4_U+30FC 1
 62
   179
420
  2234388
100
AcDbHatch
 10
0.0
 20
0.0
 30
0.0
210
0.0
220
0.0
230
1.0
  2
SOLID
 70
     1
 71
     0
 91
        2
 92
        1
 93
        1
 72
     4
 94
        3
 73
     0
 74
     1
 95
       29
 96
       25
 40
0.0
 40
0.0
 40
0.0
 40
0.0
 40
1.0
 40
1.0
 40
1.0
 40
2.0
 40
2.0
 40
2.0
 40
3.0
 40
3.0
 40
3.0
 40
4.0
 40
4.0
 40
4.0
 40
5.0
 40
5.0
 40
5.0
 40
6.0
 40
6.0
 40
6.0
 40
7.0
 40
7.0
 40
7.0
 40
8.0
 40
8.0
 40
8.0
 40
8.0
 10
118.1381808515418
 20
-131.9378553272586
 10
118.0303493628535
 20
-132.1473171327618
 10
117.8567165503969
 20
-132.1662651579307
 10
117.7402723229955
 20
-132.1662651579307
 10
117.5797308733829
 20
-132.1662651579307
 10
117.4377929393906
 20
-132.1197563688798
 10
117.3427083039977
 20
-131.9378553272586
 10
117.2393554394402
 20
-131.743207432342
 10
117.2200629047228
 20
-131.5061848629568
 10
117.2200629047228
 20
-131.343576356053
 10
117.2200629047228
 20
-131.1995713647696
 10
117.2369438726005
 20
-130.9477348847978
 10
117.3427083039977
 20
-130.7489528752989
 10
117.4508843022345
 20
-130.5460367512177
 10
117.6114257518472
 20
-130.522610101918
 10
117.7402723229955
 20
-130.522610101918
 10
117.8990912248655
 20
-130.522610101918
 10
118.0427517066004
 20
-130.5670518336777
 10
118.1381808515418
 20
-130.7489528752989
 10
118.2377441110656
 20
-130.9415337129244
 10
118.2608262508167
 20
-131.1699435435964
 10
118.2608262508167
 20
-131.343576356053
 10
118.2608262508167
 20
-131.5147976016699
 10
118.2398111683567
 20
-131.7452744896331
 10
118.1381808515418
 20
-131.9378553272586
 97
        0
 97
        0
 92
        1
 93
        1
 72
     4
 94
        3
 73
     0
 74
     1
 95
       17
 96
       13
 40
0.0
 40
0.0
 40
0.0
 40
0.0
 40
1.0
 40
1.0
 40
1.0
 40
2.0
 40
2.0
 40
2.0
 40
3.0
 40
3.0
 40
3.0
 40
4.0
 40
4.0
 40
4.0
 40
4.0
 10
117.7402723229955
 20
-130.7151909395434
 10
117.4908474098634
 20
-130.7151909395434
 10
117.4443386208125
 20
-130.9987222979795
 10
117.4443386208125
 20
-131.343576356053
 10
117.4443386208125
 20
-131.6629367075357
 10
117.4805121234076
 20
-131.9716172630141
 10
117.7402723229955
 20
-131.9716172630141
 10
117.987974688385
 20
-131.9716172630141
 10
118.036550534727
 20
-131.6904974714177
 10
118.036550534727
 20
-131.343576356053
 10
118.036550534727
 20
-131.0238714950218
 10
117.9986544843892
 20
-130.7151909395434
 10
117.7402723229955
 20
-130.7151909395434
 97
        0
 97
        0
 75
     2
 76
     1
 98
        0
  0
ENDBLK
  5
163
330
160
100
AcDbEntity
  8
0
100
AcDbBlockEnd
  0
BLOCK
  5
16B
330
169
100
AcDbEntity
  8
0
100
AcDbBlockBegin
  2
block 14
 70
     0
 10
0.0
 20
0.0
 30
0.0
  3
block 14
  1

  0
SPLINE
  5
16D
330
169
100
AcDbEntity
  8
_U+30EC_U+30A4_U+30E4_U+30FC 1
370
     0
100
AcDbSpline
210
0.0
220
0.0
230
1.0
 70
    11
 71
     3
 72
    26
 73
    22
 74
     0
 42
0.0000000001
 43
0.0000000001
 12
1.0
 22
0.0
 32
0.0
 13
1.0
 23
0.0
 33
0.0
 40
0.0
 40
0.0
 40
0.0
 40
0.0
 40
1.0
 40
1.0
 40
1.0
 40
2.0
 40
2.0
 40
2.0
 40
3.0
 40
3.0
 40
3.0
 40
4.0
 40
4.0
 40
4.0
 40
5.0
 40
5.0
 40
5.0
 40
6.0
 40
6.0
 40
6.0
 40
7.0
 40
7.0
 40
7.0
 40
7.0
 10
91.6150797297004
 20
-136.2311333209769
 30
0.0
 10
91.6150797297004
 20
-136.2311333209769
 30
0.0
 10
91.6150797297004
 20
-135.1269802179544
 30
0.0
 10
91.6150797297004
 20
-135.1269802179544
 30
0.0
 10
91.6150797297004
 20
-135.1269802179544
 30
0.0
 10
91.28503958221347
 20
-135.1269802179544
 30
0.0
 10
91.28503958221347
 20
-135.1269802179544
 30
0.0
 10
91.28503958221347
 20
-135.1269802179544
 30
0.0
 10
91.28503958221347
 20
-134.9788411120886
 30
0.0
 10
91.28503958221347
 20
-134.9788411120886
 30
0.0
 10
91.61714678699155
 20
-134.9640272015021
 30
0.0
 10
91.66365557604243
 20
-134.8010741850497
 30
0.0
 10
91.69328339721557
 20
-134.6866970149395
 30
0.0
 10
91.69328339721557
 20
-134.6866970149395
 30
0.0
 10
91.83935544579016
 20
-134.6866970149395
 30
0.0
 10
91.83935544579016
 20
-134.6866970149395
 30
0.0
 10
91.83935544579016
 20
-134.6866970149395
 30
0.0
 10
91.83935544579016
 20
-136.2311333209769
 30
0.0
 10
91.83935544579016
 20
-136.2311333209769
 30
0.0
 10
91.83935544579016
 20
-136.2311333209769
 30
0.0
 10
91.6150797297004
 20
-136.2311333209769
 30
0.0
 10
91.6150797297004
 20
-136.2311333209769
 30
0.0
  0
HATCH
  5
16E
330
169
100
AcDbEntity
  8
_U+30EC_U+30A4_U+30E4_U+30FC 1
 62
   179
420
  2234388
100
AcDbHatch
 10
0.0
 20
0.0
 30
0.0
210
0.0
220
0.0
230
1.0
  2
SOLID
 70
     1
 71
     0
 91
        1
 92
        1
 93
        1
 72
     4
 94
        3
 73
     0
 74
     1
 95
       26
 96
       22
 40
0.0
 40
0.0
 40
0.0
 40
0.0
 40
1.0
 40
1.0
 40
1.0
 40
2.0
 40
2.0
 40
2.0
 40
3.0
 40
3.0
 40
3.0
 40
4.0
 40
4.0
 40
4.0
 40
5.0
 40
5.0
 40
5.0
 40
6.0
 40
6.0
 40
6.0
 40
7.0
 40
7.0
 40
7.0
 40
7.0
 10
91.6150797297004
 20
-136.2311333209769
 10
91.6150797297004
 20
-136.2311333209769
 10
91.6150797297004
 20
-135.1269802179544
 10
91.6150797297004
 20
-135.1269802179544
 10
91.6150797297004
 20
-135.1269802179544
 10
91.28503958221347
 20
-135.1269802179544
 10
91.28503958221347
 20
-135.1269802179544
 10
91.28503958221347
 20
-135.1269802179544
 10
91.28503958221347
 20
-134.9788411120886
 10
91.28503958221347
 20
-134.9788411120886
 10
91.61714678699155
 20
-134.9640272015021
 10
91.66365557604243
 20
-134.8010741850497
 10
91.69328339721557
 20
-134.6866970149395
 10
91.69328339721557
 20
-134.6866970149395
 10
91.83935544579016
 20
-134.6866970149395
 10
91.83935544579016
 20
-134.6866970149395
 10
91.83935544579016
 20
-134.6866970149395
 10
91.83935544579016
 20
-136.2311333209769
 10
91.83935544579016
 20
-136.2311333209769
 10
91.83935544579016
 20
-136.2311333209769
 10
91.6150797297004
 20
-136.2311333209769
 10
91.6150797297004
 20
-136.2311333209769
 97
        0
 97
        0
 75
     2
 76
     1
 98
        0
  0
SPLINE
  5
16F
330
169
100
AcDbEntity
  8
_U+30EC_U+30A4_U+30E4_U+30FC 1
370
     0
100
AcDbSpline
210
0.0
220
0.0
230
1.0
 70
    11
 71
     3
 72
    29
 73
    25
 74
     0
 42
0.0000000001
 43
0.0000000001
 12
1.0
 22
0.0
 32
0.0
 13
1.0
 23
0.0
 33
0.0
 40
0.0
 40
0.0
 40
0.0
 40
0.0
 40
1.0
 40
1.0
 40
1.0
 40
2.0
 40
2.0
 40
2.0
 40
3.0
 40
3.0
 40
3.0
 40
4.0
 40
4.0
 40
4.0
 40
5.0
 40
5.0
 40
5.0
 40
6.0
 40
6.0
 40
6.0
 40
7.0
 40
7.0
 40
7.0
 40
8.0
 40
8.0
 40
8.0
 40
8.0
 10
93.2380642128016
 20
-136.0533663939381
 30
0.0
 10
93.13057723366181
 20
-136.2628281994412
 30
0.0
 10
92.95694442120521
 20
-136.2817762246101
 30
0.0
 10
92.84050019380376
 20
-136.2817762246101
 30
0.0
 10
92.67995874419113
 20
-136.2817762246101
 30
0.0
 10
92.53802081019883
 20
-136.2352674355593
 30
0.0
 10
92.44293617480594
 20
-136.0533663939381
 30
0.0
 10
92.33923880069992
 20
-135.8587184990214
 30
0.0
 10
92.32029077553105
 20
-135.6216959296362
 30
0.0
 10
92.32029077553105
 20
-135.4590874227325
 30
0.0
 10
92.32029077553105
 20
-135.315082431449
 30
0.0
 10
92.33682723386025
 20
-135.0632459514773
 30
0.0
 10
92.44293617480594
 20
-134.8644639419783
 30
0.0
 10
92.55076766349426
 20
-134.6615478178971
 30
0.0
 10
92.71165362265542
 20
-134.6381211685974
 30
0.0
 10
92.84050019380376
 20
-134.6381211685974
 30
0.0
 10
92.99897458612526
 20
-134.6381211685974
 30
0.0
 10
93.14297957740871
 20
-134.6825629003571
 30
0.0
 10
93.2380642128016
 20
-134.8644639419783
 30
0.0
 10
93.33762747232532
 20
-135.0570447796038
 30
0.0
 10
93.36070961207649
 20
-135.2854546102759
 30
0.0
 10
93.36070961207649
 20
-135.4590874227325
 30
0.0
 10
93.36070961207649
 20
-135.6303086683494
 30
0.0
 10
93.34003903916499
 20
-135.8607855563126
 30
0.0
 10
93.2380642128016
 20
-136.0533663939381
 30
0.0
  0
SPLINE
  5
170
330
169
100
AcDbEntity
  8
_U+30EC_U+30A4_U+30E4_U+30FC 1
370
     0
100
AcDbSpline
210
0.0
220
0.0
230
1.0
 70
    11
 71
     3
 72
    17
 73
    13
 74
     0
 42
0.0000000001
 43
0.0000000001
 12
1.0
 22
0.0
 32
0.0
 13
1.0
 23
0.0
 33
0.0
 40
0.0
 40
0.0
 40
0.0
 40
0.0
 40
1.0
 40
1.0
 40
1.0
 40
2.0
 40
2.0
 40
2.0
 40
3.0
 40
3.0
 40
3.0
 40
4.0
 40
4.0
 40
4.0
 40
4.0
 10
92.84050019380376
 20
-134.8307020062229
 30
0.0
 10
92.59107528067167
 20
-134.8307020062229
 30
0.0
 10
92.54422198207229
 20
-135.114233364659
 30
0.0
 10
92.54422198207229
 20
-135.4590874227325
 30
0.0
 10
92.54422198207229
 20
-135.7784477742151
 30
0.0
 10
92.5803954846674
 20
-136.0871283296935
 30
0.0
 10
92.84050019380376
 20
-136.0871283296935
 30
0.0
 10
93.08785804964471
 20
-136.0871283296935
 30
0.0
 10
93.13677840553525
 20
-135.8060085380971
 30
0.0
 10
93.13677840553525
 20
-135.4590874227325
 30
0.0
 10
93.13677840553525
 20
-135.1393825617013
 30
0.0
 10
93.0988823551975
 20
-134.8307020062229
 30
0.0
 10
92.84050019380376
 20
-134.8307020062229
 30
0.0
  0
HATCH
  5
171
330
169
100
AcDbEntity
  8
_U+30EC_U+30A4_U+30E4_U+30FC 1
 62
   179
420
  2234388
100
AcDbHatch
 10
0.0
 20
0.0
 30
0.0
210
0.0
220
0.0
230
1.0
  2
SOLID
 70
     1
 71
     0
 91
        2
 92
        1
 93
        1
 72
     4
 94
        3
 73
     0
 74
     1
 95
       29
 96
       25
 40
0.0
 40
0.0
 40
0.0
 40
0.0
 40
1.0
 40
1.0
 40
1.0
 40
2.0
 40
2.0
 40
2.0
 40
3.0
 40
3.0
 40
3.0
 40
4.0
 40
4.0
 40
4.0
 40
5.0
 40
5.0
 40
5.0
 40
6.0
 40
6.0
 40
6.0
 40
7.0
 40
7.0
 40
7.0
 40
8.0
 40
8.0
 40
8.0
 40
8.0
 10
93.2380642128016
 20
-136.0533663939381
 10
93.13057723366181
 20
-136.2628281994412
 10
92.95694442120521
 20
-136.2817762246101
 10
92.84050019380376
 20
-136.2817762246101
 10
92.67995874419113
 20
-136.2817762246101
 10
92.53802081019883
 20
-136.2352674355593
 10
92.44293617480594
 20
-136.0533663939381
 10
92.33923880069992
 20
-135.8587184990214
 10
92.32029077553105
 20
-135.6216959296362
 10
92.32029077553105
 20
-135.4590874227325
 10
92.32029077553105
 20
-135.315082431449
 10
92.33682723386025
 20
-135.0632459514773
 10
92.44293617480594
 20
-134.8644639419783
 10
92.55076766349426
 20
-134.6615478178971
 10
92.71165362265542
 20
-134.6381211685974
 10
92.84050019380376
 20
-134.6381211685974
 10
92.99897458612526
 20
-134.6381211685974
 10
93.14297957740871
 20
-134.6825629003571
 10
93.2380642128016
 20
-134.8644639419783
 10
93.33762747232532
 20
-135.0570447796038
 10
93.36070961207649
 20
-135.2854546102759
 10
93.36070961207649
 20
-135.4590874227325
 10
93.36070961207649
 20
-135.6303086683494
 10
93.34003903916499
 20
-135.8607855563126
 10
93.2380642128016
 20
-136.0533663939381
 97
        0
 97
        0
 92
        1
 93
        1
 72
     4
 94
        3
 73
     0
 74
     1
 95
       17
 96
       13
 40
0.0
 40
0.0
 40
0.0
 40
0.0
 40
1.0
 40
1.0
 40
1.0
 40
2.0
 40
2.0
 40
2.0
 40
3.0
 40
3.0
 40
3.0
 40
4.0
 40
4.0
 40
4.0
 40
4.0
 10
92.84050019380376
 20
-134.8307020062229
 10
92.59107528067167
 20
-134.8307020062229
 10
92.54422198207229
 20
-135.114233364659
 10
92.54422198207229
 20
-135.4590874227325
 10
92.54422198207229
 20
-135.7784477742151
 10
92.5803954846674
 20
-136.0871283296935
 10
92.84050019380376
 20
-136.0871283296935
 10
93.08785804964471
 20
-136.0871283296935
 10
93.13677840553525
 20
-135.8060085380971
 10
93.13677840553525
 20
-135.4590874227325
 10
93.13677840553525
 20
-135.1393825617013
 10
93.0988823551975
 20
-134.8307020062229
 10
92.84050019380376
 20
-134.8307020062229
 97
        0
 97
        0
 75
     2
 76
     1
 98
        0
  0
SPLINE
  5
172
330
169
100
AcDbEntity
  8
_U+30EC_U+30A4_U+30E4_U+30FC 1
370
     0
100
AcDbSpline
210
0.0
220
0.0
230
1.0
 70
    11
 71
     3
 72
    29
 73
    25
 74
     0
 42
0.0000000001
 43
0.0000000001
 12
1.0
 22
0.0
 32
0.0
 13
1.0
 23
0.0
 33
0.0
 40
0.0
 40
0.0
 40
0.0
 40
0.0
 40
1.0
 40
1.0
 40
1.0
 40
2.0
 40
2.0
 40
2.0
 40
3.0
 40
3.0
 40
3.0
 40
4.0
 40
4.0
 40
4.0
 40
5.0
 40
5.0
 40
5.0
 40
6.0
 40
6.0
 40
6.0
 40
7.0
 40
7.0
 40
7.0
 40
8.0
 40
8.0
 40
8.0
 40
8.0
 10
94.41490883056295
 20
-136.0533663939381
 30
0.0
 10
94.30742185142314
 20
-136.2628281994412
 30
0.0
 10
94.13378903896655
 20
-136.2817762246101
 30
0.0
 10
94.01734481156511
 20
-136.2817762246101
 30
0.0
 10
93.85680336195247
 20
-136.2817762246101
 30
0.0
 10
93.71486542796018
 20
-136.2352674355593
 30
0.0
 10
93.61978079256728
 20
-136.0533663939381
 30
0.0
 10
93.51608341846126
 20
-135.8587184990214
 30
0.0
 10
93.49713539329238
 20
-135.6216959296362
 30
0.0
 10
93.49713539329238
 20
-135.4590874227325
 30
0.0
 10
93.49713539329238
 20
-135.315082431449
 30
0.0
 10
93.51367185162158
 20
-135.0632459514773
 30
0.0
 10
93.61978079256728
 20
-134.8644639419783
 30
0.0
 10
93.7276122812556
 20
-134.6615478178971
 30
0.0
 10
93.88849824041677
 20
-134.6381211685974
 30
0.0
 10
94.01734481156511
 20
-134.6381211685974
 30
0.0
 10
94.1758192038866
 20
-134.6381211685974
 30
0.0
 10
94.31982419517004
 20
-134.6825629003571
 30
0.0
 10
94.41490883056295
 20
-134.8644639419783
 30
0.0
 10
94.51447209008667
 20
-135.0570447796038
 30
0.0
 10
94.53755422983784
 20
-135.2854546102759
 30
0.0
 10
94.53755422983784
 20
-135.4590874227325
 30
0.0
 10
94.53755422983784
 20
-135.6303086683494
 30
0.0
 10
94.51688365692634
 20
-135.8607855563126
 30
0.0
 10
94.41490883056295
 20
-136.0533663939381
 30
0.0
  0
SPLINE
  5
173
330
169
100
AcDbEntity
  8
_U+30EC_U+30A4_U+30E4_U+30FC 1
370
     0
100
AcDbSpline
210
0.0
220
0.0
230
1.0
 70
    11
 71
     3
 72
    17
 73
    13
 74
     0
 42
0.0000000001
 43
0.0000000001
 12
1.0
 22
0.0
 32
0.0
 13
1.0
 23
0.0
 33
0.0
 40
0.0
 40
0.0
 40
0.0
 40
0.0
 40
1.0
 40
1.0
 40
1.0
 40
2.0
 40
2.0
 40
2.0
 40
3.0
 40
3.0
 40
3.0
 40
4.0
 40
4.0
 40
4.0
 40
4.0
 10
94.01734481156511
 20
-134.8307020062229
 30
0.0
 10
93.76791989843302
 20
-134.8307020062229
 30
0.0
 10
93.72106659983362
 20
-135.114233364659
 30
0.0
 10
93.72106659983362
 20
-135.4590874227325
 30
0.0
 10
93.72106659983362
 20
-135.7784477742151
 30
0.0
 10
93.75724010242875
 20
-136.0871283296935
 30
0.0
 10
94.01734481156511
 20
-136.0871283296935
 30
0.0
 10
94.26470266740606
 20
-136.0871283296935
 30
0.0
 10
94.3136230232966
 20
-135.8060085380971
 30
0.0
 10
94.3136230232966
 20
-135.4590874227325
 30
0.0
 10
94.3136230232966
 20
-135.1393825617013
 30
0.0
 10
94.27572697295885
 20
-134.8307020062229
 30
0.0
 10
94.01734481156511
 20
-134.8307020062229
 30
0.0
  0
HATCH
  5
174
330
169
100
AcDbEntity
  8
_U+30EC_U+30A4_U+30E4_U+30FC 1
 62
   179
420
  2234388
100
AcDbHatch
 10
0.0
 20
0.0
 30
0.0
210
0.0
220
0.0
230
1.0
  2
SOLID
 70
     1
 71
     0
 91
        2
 92
        1
 93
        1
 72
     4
 94
        3
 73
     0
 74
     1
 95
       29
 96
       25
 40
0.0
 40
0.0
 40
0.0
 40
0.0
 40
1.0
 40
1.0
 40
1.0
 40
2.0
 40
2.0
 40
2.0
 40
3.0
 40
3.0
 40
3.0
 40
4.0
 40
4.0
 40
4.0
 40
5.0
 40
5.0
 40
5.0
 40
6.0
 40
6.0
 40
6.0
 40
7.0
 40
7.0
 40
7.0
 40
8.0
 40
8.0
 40
8.0
 40
8.0
 10
94.41490883056295
 20
-136.0533663939381
 10
94.30742185142314
 20
-136.2628281994412
 10
94.13378903896655
 20
-136.2817762246101
 10
94.01734481156511
 20
-136.2817762246101
 10
93.85680336195247
 20
-136.2817762246101
 10
93.71486542796018
 20
-136.2352674355593
 10
93.61978079256728
 20
-136.0533663939381
 10
93.51608341846126
 20
-135.8587184990214
 10
93.49713539329238
 20
-135.6216959296362
 10
93.49713539329238
 20
-135.4590874227325
 10
93.49713539329238
 20
-135.315082431449
 10
93.51367185162158
 20
-135.0632459514773
 10
93.61978079256728
 20
-134.8644639419783
 10
93.7276122812556
 20
-134.6615478178971
 10
93.88849824041677
 20
-134.6381211685974
 10
94.01734481156511
 20
-134.6381211685974
 10
94.1758192038866
 20
-134.6381211685974
 10
94.31982419517004
 20
-134.6825629003571
 10
94.41490883056295
 20
-134.8644639419783
 10
94.51447209008667
 20
-135.0570447796038
 10
94.53755422983784
 20
-135.2854546102759
 10
94.53755422983784
 20
-135.4590874227325
 10
94.53755422983784
 20
-135.6303086683494
 10
94.51688365692634
 20
-135.8607855563126
 10
94.41490883056295
 20
-136.0533663939381
 97
        0
 97
        0
 92
        1
 93
        1
 72
     4
 94
        3
 73
     0
 74
     1
 95
       17
 96
       13
 40
0.0
 40
0.0
 40
0.0
 40
0.0
 40
1.0
 40
1.0
 40
1.0
 40
2.0
 40
2.0
 40
2.0
 40
3.0
 40
3.0
 40
3.0
 40
4.0
 40
4.0
 40
4.0
 40
4.0
 10
94.01734481156511
 20
-134.8307020062229
 10
93.76791989843302
 20
-134.8307020062229
 10
93.72106659983362
 20
-135.114233364659
 10
93.72106659983362
 20
-135.4590874227325
 10
93.72106659983362
 20
-135.7784477742151
 10
93.75724010242875
 20
-136.0871283296935
 10
94.01734481156511
 20
-136.0871283296935
 10
94.26470266740606
 20
-136.0871283296935
 10
94.3136230232966
 20
-135.8060085380971
 10
94.3136230232966
 20
-135.4590874227325
 10
94.3136230232966
 20
-135.1393825617013
 10
94.27572697295885
 20
-134.8307020062229
 10
94.01734481156511
 20
-134.8307020062229
 97
        0
 97
        0
 75
     2
 76
     1
 98
        0
  0
ENDBLK
  5
16C
330
169
100
AcDbEntity
  8
0
100
AcDbBlockEnd
  0
BLOCK
  5
177
330
175
100
AcDbEntity
  8
0
100
AcDbBlockBegin
  2
block 15
 70
     0
 10
0.0
 20
0.0
 30
0.0
  3
block 15
  1

  0
SPLINE
  5
179
330
175
100
AcDbEntity
  8
_U+30EC_U+30A4_U+30E4_U+30FC 1
370
     0
100
AcDbSpline
210
0.0
220
0.0
230
1.0
 70
    11
 71
     3
 72
    26
 73
    22
 74
     0
 42
0.0000000001
 43
0.0000000001
 12
1.0
 22
0.0
 32
0.0
 13
1.0
 23
0.0
 33
0.0
 40
0.0
 40
0.0
 40
0.0
 40
0.0
 40
1.0
 40
1.0
 40
1.0
 40
2.0
 40
2.0
 40
2.0
 40
3.0
 40
3.0
 40
3.0
 40
4.0
 40
4.0
 40
4.0
 40
5.0
 40
5.0
 40
5.0
 40
6.0
 40
6.0
 40
6.0
 40
7.0
 40
7.0
 40
7.0
 40
7.0
 10
126.2062499684484
 20
-125.4371324013664
 30
0.0
 10
126.2062499684484
 20
-125.4371324013664
 30
0.0
 10
125.1017523558774
 20
-125.4371324013664
 30
0.0
 10
125.1017523558774
 20
-125.4371324013664
 30
0.0
 10
125.1017523558774
 20
-125.4371324013664
 30
0.0
 10
125.1017523558774
 20
-125.7671725488534
 30
0.0
 10
125.1017523558774
 20
-125.7671725488534
 30
0.0
 10
125.1017523558774
 20
-125.7671725488534
 30
0.0
 10
124.9536132500116
 20
-125.7671725488534
 30
0.0
 10
124.9536132500116
 20
-125.7671725488534
 30
0.0
 10
124.9391438489736
 20
-125.4350653440753
 30
0.0
 10
124.7758463229727
 20
-125.3885565550244
 30
0.0
 10
124.6618136624109
 20
-125.3589287338512
 30
0.0
 10
124.6618136624109
 20
-125.3589287338512
 30
0.0
 10
124.6618136624109
 20
-125.2128566852766
 30
0.0
 10
124.6618136624109
 20
-125.2128566852766
 30
0.0
 10
124.6618136624109
 20
-125.2128566852766
 30
0.0
 10
126.2062499684484
 20
-125.2128566852766
 30
0.0
 10
126.2062499684484
 20
-125.2128566852766
 30
0.0
 10
126.2062499684484
 20
-125.2128566852766
 30
0.0
 10
126.2062499684484
 20
-125.4371324013664
 30
0.0
 10
126.2062499684484
 20
-125.4371324013664
 30
0.0
  0
HATCH
  5
17A
330
175
100
AcDbEntity
  8
_U+30EC_U+30A4_U+30E4_U+30FC 1
 62
   179
420
  2234388
100
AcDbHatch
 10
0.0
 20
0.0
 30
0.0
210
0.0
220
0.0
230
1.0
  2
SOLID
 70
     1
 71
     0
 91
        1
 92
        1
 93
        1
 72
     4
 94
        3
 73
     0
 74
     1
 95
       26
 96
       22
 40
0.0
 40
0.0
 40
0.0
 40
0.0
 40
1.0
 40
1.0
 40
1.0
 40
2.0
 40
2.0
 40
2.0
 40
3.0
 40
3.0
 40
3.0
 40
4.0
 40
4.0
 40
4.0
 40
5.0
 40
5.0
 40
5.0
 40
6.0
 40
6.0
 40
6.0
 40
7.0
 40
7.0
 40
7.0
 40
7.0
 10
126.2062499684484
 20
-125.4371324013664
 10
126.2062499684484
 20
-125.4371324013664
 10
125.1017523558774
 20
-125.4371324013664
 10
125.1017523558774
 20
-125.4371324013664
 10
125.1017523558774
 20
-125.4371324013664
 10
125.1017523558774
 20
-125.7671725488534
 10
125.1017523558774
 20
-125.7671725488534
 10
125.1017523558774
 20
-125.7671725488534
 10
124.9536132500116
 20
-125.7671725488534
 10
124.9536132500116
 20
-125.7671725488534
 10
124.9391438489736
 20
-125.4350653440753
 10
124.7758463229727
 20
-125.3885565550244
 10
124.6618136624109
 20
-125.3589287338512
 10
124.6618136624109
 20
-125.3589287338512
 10
124.6618136624109
 20
-125.2128566852766
 10
124.6618136624109
 20
-125.2128566852766
 10
124.6618136624109
 20
-125.2128566852766
 10
126.2062499684484
 20
-125.2128566852766
 10
126.2062499684484
 20
-125.2128566852766
 10
126.2062499684484
 20
-125.2128566852766
 10
126.2062499684484
 20
-125.4371324013664
 10
126.2062499684484
 20
-125.4371324013664
 97
        0
 97
        0
 75
     2
 76
     1
 98
        0
  0
SPLINE
  5
17B
330
175
100
AcDbEntity
  8
_U+30EC_U+30A4_U+30E4_U+30FC 1
370
     0
100
AcDbSpline
210
0.0
220
0.0
230
1.0
 70
    11
 71
     3
 72
    29
 73
    25
 74
     0
 42
0.0000000001
 43
0.0000000001
 12
1.0
 22
0.0
 32
0.0
 13
1.0
 23
0.0
 33
0.0
 40
0.0
 40
0.0
 40
0.0
 40
0.0
 40
1.0
 40
1.0
 40
1.0
 40
2.0
 40
2.0
 40
2.0
 40
3.0
 40
3.0
 40
3.0
 40
4.0
 40
4.0
 40
4.0
 40
5.0
 40
5.0
 40
5.0
 40
6.0
 40
6.0
 40
6.0
 40
7.0
 40
7.0
 40
7.0
 40
8.0
 40
8.0
 40
8.0
 40
8.0
 10
126.0284830414096
 20
-123.813975663491
 30
0.0
 10
126.2379448469127
 20
-123.9218071521793
 30
0.0
 10
126.2568928720816
 20
-124.0952677098616
 30
0.0
 10
126.2568928720816
 20
-124.211711937263
 30
0.0
 10
126.2568928720816
 20
-124.37242564165
 30
0.0
 10
126.2103840830307
 20
-124.514191320868
 30
0.0
 10
126.0284830414096
 20
-124.6094482110351
 30
0.0
 10
125.8334906369444
 20
-124.7129733303669
 30
0.0
 10
125.5968125771077
 20
-124.73209361031
 30
0.0
 10
125.4338595606554
 20
-124.73209361031
 30
0.0
 10
125.289854569372
 20
-124.73209361031
 30
0.0
 10
125.0383625989488
 20
-124.7152126424323
 30
0.0
 10
124.8392360799013
 20
-124.6094482110351
 30
0.0
 10
124.6363199558201
 20
-124.5014444675726
 30
0.0
 10
124.6132378160689
 20
-124.3407307631857
 30
0.0
 10
124.6132378160689
 20
-124.211711937263
 30
0.0
 10
124.6132378160689
 20
-124.0530652901673
 30
0.0
 10
124.6573350382801
 20
-123.9092325536581
 30
0.0
 10
124.8392360799013
 20
-123.813975663491
 30
0.0
 10
125.0321614270753
 20
-123.7145846587415
 30
0.0
 10
125.2602267481988
 20
-123.6913302642161
 30
0.0
 10
125.4338595606554
 20
-123.6913302642161
 30
0.0
 10
125.6054253158209
 20
-123.6913302642161
 30
0.0
 10
125.8359022037841
 20
-123.7123453466761
 30
0.0
 10
126.0284830414096
 20
-123.813975663491
 30
0.0
  0
SPLINE
  5
17C
330
175
100
AcDbEntity
  8
_U+30EC_U+30A4_U+30E4_U+30FC 1
370
     0
100
AcDbSpline
210
0.0
220
0.0
230
1.0
 70
    11
 71
     3
 72
    17
 73
    13
 74
     0
 42
0.0000000001
 43
0.0000000001
 12
1.0
 22
0.0
 32
0.0
 13
1.0
 23
0.0
 33
0.0
 40
0.0
 40
0.0
 40
0.0
 40
0.0
 40
1.0
 40
1.0
 40
1.0
 40
2.0
 40
2.0
 40
2.0
 40
3.0
 40
3.0
 40
3.0
 40
4.0
 40
4.0
 40
4.0
 40
4.0
 10
124.8054741441459
 20
-124.211711937263
 30
0.0
 10
124.8054741441459
 20
-124.4613091051694
 30
0.0
 10
125.0893500121305
 20
-124.5078178942203
 30
0.0
 10
125.4338595606554
 20
-124.5078178942203
 30
0.0
 10
125.7535644216866
 20
-124.5078178942203
 30
0.0
 10
126.062244977165
 20
-124.4718166463994
 30
0.0
 10
126.062244977165
 20
-124.211711937263
 30
0.0
 10
126.062244977165
 20
-123.9641818266478
 30
0.0
 10
125.7807806760201
 20
-123.9154337255316
 30
0.0
 10
125.4338595606554
 20
-123.9154337255316
 30
0.0
 10
125.1144992091728
 20
-123.9154337255316
 30
0.0
 10
124.8054741441459
 20
-123.9535020306436
 30
0.0
 10
124.8054741441459
 20
-124.211711937263
 30
0.0
  0
HATCH
  5
17D
330
175
100
AcDbEntity
  8
_U+30EC_U+30A4_U+30E4_U+30FC 1
 62
   179
420
  2234388
100
AcDbHatch
 10
0.0
 20
0.0
 30
0.0
210
0.0
220
0.0
230
1.0
  2
SOLID
 70
     1
 71
     0
 91
        2
 92
        1
 93
        1
 72
     4
 94
        3
 73
     0
 74
     1
 95
       29
 96
       25
 40
0.0
 40
0.0
 40
0.0
 40
0.0
 40
1.0
 40
1.0
 40
1.0
 40
2.0
 40
2.0
 40
2.0
 40
3.0
 40
3.0
 40
3.0
 40
4.0
 40
4.0
 40
4.0
 40
5.0
 40
5.0
 40
5.0
 40
6.0
 40
6.0
 40
6.0
 40
7.0
 40
7.0
 40
7.0
 40
8.0
 40
8.0
 40
8.0
 40
8.0
 10
126.0284830414096
 20
-123.813975663491
 10
126.2379448469127
 20
-123.9218071521793
 10
126.2568928720816
 20
-124.0952677098616
 10
126.2568928720816
 20
-124.211711937263
 10
126.2568928720816
 20
-124.37242564165
 10
126.2103840830307
 20
-124.514191320868
 10
126.0284830414096
 20
-124.6094482110351
 10
125.8334906369444
 20
-124.7129733303669
 10
125.5968125771077
 20
-124.73209361031
 10
125.4338595606554
 20
-124.73209361031
 10
125.289854569372
 20
-124.73209361031
 10
125.0383625989488
 20
-124.7152126424323
 10
124.8392360799013
 20
-124.6094482110351
 10
124.6363199558201
 20
-124.5014444675726
 10
124.6132378160689
 20
-124.3407307631857
 10
124.6132378160689
 20
-124.211711937263
 10
124.6132378160689
 20
-124.0530652901673
 10
124.6573350382801
 20
-123.9092325536581
 10
124.8392360799013
 20
-123.813975663491
 10
125.0321614270753
 20
-123.7145846587415
 10
125.2602267481988
 20
-123.6913302642161
 10
125.4338595606554
 20
-123.6913302642161
 10
125.6054253158209
 20
-123.6913302642161
 10
125.8359022037841
 20
-123.7123453466761
 10
126.0284830414096
 20
-123.813975663491
 97
        0
 97
        0
 92
        1
 93
        1
 72
     4
 94
        3
 73
     0
 74
     1
 95
       17
 96
       13
 40
0.0
 40
0.0
 40
0.0
 40
0.0
 40
1.0
 40
1.0
 40
1.0
 40
2.0
 40
2.0
 40
2.0
 40
3.0
 40
3.0
 40
3.0
 40
4.0
 40
4.0
 40
4.0
 40
4.0
 10
124.8054741441459
 20
-124.211711937263
 10
124.8054741441459
 20
-124.4613091051694
 10
125.0893500121305
 20
-124.5078178942203
 10
125.4338595606554
 20
-124.5078178942203
 10
125.7535644216866
 20
-124.5078178942203
 10
126.062244977165
 20
-124.4718166463994
 10
126.062244977165
 20
-124.211711937263
 10
126.062244977165
 20
-123.9641818266478
 10
125.7807806760201
 20
-123.9154337255316
 10
125.4338595606554
 20
-123.9154337255316
 10
125.1144992091728
 20
-123.9154337255316
 10
124.8054741441459
 20
-123.9535020306436
 10
124.8054741441459
 20
-124.211711937263
 97
        0
 97
        0
 75
     2
 76
     1
 98
        0
  0
ENDBLK
  5
178
330
175
100
AcDbEntity
  8
0
100
AcDbBlockEnd
  0
BLOCK
  5
180
330
17E
100
AcDbEntity
  8
0
100
AcDbBlockBegin
  2
block 16
 70
     0
 10
0.0
 20
0.0
 30
0.0
  3
block 16
  1

  0
SPLINE
  5
182
330
17E
100
AcDbEntity
  8
_U+30EC_U+30A4_U+30E4_U+30FC 1
370
     0
100
AcDbSpline
210
0.0
220
0.0
230
1.0
 70
    11
 71
     3
 72
    26
 73
    22
 74
     0
 42
0.0000000001
 43
0.0000000001
 12
1.0
 22
0.0
 32
0.0
 13
1.0
 23
0.0
 33
0.0
 40
0.0
 40
0.0
 40
0.0
 40
0.0
 40
1.0
 40
1.0
 40
1.0
 40
2.0
 40
2.0
 40
2.0
 40
3.0
 40
3.0
 40
3.0
 40
4.0
 40
4.0
 40
4.0
 40
5.0
 40
5.0
 40
5.0
 40
6.0
 40
6.0
 40
6.0
 40
7.0
 40
7.0
 40
7.0
 40
7.0
 10
129.2048610788099
 20
-123.6384480485175
 30
0.0
 10
129.2048610788099
 20
-123.6384480485175
 30
0.0
 10
128.1003634662388
 20
-123.6384480485175
 30
0.0
 10
128.1003634662388
 20
-123.6384480485175
 30
0.0
 10
128.1003634662388
 20
-123.6384480485175
 30
0.0
 10
128.1003634662388
 20
-123.9684881960044
 30
0.0
 10
128.1003634662388
 20
-123.9684881960044
 30
0.0
 10
128.1003634662388
 20
-123.9684881960044
 30
0.0
 10
127.9522243603731
 20
-123.9684881960044
 30
0.0
 10
127.9522243603731
 20
-123.9684881960044
 30
0.0
 10
127.937754959335
 20
-123.6363809912263
 30
0.0
 10
127.7744574333342
 20
-123.5898722021755
 30
0.0
 10
127.6604247727724
 20
-123.5602443810023
 30
0.0
 10
127.6604247727724
 20
-123.5602443810023
 30
0.0
 10
127.6604247727724
 20
-123.4141723324277
 30
0.0
 10
127.6604247727724
 20
-123.4141723324277
 30
0.0
 10
127.6604247727724
 20
-123.4141723324277
 30
0.0
 10
129.2048610788099
 20
-123.4141723324277
 30
0.0
 10
129.2048610788099
 20
-123.4141723324277
 30
0.0
 10
129.2048610788099
 20
-123.4141723324277
 30
0.0
 10
129.2048610788099
 20
-123.6384480485175
 30
0.0
 10
129.2048610788099
 20
-123.6384480485175
 30
0.0
  0
HATCH
  5
183
330
17E
100
AcDbEntity
  8
_U+30EC_U+30A4_U+30E4_U+30FC 1
 62
   179
420
  2234388
100
AcDbHatch
 10
0.0
 20
0.0
 30
0.0
210
0.0
220
0.0
230
1.0
  2
SOLID
 70
     1
 71
     0
 91
        1
 92
        1
 93
        1
 72
     4
 94
        3
 73
     0
 74
     1
 95
       26
 96
       22
 40
0.0
 40
0.0
 40
0.0
 40
0.0
 40
1.0
 40
1.0
 40
1.0
 40
2.0
 40
2.0
 40
2.0
 40
3.0
 40
3.0
 40
3.0
 40
4.0
 40
4.0
 40
4.0
 40
5.0
 40
5.0
 40
5.0
 40
6.0
 40
6.0
 40
6.0
 40
7.0
 40
7.0
 40
7.0
 40
7.0
 10
129.2048610788099
 20
-123.6384480485175
 10
129.2048610788099
 20
-123.6384480485175
 10
128.1003634662388
 20
-123.6384480485175
 10
128.1003634662388
 20
-123.6384480485175
 10
128.1003634662388
 20
-123.6384480485175
 10
128.1003634662388
 20
-123.9684881960044
 10
128.1003634662388
 20
-123.9684881960044
 10
128.1003634662388
 20
-123.9684881960044
 10
127.9522243603731
 20
-123.9684881960044
 10
127.9522243603731
 20
-123.9684881960044
 10
127.937754959335
 20
-123.6363809912263
 10
127.7744574333342
 20
-123.5898722021755
 10
127.6604247727724
 20
-123.5602443810023
 10
127.6604247727724
 20
-123.5602443810023
 10
127.6604247727724
 20
-123.4141723324277
 10
127.6604247727724
 20
-123.4141723324277
 10
127.6604247727724
 20
-123.4141723324277
 10
129.2048610788099
 20
-123.4141723324277
 10
129.2048610788099
 20
-123.4141723324277
 10
129.2048610788099
 20
-123.4141723324277
 10
129.2048610788099
 20
-123.6384480485175
 10
129.2048610788099
 20
-123.6384480485175
 97
        0
 97
        0
 75
     2
 76
     1
 98
        0
  0
SPLINE
  5
184
330
17E
100
AcDbEntity
  8
_U+30EC_U+30A4_U+30E4_U+30FC 1
370
     0
100
AcDbSpline
210
0.0
220
0.0
230
1.0
 70
    11
 71
     3
 72
    62
 73
    58
 74
     0
 42
0.0000000001
 43
0.0000000001
 12
1.0
 22
0.0
 32
0.0
 13
1.0
 23
0.0
 33
0.0
 40
0.0
 40
0.0
 40
0.0
 40
0.0
 40
1.0
 40
1.0
 40
1.0
 40
2.0
 40
2.0
 40
2.0
 40
3.0
 40
3.0
 40
3.0
 40
4.0
 40
4.0
 40
4.0
 40
5.0
 40
5.0
 40
5.0
 40
6.0
 40
6.0
 40
6.0
 40
7.0
 40
7.0
 40
7.0
 40
8.0
 40
8.0
 40
8.0
 40
9.0
 40
9.0
 40
9.0
 40
10.0
 40
10.0
 40
10.0
 40
11.0
 40
11.0
 40
11.0
 40
12.0
 40
12.0
 40
12.0
 40
13.0
 40
13.0
 40
13.0
 40
14.0
 40
14.0
 40
14.0
 40
15.0
 40
15.0
 40
15.0
 40
16.0
 40
16.0
 40
16.0
 40
17.0
 40
17.0
 40
17.0
 40
18.0
 40
18.0
 40
18.0
 40
19.0
 40
19.0
 40
19.0
 40
19.0
 10
129.2555039824431
 20
-122.421468068353
 30
0.0
 10
129.2555039824431
 20
-122.5167249585201
 30
0.0
 10
129.2344888999831
 20
-122.7346272479622
 30
0.0
 10
129.048109234231
 20
-122.8593397045282
 30
0.0
 10
128.9361436309604
 20
-122.9334092574611
 30
0.0
 10
128.8365803714367
 20
-122.9377156268177
 30
0.0
 10
128.7521755320481
 20
-122.9418497414
 30
0.0
 10
128.7521755320481
 20
-122.9418497414
 30
0.0
 10
128.7521755320481
 20
-122.7218803946668
 30
0.0
 10
128.7521755320481
 20
-122.7218803946668
 30
0.0
 10
128.8259005754324
 20
-122.7198133373756
 30
0.0
 10
129.0608560875264
 20
-122.7091335413713
 30
0.0
 10
129.0608560875264
 20
-122.4256021829353
 30
0.0
 10
129.0608560875264
 20
-122.2881428730738
 30
0.0
 10
128.9912651587244
 20
-122.1358696526258
 30
0.0
 10
128.7625108185038
 20
-122.1358696526258
 30
0.0
 10
128.6460665911024
 20
-122.1358696526258
 30
0.0
 10
128.5974907447604
 20
-122.1739379577378
 30
0.0
 10
128.5657958662961
 20
-122.2056328362021
 30
0.0
 10
128.4917263133632
 20
-122.2797023891349
 30
0.0
 10
128.4793239696163
 20
-122.3961466165364
 30
0.0
 10
128.4793239696163
 20
-122.4510958895261
 30
0.0
 10
128.4793239696163
 20
-122.470043914695
 30
0.0
 10
128.4813910269074
 20
-122.5060451625159
 30
0.0
 10
128.4855251414897
 20
-122.5336059263979
 30
0.0
 10
128.4855251414897
 20
-122.5336059263979
 30
0.0
 10
128.2908772465731
 20
-122.5336059263979
 30
0.0
 10
128.2908772465731
 20
-122.5336059263979
 30
0.0
 10
128.2970784184466
 20
-122.4955376212858
 30
0.0
 10
128.2994899852862
 20
-122.4531629468173
 30
0.0
 10
128.2994899852862
 20
-122.4467895201696
 30
0.0
 10
128.2994899852862
 20
-122.3813327059498
 30
0.0
 10
128.2781303932777
 20
-122.1823784416766
 30
0.0
 10
128.0411078238925
 20
-122.1823784416766
 30
0.0
 10
127.8633408968536
 20
-122.1823784416766
 30
0.0
 10
127.8082193690896
 20
-122.3136365796646
 30
0.0
 10
127.8082193690896
 20
-122.4235351256441
 30
0.0
 10
127.8082193690896
 20
-122.687946204137
 30
0.0
 10
128.0411078238925
 20
-122.6963866880759
 30
0.0
 10
128.1131103195342
 20
-122.7006930574325
 30
0.0
 10
128.1131103195342
 20
-122.7006930574325
 30
0.0
 10
128.1131103195342
 20
-122.9037814362879
 30
0.0
 10
128.1131103195342
 20
-122.9037814362879
 30
0.0
 10
127.9880533534197
 20
-122.8953409523491
 30
0.0
 10
127.6118489264304
 20
-122.8677801884671
 30
0.0
 10
127.6118489264304
 20
-122.410960527123
 30
0.0
 10
127.6118489264304
 20
-122.1866848110332
 30
0.0
 10
127.7386284402876
 20
-121.9455281270657
 30
0.0
 10
128.0349066520191
 20
-121.9455281270657
 30
0.0
 10
128.2209418082225
 20
-121.9455281270657
 30
0.0
 10
128.3036240998686
 20
-122.0406127624586
 30
0.0
 10
128.364946799506
 20
-122.1401760219823
 30
0.0
 10
128.392507563388
 20
-122.0786810675706
 30
0.0
 10
128.4727782881943
 20
-121.8967800259494
 30
0.0
 10
128.7501084747569
 20
-121.8967800259494
 30
0.0
 10
129.0884168514085
 20
-121.8967800259494
 30
0.0
 10
129.2555039824431
 20
-122.1443101365646
 30
0.0
 10
129.2555039824431
 20
-122.421468068353
 30
0.0
  0
HATCH
  5
185
330
17E
100
AcDbEntity
  8
_U+30EC_U+30A4_U+30E4_U+30FC 1
 62
   179
420
  2234388
100
AcDbHatch
 10
0.0
 20
0.0
 30
0.0
210
0.0
220
0.0
230
1.0
  2
SOLID
 70
     1
 71
     0
 91
        1
 92
        1
 93
        1
 72
     4
 94
        3
 73
     0
 74
     1
 95
       62
 96
       58
 40
0.0
 40
0.0
 40
0.0
 40
0.0
 40
1.0
 40
1.0
 40
1.0
 40
2.0
 40
2.0
 40
2.0
 40
3.0
 40
3.0
 40
3.0
 40
4.0
 40
4.0
 40
4.0
 40
5.0
 40
5.0
 40
5.0
 40
6.0
 40
6.0
 40
6.0
 40
7.0
 40
7.0
 40
7.0
 40
8.0
 40
8.0
 40
8.0
 40
9.0
 40
9.0
 40
9.0
 40
10.0
 40
10.0
 40
10.0
 40
11.0
 40
11.0
 40
11.0
 40
12.0
 40
12.0
 40
12.0
 40
13.0
 40
13.0
 40
13.0
 40
14.0
 40
14.0
 40
14.0
 40
15.0
 40
15.0
 40
15.0
 40
16.0
 40
16.0
 40
16.0
 40
17.0
 40
17.0
 40
17.0
 40
18.0
 40
18.0
 40
18.0
 40
19.0
 40
19.0
 40
19.0
 40
19.0
 10
129.2555039824431
 20
-122.421468068353
 10
129.2555039824431
 20
-122.5167249585201
 10
129.2344888999831
 20
-122.7346272479622
 10
129.048109234231
 20
-122.8593397045282
 10
128.9361436309604
 20
-122.9334092574611
 10
128.8365803714367
 20
-122.9377156268177
 10
128.7521755320481
 20
-122.9418497414
 10
128.7521755320481
 20
-122.9418497414
 10
128.7521755320481
 20
-122.7218803946668
 10
128.7521755320481
 20
-122.7218803946668
 10
128.8259005754324
 20
-122.7198133373756
 10
129.0608560875264
 20
-122.7091335413713
 10
129.0608560875264
 20
-122.4256021829353
 10
129.0608560875264
 20
-122.2881428730738
 10
128.9912651587244
 20
-122.1358696526258
 10
128.7625108185038
 20
-122.1358696526258
 10
128.6460665911024
 20
-122.1358696526258
 10
128.5974907447604
 20
-122.1739379577378
 10
128.5657958662961
 20
-122.2056328362021
 10
128.4917263133632
 20
-122.2797023891349
 10
128.4793239696163
 20
-122.3961466165364
 10
128.4793239696163
 20
-122.4510958895261
 10
128.4793239696163
 20
-122.470043914695
 10
128.4813910269074
 20
-122.5060451625159
 10
128.4855251414897
 20
-122.5336059263979
 10
128.4855251414897
 20
-122.5336059263979
 10
128.2908772465731
 20
-122.5336059263979
 10
128.2908772465731
 20
-122.5336059263979
 10
128.2970784184466
 20
-122.4955376212858
 10
128.2994899852862
 20
-122.4531629468173
 10
128.2994899852862
 20
-122.4467895201696
 10
128.2994899852862
 20
-122.3813327059498
 10
128.2781303932777
 20
-122.1823784416766
 10
128.0411078238925
 20
-122.1823784416766
 10
127.8633408968536
 20
-122.1823784416766
 10
127.8082193690896
 20
-122.3136365796646
 10
127.8082193690896
 20
-122.4235351256441
 10
127.8082193690896
 20
-122.687946204137
 10
128.0411078238925
 20
-122.6963866880759
 10
128.1131103195342
 20
-122.7006930574325
 10
128.1131103195342
 20
-122.7006930574325
 10
128.1131103195342
 20
-122.9037814362879
 10
128.1131103195342
 20
-122.9037814362879
 10
127.9880533534197
 20
-122.8953409523491
 10
127.6118489264304
 20
-122.8677801884671
 10
127.6118489264304
 20
-122.410960527123
 10
127.6118489264304
 20
-122.1866848110332
 10
127.7386284402876
 20
-121.9455281270657
 10
128.0349066520191
 20
-121.9455281270657
 10
128.2209418082225
 20
-121.9455281270657
 10
128.3036240998686
 20
-122.0406127624586
 10
128.364946799506
 20
-122.1401760219823
 10
128.392507563388
 20
-122.0786810675706
 10
128.4727782881943
 20
-121.8967800259494
 10
128.7501084747569
 20
-121.8967800259494
 10
129.0884168514085
 20
-121.8967800259494
 10
129.2555039824431
 20
-122.1443101365646
 10
129.2555039824431
 20
-122.421468068353
 97
        0
 97
        0
 75
     2
 76
     1
 98
        0
  0
ENDBLK
  5
181
330
17E
100
AcDbEntity
  8
0
100
AcDbBlockEnd
  0
ENDSEC
  0
SECTION
  2
ENTITIES
  0
INSERT
  5
42
330
1F
100
AcDbEntity
  8
_U+30EC_U+30A4_U+30E4_U+30FC 1
100
AcDbBlockReference
  2
block 2
 10
0.0
 20
0.0
 30
0.0
  0
SPLINE
  5
52
330
1F
100
AcDbEntity
  8
_U+30EC_U+30A4_U+30E4_U+30FC 1
 62
     7
420
 16777215
370
    35
100
AcDbSpline
210
0.0
220
0.0
230
1.0
 70
    11
 71
     3
 72
   296
 73
   292
 74
     0
 42
0.0000000001
 43
0.0000000001
 12
1.0
 22
0.0
 32
0.0
 13
1.0
 23
0.0
 33
0.0
 40
0.0
 40
0.0
 40
0.0
 40
0.0
 40
1.0
 40
1.0
 40
1.0
 40
2.0
 40
2.0
 40
2.0
 40
3.0
 40
3.0
 40
3.0
 40
4.0
 40
4.0
 40
4.0
 40
5.0
 40
5.0
 40
5.0
 40
6.0
 40
6.0
 40
6.0
 40
7.0
 40
7.0
 40
7.0
 40
8.0
 40
8.0
 40
8.0
 40
9.0
 40
9.0
 40
9.0
 40
10.0
 40
10.0
 40
10.0
 40
11.0
 40
11.0
 40
11.0
 40
12.0
 40
12.0
 40
12.0
 40
13.0
 40
13.0
 40
13.0
 40
14.0
 40
14.0
 40
14.0
 40
15.0
 40
15.0
 40
15.0
 40
16.0
 40
16.0
 40
16.0
 40
17.0
 40
17.0
 40
17.0
 40
18.0
 40
18.0
 40
18.0
 40
19.0
 40
19.0
 40
19.0
 40
20.0
 40
20.0
 40
20.0
 40
21.0
 40
21.0
 40
21.0
 40
22.0
 40
22.0
 40
22.0
 40
23.0
 40
23.0
 40
23.0
 40
24.0
 40
24.0
 40
24.0
 40
25.0
 40
25.0
 40
25.0
 40
26.0
 40
26.0
 40
26.0
 40
27.0
 40
27.0
 40
27.0
 40
28.0
 40
28.0
 40
28.0
 40
29.0
 40
29.0
 40
29.0
 40
30.0
 40
30.0
 40
30.0
 40
31.0
 40
31.0
 40
31.0
 40
32.0
 40
32.0
 40
32.0
 40
33.0
 40
33.0
 40
33.0
 40
34.0
 40
34.0
 40
34.0
 40
35.0
 40
35.0
 40
35.0
 40
36.0
 40
36.0
 40
36.0
 40
37.0
 40
37.0
 40
37.0
 40
38.0
 40
38.0
 40
38.0
 40
39.0
 40
39.0
 40
39.0
 40
40.0
 40
40.0
 40
40.0
 40
41.0
 40
41.0
 40
41.0
 40
42.0
 40
42.0
 40
42.0
 40
43.0
 40
43.0
 40
43.0
 40
44.0
 40
44.0
 40
44.0
 40
45.0
 40
45.0
 40
45.0
 40
46.0
 40
46.0
 40
46.0
 40
47.0
 40
47.0
 40
47.0
 40
48.0
 40
48.0
 40
48.0
 40
49.0
 40
49.0
 40
49.0
 40
50.0
 40
50.0
 40
50.0
 40
51.0
 40
51.0
 40
51.0
 40
52.0
 40
52.0
 40
52.0
 40
53.0
 40
53.0
 40
53.0
 40
54.0
 40
54.0
 40
54.0
 40
55.0
 40
55.0
 40
55.0
 40
56.0
 40
56.0
 40
56.0
 40
57.0
 40
57.0
 40
57.0
 40
58.0
 40
58.0
 40
58.0
 40
59.0
 40
59.0
 40
59.0
 40
60.0
 40
60.0
 40
60.0
 40
61.0
 40
61.0
 40
61.0
 40
62.0
 40
62.0
 40
62.0
 40
63.0
 40
63.0
 40
63.0
 40
64.0
 40
64.0
 40
64.0
 40
65.0
 40
65.0
 40
65.0
 40
66.0
 40
66.0
 40
66.0
 40
67.0
 40
67.0
 40
67.0
 40
68.0
 40
68.0
 40
68.0
 40
69.0
 40
69.0
 40
69.0
 40
70.0
 40
70.0
 40
70.0
 40
71.0
 40
71.0
 40
71.0
 40
72.0
 40
72.0
 40
72.0
 40
73.0
 40
73.0
 40
73.0
 40
74.0
 40
74.0
 40
74.0
 40
75.0
 40
75.0
 40
75.0
 40
76.0
 40
76.0
 40
76.0
 40
77.0
 40
77.0
 40
77.0
 40
78.0
 40
78.0
 40
78.0
 40
79.0
 40
79.0
 40
79.0
 40
80.0
 40
80.0
 40
80.0
 40
81.0
 40
81.0
 40
81.0
 40
82.0
 40
82.0
 40
82.0
 40
83.0
 40
83.0
 40
83.0
 40
84.0
 40
84.0
 40
84.0
 40
85.0
 40
85.0
 40
85.0
 40
86.0
 40
86.0
 40
86.0
 40
87.0
 40
87.0
 40
87.0
 40
88.0
 40
88.0
 40
88.0
 40
89.0
 40
89.0
 40
89.0
 40
90.0
 40
90.0
 40
90.0
 40
91.0
 40
91.0
 40
91.0
 40
92.0
 40
92.0
 40
92.0
 40
93.0
 40
93.0
 40
93.0
 40
94.0
 40
94.0
 40
94.0
 40
95.0
 40
95.0
 40
95.0
 40
96.0
 40
96.0
 40
96.0
 40
97.0
 40
97.0
 40
97.0
 40
97.0
 10
64.99930553930574
 20
-122.2671333027665
 30
0.0
 10
64.99930553930574
 20
-122.2671333027665
 30
0.0
 10
56.91487215909175
 20
-122.2671333027665
 30
0.0
 10
56.91487215909175
 20
-122.2671333027665
 30
0.0
 10
56.91487215909175
 20
-122.2671333027665
 30
0.0
 10
56.38570550592525
 20
-122.5020833027078
 30
0.0
 10
56.88541665244531
 20
-123.0019694136941
 30
0.0
 10
56.88541665244531
 20
-123.0019694136941
 30
0.0
 10
64.76417751439485
 20
-123.0019694136941
 30
0.0
 10
64.76417751439485
 20
-123.0019694136941
 30
0.0
 10
64.76417751439485
 20
-123.0019694136941
 30
0.0
 10
65.49901360675872
 20
-122.8552138581752
 30
0.0
 10
65.49901360675872
 20
-123.6782444135248
 30
0.0
 10
65.49901360675872
 20
-123.6782444135248
 30
0.0
 10
65.49901360675872
 20
-126.5593805239158
 30
0.0
 10
65.49901360675872
 20
-126.5593805239158
 30
0.0
 10
65.49901360675872
 20
-126.5593805239158
 30
0.0
 10
65.5579274941446
 20
-127.7644694125035
 30
0.0
 10
66.88084412706085
 20
-127.7644694125035
 30
0.0
 10
66.88084412706085
 20
-127.7644694125035
 30
0.0
 10
70.46736109349428
 20
-127.7644694125035
 30
0.0
 10
70.46736109349428
 20
-127.7644694125035
 30
0.0
 10
70.46736109349428
 20
-127.7644694125035
 30
0.0
 10
71.51087775989993
 20
-127.4706055236879
 30
0.0
 10
71.51087775989993
 20
-126.7209527460975
 30
0.0
 10
71.51087775989993
 20
-126.7209527460975
 30
0.0
 10
71.51087775989993
 20
-123.648611080199
 30
0.0
 10
71.51087775989993
 20
-123.648611080199
 30
0.0
 10
71.51087775989993
 20
-123.648611080199
 30
0.0
 10
71.45213845488186
 20
-122.9947374692513
 30
0.0
 10
72.16510232558153
 20
-122.9947374692513
 30
0.0
 10
72.16510232558153
 20
-122.9947374692513
 30
0.0
 10
75.40624998114843
 20
-122.9947374692513
 30
0.0
 10
75.40624998114843
 20
-122.9947374692513
 30
0.0
 10
75.40624998114843
 20
-122.9947374692513
 30
0.0
 10
76.3763888697948
 20
-122.8552138581752
 30
0.0
 10
76.3763888697948
 20
-123.5604166357766
 30
0.0
 10
76.3763888697948
 20
-123.5604166357766
 30
0.0
 10
76.3763888697948
 20
-126.4708333017156
 30
0.0
 10
76.3763888697948
 20
-126.4708333017156
 30
0.0
 10
76.3763888697948
 20
-126.4708333017156
 30
0.0
 10
76.34692999667199
 20
-127.8233833013774
 30
0.0
 10
77.40526330300499
 20
-127.8233833013774
 30
0.0
 10
77.40526330300499
 20
-127.8233833013774
 30
0.0
 10
81.31527775744897
 20
-127.8233833013774
 30
0.0
 10
81.31527775744897
 20
-127.8233833013774
 30
0.0
 10
81.31527775744897
 20
-127.8233833013774
 30
0.0
 10
82.38824928698953
 20
-127.735188856955
 30
0.0
 10
82.38824928698953
 20
-126.7502333016459
 30
0.0
 10
82.38824928698953
 20
-126.7502333016459
 30
0.0
 10
82.38824928698953
 20
-123.7075249690733
 30
0.0
 10
82.38824928698953
 20
-123.7075249690733
 30
0.0
 10
82.38824928698953
 20
-123.7075249690733
 30
0.0
 10
82.19722220167291
 20
-123.0019694136941
 30
0.0
 10
83.04970760344766
 20
-123.0019694136941
 30
0.0
 10
83.04970760344766
 20
-123.0019694136941
 30
0.0
 10
86.57748529122433
 20
-123.0019694136941
 30
0.0
 10
86.57748529122433
 20
-123.0019694136941
 30
0.0
 10
86.57748529122433
 20
-123.0019694136941
 30
0.0
 10
87.31249997817189
 20
-123.0312499692422
 30
0.0
 10
87.31249997817189
 20
-123.7075249690733
 30
0.0
 10
87.31249997817189
 20
-123.7075249690733
 30
0.0
 10
87.31249997817189
 20
-126.8532444127311
 30
0.0
 10
87.31249997817189
 20
-126.8532444127311
 30
0.0
 10
87.31249997817189
 20
-126.8532444127311
 30
0.0
 10
87.22430553374949
 20
-127.8526638569259
 30
0.0
 10
88.28263886681823
 20
-127.8526638569259
 30
0.0
 10
88.28263886681823
 20
-127.8526638569259
 30
0.0
 10
92.30994997692225
 20
-127.8526638569259
 30
0.0
 10
92.30994997692225
 20
-127.8526638569259
 30
0.0
 10
92.30994997692225
 20
-127.8526638569259
 30
0.0
 10
93.25080831002083
 20
-127.6766277458585
 30
0.0
 10
93.25080831002083
 20
-126.9121583016054
 30
0.0
 10
93.25080831002083
 20
-126.9121583016054
 30
0.0
 10
93.25080831002083
 20
-123.8249999690438
 30
0.0
 10
93.25080831002083
 20
-123.8249999690438
 30
0.0
 10
93.25080831002083
 20
-123.8249999690438
 30
0.0
 10
93.07441942117603
 20
-123.0312499692422
 30
0.0
 10
93.80925553210298
 20
-123.0312499692422
 30
0.0
 10
93.80925553210298
 20
-123.0312499692422
 30
0.0
 10
97.57268886449599
 20
-123.0312499692422
 30
0.0
 10
97.57268886449599
 20
-123.0312499692422
 30
0.0
 10
97.57268886449599
 20
-123.0312499692422
 30
0.0
 10
98.19004997545275
 20
-122.9723360803679
 30
0.0
 10
98.19004997545275
 20
-123.9131944134662
 30
0.0
 10
98.19004997545275
 20
-123.9131944134662
 30
0.0
 10
98.19004997545275
 20
-126.7354166349828
 30
0.0
 10
98.19004997545275
 20
-126.7354166349828
 30
0.0
 10
98.19004997545275
 20
-126.7354166349828
 30
0.0
 10
98.13078330880037
 20
-127.881944412474
 30
0.0
 10
99.21874997519532
 20
-127.881944412474
 30
0.0
 10
99.21874997519532
 20
-127.881944412474
 30
0.0
 10
103.1874999742031
 20
-127.881944412474
 30
0.0
 10
103.1874999742031
 20
-127.881944412474
 30
0.0
 10
103.1874999742031
 20
-127.881944412474
 30
0.0
 10
104.1280055295233
 20
-127.6762749680811
 30
0.0
 10
104.1280055295233
 20
-126.5297471905899
 30
0.0
 10
104.1280055295233
 20
-126.5297471905899
 30
0.0
 10
104.1280055295233
 20
-123.8249999690438
 30
0.0
 10
104.1280055295233
 20
-123.8249999690438
 30
0.0
 10
104.1280055295233
 20
-123.8249999690438
 30
0.0
 10
103.9516166406785
 20
-123.0019694136941
 30
0.0
 10
104.6868055293839
 20
-123.0019694136941
 30
0.0
 10
104.6868055293839
 20
-123.0019694136941
 30
0.0
 10
108.5969944172955
 20
-123.0019694136941
 30
0.0
 10
108.5969944172955
 20
-123.0019694136941
 30
0.0
 10
108.5969944172955
 20
-123.0019694136941
 30
0.0
 10
109.2143555282522
 20
-122.9723360803679
 30
0.0
 10
109.2143555282522
 20
-123.7957194134956
 30
0.0
 10
109.2143555282522
 20
-123.7957194134956
 30
0.0
 10
109.2143555282522
 20
-126.7650499683087
 30
0.0
 10
109.2143555282522
 20
-126.7650499683087
 30
0.0
 10
109.2143555282522
 20
-126.7650499683087
 30
0.0
 10
109.2729166393484
 20
-127.8822971902517
 30
0.0
 10
110.1844944168986
 20
-127.8822971902517
 30
0.0
 10
110.1844944168986
 20
-127.8822971902517
 30
0.0
 10
113.9768555270616
 20
-127.8822971902517
 30
0.0
 10
113.9768555270616
 20
-127.8822971902517
 30
0.0
 10
113.9768555270616
 20
-127.8822971902517
 30
0.0
 10
115.0055555268042
 20
-127.8822971902517
 30
0.0
 10
115.0055555268042
 20
-126.6768555238863
 30
0.0
 10
115.0055555268042
 20
-126.6768555238863
 30
0.0
 10
115.0055555268042
 20
-123.5311360802285
 30
0.0
 10
115.0055555268042
 20
-123.5311360802285
 30
0.0
 10
115.0055555268042
 20
-123.5311360802285
 30
0.0
 10
114.8877277490556
 20
-122.6491916360045
 30
0.0
 10
113.7122721937944
 20
-122.6491916360045
 30
0.0
 10
113.7122721937944
 20
-122.6491916360045
 30
0.0
 10
111.5363388610046
 20
-122.7373860804269
 30
0.0
 10
111.5363388610046
 20
-122.7373860804269
 30
0.0
 10
111.5363388610046
 20
-122.7373860804269
 30
0.0
 10
111.0368055277964
 20
-122.6491916360045
 30
0.0
 10
111.0368055277964
 20
-122.2374999694406
 30
0.0
 10
111.0368055277964
 20
-122.2374999694406
 30
0.0
 10
111.1249999722188
 20
-121.7083333029063
 30
0.0
 10
111.5956055276569
 20
-121.7083333029063
 30
0.0
 10
111.5956055276569
 20
-121.7083333029063
 30
0.0
 10
115.8578666377019
 20
-121.7083333029063
 30
0.0
 10
115.8578666377019
 20
-121.7083333029063
 30
0.0
 10
115.8578666377019
 20
-121.7083333029063
 30
0.0
 10
116.7694444152521
 20
-120.3854166365703
 30
0.0
 10
116.7694444152521
 20
-120.3854166365703
 30
0.0
 10
116.7694444152521
 20
-120.3854166365703
 30
0.0
 10
121.1495333030457
 20
-120.3561360810222
 30
0.0
 10
121.1495333030457
 20
-120.3561360810222
 30
0.0
 10
121.1495333030457
 20
-120.3561360810222
 30
0.0
 10
122.2078666361144
 20
-121.0027777475271
 30
0.0
 10
122.2078666361144
 20
-121.0027777475271
 30
0.0
 10
122.2078666361144
 20
-121.0027777475271
 30
0.0
 10
122.3842555249592
 20
-121.2673610807943
 30
0.0
 10
122.6784721915526
 20
-120.973497191979
 30
0.0
 10
122.6784721915526
 20
-120.973497191979
 30
0.0
 10
123.001616635916
 20
-120.8853027475566
 30
0.0
 10
122.5902777471302
 20
-120.4736110809927
 30
0.0
 10
122.5902777471302
 20
-120.4736110809927
 30
0.0
 10
121.3259221918905
 20
-119.7387749700654
 30
0.0
 10
121.3259221918905
 20
-119.7387749700654
 30
0.0
 10
121.3259221918905
 20
-119.7387749700654
 30
0.0
 10
116.4166666375625
 20
-119.7976888589394
 30
0.0
 10
116.4166666375625
 20
-119.7976888589394
 30
0.0
 10
116.4166666375625
 20
-119.7976888589394
 30
0.0
 10
115.6229166377609
 20
-121.0616916364014
 30
0.0
 10
115.6229166377609
 20
-121.0616916364014
 30
0.0
 10
115.6229166377609
 20
-121.0616916364014
 30
0.0
 10
111.4192166388121
 20
-121.0909721919495
 30
0.0
 10
111.4192166388121
 20
-121.0909721919495
 30
0.0
 10
111.4192166388121
 20
-121.0909721919495
 30
0.0
 10
110.507638861262
 20
-121.2380805252462
 30
0.0
 10
110.507638861262
 20
-122.1493055250182
 30
0.0
 10
110.507638861262
 20
-122.1493055250182
 30
0.0
 10
110.3608833057434
 20
-123.3254666358352
 30
0.0
 10
111.5659721943307
 20
-123.3254666358352
 30
0.0
 10
111.5659721943307
 20
-123.3254666358352
 30
0.0
 10
113.5648110827197
 20
-123.3254666358352
 30
0.0
 10
113.5648110827197
 20
-123.3254666358352
 30
0.0
 10
113.5648110827197
 20
-123.3254666358352
 30
0.0
 10
114.3881944158474
 20
-123.0612360803458
 30
0.0
 10
114.3881944158474
 20
-124.0017416356663
 30
0.0
 10
114.3881944158474
 20
-124.0017416356663
 30
0.0
 10
114.3881944158474
 20
-126.5297471905899
 30
0.0
 10
114.3881944158474
 20
-126.5297471905899
 30
0.0
 10
114.3881944158474
 20
-126.5297471905899
 30
0.0
 10
114.3881944158474
 20
-127.2060221904207
 30
0.0
 10
113.8886610826392
 20
-127.2060221904207
 30
0.0
 10
113.8886610826392
 20
-127.2060221904207
 30
0.0
 10
110.507638861262
 20
-127.2060221904207
 30
0.0
 10
110.507638861262
 20
-127.2060221904207
 30
0.0
 10
110.507638861262
 20
-127.2060221904207
 30
0.0
 10
109.860644416979
 20
-127.4116916348139
 30
0.0
 10
109.860644416979
 20
-126.4122721906191
 30
0.0
 10
109.860644416979
 20
-126.4122721906191
 30
0.0
 10
109.860644416979
 20
-123.648611080199
 30
0.0
 10
109.860644416979
 20
-123.648611080199
 30
0.0
 10
109.860644416979
 20
-123.648611080199
 30
0.0
 10
109.9784721947276
 20
-122.4138888582854
 30
0.0
 10
108.6851888617179
 20
-122.4138888582854
 30
0.0
 10
108.6851888617179
 20
-122.4138888582854
 30
0.0
 10
104.5400499738653
 20
-122.3846083027373
 30
0.0
 10
104.5400499738653
 20
-122.3846083027373
 30
0.0
 10
104.5400499738653
 20
-122.3846083027373
 30
0.0
 10
103.4520833074703
 20
-122.6491916360045
 30
0.0
 10
103.4520833074703
 20
-123.4722221913542
 30
0.0
 10
103.4520833074703
 20
-123.4722221913542
 30
0.0
 10
103.4520833074703
 20
-126.382991635071
 30
0.0
 10
103.4520833074703
 20
-126.382991635071
 30
0.0
 10
103.4520833074703
 20
-126.382991635071
 30
0.0
 10
103.7459471962859
 20
-127.2942166348431
 30
0.0
 10
102.8050888631874
 20
-127.2942166348431
 30
0.0
 10
102.8050888631874
 20
-127.2942166348431
 30
0.0
 10
99.36550553071392
 20
-127.2942166348431
 30
0.0
 10
99.36550553071392
 20
-127.2942166348431
 30
0.0
 10
99.36550553071392
 20
-127.2942166348431
 30
0.0
 10
98.80741108640953
 20
-127.2942166348431
 30
0.0
 10
98.80741108640953
 20
-126.4122721906191
 30
0.0
 10
98.80741108640953
 20
-126.4122721906191
 30
0.0
 10
98.80741108640953
 20
-123.2958333025094
 30
0.0
 10
98.80741108640953
 20
-123.2958333025094
 30
0.0
 10
98.80741108640953
 20
-123.2958333025094
 30
0.0
 10
98.83633886417955
 20
-122.3846083027373
 30
0.0
 10
97.4548610867474
 20
-122.3846083027373
 30
0.0
 10
97.4548610867474
 20
-122.3846083027373
 30
0.0
 10
93.69213330991056
 20
-122.3846083027373
 30
0.0
 10
93.69213330991056
 20
-122.3846083027373
 30
0.0
 10
93.69213330991056
 20
-122.3846083027373
 30
0.0
 10
92.51597219909323
 20
-122.4435221916113
 30
0.0
 10
92.51597219909323
 20
-123.7664388579472
 30
0.0
 10
92.51597219909323
 20
-123.7664388579472
 30
0.0
 10
92.51597219909323
 20
-126.3240777461967
 30
0.0
 10
92.51597219909323
 20
-126.3240777461967
 30
0.0
 10
92.51597219909323
 20
-126.3240777461967
 30
0.0
 10
92.6630805323896
 20
-127.2353027459691
 30
0.0
 10
91.92824442146265
 20
-127.2353027459691
 30
0.0
 10
91.92824442146265
 20
-127.2353027459691
 30
0.0
 10
88.54722220008541
 20
-127.2353027459691
 30
0.0
 10
88.54722220008541
 20
-127.2353027459691
 30
0.0
 10
88.54722220008541
 20
-127.2353027459691
 30
0.0
 10
87.95914164467675
 20
-127.2645833015172
 30
0.0
 10
87.95914164467675
 20
-126.4415527461675
 30
0.0
 10
87.95914164467675
 20
-126.4415527461675
 30
0.0
 10
87.95914164467675
 20
-123.5311360802285
 30
0.0
 10
87.95914164467675
 20
-123.5311360802285
 30
0.0
 10
87.95914164467675
 20
-123.5311360802285
 30
0.0
 10
88.07679080852942
 20
-122.3846083027373
 30
0.0
 10
86.48929084902991
 20
-122.3846083027373
 30
0.0
 10
86.48929084902991
 20
-122.3846083027373
 30
0.0
 10
82.84386386817779
 20
-122.3846083027373
 30
0.0
 10
82.84386386817779
 20
-122.3846083027373
 30
0.0
 10
82.84386386817779
 20
-122.3846083027373
 30
0.0
 10
81.63859652833699
 20
-122.4435221916113
 30
0.0
 10
81.63859652833699
 20
-123.4136610802576
 30
0.0
 10
81.63859652833699
 20
-123.4136610802576
 30
0.0
 10
81.63859652833699
 20
-126.3533583017451
 30
0.0
 10
81.63859652833699
 20
-126.3533583017451
 30
0.0
 10
81.63859652833699
 20
-126.3533583017451
 30
0.0
 10
81.72679097053141
 20
-127.0299860793536
 30
0.0
 10
81.19762431736491
 20
-127.1767416348726
 30
0.0
 10
81.19762431736491
 20
-127.1767416348726
 30
0.0
 10
77.75804107178266
 20
-127.1767416348726
 30
0.0
 10
77.75804107178266
 20
-127.1767416348726
 30
0.0
 10
77.75804107178266
 20
-127.1767416348726
 30
0.0
 10
77.02303053629967
 20
-127.1767416348726
 30
0.0
 10
77.02303053629967
 20
-126.2947971906486
 30
0.0
 10
77.02303053629967
 20
-126.2947971906486
 30
0.0
 10
77.02303053629967
 20
-123.4136610802576
 30
0.0
 10
77.02303053629967
 20
-123.4136610802576
 30
0.0
 10
77.02303053629967
 20
-123.4136610802576
 30
0.0
 10
76.93465775945559
 20
-122.2819499694296
 30
0.0
 10
75.89114111941124
 20
-122.2819499694296
 30
0.0
 10
75.89114111941124
 20
-122.2819499694296
 30
0.0
 10
71.79027775983022
 20
-122.2819499694296
 30
0.0
 10
71.79027775983022
 20
-122.2819499694296
 30
0.0
 10
71.79027775983022
 20
-122.2819499694296
 30
0.0
 10
70.73194442676146
 20
-122.1789388583441
 30
0.0
 10
70.73194442676146
 20
-123.5311360802285
 30
0.0
 10
70.73194442676146
 20
-123.5311360802285
 30
0.0
 10
70.73194442676146
 20
-126.0887749684779
 30
0.0
 10
70.73194442676146
 20
-126.0887749684779
 30
0.0
 10
70.73194442676146
 20
-126.0887749684779
 30
0.0
 10
70.99652776002866
 20
-127.1178277459983
 30
0.0
 10
70.29097220464948
 20
-127.1178277459983
 30
0.0
 10
70.29097220464948
 20
-127.1178277459983
 30
0.0
 10
66.85138887217605
 20
-127.1178277459983
 30
0.0
 10
66.85138887217605
 20
-127.1178277459983
 30
0.0
 10
66.85138887217605
 20
-127.1178277459983
 30
0.0
 10
66.17511387234498
 20
-127.1471083015467
 30
0.0
 10
66.17511387234498
 20
-126.3533583017451
 30
0.0
 10
66.17511387234498
 20
-126.3533583017451
 30
0.0
 10
66.17511387234498
 20
-123.3547471913837
 30
0.0
 10
66.17511387234498
 20
-123.3547471913837
 30
0.0
 10
66.17511387234498
 20
-123.3547471913837
 30
0.0
 10
66.38113609451597
 20
-122.3849610805148
 30
0.0
 10
64.99930553930574
 20
-122.2671333027665
 30
0.0
  0
HATCH
  5
53
330
1F
100
AcDbEntity
  8
_U+30EC_U+30A4_U+30E4_U+30FC 1
 62
   253
420
 10066329
100
AcDbHatch
 10
0.0
 20
0.0
 30
0.0
210
0.0
220
0.0
230
1.0
  2
SOLID
 70
     1
 71
     0
 91
        1
 92
        1
 93
        1
 72
     4
 94
        3
 73
     0
 74
     1
 95
      296
 96
      292
 40
0.0
 40
0.0
 40
0.0
 40
0.0
 40
1.0
 40
1.0
 40
1.0
 40
2.0
 40
2.0
 40
2.0
 40
3.0
 40
3.0
 40
3.0
 40
4.0
 40
4.0
 40
4.0
 40
5.0
 40
5.0
 40
5.0
 40
6.0
 40
6.0
 40
6.0
 40
7.0
 40
7.0
 40
7.0
 40
8.0
 40
8.0
 40
8.0
 40
9.0
 40
9.0
 40
9.0
 40
10.0
 40
10.0
 40
10.0
 40
11.0
 40
11.0
 40
11.0
 40
12.0
 40
12.0
 40
12.0
 40
13.0
 40
13.0
 40
13.0
 40
14.0
 40
14.0
 40
14.0
 40
15.0
 40
15.0
 40
15.0
 40
16.0
 40
16.0
 40
16.0
 40
17.0
 40
17.0
 40
17.0
 40
18.0
 40
18.0
 40
18.0
 40
19.0
 40
19.0
 40
19.0
 40
20.0
 40
20.0
 40
20.0
 40
21.0
 40
21.0
 40
21.0
 40
22.0
 40
22.0
 40
22.0
 40
23.0
 40
23.0
 40
23.0
 40
24.0
 40
24.0
 40
24.0
 40
25.0
 40
25.0
 40
25.0
 40
26.0
 40
26.0
 40
26.0
 40
27.0
 40
27.0
 40
27.0
 40
28.0
 40
28.0
 40
28.0
 40
29.0
 40
29.0
 40
29.0
 40
30.0
 40
30.0
 40
30.0
 40
31.0
 40
31.0
 40
31.0
 40
32.0
 40
32.0
 40
32.0
 40
33.0
 40
33.0
 40
33.0
 40
34.0
 40
34.0
 40
34.0
 40
35.0
 40
35.0
 40
35.0
 40
36.0
 40
36.0
 40
36.0
 40
37.0
 40
37.0
 40
37.0
 40
38.0
 40
38.0
 40
38.0
 40
39.0
 40
39.0
 40
39.0
 40
40.0
 40
40.0
 40
40.0
 40
41.0
 40
41.0
 40
41.0
 40
42.0
 40
42.0
 40
42.0
 40
43.0
 40
43.0
 40
43.0
 40
44.0
 40
44.0
 40
44.0
 40
45.0
 40
45.0
 40
45.0
 40
46.0
 40
46.0
 40
46.0
 40
47.0
 40
47.0
 40
47.0
 40
48.0
 40
48.0
 40
48.0
 40
49.0
 40
49.0
 40
49.0
 40
50.0
 40
50.0
 40
50.0
 40
51.0
 40
51.0
 40
51.0
 40
52.0
 40
52.0
 40
52.0
 40
53.0
 40
53.0
 40
53.0
 40
54.0
 40
54.0
 40
54.0
 40
55.0
 40
55.0
 40
55.0
 40
56.0
 40
56.0
 40
56.0
 40
57.0
 40
57.0
 40
57.0
 40
58.0
 40
58.0
 40
58.0
 40
59.0
 40
59.0
 40
59.0
 40
60.0
 40
60.0
 40
60.0
 40
61.0
 40
61.0
 40
61.0
 40
62.0
 40
62.0
 40
62.0
 40
63.0
 40
63.0
 40
63.0
 40
64.0
 40
64.0
 40
64.0
 40
65.0
 40
65.0
 40
65.0
 40
66.0
 40
66.0
 40
66.0
 40
67.0
 40
67.0
 40
67.0
 40
68.0
 40
68.0
 40
68.0
 40
69.0
 40
69.0
 40
69.0
 40
70.0
 40
70.0
 40
70.0
 40
71.0
 40
71.0
 40
71.0
 40
72.0
 40
72.0
 40
72.0
 40
73.0
 40
73.0
 40
73.0
 40
74.0
 40
74.0
 40
74.0
 40
75.0
 40
75.0
 40
75.0
 40
76.0
 40
76.0
 40
76.0
 40
77.0
 40
77.0
 40
77.0
 40
78.0
 40
78.0
 40
78.0
 40
79.0
 40
79.0
 40
79.0
 40
80.0
 40
80.0
 40
80.0
 40
81.0
 40
81.0
 40
81.0
 40
82.0
 40
82.0
 40
82.0
 40
83.0
 40
83.0
 40
83.0
 40
84.0
 40
84.0
 40
84.0
 40
85.0
 40
85.0
 40
85.0
 40
86.0
 40
86.0
 40
86.0
 40
87.0
 40
87.0
 40
87.0
 40
88.0
 40
88.0
 40
88.0
 40
89.0
 40
89.0
 40
89.0
 40
90.0
 40
90.0
 40
90.0
 40
91.0
 40
91.0
 40
91.0
 40
92.0
 40
92.0
 40
92.0
 40
93.0
 40
93.0
 40
93.0
 40
94.0
 40
94.0
 40
94.0
 40
95.0
 40
95.0
 40
95.0
 40
96.0
 40
96.0
 40
96.0
 40
97.0
 40
97.0
 40
97.0
 40
97.0
 10
64.99930553930574
 20
-122.2671333027665
 10
64.99930553930574
 20
-122.2671333027665
 10
56.91487215909175
 20
-122.2671333027665
 10
56.91487215909175
 20
-122.2671333027665
 10
56.91487215909175
 20
-122.2671333027665
 10
56.38570550592525
 20
-122.5020833027078
 10
56.88541665244531
 20
-123.0019694136941
 10
56.88541665244531
 20
-123.0019694136941
 10
64.76417751439485
 20
-123.0019694136941
 10
64.76417751439485
 20
-123.0019694136941
 10
64.76417751439485
 20
-123.0019694136941
 10
65.49901360675872
 20
-122.8552138581752
 10
65.49901360675872
 20
-123.6782444135248
 10
65.49901360675872
 20
-123.6782444135248
 10
65.49901360675872
 20
-126.5593805239158
 10
65.49901360675872
 20
-126.5593805239158
 10
65.49901360675872
 20
-126.5593805239158
 10
65.5579274941446
 20
-127.7644694125035
 10
66.88084412706085
 20
-127.7644694125035
 10
66.88084412706085
 20
-127.7644694125035
 10
70.46736109349428
 20
-127.7644694125035
 10
70.46736109349428
 20
-127.7644694125035
 10
70.46736109349428
 20
-127.7644694125035
 10
71.51087775989993
 20
-127.4706055236879
 10
71.51087775989993
 20
-126.7209527460975
 10
71.51087775989993
 20
-126.7209527460975
 10
71.51087775989993
 20
-123.648611080199
 10
71.51087775989993
 20
-123.648611080199
 10
71.51087775989993
 20
-123.648611080199
 10
71.45213845488186
 20
-122.9947374692513
 10
72.16510232558153
 20
-122.9947374692513
 10
72.16510232558153
 20
-122.9947374692513
 10
75.40624998114843
 20
-122.9947374692513
 10
75.40624998114843
 20
-122.9947374692513
 10
75.40624998114843
 20
-122.9947374692513
 10
76.3763888697948
 20
-122.8552138581752
 10
76.3763888697948
 20
-123.5604166357766
 10
76.3763888697948
 20
-123.5604166357766
 10
76.3763888697948
 20
-126.4708333017156
 10
76.3763888697948
 20
-126.4708333017156
 10
76.3763888697948
 20
-126.4708333017156
 10
76.34692999667199
 20
-127.8233833013774
 10
77.40526330300499
 20
-127.8233833013774
 10
77.40526330300499
 20
-127.8233833013774
 10
81.31527775744897
 20
-127.8233833013774
 10
81.31527775744897
 20
-127.8233833013774
 10
81.31527775744897
 20
-127.8233833013774
 10
82.38824928698953
 20
-127.735188856955
 10
82.38824928698953
 20
-126.7502333016459
 10
82.38824928698953
 20
-126.7502333016459
 10
82.38824928698953
 20
-123.7075249690733
 10
82.38824928698953
 20
-123.7075249690733
 10
82.38824928698953
 20
-123.7075249690733
 10
82.19722220167291
 20
-123.0019694136941
 10
83.04970760344766
 20
-123.0019694136941
 10
83.04970760344766
 20
-123.0019694136941
 10
86.57748529122433
 20
-123.0019694136941
 10
86.57748529122433
 20
-123.0019694136941
 10
86.57748529122433
 20
-123.0019694136941
 10
87.31249997817189
 20
-123.0312499692422
 10
87.31249997817189
 20
-123.7075249690733
 10
87.31249997817189
 20
-123.7075249690733
 10
87.31249997817189
 20
-126.8532444127311
 10
87.31249997817189
 20
-126.8532444127311
 10
87.31249997817189
 20
-126.8532444127311
 10
87.22430553374949
 20
-127.8526638569259
 10
88.28263886681823
 20
-127.8526638569259
 10
88.28263886681823
 20
-127.8526638569259
 10
92.30994997692225
 20
-127.8526638569259
 10
92.30994997692225
 20
-127.8526638569259
 10
92.30994997692225
 20
-127.8526638569259
 10
93.25080831002083
 20
-127.6766277458585
 10
93.25080831002083
 20
-126.9121583016054
 10
93.25080831002083
 20
-126.9121583016054
 10
93.25080831002083
 20
-123.8249999690438
 10
93.25080831002083
 20
-123.8249999690438
 10
93.25080831002083
 20
-123.8249999690438
 10
93.07441942117603
 20
-123.0312499692422
 10
93.80925553210298
 20
-123.0312499692422
 10
93.80925553210298
 20
-123.0312499692422
 10
97.57268886449599
 20
-123.0312499692422
 10
97.57268886449599
 20
-123.0312499692422
 10
97.57268886449599
 20
-123.0312499692422
 10
98.19004997545275
 20
-122.9723360803679
 10
98.19004997545275
 20
-123.9131944134662
 10
98.19004997545275
 20
-123.9131944134662
 10
98.19004997545275
 20
-126.7354166349828
 10
98.19004997545275
 20
-126.7354166349828
 10
98.19004997545275
 20
-126.7354166349828
 10
98.13078330880037
 20
-127.881944412474
 10
99.21874997519532
 20
-127.881944412474
 10
99.21874997519532
 20
-127.881944412474
 10
103.1874999742031
 20
-127.881944412474
 10
103.1874999742031
 20
-127.881944412474
 10
103.1874999742031
 20
-127.881944412474
 10
104.1280055295233
 20
-127.6762749680811
 10
104.1280055295233
 20
-126.5297471905899
 10
104.1280055295233
 20
-126.5297471905899
 10
104.1280055295233
 20
-123.8249999690438
 10
104.1280055295233
 20
-123.8249999690438
 10
104.1280055295233
 20
-123.8249999690438
 10
103.9516166406785
 20
-123.0019694136941
 10
104.6868055293839
 20
-123.0019694136941
 10
104.6868055293839
 20
-123.0019694136941
 10
108.5969944172955
 20
-123.0019694136941
 10
108.5969944172955
 20
-123.0019694136941
 10
108.5969944172955
 20
-123.0019694136941
 10
109.2143555282522
 20
-122.9723360803679
 10
109.2143555282522
 20
-123.7957194134956
 10
109.2143555282522
 20
-123.7957194134956
 10
109.2143555282522
 20
-126.7650499683087
 10
109.2143555282522
 20
-126.7650499683087
 10
109.2143555282522
 20
-126.7650499683087
 10
109.2729166393484
 20
-127.8822971902517
 10
110.1844944168986
 20
-127.8822971902517
 10
110.1844944168986
 20
-127.8822971902517
 10
113.9768555270616
 20
-127.8822971902517
 10
113.9768555270616
 20
-127.8822971902517
 10
113.9768555270616
 20
-127.8822971902517
 10
115.0055555268042
 20
-127.8822971902517
 10
115.0055555268042
 20
-126.6768555238863
 10
115.0055555268042
 20
-126.6768555238863
 10
115.0055555268042
 20
-123.5311360802285
 10
115.0055555268042
 20
-123.5311360802285
 10
115.0055555268042
 20
-123.5311360802285
 10
114.8877277490556
 20
-122.6491916360045
 10
113.7122721937944
 20
-122.6491916360045
 10
113.7122721937944
 20
-122.6491916360045
 10
111.5363388610046
 20
-122.7373860804269
 10
111.5363388610046
 20
-122.7373860804269
 10
111.5363388610046
 20
-122.7373860804269
 10
111.0368055277964
 20
-122.6491916360045
 10
111.0368055277964
 20
-122.2374999694406
 10
111.0368055277964
 20
-122.2374999694406
 10
111.1249999722188
 20
-121.7083333029063
 10
111.5956055276569
 20
-121.7083333029063
 10
111.5956055276569
 20
-121.7083333029063
 10
115.8578666377019
 20
-121.7083333029063
 10
115.8578666377019
 20
-121.7083333029063
 10
115.8578666377019
 20
-121.7083333029063
 10
116.7694444152521
 20
-120.3854166365703
 10
116.7694444152521
 20
-120.3854166365703
 10
116.7694444152521
 20
-120.3854166365703
 10
121.1495333030457
 20
-120.3561360810222
 10
121.1495333030457
 20
-120.3561360810222
 10
121.1495333030457
 20
-120.3561360810222
 10
122.2078666361144
 20
-121.0027777475271
 10
122.2078666361144
 20
-121.0027777475271
 10
122.2078666361144
 20
-121.0027777475271
 10
122.3842555249592
 20
-121.2673610807943
 10
122.6784721915526
 20
-120.973497191979
 10
122.6784721915526
 20
-120.973497191979
 10
123.001616635916
 20
-120.8853027475566
 10
122.5902777471302
 20
-120.4736110809927
 10
122.5902777471302
 20
-120.4736110809927
 10
121.3259221918905
 20
-119.7387749700654
 10
121.3259221918905
 20
-119.7387749700654
 10
121.3259221918905
 20
-119.7387749700654
 10
116.4166666375625
 20
-119.7976888589394
 10
116.4166666375625
 20
-119.7976888589394
 10
116.4166666375625
 20
-119.7976888589394
 10
115.6229166377609
 20
-121.0616916364014
 10
115.6229166377609
 20
-121.0616916364014
 10
115.6229166377609
 20
-121.0616916364014
 10
111.4192166388121
 20
-121.0909721919495
 10
111.4192166388121
 20
-121.0909721919495
 10
111.4192166388121
 20
-121.0909721919495
 10
110.507638861262
 20
-121.2380805252462
 10
110.507638861262
 20
-122.1493055250182
 10
110.507638861262
 20
-122.1493055250182
 10
110.3608833057434
 20
-123.3254666358352
 10
111.5659721943307
 20
-123.3254666358352
 10
111.5659721943307
 20
-123.3254666358352
 10
113.5648110827197
 20
-123.3254666358352
 10
113.5648110827197
 20
-123.3254666358352
 10
113.5648110827197
 20
-123.3254666358352
 10
114.3881944158474
 20
-123.0612360803458
 10
114.3881944158474
 20
-124.0017416356663
 10
114.3881944158474
 20
-124.0017416356663
 10
114.3881944158474
 20
-126.5297471905899
 10
114.3881944158474
 20
-126.5297471905899
 10
114.3881944158474
 20
-126.5297471905899
 10
114.3881944158474
 20
-127.2060221904207
 10
113.8886610826392
 20
-127.2060221904207
 10
113.8886610826392
 20
-127.2060221904207
 10
110.507638861262
 20
-127.2060221904207
 10
110.507638861262
 20
-127.2060221904207
 10
110.507638861262
 20
-127.2060221904207
 10
109.860644416979
 20
-127.4116916348139
 10
109.860644416979
 20
-126.4122721906191
 10
109.860644416979
 20
-126.4122721906191
 10
109.860644416979
 20
-123.648611080199
 10
109.860644416979
 20
-123.648611080199
 10
109.860644416979
 20
-123.648611080199
 10
109.9784721947276
 20
-122.4138888582854
 10
108.6851888617179
 20
-122.4138888582854
 10
108.6851888617179
 20
-122.4138888582854
 10
104.5400499738653
 20
-122.3846083027373
 10
104.5400499738653
 20
-122.3846083027373
 10
104.5400499738653
 20
-122.3846083027373
 10
103.4520833074703
 20
-122.6491916360045
 10
103.4520833074703
 20
-123.4722221913542
 10
103.4520833074703
 20
-123.4722221913542
 10
103.4520833074703
 20
-126.382991635071
 10
103.4520833074703
 20
-126.382991635071
 10
103.4520833074703
 20
-126.382991635071
 10
103.7459471962859
 20
-127.2942166348431
 10
102.8050888631874
 20
-127.2942166348431
 10
102.8050888631874
 20
-127.2942166348431
 10
99.36550553071392
 20
-127.2942166348431
 10
99.36550553071392
 20
-127.2942166348431
 10
99.36550553071392
 20
-127.2942166348431
 10
98.80741108640953
 20
-127.2942166348431
 10
98.80741108640953
 20
-126.4122721906191
 10
98.80741108640953
 20
-126.4122721906191
 10
98.80741108640953
 20
-123.2958333025094
 10
98.80741108640953
 20
-123.2958333025094
 10
98.80741108640953
 20
-123.2958333025094
 10
98.83633886417955
 20
-122.3846083027373
 10
97.4548610867474
 20
-122.3846083027373
 10
97.4548610867474
 20
-122.3846083027373
 10
93.69213330991056
 20
-122.3846083027373
 10
93.69213330991056
 20
-122.3846083027373
 10
93.69213330991056
 20
-122.3846083027373
 10
92.51597219909323
 20
-122.4435221916113
 10
92.51597219909323
 20
-123.7664388579472
 10
92.51597219909323
 20
-123.7664388579472
 10
92.51597219909323
 20
-126.3240777461967
 10
92.51597219909323
 20
-126.3240777461967
 10
92.51597219909323
 20
-126.3240777461967
 10
92.6630805323896
 20
-127.2353027459691
 10
91.92824442146265
 20
-127.2353027459691
 10
91.92824442146265
 20
-127.2353027459691
 10
88.54722220008541
 20
-127.2353027459691
 10
88.54722220008541
 20
-127.2353027459691
 10
88.54722220008541
 20
-127.2353027459691
 10
87.95914164467675
 20
-127.2645833015172
 10
87.95914164467675
 20
-126.4415527461675
 10
87.95914164467675
 20
-126.4415527461675
 10
87.95914164467675
 20
-123.5311360802285
 10
87.95914164467675
 20
-123.5311360802285
 10
87.95914164467675
 20
-123.5311360802285
 10
88.07679080852942
 20
-122.3846083027373
 10
86.48929084902991
 20
-122.3846083027373
 10
86.48929084902991
 20
-122.3846083027373
 10
82.84386386817779
 20
-122.3846083027373
 10
82.84386386817779
 20
-122.3846083027373
 10
82.84386386817779
 20
-122.3846083027373
 10
81.63859652833699
 20
-122.4435221916113
 10
81.63859652833699
 20
-123.4136610802576
 10
81.63859652833699
 20
-123.4136610802576
 10
81.63859652833699
 20
-126.3533583017451
 10
81.63859652833699
 20
-126.3533583017451
 10
81.63859652833699
 20
-126.3533583017451
 10
81.72679097053141
 20
-127.0299860793536
 10
81.19762431736491
 20
-127.1767416348726
 10
81.19762431736491
 20
-127.1767416348726
 10
77.75804107178266
 20
-127.1767416348726
 10
77.75804107178266
 20
-127.1767416348726
 10
77.75804107178266
 20
-127.1767416348726
 10
77.02303053629967
 20
-127.1767416348726
 10
77.02303053629967
 20
-126.2947971906486
 10
77.02303053629967
 20
-126.2947971906486
 10
77.02303053629967
 20
-123.4136610802576
 10
77.02303053629967
 20
-123.4136610802576
 10
77.02303053629967
 20
-123.4136610802576
 10
76.93465775945559
 20
-122.2819499694296
 10
75.89114111941124
 20
-122.2819499694296
 10
75.89114111941124
 20
-122.2819499694296
 10
71.79027775983022
 20
-122.2819499694296
 10
71.79027775983022
 20
-122.2819499694296
 10
71.79027775983022
 20
-122.2819499694296
 10
70.73194442676146
 20
-122.1789388583441
 10
70.73194442676146
 20
-123.5311360802285
 10
70.73194442676146
 20
-123.5311360802285
 10
70.73194442676146
 20
-126.0887749684779
 10
70.73194442676146
 20
-126.0887749684779
 10
70.73194442676146
 20
-126.0887749684779
 10
70.99652776002866
 20
-127.1178277459983
 10
70.29097220464948
 20
-127.1178277459983
 10
70.29097220464948
 20
-127.1178277459983
 10
66.85138887217605
 20
-127.1178277459983
 10
66.85138887217605
 20
-127.1178277459983
 10
66.85138887217605
 20
-127.1178277459983
 10
66.17511387234498
 20
-127.1471083015467
 10
66.17511387234498
 20
-126.3533583017451
 10
66.17511387234498
 20
-126.3533583017451
 10
66.17511387234498
 20
-123.3547471913837
 10
66.17511387234498
 20
-123.3547471913837
 10
66.17511387234498
 20
-123.3547471913837
 10
66.38113609451597
 20
-122.3849610805148
 10
64.99930553930574
 20
-122.2671333027665
 97
        0
 97
        0
 75
     2
 76
     1
 98
        0
  0
SPLINE
  5
54
330
1F
100
AcDbEntity
  8
_U+30EC_U+30A4_U+30E4_U+30FC 1
  6
AI-Linetype-1
 62
     7
420
 16777215
370
    35
100
AcDbSpline
210
0.0
220
0.0
230
1.0
 70
     8
 71
     3
 72
    35
 73
    31
 74
     0
 42
0.0000000001
 43
0.0000000001
 12
1.0
 22
0.0
 32
0.0
 13
1.0
 23
0.0
 33
0.0
 40
0.0
 40
0.0
 40
0.0
 40
0.0
 40
1.0
 40
1.0
 40
1.0
 40
2.0
 40
2.0
 40
2.0
 40
3.0
 40
3.0
 40
3.0
 40
4.0
 40
4.0
 40
4.0
 40
5.0
 40
5.0
 40
5.0
 40
6.0
 40
6.0
 40
6.0
 40
7.0
 40
7.0
 40
7.0
 40
8.0
 40
8.0
 40
8.0
 40
9.0
 40
9.0
 40
9.0
 40
10.0
 40
10.0
 40
10.0
 40
10.0
 10
131.4386499671405
 20
-126.9414388571535
 30
0.0
 10
131.4386499671405
 20
-126.9414388571535
 30
0.0
 10
120.3854166365703
 20
-126.9414388571535
 30
0.0
 10
120.3854166365703
 20
-126.9414388571535
 30
0.0
 10
120.3854166365703
 20
-126.9414388571535
 30
0.0
 10
120.3854166365703
 20
-123.3547471913837
 30
0.0
 10
120.3854166365703
 20
-123.3547471913837
 30
0.0
 10
120.3854166365703
 20
-123.3547471913837
 30
0.0
 10
120.1497610810738
 20
-121.8847221917511
 30
0.0
 10
118.7386499703155
 20
-121.8847221917511
 30
0.0
 10
118.7386499703155
 20
-121.8847221917511
 30
0.0
 10
111.8598360831463
 20
-121.8847221917511
 30
0.0
 10
111.8598360831463
 20
-121.8847221917511
 30
0.0
 10
111.8598360831463
 20
-121.8847221917511
 30
0.0
 10
110.8604166389516
 20
-122.1196721916924
 30
0.0
 10
111.7423610831755
 20
-122.5317166360337
 30
0.0
 10
111.7423610831755
 20
-122.5317166360337
 30
0.0
 10
118.092361081588
 20
-122.5317166360337
 30
0.0
 10
118.092361081588
 20
-122.5317166360337
 30
0.0
 10
118.092361081588
 20
-122.5317166360337
 30
0.0
 10
119.7384221922874
 20
-122.4728027471597
 30
0.0
 10
119.7384221922874
 20
-123.5311360802285
 30
0.0
 10
119.7384221922874
 20
-123.5311360802285
 30
0.0
 10
119.7384221922874
 20
-126.5297471905899
 30
0.0
 10
119.7384221922874
 20
-126.5297471905899
 30
0.0
 10
119.7384221922874
 20
-126.5297471905899
 30
0.0
 10
119.6798610811911
 20
-127.5880805236587
 30
0.0
 10
121.0317055252978
 20
-127.5880805236587
 30
0.0
 10
121.0317055252978
 20
-127.5880805236587
 30
0.0
 10
131.3215277449474
 20
-127.5880805236587
 30
0.0
 10
131.3215277449474
 20
-127.5880805236587
 30
0.0
  0
POLYLINE
  5
56
330
1F
100
AcDbEntity
  8
_U+30EC_U+30A4_U+30E4_U+30FC 1
 62
     7
420
 16777215
370
     9
100
AcDb2dPolyline
 66
     1
 10
0.0
 20
0.0
 30
0.0
  0
VERTEX
  5
57
330
56
100
AcDbEntity
  8
_U+30EC_U+30A4_U+30E4_U+30FC 1
 62
     7
420
 16777215
370
     9
100
AcDbVertex
100
AcDb2dVertex
 10
54.29867222583658
 20
-122.2669569138776
 30
0.0
  0
VERTEX
  5
58
330
56
100
AcDbEntity
  8
_U+30EC_U+30A4_U+30E4_U+30FC 1
 62
     7
420
 16777215
370
     9
100
AcDbVertex
100
AcDb2dVertex
 10
56.00347220822135
 20
-122.2669569138776
 30
0.0
  0
SEQEND
  5
59
330
56
100
AcDbEntity
  8
_U+30EC_U+30A4_U+30E4_U+30FC 1
 62
     7
420
 16777215
370
     9
  0
POLYLINE
  5
5A
330
1F
100
AcDbEntity
  8
_U+30EC_U+30A4_U+30E4_U+30FC 1
 62
     7
420
 16777215
370
     9
100
AcDb2dPolyline
 66
     1
 10
0.0
 20
0.0
 30
0.0
  0
VERTEX
  5
5B
330
5A
100
AcDbEntity
  8
_U+30EC_U+30A4_U+30E4_U+30FC 1
 62
     7
420
 16777215
370
     9
100
AcDbVertex
100
AcDb2dVertex
 10
55.23935554174566
 20
-122.2669569138776
 30
0.0
  0
VERTEX
  5
5C
330
5A
100
AcDbEntity
  8
_U+30EC_U+30A4_U+30E4_U+30FC 1
 62
     7
420
 16777215
370
     9
100
AcDbVertex
100
AcDb2dVertex
 10
55.23935554174566
 20
-127.9332735791277
 30
0.0
  0
SEQEND
  5
5D
330
5A
100
AcDbEntity
  8
_U+30EC_U+30A4_U+30E4_U+30FC 1
 62
     7
420
 16777215
370
     9
  0
POLYLINE
  5
5E
330
1F
100
AcDbEntity
  8
_U+30EC_U+30A4_U+30E4_U+30FC 1
 62
     7
420
 16777215
370
     9
100
AcDb2dPolyline
 66
     1
 10
0.0
 20
0.0
 30
0.0
  0
VERTEX
  5
5F
330
5E
100
AcDbEntity
  8
_U+30EC_U+30A4_U+30E4_U+30FC 1
 62
     7
420
 16777215
370
     9
100
AcDbVertex
100
AcDb2dVertex
 10
54.18102220867691
 20
-127.9408583013483
 30
0.0
  0
VERTEX
  5
60
330
5E
100
AcDbEntity
  8
_U+30EC_U+30A4_U+30E4_U+30FC 1
 62
     7
420
 16777215
370
     9
100
AcDbVertex
100
AcDb2dVertex
 10
65.23443028017547
 20
-127.9408583013483
 30
0.0
  0
SEQEND
  5
61
330
5E
100
AcDbEntity
  8
_U+30EC_U+30A4_U+30E4_U+30FC 1
 62
     7
420
 16777215
370
     9
  0
POLYLINE
  5
62
330
1F
100
AcDbEntity
  8
_U+30EC_U+30A4_U+30E4_U+30FC 1
 62
     7
420
 16777215
370
     9
100
AcDb2dPolyline
 66
     1
 10
0.0
 20
0.0
 30
0.0
  0
VERTEX
  5
63
330
62
100
AcDbEntity
  8
_U+30EC_U+30A4_U+30E4_U+30FC 1
 62
     7
420
 16777215
370
     9
100
AcDbVertex
100
AcDb2dVertex
 10
56.47372498588144
 20
-128.5878527456309
 30
0.0
  0
VERTEX
  5
64
330
62
100
AcDbEntity
  8
_U+30EC_U+30A4_U+30E4_U+30FC 1
 62
     7
420
 16777215
370
     9
100
AcDbVertex
100
AcDb2dVertex
 10
56.47372498588144
 20
-132.2331055224975
 30
0.0
  0
SEQEND
  5
65
330
62
100
AcDbEntity
  8
_U+30EC_U+30A4_U+30E4_U+30FC 1
 62
     7
420
 16777215
370
     9
  0
POLYLINE
  5
66
330
1F
100
AcDbEntity
  8
_U+30EC_U+30A4_U+30E4_U+30FC 1
 62
     7
420
 16777215
370
     9
100
AcDb2dPolyline
 66
     1
 10
0.0
 20
0.0
 30
0.0
  0
VERTEX
  5
67
330
66
100
AcDbEntity
  8
_U+30EC_U+30A4_U+30E4_U+30FC 1
 62
     7
420
 16777215
370
     9
100
AcDbVertex
100
AcDb2dVertex
 10
56.47372498588144
 20
-131.057297189458
 30
0.0
  0
VERTEX
  5
68
330
66
100
AcDbEntity
  8
_U+30EC_U+30A4_U+30E4_U+30FC 1
 62
     7
420
 16777215
370
     9
100
AcDbVertex
100
AcDb2dVertex
 10
59.64872498508769
 20
-131.057297189458
 30
0.0
  0
SEQEND
  5
69
330
66
100
AcDbEntity
  8
_U+30EC_U+30A4_U+30E4_U+30FC 1
 62
     7
420
 16777215
370
     9
  0
POLYLINE
  5
6A
330
1F
100
AcDbEntity
  8
_U+30EC_U+30A4_U+30E4_U+30FC 1
 62
     7
420
 16777215
370
     9
100
AcDb2dPolyline
 66
     1
 10
0.0
 20
0.0
 30
0.0
  0
VERTEX
  5
6B
330
6A
100
AcDbEntity
  8
_U+30EC_U+30A4_U+30E4_U+30FC 1
 62
     7
420
 16777215
370
     9
100
AcDbVertex
100
AcDb2dVertex
 10
62.47094720660436
 20
-131.057297189458
 30
0.0
  0
VERTEX
  5
6C
330
6A
100
AcDbEntity
  8
_U+30EC_U+30A4_U+30E4_U+30FC 1
 62
     7
420
 16777215
370
     9
100
AcDbVertex
100
AcDb2dVertex
 10
66.88066942772414
 20
-131.057297189458
 30
0.0
  0
SEQEND
  5
6D
330
6A
100
AcDbEntity
  8
_U+30EC_U+30A4_U+30E4_U+30FC 1
 62
     7
420
 16777215
370
     9
  0
POLYLINE
  5
6E
330
1F
100
AcDbEntity
  8
_U+30EC_U+30A4_U+30E4_U+30FC 1
 62
     7
420
 16777215
370
     9
100
AcDb2dPolyline
 66
     1
 10
0.0
 20
0.0
 30
0.0
  0
VERTEX
  5
6F
330
6E
100
AcDbEntity
  8
_U+30EC_U+30A4_U+30E4_U+30FC 1
 62
     7
420
 16777215
370
     9
100
AcDbVertex
100
AcDb2dVertex
 10
65.58720804895314
 20
-128.5878527456309
 30
0.0
  0
VERTEX
  5
70
330
6E
100
AcDbEntity
  8
_U+30EC_U+30A4_U+30E4_U+30FC 1
 62
     7
420
 16777215
370
     9
100
AcDbVertex
100
AcDb2dVertex
 10
65.58720804895314
 20
-136.1725749659569
 30
0.0
  0
SEQEND
  5
71
330
6E
100
AcDbEntity
  8
_U+30EC_U+30A4_U+30E4_U+30FC 1
 62
     7
420
 16777215
370
     9
  0
POLYLINE
  5
72
330
1F
100
AcDbEntity
  8
_U+30EC_U+30A4_U+30E4_U+30FC 1
 62
     7
420
 16777215
370
     9
100
AcDb2dPolyline
 66
     1
 10
0.0
 20
0.0
 30
0.0
  0
VERTEX
  5
73
330
72
100
AcDbEntity
  8
_U+30EC_U+30A4_U+30E4_U+30FC 1
 62
     7
420
 16777215
370
     9
100
AcDbVertex
100
AcDb2dVertex
 10
65.64594720581061
 20
-135.1728027439844
 30
0.0
  0
VERTEX
  5
74
330
72
100
AcDbEntity
  8
_U+30EC_U+30A4_U+30E4_U+30FC 1
 62
     7
420
 16777215
370
     9
100
AcDbVertex
100
AcDb2dVertex
 10
90.48749997737814
 20
-135.1728027439844
 30
0.0
  0
SEQEND
  5
75
330
72
100
AcDbEntity
  8
_U+30EC_U+30A4_U+30E4_U+30FC 1
 62
     7
420
 16777215
370
     9
  0
POLYLINE
  5
76
330
1F
100
AcDbEntity
  8
_U+30EC_U+30A4_U+30E4_U+30FC 1
 62
     7
420
 16777215
370
     9
100
AcDb2dPolyline
 66
     1
 10
0.0
 20
0.0
 30
0.0
  0
VERTEX
  5
77
330
76
100
AcDbEntity
  8
_U+30EC_U+30A4_U+30E4_U+30FC 1
 62
     7
420
 16777215
370
     9
100
AcDbVertex
100
AcDb2dVertex
 10
69.70289164924081
 20
-131.057297189458
 30
0.0
  0
VERTEX
  5
78
330
76
100
AcDbEntity
  8
_U+30EC_U+30A4_U+30E4_U+30FC 1
 62
     7
420
 16777215
370
     9
100
AcDbVertex
100
AcDb2dVertex
 10
72.46637454011766
 20
-131.057297189458
 30
0.0
  0
SEQEND
  5
79
330
76
100
AcDbEntity
  8
_U+30EC_U+30A4_U+30E4_U+30FC 1
 62
     7
420
 16777215
370
     9
  0
POLYLINE
  5
7A
330
1F
100
AcDbEntity
  8
_U+30EC_U+30A4_U+30E4_U+30FC 1
 62
     7
420
 16777215
370
     9
100
AcDb2dPolyline
 66
     1
 10
0.0
 20
0.0
 30
0.0
  0
VERTEX
  5
7B
330
7A
100
AcDbEntity
  8
_U+30EC_U+30A4_U+30E4_U+30FC 1
 62
     7
420
 16777215
370
     9
100
AcDbVertex
100
AcDb2dVertex
 10
71.05526346500699
 20
-128.5289388567566
 30
0.0
  0
VERTEX
  5
7C
330
7A
100
AcDbEntity
  8
_U+30EC_U+30A4_U+30E4_U+30FC 1
 62
     7
420
 16777215
370
     9
100
AcDbVertex
100
AcDb2dVertex
 10
71.05526346500699
 20
-132.2920194113715
 30
0.0
  0
SEQEND
  5
7D
330
7A
100
AcDbEntity
  8
_U+30EC_U+30A4_U+30E4_U+30FC 1
 62
     7
420
 16777215
370
     9
  0
POLYLINE
  5
7E
330
1F
100
AcDbEntity
  8
_U+30EC_U+30A4_U+30E4_U+30FC 1
 62
     7
420
 16777215
370
     9
100
AcDb2dPolyline
 66
     1
 10
0.0
 20
0.0
 30
0.0
  0
VERTEX
  5
7F
330
7E
100
AcDbEntity
  8
_U+30EC_U+30A4_U+30E4_U+30FC 1
 62
     7
420
 16777215
370
     9
100
AcDbVertex
100
AcDb2dVertex
 10
75.34733609227415
 20
-131.057297189458
 30
0.0
  0
VERTEX
  5
80
330
7E
100
AcDbEntity
  8
_U+30EC_U+30A4_U+30E4_U+30FC 1
 62
     7
420
 16777215
370
     9
100
AcDbVertex
100
AcDb2dVertex
 10
78.11081884056033
 20
-131.057297189458
 30
0.0
  0
SEQEND
  5
81
330
7E
100
AcDbEntity
  8
_U+30EC_U+30A4_U+30E4_U+30FC 1
 62
     7
420
 16777215
370
     9
  0
POLYLINE
  5
82
330
1F
100
AcDbEntity
  8
_U+30EC_U+30A4_U+30E4_U+30FC 1
 62
     7
420
 16777215
370
     9
100
AcDb2dPolyline
 66
     1
 10
0.0
 20
0.0
 30
0.0
  0
VERTEX
  5
83
330
82
100
AcDbEntity
  8
_U+30EC_U+30A4_U+30E4_U+30FC 1
 62
     7
420
 16777215
370
     9
100
AcDbVertex
100
AcDb2dVertex
 10
76.69970776544966
 20
-128.5289388567566
 30
0.0
  0
VERTEX
  5
84
330
82
100
AcDbEntity
  8
_U+30EC_U+30A4_U+30E4_U+30FC 1
 62
     7
420
 16777215
370
     9
100
AcDbVertex
100
AcDb2dVertex
 10
76.69970776544966
 20
-132.2920194113715
 30
0.0
  0
SEQEND
  5
85
330
82
100
AcDbEntity
  8
_U+30EC_U+30A4_U+30E4_U+30FC 1
 62
     7
420
 16777215
370
     9
  0
POLYLINE
  5
86
330
1F
100
AcDbEntity
  8
_U+30EC_U+30A4_U+30E4_U+30FC 1
 62
     7
420
 16777215
370
     9
100
AcDb2dPolyline
 66
     1
 10
0.0
 20
0.0
 30
0.0
  0
VERTEX
  5
87
330
86
100
AcDbEntity
  8
_U+30EC_U+30A4_U+30E4_U+30FC 1
 62
     7
420
 16777215
370
     9
100
AcDbVertex
100
AcDb2dVertex
 10
80.75647775758873
 20
-131.057297189458
 30
0.0
  0
VERTEX
  5
88
330
86
100
AcDbEntity
  8
_U+30EC_U+30A4_U+30E4_U+30FC 1
 62
     7
420
 16777215
370
     9
100
AcDbVertex
100
AcDb2dVertex
 10
83.5199603692283
 20
-131.057297189458
 30
0.0
  0
SEQEND
  5
89
330
86
100
AcDbEntity
  8
_U+30EC_U+30A4_U+30E4_U+30FC 1
 62
     7
420
 16777215
370
     9
  0
POLYLINE
  5
8A
330
1F
100
AcDbEntity
  8
_U+30EC_U+30A4_U+30E4_U+30FC 1
 62
     7
420
 16777215
370
     9
100
AcDb2dPolyline
 66
     1
 10
0.0
 20
0.0
 30
0.0
  0
VERTEX
  5
8B
330
8A
100
AcDbEntity
  8
_U+30EC_U+30A4_U+30E4_U+30FC 1
 62
     7
420
 16777215
370
     9
100
AcDbVertex
100
AcDb2dVertex
 10
82.10884929411763
 20
-128.5289388567566
 30
0.0
  0
VERTEX
  5
8C
330
8A
100
AcDbEntity
  8
_U+30EC_U+30A4_U+30E4_U+30FC 1
 62
     7
420
 16777215
370
     9
100
AcDbVertex
100
AcDb2dVertex
 10
82.10884929411763
 20
-132.2920194113715
 30
0.0
  0
SEQEND
  5
8D
330
8A
100
AcDbEntity
  8
_U+30EC_U+30A4_U+30E4_U+30FC 1
 62
     7
420
 16777215
370
     9
  0
POLYLINE
  5
8E
330
1F
100
AcDbEntity
  8
_U+30EC_U+30A4_U+30E4_U+30FC 1
 62
     7
420
 16777215
370
     9
100
AcDb2dPolyline
 66
     1
 10
0.0
 20
0.0
 30
0.0
  0
VERTEX
  5
8F
330
8E
100
AcDbEntity
  8
_U+30EC_U+30A4_U+30E4_U+30FC 1
 62
     7
420
 16777215
370
     9
100
AcDbVertex
100
AcDb2dVertex
 10
86.40092220062205
 20
-131.057297189458
 30
0.0
  0
VERTEX
  5
90
330
8E
100
AcDbEntity
  8
_U+30EC_U+30A4_U+30E4_U+30FC 1
 62
     7
420
 16777215
370
     9
100
AcDbVertex
100
AcDb2dVertex
 10
89.16440466967097
 20
-131.057297189458
 30
0.0
  0
SEQEND
  5
91
330
8E
100
AcDbEntity
  8
_U+30EC_U+30A4_U+30E4_U+30FC 1
 62
     7
420
 16777215
370
     9
  0
POLYLINE
  5
92
330
1F
100
AcDbEntity
  8
_U+30EC_U+30A4_U+30E4_U+30FC 1
 62
     7
420
 16777215
370
     9
100
AcDb2dPolyline
 66
     1
 10
0.0
 20
0.0
 30
0.0
  0
VERTEX
  5
93
330
92
100
AcDbEntity
  8
_U+30EC_U+30A4_U+30E4_U+30FC 1
 62
     7
420
 16777215
370
     9
100
AcDbVertex
100
AcDb2dVertex
 10
87.7532935945603
 20
-128.5289388567566
 30
0.0
  0
VERTEX
  5
94
330
92
100
AcDbEntity
  8
_U+30EC_U+30A4_U+30E4_U+30FC 1
 62
     7
420
 16777215
370
     9
100
AcDbVertex
100
AcDb2dVertex
 10
87.7532935945603
 20
-132.2920194113715
 30
0.0
  0
SEQEND
  5
95
330
92
100
AcDbEntity
  8
_U+30EC_U+30A4_U+30E4_U+30FC 1
 62
     7
420
 16777215
370
     9
  0
POLYLINE
  5
96
330
1F
100
AcDbEntity
  8
_U+30EC_U+30A4_U+30E4_U+30FC 1
 62
     7
420
 16777215
370
     9
100
AcDb2dPolyline
 66
     1
 10
0.0
 20
0.0
 30
0.0
  0
VERTEX
  5
97
330
96
100
AcDbEntity
  8
_U+30EC_U+30A4_U+30E4_U+30FC 1
 62
     7
420
 16777215
370
     9
100
AcDbVertex
100
AcDb2dVertex
 10
91.39837219937276
 20
-131.057297189458
 30
0.0
  0
VERTEX
  5
98
330
96
100
AcDbEntity
  8
_U+30EC_U+30A4_U+30E4_U+30FC 1
 62
     7
420
 16777215
370
     9
100
AcDbVertex
100
AcDb2dVertex
 10
94.16203330979256
 20
-131.057297189458
 30
0.0
  0
SEQEND
  5
99
330
96
100
AcDbEntity
  8
_U+30EC_U+30A4_U+30E4_U+30FC 1
 62
     7
420
 16777215
370
     9
  0
POLYLINE
  5
9A
330
1F
100
AcDbEntity
  8
_U+30EC_U+30A4_U+30E4_U+30FC 1
 62
     7
420
 16777215
370
     9
100
AcDb2dPolyline
 66
     1
 10
0.0
 20
0.0
 30
0.0
  0
VERTEX
  5
9B
330
9A
100
AcDbEntity
  8
_U+30EC_U+30A4_U+30E4_U+30FC 1
 62
     7
420
 16777215
370
     9
100
AcDbVertex
100
AcDb2dVertex
 10
92.75092219903424
 20
-128.5289388567566
 30
0.0
  0
VERTEX
  5
9C
330
9A
100
AcDbEntity
  8
_U+30EC_U+30A4_U+30E4_U+30FC 1
 62
     7
420
 16777215
370
     9
100
AcDbVertex
100
AcDb2dVertex
 10
92.75092219903424
 20
-132.2920194113715
 30
0.0
  0
SEQEND
  5
9D
330
9A
100
AcDbEntity
  8
_U+30EC_U+30A4_U+30E4_U+30FC 1
 62
     7
420
 16777215
370
     9
  0
POLYLINE
  5
9E
330
1F
100
AcDbEntity
  8
_U+30EC_U+30A4_U+30E4_U+30FC 1
 62
     7
420
 16777215
370
     9
100
AcDb2dPolyline
 66
     1
 10
0.0
 20
0.0
 30
0.0
  0
VERTEX
  5
9F
330
9E
100
AcDbEntity
  8
_U+30EC_U+30A4_U+30E4_U+30FC 1
 62
     7
420
 16777215
370
     9
100
AcDbVertex
100
AcDb2dVertex
 10
97.27811942012485
 20
-131.057297189458
 30
0.0
  0
VERTEX
  5
A0
330
9E
100
AcDbEntity
  8
_U+30EC_U+30A4_U+30E4_U+30FC 1
 62
     7
420
 16777215
370
     9
100
AcDbVertex
100
AcDb2dVertex
 10
100.0414277527675
 20
-131.057297189458
 30
0.0
  0
SEQEND
  5
A1
330
9E
100
AcDbEntity
  8
_U+30EC_U+30A4_U+30E4_U+30FC 1
 62
     7
420
 16777215
370
     9
  0
POLYLINE
  5
A2
330
1F
100
AcDbEntity
  8
_U+30EC_U+30A4_U+30E4_U+30FC 1
 62
     7
420
 16777215
370
     9
100
AcDb2dPolyline
 66
     1
 10
0.0
 20
0.0
 30
0.0
  0
VERTEX
  5
A3
330
A2
100
AcDbEntity
  8
_U+30EC_U+30A4_U+30E4_U+30FC 1
 62
     7
420
 16777215
370
     9
100
AcDbVertex
100
AcDb2dVertex
 10
98.6303166420092
 20
-128.5289388567566
 30
0.0
  0
VERTEX
  5
A4
330
A2
100
AcDbEntity
  8
_U+30EC_U+30A4_U+30E4_U+30FC 1
 62
     7
420
 16777215
370
     9
100
AcDbVertex
100
AcDb2dVertex
 10
98.6303166420092
 20
-132.2920194113715
 30
0.0
  0
SEQEND
  5
A5
330
A2
100
AcDbEntity
  8
_U+30EC_U+30A4_U+30E4_U+30FC 1
 62
     7
420
 16777215
370
     9
  0
POLYLINE
  5
A6
330
1F
100
AcDbEntity
  8
_U+30EC_U+30A4_U+30E4_U+30FC 1
 62
     7
420
 16777215
370
     9
100
AcDb2dPolyline
 66
     1
 10
0.0
 20
0.0
 30
0.0
  0
VERTEX
  5
A7
330
A6
100
AcDbEntity
  8
_U+30EC_U+30A4_U+30E4_U+30FC 1
 62
     7
420
 16777215
370
     9
100
AcDbVertex
100
AcDb2dVertex
 10
102.6286999743426
 20
-131.057297189458
 30
0.0
  0
VERTEX
  5
A8
330
A6
100
AcDbEntity
  8
_U+30EC_U+30A4_U+30E4_U+30FC 1
 62
     7
420
 16777215
370
     9
100
AcDbVertex
100
AcDb2dVertex
 10
105.3920083069853
 20
-131.057297189458
 30
0.0
  0
SEQEND
  5
A9
330
A6
100
AcDbEntity
  8
_U+30EC_U+30A4_U+30E4_U+30FC 1
 62
     7
420
 16777215
370
     9
  0
POLYLINE
  5
AA
330
1F
100
AcDbEntity
  8
_U+30EC_U+30A4_U+30E4_U+30FC 1
 62
     7
420
 16777215
370
     9
100
AcDb2dPolyline
 66
     1
 10
0.0
 20
0.0
 30
0.0
  0
VERTEX
  5
AB
330
AA
100
AcDbEntity
  8
_U+30EC_U+30A4_U+30E4_U+30FC 1
 62
     7
420
 16777215
370
     9
100
AcDbVertex
100
AcDb2dVertex
 10
103.9808971962269
 20
-128.5289388567566
 30
0.0
  0
VERTEX
  5
AC
330
AA
100
AcDbEntity
  8
_U+30EC_U+30A4_U+30E4_U+30FC 1
 62
     7
420
 16777215
370
     9
100
AcDbVertex
100
AcDb2dVertex
 10
103.9808971962269
 20
-132.2920194113715
 30
0.0
  0
SEQEND
  5
AD
330
AA
100
AcDbEntity
  8
_U+30EC_U+30A4_U+30E4_U+30FC 1
 62
     7
420
 16777215
370
     9
  0
POLYLINE
  5
AE
330
1F
100
AcDbEntity
  8
_U+30EC_U+30A4_U+30E4_U+30FC 1
 62
     7
420
 16777215
370
     9
100
AcDb2dPolyline
 66
     1
 10
0.0
 20
0.0
 30
0.0
  0
VERTEX
  5
AF
330
AE
100
AcDbEntity
  8
_U+30EC_U+30A4_U+30E4_U+30FC 1
 62
     7
420
 16777215
370
     9
100
AcDbVertex
100
AcDb2dVertex
 10
108.2142305285019
 20
-131.057297189458
 30
0.0
  0
VERTEX
  5
B0
330
AE
100
AcDbEntity
  8
_U+30EC_U+30A4_U+30E4_U+30FC 1
 62
     7
420
 16777215
370
     9
100
AcDbVertex
100
AcDb2dVertex
 10
110.9775388611446
 20
-131.057297189458
 30
0.0
  0
SEQEND
  5
B1
330
AE
100
AcDbEntity
  8
_U+30EC_U+30A4_U+30E4_U+30FC 1
 62
     7
420
 16777215
370
     9
  0
POLYLINE
  5
B2
330
1F
100
AcDbEntity
  8
_U+30EC_U+30A4_U+30E4_U+30FC 1
 62
     7
420
 16777215
370
     9
100
AcDb2dPolyline
 66
     1
 10
0.0
 20
0.0
 30
0.0
  0
VERTEX
  5
B3
330
B2
100
AcDbEntity
  8
_U+30EC_U+30A4_U+30E4_U+30FC 1
 62
     7
420
 16777215
370
     9
100
AcDbVertex
100
AcDb2dVertex
 10
109.5664277503863
 20
-128.5289388567566
 30
0.0
  0
VERTEX
  5
B4
330
B2
100
AcDbEntity
  8
_U+30EC_U+30A4_U+30E4_U+30FC 1
 62
     7
420
 16777215
370
     9
100
AcDbVertex
100
AcDb2dVertex
 10
109.5664277503863
 20
-132.2920194113715
 30
0.0
  0
SEQEND
  5
B5
330
B2
100
AcDbEntity
  8
_U+30EC_U+30A4_U+30E4_U+30FC 1
 62
     7
420
 16777215
370
     9
  0
POLYLINE
  5
B6
330
1F
100
AcDbEntity
  8
_U+30EC_U+30A4_U+30E4_U+30FC 1
 62
     7
420
 16777215
370
     9
100
AcDb2dPolyline
 66
     1
 10
0.0
 20
0.0
 30
0.0
  0
VERTEX
  5
B7
330
B6
100
AcDbEntity
  8
_U+30EC_U+30A4_U+30E4_U+30FC 1
 62
     7
420
 16777215
370
     9
100
AcDbVertex
100
AcDb2dVertex
 10
95.24999997618751
 20
-135.4081055217038
 30
0.0
  0
VERTEX
  5
B8
330
B6
100
AcDbEntity
  8
_U+30EC_U+30A4_U+30E4_U+30FC 1
 62
     7
420
 16777215
370
     9
100
AcDbVertex
100
AcDb2dVertex
 10
119.9151638589099
 20
-135.4081055217038
 30
0.0
  0
SEQEND
  5
B9
330
B6
100
AcDbEntity
  8
_U+30EC_U+30A4_U+30E4_U+30FC 1
 62
     7
420
 16777215
370
     9
  0
POLYLINE
  5
BA
330
1F
100
AcDbEntity
  8
_U+30EC_U+30A4_U+30E4_U+30FC 1
 62
     7
420
 16777215
370
     9
100
AcDb2dPolyline
 66
     1
 10
0.0
 20
0.0
 30
0.0
  0
VERTEX
  5
BB
330
BA
100
AcDbEntity
  8
_U+30EC_U+30A4_U+30E4_U+30FC 1
 62
     7
420
 16777215
370
     9
100
AcDbVertex
100
AcDb2dVertex
 10
114.6824110824408
 20
-128.7053277456014
 30
0.0
  0
VERTEX
  5
BC
330
BA
100
AcDbEntity
  8
_U+30EC_U+30A4_U+30E4_U+30FC 1
 62
     7
420
 16777215
370
     9
100
AcDbVertex
100
AcDb2dVertex
 10
114.6824110824408
 20
-132.2920194113715
 30
0.0
  0
SEQEND
  5
BD
330
BA
100
AcDbEntity
  8
_U+30EC_U+30A4_U+30E4_U+30FC 1
 62
     7
420
 16777215
370
     9
  0
POLYLINE
  5
BE
330
1F
100
AcDbEntity
  8
_U+30EC_U+30A4_U+30E4_U+30FC 1
 62
     7
420
 16777215
370
     9
100
AcDb2dPolyline
 66
     1
 10
0.0
 20
0.0
 30
0.0
  0
VERTEX
  5
BF
330
BE
100
AcDbEntity
  8
_U+30EC_U+30A4_U+30E4_U+30FC 1
 62
     7
420
 16777215
370
     9
100
AcDbVertex
100
AcDb2dVertex
 10
113.5062499716234
 20
-131.1158583005542
 30
0.0
  0
VERTEX
  5
C0
330
BE
100
AcDbEntity
  8
_U+30EC_U+30A4_U+30E4_U+30FC 1
 62
     7
420
 16777215
370
     9
100
AcDbVertex
100
AcDb2dVertex
 10
116.0342555265467
 20
-131.1158583005542
 30
0.0
  0
SEQEND
  5
C1
330
BE
100
AcDbEntity
  8
_U+30EC_U+30A4_U+30E4_U+30FC 1
 62
     7
420
 16777215
370
     9
  0
POLYLINE
  5
C2
330
1F
100
AcDbEntity
  8
_U+30EC_U+30A4_U+30E4_U+30FC 1
 62
     7
420
 16777215
370
     9
100
AcDb2dPolyline
 66
     1
 10
0.0
 20
0.0
 30
0.0
  0
VERTEX
  5
C3
330
C2
100
AcDbEntity
  8
_U+30EC_U+30A4_U+30E4_U+30FC 1
 62
     7
420
 16777215
370
     9
100
AcDbVertex
100
AcDb2dVertex
 10
118.739355525871
 20
-131.1747721894288
 30
0.0
  0
VERTEX
  5
C4
330
C2
100
AcDbEntity
  8
_U+30EC_U+30A4_U+30E4_U+30FC 1
 62
     7
420
 16777215
370
     9
100
AcDbVertex
100
AcDb2dVertex
 10
119.9740777477845
 20
-131.1747721894288
 30
0.0
  0
SEQEND
  5
C5
330
C2
100
AcDbEntity
  8
_U+30EC_U+30A4_U+30E4_U+30FC 1
 62
     7
420
 16777215
370
     9
  0
POLYLINE
  5
C6
330
1F
100
AcDbEntity
  8
_U+30EC_U+30A4_U+30E4_U+30FC 1
 62
     7
420
 16777215
370
     9
100
AcDb2dPolyline
 66
     1
 10
0.0
 20
0.0
 30
0.0
  0
VERTEX
  5
C7
330
C6
100
AcDbEntity
  8
_U+30EC_U+30A4_U+30E4_U+30FC 1
 62
     7
420
 16777215
370
     9
100
AcDbVertex
100
AcDb2dVertex
 10
120.0326388588807
 20
-128.7053277456014
 30
0.0
  0
VERTEX
  5
C8
330
C6
100
AcDbEntity
  8
_U+30EC_U+30A4_U+30E4_U+30FC 1
 62
     7
420
 16777215
370
     9
100
AcDbVertex
100
AcDb2dVertex
 10
120.0326388588807
 20
-136.4664388547725
 30
0.0
  0
SEQEND
  5
C9
330
C6
100
AcDbEntity
  8
_U+30EC_U+30A4_U+30E4_U+30FC 1
 62
     7
420
 16777215
370
     9
  0
POLYLINE
  5
CA
330
1F
100
AcDbEntity
  8
_U+30EC_U+30A4_U+30E4_U+30FC 1
 62
     7
420
 16777215
370
     9
100
AcDb2dPolyline
 66
     1
 10
0.0
 20
0.0
 30
0.0
  0
VERTEX
  5
CB
330
CA
100
AcDbEntity
  8
_U+30EC_U+30A4_U+30E4_U+30FC 1
 62
     7
420
 16777215
370
     9
100
AcDbVertex
100
AcDb2dVertex
 10
123.0312499692422
 20
-119.8269694144878
 30
0.0
  0
VERTEX
  5
CC
330
CA
100
AcDbEntity
  8
_U+30EC_U+30A4_U+30E4_U+30FC 1
 62
     7
420
 16777215
370
     9
100
AcDbVertex
100
AcDb2dVertex
 10
129.1455944121582
 20
-119.8269694144878
 30
0.0
  0
SEQEND
  5
CD
330
CA
100
AcDbEntity
  8
_U+30EC_U+30A4_U+30E4_U+30FC 1
 62
     7
420
 16777215
370
     9
  0
POLYLINE
  5
CE
330
1F
100
AcDbEntity
  8
_U+30EC_U+30A4_U+30E4_U+30FC 1
 62
     7
420
 16777215
370
     9
100
AcDb2dPolyline
 66
     1
 10
0.0
 20
0.0
 30
0.0
  0
VERTEX
  5
CF
330
CE
100
AcDbEntity
  8
_U+30EC_U+30A4_U+30E4_U+30FC 1
 62
     7
420
 16777215
370
     9
100
AcDbVertex
100
AcDb2dVertex
 10
127.9108721902446
 20
-119.8269694144878
 30
0.0
  0
VERTEX
  5
D0
330
CE
100
AcDbEntity
  8
_U+30EC_U+30A4_U+30E4_U+30FC 1
 62
     7
420
 16777215
370
     9
100
AcDbVertex
100
AcDb2dVertex
 10
127.9108721902446
 20
-121.5319444140615
 30
0.0
  0
SEQEND
  5
D1
330
CE
100
AcDbEntity
  8
_U+30EC_U+30A4_U+30E4_U+30FC 1
 62
     7
420
 16777215
370
     9
  0
POLYLINE
  5
D2
330
1F
100
AcDbEntity
  8
_U+30EC_U+30A4_U+30E4_U+30FC 1
 62
     7
420
 16777215
370
     9
100
AcDb2dPolyline
 66
     1
 10
0.0
 20
0.0
 30
0.0
  0
VERTEX
  5
D3
330
D2
100
AcDbEntity
  8
_U+30EC_U+30A4_U+30E4_U+30FC 1
 62
     7
420
 16777215
370
     9
100
AcDbVertex
100
AcDb2dVertex
 10
127.9108721902446
 20
-126.7061360794347
 30
0.0
  0
VERTEX
  5
D4
330
D2
100
AcDbEntity
  8
_U+30EC_U+30A4_U+30E4_U+30FC 1
 62
     7
420
 16777215
370
     9
100
AcDbVertex
100
AcDb2dVertex
 10
127.9108721902446
 20
-124.4130805244524
 30
0.0
  0
SEQEND
  5
D5
330
D2
100
AcDbEntity
  8
_U+30EC_U+30A4_U+30E4_U+30FC 1
 62
     7
420
 16777215
370
     9
  0
POLYLINE
  5
D6
330
1F
100
AcDbEntity
  8
_U+30EC_U+30A4_U+30E4_U+30FC 1
 62
     7
420
 16777215
370
     9
100
AcDb2dPolyline
 66
     1
 10
0.0
 20
0.0
 30
0.0
  0
VERTEX
  5
D7
330
D6
100
AcDbEntity
  8
_U+30EC_U+30A4_U+30E4_U+30FC 1
 62
     7
420
 16777215
370
     9
100
AcDbVertex
100
AcDb2dVertex
 10
123.6775388579696
 20
-122.2964138583149
 30
0.0
  0
VERTEX
  5
D8
330
D6
100
AcDbEntity
  8
_U+30EC_U+30A4_U+30E4_U+30FC 1
 62
     7
420
 16777215
370
     9
100
AcDbVertex
100
AcDb2dVertex
 10
126.6761499683311
 20
-122.2964138583149
 30
0.0
  0
SEQEND
  5
D9
330
D6
100
AcDbEntity
  8
_U+30EC_U+30A4_U+30E4_U+30FC 1
 62
     7
420
 16777215
370
     9
  0
POLYLINE
  5
DA
330
1F
100
AcDbEntity
  8
_U+30EC_U+30A4_U+30E4_U+30FC 1
 62
     7
420
 16777215
370
     9
100
AcDb2dPolyline
 66
     1
 10
0.0
 20
0.0
 30
0.0
  0
VERTEX
  5
DB
330
DA
100
AcDbEntity
  8
_U+30EC_U+30A4_U+30E4_U+30FC 1
 62
     7
420
 16777215
370
     9
100
AcDbVertex
100
AcDb2dVertex
 10
125.2650388575727
 20
-122.3553277471889
 30
0.0
  0
VERTEX
  5
DC
330
DA
100
AcDbEntity
  8
_U+30EC_U+30A4_U+30E4_U+30FC 1
 62
     7
420
 16777215
370
     9
100
AcDbVertex
100
AcDb2dVertex
 10
125.2650388575727
 20
-123.3547471913837
 30
0.0
  0
SEQEND
  5
DD
330
DA
100
AcDbEntity
  8
_U+30EC_U+30A4_U+30E4_U+30FC 1
 62
     7
420
 16777215
370
     9
  0
POLYLINE
  5
DE
330
1F
100
AcDbEntity
  8
_U+30EC_U+30A4_U+30E4_U+30FC 1
 62
     7
420
 16777215
370
     9
100
AcDb2dPolyline
 66
     1
 10
0.0
 20
0.0
 30
0.0
  0
VERTEX
  5
DF
330
DE
100
AcDbEntity
  8
_U+30EC_U+30A4_U+30E4_U+30FC 1
 62
     7
420
 16777215
370
     9
100
AcDbVertex
100
AcDb2dVertex
 10
125.2064777464759
 20
-126.0005805240556
 30
0.0
  0
VERTEX
  5
E0
330
DE
100
AcDbEntity
  8
_U+30EC_U+30A4_U+30E4_U+30FC 1
 62
     7
420
 16777215
370
     9
100
AcDbVertex
100
AcDb2dVertex
 10
125.2064777464759
 20
-126.7650499683087
 30
0.0
  0
SEQEND
  5
E1
330
DE
100
AcDbEntity
  8
_U+30EC_U+30A4_U+30E4_U+30FC 1
 62
     7
420
 16777215
370
     9
  0
SPLINE
  5
E2
330
1F
100
AcDbEntity
  8
_U+30EC_U+30A4_U+30E4_U+30FC 1
370
     0
100
AcDbSpline
210
0.0
220
0.0
230
1.0
 70
    11
 71
     3
 72
    17
 73
    13
 74
     0
 42
0.0000000001
 43
0.0000000001
 12
1.0
 22
0.0
 32
0.0
 13
1.0
 23
0.0
 33
0.0
 40
0.0
 40
0.0
 40
0.0
 40
0.0
 40
1.0
 40
1.0
 40
1.0
 40
2.0
 40
2.0
 40
2.0
 40
3.0
 40
3.0
 40
3.0
 40
4.0
 40
4.0
 40
4.0
 40
4.0
 10
128.0362814557446
 20
-119.8782985811415
 30
0.0
 10
128.0362814557446
 20
-119.9471960811244
 30
0.0
 10
127.9797664571864
 20
-120.0033583033326
 30
0.0
 10
127.9108721902446
 20
-120.0033583033326
 30
0.0
 10
127.8419714607018
 20
-120.0033583033326
 30
0.0
 10
127.7861620176812
 20
-119.9471960811244
 30
0.0
 10
127.7861620176812
 20
-119.8782985811415
 30
0.0
 10
127.7861620176812
 20
-119.8094010811587
 30
0.0
 10
127.8419714607018
 20
-119.7532388589505
 30
0.0
 10
127.9108721902446
 20
-119.7532388589505
 30
0.0
 10
127.9797664571864
 20
-119.7532388589505
 30
0.0
 10
128.0362814557446
 20
-119.8094010811587
 30
0.0
 10
128.0362814557446
 20
-119.8782985811415
 30
0.0
  0
HATCH
  5
E3
330
1F
100
AcDbEntity
  8
_U+30EC_U+30A4_U+30E4_U+30FC 1
 62
     7
420
 16777215
100
AcDbHatch
 10
0.0
 20
0.0
 30
0.0
210
0.0
220
0.0
230
1.0
  2
SOLID
 70
     1
 71
     0
 91
        1
 92
        1
 93
        1
 72
     4
 94
        3
 73
     0
 74
     1
 95
       17
 96
       13
 40
0.0
 40
0.0
 40
0.0
 40
0.0
 40
1.0
 40
1.0
 40
1.0
 40
2.0
 40
2.0
 40
2.0
 40
3.0
 40
3.0
 40
3.0
 40
4.0
 40
4.0
 40
4.0
 40
4.0
 10
128.0362814557446
 20
-119.8782985811415
 10
128.0362814557446
 20
-119.9471960811244
 10
127.9797664571864
 20
-120.0033583033326
 10
127.9108721902446
 20
-120.0033583033326
 10
127.8419714607018
 20
-120.0033583033326
 10
127.7861620176812
 20
-119.9471960811244
 10
127.7861620176812
 20
-119.8782985811415
 10
127.7861620176812
 20
-119.8094010811587
 10
127.8419714607018
 20
-119.7532388589505
 10
127.9108721902446
 20
-119.7532388589505
 10
127.9797664571864
 20
-119.7532388589505
 10
128.0362814557446
 20
-119.8094010811587
 10
128.0362814557446
 20
-119.8782985811415
 97
        0
 97
        0
 75
     2
 76
     1
 98
        0
  0
SPLINE
  5
E4
330
1F
100
AcDbEntity
  8
_U+30EC_U+30A4_U+30E4_U+30FC 1
370
     0
100
AcDbSpline
210
0.0
220
0.0
230
1.0
 70
    11
 71
     3
 72
    17
 73
    13
 74
     0
 42
0.0000000001
 43
0.0000000001
 12
1.0
 22
0.0
 32
0.0
 13
1.0
 23
0.0
 33
0.0
 40
0.0
 40
0.0
 40
0.0
 40
0.0
 40
1.0
 40
1.0
 40
1.0
 40
2.0
 40
2.0
 40
2.0
 40
3.0
 40
3.0
 40
3.0
 40
4.0
 40
4.0
 40
4.0
 40
4.0
 10
125.3318870802949
 20
-122.3477430249686
 30
0.0
 10
125.3318870802949
 20
-122.4166405249515
 30
0.0
 10
125.2753720817368
 20
-122.4728027471597
 30
0.0
 10
125.2064777464759
 20
-122.4728027471597
 30
0.0
 10
125.1375770852522
 20
-122.4728027471597
 30
0.0
 10
125.0817676422316
 20
-122.4166405249515
 30
0.0
 10
125.0817676422316
 20
-122.3477430249686
 30
0.0
 10
125.0817676422316
 20
-122.2788455249857
 30
0.0
 10
125.1375770852522
 20
-122.2226833027775
 30
0.0
 10
125.2064777464759
 20
-122.2226833027775
 30
0.0
 10
125.2753720817368
 20
-122.2226833027775
 30
0.0
 10
125.3318870802949
 20
-122.2788455249857
 30
0.0
 10
125.3318870802949
 20
-122.3477430249686
 30
0.0
  0
HATCH
  5
E5
330
1F
100
AcDbEntity
  8
_U+30EC_U+30A4_U+30E4_U+30FC 1
 62
     7
420
 16777215
100
AcDbHatch
 10
0.0
 20
0.0
 30
0.0
210
0.0
220
0.0
230
1.0
  2
SOLID
 70
     1
 71
     0
 91
        1
 92
        1
 93
        1
 72
     4
 94
        3
 73
     0
 74
     1
 95
       17
 96
       13
 40
0.0
 40
0.0
 40
0.0
 40
0.0
 40
1.0
 40
1.0
 40
1.0
 40
2.0
 40
2.0
 40
2.0
 40
3.0
 40
3.0
 40
3.0
 40
4.0
 40
4.0
 40
4.0
 40
4.0
 10
125.3318870802949
 20
-122.3477430249686
 10
125.3318870802949
 20
-122.4166405249515
 10
125.2753720817368
 20
-122.4728027471597
 10
125.2064777464759
 20
-122.4728027471597
 10
125.1375770852522
 20
-122.4728027471597
 10
125.0817676422316
 20
-122.4166405249515
 10
125.0817676422316
 20
-122.3477430249686
 10
125.0817676422316
 20
-122.2788455249857
 10
125.1375770852522
 20
-122.2226833027775
 10
125.2064777464759
 20
-122.2226833027775
 10
125.2753720817368
 20
-122.2226833027775
 10
125.3318870802949
 20
-122.2788455249857
 10
125.3318870802949
 20
-122.3477430249686
 97
        0
 97
        0
 75
     2
 76
     1
 98
        0
  0
SPLINE
  5
E6
330
1F
100
AcDbEntity
  8
_U+30EC_U+30A4_U+30E4_U+30FC 1
370
     0
100
AcDbSpline
210
0.0
220
0.0
230
1.0
 70
    11
 71
     3
 72
    17
 73
    13
 74
     0
 42
0.0000000001
 43
0.0000000001
 12
1.0
 22
0.0
 32
0.0
 13
1.0
 23
0.0
 33
0.0
 40
0.0
 40
0.0
 40
0.0
 40
0.0
 40
1.0
 40
1.0
 40
1.0
 40
2.0
 40
2.0
 40
2.0
 40
3.0
 40
3.0
 40
3.0
 40
4.0
 40
4.0
 40
4.0
 40
4.0
 10
120.1580483234017
 20
-135.4005207994832
 30
0.0
 10
120.1580483234017
 20
-135.4697710772435
 30
0.0
 10
120.1015333248435
 20
-135.525580521674
 30
0.0
 10
120.0326388588807
 20
-135.525580521674
 30
0.0
 10
119.9637383283589
 20
-135.525580521674
 30
0.0
 10
119.9075761075695
 20
-135.4697710772435
 30
0.0
 10
119.9075761075695
 20
-135.4005207994832
 30
0.0
 10
119.9075761075695
 20
-135.3316232995006
 30
0.0
 10
119.9637383283589
 20
-135.2754610772924
 30
0.0
 10
120.0326388588807
 20
-135.2754610772924
 30
0.0
 10
120.1015333248435
 20
-135.2754610772924
 30
0.0
 10
120.1580483234017
 20
-135.3316232995006
 30
0.0
 10
120.1580483234017
 20
-135.4005207994832
 30
0.0
  0
HATCH
  5
E7
330
1F
100
AcDbEntity
  8
_U+30EC_U+30A4_U+30E4_U+30FC 1
 62
     7
420
 16777215
100
AcDbHatch
 10
0.0
 20
0.0
 30
0.0
210
0.0
220
0.0
230
1.0
  2
SOLID
 70
     1
 71
     0
 91
        1
 92
        1
 93
        1
 72
     4
 94
        3
 73
     0
 74
     1
 95
       17
 96
       13
 40
0.0
 40
0.0
 40
0.0
 40
0.0
 40
1.0
 40
1.0
 40
1.0
 40
2.0
 40
2.0
 40
2.0
 40
3.0
 40
3.0
 40
3.0
 40
4.0
 40
4.0
 40
4.0
 40
4.0
 10
120.1580483234017
 20
-135.4005207994832
 10
120.1580483234017
 20
-135.4697710772435
 10
120.1015333248435
 20
-135.525580521674
 10
120.0326388588807
 20
-135.525580521674
 10
119.9637383283589
 20
-135.525580521674
 10
119.9075761075695
 20
-135.4697710772435
 10
119.9075761075695
 20
-135.4005207994832
 10
119.9075761075695
 20
-135.3316232995006
 10
119.9637383283589
 20
-135.2754610772924
 10
120.0326388588807
 20
-135.2754610772924
 10
120.1015333248435
 20
-135.2754610772924
 10
120.1580483234017
 20
-135.3316232995006
 10
120.1580483234017
 20
-135.4005207994832
 97
        0
 97
        0
 75
     2
 76
     1
 98
        0
  0
SPLINE
  5
E8
330
1F
100
AcDbEntity
  8
_U+30EC_U+30A4_U+30E4_U+30FC 1
370
     0
100
AcDbSpline
210
0.0
220
0.0
230
1.0
 70
    11
 71
     3
 72
    17
 73
    13
 74
     0
 42
0.0000000001
 43
0.0000000001
 12
1.0
 22
0.0
 32
0.0
 13
1.0
 23
0.0
 33
0.0
 40
0.0
 40
0.0
 40
0.0
 40
0.0
 40
1.0
 40
1.0
 40
1.0
 40
2.0
 40
2.0
 40
2.0
 40
3.0
 40
3.0
 40
3.0
 40
4.0
 40
4.0
 40
4.0
 40
4.0
 10
120.1573427678641
 20
-131.2261013560822
 30
0.0
 10
120.1573427678641
 20
-131.2953516338432
 30
0.0
 10
120.1015333248435
 20
-131.3511610782736
 30
0.0
 10
120.0326388588807
 20
-131.3511610782736
 30
0.0
 10
119.9637383283589
 20
-131.3511610782736
 30
0.0
 10
119.9072233298008
 20
-131.2953516338432
 30
0.0
 10
119.9072233298008
 20
-131.2261013560822
 30
0.0
 10
119.9072233298008
 20
-131.1572038560996
 30
0.0
 10
119.9637383283589
 20
-131.1010416338914
 30
0.0
 10
120.0326388588807
 20
-131.1010416338914
 30
0.0
 10
120.1015333248435
 20
-131.1010416338914
 30
0.0
 10
120.1573427678641
 20
-131.1572038560996
 30
0.0
 10
120.1573427678641
 20
-131.2261013560822
 30
0.0
  0
HATCH
  5
E9
330
1F
100
AcDbEntity
  8
_U+30EC_U+30A4_U+30E4_U+30FC 1
 62
     7
420
 16777215
100
AcDbHatch
 10
0.0
 20
0.0
 30
0.0
210
0.0
220
0.0
230
1.0
  2
SOLID
 70
     1
 71
     0
 91
        1
 92
        1
 93
        1
 72
     4
 94
        3
 73
     0
 74
     1
 95
       17
 96
       13
 40
0.0
 40
0.0
 40
0.0
 40
0.0
 40
1.0
 40
1.0
 40
1.0
 40
2.0
 40
2.0
 40
2.0
 40
3.0
 40
3.0
 40
3.0
 40
4.0
 40
4.0
 40
4.0
 40
4.0
 10
120.1573427678641
 20
-131.2261013560822
 10
120.1573427678641
 20
-131.2953516338432
 10
120.1015333248435
 20
-131.3511610782736
 10
120.0326388588807
 20
-131.3511610782736
 10
119.9637383283589
 20
-131.3511610782736
 10
119.9072233298008
 20
-131.2953516338432
 10
119.9072233298008
 20
-131.2261013560822
 10
119.9072233298008
 20
-131.1572038560996
 10
119.9637383283589
 20
-131.1010416338914
 10
120.0326388588807
 20
-131.1010416338914
 10
120.1015333248435
 20
-131.1010416338914
 10
120.1573427678641
 20
-131.1572038560996
 10
120.1573427678641
 20
-131.2261013560822
 97
        0
 97
        0
 75
     2
 76
     1
 98
        0
  0
SPLINE
  5
EA
330
1F
100
AcDbEntity
  8
_U+30EC_U+30A4_U+30E4_U+30FC 1
370
     0
100
AcDbSpline
210
0.0
220
0.0
230
1.0
 70
    11
 71
     3
 72
    17
 73
    13
 74
     0
 42
0.0000000001
 43
0.0000000001
 12
1.0
 22
0.0
 32
0.0
 13
1.0
 23
0.0
 33
0.0
 40
0.0
 40
0.0
 40
0.0
 40
0.0
 40
1.0
 40
1.0
 40
1.0
 40
2.0
 40
2.0
 40
2.0
 40
3.0
 40
3.0
 40
3.0
 40
4.0
 40
4.0
 40
4.0
 40
4.0
 10
114.7995333046332
 20
-131.1158583005542
 30
0.0
 10
114.7995333046332
 20
-131.1851085783152
 30
0.0
 10
114.7437209615327
 20
-131.2409180227456
 30
0.0
 10
114.6748234632904
 20
-131.2409180227456
 30
0.0
 10
114.6055731872793
 20
-131.2409180227456
 30
0.0
 10
114.5494138602517
 20
-131.1851085783152
 30
0.0
 10
114.5494138602517
 20
-131.1158583005542
 30
0.0
 10
114.5494138602517
 20
-131.0469608005716
 30
0.0
 10
114.6055731872793
 20
-130.9907985783634
 30
0.0
 10
114.6748234632904
 20
-130.9907985783634
 30
0.0
 10
114.7437209615327
 20
-130.9907985783634
 30
0.0
 10
114.7995333046332
 20
-131.0469608005716
 30
0.0
 10
114.7995333046332
 20
-131.1158583005542
 30
0.0
  0
HATCH
  5
EB
330
1F
100
AcDbEntity
  8
_U+30EC_U+30A4_U+30E4_U+30FC 1
 62
     7
420
 16777215
100
AcDbHatch
 10
0.0
 20
0.0
 30
0.0
210
0.0
220
0.0
230
1.0
  2
SOLID
 70
     1
 71
     0
 91
        1
 92
        1
 93
        1
 72
     4
 94
        3
 73
     0
 74
     1
 95
       17
 96
       13
 40
0.0
 40
0.0
 40
0.0
 40
0.0
 40
1.0
 40
1.0
 40
1.0
 40
2.0
 40
2.0
 40
2.0
 40
3.0
 40
3.0
 40
3.0
 40
4.0
 40
4.0
 40
4.0
 40
4.0
 10
114.7995333046332
 20
-131.1158583005542
 10
114.7995333046332
 20
-131.1851085783152
 10
114.7437209615327
 20
-131.2409180227456
 10
114.6748234632904
 20
-131.2409180227456
 10
114.6055731872793
 20
-131.2409180227456
 10
114.5494138602517
 20
-131.1851085783152
 10
114.5494138602517
 20
-131.1158583005542
 10
114.5494138602517
 20
-131.0469608005716
 10
114.6055731872793
 20
-130.9907985783634
 10
114.6748234632904
 20
-130.9907985783634
 10
114.7437209615327
 20
-130.9907985783634
 10
114.7995333046332
 20
-131.0469608005716
 10
114.7995333046332
 20
-131.1158583005542
 97
        0
 97
        0
 75
     2
 76
     1
 98
        0
  0
SPLINE
  5
EC
330
1F
100
AcDbEntity
  8
_U+30EC_U+30A4_U+30E4_U+30FC 1
370
     0
100
AcDbSpline
210
0.0
220
0.0
230
1.0
 70
    11
 71
     3
 72
    17
 73
    13
 74
     0
 42
0.0000000001
 43
0.0000000001
 12
1.0
 22
0.0
 32
0.0
 13
1.0
 23
0.0
 33
0.0
 40
0.0
 40
0.0
 40
0.0
 40
0.0
 40
1.0
 40
1.0
 40
1.0
 40
2.0
 40
2.0
 40
2.0
 40
3.0
 40
3.0
 40
3.0
 40
4.0
 40
4.0
 40
4.0
 40
4.0
 10
109.6842555281342
 20
-131.1158583005542
 30
0.0
 10
109.6842555281342
 20
-131.1851085783152
 30
0.0
 10
109.6284433142565
 20
-131.2409180227456
 30
0.0
 10
109.5595458160142
 20
-131.2409180227456
 30
0.0
 10
109.4902955400032
 20
-131.2409180227456
 30
0.0
 10
109.4341360837527
 20
-131.1851085783152
 30
0.0
 10
109.4341360837527
 20
-131.1158583005542
 30
0.0
 10
109.4341360837527
 20
-131.0469608005716
 30
0.0
 10
109.4902955400032
 20
-130.9907985783634
 30
0.0
 10
109.5595458160142
 20
-130.9907985783634
 30
0.0
 10
109.6284433142565
 20
-130.9907985783634
 30
0.0
 10
109.6842555281342
 20
-131.0469608005716
 30
0.0
 10
109.6842555281342
 20
-131.1158583005542
 30
0.0
  0
HATCH
  5
ED
330
1F
100
AcDbEntity
  8
_U+30EC_U+30A4_U+30E4_U+30FC 1
 62
     7
420
 16777215
100
AcDbHatch
 10
0.0
 20
0.0
 30
0.0
210
0.0
220
0.0
230
1.0
  2
SOLID
 70
     1
 71
     0
 91
        1
 92
        1
 93
        1
 72
     4
 94
        3
 73
     0
 74
     1
 95
       17
 96
       13
 40
0.0
 40
0.0
 40
0.0
 40
0.0
 40
1.0
 40
1.0
 40
1.0
 40
2.0
 40
2.0
 40
2.0
 40
3.0
 40
3.0
 40
3.0
 40
4.0
 40
4.0
 40
4.0
 40
4.0
 10
109.6842555281342
 20
-131.1158583005542
 10
109.6842555281342
 20
-131.1851085783152
 10
109.6284433142565
 20
-131.2409180227456
 10
109.5595458160142
 20
-131.2409180227456
 10
109.4902955400032
 20
-131.2409180227456
 10
109.4341360837527
 20
-131.1851085783152
 10
109.4341360837527
 20
-131.1158583005542
 10
109.4341360837527
 20
-131.0469608005716
 10
109.4902955400032
 20
-130.9907985783634
 10
109.5595458160142
 20
-130.9907985783634
 10
109.6284433142565
 20
-130.9907985783634
 10
109.6842555281342
 20
-131.0469608005716
 10
109.6842555281342
 20
-131.1158583005542
 97
        0
 97
        0
 75
     2
 76
     1
 98
        0
  0
SPLINE
  5
EE
330
1F
100
AcDbEntity
  8
_U+30EC_U+30A4_U+30E4_U+30FC 1
370
     0
100
AcDbSpline
210
0.0
220
0.0
230
1.0
 70
    11
 71
     3
 72
    17
 73
    13
 74
     0
 42
0.0000000001
 43
0.0000000001
 12
1.0
 22
0.0
 32
0.0
 13
1.0
 23
0.0
 33
0.0
 40
0.0
 40
0.0
 40
0.0
 40
0.0
 40
1.0
 40
1.0
 40
1.0
 40
2.0
 40
2.0
 40
2.0
 40
3.0
 40
3.0
 40
3.0
 40
4.0
 40
4.0
 40
4.0
 40
4.0
 10
104.0987249739755
 20
-131.1158583005542
 30
0.0
 10
104.0987249739755
 20
-131.1851085783152
 30
0.0
 10
104.0425601234309
 20
-131.2409180227456
 30
0.0
 10
103.9736626251887
 20
-131.2409180227456
 30
0.0
 10
103.9047651269464
 20
-131.2409180227456
 30
0.0
 10
103.8486055295933
 20
-131.1851085783152
 30
0.0
 10
103.8486055295933
 20
-131.1158583005542
 30
0.0
 10
103.8486055295933
 20
-131.0469608005716
 30
0.0
 10
103.9047651269464
 20
-130.9907985783634
 30
0.0
 10
103.9736626251887
 20
-130.9907985783634
 30
0.0
 10
104.0425601234309
 20
-130.9907985783634
 30
0.0
 10
104.0987249739755
 20
-131.0469608005716
 30
0.0
 10
104.0987249739755
 20
-131.1158583005542
 30
0.0
  0
HATCH
  5
EF
330
1F
100
AcDbEntity
  8
_U+30EC_U+30A4_U+30E4_U+30FC 1
 62
     7
420
 16777215
100
AcDbHatch
 10
0.0
 20
0.0
 30
0.0
210
0.0
220
0.0
230
1.0
  2
SOLID
 70
     1
 71
     0
 91
        1
 92
        1
 93
        1
 72
     4
 94
        3
 73
     0
 74
     1
 95
       17
 96
       13
 40
0.0
 40
0.0
 40
0.0
 40
0.0
 40
1.0
 40
1.0
 40
1.0
 40
2.0
 40
2.0
 40
2.0
 40
3.0
 40
3.0
 40
3.0
 40
4.0
 40
4.0
 40
4.0
 40
4.0
 10
104.0987249739755
 20
-131.1158583005542
 10
104.0987249739755
 20
-131.1851085783152
 10
104.0425601234309
 20
-131.2409180227456
 10
103.9736626251887
 20
-131.2409180227456
 10
103.9047651269464
 20
-131.2409180227456
 10
103.8486055295933
 20
-131.1851085783152
 10
103.8486055295933
 20
-131.1158583005542
 10
103.8486055295933
 20
-131.0469608005716
 10
103.9047651269464
 20
-130.9907985783634
 10
103.9736626251887
 20
-130.9907985783634
 10
104.0425601234309
 20
-130.9907985783634
 10
104.0987249739755
 20
-131.0469608005716
 10
104.0987249739755
 20
-131.1158583005542
 97
        0
 97
        0
 75
     2
 76
     1
 98
        0
  0
SPLINE
  5
F0
330
1F
100
AcDbEntity
  8
_U+30EC_U+30A4_U+30E4_U+30FC 1
370
     0
100
AcDbSpline
210
0.0
220
0.0
230
1.0
 70
    11
 71
     3
 72
    17
 73
    13
 74
     0
 42
0.0000000001
 43
0.0000000001
 12
1.0
 22
0.0
 32
0.0
 13
1.0
 23
0.0
 33
0.0
 40
0.0
 40
0.0
 40
0.0
 40
0.0
 40
1.0
 40
1.0
 40
1.0
 40
2.0
 40
2.0
 40
2.0
 40
3.0
 40
3.0
 40
3.0
 40
4.0
 40
4.0
 40
4.0
 40
4.0
 10
98.68958330866094
 20
-131.1158583005542
 30
0.0
 10
98.68958330866094
 20
-131.1851085783152
 30
0.0
 10
98.63341859476296
 20
-131.2409180227456
 30
0.0
 10
98.56452109652068
 20
-131.2409180227456
 30
0.0
 10
98.49527082050963
 20
-131.2409180227456
 30
0.0
 10
98.43946386427876
 20
-131.1851085783152
 30
0.0
 10
98.43946386427876
 20
-131.1158583005542
 30
0.0
 10
98.43946386427876
 20
-131.0469608005716
 30
0.0
 10
98.49527082050963
 20
-130.9907985783634
 30
0.0
 10
98.56452109652068
 20
-130.9907985783634
 30
0.0
 10
98.63341859476296
 20
-130.9907985783634
 30
0.0
 10
98.68958330866094
 20
-131.0469608005716
 30
0.0
 10
98.68958330866094
 20
-131.1158583005542
 30
0.0
  0
HATCH
  5
F1
330
1F
100
AcDbEntity
  8
_U+30EC_U+30A4_U+30E4_U+30FC 1
 62
     7
420
 16777215
100
AcDbHatch
 10
0.0
 20
0.0
 30
0.0
210
0.0
220
0.0
230
1.0
  2
SOLID
 70
     1
 71
     0
 91
        1
 92
        1
 93
        1
 72
     4
 94
        3
 73
     0
 74
     1
 95
       17
 96
       13
 40
0.0
 40
0.0
 40
0.0
 40
0.0
 40
1.0
 40
1.0
 40
1.0
 40
2.0
 40
2.0
 40
2.0
 40
3.0
 40
3.0
 40
3.0
 40
4.0
 40
4.0
 40
4.0
 40
4.0
 10
98.68958330866094
 20
-131.1158583005542
 10
98.68958330866094
 20
-131.1851085783152
 10
98.63341859476296
 20
-131.2409180227456
 10
98.56452109652068
 20
-131.2409180227456
 10
98.49527082050963
 20
-131.2409180227456
 10
98.43946386427876
 20
-131.1851085783152
 10
98.43946386427876
 20
-131.1158583005542
 10
98.43946386427876
 20
-131.0469608005716
 10
98.49527082050963
 20
-130.9907985783634
 10
98.56452109652068
 20
-130.9907985783634
 10
98.63341859476296
 20
-130.9907985783634
 10
98.68958330866094
 20
-131.0469608005716
 10
98.68958330866094
 20
-131.1158583005542
 97
        0
 97
        0
 75
     2
 76
     1
 98
        0
  0
SPLINE
  5
F2
330
1F
100
AcDbEntity
  8
_U+30EC_U+30A4_U+30E4_U+30FC 1
370
     0
100
AcDbSpline
210
0.0
220
0.0
230
1.0
 70
    11
 71
     3
 72
    17
 73
    13
 74
     0
 42
0.0000000001
 43
0.0000000001
 12
1.0
 22
0.0
 32
0.0
 13
1.0
 23
0.0
 33
0.0
 40
0.0
 40
0.0
 40
0.0
 40
0.0
 40
1.0
 40
1.0
 40
1.0
 40
2.0
 40
2.0
 40
2.0
 40
3.0
 40
3.0
 40
3.0
 40
4.0
 40
4.0
 40
4.0
 40
4.0
 10
92.86874997678282
 20
-131.1158583005542
 30
0.0
 10
92.86874997678282
 20
-131.1851085783152
 30
0.0
 10
92.81258540993146
 20
-131.2409180227456
 30
0.0
 10
92.74368791168918
 20
-131.2409180227456
 30
0.0
 10
92.67443763567812
 20
-131.2409180227456
 30
0.0
 10
92.61863053240064
 20
-131.1851085783152
 30
0.0
 10
92.61863053240064
 20
-131.1158583005542
 30
0.0
 10
92.61863053240064
 20
-131.0469608005716
 30
0.0
 10
92.67443763567812
 20
-130.9907985783634
 30
0.0
 10
92.74368791168918
 20
-130.9907985783634
 30
0.0
 10
92.81258540993146
 20
-130.9907985783634
 30
0.0
 10
92.86874997678282
 20
-131.0469608005716
 30
0.0
 10
92.86874997678282
 20
-131.1158583005542
 30
0.0
  0
HATCH
  5
F3
330
1F
100
AcDbEntity
  8
_U+30EC_U+30A4_U+30E4_U+30FC 1
 62
     7
420
 16777215
100
AcDbHatch
 10
0.0
 20
0.0
 30
0.0
210
0.0
220
0.0
230
1.0
  2
SOLID
 70
     1
 71
     0
 91
        1
 92
        1
 93
        1
 72
     4
 94
        3
 73
     0
 74
     1
 95
       17
 96
       13
 40
0.0
 40
0.0
 40
0.0
 40
0.0
 40
1.0
 40
1.0
 40
1.0
 40
2.0
 40
2.0
 40
2.0
 40
3.0
 40
3.0
 40
3.0
 40
4.0
 40
4.0
 40
4.0
 40
4.0
 10
92.86874997678282
 20
-131.1158583005542
 10
92.86874997678282
 20
-131.1851085783152
 10
92.81258540993146
 20
-131.2409180227456
 10
92.74368791168918
 20
-131.2409180227456
 10
92.67443763567812
 20
-131.2409180227456
 10
92.61863053240064
 20
-131.1851085783152
 10
92.61863053240064
 20
-131.1158583005542
 10
92.61863053240064
 20
-131.0469608005716
 10
92.67443763567812
 20
-130.9907985783634
 10
92.74368791168918
 20
-130.9907985783634
 10
92.81258540993146
 20
-130.9907985783634
 10
92.86874997678282
 20
-131.0469608005716
 10
92.86874997678282
 20
-131.1158583005542
 97
        0
 97
        0
 75
     2
 76
     1
 98
        0
  0
SPLINE
  5
F4
330
1F
100
AcDbEntity
  8
_U+30EC_U+30A4_U+30E4_U+30FC 1
370
     0
100
AcDbSpline
210
0.0
220
0.0
230
1.0
 70
    11
 71
     3
 72
    17
 73
    13
 74
     0
 42
0.0000000001
 43
0.0000000001
 12
1.0
 22
0.0
 32
0.0
 13
1.0
 23
0.0
 33
0.0
 40
0.0
 40
0.0
 40
0.0
 40
0.0
 40
1.0
 40
1.0
 40
1.0
 40
2.0
 40
2.0
 40
2.0
 40
3.0
 40
3.0
 40
3.0
 40
4.0
 40
4.0
 40
4.0
 40
4.0
 10
87.87852970247637
 20
-131.108626356112
 30
0.0
 10
87.87852970247637
 20
-131.1778766338723
 30
0.0
 10
87.82236748168697
 20
-131.2336860783028
 30
0.0
 10
87.75347220028385
 20
-131.2336860783028
 30
0.0
 10
87.68439609631803
 20
-131.2336860783028
 30
0.0
 10
87.628410264413
 20
-131.1778766338723
 30
0.0
 10
87.628410264413
 20
-131.108626356112
 30
0.0
 10
87.628410264413
 20
-131.0397288561288
 30
0.0
 10
87.68439609631803
 20
-130.9835666339206
 30
0.0
 10
87.75347220028385
 20
-130.9835666339206
 30
0.0
 10
87.82236748168697
 20
-130.9835666339206
 30
0.0
 10
87.87852970247637
 20
-131.0397288561288
 30
0.0
 10
87.87852970247637
 20
-131.108626356112
 30
0.0
  0
HATCH
  5
F5
330
1F
100
AcDbEntity
  8
_U+30EC_U+30A4_U+30E4_U+30FC 1
 62
     7
420
 16777215
100
AcDbHatch
 10
0.0
 20
0.0
 30
0.0
210
0.0
220
0.0
230
1.0
  2
SOLID
 70
     1
 71
     0
 91
        1
 92
        1
 93
        1
 72
     4
 94
        3
 73
     0
 74
     1
 95
       17
 96
       13
 40
0.0
 40
0.0
 40
0.0
 40
0.0
 40
1.0
 40
1.0
 40
1.0
 40
2.0
 40
2.0
 40
2.0
 40
3.0
 40
3.0
 40
3.0
 40
4.0
 40
4.0
 40
4.0
 40
4.0
 10
87.87852970247637
 20
-131.108626356112
 10
87.87852970247637
 20
-131.1778766338723
 10
87.82236748168697
 20
-131.2336860783028
 10
87.75347220028385
 20
-131.2336860783028
 10
87.68439609631803
 20
-131.2336860783028
 10
87.628410264413
 20
-131.1778766338723
 10
87.628410264413
 20
-131.108626356112
 10
87.628410264413
 20
-131.0397288561288
 10
87.68439609631803
 20
-130.9835666339206
 10
87.75347220028385
 20
-130.9835666339206
 10
87.82236748168697
 20
-130.9835666339206
 10
87.87852970247637
 20
-131.0397288561288
 10
87.87852970247637
 20
-131.108626356112
 97
        0
 97
        0
 75
     2
 76
     1
 98
        0
  0
SPLINE
  5
F6
330
1F
100
AcDbEntity
  8
_U+30EC_U+30A4_U+30E4_U+30FC 1
370
     0
100
AcDbSpline
210
0.0
220
0.0
230
1.0
 70
    11
 71
     3
 72
    17
 73
    13
 74
     0
 42
0.0000000001
 43
0.0000000001
 12
1.0
 22
0.0
 32
0.0
 13
1.0
 23
0.0
 33
0.0
 40
0.0
 40
0.0
 40
0.0
 40
0.0
 40
1.0
 40
1.0
 40
1.0
 40
2.0
 40
2.0
 40
2.0
 40
3.0
 40
3.0
 40
3.0
 40
4.0
 40
4.0
 40
4.0
 40
4.0
 10
82.17517151464783
 20
-131.108626356112
 30
0.0
 10
82.17517151464783
 20
-131.1778766338723
 30
0.0
 10
82.11900929385843
 20
-131.2336860783028
 30
0.0
 10
82.05011386837623
 20
-131.2336860783028
 30
0.0
 10
81.98103790848948
 20
-131.2336860783028
 30
0.0
 10
81.92505207658446
 20
-131.1778766338723
 30
0.0
 10
81.92505207658446
 20
-131.108626356112
 30
0.0
 10
81.92505207658446
 20
-131.0397288561288
 30
0.0
 10
81.98103790848948
 20
-130.9835666339206
 30
0.0
 10
82.05011386837623
 20
-130.9835666339206
 30
0.0
 10
82.11900929385843
 20
-130.9835666339206
 30
0.0
 10
82.17517151464783
 20
-131.0397288561288
 30
0.0
 10
82.17517151464783
 20
-131.108626356112
 30
0.0
  0
HATCH
  5
F7
330
1F
100
AcDbEntity
  8
_U+30EC_U+30A4_U+30E4_U+30FC 1
 62
     7
420
 16777215
100
AcDbHatch
 10
0.0
 20
0.0
 30
0.0
210
0.0
220
0.0
230
1.0
  2
SOLID
 70
     1
 71
     0
 91
        1
 92
        1
 93
        1
 72
     4
 94
        3
 73
     0
 74
     1
 95
       17
 96
       13
 40
0.0
 40
0.0
 40
0.0
 40
0.0
 40
1.0
 40
1.0
 40
1.0
 40
2.0
 40
2.0
 40
2.0
 40
3.0
 40
3.0
 40
3.0
 40
4.0
 40
4.0
 40
4.0
 40
4.0
 10
82.17517151464783
 20
-131.108626356112
 10
82.17517151464783
 20
-131.1778766338723
 10
82.11900929385843
 20
-131.2336860783028
 10
82.05011386837623
 20
-131.2336860783028
 10
81.98103790848948
 20
-131.2336860783028
 10
81.92505207658446
 20
-131.1778766338723
 10
81.92505207658446
 20
-131.108626356112
 10
81.92505207658446
 20
-131.0397288561288
 10
81.98103790848948
 20
-130.9835666339206
 10
82.05011386837623
 20
-130.9835666339206
 10
82.11900929385843
 20
-130.9835666339206
 10
82.17517151464783
 20
-131.0397288561288
 10
82.17517151464783
 20
-131.108626356112
 97
        0
 97
        0
 75
     2
 76
     1
 98
        0
  0
SPLINE
  5
F8
330
1F
100
AcDbEntity
  8
_U+30EC_U+30A4_U+30E4_U+30FC 1
370
     0
100
AcDbSpline
210
0.0
220
0.0
230
1.0
 70
    11
 71
     3
 72
    17
 73
    13
 74
     0
 42
0.0000000001
 43
0.0000000001
 12
1.0
 22
0.0
 32
0.0
 13
1.0
 23
0.0
 33
0.0
 40
0.0
 40
0.0
 40
0.0
 40
0.0
 40
1.0
 40
1.0
 40
1.0
 40
2.0
 40
2.0
 40
2.0
 40
3.0
 40
3.0
 40
3.0
 40
4.0
 40
4.0
 40
4.0
 40
4.0
 10
76.81736109190678
 20
-131.108626356112
 30
0.0
 10
76.81736109190678
 20
-131.1778766338723
 30
0.0
 10
76.7611969305476
 20
-131.2336860783028
 30
0.0
 10
76.69229943230532
 20
-131.2336860783028
 30
0.0
 10
76.62322554517866
 20
-131.2336860783028
 30
0.0
 10
76.56724164752492
 20
-131.1778766338723
 30
0.0
 10
76.56724164752492
 20
-131.108626356112
 30
0.0
 10
76.56724164752492
 20
-131.0397288561288
 30
0.0
 10
76.62322554517866
 20
-130.9835666339206
 30
0.0
 10
76.69229943230532
 20
-130.9835666339206
 30
0.0
 10
76.7611969305476
 20
-130.9835666339206
 30
0.0
 10
76.81736109190678
 20
-131.0397288561288
 30
0.0
 10
76.81736109190678
 20
-131.108626356112
 30
0.0
  0
HATCH
  5
F9
330
1F
100
AcDbEntity
  8
_U+30EC_U+30A4_U+30E4_U+30FC 1
 62
     7
420
 16777215
100
AcDbHatch
 10
0.0
 20
0.0
 30
0.0
210
0.0
220
0.0
230
1.0
  2
SOLID
 70
     1
 71
     0
 91
        1
 92
        1
 93
        1
 72
     4
 94
        3
 73
     0
 74
     1
 95
       17
 96
       13
 40
0.0
 40
0.0
 40
0.0
 40
0.0
 40
1.0
 40
1.0
 40
1.0
 40
2.0
 40
2.0
 40
2.0
 40
3.0
 40
3.0
 40
3.0
 40
4.0
 40
4.0
 40
4.0
 40
4.0
 10
76.81736109190678
 20
-131.108626356112
 10
76.81736109190678
 20
-131.1778766338723
 10
76.7611969305476
 20
-131.2336860783028
 10
76.69229943230532
 20
-131.2336860783028
 10
76.62322554517866
 20
-131.2336860783028
 10
76.56724164752492
 20
-131.1778766338723
 10
76.56724164752492
 20
-131.108626356112
 10
76.56724164752492
 20
-131.0397288561288
 10
76.62322554517866
 20
-130.9835666339206
 10
76.69229943230532
 20
-130.9835666339206
 10
76.7611969305476
 20
-130.9835666339206
 10
76.81736109190678
 20
-131.0397288561288
 10
76.81736109190678
 20
-131.108626356112
 97
        0
 97
        0
 75
     2
 76
     1
 98
        0
  0
SPLINE
  5
FA
330
1F
100
AcDbEntity
  8
_U+30EC_U+30A4_U+30E4_U+30FC 1
370
     0
100
AcDbSpline
210
0.0
220
0.0
230
1.0
 70
    11
 71
     3
 72
    17
 73
    13
 74
     0
 42
0.0000000001
 43
0.0000000001
 12
1.0
 22
0.0
 32
0.0
 13
1.0
 23
0.0
 33
0.0
 40
0.0
 40
0.0
 40
0.0
 40
0.0
 40
1.0
 40
1.0
 40
1.0
 40
2.0
 40
2.0
 40
2.0
 40
3.0
 40
3.0
 40
3.0
 40
4.0
 40
4.0
 40
4.0
 40
4.0
 10
71.11400275999915
 20
-131.108626356112
 30
0.0
 10
71.11400275999915
 20
-131.1778766338723
 30
0.0
 10
71.05783874271906
 20
-131.2336860783028
 30
0.0
 10
70.98894124447678
 20
-131.2336860783028
 30
0.0
 10
70.91986735735011
 20
-131.2336860783028
 30
0.0
 10
70.8638833156173
 20
-131.1778766338723
 30
0.0
 10
70.8638833156173
 20
-131.108626356112
 30
0.0
 10
70.8638833156173
 20
-131.0397288561288
 30
0.0
 10
70.91986735735011
 20
-130.9835666339206
 30
0.0
 10
70.98894124447678
 20
-130.9835666339206
 30
0.0
 10
71.05783874271906
 20
-130.9835666339206
 30
0.0
 10
71.11400275999915
 20
-131.0397288561288
 30
0.0
 10
71.11400275999915
 20
-131.108626356112
 30
0.0
  0
HATCH
  5
FB
330
1F
100
AcDbEntity
  8
_U+30EC_U+30A4_U+30E4_U+30FC 1
 62
     7
420
 16777215
100
AcDbHatch
 10
0.0
 20
0.0
 30
0.0
210
0.0
220
0.0
230
1.0
  2
SOLID
 70
     1
 71
     0
 91
        1
 92
        1
 93
        1
 72
     4
 94
        3
 73
     0
 74
     1
 95
       17
 96
       13
 40
0.0
 40
0.0
 40
0.0
 40
0.0
 40
1.0
 40
1.0
 40
1.0
 40
2.0
 40
2.0
 40
2.0
 40
3.0
 40
3.0
 40
3.0
 40
4.0
 40
4.0
 40
4.0
 40
4.0
 10
71.11400275999915
 20
-131.108626356112
 10
71.11400275999915
 20
-131.1778766338723
 10
71.05783874271906
 20
-131.2336860783028
 10
70.98894124447678
 20
-131.2336860783028
 10
70.91986735735011
 20
-131.2336860783028
 10
70.8638833156173
 20
-131.1778766338723
 10
70.8638833156173
 20
-131.108626356112
 10
70.8638833156173
 20
-131.0397288561288
 10
70.91986735735011
 20
-130.9835666339206
 10
70.98894124447678
 20
-130.9835666339206
 10
71.05783874271906
 20
-130.9835666339206
 10
71.11400275999915
 20
-131.0397288561288
 10
71.11400275999915
 20
-131.108626356112
 97
        0
 97
        0
 75
     2
 76
     1
 98
        0
  0
SPLINE
  5
FC
330
1F
100
AcDbEntity
  8
_U+30EC_U+30A4_U+30E4_U+30FC 1
370
     0
100
AcDbSpline
210
0.0
220
0.0
230
1.0
 70
    11
 71
     3
 72
    17
 73
    13
 74
     0
 42
0.0000000001
 43
0.0000000001
 12
1.0
 22
0.0
 32
0.0
 13
1.0
 23
0.0
 33
0.0
 40
0.0
 40
0.0
 40
0.0
 40
0.0
 40
1.0
 40
1.0
 40
1.0
 40
2.0
 40
2.0
 40
2.0
 40
3.0
 40
3.0
 40
3.0
 40
4.0
 40
4.0
 40
4.0
 40
4.0
 10
65.7048610946849
 20
-131.108626356112
 30
0.0
 10
65.7048610946849
 20
-131.1778766338723
 30
0.0
 10
65.6486972140511
 20
-131.2336860783028
 30
0.0
 10
65.57979971580882
 20
-131.2336860783028
 30
0.0
 10
65.51072582868214
 20
-131.2336860783028
 30
0.0
 10
65.45474165030305
 20
-131.1778766338723
 30
0.0
 10
65.45474165030305
 20
-131.108626356112
 30
0.0
 10
65.45474165030305
 20
-131.0397288561288
 30
0.0
 10
65.51072582868214
 20
-130.9835666339206
 30
0.0
 10
65.57979971580882
 20
-130.9835666339206
 30
0.0
 10
65.6486972140511
 20
-130.9835666339206
 30
0.0
 10
65.7048610946849
 20
-131.0397288561288
 30
0.0
 10
65.7048610946849
 20
-131.108626356112
 30
0.0
  0
HATCH
  5
FD
330
1F
100
AcDbEntity
  8
_U+30EC_U+30A4_U+30E4_U+30FC 1
 62
     7
420
 16777215
100
AcDbHatch
 10
0.0
 20
0.0
 30
0.0
210
0.0
220
0.0
230
1.0
  2
SOLID
 70
     1
 71
     0
 91
        1
 92
        1
 93
        1
 72
     4
 94
        3
 73
     0
 74
     1
 95
       17
 96
       13
 40
0.0
 40
0.0
 40
0.0
 40
0.0
 40
1.0
 40
1.0
 40
1.0
 40
2.0
 40
2.0
 40
2.0
 40
3.0
 40
3.0
 40
3.0
 40
4.0
 40
4.0
 40
4.0
 40
4.0
 10
65.7048610946849
 20
-131.108626356112
 10
65.7048610946849
 20
-131.1778766338723
 10
65.6486972140511
 20
-131.2336860783028
 10
65.57979971580882
 20
-131.2336860783028
 10
65.51072582868214
 20
-131.2336860783028
 10
65.45474165030305
 20
-131.1778766338723
 10
65.45474165030305
 20
-131.108626356112
 10
65.45474165030305
 20
-131.0397288561288
 10
65.51072582868214
 20
-130.9835666339206
 10
65.57979971580882
 20
-130.9835666339206
 10
65.6486972140511
 20
-130.9835666339206
 10
65.7048610946849
 20
-131.0397288561288
 10
65.7048610946849
 20
-131.108626356112
 97
        0
 97
        0
 75
     2
 76
     1
 98
        0
  0
SPLINE
  5
FE
330
1F
100
AcDbEntity
  8
_U+30EC_U+30A4_U+30E4_U+30FC 1
370
     0
100
AcDbSpline
210
0.0
220
0.0
230
1.0
 70
    11
 71
     3
 72
    17
 73
    13
 74
     0
 42
0.0000000001
 43
0.0000000001
 12
1.0
 22
0.0
 32
0.0
 13
1.0
 23
0.0
 33
0.0
 40
0.0
 40
0.0
 40
0.0
 40
0.0
 40
1.0
 40
1.0
 40
1.0
 40
2.0
 40
2.0
 40
2.0
 40
3.0
 40
3.0
 40
3.0
 40
4.0
 40
4.0
 40
4.0
 40
4.0
 10
65.7048610946849
 20
-135.1728027439844
 30
0.0
 10
65.7048610946849
 20
-135.2420530217454
 30
0.0
 10
65.6486972140511
 20
-135.2978624661758
 30
0.0
 10
65.57979971580882
 20
-135.2978624661758
 30
0.0
 10
65.51072582868214
 20
-135.2978624661758
 30
0.0
 10
65.45474165030305
 20
-135.2420530217454
 30
0.0
 10
65.45474165030305
 20
-135.1728027439844
 30
0.0
 10
65.45474165030305
 20
-135.1039052440018
 30
0.0
 10
65.51072582868214
 20
-135.0477430217936
 30
0.0
 10
65.57979971580882
 20
-135.0477430217936
 30
0.0
 10
65.6486972140511
 20
-135.0477430217936
 30
0.0
 10
65.7048610946849
 20
-135.1039052440018
 30
0.0
 10
65.7048610946849
 20
-135.1728027439844
 30
0.0
  0
HATCH
  5
FF
330
1F
100
AcDbEntity
  8
_U+30EC_U+30A4_U+30E4_U+30FC 1
 62
     7
420
 16777215
100
AcDbHatch
 10
0.0
 20
0.0
 30
0.0
210
0.0
220
0.0
230
1.0
  2
SOLID
 70
     1
 71
     0
 91
        1
 92
        1
 93
        1
 72
     4
 94
        3
 73
     0
 74
     1
 95
       17
 96
       13
 40
0.0
 40
0.0
 40
0.0
 40
0.0
 40
1.0
 40
1.0
 40
1.0
 40
2.0
 40
2.0
 40
2.0
 40
3.0
 40
3.0
 40
3.0
 40
4.0
 40
4.0
 40
4.0
 40
4.0
 10
65.7048610946849
 20
-135.1728027439844
 10
65.7048610946849
 20
-135.2420530217454
 10
65.6486972140511
 20
-135.2978624661758
 10
65.57979971580882
 20
-135.2978624661758
 10
65.51072582868214
 20
-135.2978624661758
 10
65.45474165030305
 20
-135.2420530217454
 10
65.45474165030305
 20
-135.1728027439844
 10
65.45474165030305
 20
-135.1039052440018
 10
65.51072582868214
 20
-135.0477430217936
 10
65.57979971580882
 20
-135.0477430217936
 10
65.6486972140511
 20
-135.0477430217936
 10
65.7048610946849
 20
-135.1039052440018
 10
65.7048610946849
 20
-135.1728027439844
 97
        0
 97
        0
 75
     2
 76
     1
 98
        0
  0
SPLINE
  5
100
330
1F
100
AcDbEntity
  8
_U+30EC_U+30A4_U+30E4_U+30FC 1
370
     0
100
AcDbSpline
210
0.0
220
0.0
230
1.0
 70
    11
 71
     3
 72
    17
 73
    13
 74
     0
 42
0.0000000001
 43
0.0000000001
 12
1.0
 22
0.0
 32
0.0
 13
1.0
 23
0.0
 33
0.0
 40
0.0
 40
0.0
 40
0.0
 40
0.0
 40
1.0
 40
1.0
 40
1.0
 40
2.0
 40
2.0
 40
2.0
 40
3.0
 40
3.0
 40
3.0
 40
4.0
 40
4.0
 40
4.0
 40
4.0
 10
56.59137494512263
 20
-131.0569444116802
 30
0.0
 10
56.59137494512263
 20
-131.1261946894406
 30
0.0
 10
56.53521272433323
 20
-131.182004133871
 30
0.0
 10
56.46631665255006
 20
-131.182004133871
 30
0.0
 10
56.39724133896429
 20
-131.182004133871
 30
0.0
 10
56.34125550705927
 20
-131.1261946894406
 30
0.0
 10
56.34125550705927
 20
-131.0569444116802
 30
0.0
 10
56.34125550705927
 20
-130.9880469116976
 30
0.0
 10
56.39724133896429
 20
-130.9318846894894
 30
0.0
 10
56.46631665255006
 20
-130.9318846894894
 30
0.0
 10
56.53521272433323
 20
-130.9318846894894
 30
0.0
 10
56.59137494512263
 20
-130.9880469116976
 30
0.0
 10
56.59137494512263
 20
-131.0569444116802
 30
0.0
  0
HATCH
  5
101
330
1F
100
AcDbEntity
  8
_U+30EC_U+30A4_U+30E4_U+30FC 1
 62
     7
420
 16777215
100
AcDbHatch
 10
0.0
 20
0.0
 30
0.0
210
0.0
220
0.0
230
1.0
  2
SOLID
 70
     1
 71
     0
 91
        1
 92
        1
 93
        1
 72
     4
 94
        3
 73
     0
 74
     1
 95
       17
 96
       13
 40
0.0
 40
0.0
 40
0.0
 40
0.0
 40
1.0
 40
1.0
 40
1.0
 40
2.0
 40
2.0
 40
2.0
 40
3.0
 40
3.0
 40
3.0
 40
4.0
 40
4.0
 40
4.0
 40
4.0
 10
56.59137494512263
 20
-131.0569444116802
 10
56.59137494512263
 20
-131.1261946894406
 10
56.53521272433323
 20
-131.182004133871
 10
56.46631665255006
 20
-131.182004133871
 10
56.39724133896429
 20
-131.182004133871
 10
56.34125550705927
 20
-131.1261946894406
 10
56.34125550705927
 20
-131.0569444116802
 10
56.34125550705927
 20
-130.9880469116976
 10
56.39724133896429
 20
-130.9318846894894
 10
56.46631665255006
 20
-130.9318846894894
 10
56.53521272433323
 20
-130.9318846894894
 10
56.59137494512263
 20
-130.9880469116976
 10
56.59137494512263
 20
-131.0569444116802
 97
        0
 97
        0
 75
     2
 76
     1
 98
        0
  0
SPLINE
  5
102
330
1F
100
AcDbEntity
  8
_U+30EC_U+30A4_U+30E4_U+30FC 1
370
     0
100
AcDbSpline
210
0.0
220
0.0
230
1.0
 70
    11
 71
     3
 72
    17
 73
    13
 74
     0
 42
0.0000000001
 43
0.0000000001
 12
1.0
 22
0.0
 32
0.0
 13
1.0
 23
0.0
 33
0.0
 40
0.0
 40
0.0
 40
0.0
 40
0.0
 40
1.0
 40
1.0
 40
1.0
 40
2.0
 40
2.0
 40
2.0
 40
3.0
 40
3.0
 40
3.0
 40
4.0
 40
4.0
 40
4.0
 40
4.0
 10
55.30549997792804
 20
-127.9332735791277
 30
0.0
 10
55.30549997792804
 20
-128.0025238568883
 30
0.0
 10
55.24933775713863
 20
-128.0583333013188
 30
0.0
 10
55.18044165287169
 20
-128.0583333013188
 30
0.0
 10
55.11136637176968
 20
-128.0583333013188
 30
0.0
 10
55.05538053986467
 20
-128.0025238568883
 30
0.0
 10
55.05538053986467
 20
-127.9332735791277
 30
0.0
 10
55.05538053986467
 20
-127.8643760791451
 30
0.0
 10
55.11136637176968
 20
-127.8082138569369
 30
0.0
 10
55.18044165287169
 20
-127.8082138569369
 30
0.0
 10
55.24933775713863
 20
-127.8082138569369
 30
0.0
 10
55.30549997792804
 20
-127.8643760791451
 30
0.0
 10
55.30549997792804
 20
-127.9332735791277
 30
0.0
  0
HATCH
  5
103
330
1F
100
AcDbEntity
  8
_U+30EC_U+30A4_U+30E4_U+30FC 1
 62
     7
420
 16777215
100
AcDbHatch
 10
0.0
 20
0.0
 30
0.0
210
0.0
220
0.0
230
1.0
  2
SOLID
 70
     1
 71
     0
 91
        1
 92
        1
 93
        1
 72
     4
 94
        3
 73
     0
 74
     1
 95
       17
 96
       13
 40
0.0
 40
0.0
 40
0.0
 40
0.0
 40
1.0
 40
1.0
 40
1.0
 40
2.0
 40
2.0
 40
2.0
 40
3.0
 40
3.0
 40
3.0
 40
4.0
 40
4.0
 40
4.0
 40
4.0
 10
55.30549997792804
 20
-127.9332735791277
 10
55.30549997792804
 20
-128.0025238568883
 10
55.24933775713863
 20
-128.0583333013188
 10
55.18044165287169
 20
-128.0583333013188
 10
55.11136637176968
 20
-128.0583333013188
 10
55.05538053986467
 20
-128.0025238568883
 10
55.05538053986467
 20
-127.9332735791277
 10
55.05538053986467
 20
-127.8643760791451
 10
55.11136637176968
 20
-127.8082138569369
 10
55.18044165287169
 20
-127.8082138569369
 10
55.24933775713863
 20
-127.8082138569369
 10
55.30549997792804
 20
-127.8643760791451
 10
55.30549997792804
 20
-127.9332735791277
 97
        0
 97
        0
 75
     2
 76
     1
 98
        0
  0
SPLINE
  5
104
330
1F
100
AcDbEntity
  8
_U+30EC_U+30A4_U+30E4_U+30FC 1
370
     0
100
AcDbSpline
210
0.0
220
0.0
230
1.0
 70
    11
 71
     3
 72
    17
 73
    13
 74
     0
 42
0.0000000001
 43
0.0000000001
 12
1.0
 22
0.0
 32
0.0
 13
1.0
 23
0.0
 33
0.0
 40
0.0
 40
0.0
 40
0.0
 40
0.0
 40
1.0
 40
1.0
 40
1.0
 40
2.0
 40
2.0
 40
2.0
 40
3.0
 40
3.0
 40
3.0
 40
4.0
 40
4.0
 40
4.0
 40
4.0
 10
55.30549997792804
 20
-122.2593721916573
 30
0.0
 10
55.30549997792804
 20
-122.3289752471954
 30
0.0
 10
55.24933775713863
 20
-122.3847846916259
 30
0.0
 10
55.18044165287169
 20
-122.3847846916259
 30
0.0
 10
55.11136637176968
 20
-122.3847846916259
 30
0.0
 10
55.05538053986467
 20
-122.3289752471954
 30
0.0
 10
55.05538053986467
 20
-122.2593721916573
 30
0.0
 10
55.05538053986467
 20
-122.1904746916748
 30
0.0
 10
55.11136637176968
 20
-122.134665247244
 30
0.0
 10
55.18044165287169
 20
-122.134665247244
 30
0.0
 10
55.24933775713863
 20
-122.134665247244
 30
0.0
 10
55.30549997792804
 20
-122.1904746916748
 30
0.0
 10
55.30549997792804
 20
-122.2593721916573
 30
0.0
  0
HATCH
  5
105
330
1F
100
AcDbEntity
  8
_U+30EC_U+30A4_U+30E4_U+30FC 1
 62
     7
420
 16777215
100
AcDbHatch
 10
0.0
 20
0.0
 30
0.0
210
0.0
220
0.0
230
1.0
  2
SOLID
 70
     1
 71
     0
 91
        1
 92
        1
 93
        1
 72
     4
 94
        3
 73
     0
 74
     1
 95
       17
 96
       13
 40
0.0
 40
0.0
 40
0.0
 40
0.0
 40
1.0
 40
1.0
 40
1.0
 40
2.0
 40
2.0
 40
2.0
 40
3.0
 40
3.0
 40
3.0
 40
4.0
 40
4.0
 40
4.0
 40
4.0
 10
55.30549997792804
 20
-122.2593721916573
 10
55.30549997792804
 20
-122.3289752471954
 10
55.24933775713863
 20
-122.3847846916259
 10
55.18044165287169
 20
-122.3847846916259
 10
55.11136637176968
 20
-122.3847846916259
 10
55.05538053986467
 20
-122.3289752471954
 10
55.05538053986467
 20
-122.2593721916573
 10
55.05538053986467
 20
-122.1904746916748
 10
55.11136637176968
 20
-122.134665247244
 10
55.18044165287169
 20
-122.134665247244
 10
55.24933775713863
 20
-122.134665247244
 10
55.30549997792804
 20
-122.1904746916748
 10
55.30549997792804
 20
-122.2593721916573
 97
        0
 97
        0
 75
     2
 76
     1
 98
        0
  0
INSERT
  5
107
330
1F
100
AcDbEntity
  8
_U+30EC_U+30A4_U+30E4_U+30FC 1
100
AcDbBlockReference
  2
block 3
 10
0.0
 20
0.0
 30
0.0
  0
INSERT
  5
110
330
1F
100
AcDbEntity
  8
_U+30EC_U+30A4_U+30E4_U+30FC 1
100
AcDbBlockReference
  2
block 4
 10
0.0
 20
0.0
 30
0.0
  0
INSERT
  5
119
330
1F
100
AcDbEntity
  8
_U+30EC_U+30A4_U+30E4_U+30FC 1
100
AcDbBlockReference
  2
block 5
 10
0.0
 20
0.0
 30
0.0
  0
INSERT
  5
122
330
1F
100
AcDbEntity
  8
_U+30EC_U+30A4_U+30E4_U+30FC 1
100
AcDbBlockReference
  2
block 6
 10
0.0
 20
0.0
 30
0.0
  0
INSERT
  5
12B
330
1F
100
AcDbEntity
  8
_U+30EC_U+30A4_U+30E4_U+30FC 1
100
AcDbBlockReference
  2
block 7
 10
0.0
 20
0.0
 30
0.0
  0
INSERT
  5
134
330
1F
100
AcDbEntity
  8
_U+30EC_U+30A4_U+30E4_U+30FC 1
100
AcDbBlockReference
  2
block 8
 10
0.0
 20
0.0
 30
0.0
  0
INSERT
  5
13D
330
1F
100
AcDbEntity
  8
_U+30EC_U+30A4_U+30E4_U+30FC 1
100
AcDbBlockReference
  2
block 9
 10
0.0
 20
0.0
 30
0.0
  0
INSERT
  5
146
330
1F
100
AcDbEntity
  8
_U+30EC_U+30A4_U+30E4_U+30FC 1
100
AcDbBlockReference
  2
block 10
 10
0.0
 20
0.0
 30
0.0
  0
INSERT
  5
14F
330
1F
100
AcDbEntity
  8
_U+30EC_U+30A4_U+30E4_U+30FC 1
100
AcDbBlockReference
  2
block 11
 10
0.0
 20
0.0
 30
0.0
  0
INSERT
  5
158
330
1F
100
AcDbEntity
  8
_U+30EC_U+30A4_U+30E4_U+30FC 1
100
AcDbBlockReference
  2
block 12
 10
0.0
 20
0.0
 30
0.0
  0
INSERT
  5
161
330
1F
100
AcDbEntity
  8
_U+30EC_U+30A4_U+30E4_U+30FC 1
100
AcDbBlockReference
  2
block 13
 10
0.0
 20
0.0
 30
0.0
  0
INSERT
  5
16A
330
1F
100
AcDbEntity
  8
_U+30EC_U+30A4_U+30E4_U+30FC 1
100
AcDbBlockReference
  2
block 14
 10
0.0
 20
0.0
 30
0.0
  0
INSERT
  5
176
330
1F
100
AcDbEntity
  8
_U+30EC_U+30A4_U+30E4_U+30FC 1
100
AcDbBlockReference
  2
block 15
 10
0.0
 20
0.0
 30
0.0
  0
INSERT
  5
17F
330
1F
100
AcDbEntity
  8
_U+30EC_U+30A4_U+30E4_U+30FC 1
100
AcDbBlockReference
  2
block 16
 10
0.0
 20
0.0
 30
0.0
  0
ENDSEC
  0
SECTION
  2
OBJECTS
  0
DICTIONARY
  5
C
330
0
100
AcDbDictionary
281
     1
  3
ACAD_GROUP
350
D
  3
ACAD_LAYOUT
350
1A
  3
ACAD_MATERIAL
350
3B
  3
ACAD_MLEADERSTYLE
350
187
  3
ACAD_MLINESTYLE
350
17
  3
ACAD_PLOTSETTINGS
350
19
  3
ACAD_PLOTSTYLENAME
350
E
  3
ACAD_TABLESTYLE
350
186
  3
ACAD_VISUALSTYLE
350
2A
  0
SUN
  5
3F
330
29
100
AcDbSun
 90
        1
290
     0
 63
     7
421
 16777215
 40
1.0
291
     1
 91
  2455826
 92
 54000000
292
     0
 70
     2
 71
   256
280
     1
  0
DICTIONARY
  5
D
102
{ACAD_REACTORS
330
C
102
}
330
C
100
AcDbDictionary
281
     1
  0
DICTIONARY
  5
1A
102
{ACAD_REACTORS
330
C
102
}
330
C
100
AcDbDictionary
281
     1
  3
Layout1
350
1E
  3
Layout2
350
26
  3
Model
350
22
  0
DICTIONARY
  5
3B
102
{ACAD_REACTORS
330
C
102
}
330
C
100
AcDbDictionary
281
     1
  3
ByBlock
350
3D
  3
ByLayer
350
3C
  3
Global
350
3E
  0
DICTIONARY
  5
187
102
{ACAD_REACTORS
330
C
102
}
330
C
100
AcDbDictionary
281
     1
  0
DICTIONARY
  5
17
102
{ACAD_REACTORS
330
C
102
}
330
C
100
AcDbDictionary
281
     1
  3
Standard
350
18
  0
DICTIONARY
  5
19
102
{ACAD_REACTORS
330
C
102
}
330
C
100
AcDbDictionary
281
     1
  0
ACDBDICTIONARYWDFLT
  5
E
102
{ACAD_REACTORS
330
C
102
}
330
C
100
AcDbDictionary
281
     1
  3
Normal
350
F
100
AcDbDictionaryWithDefault
340
F
  0
DICTIONARY
  5
186
102
{ACAD_REACTORS
330
C
102
}
330
C
100
AcDbDictionary
281
     1
  0
DICTIONARY
  5
2A
102
{ACAD_REACTORS
330
C
102
}
330
C
100
AcDbDictionary
281
     1
  3
2dWireframe
350
2F
  3
3D Hidden
350
31
  3
3dWireframe
350
30
  3
Basic
350
32
  3
Brighten
350
36
  3
ColorChange
350
3A
  3
Conceptual
350
34
  3
Dim
350
35
  3
Facepattern
350
39
  3
Flat
350
2B
  3
FlatWithEdges
350
2C
  3
Gouraud
350
2D
  3
GouraudWithEdges
350
2E
  3
Linepattern
350
38
  3
Realistic
350
33
  3
Thicken
350
37
  0
LAYOUT
  5
1E
102
{ACAD_REACTORS
330
1A
102
}
330
1A
100
AcDbPlotSettings
  1

  2
none_device
  4

  6

 40
0.0
 41
0.0
 42
0.0
 43
0.0
 44
0.0
 45
0.0
 46
0.0
 47
0.0
 48
0.0
 49
0.0
140
0.0
141
0.0
142
1.0
143
1.0
 70
   688
 72
     0
 73
     0
 74
     5
  7

 75
    16
 76
     0
 77
     2
 78
   300
147
1.0
148
0.0
149
0.0
100
AcDbLayout
  1
Layout1
 70
     1
 71
     1
 10
0.0
 20
0.0
 11
12.0
 21
9.0
 12
0.0
 22
0.0
 32
0.0
 14
1.000000000000000E+20
 24
1.000000000000000E+20
 34
1.000000000000000E+20
 15
-1.000000000000000E+20
 25
-1.000000000000000E+20
 35
-1.000000000000000E+20
146
0.0
 13
0.0
 23
0.0
 33
0.0
 16
1.0
 26
0.0
 36
0.0
 17
0.0
 27
1.0
 37
0.0
 76
     0
330
1B
  0
LAYOUT
  5
26
102
{ACAD_REACTORS
330
1A
102
}
330
1A
100
AcDbPlotSettings
  1

  2
none_device
  4

  6

 40
0.0
 41
0.0
 42
0.0
 43
0.0
 44
0.0
 45
0.0
 46
0.0
 47
0.0
 48
0.0
 49
0.0
140
0.0
141
0.0
142
1.0
143
1.0
 70
   688
 72
     0
 73
     0
 74
     5
  7

 75
    16
 76
     0
 77
     2
 78
   300
147
1.0
148
0.0
149
0.0
100
AcDbLayout
  1
Layout2
 70
     1
 71
     2
 10
0.0
 20
0.0
 11
0.0
 21
0.0
 12
0.0
 22
0.0
 32
0.0
 14
0.0
 24
0.0
 34
0.0
 15
0.0
 25
0.0
 35
0.0
146
0.0
 13
0.0
 23
0.0
 33
0.0
 16
1.0
 26
0.0
 36
0.0
 17
0.0
 27
1.0
 37
0.0
 76
     0
330
23
  0
LAYOUT
  5
22
102
{ACAD_REACTORS
330
1A
102
}
330
1A
100
AcDbPlotSettings
  1

  2
none_device
  4

  6

 40
0.0
 41
0.0
 42
0.0
 43
0.0
 44
0.0
 45
0.0
 46
0.0
 47
0.0
 48
0.0
 49
0.0
140
0.0
141
0.0
142
1.0
143
1.0
 70
  1712
 72
     0
 73
     0
 74
     0
  7

 75
     0
 76
     0
 77
     2
 78
   300
147
1.0
148
0.0
149
0.0
100
AcDbLayout
  1
Model
 70
     1
 71
     0
 10
0.0
 20
0.0
 11
12.0
 21
9.0
 12
0.0
 22
0.0
 32
0.0
 14
1.000000000000000E+20
 24
1.000000000000000E+20
 34
1.000000000000000E+20
 15
-1.000000000000000E+20
 25
-1.000000000000000E+20
 35
-1.000000000000000E+20
146
0.0
 13
0.0
 23
0.0
 33
0.0
 16
1.0
 26
0.0
 36
0.0
 17
0.0
 27
1.0
 37
0.0
 76
     0
330
1F
331
29
  0
MATERIAL
  5
3D
102
{ACAD_REACTORS
330
3B
102
}
330
3B
100
AcDbMaterial
  1
ByBlock
 72
     1
 94
      127
  0
MATERIAL
  5
3C
102
{ACAD_REACTORS
330
3B
102
}
330
3B
100
AcDbMaterial
  1
ByLayer
 72
     1
 94
      127
  0
MATERIAL
  5
3E
102
{ACAD_REACTORS
330
3B
102
}
330
3B
100
AcDbMaterial
  1
Global
 72
     1
 94
      127
  0
MLINESTYLE
  5
18
102
{ACAD_REACTORS
330
17
102
}
330
17
100
AcDbMlineStyle
  2
Standard
 70
     0
  3

 62
   256
 51
90.0
 52
90.0
 71
     2
 49
0.5
 62
   256
  6
BYLAYER
 49
-0.5
 62
   256
  6
BYLAYER
  0
ACDBPLACEHOLDER
  5
F
102
{ACAD_REACTORS
330
E
102
}
330
E
  0
VISUALSTYLE
  5
2F
102
{ACAD_REACTORS
330
2A
102
}
330
2A
100
AcDbVisualStyle
  2
2dWireframe
 70
     4
177
     2
291
     0
 71
     0
176
     1
 72
     2
176
     1
 73
     0
176
     1
 90
        0
176
     1
 40
-0.6
176
     1
 41
-30.0
176
     1
 62
     5
 63
     7
421
 16777215
176
     1
 74
     1
176
     1
 91
        4
176
     1
 64
     7
176
     1
 65
   257
176
     1
 75
     1
176
     1
175
     1
176
     1
 42
1.0
176
     1
 92
        0
176
     1
 66
   257
176
     1
 43
1.0
176
     1
 76
     1
176
     1
 77
     6
176
     1
 78
     2
176
     1
 67
     7
176
     1
 79
     5
176
     1
170
     0
176
     1
171
     0
176
     1
290
     0
176
     1
 93
        1
176
     1
 44
0.0
176
     1
173
     0
176
     1
  0
VISUALSTYLE
  5
31
102
{ACAD_REACTORS
330
2A
102
}
330
2A
100
AcDbVisualStyle
  2
3D Hidden
 70
     6
177
     2
291
     0
 71
     1
176
     1
 72
     2
176
     1
 73
     2
176
     1
 90
        0
176
     1
 40
-0.6
176
     1
 41
-30.0
176
     1
 62
     5
 63
     7
421
 16777215
176
     1
 74
     2
176
     1
 91
        2
176
     1
 64
     7
176
     1
 65
   257
176
     1
 75
     2
176
     1
175
     1
176
     1
 42
40.0
176
     1
 92
        0
176
     1
 66
   257
176
     1
 43
1.0
176
     1
 76
     1
176
     1
 77
     6
176
     1
 78
     2
176
     1
 67
     7
176
     1
 79
     3
176
     1
170
     0
176
     1
171
     0
176
     1
290
     0
176
     1
 93
        1
176
     1
 44
0.0
176
     1
173
     0
176
     1
  0
VISUALSTYLE
  5
30
102
{ACAD_REACTORS
330
2A
102
}
330
2A
100
AcDbVisualStyle
  2
3dWireframe
 70
     5
177
     2
291
     0
 71
     0
176
     1
 72
     2
176
     1
 73
     0
176
     1
 90
        0
176
     1
 40
-0.6
176
     1
 41
-30.0
176
     1
 62
     5
 63
     7
421
 16777215
176
     1
 74
     1
176
     1
 91
        4
176
     1
 64
     7
176
     1
 65
   257
176
     1
 75
     1
176
     1
175
     1
176
     1
 42
1.0
176
     1
 92
        0
176
     1
 66
   257
176
     1
 43
1.0
176
     1
 76
     1
176
     1
 77
     6
176
     1
 78
     2
176
     1
 67
     7
176
     1
 79
     5
176
     1
170
     0
176
     1
171
     0
176
     1
290
     0
176
     1
 93
        1
176
     1
 44
0.0
176
     1
173
     0
176
     1
  0
VISUALSTYLE
  5
32
102
{ACAD_REACTORS
330
2A
102
}
330
2A
100
AcDbVisualStyle
  2
Basic
 70
     7
177
     2
291
     1
 71
     1
176
     1
 72
     0
176
     1
 73
     1
176
     1
 90
        0
176
     1
 40
-0.6
176
     1
 41
-30.0
176
     1
 62
     5
 63
     7
421
 16777215
176
     1
 74
     0
176
     1
 91
        4
176
     1
 64
     7
176
     1
 65
   257
176
     1
 75
     1
176
     1
175
     1
176
     1
 42
1.0
176
     1
 92
        8
176
     1
 66
     7
176
     1
 43
1.0
176
     1
 76
     1
176
     1
 77
     6
176
     1
 78
     2
176
     1
 67
     7
176
     1
 79
     5
176
     1
170
     0
176
     1
171
     0
176
     1
290
     0
176
     1
 93
        1
176
     1
 44
0.0
176
     1
173
     0
176
     1
  0
VISUALSTYLE
  5
36
102
{ACAD_REACTORS
330
2A
102
}
330
2A
100
AcDbVisualStyle
  2
Brighten
 70
    12
177
     2
291
     1
 71
     2
176
     1
 72
     2
176
     1
 73
     0
176
     1
 90
        0
176
     1
 40
-0.6
176
     1
 41
-30.0
176
     1
 62
     5
 63
     7
421
 16777215
176
     1
 74
     1
176
     1
 91
        4
176
     1
 64
     7
176
     1
 65
   257
176
     1
 75
     1
176
     1
175
     1
176
     1
 42
1.0
176
     1
 92
        8
176
     1
 66
     7
176
     1
 43
1.0
176
     1
 76
     1
176
     1
 77
     6
176
     1
 78
     2
176
     1
 67
     7
176
     1
 79
     5
176
     1
170
     0
176
     1
171
     0
176
     1
290
     0
176
     1
 93
        1
176
     1
 44
50.0
176
     1
173
     0
176
     1
  0
VISUALSTYLE
  5
3A
102
{ACAD_REACTORS
330
2A
102
}
330
2A
100
AcDbVisualStyle
  2
ColorChange
 70
    16
177
     2
291
     1
 71
     2
176
     1
 72
     2
176
     1
 73
     3
176
     1
 90
        0
176
     1
 40
-0.6
176
     1
 41
-30.0
176
     1
 62
     5
 63
     8
421
  8421504
176
     1
 74
     1
176
     1
 91
        4
176
     1
 64
     7
176
     1
 65
   257
176
     1
 75
     1
176
     1
175
     1
176
     1
 42
1.0
176
     1
 92
        8
176
     1
 66
     8
424
  8421504
176
     1
 43
1.0
176
     1
 76
     1
176
     1
 77
     6
176
     1
 78
     2
176
     1
 67
     7
176
     1
 79
     5
176
     1
170
     0
176
     1
171
     0
176
     1
290
     0
176
     1
 93
        1
176
     1
 44
0.0
176
     1
173
     0
176
     1
  0
VISUALSTYLE
  5
34
102
{ACAD_REACTORS
330
2A
102
}
330
2A
100
AcDbVisualStyle
  2
Conceptual
 70
     9
177
     2
291
     0
 71
     3
176
     1
 72
     2
176
     1
 73
     0
176
     1
 90
        0
176
     1
 40
-0.6
176
     1
 41
-30.0
176
     1
 62
     5
 63
     7
421
 16777215
176
     1
 74
     2
176
     1
 91
        2
176
     1
 64
     7
176
     1
 65
   257
176
     1
 75
     1
176
     1
175
     1
176
     1
 42
40.0
176
     1
 92
        8
176
     1
 66
     7
176
     1
 43
1.0
176
     1
 76
     1
176
     1
 77
     6
176
     1
 78
     2
176
     1
 67
     7
176
     1
 79
     3
176
     1
170
     0
176
     1
171
     0
176
     1
290
     0
176
     1
 93
        1
176
     1
 44
0.0
176
     1
173
     0
176
     1
  0
VISUALSTYLE
  5
35
102
{ACAD_REACTORS
330
2A
102
}
330
2A
100
AcDbVisualStyle
  2
Dim
 70
    11
177
     2
291
     1
 71
     2
176
     1
 72
     2
176
     1
 73
     0
176
     1
 90
        0
176
     1
 40
-0.6
176
     1
 41
-30.0
176
     1
 62
     5
 63
     7
421
 16777215
176
     1
 74
     1
176
     1
 91
        4
176
     1
 64
     7
176
     1
 65
   257
176
     1
 75
     1
176
     1
175
     1
176
     1
 42
1.0
176
     1
 92
        8
176
     1
 66
     7
176
     1
 43
1.0
176
     1
 76
     1
176
     1
 77
     6
176
     1
 78
     2
176
     1
 67
     7
176
     1
 79
     5
176
     1
170
     0
176
     1
171
     0
176
     1
290
     0
176
     1
 93
        1
176
     1
 44
-50.0
176
     1
173
     0
176
     1
  0
VISUALSTYLE
  5
39
102
{ACAD_REACTORS
330
2A
102
}
330
2A
100
AcDbVisualStyle
  2
Facepattern
 70
    15
177
     2
291
     1
 71
     2
176
     1
 72
     2
176
     1
 73
     0
176
     1
 90
        0
176
     1
 40
-0.6
176
     1
 41
-30.0
176
     1
 62
     5
 63
     7
421
 16777215
176
     1
 74
     1
176
     1
 91
        4
176
     1
 64
     7
176
     1
 65
   257
176
     1
 75
     1
176
     1
175
     1
176
     1
 42
1.0
176
     1
 92
        8
176
     1
 66
     7
176
     1
 43
1.0
176
     1
 76
     1
176
     1
 77
     6
176
     1
 78
     2
176
     1
 67
     7
176
     1
 79
     5
176
     1
170
     0
176
     1
171
     0
176
     1
290
     0
176
     1
 93
        1
176
     1
 44
0.0
176
     1
173
     0
176
     1
  0
VISUALSTYLE
  5
2B
102
{ACAD_REACTORS
330
2A
102
}
330
2A
100
AcDbVisualStyle
  2
Flat
 70
     0
177
     2
291
     1
 71
     2
176
     1
 72
     1
176
     1
 73
     1
176
     1
 90
        2
176
     1
 40
-0.6
176
     1
 41
30.0
176
     1
 62
     5
 63
     7
421
 16777215
176
     1
 74
     0
176
     1
 91
        4
176
     1
 64
     7
176
     1
 65
   257
176
     1
 75
     1
176
     1
175
     1
176
     1
 42
1.0
176
     1
 92
        8
176
     1
 66
     7
176
     1
 43
1.0
176
     1
 76
     1
176
     1
 77
     6
176
     1
 78
     2
176
     1
 67
     7
176
     1
 79
     5
176
     1
170
     0
176
     1
171
     0
176
     1
290
     0
176
     1
 93
       13
176
     1
 44
0.0
176
     1
173
     0
176
     1
  0
VISUALSTYLE
  5
2C
102
{ACAD_REACTORS
330
2A
102
}
330
2A
100
AcDbVisualStyle
  2
FlatWithEdges
 70
     1
177
     2
291
     1
 71
     2
176
     1
 72
     1
176
     1
 73
     1
176
     1
 90
        2
176
     1
 40
-0.6
176
     1
 41
30.0
176
     1
 62
     5
 63
     7
421
 16777215
176
     1
 74
     1
176
     1
 91
        4
176
     1
 64
     7
176
     1
 65
   257
176
     1
 75
     1
176
     1
175
     1
176
     1
 42
1.0
176
     1
 92
        0
176
     1
 66
   257
176
     1
 43
1.0
176
     1
 76
     1
176
     1
 77
     6
176
     1
 78
     2
176
     1
 67
     7
176
     1
 79
     5
176
     1
170
     0
176
     1
171
     0
176
     1
290
     0
176
     1
 93
       13
176
     1
 44
0.0
176
     1
173
     0
176
     1
  0
VISUALSTYLE
  5
2D
102
{ACAD_REACTORS
330
2A
102
}
330
2A
100
AcDbVisualStyle
  2
Gouraud
 70
     2
177
     2
291
     1
 71
     2
176
     1
 72
     2
176
     1
 73
     1
176
     1
 90
        2
176
     1
 40
-0.6
176
     1
 41
30.0
176
     1
 62
     5
 63
     7
421
 16777215
176
     1
 74
     0
176
     1
 91
        4
176
     1
 64
     7
176
     1
 65
   257
176
     1
 75
     1
176
     1
175
     1
176
     1
 42
1.0
176
     1
 92
        0
176
     1
 66
     7
176
     1
 43
1.0
176
     1
 76
     1
176
     1
 77
     6
176
     1
 78
     2
176
     1
 67
     7
176
     1
 79
     5
176
     1
170
     0
176
     1
171
     0
176
     1
290
     0
176
     1
 93
       13
176
     1
 44
0.0
176
     1
173
     0
176
     1
  0
VISUALSTYLE
  5
2E
102
{ACAD_REACTORS
330
2A
102
}
330
2A
100
AcDbVisualStyle
  2
GouraudWithEdges
 70
     3
177
     2
291
     1
 71
     2
176
     1
 72
     2
176
     1
 73
     1
176
     1
 90
        2
176
     1
 40
-0.6
176
     1
 41
30.0
176
     1
 62
     5
 63
     7
421
 16777215
176
     1
 74
     1
176
     1
 91
        4
176
     1
 64
     7
176
     1
 65
   257
176
     1
 75
     1
176
     1
175
     1
176
     1
 42
1.0
176
     1
 92
        0
176
     1
 66
   257
176
     1
 43
1.0
176
     1
 76
     1
176
     1
 77
     6
176
     1
 78
     2
176
     1
 67
     7
176
     1
 79
     5
176
     1
170
     0
176
     1
171
     0
176
     1
290
     0
176
     1
 93
       13
176
     1
 44
0.0
176
     1
173
     0
176
     1
  0
VISUALSTYLE
  5
38
102
{ACAD_REACTORS
330
2A
102
}
330
2A
100
AcDbVisualStyle
  2
Linepattern
 70
    14
177
     2
291
     1
 71
     2
176
     1
 72
     2
176
     1
 73
     0
176
     1
 90
        0
176
     1
 40
-0.6
176
     1
 41
-30.0
176
     1
 62
     5
 63
     7
421
 16777215
176
     1
 74
     1
176
     1
 91
        4
176
     1
 64
     7
176
     1
 65
   257
176
     1
 75
     7
176
     1
175
     7
176
     1
 42
1.0
176
     1
 92
        8
176
     1
 66
     7
176
     1
 43
1.0
176
     1
 76
     1
176
     1
 77
     6
176
     1
 78
     2
176
     1
 67
     7
176
     1
 79
     5
176
     1
170
     0
176
     1
171
     0
176
     1
290
     0
176
     1
 93
        1
176
     1
 44
0.0
176
     1
173
     0
176
     1
  0
VISUALSTYLE
  5
33
102
{ACAD_REACTORS
330
2A
102
}
330
2A
100
AcDbVisualStyle
  2
Realistic
 70
     8
177
     2
291
     0
 71
     2
176
     1
 72
     2
176
     1
 73
     0
176
     1
 90
        0
176
     1
 40
-0.6
176
     1
 41
-30.0
176
     1
 62
     5
 63
     7
421
 16777215
176
     1
 74
     1
176
     1
 91
        0
176
     1
 64
     7
176
     1
 65
   257
176
     1
 75
     1
176
     1
175
     1
176
     1
 42
1.0
176
     1
 92
        8
176
     1
 66
     8
424
  7895160
176
     1
 43
1.0
176
     1
 76
     1
176
     1
 77
     6
176
     1
 78
     2
176
     1
 67
     7
176
     1
 79
     5
176
     1
170
     0
176
     1
171
     0
176
     1
290
     0
176
     1
 93
       13
176
     1
 44
0.0
176
     1
173
     0
176
     1
  0
VISUALSTYLE
  5
37
102
{ACAD_REACTORS
330
2A
102
}
330
2A
100
AcDbVisualStyle
  2
Thicken
 70
    13
177
     2
291
     1
 71
     2
176
     1
 72
     2
176
     1
 73
     0
176
     1
 90
        0
176
     1
 40
-0.6
176
     1
 41
-30.0
176
     1
 62
     5
 63
     7
421
 16777215
176
     1
 74
     1
176
     1
 91
        4
176
     1
 64
     7
176
     1
 65
   257
176
     1
 75
     1
176
     1
175
     1
176
     1
 42
1.0
176
     1
 92
       12
176
     1
 66
     7
176
     1
 43
1.0
176
     1
 76
     1
176
     1
 77
     6
176
     1
 78
     2
176
     1
 67
     7
176
     1
 79
     5
176
     1
170
     0
176
     1
171
     0
176
     1
290
     0
176
     1
 93
        1
176
     1
 44
0.0
176
     1
173
     0
176
     1
  0
ENDSEC
  0
EOF
