  0
SECTION
  2
HEADER
  9
$ACADVER
  1
AC1024
  9
$ACADMAINTVER
 70
     6
  9
$DWGCODEPAGE
  3
UNDEFINED
  9
$INSBASE
 10
0.0
 20
0.0
 30
0.0
  9
$EXTMIN
 10
1.000000000000000E+20
 20
1.000000000000000E+20
 30
1.000000000000000E+20
  9
$EXTMAX
 10
-1.000000000000000E+20
 20
-1.000000000000000E+20
 30
-1.000000000000000E+20
  9
$LIMMIN
 10
0.0
 20
0.0
  9
$LIMMAX
 10
12.0
 20
9.0
  9
$ORTHOMODE
 70
     0
  9
$REGENMODE
 70
     1
  9
$FILLMODE
 70
     1
  9
$QTEXTMODE
 70
     0
  9
$MIRRTEXT
 70
     1
  9
$LTSCALE
 40
1.0
  9
$ATTMODE
 70
     1
  9
$TEXTSIZE
 40
0.2
  9
$TRACEWID
 40
0.05
  9
$TEXTSTYLE
  7
Standard
  9
$CLAYER
  8
0
  9
$CELTYPE
  6
ByLayer
  9
$CECOLOR
 62
   256
  9
$CELTSCALE
 40
1.0
  9
$DISPSILH
 70
     0
  9
$DIMSCALE
 40
1.0
  9
$DIMASZ
 40
0.18
  9
$DIMEXO
 40
0.0625
  9
$DIMDLI
 40
0.38
  9
$DIMRND
 40
0.0
  9
$DIMDLE
 40
0.0
  9
$DIMEXE
 40
0.18
  9
$DIMTP
 40
0.0
  9
$DIMTM
 40
0.0
  9
$DIMTXT
 40
0.18
  9
$DIMCEN
 40
0.09
  9
$DIMTSZ
 40
0.0
  9
$DIMTOL
 70
     0
  9
$DIMLIM
 70
     0
  9
$DIMTIH
 70
     1
  9
$DIMTOH
 70
     1
  9
$DIMSE1
 70
     0
  9
$DIMSE2
 70
     0
  9
$DIMTAD
 70
     0
  9
$DIMZIN
 70
     0
  9
$DIMBLK
  1

  9
$DIMASO
 70
     1
  9
$DIMSHO
 70
     1
  9
$DIMPOST
  1

  9
$DIMAPOST
  1

  9
$DIMALT
 70
     0
  9
$DIMALTD
 70
     2
  9
$DIMALTF
 40
25.4
  9
$DIMLFAC
 40
1.0
  9
$DIMTOFL
 70
     0
  9
$DIMTVP
 40
0.0
  9
$DIMTIX
 70
     0
  9
$DIMSOXD
 70
     0
  9
$DIMSAH
 70
     0
  9
$DIMBLK1
  1

  9
$DIMBLK2
  1

  9
$DIMSTYLE
  2
Standard
  9
$DIMCLRD
 70
     0
  9
$DIMCLRE
 70
     0
  9
$DIMCLRT
 70
     0
  9
$DIMTFAC
 40
1.0
  9
$DIMGAP
 40
0.09
  9
$DIMJUST
 70
     0
  9
$DIMSD1
 70
     0
  9
$DIMSD2
 70
     0
  9
$DIMTOLJ
 70
     1
  9
$DIMTZIN
 70
     0
  9
$DIMALTZ
 70
     0
  9
$DIMALTTZ
 70
     0
  9
$DIMUPT
 70
     0
  9
$DIMDEC
 70
     4
  9
$DIMTDEC
 70
     4
  9
$DIMALTU
 70
     2
  9
$DIMALTTD
 70
     2
  9
$DIMTXSTY
  7
Standard
  9
$DIMAUNIT
 70
     0
  9
$DIMADEC
 70
     0
  9
$DIMALTRND
 40
0.0
  9
$DIMAZIN
 70
     0
  9
$DIMDSEP
 70
    46
  9
$DIMATFIT
 70
     3
  9
$DIMFRAC
 70
     0
  9
$DIMLDRBLK
  1

  9
$DIMLUNIT
 70
     2
  9
$DIMLWD
 70
    -2
  9
$DIMLWE
 70
    -2
  9
$DIMTMOVE
 70
     0
  9
$DIMFXL
 40
1.0
  9
$DIMFXLON
 70
     0
  9
$DIMJOGANG
 40
0.7853981633974483
  9
$DIMTFILL
 70
     0
  9
$DIMTFILLCLR
 70
     0
  9
$DIMARCSYM
 70
     0
  9
$DIMLTYPE
  6

  9
$DIMLTEX1
  6

  9
$DIMLTEX2
  6

  9
$DIMTXTDIRECTION
 70
     0
  9
$LUNITS
 70
     2
  9
$LUPREC
 70
     4
  9
$SKETCHINC
 40
0.1
  9
$FILLETRAD
 40
0.5
  9
$AUNITS
 70
     0
  9
$AUPREC
 70
     0
  9
$MENU
  1
.
  9
$ELEVATION
 40
0.0
  9
$PELEVATION
 40
0.0
  9
$THICKNESS
 40
0.0
  9
$LIMCHECK
 70
     0
  9
$CHAMFERA
 40
0.5
  9
$CHAMFERB
 40
0.5
  9
$CHAMFERC
 40
1.0
  9
$CHAMFERD
 40
0.0
  9
$SKPOLY
 70
     0
  9
$TDCREATE
 40
2457917.62690971
  9
$TDUCREATE
 40
2457917.251909722
  9
$TDUPDATE
 40
2457917.62690971
  9
$TDUUPDATE
 40
2457917.251909722
  9
$TDINDWG
 40
0.0000000116
  9
$TDUSRTIMER
 40
0.0000000116
  9
$USRTIMER
 70
     1
  9
$ANGBASE
 50
0.0
  9
$ANGDIR
 70
     0
  9
$PDMODE
 70
     0
  9
$PDSIZE
 40
0.0
  9
$PLINEWID
 40
0.0
  9
$SPLFRAME
 70
     0
  9
$SPLINETYPE
 70
     6
  9
$SPLINESEGS
 70
     8
  9
$HANDSEED
  5
156
  9
$SURFTAB1
 70
     6
  9
$SURFTAB2
 70
     6
  9
$SURFTYPE
 70
     6
  9
$SURFU
 70
     6
  9
$SURFV
 70
     6
  9
$UCSBASE
  2

  9
$UCSNAME
  2

  9
$UCSORG
 10
0.0
 20
0.0
 30
0.0
  9
$UCSXDIR
 10
1.0
 20
0.0
 30
0.0
  9
$UCSYDIR
 10
0.0
 20
1.0
 30
0.0
  9
$UCSORTHOREF
  2

  9
$UCSORTHOVIEW
 70
     0
  9
$UCSORGTOP
 10
0.0
 20
0.0
 30
0.0
  9
$UCSORGBOTTOM
 10
0.0
 20
0.0
 30
0.0
  9
$UCSORGLEFT
 10
0.0
 20
0.0
 30
0.0
  9
$UCSORGRIGHT
 10
0.0
 20
0.0
 30
0.0
  9
$UCSORGFRONT
 10
0.0
 20
0.0
 30
0.0
  9
$UCSORGBACK
 10
0.0
 20
0.0
 30
0.0
  9
$PUCSBASE
  2

  9
$PUCSNAME
  2

  9
$PUCSORG
 10
0.0
 20
0.0
 30
0.0
  9
$PUCSXDIR
 10
1.0
 20
0.0
 30
0.0
  9
$PUCSYDIR
 10
0.0
 20
1.0
 30
0.0
  9
$PUCSORTHOREF
  2

  9
$PUCSORTHOVIEW
 70
     0
  9
$PUCSORGTOP
 10
0.0
 20
0.0
 30
0.0
  9
$PUCSORGBOTTOM
 10
0.0
 20
0.0
 30
0.0
  9
$PUCSORGLEFT
 10
0.0
 20
0.0
 30
0.0
  9
$PUCSORGRIGHT
 10
0.0
 20
0.0
 30
0.0
  9
$PUCSORGFRONT
 10
0.0
 20
0.0
 30
0.0
  9
$PUCSORGBACK
 10
0.0
 20
0.0
 30
0.0
  9
$USERI1
 70
     0
  9
$USERI2
 70
     0
  9
$USERI3
 70
     0
  9
$USERI4
 70
     0
  9
$USERI5
 70
     0
  9
$USERR1
 40
0.0
  9
$USERR2
 40
0.0
  9
$USERR3
 40
0.0
  9
$USERR4
 40
0.0
  9
$USERR5
 40
0.0
  9
$WORLDVIEW
 70
     1
  9
$SHADEDGE
 70
     3
  9
$SHADEDIF
 70
    70
  9
$TILEMODE
 70
     1
  9
$MAXACTVP
 70
    64
  9
$PINSBASE
 10
0.0
 20
0.0
 30
0.0
  9
$PLIMCHECK
 70
     0
  9
$PEXTMIN
 10
1.000000000000000E+20
 20
1.000000000000000E+20
 30
1.000000000000000E+20
  9
$PEXTMAX
 10
-1.000000000000000E+20
 20
-1.000000000000000E+20
 30
-1.000000000000000E+20
  9
$PLIMMIN
 10
0.0
 20
0.0
  9
$PLIMMAX
 10
12.0
 20
9.0
  9
$UNITMODE
 70
     0
  9
$VISRETAIN
 70
     1
  9
$PLINEGEN
 70
     0
  9
$PSLTSCALE
 70
     1
  9
$TREEDEPTH
 70
  3020
  9
$CMLSTYLE
  2
Standard
  9
$CMLJUST
 70
     0
  9
$CMLSCALE
 40
1.0
  9
$PROXYGRAPHICS
 70
     1
  9
$MEASUREMENT
 70
     0
  9
$CELWEIGHT
370
    -1
  9
$ENDCAPS
280
     0
  9
$JOINSTYLE
280
     0
  9
$LWDISPLAY
290
     1
  9
$INSUNITS
 70
     1
  9
$HYPERLINKBASE
  1

  9
$STYLESHEET
  1

  9
$XEDIT
290
     1
  9
$CEPSNTYPE
380
     0
  9
$PSTYLEMODE
290
     1
  9
$FINGERPRINTGUID
  2
{69232449-CA33-424C-A4F6-82A6F155C585}
  9
$VERSIONGUID
  2
{FAEB1C32-E019-11D5-929B-00C0DF256EC4}
  9
$EXTNAMES
290
     1
  9
$PSVPSCALE
 40
0.0
  9
$OLESTARTUP
290
     0
  9
$SORTENTS
280
   127
  9
$INDEXCTL
280
     0
  9
$HIDETEXT
280
     1
  9
$XCLIPFRAME
280
     2
  9
$HALOGAP
280
     0
  9
$OBSCOLOR
 70
   257
  9
$OBSLTYPE
280
     0
  9
$INTERSECTIONDISPLAY
280
     0
  9
$INTERSECTIONCOLOR
 70
   257
  9
$DIMASSOC
280
     2
  9
$PROJECTNAME
  1

  9
$CAMERADISPLAY
290
     0
  9
$LENSLENGTH
 40
50.0
  9
$CAMERAHEIGHT
 40
0.0
  9
$STEPSPERSEC
 40
2.0
  9
$STEPSIZE
 40
6.0
  9
$3DDWFPREC
 40
2.0
  9
$PSOLWIDTH
 40
0.25
  9
$PSOLHEIGHT
 40
4.0
  9
$LOFTANG1
 40
1.570796326794897
  9
$LOFTANG2
 40
1.570796326794897
  9
$LOFTMAG1
 40
0.0
  9
$LOFTMAG2
 40
0.0
  9
$LOFTPARAM
 70
     7
  9
$LOFTNORMALS
280
     1
  9
$LATITUDE
 40
37.795
  9
$LONGITUDE
 40
-122.394
  9
$NORTHDIRECTION
 40
0.0
  9
$TIMEZONE
 70
 -8000
  9
$LIGHTGLYPHDISPLAY
280
     1
  9
$TILEMODELIGHTSYNCH
280
     1
  9
$CMATERIAL
347
3C
  9
$SOLIDHIST
280
     1
  9
$SHOWHIST
280
     1
  9
$DWFFRAME
280
     2
  9
$DGNFRAME
280
     2
  9
$REALWORLDSCALE
290
     1
  9
$INTERFERECOLOR
 62
   256
  9
$CSHADOW
280
     0
  9
$SHADOWPLANELOCATION
 40
0.0
  0
ENDSEC
  0
SECTION
  2
CLASSES
  0
CLASS
  1
ACDBDICTIONARYWDFLT
  2
AcDbDictionaryWithDefault
  3
ObjectDBX Classes
 90
        0
 91
        4
280
     0
281
     0
  0
CLASS
  1
VISUALSTYLE
  2
AcDbVisualStyle
  3
ObjectDBX Classes
 90
     4095
 91
        4
280
     0
281
     0
  0
CLASS
  1
MATERIAL
  2
AcDbMaterial
  3
ObjectDBX Classes
 90
     1153
 91
        4
280
     0
281
     0
  0
CLASS
  1
SUN
  2
AcDbSun
  3
SCENEOE
 90
     1024
 91
        4
280
     0
281
     0
  0
ENDSEC
  0
SECTION
  2
TABLES
  0
TABLE
  2
VPORT
  5
8
330
0
100
AcDbSymbolTable
 70
     1
  0
VPORT
  5
29
330
8
100
AcDbSymbolTableRecord
100
AcDbViewportTableRecord
  2
*Active
 70
     0
 10
0.0
 20
0.0
 11
1.0
 21
1.0
 12
0.0
 22
0.0
 13
0.0
 23
0.0
 14
0.5
 24
0.5
 15
0.5
 25
0.5
 16
0.0
 26
0.0
 36
1.0
 17
91.00082462281999
 27
-128.4993055234307
 37
0.0
 40
256.9986110468615
 41
0.7081814508812795
 42
50.0
 43
0.0
 44
0.0
 50
0.0
 51
0.0
 71
     0
 72
   100
 73
     1
 74
     3
 75
     0
 76
     0
 77
     0
 78
     0
281
     0
 65
     1
110
0.0
120
0.0
130
0.0
111
1.0
121
0.0
131
0.0
112
0.0
122
1.0
132
0.0
 79
     0
146
0.0
 60
     3
 61
     5
292
     1
282
     1
141
0.0
142
0.0
 63
   250
361
3F
  0
ENDTAB
  0
TABLE
  2
LTYPE
  5
5
330
0
100
AcDbSymbolTable
 70
    12
  0
LTYPE
  5
14
330
5
100
AcDbSymbolTableRecord
100
AcDbLinetypeTableRecord
  2
ByBlock
 70
     0
  3

 72
    65
 73
     0
 40
0.0
  0
LTYPE
  5
15
330
5
100
AcDbSymbolTableRecord
100
AcDbLinetypeTableRecord
  2
ByLayer
 70
     0
  3

 72
    65
 73
     0
 40
0.0
  0
LTYPE
  5
16
330
5
100
AcDbSymbolTableRecord
100
AcDbLinetypeTableRecord
  2
Continuous
 70
     0
  3
Solid line
 72
    65
 73
     0
 40
0.0
  0
LTYPE
  5
8A
330
5
100
AcDbSymbolTableRecord
100
AcDbLinetypeTableRecord
  2
AI-Linetype-1
 70
     0
  3
Adobe Illustrator Linetype No. 1
 72
    65
 73
     2
 40
3.500014142644928
 49
2.000003083046956
 74
     0
 49
-1.500011059597972
 74
     0
  0
LTYPE
  5
8F
330
5
100
AcDbSymbolTableRecord
100
AcDbLinetypeTableRecord
  2
AI-Linetype-2
 70
     0
  3
Adobe Illustrator Linetype No. 2
 72
    65
 73
     2
 40
3.500014142644928
 49
2.000003083046956
 74
     0
 49
-1.500011059597972
 74
     0
  0
LTYPE
  5
94
330
5
100
AcDbSymbolTableRecord
100
AcDbLinetypeTableRecord
  2
AI-Linetype-3
 70
     0
  3
Adobe Illustrator Linetype No. 3
 72
    65
 73
     2
 40
3.500014142644928
 49
2.000003083046956
 74
     0
 49
-1.500011059597972
 74
     0
  0
LTYPE
  5
99
330
5
100
AcDbSymbolTableRecord
100
AcDbLinetypeTableRecord
  2
AI-Linetype-4
 70
     0
  3
Adobe Illustrator Linetype No. 4
 72
    65
 73
     2
 40
3.500014142644928
 49
2.000003083046956
 74
     0
 49
-1.500011059597972
 74
     0
  0
LTYPE
  5
9E
330
5
100
AcDbSymbolTableRecord
100
AcDbLinetypeTableRecord
  2
AI-Linetype-5
 70
     0
  3
Adobe Illustrator Linetype No. 5
 72
    65
 73
     2
 40
3.500014142644928
 49
2.000003083046956
 74
     0
 49
-1.500011059597972
 74
     0
  0
LTYPE
  5
A3
330
5
100
AcDbSymbolTableRecord
100
AcDbLinetypeTableRecord
  2
AI-Linetype-6
 70
     0
  3
Adobe Illustrator Linetype No. 6
 72
    65
 73
     2
 40
3.500014142644928
 49
2.000003083046956
 74
     0
 49
-1.500011059597972
 74
     0
  0
LTYPE
  5
B6
330
5
100
AcDbSymbolTableRecord
100
AcDbLinetypeTableRecord
  2
AI-Linetype-7
 70
     0
  3
Adobe Illustrator Linetype No. 7
 72
    65
 73
     2
 40
3.500014142644928
 49
2.000003083046956
 74
     0
 49
-1.500011059597972
 74
     0
  0
LTYPE
  5
B8
330
5
100
AcDbSymbolTableRecord
100
AcDbLinetypeTableRecord
  2
AI-Linetype-8
 70
     0
  3
Adobe Illustrator Linetype No. 8
 72
    65
 73
     2
 40
3.500014142644928
 49
2.000003083046956
 74
     0
 49
-1.500011059597972
 74
     0
  0
LTYPE
  5
BA
330
5
100
AcDbSymbolTableRecord
100
AcDbLinetypeTableRecord
  2
AI-Linetype-9
 70
     0
  3
Adobe Illustrator Linetype No. 9
 72
    65
 73
     2
 40
3.500014142644928
 49
2.000003083046956
 74
     0
 49
-1.500011059597972
 74
     0
  0
LTYPE
  5
BC
330
5
100
AcDbSymbolTableRecord
100
AcDbLinetypeTableRecord
  2
AI-Linetype-10
 70
     0
  3
Adobe Illustrator Linetype No. 10
 72
    65
 73
     2
 40
3.500014142644928
 49
2.000003083046956
 74
     0
 49
-1.500011059597972
 74
     0
  0
LTYPE
  5
BE
330
5
100
AcDbSymbolTableRecord
100
AcDbLinetypeTableRecord
  2
AI-Linetype-11
 70
     0
  3
Adobe Illustrator Linetype No. 11
 72
    65
 73
     2
 40
3.500014142644928
 49
2.000003083046956
 74
     0
 49
-1.500011059597972
 74
     0
  0
ENDTAB
  0
TABLE
  2
LAYER
  5
2
330
0
100
AcDbSymbolTable
 70
     2
  0
LAYER
  5
10
330
2
100
AcDbSymbolTableRecord
100
AcDbLayerTableRecord
  2
0
 70
     0
 62
     7
  6
Continuous
370
    -3
390
F
347
3E
  0
LAYER
  5
40
330
2
100
AcDbSymbolTableRecord
100
AcDbLayerTableRecord
  2
_U+30EC_U+30A4_U+30E4_U+30FC 1
 70
     0
 62
     7
  6
Continuous
370
    -3
390
F
347
3E
  0
ENDTAB
  0
TABLE
  2
STYLE
  5
3
330
0
100
AcDbSymbolTable
 70
     1
  0
STYLE
  5
11
330
3
100
AcDbSymbolTableRecord
100
AcDbTextStyleTableRecord
  2
Standard
 70
     0
 40
0.0
 41
1.0
 50
0.0
 71
     0
 42
0.2
  3
txt
  4

  0
ENDTAB
  0
TABLE
  2
VIEW
  5
6
330
0
100
AcDbSymbolTable
 70
     0
  0
ENDTAB
  0
TABLE
  2
UCS
  5
7
330
0
100
AcDbSymbolTable
 70
     0
  0
ENDTAB
  0
TABLE
  2
APPID
  5
9
330
0
100
AcDbSymbolTable
 70
     1
  0
APPID
  5
12
330
9
100
AcDbSymbolTableRecord
100
AcDbRegAppTableRecord
  2
ACAD
 70
     0
  0
ENDTAB
  0
TABLE
  2
DIMSTYLE
  5
A
330
0
100
AcDbSymbolTable
 70
     1
100
AcDbDimStyleTable
  0
DIMSTYLE
105
27
330
A
100
AcDbSymbolTableRecord
100
AcDbDimStyleTableRecord
  2
Standard
 70
     0
178
     0
340
11
  0
ENDTAB
  0
TABLE
  2
BLOCK_RECORD
  5
1
330
0
100
AcDbSymbolTable
 70
     8
  0
BLOCK_RECORD
  5
1F
330
1
100
AcDbSymbolTableRecord
100
AcDbBlockTableRecord
  2
*Model_Space
340
22
 70
     0
280
     1
281
     0
  0
BLOCK_RECORD
  5
1B
330
1
100
AcDbSymbolTableRecord
100
AcDbBlockTableRecord
  2
*Paper_Space
340
1E
 70
     0
280
     1
281
     0
  0
BLOCK_RECORD
  5
23
330
1
100
AcDbSymbolTableRecord
100
AcDbBlockTableRecord
  2
*Paper_Space0
340
26
 70
     0
280
     1
281
     0
  0
BLOCK_RECORD
  5
D7
330
1
100
AcDbSymbolTableRecord
100
AcDbBlockTableRecord
  2
block 2
340
0
102
{BLKREFS
331
D8
102
}
 70
     0
280
     1
281
     0
  0
BLOCK_RECORD
  5
EC
330
1
100
AcDbSymbolTableRecord
100
AcDbBlockTableRecord
  2
block 3
340
0
102
{BLKREFS
331
ED
102
}
 70
     0
280
     1
281
     0
  0
BLOCK_RECORD
  5
100
330
1
100
AcDbSymbolTableRecord
100
AcDbBlockTableRecord
  2
block 4
340
0
102
{BLKREFS
331
101
102
}
 70
     0
280
     1
281
     0
  0
BLOCK_RECORD
  5
110
330
1
100
AcDbSymbolTableRecord
100
AcDbBlockTableRecord
  2
block 5
340
0
102
{BLKREFS
331
111
102
}
 70
     0
280
     1
281
     0
  0
BLOCK_RECORD
  5
124
330
1
100
AcDbSymbolTableRecord
100
AcDbBlockTableRecord
  2
block 6
340
0
102
{BLKREFS
331
125
102
}
 70
     0
280
     1
281
     0
  0
BLOCK_RECORD
  5
139
330
1
100
AcDbSymbolTableRecord
100
AcDbBlockTableRecord
  2
block 7
340
0
102
{BLKREFS
331
13A
102
}
 70
     0
280
     1
281
     0
  0
BLOCK_RECORD
  5
148
330
1
100
AcDbSymbolTableRecord
100
AcDbBlockTableRecord
  2
block 8
340
0
102
{BLKREFS
331
149
102
}
 70
     0
280
     1
281
     0
  0
ENDTAB
  0
ENDSEC
  0
SECTION
  2
BLOCKS
  0
BLOCK
  5
20
330
1F
100
AcDbEntity
  8
0
100
AcDbBlockBegin
  2
*Model_Space
 70
     0
 10
0.0
 20
0.0
 30
0.0
  3
*Model_Space
  1

  0
ENDBLK
  5
21
330
1F
100
AcDbEntity
  8
0
100
AcDbBlockEnd
  0
BLOCK
  5
1C
330
1B
100
AcDbEntity
 67
     1
  8
0
100
AcDbBlockBegin
  2
*Paper_Space
 70
     0
 10
0.0
 20
0.0
 30
0.0
  3
*Paper_Space
  1

  0
ENDBLK
  5
1D
330
1B
100
AcDbEntity
 67
     1
  8
0
100
AcDbBlockEnd
  0
BLOCK
  5
24
330
23
100
AcDbEntity
  8
0
100
AcDbBlockBegin
  2
*Paper_Space0
 70
     0
 10
0.0
 20
0.0
 30
0.0
  3
*Paper_Space0
  1

  0
ENDBLK
  5
25
330
23
100
AcDbEntity
  8
0
100
AcDbBlockEnd
  0
BLOCK
  5
D9
330
D7
100
AcDbEntity
  8
0
100
AcDbBlockBegin
  2
block 2
 70
     0
 10
0.0
 20
0.0
 30
0.0
  3
block 2
  1

  0
SPLINE
  5
DB
330
D7
100
AcDbEntity
  8
_U+30EC_U+30A4_U+30E4_U+30FC 1
370
     0
100
AcDbSpline
210
0.0
220
0.0
230
1.0
 70
    11
 71
     3
 72
    26
 73
    22
 74
     0
 42
0.0000000001
 43
0.0000000001
 12
1.0
 22
0.0
 32
0.0
 13
1.0
 23
0.0
 33
0.0
 40
0.0
 40
0.0
 40
0.0
 40
0.0
 40
1.0
 40
1.0
 40
1.0
 40
2.0
 40
2.0
 40
2.0
 40
3.0
 40
3.0
 40
3.0
 40
4.0
 40
4.0
 40
4.0
 40
5.0
 40
5.0
 40
5.0
 40
6.0
 40
6.0
 40
6.0
 40
7.0
 40
7.0
 40
7.0
 40
7.0
 10
128.7342610355248
 20
-130.8867566947089
 30
0.0
 10
128.7342610355248
 20
-130.8867566947089
 30
0.0
 10
127.5401909403372
 20
-130.8867566947089
 30
0.0
 10
127.5401909403372
 20
-130.8867566947089
 30
0.0
 10
127.5401909403372
 20
-130.8867566947089
 30
0.0
 10
127.5401909403372
 20
-131.2677842553775
 30
0.0
 10
127.5401909403372
 20
-131.2677842553775
 30
0.0
 10
127.5401909403372
 20
-131.2677842553775
 30
0.0
 10
127.3799940002731
 20
-131.2677842553775
 30
0.0
 10
127.3799940002731
 20
-131.2677842553775
 30
0.0
 10
127.3641465610409
 20
-130.8840006183207
 30
0.0
 10
127.1881021817447
 20
-130.8302571287508
 30
0.0
 10
127.0644232538242
 20
-130.7961506834468
 30
0.0
 10
127.0644232538242
 20
-130.7961506834468
 30
0.0
 10
127.0644232538242
 20
-130.6276855142181
 30
0.0
 10
127.0644232538242
 20
-130.6276855142181
 30
0.0
 10
127.0644232538242
 20
-130.6276855142181
 30
0.0
 10
128.7342610355248
 20
-130.6276855142181
 30
0.0
 10
128.7342610355248
 20
-130.6276855142181
 30
0.0
 10
128.7342610355248
 20
-130.6276855142181
 30
0.0
 10
128.7342610355248
 20
-130.8867566947089
 30
0.0
 10
128.7342610355248
 20
-130.8867566947089
 30
0.0
  0
HATCH
  5
DC
330
D7
100
AcDbEntity
  8
_U+30EC_U+30A4_U+30E4_U+30FC 1
 62
   179
420
  2234388
100
AcDbHatch
 10
0.0
 20
0.0
 30
0.0
210
0.0
220
0.0
230
1.0
  2
SOLID
 70
     1
 71
     0
 91
        1
 92
        1
 93
        1
 72
     4
 94
        3
 73
     0
 74
     1
 95
       26
 96
       22
 40
0.0
 40
0.0
 40
0.0
 40
0.0
 40
1.0
 40
1.0
 40
1.0
 40
2.0
 40
2.0
 40
2.0
 40
3.0
 40
3.0
 40
3.0
 40
4.0
 40
4.0
 40
4.0
 40
5.0
 40
5.0
 40
5.0
 40
6.0
 40
6.0
 40
6.0
 40
7.0
 40
7.0
 40
7.0
 40
7.0
 10
128.7342610355248
 20
-130.8867566947089
 10
128.7342610355248
 20
-130.8867566947089
 10
127.5401909403372
 20
-130.8867566947089
 10
127.5401909403372
 20
-130.8867566947089
 10
127.5401909403372
 20
-130.8867566947089
 10
127.5401909403372
 20
-131.2677842553775
 10
127.5401909403372
 20
-131.2677842553775
 10
127.5401909403372
 20
-131.2677842553775
 10
127.3799940002731
 20
-131.2677842553775
 10
127.3799940002731
 20
-131.2677842553775
 10
127.3641465610409
 20
-130.8840006183207
 10
127.1881021817447
 20
-130.8302571287508
 10
127.0644232538242
 20
-130.7961506834468
 10
127.0644232538242
 20
-130.7961506834468
 10
127.0644232538242
 20
-130.6276855142181
 10
127.0644232538242
 20
-130.6276855142181
 10
127.0644232538242
 20
-130.6276855142181
 10
128.7342610355248
 20
-130.6276855142181
 10
128.7342610355248
 20
-130.6276855142181
 10
128.7342610355248
 20
-130.6276855142181
 10
128.7342610355248
 20
-130.8867566947089
 10
128.7342610355248
 20
-130.8867566947089
 97
        0
 97
        0
 75
     2
 76
     1
 98
        0
  0
SPLINE
  5
DD
330
D7
100
AcDbEntity
  8
_U+30EC_U+30A4_U+30E4_U+30FC 1
370
     0
100
AcDbSpline
210
0.0
220
0.0
230
1.0
 70
    11
 71
     3
 72
    29
 73
    25
 74
     0
 42
0.0000000001
 43
0.0000000001
 12
1.0
 22
0.0
 32
0.0
 13
1.0
 23
0.0
 33
0.0
 40
0.0
 40
0.0
 40
0.0
 40
0.0
 40
1.0
 40
1.0
 40
1.0
 40
2.0
 40
2.0
 40
2.0
 40
3.0
 40
3.0
 40
3.0
 40
4.0
 40
4.0
 40
4.0
 40
5.0
 40
5.0
 40
5.0
 40
6.0
 40
6.0
 40
6.0
 40
7.0
 40
7.0
 40
7.0
 40
8.0
 40
8.0
 40
8.0
 40
8.0
 10
128.5420247074478
 20
-129.012624750733
 30
0.0
 10
128.7687119903773
 20
-129.137337207299
 30
0.0
 10
128.7893825632888
 20
-129.3378417645405
 30
0.0
 10
128.7893825632888
 20
-129.4722004884653
 30
0.0
 10
128.7893825632888
 20
-129.6575466255717
 30
0.0
 10
128.7390841692041
 20
-129.8215331706696
 30
0.0
 10
128.5420247074478
 20
-129.9314317166491
 30
0.0
 10
128.3318738828476
 20
-130.0509765299873
 30
0.0
 10
128.075558778745
 20
-130.0730251410929
 30
0.0
 10
127.8991698899002
 20
-130.0730251410929
 30
0.0
 10
127.7437960835154
 20
-130.0730251410929
 30
0.0
 10
127.4716335401807
 20
-130.0537326063755
 30
0.0
 10
127.2563150723526
 20
-129.9314317166491
 30
0.0
 10
127.0368624899422
 20
-129.8070637696316
 30
0.0
 10
127.0117132928999
 20
-129.6210286134281
 30
0.0
 10
127.0117132928999
 20
-129.4722004884653
 30
0.0
 10
127.0117132928999
 20
-129.28892140865
 30
0.0
 10
127.0599446296933
 20
-129.1225232967124
 30
0.0
 10
127.2563150723526
 20
-129.012624750733
 30
0.0
 10
127.4647433492102
 20
-128.8975585615256
 30
0.0
 10
127.7117566955026
 20
-128.8706868167407
 30
0.0
 10
127.8991698899002
 20
-128.8706868167407
 30
0.0
 10
128.0845160270067
 20
-128.8706868167407
 30
0.0
 10
128.3339409401387
 20
-128.8954915042345
 30
0.0
 10
128.5420247074478
 20
-129.012624750733
 30
0.0
  0
SPLINE
  5
DE
330
D7
100
AcDbEntity
  8
_U+30EC_U+30A4_U+30E4_U+30FC 1
370
     0
100
AcDbSpline
210
0.0
220
0.0
230
1.0
 70
    11
 71
     3
 72
    17
 73
    13
 74
     0
 42
0.0000000001
 43
0.0000000001
 12
1.0
 22
0.0
 32
0.0
 13
1.0
 23
0.0
 33
0.0
 40
0.0
 40
0.0
 40
0.0
 40
0.0
 40
1.0
 40
1.0
 40
1.0
 40
2.0
 40
2.0
 40
2.0
 40
3.0
 40
3.0
 40
3.0
 40
4.0
 40
4.0
 40
4.0
 40
4.0
 10
127.2197970602089
 20
-129.4722004884653
 30
0.0
 10
127.2197970602089
 20
-129.7602104710322
 30
0.0
 10
127.5264105583962
 20
-129.8139539606021
 30
0.0
 10
127.8991698899002
 20
-129.8139539606021
 30
0.0
 10
128.2450574766193
 20
-129.8139539606021
 30
0.0
 10
128.57888722914
 20
-129.7726128147791
 30
0.0
 10
128.57888722914
 20
-129.4722004884653
 30
0.0
 10
128.57888722914
 20
-129.1862575631895
 30
0.0
 10
128.2746852977924
 20
-129.1297579972315
 30
0.0
 10
127.8991698899002
 20
-129.1297579972315
 30
0.0
 10
127.5539713222782
 20
-129.1297579972315
 30
0.0
 10
127.2197970602089
 20
-129.1738552194427
 30
0.0
 10
127.2197970602089
 20
-129.4722004884653
 30
0.0
  0
HATCH
  5
DF
330
D7
100
AcDbEntity
  8
_U+30EC_U+30A4_U+30E4_U+30FC 1
 62
   179
420
  2234388
100
AcDbHatch
 10
0.0
 20
0.0
 30
0.0
210
0.0
220
0.0
230
1.0
  2
SOLID
 70
     1
 71
     0
 91
        2
 92
        1
 93
        1
 72
     4
 94
        3
 73
     0
 74
     1
 95
       29
 96
       25
 40
0.0
 40
0.0
 40
0.0
 40
0.0
 40
1.0
 40
1.0
 40
1.0
 40
2.0
 40
2.0
 40
2.0
 40
3.0
 40
3.0
 40
3.0
 40
4.0
 40
4.0
 40
4.0
 40
5.0
 40
5.0
 40
5.0
 40
6.0
 40
6.0
 40
6.0
 40
7.0
 40
7.0
 40
7.0
 40
8.0
 40
8.0
 40
8.0
 40
8.0
 10
128.5420247074478
 20
-129.012624750733
 10
128.7687119903773
 20
-129.137337207299
 10
128.7893825632888
 20
-129.3378417645405
 10
128.7893825632888
 20
-129.4722004884653
 10
128.7893825632888
 20
-129.6575466255717
 10
128.7390841692041
 20
-129.8215331706696
 10
128.5420247074478
 20
-129.9314317166491
 10
128.3318738828476
 20
-130.0509765299873
 10
128.075558778745
 20
-130.0730251410929
 10
127.8991698899002
 20
-130.0730251410929
 10
127.7437960835154
 20
-130.0730251410929
 10
127.4716335401807
 20
-130.0537326063755
 10
127.2563150723526
 20
-129.9314317166491
 10
127.0368624899422
 20
-129.8070637696316
 10
127.0117132928999
 20
-129.6210286134281
 10
127.0117132928999
 20
-129.4722004884653
 10
127.0117132928999
 20
-129.28892140865
 10
127.0599446296933
 20
-129.1225232967124
 10
127.2563150723526
 20
-129.012624750733
 10
127.4647433492102
 20
-128.8975585615256
 10
127.7117566955026
 20
-128.8706868167407
 10
127.8991698899002
 20
-128.8706868167407
 10
128.0845160270067
 20
-128.8706868167407
 10
128.3339409401387
 20
-128.8954915042345
 10
128.5420247074478
 20
-129.012624750733
 97
        0
 97
        0
 92
        1
 93
        1
 72
     4
 94
        3
 73
     0
 74
     1
 95
       17
 96
       13
 40
0.0
 40
0.0
 40
0.0
 40
0.0
 40
1.0
 40
1.0
 40
1.0
 40
2.0
 40
2.0
 40
2.0
 40
3.0
 40
3.0
 40
3.0
 40
4.0
 40
4.0
 40
4.0
 40
4.0
 10
127.2197970602089
 20
-129.4722004884653
 10
127.2197970602089
 20
-129.7602104710322
 10
127.5264105583962
 20
-129.8139539606021
 10
127.8991698899002
 20
-129.8139539606021
 10
128.2450574766193
 20
-129.8139539606021
 10
128.57888722914
 20
-129.7726128147791
 10
128.57888722914
 20
-129.4722004884653
 10
128.57888722914
 20
-129.1862575631895
 10
128.2746852977924
 20
-129.1297579972315
 10
127.8991698899002
 20
-129.1297579972315
 10
127.5539713222782
 20
-129.1297579972315
 10
127.2197970602089
 20
-129.1738552194427
 10
127.2197970602089
 20
-129.4722004884653
 97
        0
 97
        0
 75
     2
 76
     1
 98
        0
  0
ENDBLK
  5
DA
330
D7
100
AcDbEntity
  8
0
100
AcDbBlockEnd
  0
BLOCK
  5
EE
330
EC
100
AcDbEntity
  8
0
100
AcDbBlockBegin
  2
block 3
 70
     0
 10
0.0
 20
0.0
 30
0.0
  3
block 3
  1

  0
SPLINE
  5
F0
330
EC
100
AcDbEntity
  8
_U+30EC_U+30A4_U+30E4_U+30FC 1
370
     0
100
AcDbSpline
210
0.0
220
0.0
230
1.0
 70
    11
 71
     3
 72
    26
 73
    22
 74
     0
 42
0.0000000001
 43
0.0000000001
 12
1.0
 22
0.0
 32
0.0
 13
1.0
 23
0.0
 33
0.0
 40
0.0
 40
0.0
 40
0.0
 40
0.0
 40
1.0
 40
1.0
 40
1.0
 40
2.0
 40
2.0
 40
2.0
 40
3.0
 40
3.0
 40
3.0
 40
4.0
 40
4.0
 40
4.0
 40
5.0
 40
5.0
 40
5.0
 40
6.0
 40
6.0
 40
6.0
 40
7.0
 40
7.0
 40
7.0
 40
7.0
 10
132.0584336692423
 20
-129.9865532444131
 30
0.0
 10
132.0584336692423
 20
-129.9865532444131
 30
0.0
 10
130.8640190645062
 20
-129.9865532444131
 30
0.0
 10
130.8640190645062
 20
-129.9865532444131
 30
0.0
 10
130.8640190645062
 20
-129.9865532444131
 30
0.0
 10
130.8640190645062
 20
-130.3679253146302
 30
0.0
 10
130.8640190645062
 20
-130.3679253146302
 30
0.0
 10
130.8640190645062
 20
-130.3679253146302
 30
0.0
 10
130.7041666339906
 20
-130.3679253146302
 30
0.0
 10
130.7041666339906
 20
-130.3679253146302
 30
0.0
 10
130.6883191947585
 20
-129.9841416775734
 30
0.0
 10
130.5119303059137
 20
-129.9303981880035
 30
0.0
 10
130.3885958875418
 20
-129.895947233151
 30
0.0
 10
130.3885958875418
 20
-129.895947233151
 30
0.0
 10
130.3885958875418
 20
-129.7274820639223
 30
0.0
 10
130.3885958875418
 20
-129.7274820639223
 30
0.0
 10
130.3885958875418
 20
-129.7274820639223
 30
0.0
 10
132.0584336692423
 20
-129.7274820639223
 30
0.0
 10
132.0584336692423
 20
-129.7274820639223
 30
0.0
 10
132.0584336692423
 20
-129.7274820639223
 30
0.0
 10
132.0584336692423
 20
-129.9865532444131
 30
0.0
 10
132.0584336692423
 20
-129.9865532444131
 30
0.0
  0
HATCH
  5
F1
330
EC
100
AcDbEntity
  8
_U+30EC_U+30A4_U+30E4_U+30FC 1
 62
   179
420
  2234388
100
AcDbHatch
 10
0.0
 20
0.0
 30
0.0
210
0.0
220
0.0
230
1.0
  2
SOLID
 70
     1
 71
     0
 91
        1
 92
        1
 93
        1
 72
     4
 94
        3
 73
     0
 74
     1
 95
       26
 96
       22
 40
0.0
 40
0.0
 40
0.0
 40
0.0
 40
1.0
 40
1.0
 40
1.0
 40
2.0
 40
2.0
 40
2.0
 40
3.0
 40
3.0
 40
3.0
 40
4.0
 40
4.0
 40
4.0
 40
5.0
 40
5.0
 40
5.0
 40
6.0
 40
6.0
 40
6.0
 40
7.0
 40
7.0
 40
7.0
 40
7.0
 10
132.0584336692423
 20
-129.9865532444131
 10
132.0584336692423
 20
-129.9865532444131
 10
130.8640190645062
 20
-129.9865532444131
 10
130.8640190645062
 20
-129.9865532444131
 10
130.8640190645062
 20
-129.9865532444131
 10
130.8640190645062
 20
-130.3679253146302
 10
130.8640190645062
 20
-130.3679253146302
 10
130.8640190645062
 20
-130.3679253146302
 10
130.7041666339906
 20
-130.3679253146302
 10
130.7041666339906
 20
-130.3679253146302
 10
130.6883191947585
 20
-129.9841416775734
 10
130.5119303059137
 20
-129.9303981880035
 10
130.3885958875418
 20
-129.895947233151
 10
130.3885958875418
 20
-129.895947233151
 10
130.3885958875418
 20
-129.7274820639223
 10
130.3885958875418
 20
-129.7274820639223
 10
130.3885958875418
 20
-129.7274820639223
 10
132.0584336692423
 20
-129.7274820639223
 10
132.0584336692423
 20
-129.7274820639223
 10
132.0584336692423
 20
-129.7274820639223
 10
132.0584336692423
 20
-129.9865532444131
 10
132.0584336692423
 20
-129.9865532444131
 97
        0
 97
        0
 75
     2
 76
     1
 98
        0
  0
SPLINE
  5
F2
330
EC
100
AcDbEntity
  8
_U+30EC_U+30A4_U+30E4_U+30FC 1
370
     0
100
AcDbSpline
210
0.0
220
0.0
230
1.0
 70
    11
 71
     3
 72
    62
 73
    58
 74
     0
 42
0.0000000001
 43
0.0000000001
 12
1.0
 22
0.0
 32
0.0
 13
1.0
 23
0.0
 33
0.0
 40
0.0
 40
0.0
 40
0.0
 40
0.0
 40
1.0
 40
1.0
 40
1.0
 40
2.0
 40
2.0
 40
2.0
 40
3.0
 40
3.0
 40
3.0
 40
4.0
 40
4.0
 40
4.0
 40
5.0
 40
5.0
 40
5.0
 40
6.0
 40
6.0
 40
6.0
 40
7.0
 40
7.0
 40
7.0
 40
8.0
 40
8.0
 40
8.0
 40
9.0
 40
9.0
 40
9.0
 40
10.0
 40
10.0
 40
10.0
 40
11.0
 40
11.0
 40
11.0
 40
12.0
 40
12.0
 40
12.0
 40
13.0
 40
13.0
 40
13.0
 40
14.0
 40
14.0
 40
14.0
 40
15.0
 40
15.0
 40
15.0
 40
16.0
 40
16.0
 40
16.0
 40
17.0
 40
17.0
 40
17.0
 40
18.0
 40
18.0
 40
18.0
 40
19.0
 40
19.0
 40
19.0
 40
19.0
 10
132.1132106874578
 20
-128.5818155603025
 30
0.0
 10
132.1132106874578
 20
-128.6917141062819
 30
0.0
 10
132.0904730572552
 20
-128.9433783314794
 30
0.0
 10
131.8892794809166
 20
-129.0877278323114
 30
0.0
 10
131.7680121198358
 20
-129.1731662003456
 30
0.0
 10
131.660525140696
 20
-129.1779893340249
 30
0.0
 10
131.5688856007883
 20
-129.1828124677043
 30
0.0
 10
131.5688856007883
 20
-129.1828124677043
 30
0.0
 10
131.5688856007883
 20
-128.9285644208929
 30
0.0
 10
131.5688856007883
 20
-128.9285644208929
 30
0.0
 10
131.6488118160461
 20
-128.9264973636017
 30
0.0
 10
131.9030598628576
 20
-128.9140950198548
 30
0.0
 10
131.9030598628576
 20
-128.5866386939818
 30
0.0
 10
131.9030598628576
 20
-128.4278197921118
 30
0.0
 10
131.8272677621821
 20
-128.2517754128155
 30
0.0
 10
131.5802544158897
 20
-128.2517754128155
 30
0.0
 10
131.454508430678
 20
-128.2517754128155
 30
0.0
 10
131.4017984697537
 20
-128.2958726350267
 30
0.0
 10
131.3676920244498
 20
-128.3325629019446
 30
0.0
 10
131.2874212996434
 20
-128.4180012699788
 30
0.0
 10
131.2739854272509
 20
-128.5523599939036
 30
0.0
 10
131.2739854272509
 20
-128.6159220056064
 30
0.0
 10
131.2739854272509
 20
-128.637970616712
 30
0.0
 10
131.2760524845421
 20
-128.6794840173093
 30
0.0
 10
131.2805311086729
 20
-128.7113511505479
 30
0.0
 10
131.2805311086729
 20
-128.7113511505479
 30
0.0
 10
131.0700357745242
 20
-128.7113511505479
 30
0.0
 10
131.0700357745242
 20
-128.7113511505479
 30
0.0
 10
131.0769259654947
 20
-128.6672539283367
 30
0.0
 10
131.0793375323343
 20
-128.6183335724461
 30
0.0
 10
131.0793375323343
 20
-128.6110988719271
 30
0.0
 10
131.0793375323343
 20
-128.5353067712516
 30
0.0
 10
131.0562553925832
 20
-128.3055189023854
 30
0.0
 10
130.7999402884806
 20
-128.3055189023854
 30
0.0
 10
130.6080484699522
 20
-128.3055189023854
 30
0.0
 10
130.5484483180573
 20
-128.4571031037364
 30
0.0
 10
130.5484483180573
 20
-128.5842271271422
 30
0.0
 10
130.5484483180573
 20
-128.8896348419096
 30
0.0
 10
130.7999402884806
 20
-128.8996256188168
 30
0.0
 10
130.8777994464472
 20
-128.9044487524961
 30
0.0
 10
130.8777994464472
 20
-128.9044487524961
 30
0.0
 10
130.8777994464472
 20
-129.1387152454931
 30
0.0
 10
130.8777994464472
 20
-129.1387152454931
 30
0.0
 10
130.7427517034254
 20
-129.1290689781344
 30
0.0
 10
130.3355414170689
 20
-129.0973740996701
 30
0.0
 10
130.3355414170689
 20
-128.5695854713298
 30
0.0
 10
130.3355414170689
 20
-128.3105142908391
 30
0.0
 10
130.4730007269304
 20
-128.0318060660823
 30
0.0
 10
130.7930500975101
 20
-128.0318060660823
 30
0.0
 10
130.9945881833972
 20
-128.0318060660823
 30
0.0
 10
131.0838161564652
 20
-128.1418768668361
 30
0.0
 10
131.149961989782
 20
-128.2567708012691
 30
0.0
 10
131.1799343205036
 20
-128.185801834273
 30
0.0
 10
131.2670952362805
 20
-127.9756510096728
 30
0.0
 10
131.5668185434972
 20
-127.9756510096728
 30
0.0
 10
131.9326876840307
 20
-127.9756510096728
 30
0.0
 10
132.1132106874578
 20
-128.2615939349485
 30
0.0
 10
132.1132106874578
 20
-128.5818155603025
 30
0.0
  0
HATCH
  5
F3
330
EC
100
AcDbEntity
  8
_U+30EC_U+30A4_U+30E4_U+30FC 1
 62
   179
420
  2234388
100
AcDbHatch
 10
0.0
 20
0.0
 30
0.0
210
0.0
220
0.0
230
1.0
  2
SOLID
 70
     1
 71
     0
 91
        1
 92
        1
 93
        1
 72
     4
 94
        3
 73
     0
 74
     1
 95
       62
 96
       58
 40
0.0
 40
0.0
 40
0.0
 40
0.0
 40
1.0
 40
1.0
 40
1.0
 40
2.0
 40
2.0
 40
2.0
 40
3.0
 40
3.0
 40
3.0
 40
4.0
 40
4.0
 40
4.0
 40
5.0
 40
5.0
 40
5.0
 40
6.0
 40
6.0
 40
6.0
 40
7.0
 40
7.0
 40
7.0
 40
8.0
 40
8.0
 40
8.0
 40
9.0
 40
9.0
 40
9.0
 40
10.0
 40
10.0
 40
10.0
 40
11.0
 40
11.0
 40
11.0
 40
12.0
 40
12.0
 40
12.0
 40
13.0
 40
13.0
 40
13.0
 40
14.0
 40
14.0
 40
14.0
 40
15.0
 40
15.0
 40
15.0
 40
16.0
 40
16.0
 40
16.0
 40
17.0
 40
17.0
 40
17.0
 40
18.0
 40
18.0
 40
18.0
 40
19.0
 40
19.0
 40
19.0
 40
19.0
 10
132.1132106874578
 20
-128.5818155603025
 10
132.1132106874578
 20
-128.6917141062819
 10
132.0904730572552
 20
-128.9433783314794
 10
131.8892794809166
 20
-129.0877278323114
 10
131.7680121198358
 20
-129.1731662003456
 10
131.660525140696
 20
-129.1779893340249
 10
131.5688856007883
 20
-129.1828124677043
 10
131.5688856007883
 20
-129.1828124677043
 10
131.5688856007883
 20
-128.9285644208929
 10
131.5688856007883
 20
-128.9285644208929
 10
131.6488118160461
 20
-128.9264973636017
 10
131.9030598628576
 20
-128.9140950198548
 10
131.9030598628576
 20
-128.5866386939818
 10
131.9030598628576
 20
-128.4278197921118
 10
131.8272677621821
 20
-128.2517754128155
 10
131.5802544158897
 20
-128.2517754128155
 10
131.454508430678
 20
-128.2517754128155
 10
131.4017984697537
 20
-128.2958726350267
 10
131.3676920244498
 20
-128.3325629019446
 10
131.2874212996434
 20
-128.4180012699788
 10
131.2739854272509
 20
-128.5523599939036
 10
131.2739854272509
 20
-128.6159220056064
 10
131.2739854272509
 20
-128.637970616712
 10
131.2760524845421
 20
-128.6794840173093
 10
131.2805311086729
 20
-128.7113511505479
 10
131.2805311086729
 20
-128.7113511505479
 10
131.0700357745242
 20
-128.7113511505479
 10
131.0700357745242
 20
-128.7113511505479
 10
131.0769259654947
 20
-128.6672539283367
 10
131.0793375323343
 20
-128.6183335724461
 10
131.0793375323343
 20
-128.6110988719271
 10
131.0793375323343
 20
-128.5353067712516
 10
131.0562553925832
 20
-128.3055189023854
 10
130.7999402884806
 20
-128.3055189023854
 10
130.6080484699522
 20
-128.3055189023854
 10
130.5484483180573
 20
-128.4571031037364
 10
130.5484483180573
 20
-128.5842271271422
 10
130.5484483180573
 20
-128.8896348419096
 10
130.7999402884806
 20
-128.8996256188168
 10
130.8777994464472
 20
-128.9044487524961
 10
130.8777994464472
 20
-128.9044487524961
 10
130.8777994464472
 20
-129.1387152454931
 10
130.8777994464472
 20
-129.1387152454931
 10
130.7427517034254
 20
-129.1290689781344
 10
130.3355414170689
 20
-129.0973740996701
 10
130.3355414170689
 20
-128.5695854713298
 10
130.3355414170689
 20
-128.3105142908391
 10
130.4730007269304
 20
-128.0318060660823
 10
130.7930500975101
 20
-128.0318060660823
 10
130.9945881833972
 20
-128.0318060660823
 10
131.0838161564652
 20
-128.1418768668361
 10
131.149961989782
 20
-128.2567708012691
 10
131.1799343205036
 20
-128.185801834273
 10
131.2670952362805
 20
-127.9756510096728
 10
131.5668185434972
 20
-127.9756510096728
 10
131.9326876840307
 20
-127.9756510096728
 10
132.1132106874578
 20
-128.2615939349485
 10
132.1132106874578
 20
-128.5818155603025
 97
        0
 97
        0
 75
     2
 76
     1
 98
        0
  0
ENDBLK
  5
EF
330
EC
100
AcDbEntity
  8
0
100
AcDbBlockEnd
  0
BLOCK
  5
102
330
100
100
AcDbEntity
  8
0
100
AcDbBlockBegin
  2
block 4
 70
     0
 10
0.0
 20
0.0
 30
0.0
  3
block 4
  1

  0
SPLINE
  5
104
330
100
100
AcDbEntity
  8
_U+30EC_U+30A4_U+30E4_U+30FC 1
370
     0
100
AcDbSpline
210
0.0
220
0.0
230
1.0
 70
    11
 71
     3
 72
    29
 73
    25
 74
     0
 42
0.0000000001
 43
0.0000000001
 12
1.0
 22
0.0
 32
0.0
 13
1.0
 23
0.0
 33
0.0
 40
0.0
 40
0.0
 40
0.0
 40
0.0
 40
1.0
 40
1.0
 40
1.0
 40
2.0
 40
2.0
 40
2.0
 40
3.0
 40
3.0
 40
3.0
 40
4.0
 40
4.0
 40
4.0
 40
5.0
 40
5.0
 40
5.0
 40
6.0
 40
6.0
 40
6.0
 40
7.0
 40
7.0
 40
7.0
 40
8.0
 40
8.0
 40
8.0
 40
8.0
 10
115.4861463469965
 20
-122.4550577493342
 30
0.0
 10
115.1781548106152
 20
-122.4550577493342
 30
0.0
 10
114.8849771848204
 20
-122.3062296243714
 30
0.0
 10
114.8849771848204
 20
-121.9288194139622
 30
0.0
 10
114.8849771848204
 20
-121.6520059917224
 30
0.0
 10
115.0489637299183
 20
-121.5489976367135
 30
0.0
 10
115.1709201100962
 20
-121.4826795486224
 30
0.0
 10
115.0269151188127
 20
-121.4186007725967
 30
0.0
 10
114.9387206743903
 20
-121.2950940994505
 30
0.0
 10
114.9387206743903
 20
-121.1212890322197
 30
0.0
 10
114.9387206743903
 20
-120.8238050370684
 30
0.0
 10
115.1685085432565
 20
-120.6773884789452
 30
0.0
 10
115.4861463469965
 20
-120.6773884789452
 30
0.0
 10
115.8137749276438
 20
-120.6773884789452
 30
0.0
 10
116.0335720196027
 20
-120.8329345401043
 30
0.0
 10
116.0335720196027
 20
-121.1212890322197
 30
0.0
 10
116.0335720196027
 20
-121.2950940994505
 30
0.0
 10
115.9433105178892
 20
-121.4186007725967
 30
0.0
 10
115.7989610170572
 20
-121.4826795486224
 30
0.0
 10
115.9016248625177
 20
-121.5376288216121
 30
0.0
 10
116.0849039423329
 20
-121.6406371766211
 30
0.0
 10
116.0849039423329
 20
-121.9243407898314
 30
0.0
 10
116.0849039423329
 20
-122.3291395093483
 30
0.0
 10
115.762098495365
 20
-122.4550577493342
 30
0.0
 10
115.4861463469965
 20
-122.4550577493342
 30
0.0
  0
SPLINE
  5
105
330
100
100
AcDbEntity
  8
_U+30EC_U+30A4_U+30E4_U+30FC 1
370
     0
100
AcDbSpline
210
0.0
220
0.0
230
1.0
 70
    11
 71
     3
 72
    17
 73
    13
 74
     0
 42
0.0000000001
 43
0.0000000001
 12
1.0
 22
0.0
 32
0.0
 13
1.0
 23
0.0
 33
0.0
 40
0.0
 40
0.0
 40
0.0
 40
0.0
 40
1.0
 40
1.0
 40
1.0
 40
2.0
 40
2.0
 40
2.0
 40
3.0
 40
3.0
 40
3.0
 40
4.0
 40
4.0
 40
4.0
 40
4.0
 10
115.4861463469965
 20
-121.5994682855724
 30
0.0
 10
115.319748235059
 20
-121.5994682855724
 30
0.0
 10
115.1440483653112
 20
-121.6931748827712
 30
0.0
 10
115.1440483653112
 20
-121.9127997199558
 30
0.0
 10
115.1440483653112
 20
-122.1346638692059
 30
0.0
 10
115.2908094329829
 20
-122.2445624151854
 30
0.0
 10
115.4861463469965
 20
-122.2445624151854
 30
0.0
 10
115.7014648148246
 20
-122.2445624151854
 30
0.0
 10
115.8282443286818
 20
-122.1119262390033
 30
0.0
 10
115.8282443286818
 20
-121.9196899109263
 30
0.0
 10
115.8282443286818
 20
-121.6793945008302
 30
0.0
 10
115.6401421151872
 20
-121.5994682855724
 30
0.0
 10
115.4861463469965
 20
-121.5994682855724
 30
0.0
  0
SPLINE
  5
106
330
100
100
AcDbEntity
  8
_U+30EC_U+30A4_U+30E4_U+30FC 1
370
     0
100
AcDbSpline
210
0.0
220
0.0
230
1.0
 70
    11
 71
     3
 72
    17
 73
    13
 74
     0
 42
0.0000000001
 43
0.0000000001
 12
1.0
 22
0.0
 32
0.0
 13
1.0
 23
0.0
 33
0.0
 40
0.0
 40
0.0
 40
0.0
 40
0.0
 40
1.0
 40
1.0
 40
1.0
 40
2.0
 40
2.0
 40
2.0
 40
3.0
 40
3.0
 40
3.0
 40
4.0
 40
4.0
 40
4.0
 40
4.0
 10
115.4861463469965
 20
-120.8856445010286
 30
0.0
 10
115.2956325666622
 20
-120.8856445010286
 30
0.0
 10
115.1977918548811
 20
-120.9884806012633
 30
0.0
 10
115.1977918548811
 20
-121.1348971593864
 30
0.0
 10
115.1977918548811
 20
-121.2677055903428
 30
0.0
 10
115.2808186560756
 20
-121.3958631423941
 30
0.0
 10
115.4861463469965
 20
-121.3958631423941
 30
0.0
 10
115.6914740379174
 20
-121.3958631423941
 30
0.0
 10
115.7745008391119
 20
-121.2677055903428
 30
0.0
 10
115.7745008391119
 20
-121.1348971593864
 30
0.0
 10
115.7745008391119
 20
-120.9884806012633
 30
0.0
 10
115.6745930700397
 20
-120.8856445010286
 30
0.0
 10
115.4861463469965
 20
-120.8856445010286
 30
0.0
  0
HATCH
  5
107
330
100
100
AcDbEntity
  8
_U+30EC_U+30A4_U+30E4_U+30FC 1
 62
   179
420
  2234388
100
AcDbHatch
 10
0.0
 20
0.0
 30
0.0
210
0.0
220
0.0
230
1.0
  2
SOLID
 70
     1
 71
     0
 91
        3
 92
        1
 93
        1
 72
     4
 94
        3
 73
     0
 74
     1
 95
       29
 96
       25
 40
0.0
 40
0.0
 40
0.0
 40
0.0
 40
1.0
 40
1.0
 40
1.0
 40
2.0
 40
2.0
 40
2.0
 40
3.0
 40
3.0
 40
3.0
 40
4.0
 40
4.0
 40
4.0
 40
5.0
 40
5.0
 40
5.0
 40
6.0
 40
6.0
 40
6.0
 40
7.0
 40
7.0
 40
7.0
 40
8.0
 40
8.0
 40
8.0
 40
8.0
 10
115.4861463469965
 20
-122.4550577493342
 10
115.1781548106152
 20
-122.4550577493342
 10
114.8849771848204
 20
-122.3062296243714
 10
114.8849771848204
 20
-121.9288194139622
 10
114.8849771848204
 20
-121.6520059917224
 10
115.0489637299183
 20
-121.5489976367135
 10
115.1709201100962
 20
-121.4826795486224
 10
115.0269151188127
 20
-121.4186007725967
 10
114.9387206743903
 20
-121.2950940994505
 10
114.9387206743903
 20
-121.1212890322197
 10
114.9387206743903
 20
-120.8238050370684
 10
115.1685085432565
 20
-120.6773884789452
 10
115.4861463469965
 20
-120.6773884789452
 10
115.8137749276438
 20
-120.6773884789452
 10
116.0335720196027
 20
-120.8329345401043
 10
116.0335720196027
 20
-121.1212890322197
 10
116.0335720196027
 20
-121.2950940994505
 10
115.9433105178892
 20
-121.4186007725967
 10
115.7989610170572
 20
-121.4826795486224
 10
115.9016248625177
 20
-121.5376288216121
 10
116.0849039423329
 20
-121.6406371766211
 10
116.0849039423329
 20
-121.9243407898314
 10
116.0849039423329
 20
-122.3291395093483
 10
115.762098495365
 20
-122.4550577493342
 10
115.4861463469965
 20
-122.4550577493342
 97
        0
 97
        0
 92
        1
 93
        1
 72
     4
 94
        3
 73
     0
 74
     1
 95
       17
 96
       13
 40
0.0
 40
0.0
 40
0.0
 40
0.0
 40
1.0
 40
1.0
 40
1.0
 40
2.0
 40
2.0
 40
2.0
 40
3.0
 40
3.0
 40
3.0
 40
4.0
 40
4.0
 40
4.0
 40
4.0
 10
115.4861463469965
 20
-121.5994682855724
 10
115.319748235059
 20
-121.5994682855724
 10
115.1440483653112
 20
-121.6931748827712
 10
115.1440483653112
 20
-121.9127997199558
 10
115.1440483653112
 20
-122.1346638692059
 10
115.2908094329829
 20
-122.2445624151854
 10
115.4861463469965
 20
-122.2445624151854
 10
115.7014648148246
 20
-122.2445624151854
 10
115.8282443286818
 20
-122.1119262390033
 10
115.8282443286818
 20
-121.9196899109263
 10
115.8282443286818
 20
-121.6793945008302
 10
115.6401421151872
 20
-121.5994682855724
 10
115.4861463469965
 20
-121.5994682855724
 97
        0
 97
        0
 92
        1
 93
        1
 72
     4
 94
        3
 73
     0
 74
     1
 95
       17
 96
       13
 40
0.0
 40
0.0
 40
0.0
 40
0.0
 40
1.0
 40
1.0
 40
1.0
 40
2.0
 40
2.0
 40
2.0
 40
3.0
 40
3.0
 40
3.0
 40
4.0
 40
4.0
 40
4.0
 40
4.0
 10
115.4861463469965
 20
-120.8856445010286
 10
115.2956325666622
 20
-120.8856445010286
 10
115.1977918548811
 20
-120.9884806012633
 10
115.1977918548811
 20
-121.1348971593864
 10
115.1977918548811
 20
-121.2677055903428
 10
115.2808186560756
 20
-121.3958631423941
 10
115.4861463469965
 20
-121.3958631423941
 10
115.6914740379174
 20
-121.3958631423941
 10
115.7745008391119
 20
-121.2677055903428
 10
115.7745008391119
 20
-121.1348971593864
 10
115.7745008391119
 20
-120.9884806012633
 10
115.6745930700397
 20
-120.8856445010286
 10
115.4861463469965
 20
-120.8856445010286
 97
        0
 97
        0
 75
     2
 76
     1
 98
        0
  0
ENDBLK
  5
103
330
100
100
AcDbEntity
  8
0
100
AcDbBlockEnd
  0
BLOCK
  5
112
330
110
100
AcDbEntity
  8
0
100
AcDbBlockBegin
  2
block 5
 70
     0
 10
0.0
 20
0.0
 30
0.0
  3
block 5
  1

  0
SPLINE
  5
114
330
110
100
AcDbEntity
  8
_U+30EC_U+30A4_U+30E4_U+30FC 1
370
     0
100
AcDbSpline
210
0.0
220
0.0
230
1.0
 70
    11
 71
     3
 72
    26
 73
    22
 74
     0
 42
0.0000000001
 43
0.0000000001
 12
1.0
 22
0.0
 32
0.0
 13
1.0
 23
0.0
 33
0.0
 40
0.0
 40
0.0
 40
0.0
 40
0.0
 40
1.0
 40
1.0
 40
1.0
 40
2.0
 40
2.0
 40
2.0
 40
3.0
 40
3.0
 40
3.0
 40
4.0
 40
4.0
 40
4.0
 40
5.0
 40
5.0
 40
5.0
 40
6.0
 40
6.0
 40
6.0
 40
7.0
 40
7.0
 40
7.0
 40
7.0
 10
121.6508002083026
 20
-122.4001084763444
 30
0.0
 10
121.6508002083026
 20
-122.4001084763444
 30
0.0
 10
121.6508002083026
 20
-121.2058661263826
 30
0.0
 10
121.6508002083026
 20
-121.2058661263826
 30
0.0
 10
121.6508002083026
 20
-121.2058661263826
 30
0.0
 10
121.2694281380854
 20
-121.2058661263826
 30
0.0
 10
121.2694281380854
 20
-121.2058661263826
 30
0.0
 10
121.2694281380854
 20
-121.2058661263826
 30
0.0
 10
121.2694281380854
 20
-121.0458414410927
 30
0.0
 10
121.2694281380854
 20
-121.0458414410927
 30
0.0
 10
121.6532117751423
 20
-121.0298217470863
 30
0.0
 10
121.7069552647121
 20
-120.8536051130158
 30
0.0
 10
121.7414062195647
 20
-120.7300984398696
 30
0.0
 10
121.7414062195647
 20
-120.7300984398696
 30
0.0
 10
121.9098713887934
 20
-120.7300984398696
 30
0.0
 10
121.9098713887934
 20
-120.7300984398696
 30
0.0
 10
121.9098713887934
 20
-120.7300984398696
 30
0.0
 10
121.9098713887934
 20
-122.4001084763444
 30
0.0
 10
121.9098713887934
 20
-122.4001084763444
 30
0.0
 10
121.9098713887934
 20
-122.4001084763444
 30
0.0
 10
121.6508002083026
 20
-122.4001084763444
 30
0.0
 10
121.6508002083026
 20
-122.4001084763444
 30
0.0
  0
HATCH
  5
115
330
110
100
AcDbEntity
  8
_U+30EC_U+30A4_U+30E4_U+30FC 1
 62
   179
420
  2234388
100
AcDbHatch
 10
0.0
 20
0.0
 30
0.0
210
0.0
220
0.0
230
1.0
  2
SOLID
 70
     1
 71
     0
 91
        1
 92
        1
 93
        1
 72
     4
 94
        3
 73
     0
 74
     1
 95
       26
 96
       22
 40
0.0
 40
0.0
 40
0.0
 40
0.0
 40
1.0
 40
1.0
 40
1.0
 40
2.0
 40
2.0
 40
2.0
 40
3.0
 40
3.0
 40
3.0
 40
4.0
 40
4.0
 40
4.0
 40
5.0
 40
5.0
 40
5.0
 40
6.0
 40
6.0
 40
6.0
 40
7.0
 40
7.0
 40
7.0
 40
7.0
 10
121.6508002083026
 20
-122.4001084763444
 10
121.6508002083026
 20
-122.4001084763444
 10
121.6508002083026
 20
-121.2058661263826
 10
121.6508002083026
 20
-121.2058661263826
 10
121.6508002083026
 20
-121.2058661263826
 10
121.2694281380854
 20
-121.2058661263826
 10
121.2694281380854
 20
-121.2058661263826
 10
121.2694281380854
 20
-121.2058661263826
 10
121.2694281380854
 20
-121.0458414410927
 10
121.2694281380854
 20
-121.0458414410927
 10
121.6532117751423
 20
-121.0298217470863
 10
121.7069552647121
 20
-120.8536051130158
 10
121.7414062195647
 20
-120.7300984398696
 10
121.7414062195647
 20
-120.7300984398696
 10
121.9098713887934
 20
-120.7300984398696
 10
121.9098713887934
 20
-120.7300984398696
 10
121.9098713887934
 20
-120.7300984398696
 10
121.9098713887934
 20
-122.4001084763444
 10
121.9098713887934
 20
-122.4001084763444
 10
121.9098713887934
 20
-122.4001084763444
 10
121.6508002083026
 20
-122.4001084763444
 10
121.6508002083026
 20
-122.4001084763444
 97
        0
 97
        0
 75
     2
 76
     1
 98
        0
  0
SPLINE
  5
116
330
110
100
AcDbEntity
  8
_U+30EC_U+30A4_U+30E4_U+30FC 1
370
     0
100
AcDbSpline
210
0.0
220
0.0
230
1.0
 70
    11
 71
     3
 72
    53
 73
    49
 74
     0
 42
0.0000000001
 43
0.0000000001
 12
1.0
 22
0.0
 32
0.0
 13
1.0
 23
0.0
 33
0.0
 40
0.0
 40
0.0
 40
0.0
 40
0.0
 40
1.0
 40
1.0
 40
1.0
 40
2.0
 40
2.0
 40
2.0
 40
3.0
 40
3.0
 40
3.0
 40
4.0
 40
4.0
 40
4.0
 40
5.0
 40
5.0
 40
5.0
 40
6.0
 40
6.0
 40
6.0
 40
7.0
 40
7.0
 40
7.0
 40
8.0
 40
8.0
 40
8.0
 40
9.0
 40
9.0
 40
9.0
 40
10.0
 40
10.0
 40
10.0
 40
11.0
 40
11.0
 40
11.0
 40
12.0
 40
12.0
 40
12.0
 40
13.0
 40
13.0
 40
13.0
 40
14.0
 40
14.0
 40
14.0
 40
15.0
 40
15.0
 40
15.0
 40
16.0
 40
16.0
 40
16.0
 40
16.0
 10
123.0433078034406
 20
-122.4550577493342
 30
0.0
 10
122.953046301727
 20
-122.4550577493342
 30
0.0
 10
122.83556854568
 20
-122.4366264884881
 30
0.0
 10
122.7184352991815
 20
-122.3680690883316
 30
0.0
 10
122.51793074194
 20
-122.2490410393162
 30
0.0
 10
122.4934705639947
 20
-122.1072753600982
 30
0.0
 10
122.4717664624376
 20
-121.9906588779225
 30
0.0
 10
122.4717664624376
 20
-121.9906588779225
 30
0.0
 10
122.7280815665402
 20
-121.9906588779225
 30
0.0
 10
122.7280815665402
 20
-121.9906588779225
 30
0.0
 10
122.7914713234688
 20
-122.2056328362021
 30
0.0
 10
122.9382323911404
 20
-122.2376722242149
 30
0.0
 10
123.0457193702802
 20
-122.2376722242149
 30
0.0
 10
123.2069498389899
 20
-122.2376722242149
 30
0.0
 10
123.3829942182862
 20
-122.1301852450751
 30
0.0
 10
123.3829942182862
 20
-121.8785210198776
 30
0.0
 10
123.3829942182862
 20
-121.6017075976378
 30
0.0
 10
123.1752549605256
 20
-121.5262600065108
 30
0.0
 10
123.0360731029215
 20
-121.5262600065108
 30
0.0
 10
122.9995550907779
 20
-121.5262600065108
 30
0.0
 10
122.83556854568
 20
-121.5262600065108
 30
0.0
 10
122.7329047002196
 20
-121.6657863736634
 30
0.0
 10
122.7329047002196
 20
-121.6657863736634
 30
0.0
 10
122.5303330856869
 20
-121.6451158007519
 30
0.0
 10
122.5303330856869
 20
-121.6451158007519
 30
0.0
 10
122.5303330856869
 20
-121.6451158007519
 30
0.0
 10
122.669514943291
 20
-120.7300984398696
 30
0.0
 10
122.669514943291
 20
-120.7300984398696
 30
0.0
 10
122.669514943291
 20
-120.7300984398696
 30
0.0
 10
123.5686848649412
 20
-120.7300984398696
 30
0.0
 10
123.5686848649412
 20
-120.7300984398696
 30
0.0
 10
123.5686848649412
 20
-120.7300984398696
 30
0.0
 10
123.5686848649412
 20
-120.9405937740183
 30
0.0
 10
123.5686848649412
 20
-120.9405937740183
 30
0.0
 10
123.5686848649412
 20
-120.9405937740183
 30
0.0
 10
122.8576171567856
 20
-120.9405937740183
 30
0.0
 10
122.8576171567856
 20
-120.9405937740183
 30
0.0
 10
122.8576171567856
 20
-120.9405937740183
 30
0.0
 10
122.7818250561101
 20
-121.3981024544595
 30
0.0
 10
122.7818250561101
 20
-121.3981024544595
 30
0.0
 10
122.8527940231063
 20
-121.3614121875416
 30
0.0
 10
122.9478786584991
 20
-121.3180039844274
 30
0.0
 10
123.0849934588121
 20
-121.3180039844274
 30
0.0
 10
123.3781710846068
 20
-121.3180039844274
 30
0.0
 10
123.6520561756842
 20
-121.5193698155403
 30
0.0
 10
123.6520561756842
 20
-121.8578504469661
 30
0.0
 10
123.6520561756842
 20
-122.2011542120712
 30
0.0
 10
123.3929849951934
 20
-122.4550577493342
 30
0.0
 10
123.0433078034406
 20
-122.4550577493342
 30
0.0
  0
HATCH
  5
117
330
110
100
AcDbEntity
  8
_U+30EC_U+30A4_U+30E4_U+30FC 1
 62
   179
420
  2234388
100
AcDbHatch
 10
0.0
 20
0.0
 30
0.0
210
0.0
220
0.0
230
1.0
  2
SOLID
 70
     1
 71
     0
 91
        1
 92
        1
 93
        1
 72
     4
 94
        3
 73
     0
 74
     1
 95
       53
 96
       49
 40
0.0
 40
0.0
 40
0.0
 40
0.0
 40
1.0
 40
1.0
 40
1.0
 40
2.0
 40
2.0
 40
2.0
 40
3.0
 40
3.0
 40
3.0
 40
4.0
 40
4.0
 40
4.0
 40
5.0
 40
5.0
 40
5.0
 40
6.0
 40
6.0
 40
6.0
 40
7.0
 40
7.0
 40
7.0
 40
8.0
 40
8.0
 40
8.0
 40
9.0
 40
9.0
 40
9.0
 40
10.0
 40
10.0
 40
10.0
 40
11.0
 40
11.0
 40
11.0
 40
12.0
 40
12.0
 40
12.0
 40
13.0
 40
13.0
 40
13.0
 40
14.0
 40
14.0
 40
14.0
 40
15.0
 40
15.0
 40
15.0
 40
16.0
 40
16.0
 40
16.0
 40
16.0
 10
123.0433078034406
 20
-122.4550577493342
 10
122.953046301727
 20
-122.4550577493342
 10
122.83556854568
 20
-122.4366264884881
 10
122.7184352991815
 20
-122.3680690883316
 10
122.51793074194
 20
-122.2490410393162
 10
122.4934705639947
 20
-122.1072753600982
 10
122.4717664624376
 20
-121.9906588779225
 10
122.4717664624376
 20
-121.9906588779225
 10
122.7280815665402
 20
-121.9906588779225
 10
122.7280815665402
 20
-121.9906588779225
 10
122.7914713234688
 20
-122.2056328362021
 10
122.9382323911404
 20
-122.2376722242149
 10
123.0457193702802
 20
-122.2376722242149
 10
123.2069498389899
 20
-122.2376722242149
 10
123.3829942182862
 20
-122.1301852450751
 10
123.3829942182862
 20
-121.8785210198776
 10
123.3829942182862
 20
-121.6017075976378
 10
123.1752549605256
 20
-121.5262600065108
 10
123.0360731029215
 20
-121.5262600065108
 10
122.9995550907779
 20
-121.5262600065108
 10
122.83556854568
 20
-121.5262600065108
 10
122.7329047002196
 20
-121.6657863736634
 10
122.7329047002196
 20
-121.6657863736634
 10
122.5303330856869
 20
-121.6451158007519
 10
122.5303330856869
 20
-121.6451158007519
 10
122.5303330856869
 20
-121.6451158007519
 10
122.669514943291
 20
-120.7300984398696
 10
122.669514943291
 20
-120.7300984398696
 10
122.669514943291
 20
-120.7300984398696
 10
123.5686848649412
 20
-120.7300984398696
 10
123.5686848649412
 20
-120.7300984398696
 10
123.5686848649412
 20
-120.7300984398696
 10
123.5686848649412
 20
-120.9405937740183
 10
123.5686848649412
 20
-120.9405937740183
 10
123.5686848649412
 20
-120.9405937740183
 10
122.8576171567856
 20
-120.9405937740183
 10
122.8576171567856
 20
-120.9405937740183
 10
122.8576171567856
 20
-120.9405937740183
 10
122.7818250561101
 20
-121.3981024544595
 10
122.7818250561101
 20
-121.3981024544595
 10
122.8527940231063
 20
-121.3614121875416
 10
122.9478786584991
 20
-121.3180039844274
 10
123.0849934588121
 20
-121.3180039844274
 10
123.3781710846068
 20
-121.3180039844274
 10
123.6520561756842
 20
-121.5193698155403
 10
123.6520561756842
 20
-121.8578504469661
 10
123.6520561756842
 20
-122.2011542120712
 10
123.3929849951934
 20
-122.4550577493342
 10
123.0433078034406
 20
-122.4550577493342
 97
        0
 97
        0
 75
     2
 76
     1
 98
        0
  0
ENDBLK
  5
113
330
110
100
AcDbEntity
  8
0
100
AcDbBlockEnd
  0
BLOCK
  5
126
330
124
100
AcDbEntity
  8
0
100
AcDbBlockBegin
  2
block 6
 70
     0
 10
0.0
 20
0.0
 30
0.0
  3
block 6
  1

  0
SPLINE
  5
128
330
124
100
AcDbEntity
  8
_U+30EC_U+30A4_U+30E4_U+30FC 1
370
     0
100
AcDbSpline
210
0.0
220
0.0
230
1.0
 70
    11
 71
     3
 72
    26
 73
    22
 74
     0
 42
0.0000000001
 43
0.0000000001
 12
1.0
 22
0.0
 32
0.0
 13
1.0
 23
0.0
 33
0.0
 40
0.0
 40
0.0
 40
0.0
 40
0.0
 40
1.0
 40
1.0
 40
1.0
 40
2.0
 40
2.0
 40
2.0
 40
3.0
 40
3.0
 40
3.0
 40
4.0
 40
4.0
 40
4.0
 40
5.0
 40
5.0
 40
5.0
 40
6.0
 40
6.0
 40
6.0
 40
7.0
 40
7.0
 40
7.0
 40
7.0
 10
51.03409422552273
 20
-131.3063693248123
 30
0.0
 10
51.03409422552273
 20
-131.3063693248123
 30
0.0
 10
49.83985187556087
 20
-131.3063693248123
 30
0.0
 10
49.83985187556087
 20
-131.3063693248123
 30
0.0
 10
49.83985187556087
 20
-131.3063693248123
 30
0.0
 10
49.83985187556087
 20
-131.6877413950295
 30
0.0
 10
49.83985187556087
 20
-131.6877413950295
 30
0.0
 10
49.83985187556087
 20
-131.6877413950295
 30
0.0
 10
49.67965493549676
 20
-131.6877413950295
 30
0.0
 10
49.67965493549676
 20
-131.6877413950295
 30
0.0
 10
49.6638074962646
 20
-131.3043022675212
 30
0.0
 10
49.48759086219408
 20
-131.2505587779513
 30
0.0
 10
49.36408418904787
 20
-131.2161078230988
 30
0.0
 10
49.36408418904787
 20
-131.2161078230988
 30
0.0
 10
49.36408418904787
 20
-131.0472981443215
 30
0.0
 10
49.36408418904787
 20
-131.0472981443215
 30
0.0
 10
49.36408418904787
 20
-131.0472981443215
 30
0.0
 10
51.03409422552273
 20
-131.0472981443215
 30
0.0
 10
51.03409422552273
 20
-131.0472981443215
 30
0.0
 10
51.03409422552273
 20
-131.0472981443215
 30
0.0
 10
51.03409422552273
 20
-131.3063693248123
 30
0.0
 10
51.03409422552273
 20
-131.3063693248123
 30
0.0
  0
HATCH
  5
129
330
124
100
AcDbEntity
  8
_U+30EC_U+30A4_U+30E4_U+30FC 1
 62
   179
420
  2234388
100
AcDbHatch
 10
0.0
 20
0.0
 30
0.0
210
0.0
220
0.0
230
1.0
  2
SOLID
 70
     1
 71
     0
 91
        1
 92
        1
 93
        1
 72
     4
 94
        3
 73
     0
 74
     1
 95
       26
 96
       22
 40
0.0
 40
0.0
 40
0.0
 40
0.0
 40
1.0
 40
1.0
 40
1.0
 40
2.0
 40
2.0
 40
2.0
 40
3.0
 40
3.0
 40
3.0
 40
4.0
 40
4.0
 40
4.0
 40
5.0
 40
5.0
 40
5.0
 40
6.0
 40
6.0
 40
6.0
 40
7.0
 40
7.0
 40
7.0
 40
7.0
 10
51.03409422552273
 20
-131.3063693248123
 10
51.03409422552273
 20
-131.3063693248123
 10
49.83985187556087
 20
-131.3063693248123
 10
49.83985187556087
 20
-131.3063693248123
 10
49.83985187556087
 20
-131.3063693248123
 10
49.83985187556087
 20
-131.6877413950295
 10
49.83985187556087
 20
-131.6877413950295
 10
49.83985187556087
 20
-131.6877413950295
 10
49.67965493549676
 20
-131.6877413950295
 10
49.67965493549676
 20
-131.6877413950295
 10
49.6638074962646
 20
-131.3043022675212
 10
49.48759086219408
 20
-131.2505587779513
 10
49.36408418904787
 20
-131.2161078230988
 10
49.36408418904787
 20
-131.2161078230988
 10
49.36408418904787
 20
-131.0472981443215
 10
49.36408418904787
 20
-131.0472981443215
 10
49.36408418904787
 20
-131.0472981443215
 10
51.03409422552273
 20
-131.0472981443215
 10
51.03409422552273
 20
-131.0472981443215
 10
51.03409422552273
 20
-131.0472981443215
 10
51.03409422552273
 20
-131.3063693248123
 10
51.03409422552273
 20
-131.3063693248123
 97
        0
 97
        0
 75
     2
 76
     1
 98
        0
  0
SPLINE
  5
12A
330
124
100
AcDbEntity
  8
_U+30EC_U+30A4_U+30E4_U+30FC 1
370
     0
100
AcDbSpline
210
0.0
220
0.0
230
1.0
 70
    11
 71
     3
 72
    29
 73
    25
 74
     0
 42
0.0000000001
 43
0.0000000001
 12
1.0
 22
0.0
 32
0.0
 13
1.0
 23
0.0
 33
0.0
 40
0.0
 40
0.0
 40
0.0
 40
0.0
 40
1.0
 40
1.0
 40
1.0
 40
2.0
 40
2.0
 40
2.0
 40
3.0
 40
3.0
 40
3.0
 40
4.0
 40
4.0
 40
4.0
 40
5.0
 40
5.0
 40
5.0
 40
6.0
 40
6.0
 40
6.0
 40
7.0
 40
7.0
 40
7.0
 40
8.0
 40
8.0
 40
8.0
 40
8.0
 10
50.84185789744578
 20
-129.4325818903849
 30
0.0
 10
51.06837292560096
 20
-129.5569498374024
 30
0.0
 10
51.08904349851247
 20
-129.757454394644
 30
0.0
 10
51.08904349851247
 20
-129.8918131185687
 30
0.0
 10
51.08904349851247
 20
-130.0778482747722
 30
0.0
 10
51.03874510442782
 20
-130.2414903103216
 30
0.0
 10
50.84185789744578
 20
-130.351388856301
 30
0.0
 10
50.63153481807129
 20
-130.4712781791877
 30
0.0
 10
50.3752197139687
 20
-130.4933267902933
 30
0.0
 10
50.19900307989817
 20
-130.4933267902933
 30
0.0
 10
50.04345701873914
 20
-130.4933267902933
 30
0.0
 10
49.7712944754044
 20
-130.4736897460274
 30
0.0
 10
49.55614826235055
 20
-130.351388856301
 30
0.0
 10
49.33652342516587
 20
-130.226676399735
 30
0.0
 10
49.31137422812355
 20
-130.04098575308
 30
0.0
 10
49.31137422812355
 20
-129.8918131185687
 30
0.0
 10
49.31137422812355
 20
-129.7085340387534
 30
0.0
 10
49.35943331014278
 20
-129.5424804363644
 30
0.0
 10
49.55614826235055
 20
-129.4325818903849
 30
0.0
 10
49.7644042844339
 20
-129.3178602107261
 30
0.0
 10
50.01141763072631
 20
-129.2909884659412
 30
0.0
 10
50.19900307989817
 20
-129.2909884659412
 30
0.0
 10
50.38434921700461
 20
-129.2909884659412
 30
0.0
 10
50.6337741301367
 20
-129.3151041343379
 30
0.0
 10
50.84185789744578
 20
-129.4325818903849
 30
0.0
  0
SPLINE
  5
12B
330
124
100
AcDbEntity
  8
_U+30EC_U+30A4_U+30E4_U+30FC 1
370
     0
100
AcDbSpline
210
0.0
220
0.0
230
1.0
 70
    11
 71
     3
 72
    17
 73
    13
 74
     0
 42
0.0000000001
 43
0.0000000001
 12
1.0
 22
0.0
 32
0.0
 13
1.0
 23
0.0
 33
0.0
 40
0.0
 40
0.0
 40
0.0
 40
0.0
 40
1.0
 40
1.0
 40
1.0
 40
2.0
 40
2.0
 40
2.0
 40
3.0
 40
3.0
 40
3.0
 40
4.0
 40
4.0
 40
4.0
 40
4.0
 10
49.5196302502069
 20
-129.8918131185687
 30
0.0
 10
49.5196302502069
 20
-130.1805121202327
 30
0.0
 10
49.82607149361987
 20
-130.2342556098025
 30
0.0
 10
50.19900307989817
 20
-130.2342556098025
 30
0.0
 10
50.54454615706873
 20
-130.2342556098025
 30
0.0
 10
50.8785481643637
 20
-130.192569954431
 30
0.0
 10
50.8785481643637
 20
-129.8918131185687
 30
0.0
 10
50.8785481643637
 20
-129.605870193293
 30
0.0
 10
50.57417397824187
 20
-129.5500596464319
 30
0.0
 10
50.19900307989817
 20
-129.5500596464319
 30
0.0
 10
49.85363225750187
 20
-129.5500596464319
 30
0.0
 10
49.5196302502069
 20
-129.5938123590946
 30
0.0
 10
49.5196302502069
 20
-129.8918131185687
 30
0.0
  0
HATCH
  5
12C
330
124
100
AcDbEntity
  8
_U+30EC_U+30A4_U+30E4_U+30FC 1
 62
   179
420
  2234388
100
AcDbHatch
 10
0.0
 20
0.0
 30
0.0
210
0.0
220
0.0
230
1.0
  2
SOLID
 70
     1
 71
     0
 91
        2
 92
        1
 93
        1
 72
     4
 94
        3
 73
     0
 74
     1
 95
       29
 96
       25
 40
0.0
 40
0.0
 40
0.0
 40
0.0
 40
1.0
 40
1.0
 40
1.0
 40
2.0
 40
2.0
 40
2.0
 40
3.0
 40
3.0
 40
3.0
 40
4.0
 40
4.0
 40
4.0
 40
5.0
 40
5.0
 40
5.0
 40
6.0
 40
6.0
 40
6.0
 40
7.0
 40
7.0
 40
7.0
 40
8.0
 40
8.0
 40
8.0
 40
8.0
 10
50.84185789744578
 20
-129.4325818903849
 10
51.06837292560096
 20
-129.5569498374024
 10
51.08904349851247
 20
-129.757454394644
 10
51.08904349851247
 20
-129.8918131185687
 10
51.08904349851247
 20
-130.0778482747722
 10
51.03874510442782
 20
-130.2414903103216
 10
50.84185789744578
 20
-130.351388856301
 10
50.63153481807129
 20
-130.4712781791877
 10
50.3752197139687
 20
-130.4933267902933
 10
50.19900307989817
 20
-130.4933267902933
 10
50.04345701873914
 20
-130.4933267902933
 10
49.7712944754044
 20
-130.4736897460274
 10
49.55614826235055
 20
-130.351388856301
 10
49.33652342516587
 20
-130.226676399735
 10
49.31137422812355
 20
-130.04098575308
 10
49.31137422812355
 20
-129.8918131185687
 10
49.31137422812355
 20
-129.7085340387534
 10
49.35943331014278
 20
-129.5424804363644
 10
49.55614826235055
 20
-129.4325818903849
 10
49.7644042844339
 20
-129.3178602107261
 10
50.01141763072631
 20
-129.2909884659412
 10
50.19900307989817
 20
-129.2909884659412
 10
50.38434921700461
 20
-129.2909884659412
 10
50.6337741301367
 20
-129.3151041343379
 10
50.84185789744578
 20
-129.4325818903849
 97
        0
 97
        0
 92
        1
 93
        1
 72
     4
 94
        3
 73
     0
 74
     1
 95
       17
 96
       13
 40
0.0
 40
0.0
 40
0.0
 40
0.0
 40
1.0
 40
1.0
 40
1.0
 40
2.0
 40
2.0
 40
2.0
 40
3.0
 40
3.0
 40
3.0
 40
4.0
 40
4.0
 40
4.0
 40
4.0
 10
49.5196302502069
 20
-129.8918131185687
 10
49.5196302502069
 20
-130.1805121202327
 10
49.82607149361987
 20
-130.2342556098025
 10
50.19900307989817
 20
-130.2342556098025
 10
50.54454615706873
 20
-130.2342556098025
 10
50.8785481643637
 20
-130.192569954431
 10
50.8785481643637
 20
-129.8918131185687
 10
50.8785481643637
 20
-129.605870193293
 10
50.57417397824187
 20
-129.5500596464319
 10
50.19900307989817
 20
-129.5500596464319
 10
49.85363225750187
 20
-129.5500596464319
 10
49.5196302502069
 20
-129.5938123590946
 10
49.5196302502069
 20
-129.8918131185687
 97
        0
 97
        0
 75
     2
 76
     1
 98
        0
  0
ENDBLK
  5
127
330
124
100
AcDbEntity
  8
0
100
AcDbBlockEnd
  0
BLOCK
  5
13B
330
139
100
AcDbEntity
  8
0
100
AcDbBlockBegin
  2
block 7
 70
     0
 10
0.0
 20
0.0
 30
0.0
  3
block 7
  1

  0
SPLINE
  5
13D
330
139
100
AcDbEntity
  8
_U+30EC_U+30A4_U+30E4_U+30FC 1
370
     0
100
AcDbSpline
210
0.0
220
0.0
230
1.0
 70
    11
 71
     3
 72
    32
 73
    28
 74
     0
 42
0.0000000001
 43
0.0000000001
 12
1.0
 22
0.0
 32
0.0
 13
1.0
 23
0.0
 33
0.0
 40
0.0
 40
0.0
 40
0.0
 40
0.0
 40
1.0
 40
1.0
 40
1.0
 40
2.0
 40
2.0
 40
2.0
 40
3.0
 40
3.0
 40
3.0
 40
4.0
 40
4.0
 40
4.0
 40
5.0
 40
5.0
 40
5.0
 40
6.0
 40
6.0
 40
6.0
 40
7.0
 40
7.0
 40
7.0
 40
8.0
 40
8.0
 40
8.0
 40
9.0
 40
9.0
 40
9.0
 40
9.0
 10
55.79090981678144
 20
-135.8277126396542
 30
0.0
 10
55.19473604305896
 20
-135.8277126396542
 30
0.0
 10
55.18491752092599
 20
-135.2282660252207
 30
0.0
 10
55.18491752092599
 20
-134.997444627709
 30
0.0
 10
55.18491752092599
 20
-134.7480197145769
 30
0.0
 10
55.2069661320316
 20
-134.0479763119741
 30
0.0
 10
55.83500703899264
 20
-134.0479763119741
 30
0.0
 10
56.03533934145992
 20
-134.0479763119741
 30
0.0
 10
56.31887069989598
 20
-134.1230793935526
 30
0.0
 10
56.36279566733292
 20
-134.4824028526641
 30
0.0
 10
56.36279566733292
 20
-134.4824028526641
 30
0.0
 10
56.11595457581476
 20
-134.4824028526641
 30
0.0
 10
56.11595457581476
 20
-134.4824028526641
 30
0.0
 10
56.10372448684213
 20
-134.4207356434782
 30
0.0
 10
56.06720647469848
 20
-134.260538703414
 30
0.0
 10
55.83259547215297
 20
-134.260538703414
 30
0.0
 10
55.49532062414701
 20
-134.260538703414
 30
0.0
 10
55.44881183509613
 20
-134.6150390288462
 30
0.0
 10
55.43417017928382
 20
-134.8369031780963
 30
0.0
 10
55.54165715842362
 20
-134.7524983387077
 30
0.0
 10
55.61986082593879
 20
-134.6884195626821
 30
0.0
 10
55.83018390531329
 20
-134.6884195626821
 30
0.0
 10
56.03775090829959
 20
-134.6884195626821
 30
0.0
 10
56.38725584527819
 20
-134.805208299632
 30
0.0
 10
56.38725584527819
 20
-135.2441134644529
 30
0.0
 10
56.38725584527819
 20
-135.5896565416234
 30
0.0
 10
56.15764023118629
 20
-135.8277126396542
 30
0.0
 10
55.79090981678144
 20
-135.8277126396542
 30
0.0
  0
SPLINE
  5
13E
330
139
100
AcDbEntity
  8
_U+30EC_U+30A4_U+30E4_U+30FC 1
370
     0
100
AcDbSpline
210
0.0
220
0.0
230
1.0
 70
    11
 71
     3
 72
    17
 73
    13
 74
     0
 42
0.0000000001
 43
0.0000000001
 12
1.0
 22
0.0
 32
0.0
 13
1.0
 23
0.0
 33
0.0
 40
0.0
 40
0.0
 40
0.0
 40
0.0
 40
1.0
 40
1.0
 40
1.0
 40
2.0
 40
2.0
 40
2.0
 40
3.0
 40
3.0
 40
3.0
 40
4.0
 40
4.0
 40
4.0
 40
4.0
 10
55.81054686104736
 20
-134.8989148968308
 30
0.0
 10
55.50755071311964
 20
-134.8989148968308
 30
0.0
 10
55.46345349090844
 20
-135.1276692370514
 30
0.0
 10
55.46345349090844
 20
-135.253415222263
 30
0.0
 10
55.46345349090844
 20
-135.4432399835003
 30
0.0
 10
55.57352429166217
 20
-135.6196288723451
 30
0.0
 10
55.78608668310209
 20
-135.6196288723451
 30
0.0
 10
55.92544079548045
 20
-135.6196288723451
 30
0.0
 10
56.1281846647874
 20
-135.5555500963195
 30
0.0
 10
56.1281846647874
 20
-135.2465250312925
 30
0.0
 10
56.1281846647874
 20
-135.003990309131
 30
0.0
 10
55.96695419607771
 20
-134.8989148968308
 30
0.0
 10
55.81054686104736
 20
-134.8989148968308
 30
0.0
  0
HATCH
  5
13F
330
139
100
AcDbEntity
  8
_U+30EC_U+30A4_U+30E4_U+30FC 1
 62
   179
420
  2234388
100
AcDbHatch
 10
0.0
 20
0.0
 30
0.0
210
0.0
220
0.0
230
1.0
  2
SOLID
 70
     1
 71
     0
 91
        2
 92
        1
 93
        1
 72
     4
 94
        3
 73
     0
 74
     1
 95
       32
 96
       28
 40
0.0
 40
0.0
 40
0.0
 40
0.0
 40
1.0
 40
1.0
 40
1.0
 40
2.0
 40
2.0
 40
2.0
 40
3.0
 40
3.0
 40
3.0
 40
4.0
 40
4.0
 40
4.0
 40
5.0
 40
5.0
 40
5.0
 40
6.0
 40
6.0
 40
6.0
 40
7.0
 40
7.0
 40
7.0
 40
8.0
 40
8.0
 40
8.0
 40
9.0
 40
9.0
 40
9.0
 40
9.0
 10
55.79090981678144
 20
-135.8277126396542
 10
55.19473604305896
 20
-135.8277126396542
 10
55.18491752092599
 20
-135.2282660252207
 10
55.18491752092599
 20
-134.997444627709
 10
55.18491752092599
 20
-134.7480197145769
 10
55.2069661320316
 20
-134.0479763119741
 10
55.83500703899264
 20
-134.0479763119741
 10
56.03533934145992
 20
-134.0479763119741
 10
56.31887069989598
 20
-134.1230793935526
 10
56.36279566733292
 20
-134.4824028526641
 10
56.36279566733292
 20
-134.4824028526641
 10
56.11595457581476
 20
-134.4824028526641
 10
56.11595457581476
 20
-134.4824028526641
 10
56.10372448684213
 20
-134.4207356434782
 10
56.06720647469848
 20
-134.260538703414
 10
55.83259547215297
 20
-134.260538703414
 10
55.49532062414701
 20
-134.260538703414
 10
55.44881183509613
 20
-134.6150390288462
 10
55.43417017928382
 20
-134.8369031780963
 10
55.54165715842362
 20
-134.7524983387077
 10
55.61986082593879
 20
-134.6884195626821
 10
55.83018390531329
 20
-134.6884195626821
 10
56.03775090829959
 20
-134.6884195626821
 10
56.38725584527819
 20
-134.805208299632
 10
56.38725584527819
 20
-135.2441134644529
 10
56.38725584527819
 20
-135.5896565416234
 10
56.15764023118629
 20
-135.8277126396542
 10
55.79090981678144
 20
-135.8277126396542
 97
        0
 97
        0
 92
        1
 93
        1
 72
     4
 94
        3
 73
     0
 74
     1
 95
       17
 96
       13
 40
0.0
 40
0.0
 40
0.0
 40
0.0
 40
1.0
 40
1.0
 40
1.0
 40
2.0
 40
2.0
 40
2.0
 40
3.0
 40
3.0
 40
3.0
 40
4.0
 40
4.0
 40
4.0
 40
4.0
 10
55.81054686104736
 20
-134.8989148968308
 10
55.50755071311964
 20
-134.8989148968308
 10
55.46345349090844
 20
-135.1276692370514
 10
55.46345349090844
 20
-135.253415222263
 10
55.46345349090844
 20
-135.4432399835003
 10
55.57352429166217
 20
-135.6196288723451
 10
55.78608668310209
 20
-135.6196288723451
 10
55.92544079548045
 20
-135.6196288723451
 10
56.1281846647874
 20
-135.5555500963195
 10
56.1281846647874
 20
-135.2465250312925
 10
56.1281846647874
 20
-135.003990309131
 10
55.96695419607771
 20
-134.8989148968308
 10
55.81054686104736
 20
-134.8989148968308
 97
        0
 97
        0
 75
     2
 76
     1
 98
        0
  0
ENDBLK
  5
13C
330
139
100
AcDbEntity
  8
0
100
AcDbBlockEnd
  0
BLOCK
  5
14A
330
148
100
AcDbEntity
  8
0
100
AcDbBlockBegin
  2
block 8
 70
     0
 10
0.0
 20
0.0
 30
0.0
  3
block 8
  1

  0
SPLINE
  5
14C
330
148
100
AcDbEntity
  8
_U+30EC_U+30A4_U+30E4_U+30FC 1
370
     0
100
AcDbSpline
210
0.0
220
0.0
230
1.0
 70
    11
 71
     3
 72
    26
 73
    22
 74
     0
 42
0.0000000001
 43
0.0000000001
 12
1.0
 22
0.0
 32
0.0
 13
1.0
 23
0.0
 33
0.0
 40
0.0
 40
0.0
 40
0.0
 40
0.0
 40
1.0
 40
1.0
 40
1.0
 40
2.0
 40
2.0
 40
2.0
 40
3.0
 40
3.0
 40
3.0
 40
4.0
 40
4.0
 40
4.0
 40
5.0
 40
5.0
 40
5.0
 40
6.0
 40
6.0
 40
6.0
 40
7.0
 40
7.0
 40
7.0
 40
7.0
 10
86.1716566082314
 20
-135.7725911118902
 30
0.0
 10
86.1716566082314
 20
-135.7725911118902
 30
0.0
 10
86.1716566082314
 20
-134.5785210167026
 30
0.0
 10
86.1716566082314
 20
-134.5785210167026
 30
0.0
 10
86.1716566082314
 20
-134.5785210167026
 30
0.0
 10
85.7904567927885
 20
-134.5785210167026
 30
0.0
 10
85.7904567927885
 20
-134.5785210167026
 30
0.0
 10
85.7904567927885
 20
-134.5785210167026
 30
0.0
 10
85.7904567927885
 20
-134.4183240766385
 30
0.0
 10
85.7904567927885
 20
-134.4183240766385
 30
0.0
 10
86.17406817507107
 20
-134.4024766374063
 30
0.0
 10
86.22781166464097
 20
-134.2264322581101
 30
0.0
 10
86.2620903647192
 20
-134.1027533301896
 30
0.0
 10
86.2620903647192
 20
-134.1027533301896
 30
0.0
 10
86.43072778872218
 20
-134.1027533301896
 30
0.0
 10
86.43072778872218
 20
-134.1027533301896
 30
0.0
 10
86.43072778872218
 20
-134.1027533301896
 30
0.0
 10
86.43072778872218
 20
-135.7725911118902
 30
0.0
 10
86.43072778872218
 20
-135.7725911118902
 30
0.0
 10
86.43072778872218
 20
-135.7725911118902
 30
0.0
 10
86.1716566082314
 20
-135.7725911118902
 30
0.0
 10
86.1716566082314
 20
-135.7725911118902
 30
0.0
  0
HATCH
  5
14D
330
148
100
AcDbEntity
  8
_U+30EC_U+30A4_U+30E4_U+30FC 1
 62
   179
420
  2234388
100
AcDbHatch
 10
0.0
 20
0.0
 30
0.0
210
0.0
220
0.0
230
1.0
  2
SOLID
 70
     1
 71
     0
 91
        1
 92
        1
 93
        1
 72
     4
 94
        3
 73
     0
 74
     1
 95
       26
 96
       22
 40
0.0
 40
0.0
 40
0.0
 40
0.0
 40
1.0
 40
1.0
 40
1.0
 40
2.0
 40
2.0
 40
2.0
 40
3.0
 40
3.0
 40
3.0
 40
4.0
 40
4.0
 40
4.0
 40
5.0
 40
5.0
 40
5.0
 40
6.0
 40
6.0
 40
6.0
 40
7.0
 40
7.0
 40
7.0
 40
7.0
 10
86.1716566082314
 20
-135.7725911118902
 10
86.1716566082314
 20
-135.7725911118902
 10
86.1716566082314
 20
-134.5785210167026
 10
86.1716566082314
 20
-134.5785210167026
 10
86.1716566082314
 20
-134.5785210167026
 10
85.7904567927885
 20
-134.5785210167026
 10
85.7904567927885
 20
-134.5785210167026
 10
85.7904567927885
 20
-134.5785210167026
 10
85.7904567927885
 20
-134.4183240766385
 10
85.7904567927885
 20
-134.4183240766385
 10
86.17406817507107
 20
-134.4024766374063
 10
86.22781166464097
 20
-134.2264322581101
 10
86.2620903647192
 20
-134.1027533301896
 10
86.2620903647192
 20
-134.1027533301896
 10
86.43072778872218
 20
-134.1027533301896
 10
86.43072778872218
 20
-134.1027533301896
 10
86.43072778872218
 20
-134.1027533301896
 10
86.43072778872218
 20
-135.7725911118902
 10
86.43072778872218
 20
-135.7725911118902
 10
86.43072778872218
 20
-135.7725911118902
 10
86.1716566082314
 20
-135.7725911118902
 10
86.1716566082314
 20
-135.7725911118902
 97
        0
 97
        0
 75
     2
 76
     1
 98
        0
  0
SPLINE
  5
14E
330
148
100
AcDbEntity
  8
_U+30EC_U+30A4_U+30E4_U+30FC 1
370
     0
100
AcDbSpline
210
0.0
220
0.0
230
1.0
 70
    11
 71
     3
 72
    29
 73
    25
 74
     0
 42
0.0000000001
 43
0.0000000001
 12
1.0
 22
0.0
 32
0.0
 13
1.0
 23
0.0
 33
0.0
 40
0.0
 40
0.0
 40
0.0
 40
0.0
 40
1.0
 40
1.0
 40
1.0
 40
2.0
 40
2.0
 40
2.0
 40
3.0
 40
3.0
 40
3.0
 40
4.0
 40
4.0
 40
4.0
 40
5.0
 40
5.0
 40
5.0
 40
6.0
 40
6.0
 40
6.0
 40
7.0
 40
7.0
 40
7.0
 40
8.0
 40
8.0
 40
8.0
 40
8.0
 10
88.04561629743304
 20
-135.5803547838132
 30
0.0
 10
87.92107609564127
 20
-135.8070420667427
 30
0.0
 10
87.72057153839972
 20
-135.8277126396542
 30
0.0
 10
87.58621281447498
 20
-135.8277126396542
 30
0.0
 10
87.40052216782001
 20
-135.8277126396542
 30
0.0
 10
87.23670787749639
 20
-135.7774142455695
 30
0.0
 10
87.12680933151691
 20
-135.5803547838132
 30
0.0
 10
87.00709226340449
 20
-135.370203959213
 30
0.0
 10
86.98504365229888
 20
-135.1138888551104
 30
0.0
 10
86.98504365229888
 20
-134.9374999662656
 30
0.0
 10
86.98504365229888
 20
-134.7821261598809
 30
0.0
 10
87.00450844179055
 20
-134.5099636165461
 30
0.0
 10
87.12680933151691
 20
-134.294645148718
 30
0.0
 10
87.2513495333087
 20
-134.0751925663076
 30
0.0
 10
87.43721243473793
 20
-134.0500433692653
 30
0.0
 10
87.58621281447498
 20
-134.0500433692653
 30
0.0
 10
87.76949189429027
 20
-134.0500433692653
 30
0.0
 10
87.93571775145358
 20
-134.0982747060588
 30
0.0
 10
88.04561629743304
 20
-134.294645148718
 30
0.0
 10
88.16051023186613
 20
-134.5030734255756
 30
0.0
 10
88.18738197665108
 20
-134.750086771868
 30
0.0
 10
88.18738197665108
 20
-134.9374999662656
 30
0.0
 10
88.18738197665108
 20
-135.1228461033721
 30
0.0
 10
88.1629217987058
 20
-135.3722710165042
 30
0.0
 10
88.04561629743304
 20
-135.5803547838132
 30
0.0
  0
SPLINE
  5
14F
330
148
100
AcDbEntity
  8
_U+30EC_U+30A4_U+30E4_U+30FC 1
370
     0
100
AcDbSpline
210
0.0
220
0.0
230
1.0
 70
    11
 71
     3
 72
    17
 73
    13
 74
     0
 42
0.0000000001
 43
0.0000000001
 12
1.0
 22
0.0
 32
0.0
 13
1.0
 23
0.0
 33
0.0
 40
0.0
 40
0.0
 40
0.0
 40
0.0
 40
1.0
 40
1.0
 40
1.0
 40
2.0
 40
2.0
 40
2.0
 40
3.0
 40
3.0
 40
3.0
 40
4.0
 40
4.0
 40
4.0
 40
4.0
 10
87.58621281447498
 20
-134.2581271365744
 30
0.0
 10
87.29785832235957
 20
-134.2581271365744
 30
0.0
 10
87.24411483278966
 20
-134.5647406347616
 30
0.0
 10
87.24411483278966
 20
-134.9374999662656
 30
0.0
 10
87.24411483278966
 20
-135.2833875529847
 30
0.0
 10
87.28562823338693
 20
-135.6172173055054
 30
0.0
 10
87.58621281447498
 20
-135.6172173055054
 30
0.0
 10
87.87215573975071
 20
-135.6172173055054
 30
0.0
 10
87.92831079616029
 20
-135.3130153741579
 30
0.0
 10
87.92831079616029
 20
-134.9374999662656
 30
0.0
 10
87.92831079616029
 20
-134.5923013986436
 30
0.0
 10
87.88438582872335
 20
-134.2581271365744
 30
0.0
 10
87.58621281447498
 20
-134.2581271365744
 30
0.0
  0
HATCH
  5
150
330
148
100
AcDbEntity
  8
_U+30EC_U+30A4_U+30E4_U+30FC 1
 62
   179
420
  2234388
100
AcDbHatch
 10
0.0
 20
0.0
 30
0.0
210
0.0
220
0.0
230
1.0
  2
SOLID
 70
     1
 71
     0
 91
        2
 92
        1
 93
        1
 72
     4
 94
        3
 73
     0
 74
     1
 95
       29
 96
       25
 40
0.0
 40
0.0
 40
0.0
 40
0.0
 40
1.0
 40
1.0
 40
1.0
 40
2.0
 40
2.0
 40
2.0
 40
3.0
 40
3.0
 40
3.0
 40
4.0
 40
4.0
 40
4.0
 40
5.0
 40
5.0
 40
5.0
 40
6.0
 40
6.0
 40
6.0
 40
7.0
 40
7.0
 40
7.0
 40
8.0
 40
8.0
 40
8.0
 40
8.0
 10
88.04561629743304
 20
-135.5803547838132
 10
87.92107609564127
 20
-135.8070420667427
 10
87.72057153839972
 20
-135.8277126396542
 10
87.58621281447498
 20
-135.8277126396542
 10
87.40052216782001
 20
-135.8277126396542
 10
87.23670787749639
 20
-135.7774142455695
 10
87.12680933151691
 20
-135.5803547838132
 10
87.00709226340449
 20
-135.370203959213
 10
86.98504365229888
 20
-135.1138888551104
 10
86.98504365229888
 20
-134.9374999662656
 10
86.98504365229888
 20
-134.7821261598809
 10
87.00450844179055
 20
-134.5099636165461
 10
87.12680933151691
 20
-134.294645148718
 10
87.2513495333087
 20
-134.0751925663076
 10
87.43721243473793
 20
-134.0500433692653
 10
87.58621281447498
 20
-134.0500433692653
 10
87.76949189429027
 20
-134.0500433692653
 10
87.93571775145358
 20
-134.0982747060588
 10
88.04561629743304
 20
-134.294645148718
 10
88.16051023186613
 20
-134.5030734255756
 10
88.18738197665108
 20
-134.750086771868
 10
88.18738197665108
 20
-134.9374999662656
 10
88.18738197665108
 20
-135.1228461033721
 10
88.1629217987058
 20
-135.3722710165042
 10
88.04561629743304
 20
-135.5803547838132
 97
        0
 97
        0
 92
        1
 93
        1
 72
     4
 94
        3
 73
     0
 74
     1
 95
       17
 96
       13
 40
0.0
 40
0.0
 40
0.0
 40
0.0
 40
1.0
 40
1.0
 40
1.0
 40
2.0
 40
2.0
 40
2.0
 40
3.0
 40
3.0
 40
3.0
 40
4.0
 40
4.0
 40
4.0
 40
4.0
 10
87.58621281447498
 20
-134.2581271365744
 10
87.29785832235957
 20
-134.2581271365744
 10
87.24411483278966
 20
-134.5647406347616
 10
87.24411483278966
 20
-134.9374999662656
 10
87.24411483278966
 20
-135.2833875529847
 10
87.28562823338693
 20
-135.6172173055054
 10
87.58621281447498
 20
-135.6172173055054
 10
87.87215573975071
 20
-135.6172173055054
 10
87.92831079616029
 20
-135.3130153741579
 10
87.92831079616029
 20
-134.9374999662656
 10
87.92831079616029
 20
-134.5923013986436
 10
87.88438582872335
 20
-134.2581271365744
 10
87.58621281447498
 20
-134.2581271365744
 97
        0
 97
        0
 75
     2
 76
     1
 98
        0
  0
SPLINE
  5
151
330
148
100
AcDbEntity
  8
_U+30EC_U+30A4_U+30E4_U+30FC 1
370
     0
100
AcDbSpline
210
0.0
220
0.0
230
1.0
 70
    11
 71
     3
 72
    29
 73
    25
 74
     0
 42
0.0000000001
 43
0.0000000001
 12
1.0
 22
0.0
 32
0.0
 13
1.0
 23
0.0
 33
0.0
 40
0.0
 40
0.0
 40
0.0
 40
0.0
 40
1.0
 40
1.0
 40
1.0
 40
2.0
 40
2.0
 40
2.0
 40
3.0
 40
3.0
 40
3.0
 40
4.0
 40
4.0
 40
4.0
 40
5.0
 40
5.0
 40
5.0
 40
6.0
 40
6.0
 40
6.0
 40
7.0
 40
7.0
 40
7.0
 40
8.0
 40
8.0
 40
8.0
 40
8.0
 10
89.40401744726705
 20
-135.5803547838132
 30
0.0
 10
89.27947724547528
 20
-135.8070420667427
 30
0.0
 10
89.07897268823373
 20
-135.8277126396542
 30
0.0
 10
88.94461396430899
 20
-135.8277126396542
 30
0.0
 10
88.75892331765402
 20
-135.8277126396542
 30
0.0
 10
88.5951090273304
 20
-135.7774142455695
 30
0.0
 10
88.48521048135092
 20
-135.5803547838132
 30
0.0
 10
88.3654934132385
 20
-135.370203959213
 30
0.0
 10
88.3434448021329
 20
-135.1138888551104
 30
0.0
 10
88.3434448021329
 20
-134.9374999662656
 30
0.0
 10
88.3434448021329
 20
-134.7821261598809
 30
0.0
 10
88.36290959162456
 20
-134.5099636165461
 30
0.0
 10
88.48521048135092
 20
-134.294645148718
 30
0.0
 10
88.6097506831427
 20
-134.0751925663076
 30
0.0
 10
88.79561358457194
 20
-134.0500433692653
 30
0.0
 10
88.94461396430899
 20
-134.0500433692653
 30
0.0
 10
89.12789304412428
 20
-134.0500433692653
 30
0.0
 10
89.29411890128759
 20
-134.0982747060588
 30
0.0
 10
89.40401744726705
 20
-134.294645148718
 30
0.0
 10
89.51891138170014
 20
-134.5030734255756
 30
0.0
 10
89.54578312648509
 20
-134.750086771868
 30
0.0
 10
89.54578312648509
 20
-134.9374999662656
 30
0.0
 10
89.54578312648509
 20
-135.1228461033721
 30
0.0
 10
89.52132294853982
 20
-135.3722710165042
 30
0.0
 10
89.40401744726705
 20
-135.5803547838132
 30
0.0
  0
SPLINE
  5
152
330
148
100
AcDbEntity
  8
_U+30EC_U+30A4_U+30E4_U+30FC 1
370
     0
100
AcDbSpline
210
0.0
220
0.0
230
1.0
 70
    11
 71
     3
 72
    17
 73
    13
 74
     0
 42
0.0000000001
 43
0.0000000001
 12
1.0
 22
0.0
 32
0.0
 13
1.0
 23
0.0
 33
0.0
 40
0.0
 40
0.0
 40
0.0
 40
0.0
 40
1.0
 40
1.0
 40
1.0
 40
2.0
 40
2.0
 40
2.0
 40
3.0
 40
3.0
 40
3.0
 40
4.0
 40
4.0
 40
4.0
 40
4.0
 10
88.94461396430899
 20
-134.2581271365744
 30
0.0
 10
88.65625947219358
 20
-134.2581271365744
 30
0.0
 10
88.60251598262369
 20
-134.5647406347616
 30
0.0
 10
88.60251598262369
 20
-134.9374999662656
 30
0.0
 10
88.60251598262369
 20
-135.2833875529847
 30
0.0
 10
88.64402938322094
 20
-135.6172173055054
 30
0.0
 10
88.94461396430899
 20
-135.6172173055054
 30
0.0
 10
89.23055688958473
 20
-135.6172173055054
 30
0.0
 10
89.2867119459943
 20
-135.3130153741579
 30
0.0
 10
89.2867119459943
 20
-134.9374999662656
 30
0.0
 10
89.2867119459943
 20
-134.5923013986436
 30
0.0
 10
89.24278697855736
 20
-134.2581271365744
 30
0.0
 10
88.94461396430899
 20
-134.2581271365744
 30
0.0
  0
HATCH
  5
153
330
148
100
AcDbEntity
  8
_U+30EC_U+30A4_U+30E4_U+30FC 1
 62
   179
420
  2234388
100
AcDbHatch
 10
0.0
 20
0.0
 30
0.0
210
0.0
220
0.0
230
1.0
  2
SOLID
 70
     1
 71
     0
 91
        2
 92
        1
 93
        1
 72
     4
 94
        3
 73
     0
 74
     1
 95
       29
 96
       25
 40
0.0
 40
0.0
 40
0.0
 40
0.0
 40
1.0
 40
1.0
 40
1.0
 40
2.0
 40
2.0
 40
2.0
 40
3.0
 40
3.0
 40
3.0
 40
4.0
 40
4.0
 40
4.0
 40
5.0
 40
5.0
 40
5.0
 40
6.0
 40
6.0
 40
6.0
 40
7.0
 40
7.0
 40
7.0
 40
8.0
 40
8.0
 40
8.0
 40
8.0
 10
89.40401744726705
 20
-135.5803547838132
 10
89.27947724547528
 20
-135.8070420667427
 10
89.07897268823373
 20
-135.8277126396542
 10
88.94461396430899
 20
-135.8277126396542
 10
88.75892331765402
 20
-135.8277126396542
 10
88.5951090273304
 20
-135.7774142455695
 10
88.48521048135092
 20
-135.5803547838132
 10
88.3654934132385
 20
-135.370203959213
 10
88.3434448021329
 20
-135.1138888551104
 10
88.3434448021329
 20
-134.9374999662656
 10
88.3434448021329
 20
-134.7821261598809
 10
88.36290959162456
 20
-134.5099636165461
 10
88.48521048135092
 20
-134.294645148718
 10
88.6097506831427
 20
-134.0751925663076
 10
88.79561358457194
 20
-134.0500433692653
 10
88.94461396430899
 20
-134.0500433692653
 10
89.12789304412428
 20
-134.0500433692653
 10
89.29411890128759
 20
-134.0982747060588
 10
89.40401744726705
 20
-134.294645148718
 10
89.51891138170014
 20
-134.5030734255756
 10
89.54578312648509
 20
-134.750086771868
 10
89.54578312648509
 20
-134.9374999662656
 10
89.54578312648509
 20
-135.1228461033721
 10
89.52132294853982
 20
-135.3722710165042
 10
89.40401744726705
 20
-135.5803547838132
 97
        0
 97
        0
 92
        1
 93
        1
 72
     4
 94
        3
 73
     0
 74
     1
 95
       17
 96
       13
 40
0.0
 40
0.0
 40
0.0
 40
0.0
 40
1.0
 40
1.0
 40
1.0
 40
2.0
 40
2.0
 40
2.0
 40
3.0
 40
3.0
 40
3.0
 40
4.0
 40
4.0
 40
4.0
 40
4.0
 10
88.94461396430899
 20
-134.2581271365744
 10
88.65625947219358
 20
-134.2581271365744
 10
88.60251598262369
 20
-134.5647406347616
 10
88.60251598262369
 20
-134.9374999662656
 10
88.60251598262369
 20
-135.2833875529847
 10
88.64402938322094
 20
-135.6172173055054
 10
88.94461396430899
 20
-135.6172173055054
 10
89.23055688958473
 20
-135.6172173055054
 10
89.2867119459943
 20
-135.3130153741579
 10
89.2867119459943
 20
-134.9374999662656
 10
89.2867119459943
 20
-134.5923013986436
 10
89.24278697855736
 20
-134.2581271365744
 10
88.94461396430899
 20
-134.2581271365744
 97
        0
 97
        0
 75
     2
 76
     1
 98
        0
  0
ENDBLK
  5
14B
330
148
100
AcDbEntity
  8
0
100
AcDbBlockEnd
  0
ENDSEC
  0
SECTION
  2
ENTITIES
  0
SPLINE
  5
41
330
1F
100
AcDbEntity
  8
_U+30EC_U+30A4_U+30E4_U+30FC 1
370
     0
100
AcDbSpline
210
0.0
220
0.0
230
1.0
 70
    11
 71
     3
 72
   101
 73
    97
 74
     0
 42
0.0000000001
 43
0.0000000001
 12
1.0
 22
0.0
 32
0.0
 13
1.0
 23
0.0
 33
0.0
 40
0.0
 40
0.0
 40
0.0
 40
0.0
 40
1.0
 40
1.0
 40
1.0
 40
2.0
 40
2.0
 40
2.0
 40
3.0
 40
3.0
 40
3.0
 40
4.0
 40
4.0
 40
4.0
 40
5.0
 40
5.0
 40
5.0
 40
6.0
 40
6.0
 40
6.0
 40
7.0
 40
7.0
 40
7.0
 40
8.0
 40
8.0
 40
8.0
 40
9.0
 40
9.0
 40
9.0
 40
10.0
 40
10.0
 40
10.0
 40
11.0
 40
11.0
 40
11.0
 40
12.0
 40
12.0
 40
12.0
 40
13.0
 40
13.0
 40
13.0
 40
14.0
 40
14.0
 40
14.0
 40
15.0
 40
15.0
 40
15.0
 40
16.0
 40
16.0
 40
16.0
 40
17.0
 40
17.0
 40
17.0
 40
18.0
 40
18.0
 40
18.0
 40
19.0
 40
19.0
 40
19.0
 40
20.0
 40
20.0
 40
20.0
 40
21.0
 40
21.0
 40
21.0
 40
22.0
 40
22.0
 40
22.0
 40
23.0
 40
23.0
 40
23.0
 40
24.0
 40
24.0
 40
24.0
 40
25.0
 40
25.0
 40
25.0
 40
26.0
 40
26.0
 40
26.0
 40
27.0
 40
27.0
 40
27.0
 40
28.0
 40
28.0
 40
28.0
 40
29.0
 40
29.0
 40
29.0
 40
30.0
 40
30.0
 40
30.0
 40
31.0
 40
31.0
 40
31.0
 40
32.0
 40
32.0
 40
32.0
 40
32.0
 10
54.9158583196045
 20
-127.1176513571094
 30
0.0
 10
54.9158583196045
 20
-127.1176513571094
 30
0.0
 10
58.20833331878125
 20
-127.1176513571094
 30
0.0
 10
58.20833331878125
 20
-127.1176513571094
 30
0.0
 10
58.20833331878125
 20
-127.1176513571094
 30
0.0
 10
58.79641387418992
 20
-127.411515245925
 30
0.0
 10
58.79641387418992
 20
-128.0583333013188
 30
0.0
 10
58.79641387418992
 20
-128.0583333013188
 30
0.0
 10
58.79641387418992
 20
-132.8208333001281
 30
0.0
 10
58.79641387418992
 20
-132.8208333001281
 30
0.0
 10
58.79641387418992
 20
-132.8208333001281
 30
0.0
 10
58.38472220762604
 20
-133.1146971889438
 30
0.0
 10
59.09027776300521
 20
-133.1736110778177
 30
0.0
 10
59.09027776300521
 20
-133.1736110778177
 30
0.0
 10
82.31487151108378
 20
-133.1736110778177
 30
0.0
 10
82.31487151108378
 20
-133.1736110778177
 30
0.0
 10
82.31487151108378
 20
-133.1736110778177
 30
0.0
 10
117.3575249706604
 20
-133.1736110778177
 30
0.0
 10
117.3575249706604
 20
-133.1736110778177
 30
0.0
 10
117.3575249706604
 20
-133.1736110778177
 30
0.0
 10
117.8866916371948
 20
-133.2914388555663
 30
0.0
 10
117.8866916371948
 20
-132.7033583001573
 30
0.0
 10
117.8866916371948
 20
-132.7033583001573
 30
0.0
 10
117.8866916371948
 20
-128.3523735790229
 30
0.0
 10
117.8866916371948
 20
-128.3523735790229
 30
0.0
 10
117.8866916371948
 20
-128.3523735790229
 30
0.0
 10
118.2391166371066
 20
-127.9994194124445
 30
0.0
 10
117.2986110817865
 20
-128.0583333013188
 30
0.0
 10
117.2986110817865
 20
-128.0583333013188
 30
0.0
 10
114.4178277491736
 20
-128.0583333013188
 30
0.0
 10
114.4178277491736
 20
-128.0583333013188
 30
0.0
 10
114.4178277491736
 20
-128.0583333013188
 30
0.0
 10
113.3005805272302
 20
-127.7055555236292
 30
0.0
 10
114.2414388603288
 20
-126.588484690575
 30
0.0
 10
114.2414388603288
 20
-126.588484690575
 30
0.0
 10
118.7097221925448
 20
-126.588484690575
 30
0.0
 10
118.7097221925448
 20
-126.588484690575
 30
0.0
 10
118.7097221925448
 20
-126.588484690575
 30
0.0
 10
119.8858833033621
 20
-125.3537624686615
 30
0.0
 10
119.8858833033621
 20
-125.3537624686615
 30
0.0
 10
119.8858833033621
 20
-125.3537624686615
 30
0.0
 10
126.0594944129298
 20
-125.3537624686615
 30
0.0
 10
126.0594944129298
 20
-125.3537624686615
 30
0.0
 10
126.0594944129298
 20
-125.3537624686615
 30
0.0
 10
127.646994412533
 20
-126.8236110794052
 30
0.0
 10
127.646994412533
 20
-126.8236110794052
 30
0.0
 10
127.646994412533
 20
-126.8236110794052
 30
0.0
 10
127.7055555236292
 20
-127.4702527459101
 30
0.0
 10
127.234949968191
 20
-127.1763888570948
 30
0.0
 10
127.234949968191
 20
-127.1763888570948
 30
0.0
 10
125.9120333018551
 20
-125.8534721907589
 30
0.0
 10
125.9120333018551
 20
-125.8534721907589
 30
0.0
 10
125.9120333018551
 20
-125.8534721907589
 30
0.0
 10
120.1793944143993
 20
-125.8534721907589
 30
0.0
 10
120.1793944143993
 20
-125.8534721907589
 30
0.0
 10
120.1793944143993
 20
-125.8534721907589
 30
0.0
 10
118.8275499702934
 20
-127.1176513571094
 30
0.0
 10
118.8275499702934
 20
-127.1176513571094
 30
0.0
 10
118.8275499702934
 20
-127.1176513571094
 30
0.0
 10
114.4763888602698
 20
-126.99999996825
 30
0.0
 10
114.4763888602698
 20
-126.99999996825
 30
0.0
 10
114.4763888602698
 20
-126.99999996825
 30
0.0
 10
113.7122721937944
 20
-127.2942166348431
 30
0.0
 10
114.4178277491736
 20
-127.7644694125035
 30
0.0
 10
114.4178277491736
 20
-127.7644694125035
 30
0.0
 10
117.5928277483798
 20
-127.7644694125035
 30
0.0
 10
117.5928277483798
 20
-127.7644694125035
 30
0.0
 10
117.5928277483798
 20
-127.7644694125035
 30
0.0
 10
118.298383303759
 20
-127.7644694125035
 30
0.0
 10
118.298383303759
 20
-128.3523735790229
 30
0.0
 10
118.298383303759
 20
-128.3523735790229
 30
0.0
 10
118.298383303759
 20
-132.8797471890021
 30
0.0
 10
118.298383303759
 20
-132.8797471890021
 30
0.0
 10
118.298383303759
 20
-132.8797471890021
 30
0.0
 10
118.2980305259812
 20
-133.5263888555073
 30
0.0
 10
117.5335610817275
 20
-133.5853027443813
 30
0.0
 10
117.5335610817275
 20
-133.5853027443813
 30
0.0
 10
87.13611108932709
 20
-133.6442166332559
 30
0.0
 10
87.13611108932709
 20
-133.6442166332559
 30
0.0
 10
87.13611108932709
 20
-133.6442166332559
 30
0.0
 10
59.09027776300521
 20
-133.6442166332559
 30
0.0
 10
59.09027776300521
 20
-133.6442166332559
 30
0.0
 10
59.09027776300521
 20
-133.6442166332559
 30
0.0
 10
58.56111109647084
 20
-133.7027777443521
 30
0.0
 10
58.32598323420243
 20
-132.4094944113423
 30
0.0
 10
58.32598323420243
 20
-132.4094944113423
 30
0.0
 10
58.32598323420243
 20
-127.9995958013333
 30
0.0
 10
58.32598323420243
 20
-127.9995958013333
 30
0.0
 10
58.32598323420243
 20
-127.9995958013333
 30
0.0
 10
58.50254998537431
 20
-127.5289902458955
 30
0.0
 10
57.91446942996596
 20
-127.5879041347698
 30
0.0
 10
57.91446942996596
 20
-127.5879041347698
 30
0.0
 10
54.9158583196045
 20
-127.5291666347844
 30
0.0
 10
54.9158583196045
 20
-127.5291666347844
 30
0.0
 10
54.9158583196045
 20
-127.5291666347844
 30
0.0
 10
54.56308054191492
 20
-127.2940402459542
 30
0.0
 10
54.9158583196045
 20
-127.1176513571094
 30
0.0
  0
HATCH
  5
42
330
1F
100
AcDbEntity
  8
_U+30EC_U+30A4_U+30E4_U+30FC 1
 62
   253
420
 10066329
100
AcDbHatch
 10
0.0
 20
0.0
 30
0.0
210
0.0
220
0.0
230
1.0
  2
SOLID
 70
     1
 71
     0
 91
        1
 92
        1
 93
        1
 72
     4
 94
        3
 73
     0
 74
     1
 95
      101
 96
       97
 40
0.0
 40
0.0
 40
0.0
 40
0.0
 40
1.0
 40
1.0
 40
1.0
 40
2.0
 40
2.0
 40
2.0
 40
3.0
 40
3.0
 40
3.0
 40
4.0
 40
4.0
 40
4.0
 40
5.0
 40
5.0
 40
5.0
 40
6.0
 40
6.0
 40
6.0
 40
7.0
 40
7.0
 40
7.0
 40
8.0
 40
8.0
 40
8.0
 40
9.0
 40
9.0
 40
9.0
 40
10.0
 40
10.0
 40
10.0
 40
11.0
 40
11.0
 40
11.0
 40
12.0
 40
12.0
 40
12.0
 40
13.0
 40
13.0
 40
13.0
 40
14.0
 40
14.0
 40
14.0
 40
15.0
 40
15.0
 40
15.0
 40
16.0
 40
16.0
 40
16.0
 40
17.0
 40
17.0
 40
17.0
 40
18.0
 40
18.0
 40
18.0
 40
19.0
 40
19.0
 40
19.0
 40
20.0
 40
20.0
 40
20.0
 40
21.0
 40
21.0
 40
21.0
 40
22.0
 40
22.0
 40
22.0
 40
23.0
 40
23.0
 40
23.0
 40
24.0
 40
24.0
 40
24.0
 40
25.0
 40
25.0
 40
25.0
 40
26.0
 40
26.0
 40
26.0
 40
27.0
 40
27.0
 40
27.0
 40
28.0
 40
28.0
 40
28.0
 40
29.0
 40
29.0
 40
29.0
 40
30.0
 40
30.0
 40
30.0
 40
31.0
 40
31.0
 40
31.0
 40
32.0
 40
32.0
 40
32.0
 40
32.0
 10
54.9158583196045
 20
-127.1176513571094
 10
54.9158583196045
 20
-127.1176513571094
 10
58.20833331878125
 20
-127.1176513571094
 10
58.20833331878125
 20
-127.1176513571094
 10
58.20833331878125
 20
-127.1176513571094
 10
58.79641387418992
 20
-127.411515245925
 10
58.79641387418992
 20
-128.0583333013188
 10
58.79641387418992
 20
-128.0583333013188
 10
58.79641387418992
 20
-132.8208333001281
 10
58.79641387418992
 20
-132.8208333001281
 10
58.79641387418992
 20
-132.8208333001281
 10
58.38472220762604
 20
-133.1146971889438
 10
59.09027776300521
 20
-133.1736110778177
 10
59.09027776300521
 20
-133.1736110778177
 10
82.31487151108378
 20
-133.1736110778177
 10
82.31487151108378
 20
-133.1736110778177
 10
82.31487151108378
 20
-133.1736110778177
 10
117.3575249706604
 20
-133.1736110778177
 10
117.3575249706604
 20
-133.1736110778177
 10
117.3575249706604
 20
-133.1736110778177
 10
117.8866916371948
 20
-133.2914388555663
 10
117.8866916371948
 20
-132.7033583001573
 10
117.8866916371948
 20
-132.7033583001573
 10
117.8866916371948
 20
-128.3523735790229
 10
117.8866916371948
 20
-128.3523735790229
 10
117.8866916371948
 20
-128.3523735790229
 10
118.2391166371066
 20
-127.9994194124445
 10
117.2986110817865
 20
-128.0583333013188
 10
117.2986110817865
 20
-128.0583333013188
 10
114.4178277491736
 20
-128.0583333013188
 10
114.4178277491736
 20
-128.0583333013188
 10
114.4178277491736
 20
-128.0583333013188
 10
113.3005805272302
 20
-127.7055555236292
 10
114.2414388603288
 20
-126.588484690575
 10
114.2414388603288
 20
-126.588484690575
 10
118.7097221925448
 20
-126.588484690575
 10
118.7097221925448
 20
-126.588484690575
 10
118.7097221925448
 20
-126.588484690575
 10
119.8858833033621
 20
-125.3537624686615
 10
119.8858833033621
 20
-125.3537624686615
 10
119.8858833033621
 20
-125.3537624686615
 10
126.0594944129298
 20
-125.3537624686615
 10
126.0594944129298
 20
-125.3537624686615
 10
126.0594944129298
 20
-125.3537624686615
 10
127.646994412533
 20
-126.8236110794052
 10
127.646994412533
 20
-126.8236110794052
 10
127.646994412533
 20
-126.8236110794052
 10
127.7055555236292
 20
-127.4702527459101
 10
127.234949968191
 20
-127.1763888570948
 10
127.234949968191
 20
-127.1763888570948
 10
125.9120333018551
 20
-125.8534721907589
 10
125.9120333018551
 20
-125.8534721907589
 10
125.9120333018551
 20
-125.8534721907589
 10
120.1793944143993
 20
-125.8534721907589
 10
120.1793944143993
 20
-125.8534721907589
 10
120.1793944143993
 20
-125.8534721907589
 10
118.8275499702934
 20
-127.1176513571094
 10
118.8275499702934
 20
-127.1176513571094
 10
118.8275499702934
 20
-127.1176513571094
 10
114.4763888602698
 20
-126.99999996825
 10
114.4763888602698
 20
-126.99999996825
 10
114.4763888602698
 20
-126.99999996825
 10
113.7122721937944
 20
-127.2942166348431
 10
114.4178277491736
 20
-127.7644694125035
 10
114.4178277491736
 20
-127.7644694125035
 10
117.5928277483798
 20
-127.7644694125035
 10
117.5928277483798
 20
-127.7644694125035
 10
117.5928277483798
 20
-127.7644694125035
 10
118.298383303759
 20
-127.7644694125035
 10
118.298383303759
 20
-128.3523735790229
 10
118.298383303759
 20
-128.3523735790229
 10
118.298383303759
 20
-132.8797471890021
 10
118.298383303759
 20
-132.8797471890021
 10
118.298383303759
 20
-132.8797471890021
 10
118.2980305259812
 20
-133.5263888555073
 10
117.5335610817275
 20
-133.5853027443813
 10
117.5335610817275
 20
-133.5853027443813
 10
87.13611108932709
 20
-133.6442166332559
 10
87.13611108932709
 20
-133.6442166332559
 10
87.13611108932709
 20
-133.6442166332559
 10
59.09027776300521
 20
-133.6442166332559
 10
59.09027776300521
 20
-133.6442166332559
 10
59.09027776300521
 20
-133.6442166332559
 10
58.56111109647084
 20
-133.7027777443521
 10
58.32598323420243
 20
-132.4094944113423
 10
58.32598323420243
 20
-132.4094944113423
 10
58.32598323420243
 20
-127.9995958013333
 10
58.32598323420243
 20
-127.9995958013333
 10
58.32598323420243
 20
-127.9995958013333
 10
58.50254998537431
 20
-127.5289902458955
 10
57.91446942996596
 20
-127.5879041347698
 10
57.91446942996596
 20
-127.5879041347698
 10
54.9158583196045
 20
-127.5291666347844
 10
54.9158583196045
 20
-127.5291666347844
 10
54.9158583196045
 20
-127.5291666347844
 10
54.56308054191492
 20
-127.2940402459542
 10
54.9158583196045
 20
-127.1176513571094
 97
        0
 97
        0
 75
     2
 76
     1
 98
        0
  0
POLYLINE
  5
43
330
1F
100
AcDbEntity
  8
_U+30EC_U+30A4_U+30E4_U+30FC 1
 62
   179
420
  2234388
370
    25
100
AcDb2dPolyline
 66
     1
 10
0.0
 20
0.0
 30
0.0
  0
VERTEX
  5
44
330
43
100
AcDbEntity
  8
_U+30EC_U+30A4_U+30E4_U+30FC 1
 62
   179
420
  2234388
370
    25
100
AcDbVertex
100
AcDb2dVertex
 10
59.07080293742271
 20
-133.5718619110514
 30
0.0
  0
VERTEX
  5
45
330
43
100
AcDbEntity
  8
_U+30EC_U+30A4_U+30E4_U+30FC 1
 62
   179
420
  2234388
370
    25
100
AcDbVertex
100
AcDb2dVertex
 10
117.6307131101016
 20
-133.5718619110514
 30
0.0
  0
SEQEND
  5
46
330
43
100
AcDbEntity
  8
_U+30EC_U+30A4_U+30E4_U+30FC 1
 62
   179
420
  2234388
370
    25
  0
POLYLINE
  5
47
330
1F
100
AcDbEntity
  8
_U+30EC_U+30A4_U+30E4_U+30FC 1
 62
   179
420
  2234388
370
    25
100
AcDb2dPolyline
 66
     1
 10
0.0
 20
0.0
 30
0.0
  0
VERTEX
  5
48
330
47
100
AcDbEntity
  8
_U+30EC_U+30A4_U+30E4_U+30FC 1
 62
   179
420
  2234388
370
    25
100
AcDbVertex
100
AcDb2dVertex
 10
118.3507325361768
 20
-128.4154149678962
 30
0.0
  0
VERTEX
  5
49
330
47
100
AcDbEntity
  8
_U+30EC_U+30A4_U+30E4_U+30FC 1
 62
   179
420
  2234388
370
    25
100
AcDbVertex
100
AcDb2dVertex
 10
118.3507325361768
 20
-132.8518424667872
 30
0.0
  0
SEQEND
  5
4A
330
47
100
AcDbEntity
  8
_U+30EC_U+30A4_U+30E4_U+30FC 1
 62
   179
420
  2234388
370
    25
  0
POLYLINE
  5
4B
330
1F
100
AcDbEntity
  8
_U+30EC_U+30A4_U+30E4_U+30FC 1
 62
   179
420
  2234388
370
    25
100
AcDb2dPolyline
 66
     1
 10
0.0
 20
0.0
 30
0.0
  0
VERTEX
  5
4C
330
4B
100
AcDbEntity
  8
_U+30EC_U+30A4_U+30E4_U+30FC 1
 62
   179
420
  2234388
370
    25
100
AcDbVertex
100
AcDb2dVertex
 10
58.35078351134749
 20
-127.8717844124765
 30
0.0
  0
VERTEX
  5
4D
330
4B
100
AcDbEntity
  8
_U+30EC_U+30A4_U+30E4_U+30FC 1
 62
   179
420
  2234388
370
    25
100
AcDbVertex
100
AcDb2dVertex
 10
58.35078351134749
 20
-132.8518424667872
 30
0.0
  0
SEQEND
  5
4E
330
4B
100
AcDbEntity
  8
_U+30EC_U+30A4_U+30E4_U+30FC 1
 62
   179
420
  2234388
370
    25
  0
POLYLINE
  5
4F
330
1F
100
AcDbEntity
  8
_U+30EC_U+30A4_U+30E4_U+30FC 1
 62
   179
420
  2234388
370
    25
100
AcDb2dPolyline
 66
     1
 10
0.0
 20
0.0
 30
0.0
  0
VERTEX
  5
50
330
4F
100
AcDbEntity
  8
_U+30EC_U+30A4_U+30E4_U+30FC 1
 62
   179
420
  2234388
370
    25
100
AcDbVertex
100
AcDb2dVertex
 10
59.07080293742271
 20
-133.1515624667121
 30
0.0
  0
VERTEX
  5
51
330
4F
100
AcDbEntity
  8
_U+30EC_U+30A4_U+30E4_U+30FC 1
 62
   179
420
  2234388
370
    25
100
AcDbVertex
100
AcDb2dVertex
 10
117.6307131101016
 20
-133.1515624667121
 30
0.0
  0
SEQEND
  5
52
330
4F
100
AcDbEntity
  8
_U+30EC_U+30A4_U+30E4_U+30FC 1
 62
   179
420
  2234388
370
    25
  0
POLYLINE
  5
53
330
1F
100
AcDbEntity
  8
_U+30EC_U+30A4_U+30E4_U+30FC 1
 62
   179
420
  2234388
370
    25
100
AcDb2dPolyline
 66
     1
 10
0.0
 20
0.0
 30
0.0
  0
VERTEX
  5
54
330
53
100
AcDbEntity
  8
_U+30EC_U+30A4_U+30E4_U+30FC 1
 62
   179
420
  2234388
370
    25
100
AcDbVertex
100
AcDb2dVertex
 10
58.77073016730043
 20
-127.8717844124765
 30
0.0
  0
VERTEX
  5
55
330
53
100
AcDbEntity
  8
_U+30EC_U+30A4_U+30E4_U+30FC 1
 62
   179
420
  2234388
370
    25
100
AcDbVertex
100
AcDb2dVertex
 10
58.77073016730043
 20
-132.8518424667872
 30
0.0
  0
SEQEND
  5
56
330
53
100
AcDbEntity
  8
_U+30EC_U+30A4_U+30E4_U+30FC 1
 62
   179
420
  2234388
370
    25
  0
POLYLINE
  5
57
330
1F
100
AcDbEntity
  8
_U+30EC_U+30A4_U+30E4_U+30FC 1
 62
   179
420
  2234388
370
    25
100
AcDb2dPolyline
 66
     1
 10
0.0
 20
0.0
 30
0.0
  0
VERTEX
  5
58
330
57
100
AcDbEntity
  8
_U+30EC_U+30A4_U+30E4_U+30FC 1
 62
   179
420
  2234388
370
    25
100
AcDbVertex
100
AcDb2dVertex
 10
117.930788859406
 20
-128.4154149678962
 30
0.0
  0
VERTEX
  5
59
330
57
100
AcDbEntity
  8
_U+30EC_U+30A4_U+30E4_U+30FC 1
 62
   179
420
  2234388
370
    25
100
AcDbVertex
100
AcDb2dVertex
 10
117.930788859406
 20
-132.8518424667872
 30
0.0
  0
SEQEND
  5
5A
330
57
100
AcDbEntity
  8
_U+30EC_U+30A4_U+30E4_U+30FC 1
 62
   179
420
  2234388
370
    25
  0
POLYLINE
  5
5B
330
1F
100
AcDbEntity
  8
_U+30EC_U+30A4_U+30E4_U+30FC 1
 62
   179
420
  2234388
370
    25
100
AcDb2dPolyline
 66
     1
 10
0.0
 20
0.0
 30
0.0
  0
VERTEX
  5
5C
330
5B
100
AcDbEntity
  8
_U+30EC_U+30A4_U+30E4_U+30FC 1
 62
   179
420
  2234388
370
    25
100
AcDbVertex
100
AcDb2dVertex
 10
54.96080082005538
 20
-127.151764968212
 30
0.0
  0
VERTEX
  5
5D
330
5B
100
AcDbEntity
  8
_U+30EC_U+30A4_U+30E4_U+30FC 1
 62
   179
420
  2234388
370
    25
100
AcDbVertex
100
AcDb2dVertex
 10
58.05088713010959
 20
-127.151764968212
 30
0.0
  0
SEQEND
  5
5E
330
5B
100
AcDbEntity
  8
_U+30EC_U+30A4_U+30E4_U+30FC 1
 62
   179
420
  2234388
370
    25
  0
POLYLINE
  5
5F
330
1F
100
AcDbEntity
  8
_U+30EC_U+30A4_U+30E4_U+30FC 1
 62
   179
420
  2234388
370
    25
100
AcDb2dPolyline
 66
     1
 10
0.0
 20
0.0
 30
0.0
  0
VERTEX
  5
60
330
5F
100
AcDbEntity
  8
_U+30EC_U+30A4_U+30E4_U+30FC 1
 62
   179
420
  2234388
370
    25
100
AcDbVertex
100
AcDb2dVertex
 10
119.9072233298008
 20
-125.3516810797731
 30
0.0
  0
VERTEX
  5
61
330
5F
100
AcDbEntity
  8
_U+30EC_U+30A4_U+30E4_U+30FC 1
 62
   179
420
  2234388
370
    25
100
AcDbVertex
100
AcDb2dVertex
 10
126.1476888573522
 20
-125.3516810797731
 30
0.0
  0
SEQEND
  5
62
330
5F
100
AcDbEntity
  8
_U+30EC_U+30A4_U+30E4_U+30FC 1
 62
   179
420
  2234388
370
    25
  0
POLYLINE
  5
63
330
1F
100
AcDbEntity
  8
_U+30EC_U+30A4_U+30E4_U+30FC 1
 62
   179
420
  2234388
370
    25
100
AcDb2dPolyline
 66
     1
 10
0.0
 20
0.0
 30
0.0
  0
VERTEX
  5
64
330
63
100
AcDbEntity
  8
_U+30EC_U+30A4_U+30E4_U+30FC 1
 62
   179
420
  2234388
370
    25
100
AcDbVertex
100
AcDb2dVertex
 10
114.6045501317499
 20
-128.1153421901935
 30
0.0
  0
VERTEX
  5
65
330
63
100
AcDbEntity
  8
_U+30EC_U+30A4_U+30E4_U+30FC 1
 62
   179
420
  2234388
370
    25
100
AcDbVertex
100
AcDb2dVertex
 10
117.6307131101016
 20
-128.1153421901935
 30
0.0
  0
SEQEND
  5
66
330
63
100
AcDbEntity
  8
_U+30EC_U+30A4_U+30E4_U+30FC 1
 62
   179
420
  2234388
370
    25
  0
POLYLINE
  5
67
330
1F
100
AcDbEntity
  8
_U+30EC_U+30A4_U+30E4_U+30FC 1
 62
   179
420
  2234388
370
    25
100
AcDb2dPolyline
 66
     1
 10
0.0
 20
0.0
 30
0.0
  0
VERTEX
  5
68
330
67
100
AcDbEntity
  8
_U+30EC_U+30A4_U+30E4_U+30FC 1
 62
   179
420
  2234388
370
    25
100
AcDbVertex
100
AcDb2dVertex
 10
114.6045501317499
 20
-126.6081344127923
 30
0.0
  0
VERTEX
  5
69
330
67
100
AcDbEntity
  8
_U+30EC_U+30A4_U+30E4_U+30FC 1
 62
   179
420
  2234388
370
    25
100
AcDbVertex
100
AcDb2dVertex
 10
118.6508083036708
 20
-126.6081344127923
 30
0.0
  0
SEQEND
  5
6A
330
67
100
AcDbEntity
  8
_U+30EC_U+30A4_U+30E4_U+30FC 1
 62
   179
420
  2234388
370
    25
  0
POLYLINE
  5
6B
330
1F
100
AcDbEntity
  8
_U+30EC_U+30A4_U+30E4_U+30FC 1
 62
   179
420
  2234388
370
    25
100
AcDb2dPolyline
 66
     1
 10
0.0
 20
0.0
 30
0.0
  0
VERTEX
  5
6C
330
6B
100
AcDbEntity
  8
_U+30EC_U+30A4_U+30E4_U+30FC 1
 62
   179
420
  2234388
370
    25
100
AcDbVertex
100
AcDb2dVertex
 10
114.6045501317499
 20
-127.028257468243
 30
0.0
  0
VERTEX
  5
6D
330
6B
100
AcDbEntity
  8
_U+30EC_U+30A4_U+30E4_U+30FC 1
 62
   179
420
  2234388
370
    25
100
AcDbVertex
100
AcDb2dVertex
 10
118.8247953018602
 20
-127.028257468243
 30
0.0
  0
SEQEND
  5
6E
330
6B
100
AcDbEntity
  8
_U+30EC_U+30A4_U+30E4_U+30FC 1
 62
   179
420
  2234388
370
    25
  0
POLYLINE
  5
6F
330
1F
100
AcDbEntity
  8
_U+30EC_U+30A4_U+30E4_U+30FC 1
 62
   179
420
  2234388
370
    25
100
AcDb2dPolyline
 66
     1
 10
0.0
 20
0.0
 30
0.0
  0
VERTEX
  5
70
330
6F
100
AcDbEntity
  8
_U+30EC_U+30A4_U+30E4_U+30FC 1
 62
   179
420
  2234388
370
    25
100
AcDbVertex
100
AcDb2dVertex
 10
114.6045501317499
 20
-127.6953955236317
 30
0.0
  0
VERTEX
  5
71
330
6F
100
AcDbEntity
  8
_U+30EC_U+30A4_U+30E4_U+30FC 1
 62
   179
420
  2234388
370
    25
100
AcDbVertex
100
AcDb2dVertex
 10
117.6307131101016
 20
-127.6953955236317
 30
0.0
  0
SEQEND
  5
72
330
6F
100
AcDbEntity
  8
_U+30EC_U+30A4_U+30E4_U+30FC 1
 62
   179
420
  2234388
370
    25
  0
POLYLINE
  5
73
330
1F
100
AcDbEntity
  8
_U+30EC_U+30A4_U+30E4_U+30FC 1
 62
   179
420
  2234388
370
    25
100
AcDb2dPolyline
 66
     1
 10
0.0
 20
0.0
 30
0.0
  0
VERTEX
  5
74
330
73
100
AcDbEntity
  8
_U+30EC_U+30A4_U+30E4_U+30FC 1
 62
   179
420
  2234388
370
    25
100
AcDbVertex
100
AcDb2dVertex
 10
118.6508083036708
 20
-126.6081344127923
 30
0.0
  0
VERTEX
  5
75
330
73
100
AcDbEntity
  8
_U+30EC_U+30A4_U+30E4_U+30FC 1
 62
   179
420
  2234388
370
    25
100
AcDbVertex
100
AcDb2dVertex
 10
119.9072233298008
 20
-125.3516810797731
 30
0.0
  0
SEQEND
  5
76
330
73
100
AcDbEntity
  8
_U+30EC_U+30A4_U+30E4_U+30FC 1
 62
   179
420
  2234388
370
    25
  0
POLYLINE
  5
77
330
1F
100
AcDbEntity
  8
_U+30EC_U+30A4_U+30E4_U+30FC 1
 62
   179
420
  2234388
370
    25
100
AcDb2dPolyline
 66
     1
 10
0.0
 20
0.0
 30
0.0
  0
VERTEX
  5
78
330
77
100
AcDbEntity
  8
_U+30EC_U+30A4_U+30E4_U+30FC 1
 62
   179
420
  2234388
370
    25
100
AcDbVertex
100
AcDb2dVertex
 10
118.8247953018602
 20
-127.028257468243
 30
0.0
  0
VERTEX
  5
79
330
77
100
AcDbEntity
  8
_U+30EC_U+30A4_U+30E4_U+30FC 1
 62
   179
420
  2234388
370
    25
100
AcDbVertex
100
AcDb2dVertex
 10
120.0812133253619
 20
-125.7716630241127
 30
0.0
  0
SEQEND
  5
7A
330
77
100
AcDbEntity
  8
_U+30EC_U+30A4_U+30E4_U+30FC 1
 62
   179
420
  2234388
370
    25
  0
POLYLINE
  5
7B
330
1F
100
AcDbEntity
  8
_U+30EC_U+30A4_U+30E4_U+30FC 1
 62
   179
420
  2234388
370
    25
100
AcDb2dPolyline
 66
     1
 10
0.0
 20
0.0
 30
0.0
  0
VERTEX
  5
7C
330
7B
100
AcDbEntity
  8
_U+30EC_U+30A4_U+30E4_U+30FC 1
 62
   179
420
  2234388
370
    25
100
AcDbVertex
100
AcDb2dVertex
 10
120.0812133253619
 20
-125.7716630241127
 30
0.0
  0
VERTEX
  5
7D
330
7B
100
AcDbEntity
  8
_U+30EC_U+30A4_U+30E4_U+30FC 1
 62
   179
420
  2234388
370
    25
100
AcDbVertex
100
AcDb2dVertex
 10
125.9740484528009
 20
-125.7716630241127
 30
0.0
  0
SEQEND
  5
7E
330
7B
100
AcDbEntity
  8
_U+30EC_U+30A4_U+30E4_U+30FC 1
 62
   179
420
  2234388
370
    25
  0
POLYLINE
  5
7F
330
1F
100
AcDbEntity
  8
_U+30EC_U+30A4_U+30E4_U+30FC 1
 62
   179
420
  2234388
370
    25
100
AcDb2dPolyline
 66
     1
 10
0.0
 20
0.0
 30
0.0
  0
VERTEX
  5
80
330
7F
100
AcDbEntity
  8
_U+30EC_U+30A4_U+30E4_U+30FC 1
 62
   179
420
  2234388
370
    25
100
AcDbVertex
100
AcDb2dVertex
 10
125.9740484528009
 20
-125.7716630241127
 30
0.0
  0
VERTEX
  5
81
330
7F
100
AcDbEntity
  8
_U+30EC_U+30A4_U+30E4_U+30FC 1
 62
   179
420
  2234388
370
    25
100
AcDbVertex
100
AcDb2dVertex
 10
127.2921320302849
 20
-127.0902758015608
 30
0.0
  0
SEQEND
  5
82
330
7F
100
AcDbEntity
  8
_U+30EC_U+30A4_U+30E4_U+30FC 1
 62
   179
420
  2234388
370
    25
  0
POLYLINE
  5
83
330
1F
100
AcDbEntity
  8
_U+30EC_U+30A4_U+30E4_U+30FC 1
 62
   179
420
  2234388
370
    25
100
AcDb2dPolyline
 66
     1
 10
0.0
 20
0.0
 30
0.0
  0
VERTEX
  5
84
330
83
100
AcDbEntity
  8
_U+30EC_U+30A4_U+30E4_U+30FC 1
 62
   179
420
  2234388
370
    25
100
AcDbVertex
100
AcDb2dVertex
 10
126.1476888573522
 20
-125.3516810797731
 30
0.0
  0
VERTEX
  5
85
330
83
100
AcDbEntity
  8
_U+30EC_U+30A4_U+30E4_U+30FC 1
 62
   179
420
  2234388
370
    25
100
AcDbVertex
100
AcDb2dVertex
 10
127.589100356042
 20
-126.7933074683017
 30
0.0
  0
SEQEND
  5
86
330
83
100
AcDbEntity
  8
_U+30EC_U+30A4_U+30E4_U+30FC 1
 62
   179
420
  2234388
370
    25
  0
POLYLINE
  5
87
330
1F
100
AcDbEntity
  8
_U+30EC_U+30A4_U+30E4_U+30FC 1
  6
AI-Linetype-1
 62
   179
420
  2234388
370
    25
100
AcDb2dPolyline
 66
     1
 10
0.0
 20
0.0
 30
0.0
  0
VERTEX
  5
88
330
87
100
AcDbEntity
  8
_U+30EC_U+30A4_U+30E4_U+30FC 1
  6
AI-Linetype-1
 62
   179
420
  2234388
370
    25
100
AcDbVertex
100
AcDb2dVertex
 10
114.9607527490375
 20
-127.151764968212
 30
0.0
  0
VERTEX
  5
89
330
87
100
AcDbEntity
  8
_U+30EC_U+30A4_U+30E4_U+30FC 1
  6
AI-Linetype-1
 62
   179
420
  2234388
370
    25
100
AcDbVertex
100
AcDb2dVertex
 10
118.0510125438233
 20
-127.151764968212
 30
0.0
  0
SEQEND
  5
8B
330
87
100
AcDbEntity
  8
_U+30EC_U+30A4_U+30E4_U+30FC 1
  6
AI-Linetype-1
 62
   179
420
  2234388
370
    25
  0
POLYLINE
  5
8C
330
1F
100
AcDbEntity
  8
_U+30EC_U+30A4_U+30E4_U+30FC 1
  6
AI-Linetype-2
 62
   179
420
  2234388
370
    25
100
AcDb2dPolyline
 66
     1
 10
0.0
 20
0.0
 30
0.0
  0
VERTEX
  5
8D
330
8C
100
AcDbEntity
  8
_U+30EC_U+30A4_U+30E4_U+30FC 1
  6
AI-Linetype-2
 62
   179
420
  2234388
370
    25
100
AcDbVertex
100
AcDb2dVertex
 10
114.9607527490375
 20
-127.5717116347738
 30
0.0
  0
VERTEX
  5
8E
330
8C
100
AcDbEntity
  8
_U+30EC_U+30A4_U+30E4_U+30FC 1
  6
AI-Linetype-2
 62
   179
420
  2234388
370
    25
100
AcDbVertex
100
AcDb2dVertex
 10
118.0510125438233
 20
-127.5717116347738
 30
0.0
  0
SEQEND
  5
90
330
8C
100
AcDbEntity
  8
_U+30EC_U+30A4_U+30E4_U+30FC 1
  6
AI-Linetype-2
 62
   179
420
  2234388
370
    25
  0
POLYLINE
  5
91
330
1F
100
AcDbEntity
  8
_U+30EC_U+30A4_U+30E4_U+30FC 1
  6
AI-Linetype-3
 62
   179
420
  2234388
370
    25
100
AcDb2dPolyline
 66
     1
 10
0.0
 20
0.0
 30
0.0
  0
VERTEX
  5
92
330
91
100
AcDbEntity
  8
_U+30EC_U+30A4_U+30E4_U+30FC 1
  6
AI-Linetype-3
 62
   179
420
  2234388
370
    25
100
AcDbVertex
100
AcDb2dVertex
 10
118.7710319698985
 20
-127.8717844124765
 30
0.0
  0
VERTEX
  5
93
330
91
100
AcDbEntity
  8
_U+30EC_U+30A4_U+30E4_U+30FC 1
  6
AI-Linetype-3
 62
   179
420
  2234388
370
    25
100
AcDbVertex
100
AcDb2dVertex
 10
118.7710319698985
 20
-132.8518424667872
 30
0.0
  0
SEQEND
  5
95
330
91
100
AcDbEntity
  8
_U+30EC_U+30A4_U+30E4_U+30FC 1
  6
AI-Linetype-3
 62
   179
420
  2234388
370
    25
  0
POLYLINE
  5
96
330
1F
100
AcDbEntity
  8
_U+30EC_U+30A4_U+30E4_U+30FC 1
  6
AI-Linetype-4
 62
   179
420
  2234388
370
    25
100
AcDb2dPolyline
 66
     1
 10
0.0
 20
0.0
 30
0.0
  0
VERTEX
  5
97
330
96
100
AcDbEntity
  8
_U+30EC_U+30A4_U+30E4_U+30FC 1
  6
AI-Linetype-4
 62
   179
420
  2234388
370
    25
100
AcDbVertex
100
AcDb2dVertex
 10
119.070751962252
 20
-133.1515624667121
 30
0.0
  0
VERTEX
  5
98
330
96
100
AcDbEntity
  8
_U+30EC_U+30A4_U+30E4_U+30FC 1
  6
AI-Linetype-4
 62
   179
420
  2234388
370
    25
100
AcDbVertex
100
AcDb2dVertex
 10
133.8495332998707
 20
-133.1515624667121
 30
0.0
  0
SEQEND
  5
9A
330
96
100
AcDbEntity
  8
_U+30EC_U+30A4_U+30E4_U+30FC 1
  6
AI-Linetype-4
 62
   179
420
  2234388
370
    25
  0
POLYLINE
  5
9B
330
1F
100
AcDbEntity
  8
_U+30EC_U+30A4_U+30E4_U+30FC 1
  6
AI-Linetype-5
 62
   179
420
  2234388
370
    25
100
AcDb2dPolyline
 66
     1
 10
0.0
 20
0.0
 30
0.0
  0
VERTEX
  5
9C
330
9B
100
AcDbEntity
  8
_U+30EC_U+30A4_U+30E4_U+30FC 1
  6
AI-Linetype-5
 62
   179
420
  2234388
370
    25
100
AcDbVertex
100
AcDb2dVertex
 10
119.070751962252
 20
-133.5718619110514
 30
0.0
  0
VERTEX
  5
9D
330
9B
100
AcDbEntity
  8
_U+30EC_U+30A4_U+30E4_U+30FC 1
  6
AI-Linetype-5
 62
   179
420
  2234388
370
    25
100
AcDbVertex
100
AcDb2dVertex
 10
133.7661685317852
 20
-133.5718619110514
 30
0.0
  0
SEQEND
  5
9F
330
9B
100
AcDbEntity
  8
_U+30EC_U+30A4_U+30E4_U+30FC 1
  6
AI-Linetype-5
 62
   179
420
  2234388
370
    25
  0
POLYLINE
  5
A0
330
1F
100
AcDbEntity
  8
_U+30EC_U+30A4_U+30E4_U+30FC 1
  6
AI-Linetype-6
 62
   179
420
  2234388
370
    25
100
AcDb2dPolyline
 66
     1
 10
0.0
 20
0.0
 30
0.0
  0
VERTEX
  5
A1
330
A0
100
AcDbEntity
  8
_U+30EC_U+30A4_U+30E4_U+30FC 1
  6
AI-Linetype-6
 62
   179
420
  2234388
370
    25
100
AcDbVertex
100
AcDb2dVertex
 10
118.3507325361768
 20
-127.8717844124765
 30
0.0
  0
VERTEX
  5
A2
330
A0
100
AcDbEntity
  8
_U+30EC_U+30A4_U+30E4_U+30FC 1
  6
AI-Linetype-6
 62
   179
420
  2234388
370
    25
100
AcDbVertex
100
AcDb2dVertex
 10
118.3507325361768
 20
-128.4154149678962
 30
0.0
  0
SEQEND
  5
A4
330
A0
100
AcDbEntity
  8
_U+30EC_U+30A4_U+30E4_U+30FC 1
  6
AI-Linetype-6
 62
   179
420
  2234388
370
    25
  0
POLYLINE
  5
A5
330
1F
100
AcDbEntity
  8
_U+30EC_U+30A4_U+30E4_U+30FC 1
 62
   179
420
  2234388
370
    25
100
AcDb2dPolyline
 66
     1
 10
0.0
 20
0.0
 30
0.0
  0
VERTEX
  5
A6
330
A5
100
AcDbEntity
  8
_U+30EC_U+30A4_U+30E4_U+30FC 1
 62
   179
420
  2234388
370
    25
100
AcDbVertex
100
AcDb2dVertex
 10
54.96080082005538
 20
-127.5717116347738
 30
0.0
  0
VERTEX
  5
A7
330
A5
100
AcDbEntity
  8
_U+30EC_U+30A4_U+30E4_U+30FC 1
 62
   179
420
  2234388
370
    25
100
AcDbVertex
100
AcDb2dVertex
 10
58.05088713010959
 20
-127.5717116347738
 30
0.0
  0
SEQEND
  5
A8
330
A5
100
AcDbEntity
  8
_U+30EC_U+30A4_U+30E4_U+30FC 1
 62
   179
420
  2234388
370
    25
  0
SPLINE
  5
A9
330
1F
100
AcDbEntity
  8
_U+30EC_U+30A4_U+30E4_U+30FC 1
 62
   179
420
  2234388
370
    25
100
AcDbSpline
210
0.0
220
0.0
230
1.0
 70
     8
 71
     3
 72
    11
 73
     7
 74
     0
 42
0.0000000001
 43
0.0000000001
 12
1.0
 22
0.0
 32
0.0
 13
1.0
 23
0.0
 33
0.0
 40
0.0
 40
0.0
 40
0.0
 40
0.0
 40
1.0
 40
1.0
 40
1.0
 40
2.0
 40
2.0
 40
2.0
 40
2.0
 10
54.96080082005538
 20
-127.151764968212
 30
0.0
 10
54.84487804523503
 20
-127.151764968212
 30
0.0
 10
54.75082749207891
 20
-127.245815523744
 30
0.0
 10
54.75082749207891
 20
-127.3617383014931
 30
0.0
 10
54.75082749207891
 20
-127.4778374681307
 30
0.0
 10
54.84487804523503
 20
-127.5717116347738
 30
0.0
 10
54.96080082005538
 20
-127.5717116347738
 30
0.0
  0
SPLINE
  5
AA
330
1F
100
AcDbEntity
  8
_U+30EC_U+30A4_U+30E4_U+30FC 1
 62
   179
420
  2234388
370
    25
100
AcDbSpline
210
0.0
220
0.0
230
1.0
 70
     8
 71
     3
 72
     8
 73
     4
 74
     0
 42
0.0000000001
 43
0.0000000001
 12
1.0
 22
0.0
 32
0.0
 13
1.0
 23
0.0
 33
0.0
 40
0.0
 40
0.0
 40
0.0
 40
0.0
 40
1.0
 40
1.0
 40
1.0
 40
1.0
 10
58.35078351134749
 20
-127.8717844124765
 30
0.0
 10
58.35078351134749
 20
-127.7060846902958
 30
0.0
 10
58.21641045922008
 20
-127.5717116347738
 30
0.0
 10
58.05088713010959
 20
-127.5717116347738
 30
0.0
  0
SPLINE
  5
AB
330
1F
100
AcDbEntity
  8
_U+30EC_U+30A4_U+30E4_U+30FC 1
 62
   179
420
  2234388
370
    25
100
AcDbSpline
210
0.0
220
0.0
230
1.0
 70
     8
 71
     3
 72
     8
 73
     4
 74
     0
 42
0.0000000001
 43
0.0000000001
 12
1.0
 22
0.0
 32
0.0
 13
1.0
 23
0.0
 33
0.0
 40
0.0
 40
0.0
 40
0.0
 40
0.0
 40
1.0
 40
1.0
 40
1.0
 40
1.0
 10
58.77073016730043
 20
-132.8518424667872
 30
0.0
 10
58.77073016730043
 20
-133.0171894111901
 30
0.0
 10
58.90510321942784
 20
-133.1515624667121
 30
0.0
 10
59.07080293742271
 20
-133.1515624667121
 30
0.0
  0
SPLINE
  5
AC
330
1F
100
AcDbEntity
  8
_U+30EC_U+30A4_U+30E4_U+30FC 1
 62
   179
420
  2234388
370
    25
100
AcDbSpline
210
0.0
220
0.0
230
1.0
 70
     8
 71
     3
 72
     8
 73
     4
 74
     0
 42
0.0000000001
 43
0.0000000001
 12
1.0
 22
0.0
 32
0.0
 13
1.0
 23
0.0
 33
0.0
 40
0.0
 40
0.0
 40
0.0
 40
0.0
 40
1.0
 40
1.0
 40
1.0
 40
1.0
 10
58.35078351134749
 20
-132.8518424667872
 30
0.0
 10
58.35078351134749
 20
-133.2493877444653
 30
0.0
 10
58.67325766978716
 20
-133.5718619110514
 30
0.0
 10
59.07080293742271
 20
-133.5718619110514
 30
0.0
  0
SPLINE
  5
AD
330
1F
100
AcDbEntity
  8
_U+30EC_U+30A4_U+30E4_U+30FC 1
 62
   179
420
  2234388
370
    25
100
AcDbSpline
210
0.0
220
0.0
230
1.0
 70
     8
 71
     3
 72
     8
 73
     4
 74
     0
 42
0.0000000001
 43
0.0000000001
 12
1.0
 22
0.0
 32
0.0
 13
1.0
 23
0.0
 33
0.0
 40
0.0
 40
0.0
 40
0.0
 40
0.0
 40
1.0
 40
1.0
 40
1.0
 40
1.0
 10
58.77073016730043
 20
-127.8717844124765
 30
0.0
 10
58.77073016730043
 20
-127.4742038570202
 30
0.0
 10
58.44846767552202
 20
-127.151764968212
 30
0.0
 10
58.05088713010959
 20
-127.151764968212
 30
0.0
  0
SPLINE
  5
AE
330
1F
100
AcDbEntity
  8
_U+30EC_U+30A4_U+30E4_U+30FC 1
 62
   179
420
  2234388
370
    25
100
AcDbSpline
210
0.0
220
0.0
230
1.0
 70
     8
 71
     3
 72
     8
 73
     4
 74
     0
 42
0.0000000001
 43
0.0000000001
 12
1.0
 22
0.0
 32
0.0
 13
1.0
 23
0.0
 33
0.0
 40
0.0
 40
0.0
 40
0.0
 40
0.0
 40
1.0
 40
1.0
 40
1.0
 40
1.0
 10
117.6307131101016
 20
-133.1515624667121
 30
0.0
 10
117.7964128280965
 20
-133.1515624667121
 30
0.0
 10
117.930788859406
 20
-133.0171894111901
 30
0.0
 10
117.930788859406
 20
-132.8518424667872
 30
0.0
  0
SPLINE
  5
AF
330
1F
100
AcDbEntity
  8
_U+30EC_U+30A4_U+30E4_U+30FC 1
 62
   179
420
  2234388
370
    25
100
AcDbSpline
210
0.0
220
0.0
230
1.0
 70
     8
 71
     3
 72
     8
 73
     4
 74
     0
 42
0.0000000001
 43
0.0000000001
 12
1.0
 22
0.0
 32
0.0
 13
1.0
 23
0.0
 33
0.0
 40
0.0
 40
0.0
 40
0.0
 40
0.0
 40
1.0
 40
1.0
 40
1.0
 40
1.0
 10
117.6307131101016
 20
-133.5718619110514
 30
0.0
 10
118.0286111555059
 20
-133.5718619110514
 30
0.0
 10
118.3507325361768
 20
-133.2493877444653
 30
0.0
 10
118.3507325361768
 20
-132.8518424667872
 30
0.0
  0
SPLINE
  5
B0
330
1F
100
AcDbEntity
  8
_U+30EC_U+30A4_U+30E4_U+30FC 1
 62
   179
420
  2234388
370
    25
100
AcDbSpline
210
0.0
220
0.0
230
1.0
 70
     8
 71
     3
 72
    11
 73
     7
 74
     0
 42
0.0000000001
 43
0.0000000001
 12
1.0
 22
0.0
 32
0.0
 13
1.0
 23
0.0
 33
0.0
 40
0.0
 40
0.0
 40
0.0
 40
0.0
 40
1.0
 40
1.0
 40
1.0
 40
2.0
 40
2.0
 40
2.0
 40
2.0
 10
114.6045501317499
 20
-127.028257468243
 30
0.0
 10
114.4198709697948
 20
-127.028257468243
 30
0.0
 10
114.2710721936543
 20
-127.1775883015388
 30
0.0
 10
114.2710721936543
 20
-127.3617383014931
 30
0.0
 10
114.2710721936543
 20
-127.5460646903356
 30
0.0
 10
114.4198709697948
 20
-127.6953955236317
 30
0.0
 10
114.6045501317499
 20
-127.6953955236317
 30
0.0
  0
SPLINE
  5
B1
330
1F
100
AcDbEntity
  8
_U+30EC_U+30A4_U+30E4_U+30FC 1
 62
   179
420
  2234388
370
    25
100
AcDbSpline
210
0.0
220
0.0
230
1.0
 70
     8
 71
     3
 72
    11
 73
     7
 74
     0
 42
0.0000000001
 43
0.0000000001
 12
1.0
 22
0.0
 32
0.0
 13
1.0
 23
0.0
 33
0.0
 40
0.0
 40
0.0
 40
0.0
 40
0.0
 40
1.0
 40
1.0
 40
1.0
 40
2.0
 40
2.0
 40
2.0
 40
2.0
 10
114.6045501317499
 20
-126.6081344127923
 30
0.0
 10
114.1883781979229
 20
-126.6081344127923
 30
0.0
 10
113.8507698732027
 20
-126.9455663571524
 30
0.0
 10
113.8507698732027
 20
-127.3617383014931
 30
0.0
 10
113.8507698732027
 20
-127.7779102458334
 30
0.0
 10
114.1883781979229
 20
-128.1153421901935
 30
0.0
 10
114.6045501317499
 20
-128.1153421901935
 30
0.0
  0
SPLINE
  5
B2
330
1F
100
AcDbEntity
  8
_U+30EC_U+30A4_U+30E4_U+30FC 1
 62
   179
420
  2234388
370
    25
100
AcDbSpline
210
0.0
220
0.0
230
1.0
 70
     8
 71
     3
 72
     8
 73
     4
 74
     0
 42
0.0000000001
 43
0.0000000001
 12
1.0
 22
0.0
 32
0.0
 13
1.0
 23
0.0
 33
0.0
 40
0.0
 40
0.0
 40
0.0
 40
0.0
 40
1.0
 40
1.0
 40
1.0
 40
1.0
 10
117.930788859406
 20
-128.4154149678962
 30
0.0
 10
117.930788859406
 20
-128.2497152457152
 30
0.0
 10
117.7964128280965
 20
-128.1153421901935
 30
0.0
 10
117.6307131101016
 20
-128.1153421901935
 30
0.0
  0
SPLINE
  5
B3
330
1F
100
AcDbEntity
  8
_U+30EC_U+30A4_U+30E4_U+30FC 1
 62
   179
420
  2234388
370
    25
100
AcDbSpline
210
0.0
220
0.0
230
1.0
 70
     8
 71
     3
 72
     8
 73
     4
 74
     0
 42
0.0000000001
 43
0.0000000001
 12
1.0
 22
0.0
 32
0.0
 13
1.0
 23
0.0
 33
0.0
 40
0.0
 40
0.0
 40
0.0
 40
0.0
 40
1.0
 40
1.0
 40
1.0
 40
1.0
 10
118.3507325361768
 20
-128.4154149678962
 30
0.0
 10
118.3507325361768
 20
-128.0176933013288
 30
0.0
 10
118.0286111555059
 20
-127.6953955236317
 30
0.0
 10
117.6307131101016
 20
-127.6953955236317
 30
0.0
  0
SPLINE
  5
B4
330
1F
100
AcDbEntity
  8
_U+30EC_U+30A4_U+30E4_U+30FC 1
 62
   179
420
  2234388
370
    25
100
AcDbSpline
210
0.0
220
0.0
230
1.0
 70
     8
 71
     3
 72
    14
 73
    10
 74
     0
 42
0.0000000001
 43
0.0000000001
 12
1.0
 22
0.0
 32
0.0
 13
1.0
 23
0.0
 33
0.0
 40
0.0
 40
0.0
 40
0.0
 40
0.0
 40
1.0
 40
1.0
 40
1.0
 40
2.0
 40
2.0
 40
2.0
 40
3.0
 40
3.0
 40
3.0
 40
3.0
 10
127.2921320302849
 20
-127.0902758015608
 30
0.0
 10
127.3741175837489
 20
-127.1722613570958
 30
0.0
 10
127.507114802578
 20
-127.1722613570958
 30
0.0
 10
127.589100356042
 20
-127.0902758015608
 30
0.0
 10
127.6714386872747
 20
-127.008254968248
 30
0.0
 10
127.6714386872747
 20
-126.8752930238367
 30
0.0
 10
127.589100356042
 20
-126.7933074683017
 30
0.0
 10
127.589100356042
 20
-126.7933074683017
 30
0.0
 10
127.589100356042
 20
-126.7933074683017
 30
0.0
 10
127.589100356042
 20
-126.7933074683017
 30
0.0
  0
SPLINE
  5
B5
330
1F
100
AcDbEntity
  8
_U+30EC_U+30A4_U+30E4_U+30FC 1
  6
AI-Linetype-7
 62
   179
420
  2234388
370
    25
100
AcDbSpline
210
0.0
220
0.0
230
1.0
 70
     8
 71
     3
 72
     8
 73
     4
 74
     0
 42
0.0000000001
 43
0.0000000001
 12
1.0
 22
0.0
 32
0.0
 13
1.0
 23
0.0
 33
0.0
 40
0.0
 40
0.0
 40
0.0
 40
0.0
 40
1.0
 40
1.0
 40
1.0
 40
1.0
 10
118.3507325361768
 20
-132.8518424667872
 30
0.0
 10
118.3507325361768
 20
-133.2493877444653
 30
0.0
 10
118.6732066946165
 20
-133.5718619110514
 30
0.0
 10
119.070751962252
 20
-133.5718619110514
 30
0.0
  0
SPLINE
  5
B7
330
1F
100
AcDbEntity
  8
_U+30EC_U+30A4_U+30E4_U+30FC 1
  6
AI-Linetype-8
 62
   179
420
  2234388
370
    25
100
AcDbSpline
210
0.0
220
0.0
230
1.0
 70
     8
 71
     3
 72
     8
 73
     4
 74
     0
 42
0.0000000001
 43
0.0000000001
 12
1.0
 22
0.0
 32
0.0
 13
1.0
 23
0.0
 33
0.0
 40
0.0
 40
0.0
 40
0.0
 40
0.0
 40
1.0
 40
1.0
 40
1.0
 40
1.0
 10
118.7710319698985
 20
-127.8717844124765
 30
0.0
 10
118.7710319698985
 20
-127.4742038570202
 30
0.0
 10
118.4485930892357
 20
-127.151764968212
 30
0.0
 10
118.0510125438233
 20
-127.151764968212
 30
0.0
  0
SPLINE
  5
B9
330
1F
100
AcDbEntity
  8
_U+30EC_U+30A4_U+30E4_U+30FC 1
  6
AI-Linetype-9
 62
   179
420
  2234388
370
    25
100
AcDbSpline
210
0.0
220
0.0
230
1.0
 70
     8
 71
     3
 72
     8
 73
     4
 74
     0
 42
0.0000000001
 43
0.0000000001
 12
1.0
 22
0.0
 32
0.0
 13
1.0
 23
0.0
 33
0.0
 40
0.0
 40
0.0
 40
0.0
 40
0.0
 40
1.0
 40
1.0
 40
1.0
 40
1.0
 10
118.7710319698985
 20
-132.8518424667872
 30
0.0
 10
118.7710319698985
 20
-133.0171894111901
 30
0.0
 10
118.9054050220259
 20
-133.1515624667121
 30
0.0
 10
119.070751962252
 20
-133.1515624667121
 30
0.0
  0
SPLINE
  5
BB
330
1F
100
AcDbEntity
  8
_U+30EC_U+30A4_U+30E4_U+30FC 1
  6
AI-Linetype-10
 62
   179
420
  2234388
370
    25
100
AcDbSpline
210
0.0
220
0.0
230
1.0
 70
     8
 71
     3
 72
    11
 73
     7
 74
     0
 42
0.0000000001
 43
0.0000000001
 12
1.0
 22
0.0
 32
0.0
 13
1.0
 23
0.0
 33
0.0
 40
0.0
 40
0.0
 40
0.0
 40
0.0
 40
1.0
 40
1.0
 40
1.0
 40
2.0
 40
2.0
 40
2.0
 40
2.0
 10
114.9607527490375
 20
-127.151764968212
 30
0.0
 10
114.8450034589488
 20
-127.151764968212
 30
0.0
 10
114.7506001280238
 20
-127.245815523744
 30
0.0
 10
114.7506001280238
 20
-127.3617383014931
 30
0.0
 10
114.7506001280238
 20
-127.4778374681307
 30
0.0
 10
114.8450034589488
 20
-127.5717116347738
 30
0.0
 10
114.9607527490375
 20
-127.5717116347738
 30
0.0
  0
SPLINE
  5
BD
330
1F
100
AcDbEntity
  8
_U+30EC_U+30A4_U+30E4_U+30FC 1
  6
AI-Linetype-11
 62
   179
420
  2234388
370
    25
100
AcDbSpline
210
0.0
220
0.0
230
1.0
 70
     8
 71
     3
 72
     8
 73
     4
 74
     0
 42
0.0000000001
 43
0.0000000001
 12
1.0
 22
0.0
 32
0.0
 13
1.0
 23
0.0
 33
0.0
 40
0.0
 40
0.0
 40
0.0
 40
0.0
 40
1.0
 40
1.0
 40
1.0
 40
1.0
 10
118.3507325361768
 20
-127.8717844124765
 30
0.0
 10
118.3507325361768
 20
-127.7060846902958
 30
0.0
 10
118.2163947618263
 20
-127.5717116347738
 30
0.0
 10
118.0510125438233
 20
-127.5717116347738
 30
0.0
  0
SPLINE
  5
BF
330
1F
100
AcDbEntity
  8
_U+30EC_U+30A4_U+30E4_U+30FC 1
 62
   179
420
  2234388
370
     9
100
AcDbSpline
210
0.0
220
0.0
230
1.0
 70
    11
 71
     3
 72
    17
 73
    13
 74
     0
 42
0.0000000001
 43
0.0000000001
 12
1.0
 22
0.0
 32
0.0
 13
1.0
 23
0.0
 33
0.0
 40
0.0
 40
0.0
 40
0.0
 40
0.0
 40
1.0
 40
1.0
 40
1.0
 40
2.0
 40
2.0
 40
2.0
 40
3.0
 40
3.0
 40
3.0
 40
4.0
 40
4.0
 40
4.0
 40
4.0
 10
52.4109231073304
 20
-127.1157463571099
 30
0.0
 10
52.4109231073304
 20
-127.0826910793405
 30
0.0
 10
52.38404144134955
 20
-127.0558094126804
 30
0.0
 10
52.35081109802331
 20
-127.0558094126804
 30
0.0
 10
52.31771922081934
 20
-127.0558094126804
 30
0.0
 10
52.29087283261536
 20
-127.0826910793405
 30
0.0
 10
52.29087283261536
 20
-127.1157463571099
 30
0.0
 10
52.29087283261536
 20
-127.1490133015462
 30
0.0
 10
52.31771922081934
 20
-127.1758596904282
 30
0.0
 10
52.35081109802331
 20
-127.1758596904282
 30
0.0
 10
52.38404144134955
 20
-127.1758596904282
 30
0.0
 10
52.4109231073304
 20
-127.1490133015462
 30
0.0
 10
52.4109231073304
 20
-127.1157463571099
 30
0.0
  0
SPLINE
  5
C0
330
1F
100
AcDbEntity
  8
_U+30EC_U+30A4_U+30E4_U+30FC 1
 62
   179
420
  2234388
370
     9
100
AcDbSpline
210
0.0
220
0.0
230
1.0
 70
    11
 71
     3
 72
    17
 73
    13
 74
     0
 42
0.0000000001
 43
0.0000000001
 12
1.0
 22
0.0
 32
0.0
 13
1.0
 23
0.0
 33
0.0
 40
0.0
 40
0.0
 40
0.0
 40
0.0
 40
1.0
 40
1.0
 40
1.0
 40
2.0
 40
2.0
 40
2.0
 40
3.0
 40
3.0
 40
3.0
 40
4.0
 40
4.0
 40
4.0
 40
4.0
 10
52.4109231073304
 20
-133.5718619110514
 30
0.0
 10
52.4109231073304
 20
-133.5388066332821
 30
0.0
 10
52.38404144134955
 20
-133.5119249666223
 30
0.0
 10
52.35081109802331
 20
-133.5119249666223
 30
0.0
 10
52.31771922081934
 20
-133.5119249666223
 30
0.0
 10
52.29087283261536
 20
-133.5388066332821
 30
0.0
 10
52.29087283261536
 20
-133.5718619110514
 30
0.0
 10
52.29087283261536
 20
-133.6049524665989
 30
0.0
 10
52.31771922081934
 20
-133.6317988554811
 30
0.0
 10
52.35081109802331
 20
-133.6317988554811
 30
0.0
 10
52.38404144134955
 20
-133.6317988554811
 30
0.0
 10
52.4109231073304
 20
-133.6049524665989
 30
0.0
 10
52.4109231073304
 20
-133.5718619110514
 30
0.0
  0
SPLINE
  5
C1
330
1F
100
AcDbEntity
  8
_U+30EC_U+30A4_U+30E4_U+30FC 1
 62
   179
420
  2234388
370
     9
100
AcDbSpline
210
0.0
220
0.0
230
1.0
 70
    11
 71
     3
 72
    17
 73
    13
 74
     0
 42
0.0000000001
 43
0.0000000001
 12
1.0
 22
0.0
 32
0.0
 13
1.0
 23
0.0
 33
0.0
 40
0.0
 40
0.0
 40
0.0
 40
0.0
 40
1.0
 40
1.0
 40
1.0
 40
2.0
 40
2.0
 40
2.0
 40
3.0
 40
3.0
 40
3.0
 40
4.0
 40
4.0
 40
4.0
 40
4.0
 10
54.81076443499423
 20
-135.9717032993404
 30
0.0
 10
54.81076443499423
 20
-135.9386480215711
 30
0.0
 10
54.78391943074835
 20
-135.9117663549106
 30
0.0
 10
54.75082749207891
 20
-135.9117663549106
 30
0.0
 10
54.71777221514444
 20
-135.9117663549106
 30
0.0
 10
54.69089054916358
 20
-135.9386480215711
 30
0.0
 10
54.69089054916358
 20
-135.9717032993404
 30
0.0
 10
54.69089054916358
 20
-136.0047938548879
 30
0.0
 10
54.71777221514444
 20
-136.0316755215476
 30
0.0
 10
54.75082749207891
 20
-136.0316755215476
 30
0.0
 10
54.78391943074835
 20
-136.0316755215476
 30
0.0
 10
54.81076443499423
 20
-136.0047938548879
 30
0.0
 10
54.81076443499423
 20
-135.9717032993404
 30
0.0
  0
SPLINE
  5
C2
330
1F
100
AcDbEntity
  8
_U+30EC_U+30A4_U+30E4_U+30FC 1
 62
   179
420
  2234388
370
     9
100
AcDbSpline
210
0.0
220
0.0
230
1.0
 70
    11
 71
     3
 72
    17
 73
    13
 74
     0
 42
0.0000000001
 43
0.0000000001
 12
1.0
 22
0.0
 32
0.0
 13
1.0
 23
0.0
 33
0.0
 40
0.0
 40
0.0
 40
0.0
 40
0.0
 40
1.0
 40
1.0
 40
1.0
 40
2.0
 40
2.0
 40
2.0
 40
3.0
 40
3.0
 40
3.0
 40
4.0
 40
4.0
 40
4.0
 40
4.0
 10
58.41072045426282
 20
-135.9717032993404
 30
0.0
 10
58.41072045426282
 20
-135.9386480215711
 30
0.0
 10
58.38387406605884
 20
-135.9117663549106
 30
0.0
 10
58.35078351134749
 20
-135.9117663549106
 30
0.0
 10
58.31772823441302
 20
-135.9117663549106
 30
0.0
 10
58.29084656843217
 20
-135.9386480215711
 30
0.0
 10
58.29084656843217
 20
-135.9717032993404
 30
0.0
 10
58.29084656843217
 20
-136.0047938548879
 30
0.0
 10
58.31772823441302
 20
-136.0316755215476
 30
0.0
 10
58.35078351134749
 20
-136.0316755215476
 30
0.0
 10
58.38387406605884
 20
-136.0316755215476
 30
0.0
 10
58.41072045426282
 20
-136.0047938548879
 30
0.0
 10
58.41072045426282
 20
-135.9717032993404
 30
0.0
  0
SPLINE
  5
C3
330
1F
100
AcDbEntity
  8
_U+30EC_U+30A4_U+30E4_U+30FC 1
 62
   179
420
  2234388
370
    25
100
AcDbSpline
210
0.0
220
0.0
230
1.0
 70
    11
 71
     3
 72
    17
 73
    13
 74
     0
 42
0.0000000001
 43
0.0000000001
 12
1.0
 22
0.0
 32
0.0
 13
1.0
 23
0.0
 33
0.0
 40
0.0
 40
0.0
 40
0.0
 40
0.0
 40
1.0
 40
1.0
 40
1.0
 40
2.0
 40
2.0
 40
2.0
 40
3.0
 40
3.0
 40
3.0
 40
4.0
 40
4.0
 40
4.0
 40
4.0
 10
118.4106694790921
 20
-135.9717032993404
 30
0.0
 10
118.4106694790921
 20
-135.9386480215711
 30
0.0
 10
118.3838230908882
 20
-135.9117663549106
 30
0.0
 10
118.3507325361768
 20
-135.9117663549106
 30
0.0
 10
118.3176772592424
 20
-135.9117663549106
 30
0.0
 10
118.2907955932615
 20
-135.9386480215711
 30
0.0
 10
118.2907955932615
 20
-135.9717032993404
 30
0.0
 10
118.2907955932615
 20
-136.0047938548879
 30
0.0
 10
118.3176772592424
 20
-136.0316755215476
 30
0.0
 10
118.3507325361768
 20
-136.0316755215476
 30
0.0
 10
118.3838230908882
 20
-136.0316755215476
 30
0.0
 10
118.4106694790921
 20
-136.0047938548879
 30
0.0
 10
118.4106694790921
 20
-135.9717032993404
 30
0.0
  0
SPLINE
  5
C4
330
1F
100
AcDbEntity
  8
_U+30EC_U+30A4_U+30E4_U+30FC 1
 62
   179
420
  2234388
370
     9
100
AcDbSpline
210
0.0
220
0.0
230
1.0
 70
    11
 71
     3
 72
    17
 73
    13
 74
     0
 42
0.0000000001
 43
0.0000000001
 12
1.0
 22
0.0
 32
0.0
 13
1.0
 23
0.0
 33
0.0
 40
0.0
 40
0.0
 40
0.0
 40
0.0
 40
1.0
 40
1.0
 40
1.0
 40
2.0
 40
2.0
 40
2.0
 40
3.0
 40
3.0
 40
3.0
 40
4.0
 40
4.0
 40
4.0
 40
4.0
 10
113.910706816118
 20
-122.9516633025955
 30
0.0
 10
113.910706816118
 20
-122.9186080248259
 30
0.0
 10
113.8838251501371
 20
-122.8917263581661
 30
0.0
 10
113.8507698732027
 20
-122.8917263581661
 30
0.0
 10
113.8176793184913
 20
-122.8917263581661
 30
0.0
 10
113.7907976525104
 20
-122.9186080248259
 30
0.0
 10
113.7907976525104
 20
-122.9516633025955
 30
0.0
 10
113.7907976525104
 20
-122.9849302470315
 30
0.0
 10
113.8176793184913
 20
-123.0117766359138
 30
0.0
 10
113.8507698732027
 20
-123.0117766359138
 30
0.0
 10
113.8838251501371
 20
-123.0117766359138
 30
0.0
 10
113.910706816118
 20
-122.9849302470315
 30
0.0
 10
113.910706816118
 20
-122.9516633025955
 30
0.0
  0
SPLINE
  5
C5
330
1F
100
AcDbEntity
  8
_U+30EC_U+30A4_U+30E4_U+30FC 1
 62
   179
420
  2234388
370
     9
100
AcDbSpline
210
0.0
220
0.0
230
1.0
 70
    11
 71
     3
 72
    17
 73
    13
 74
     0
 42
0.0000000001
 43
0.0000000001
 12
1.0
 22
0.0
 32
0.0
 13
1.0
 23
0.0
 33
0.0
 40
0.0
 40
0.0
 40
0.0
 40
0.0
 40
1.0
 40
1.0
 40
1.0
 40
2.0
 40
2.0
 40
2.0
 40
3.0
 40
3.0
 40
3.0
 40
4.0
 40
4.0
 40
4.0
 40
4.0
 10
118.7110950269832
 20
-122.9516633025955
 30
0.0
 10
118.7110950269832
 20
-122.9186080248259
 30
0.0
 10
118.6842133610023
 20
-122.8917263581661
 30
0.0
 10
118.6508083036708
 20
-122.8917263581661
 30
0.0
 10
118.6177500293646
 20
-122.8917263581661
 30
0.0
 10
118.5908683633838
 20
-122.9186080248259
 30
0.0
 10
118.5908683633838
 20
-122.9516633025955
 30
0.0
 10
118.5908683633838
 20
-122.9849302470315
 30
0.0
 10
118.6177500293646
 20
-123.0117766359138
 30
0.0
 10
118.6508083036708
 20
-123.0117766359138
 30
0.0
 10
118.6842133610023
 20
-123.0117766359138
 30
0.0
 10
118.7110950269832
 20
-122.9849302470315
 30
0.0
 10
118.7110950269832
 20
-122.9516633025955
 30
0.0
  0
SPLINE
  5
C6
330
1F
100
AcDbEntity
  8
_U+30EC_U+30A4_U+30E4_U+30FC 1
 62
   179
420
  2234388
370
     9
100
AcDbSpline
210
0.0
220
0.0
230
1.0
 70
    11
 71
     3
 72
    17
 73
    13
 74
     0
 42
0.0000000001
 43
0.0000000001
 12
1.0
 22
0.0
 32
0.0
 13
1.0
 23
0.0
 33
0.0
 40
0.0
 40
0.0
 40
0.0
 40
0.0
 40
1.0
 40
1.0
 40
1.0
 40
2.0
 40
2.0
 40
2.0
 40
3.0
 40
3.0
 40
3.0
 40
4.0
 40
4.0
 40
4.0
 40
4.0
 10
127.7110556307084
 20
-122.9516633025955
 30
0.0
 10
127.7110556307084
 20
-122.9186080248259
 30
0.0
 10
127.6842092425044
 20
-122.8917263581661
 30
0.0
 10
127.6511186877931
 20
-122.8917263581661
 30
0.0
 10
127.6177138569845
 20
-122.8917263581661
 30
0.0
 10
127.590828967109
 20
-122.9186080248259
 30
0.0
 10
127.590828967109
 20
-122.9516633025955
 30
0.0
 10
127.590828967109
 20
-122.9849302470315
 30
0.0
 10
127.6177138569845
 20
-123.0117766359138
 30
0.0
 10
127.6511186877931
 20
-123.0117766359138
 30
0.0
 10
127.6842092425044
 20
-123.0117766359138
 30
0.0
 10
127.7110556307084
 20
-122.9849302470315
 30
0.0
 10
127.7110556307084
 20
-122.9516633025955
 30
0.0
  0
SPLINE
  5
C7
330
1F
100
AcDbEntity
  8
_U+30EC_U+30A4_U+30E4_U+30FC 1
 62
   179
420
  2234388
370
     9
100
AcDbSpline
210
0.0
220
0.0
230
1.0
 70
    11
 71
     3
 72
    17
 73
    13
 74
     0
 42
0.0000000001
 43
0.0000000001
 12
1.0
 22
0.0
 32
0.0
 13
1.0
 23
0.0
 33
0.0
 40
0.0
 40
0.0
 40
0.0
 40
0.0
 40
1.0
 40
1.0
 40
1.0
 40
2.0
 40
2.0
 40
2.0
 40
3.0
 40
3.0
 40
3.0
 40
4.0
 40
4.0
 40
4.0
 40
4.0
 10
132.510773563813
 20
-125.3516810797731
 30
0.0
 10
132.510773563813
 20
-125.3186258020038
 30
0.0
 10
132.4838918978321
 20
-125.2917441353436
 30
0.0
 10
132.4508366208976
 20
-125.2917441353436
 30
0.0
 10
132.4177460661863
 20
-125.2917441353436
 30
0.0
 10
132.3908996779823
 20
-125.3186258020038
 30
0.0
 10
132.3908996779823
 20
-125.3516810797731
 30
0.0
 10
132.3908996779823
 20
-125.3849480242094
 30
0.0
 10
132.4177460661863
 20
-125.4117944130914
 30
0.0
 10
132.4508366208976
 20
-125.4117944130914
 30
0.0
 10
132.4838918978321
 20
-125.4117944130914
 30
0.0
 10
132.510773563813
 20
-125.3849480242094
 30
0.0
 10
132.510773563813
 20
-125.3516810797731
 30
0.0
  0
SPLINE
  5
C8
330
1F
100
AcDbEntity
  8
_U+30EC_U+30A4_U+30E4_U+30FC 1
 62
   179
420
  2234388
370
     9
100
AcDbSpline
210
0.0
220
0.0
230
1.0
 70
    11
 71
     3
 72
    17
 73
    13
 74
     0
 42
0.0000000001
 43
0.0000000001
 12
1.0
 22
0.0
 32
0.0
 13
1.0
 23
0.0
 33
0.0
 40
0.0
 40
0.0
 40
0.0
 40
0.0
 40
1.0
 40
1.0
 40
1.0
 40
2.0
 40
2.0
 40
2.0
 40
3.0
 40
3.0
 40
3.0
 40
4.0
 40
4.0
 40
4.0
 40
4.0
 10
130.1109322361491
 20
-127.151764968212
 30
0.0
 10
130.1109322361491
 20
-127.1186744126648
 30
0.0
 10
130.0840505701683
 20
-127.0918280237826
 30
0.0
 10
130.0509600154569
 20
-127.0918280237826
 30
0.0
 10
130.0179047385225
 20
-127.0918280237826
 30
0.0
 10
129.9910230725416
 20
-127.1186744126648
 30
0.0
 10
129.9910230725416
 20
-127.151764968212
 30
0.0
 10
129.9910230725416
 20
-127.1848202459816
 30
0.0
 10
130.0179047385225
 20
-127.2117019126414
 30
0.0
 10
130.0509600154569
 20
-127.2117019126414
 30
0.0
 10
130.0840505701683
 20
-127.2117019126414
 30
0.0
 10
130.1109322361491
 20
-127.1848202459816
 30
0.0
 10
130.1109322361491
 20
-127.151764968212
 30
0.0
  0
SPLINE
  5
C9
330
1F
100
AcDbEntity
  8
_U+30EC_U+30A4_U+30E4_U+30FC 1
 62
   179
420
  2234388
370
    25
100
AcDbSpline
210
0.0
220
0.0
230
1.0
 70
    11
 71
     3
 72
    17
 73
    13
 74
     0
 42
0.0000000001
 43
0.0000000001
 12
1.0
 22
0.0
 32
0.0
 13
1.0
 23
0.0
 33
0.0
 40
0.0
 40
0.0
 40
0.0
 40
0.0
 40
1.0
 40
1.0
 40
1.0
 40
2.0
 40
2.0
 40
2.0
 40
3.0
 40
3.0
 40
3.0
 40
4.0
 40
4.0
 40
4.0
 40
4.0
 10
130.1109322361491
 20
-133.1515624667121
 30
0.0
 10
130.1109322361491
 20
-133.1185071889428
 30
0.0
 10
130.0840505701683
 20
-133.0916255222824
 30
0.0
 10
130.0509600154569
 20
-133.0916255222824
 30
0.0
 10
130.0179047385225
 20
-133.0916255222824
 30
0.0
 10
129.9910230725416
 20
-133.1185071889428
 30
0.0
 10
129.9910230725416
 20
-133.1515624667121
 30
0.0
 10
129.9910230725416
 20
-133.1849705222592
 30
0.0
 10
130.0179047385225
 20
-133.211852188919
 30
0.0
 10
130.0509600154569
 20
-133.211852188919
 30
0.0
 10
130.0840505701683
 20
-133.211852188919
 30
0.0
 10
130.1109322361491
 20
-133.1849705222592
 30
0.0
 10
130.1109322361491
 20
-133.1515624667121
 30
0.0
  0
SPLINE
  5
CA
330
1F
100
AcDbEntity
  8
_U+30EC_U+30A4_U+30E4_U+30FC 1
 62
   179
420
  2234388
370
    25
100
AcDbSpline
210
0.0
220
0.0
230
1.0
 70
    11
 71
     3
 72
    17
 73
    13
 74
     0
 42
0.0000000001
 43
0.0000000001
 12
1.0
 22
0.0
 32
0.0
 13
1.0
 23
0.0
 33
0.0
 40
0.0
 40
0.0
 40
0.0
 40
0.0
 40
1.0
 40
1.0
 40
1.0
 40
2.0
 40
2.0
 40
2.0
 40
3.0
 40
3.0
 40
3.0
 40
4.0
 40
4.0
 40
4.0
 40
4.0
 10
132.510773563813
 20
-133.1515624667121
 30
0.0
 10
132.510773563813
 20
-133.1185071889428
 30
0.0
 10
132.4838918978321
 20
-133.0916255222824
 30
0.0
 10
132.4508366208976
 20
-133.0916255222824
 30
0.0
 10
132.4177460661863
 20
-133.0916255222824
 30
0.0
 10
132.3908996779823
 20
-133.1185071889428
 30
0.0
 10
132.3908996779823
 20
-133.1515624667121
 30
0.0
 10
132.3908996779823
 20
-133.1849705222592
 30
0.0
 10
132.4177460661863
 20
-133.211852188919
 30
0.0
 10
132.4508366208976
 20
-133.211852188919
 30
0.0
 10
132.4838918978321
 20
-133.211852188919
 30
0.0
 10
132.510773563813
 20
-133.1849705222592
 30
0.0
 10
132.510773563813
 20
-133.1515624667121
 30
0.0
  0
POLYLINE
  5
CB
330
1F
100
AcDbEntity
  8
_U+30EC_U+30A4_U+30E4_U+30FC 1
 62
   179
420
  2234388
370
     9
100
AcDb2dPolyline
 66
     1
 10
0.0
 20
0.0
 30
0.0
  0
VERTEX
  5
CC
330
CB
100
AcDbEntity
  8
_U+30EC_U+30A4_U+30E4_U+30FC 1
 62
   179
420
  2234388
370
     9
100
AcDbVertex
100
AcDb2dVertex
 10
130.0509600154569
 20
-127.151764968212
 30
0.0
  0
VERTEX
  5
CD
330
CB
100
AcDbEntity
  8
_U+30EC_U+30A4_U+30E4_U+30FC 1
 62
   179
420
  2234388
370
     9
100
AcDbVertex
100
AcDb2dVertex
 10
130.0509600154569
 20
-133.1515624667121
 30
0.0
  0
SEQEND
  5
CE
330
CB
100
AcDbEntity
  8
_U+30EC_U+30A4_U+30E4_U+30FC 1
 62
   179
420
  2234388
370
     9
  0
POLYLINE
  5
CF
330
1F
100
AcDbEntity
  8
_U+30EC_U+30A4_U+30E4_U+30FC 1
 62
   179
420
  2234388
370
     9
100
AcDb2dPolyline
 66
     1
 10
0.0
 20
0.0
 30
0.0
  0
VERTEX
  5
D0
330
CF
100
AcDbEntity
  8
_U+30EC_U+30A4_U+30E4_U+30FC 1
 62
   179
420
  2234388
370
     9
100
AcDbVertex
100
AcDb2dVertex
 10
128.9647219876136
 20
-127.151764968212
 30
0.0
  0
VERTEX
  5
D1
330
CF
100
AcDbEntity
  8
_U+30EC_U+30A4_U+30E4_U+30FC 1
 62
   179
420
  2234388
370
     9
100
AcDbVertex
100
AcDb2dVertex
 10
130.6507527779327
 20
-127.151764968212
 30
0.0
  0
SEQEND
  5
D2
330
CF
100
AcDbEntity
  8
_U+30EC_U+30A4_U+30E4_U+30FC 1
 62
   179
420
  2234388
370
     9
  0
POLYLINE
  5
D3
330
1F
100
AcDbEntity
  8
_U+30EC_U+30A4_U+30E4_U+30FC 1
 62
   179
420
  2234388
370
    25
100
AcDb2dPolyline
 66
     1
 10
0.0
 20
0.0
 30
0.0
  0
VERTEX
  5
D4
330
D3
100
AcDbEntity
  8
_U+30EC_U+30A4_U+30E4_U+30FC 1
 62
   179
420
  2234388
370
    25
100
AcDbVertex
100
AcDb2dVertex
 10
131.5747483099152
 20
-133.1515624667121
 30
0.0
  0
VERTEX
  5
D5
330
D3
100
AcDbEntity
  8
_U+30EC_U+30A4_U+30E4_U+30FC 1
 62
   179
420
  2234388
370
    25
100
AcDbVertex
100
AcDb2dVertex
 10
131.2508983181773
 20
-133.1515624667121
 30
0.0
  0
SEQEND
  5
D6
330
D3
100
AcDbEntity
  8
_U+30EC_U+30A4_U+30E4_U+30FC 1
 62
   179
420
  2234388
370
    25
  0
INSERT
  5
D8
330
1F
100
AcDbEntity
  8
_U+30EC_U+30A4_U+30E4_U+30FC 1
100
AcDbBlockReference
  2
block 2
 10
0.0
 20
0.0
 30
0.0
  0
POLYLINE
  5
E0
330
1F
100
AcDbEntity
  8
_U+30EC_U+30A4_U+30E4_U+30FC 1
 62
   179
420
  2234388
370
     9
100
AcDb2dPolyline
 66
     1
 10
0.0
 20
0.0
 30
0.0
  0
VERTEX
  5
E1
330
E0
100
AcDbEntity
  8
_U+30EC_U+30A4_U+30E4_U+30FC 1
 62
   179
420
  2234388
370
     9
100
AcDbVertex
100
AcDb2dVertex
 10
132.4508366208976
 20
-133.1515624667121
 30
0.0
  0
VERTEX
  5
E2
330
E0
100
AcDbEntity
  8
_U+30EC_U+30A4_U+30E4_U+30FC 1
 62
   179
420
  2234388
370
     9
100
AcDbVertex
100
AcDb2dVertex
 10
132.4508366208976
 20
-125.3516810797731
 30
0.0
  0
SEQEND
  5
E3
330
E0
100
AcDbEntity
  8
_U+30EC_U+30A4_U+30E4_U+30FC 1
 62
   179
420
  2234388
370
     9
  0
POLYLINE
  5
E4
330
1F
100
AcDbEntity
  8
_U+30EC_U+30A4_U+30E4_U+30FC 1
 62
   179
420
  2234388
370
    25
100
AcDb2dPolyline
 66
     1
 10
0.0
 20
0.0
 30
0.0
  0
VERTEX
  5
E5
330
E4
100
AcDbEntity
  8
_U+30EC_U+30A4_U+30E4_U+30FC 1
 62
   179
420
  2234388
370
    25
100
AcDbVertex
100
AcDb2dVertex
 10
133.9749424153478
 20
-133.1515624667121
 30
0.0
  0
VERTEX
  5
E6
330
E4
100
AcDbEntity
  8
_U+30EC_U+30A4_U+30E4_U+30FC 1
 62
   179
420
  2234388
370
    25
100
AcDbVertex
100
AcDb2dVertex
 10
133.6507396458411
 20
-133.1515624667121
 30
0.0
  0
SEQEND
  5
E7
330
E4
100
AcDbEntity
  8
_U+30EC_U+30A4_U+30E4_U+30FC 1
 62
   179
420
  2234388
370
    25
  0
POLYLINE
  5
E8
330
1F
100
AcDbEntity
  8
_U+30EC_U+30A4_U+30E4_U+30FC 1
 62
   179
420
  2234388
370
     9
100
AcDb2dPolyline
 66
     1
 10
0.0
 20
0.0
 30
0.0
  0
VERTEX
  5
E9
330
E8
100
AcDbEntity
  8
_U+30EC_U+30A4_U+30E4_U+30FC 1
 62
   179
420
  2234388
370
     9
100
AcDbVertex
100
AcDb2dVertex
 10
127.6717914650435
 20
-125.3516810797731
 30
0.0
  0
VERTEX
  5
EA
330
E8
100
AcDbEntity
  8
_U+30EC_U+30A4_U+30E4_U+30FC 1
 62
   179
420
  2234388
370
     9
100
AcDbVertex
100
AcDb2dVertex
 10
133.0509468833653
 20
-125.3516810797731
 30
0.0
  0
SEQEND
  5
EB
330
E8
100
AcDbEntity
  8
_U+30EC_U+30A4_U+30E4_U+30FC 1
 62
   179
420
  2234388
370
     9
  0
INSERT
  5
ED
330
1F
100
AcDbEntity
  8
_U+30EC_U+30A4_U+30E4_U+30FC 1
100
AcDbBlockReference
  2
block 3
 10
0.0
 20
0.0
 30
0.0
  0
POLYLINE
  5
F4
330
1F
100
AcDbEntity
  8
_U+30EC_U+30A4_U+30E4_U+30FC 1
 62
   179
420
  2234388
370
     9
100
AcDb2dPolyline
 66
     1
 10
0.0
 20
0.0
 30
0.0
  0
VERTEX
  5
F5
330
F4
100
AcDbEntity
  8
_U+30EC_U+30A4_U+30E4_U+30FC 1
 62
   179
420
  2234388
370
     9
100
AcDbVertex
100
AcDb2dVertex
 10
113.8507698732027
 20
-122.9516633025955
 30
0.0
  0
VERTEX
  5
F6
330
F4
100
AcDbEntity
  8
_U+30EC_U+30A4_U+30E4_U+30FC 1
 62
   179
420
  2234388
370
     9
100
AcDbVertex
100
AcDb2dVertex
 10
118.6508083036708
 20
-122.9516633025955
 30
0.0
  0
SEQEND
  5
F7
330
F4
100
AcDbEntity
  8
_U+30EC_U+30A4_U+30E4_U+30FC 1
 62
   179
420
  2234388
370
     9
  0
POLYLINE
  5
F8
330
1F
100
AcDbEntity
  8
_U+30EC_U+30A4_U+30E4_U+30FC 1
 62
   179
420
  2234388
370
     9
100
AcDb2dPolyline
 66
     1
 10
0.0
 20
0.0
 30
0.0
  0
VERTEX
  5
F9
330
F8
100
AcDbEntity
  8
_U+30EC_U+30A4_U+30E4_U+30FC 1
 62
   179
420
  2234388
370
     9
100
AcDbVertex
100
AcDb2dVertex
 10
113.8507698732027
 20
-125.8378088574295
 30
0.0
  0
VERTEX
  5
FA
330
F8
100
AcDbEntity
  8
_U+30EC_U+30A4_U+30E4_U+30FC 1
 62
   179
420
  2234388
370
     9
100
AcDbVertex
100
AcDb2dVertex
 10
113.8507698732027
 20
-122.3516941360787
 30
0.0
  0
SEQEND
  5
FB
330
F8
100
AcDbEntity
  8
_U+30EC_U+30A4_U+30E4_U+30FC 1
 62
   179
420
  2234388
370
     9
  0
POLYLINE
  5
FC
330
1F
100
AcDbEntity
  8
_U+30EC_U+30A4_U+30E4_U+30FC 1
 62
   179
420
  2234388
370
     9
100
AcDb2dPolyline
 66
     1
 10
0.0
 20
0.0
 30
0.0
  0
VERTEX
  5
FD
330
FC
100
AcDbEntity
  8
_U+30EC_U+30A4_U+30E4_U+30FC 1
 62
   179
420
  2234388
370
     9
100
AcDbVertex
100
AcDb2dVertex
 10
118.6508083036708
 20
-125.0841696909512
 30
0.0
  0
VERTEX
  5
FE
330
FC
100
AcDbEntity
  8
_U+30EC_U+30A4_U+30E4_U+30FC 1
 62
   179
420
  2234388
370
     9
100
AcDbVertex
100
AcDb2dVertex
 10
118.6508083036708
 20
-122.3516941360787
 30
0.0
  0
SEQEND
  5
FF
330
FC
100
AcDbEntity
  8
_U+30EC_U+30A4_U+30E4_U+30FC 1
 62
   179
420
  2234388
370
     9
  0
INSERT
  5
101
330
1F
100
AcDbEntity
  8
_U+30EC_U+30A4_U+30E4_U+30FC 1
100
AcDbBlockReference
  2
block 4
 10
0.0
 20
0.0
 30
0.0
  0
POLYLINE
  5
108
330
1F
100
AcDbEntity
  8
_U+30EC_U+30A4_U+30E4_U+30FC 1
 62
   179
420
  2234388
370
     9
100
AcDb2dPolyline
 66
     1
 10
0.0
 20
0.0
 30
0.0
  0
VERTEX
  5
109
330
108
100
AcDbEntity
  8
_U+30EC_U+30A4_U+30E4_U+30FC 1
 62
   179
420
  2234388
370
     9
100
AcDbVertex
100
AcDb2dVertex
 10
118.6508083036708
 20
-122.9516633025955
 30
0.0
  0
VERTEX
  5
10A
330
108
100
AcDbEntity
  8
_U+30EC_U+30A4_U+30E4_U+30FC 1
 62
   179
420
  2234388
370
     9
100
AcDbVertex
100
AcDb2dVertex
 10
127.6511186877931
 20
-122.9516633025955
 30
0.0
  0
SEQEND
  5
10B
330
108
100
AcDbEntity
  8
_U+30EC_U+30A4_U+30E4_U+30FC 1
 62
   179
420
  2234388
370
     9
  0
POLYLINE
  5
10C
330
1F
100
AcDbEntity
  8
_U+30EC_U+30A4_U+30E4_U+30FC 1
 62
   179
420
  2234388
370
     9
100
AcDb2dPolyline
 66
     1
 10
0.0
 20
0.0
 30
0.0
  0
VERTEX
  5
10D
330
10C
100
AcDbEntity
  8
_U+30EC_U+30A4_U+30E4_U+30FC 1
 62
   179
420
  2234388
370
     9
100
AcDbVertex
100
AcDb2dVertex
 10
127.6511186877931
 20
-125.4176505242013
 30
0.0
  0
VERTEX
  5
10E
330
10C
100
AcDbEntity
  8
_U+30EC_U+30A4_U+30E4_U+30FC 1
 62
   179
420
  2234388
370
     9
100
AcDbVertex
100
AcDb2dVertex
 10
127.6511186877931
 20
-122.3516941360787
 30
0.0
  0
SEQEND
  5
10F
330
10C
100
AcDbEntity
  8
_U+30EC_U+30A4_U+30E4_U+30FC 1
 62
   179
420
  2234388
370
     9
  0
INSERT
  5
111
330
1F
100
AcDbEntity
  8
_U+30EC_U+30A4_U+30E4_U+30FC 1
100
AcDbBlockReference
  2
block 5
 10
0.0
 20
0.0
 30
0.0
  0
POLYLINE
  5
118
330
1F
100
AcDbEntity
  8
_U+30EC_U+30A4_U+30E4_U+30FC 1
 62
   179
420
  2234388
370
     9
100
AcDb2dPolyline
 66
     1
 10
0.0
 20
0.0
 30
0.0
  0
VERTEX
  5
119
330
118
100
AcDbEntity
  8
_U+30EC_U+30A4_U+30E4_U+30FC 1
 62
   179
420
  2234388
370
     9
100
AcDbVertex
100
AcDb2dVertex
 10
52.35081109802331
 20
-127.1157463571099
 30
0.0
  0
VERTEX
  5
11A
330
118
100
AcDbEntity
  8
_U+30EC_U+30A4_U+30E4_U+30FC 1
 62
   179
420
  2234388
370
     9
100
AcDbVertex
100
AcDb2dVertex
 10
52.35081109802331
 20
-133.5718619110514
 30
0.0
  0
SEQEND
  5
11B
330
118
100
AcDbEntity
  8
_U+30EC_U+30A4_U+30E4_U+30FC 1
 62
   179
420
  2234388
370
     9
  0
POLYLINE
  5
11C
330
1F
100
AcDbEntity
  8
_U+30EC_U+30A4_U+30E4_U+30FC 1
 62
   179
420
  2234388
370
     9
100
AcDb2dPolyline
 66
     1
 10
0.0
 20
0.0
 30
0.0
  0
VERTEX
  5
11D
330
11C
100
AcDbEntity
  8
_U+30EC_U+30A4_U+30E4_U+30FC 1
 62
   179
420
  2234388
370
     9
100
AcDbVertex
100
AcDb2dVertex
 10
53.43687141448961
 20
-127.1157463571099
 30
0.0
  0
VERTEX
  5
11E
330
11C
100
AcDbEntity
  8
_U+30EC_U+30A4_U+30E4_U+30FC 1
 62
   179
420
  2234388
370
     9
100
AcDbVertex
100
AcDb2dVertex
 10
51.75084062417051
 20
-127.1157463571099
 30
0.0
  0
SEQEND
  5
11F
330
11C
100
AcDbEntity
  8
_U+30EC_U+30A4_U+30E4_U+30FC 1
 62
   179
420
  2234388
370
     9
  0
POLYLINE
  5
120
330
1F
100
AcDbEntity
  8
_U+30EC_U+30A4_U+30E4_U+30FC 1
 62
   179
420
  2234388
370
     9
100
AcDb2dPolyline
 66
     1
 10
0.0
 20
0.0
 30
0.0
  0
VERTEX
  5
121
330
120
100
AcDbEntity
  8
_U+30EC_U+30A4_U+30E4_U+30FC 1
 62
   179
420
  2234388
370
     9
100
AcDbVertex
100
AcDb2dVertex
 10
57.54687498561329
 20
-133.5718619110514
 30
0.0
  0
VERTEX
  5
122
330
120
100
AcDbEntity
  8
_U+30EC_U+30A4_U+30E4_U+30FC 1
 62
   179
420
  2234388
370
     9
100
AcDbVertex
100
AcDb2dVertex
 10
51.75084062417051
 20
-133.5718619110514
 30
0.0
  0
SEQEND
  5
123
330
120
100
AcDbEntity
  8
_U+30EC_U+30A4_U+30E4_U+30FC 1
 62
   179
420
  2234388
370
     9
  0
INSERT
  5
125
330
1F
100
AcDbEntity
  8
_U+30EC_U+30A4_U+30E4_U+30FC 1
100
AcDbBlockReference
  2
block 6
 10
0.0
 20
0.0
 30
0.0
  0
POLYLINE
  5
12D
330
1F
100
AcDbEntity
  8
_U+30EC_U+30A4_U+30E4_U+30FC 1
 62
   179
420
  2234388
370
     9
100
AcDb2dPolyline
 66
     1
 10
0.0
 20
0.0
 30
0.0
  0
VERTEX
  5
12E
330
12D
100
AcDbEntity
  8
_U+30EC_U+30A4_U+30E4_U+30FC 1
 62
   179
420
  2234388
370
     9
100
AcDbVertex
100
AcDb2dVertex
 10
58.35078351134749
 20
-135.9717032993404
 30
0.0
  0
VERTEX
  5
12F
330
12D
100
AcDbEntity
  8
_U+30EC_U+30A4_U+30E4_U+30FC 1
 62
   179
420
  2234388
370
     9
100
AcDbVertex
100
AcDb2dVertex
 10
54.75082749207891
 20
-135.9717032993404
 30
0.0
  0
SEQEND
  5
130
330
12D
100
AcDbEntity
  8
_U+30EC_U+30A4_U+30E4_U+30FC 1
 62
   179
420
  2234388
370
     9
  0
POLYLINE
  5
131
330
1F
100
AcDbEntity
  8
_U+30EC_U+30A4_U+30E4_U+30FC 1
 62
   179
420
  2234388
370
     9
100
AcDb2dPolyline
 66
     1
 10
0.0
 20
0.0
 30
0.0
  0
VERTEX
  5
132
330
131
100
AcDbEntity
  8
_U+30EC_U+30A4_U+30E4_U+30FC 1
 62
   179
420
  2234388
370
     9
100
AcDbVertex
100
AcDb2dVertex
 10
58.35078351134749
 20
-134.3755955219615
 30
0.0
  0
VERTEX
  5
133
330
131
100
AcDbEntity
  8
_U+30EC_U+30A4_U+30E4_U+30FC 1
 62
   179
420
  2234388
370
     9
100
AcDbVertex
100
AcDb2dVertex
 10
58.35078351134749
 20
-136.5718488547457
 30
0.0
  0
SEQEND
  5
134
330
131
100
AcDbEntity
  8
_U+30EC_U+30A4_U+30E4_U+30FC 1
 62
   179
420
  2234388
370
     9
  0
POLYLINE
  5
135
330
1F
100
AcDbEntity
  8
_U+30EC_U+30A4_U+30E4_U+30FC 1
 62
   179
420
  2234388
370
     9
100
AcDb2dPolyline
 66
     1
 10
0.0
 20
0.0
 30
0.0
  0
VERTEX
  5
136
330
135
100
AcDbEntity
  8
_U+30EC_U+30A4_U+30E4_U+30FC 1
 62
   179
420
  2234388
370
     9
100
AcDbVertex
100
AcDb2dVertex
 10
54.75082749207891
 20
-128.8858441344452
 30
0.0
  0
VERTEX
  5
137
330
135
100
AcDbEntity
  8
_U+30EC_U+30A4_U+30E4_U+30FC 1
 62
   179
420
  2234388
370
     9
100
AcDbVertex
100
AcDb2dVertex
 10
54.75082749207891
 20
-136.5718488547457
 30
0.0
  0
SEQEND
  5
138
330
135
100
AcDbEntity
  8
_U+30EC_U+30A4_U+30E4_U+30FC 1
 62
   179
420
  2234388
370
     9
  0
INSERT
  5
13A
330
1F
100
AcDbEntity
  8
_U+30EC_U+30A4_U+30E4_U+30FC 1
100
AcDbBlockReference
  2
block 7
 10
0.0
 20
0.0
 30
0.0
  0
POLYLINE
  5
140
330
1F
100
AcDbEntity
  8
_U+30EC_U+30A4_U+30E4_U+30FC 1
 62
   179
420
  2234388
370
     9
100
AcDb2dPolyline
 66
     1
 10
0.0
 20
0.0
 30
0.0
  0
VERTEX
  5
141
330
140
100
AcDbEntity
  8
_U+30EC_U+30A4_U+30E4_U+30FC 1
 62
   179
420
  2234388
370
     9
100
AcDbVertex
100
AcDb2dVertex
 10
58.35078351134749
 20
-135.9717032993404
 30
0.0
  0
VERTEX
  5
142
330
140
100
AcDbEntity
  8
_U+30EC_U+30A4_U+30E4_U+30FC 1
 62
   179
420
  2234388
370
     9
100
AcDbVertex
100
AcDb2dVertex
 10
118.3507325361768
 20
-135.9717032993404
 30
0.0
  0
SEQEND
  5
143
330
140
100
AcDbEntity
  8
_U+30EC_U+30A4_U+30E4_U+30FC 1
 62
   179
420
  2234388
370
     9
  0
POLYLINE
  5
144
330
1F
100
AcDbEntity
  8
_U+30EC_U+30A4_U+30E4_U+30FC 1
 62
   179
420
  2234388
370
    25
100
AcDb2dPolyline
 66
     1
 10
0.0
 20
0.0
 30
0.0
  0
VERTEX
  5
145
330
144
100
AcDbEntity
  8
_U+30EC_U+30A4_U+30E4_U+30FC 1
 62
   179
420
  2234388
370
    25
100
AcDbVertex
100
AcDb2dVertex
 10
118.3507325361768
 20
-134.3755955219615
 30
0.0
  0
VERTEX
  5
146
330
144
100
AcDbEntity
  8
_U+30EC_U+30A4_U+30E4_U+30FC 1
 62
   179
420
  2234388
370
    25
100
AcDbVertex
100
AcDb2dVertex
 10
118.3507325361768
 20
-136.5718488547457
 30
0.0
  0
SEQEND
  5
147
330
144
100
AcDbEntity
  8
_U+30EC_U+30A4_U+30E4_U+30FC 1
 62
   179
420
  2234388
370
    25
  0
INSERT
  5
149
330
1F
100
AcDbEntity
  8
_U+30EC_U+30A4_U+30E4_U+30FC 1
100
AcDbBlockReference
  2
block 8
 10
0.0
 20
0.0
 30
0.0
  0
ENDSEC
  0
SECTION
  2
OBJECTS
  0
DICTIONARY
  5
C
330
0
100
AcDbDictionary
281
     1
  3
ACAD_GROUP
350
D
  3
ACAD_LAYOUT
350
1A
  3
ACAD_MATERIAL
350
3B
  3
ACAD_MLEADERSTYLE
350
155
  3
ACAD_MLINESTYLE
350
17
  3
ACAD_PLOTSETTINGS
350
19
  3
ACAD_PLOTSTYLENAME
350
E
  3
ACAD_TABLESTYLE
350
154
  3
ACAD_VISUALSTYLE
350
2A
  0
SUN
  5
3F
330
29
100
AcDbSun
 90
        1
290
     0
 63
     7
421
 16777215
 40
1.0
291
     1
 91
  2455826
 92
 54000000
292
     0
 70
     2
 71
   256
280
     1
  0
DICTIONARY
  5
D
102
{ACAD_REACTORS
330
C
102
}
330
C
100
AcDbDictionary
281
     1
  0
DICTIONARY
  5
1A
102
{ACAD_REACTORS
330
C
102
}
330
C
100
AcDbDictionary
281
     1
  3
Layout1
350
1E
  3
Layout2
350
26
  3
Model
350
22
  0
DICTIONARY
  5
3B
102
{ACAD_REACTORS
330
C
102
}
330
C
100
AcDbDictionary
281
     1
  3
ByBlock
350
3D
  3
ByLayer
350
3C
  3
Global
350
3E
  0
DICTIONARY
  5
155
102
{ACAD_REACTORS
330
C
102
}
330
C
100
AcDbDictionary
281
     1
  0
DICTIONARY
  5
17
102
{ACAD_REACTORS
330
C
102
}
330
C
100
AcDbDictionary
281
     1
  3
Standard
350
18
  0
DICTIONARY
  5
19
102
{ACAD_REACTORS
330
C
102
}
330
C
100
AcDbDictionary
281
     1
  0
ACDBDICTIONARYWDFLT
  5
E
102
{ACAD_REACTORS
330
C
102
}
330
C
100
AcDbDictionary
281
     1
  3
Normal
350
F
100
AcDbDictionaryWithDefault
340
F
  0
DICTIONARY
  5
154
102
{ACAD_REACTORS
330
C
102
}
330
C
100
AcDbDictionary
281
     1
  0
DICTIONARY
  5
2A
102
{ACAD_REACTORS
330
C
102
}
330
C
100
AcDbDictionary
281
     1
  3
2dWireframe
350
2F
  3
3D Hidden
350
31
  3
3dWireframe
350
30
  3
Basic
350
32
  3
Brighten
350
36
  3
ColorChange
350
3A
  3
Conceptual
350
34
  3
Dim
350
35
  3
Facepattern
350
39
  3
Flat
350
2B
  3
FlatWithEdges
350
2C
  3
Gouraud
350
2D
  3
GouraudWithEdges
350
2E
  3
Linepattern
350
38
  3
Realistic
350
33
  3
Thicken
350
37
  0
LAYOUT
  5
1E
102
{ACAD_REACTORS
330
1A
102
}
330
1A
100
AcDbPlotSettings
  1

  2
none_device
  4

  6

 40
0.0
 41
0.0
 42
0.0
 43
0.0
 44
0.0
 45
0.0
 46
0.0
 47
0.0
 48
0.0
 49
0.0
140
0.0
141
0.0
142
1.0
143
1.0
 70
   688
 72
     0
 73
     0
 74
     5
  7

 75
    16
 76
     0
 77
     2
 78
   300
147
1.0
148
0.0
149
0.0
100
AcDbLayout
  1
Layout1
 70
     1
 71
     1
 10
0.0
 20
0.0
 11
12.0
 21
9.0
 12
0.0
 22
0.0
 32
0.0
 14
1.000000000000000E+20
 24
1.000000000000000E+20
 34
1.000000000000000E+20
 15
-1.000000000000000E+20
 25
-1.000000000000000E+20
 35
-1.000000000000000E+20
146
0.0
 13
0.0
 23
0.0
 33
0.0
 16
1.0
 26
0.0
 36
0.0
 17
0.0
 27
1.0
 37
0.0
 76
     0
330
1B
  0
LAYOUT
  5
26
102
{ACAD_REACTORS
330
1A
102
}
330
1A
100
AcDbPlotSettings
  1

  2
none_device
  4

  6

 40
0.0
 41
0.0
 42
0.0
 43
0.0
 44
0.0
 45
0.0
 46
0.0
 47
0.0
 48
0.0
 49
0.0
140
0.0
141
0.0
142
1.0
143
1.0
 70
   688
 72
     0
 73
     0
 74
     5
  7

 75
    16
 76
     0
 77
     2
 78
   300
147
1.0
148
0.0
149
0.0
100
AcDbLayout
  1
Layout2
 70
     1
 71
     2
 10
0.0
 20
0.0
 11
0.0
 21
0.0
 12
0.0
 22
0.0
 32
0.0
 14
0.0
 24
0.0
 34
0.0
 15
0.0
 25
0.0
 35
0.0
146
0.0
 13
0.0
 23
0.0
 33
0.0
 16
1.0
 26
0.0
 36
0.0
 17
0.0
 27
1.0
 37
0.0
 76
     0
330
23
  0
LAYOUT
  5
22
102
{ACAD_REACTORS
330
1A
102
}
330
1A
100
AcDbPlotSettings
  1

  2
none_device
  4

  6

 40
0.0
 41
0.0
 42
0.0
 43
0.0
 44
0.0
 45
0.0
 46
0.0
 47
0.0
 48
0.0
 49
0.0
140
0.0
141
0.0
142
1.0
143
1.0
 70
  1712
 72
     0
 73
     0
 74
     0
  7

 75
     0
 76
     0
 77
     2
 78
   300
147
1.0
148
0.0
149
0.0
100
AcDbLayout
  1
Model
 70
     1
 71
     0
 10
0.0
 20
0.0
 11
12.0
 21
9.0
 12
0.0
 22
0.0
 32
0.0
 14
1.000000000000000E+20
 24
1.000000000000000E+20
 34
1.000000000000000E+20
 15
-1.000000000000000E+20
 25
-1.000000000000000E+20
 35
-1.000000000000000E+20
146
0.0
 13
0.0
 23
0.0
 33
0.0
 16
1.0
 26
0.0
 36
0.0
 17
0.0
 27
1.0
 37
0.0
 76
     0
330
1F
331
29
  0
MATERIAL
  5
3D
102
{ACAD_REACTORS
330
3B
102
}
330
3B
100
AcDbMaterial
  1
ByBlock
 72
     1
 94
      127
  0
MATERIAL
  5
3C
102
{ACAD_REACTORS
330
3B
102
}
330
3B
100
AcDbMaterial
  1
ByLayer
 72
     1
 94
      127
  0
MATERIAL
  5
3E
102
{ACAD_REACTORS
330
3B
102
}
330
3B
100
AcDbMaterial
  1
Global
 72
     1
 94
      127
  0
MLINESTYLE
  5
18
102
{ACAD_REACTORS
330
17
102
}
330
17
100
AcDbMlineStyle
  2
Standard
 70
     0
  3

 62
   256
 51
90.0
 52
90.0
 71
     2
 49
0.5
 62
   256
  6
BYLAYER
 49
-0.5
 62
   256
  6
BYLAYER
  0
ACDBPLACEHOLDER
  5
F
102
{ACAD_REACTORS
330
E
102
}
330
E
  0
VISUALSTYLE
  5
2F
102
{ACAD_REACTORS
330
2A
102
}
330
2A
100
AcDbVisualStyle
  2
2dWireframe
 70
     4
177
     2
291
     0
 71
     0
176
     1
 72
     2
176
     1
 73
     0
176
     1
 90
        0
176
     1
 40
-0.6
176
     1
 41
-30.0
176
     1
 62
     5
 63
     7
421
 16777215
176
     1
 74
     1
176
     1
 91
        4
176
     1
 64
     7
176
     1
 65
   257
176
     1
 75
     1
176
     1
175
     1
176
     1
 42
1.0
176
     1
 92
        0
176
     1
 66
   257
176
     1
 43
1.0
176
     1
 76
     1
176
     1
 77
     6
176
     1
 78
     2
176
     1
 67
     7
176
     1
 79
     5
176
     1
170
     0
176
     1
171
     0
176
     1
290
     0
176
     1
 93
        1
176
     1
 44
0.0
176
     1
173
     0
176
     1
  0
VISUALSTYLE
  5
31
102
{ACAD_REACTORS
330
2A
102
}
330
2A
100
AcDbVisualStyle
  2
3D Hidden
 70
     6
177
     2
291
     0
 71
     1
176
     1
 72
     2
176
     1
 73
     2
176
     1
 90
        0
176
     1
 40
-0.6
176
     1
 41
-30.0
176
     1
 62
     5
 63
     7
421
 16777215
176
     1
 74
     2
176
     1
 91
        2
176
     1
 64
     7
176
     1
 65
   257
176
     1
 75
     2
176
     1
175
     1
176
     1
 42
40.0
176
     1
 92
        0
176
     1
 66
   257
176
     1
 43
1.0
176
     1
 76
     1
176
     1
 77
     6
176
     1
 78
     2
176
     1
 67
     7
176
     1
 79
     3
176
     1
170
     0
176
     1
171
     0
176
     1
290
     0
176
     1
 93
        1
176
     1
 44
0.0
176
     1
173
     0
176
     1
  0
VISUALSTYLE
  5
30
102
{ACAD_REACTORS
330
2A
102
}
330
2A
100
AcDbVisualStyle
  2
3dWireframe
 70
     5
177
     2
291
     0
 71
     0
176
     1
 72
     2
176
     1
 73
     0
176
     1
 90
        0
176
     1
 40
-0.6
176
     1
 41
-30.0
176
     1
 62
     5
 63
     7
421
 16777215
176
     1
 74
     1
176
     1
 91
        4
176
     1
 64
     7
176
     1
 65
   257
176
     1
 75
     1
176
     1
175
     1
176
     1
 42
1.0
176
     1
 92
        0
176
     1
 66
   257
176
     1
 43
1.0
176
     1
 76
     1
176
     1
 77
     6
176
     1
 78
     2
176
     1
 67
     7
176
     1
 79
     5
176
     1
170
     0
176
     1
171
     0
176
     1
290
     0
176
     1
 93
        1
176
     1
 44
0.0
176
     1
173
     0
176
     1
  0
VISUALSTYLE
  5
32
102
{ACAD_REACTORS
330
2A
102
}
330
2A
100
AcDbVisualStyle
  2
Basic
 70
     7
177
     2
291
     1
 71
     1
176
     1
 72
     0
176
     1
 73
     1
176
     1
 90
        0
176
     1
 40
-0.6
176
     1
 41
-30.0
176
     1
 62
     5
 63
     7
421
 16777215
176
     1
 74
     0
176
     1
 91
        4
176
     1
 64
     7
176
     1
 65
   257
176
     1
 75
     1
176
     1
175
     1
176
     1
 42
1.0
176
     1
 92
        8
176
     1
 66
     7
176
     1
 43
1.0
176
     1
 76
     1
176
     1
 77
     6
176
     1
 78
     2
176
     1
 67
     7
176
     1
 79
     5
176
     1
170
     0
176
     1
171
     0
176
     1
290
     0
176
     1
 93
        1
176
     1
 44
0.0
176
     1
173
     0
176
     1
  0
VISUALSTYLE
  5
36
102
{ACAD_REACTORS
330
2A
102
}
330
2A
100
AcDbVisualStyle
  2
Brighten
 70
    12
177
     2
291
     1
 71
     2
176
     1
 72
     2
176
     1
 73
     0
176
     1
 90
        0
176
     1
 40
-0.6
176
     1
 41
-30.0
176
     1
 62
     5
 63
     7
421
 16777215
176
     1
 74
     1
176
     1
 91
        4
176
     1
 64
     7
176
     1
 65
   257
176
     1
 75
     1
176
     1
175
     1
176
     1
 42
1.0
176
     1
 92
        8
176
     1
 66
     7
176
     1
 43
1.0
176
     1
 76
     1
176
     1
 77
     6
176
     1
 78
     2
176
     1
 67
     7
176
     1
 79
     5
176
     1
170
     0
176
     1
171
     0
176
     1
290
     0
176
     1
 93
        1
176
     1
 44
50.0
176
     1
173
     0
176
     1
  0
VISUALSTYLE
  5
3A
102
{ACAD_REACTORS
330
2A
102
}
330
2A
100
AcDbVisualStyle
  2
ColorChange
 70
    16
177
     2
291
     1
 71
     2
176
     1
 72
     2
176
     1
 73
     3
176
     1
 90
        0
176
     1
 40
-0.6
176
     1
 41
-30.0
176
     1
 62
     5
 63
     8
421
  8421504
176
     1
 74
     1
176
     1
 91
        4
176
     1
 64
     7
176
     1
 65
   257
176
     1
 75
     1
176
     1
175
     1
176
     1
 42
1.0
176
     1
 92
        8
176
     1
 66
     8
424
  8421504
176
     1
 43
1.0
176
     1
 76
     1
176
     1
 77
     6
176
     1
 78
     2
176
     1
 67
     7
176
     1
 79
     5
176
     1
170
     0
176
     1
171
     0
176
     1
290
     0
176
     1
 93
        1
176
     1
 44
0.0
176
     1
173
     0
176
     1
  0
VISUALSTYLE
  5
34
102
{ACAD_REACTORS
330
2A
102
}
330
2A
100
AcDbVisualStyle
  2
Conceptual
 70
     9
177
     2
291
     0
 71
     3
176
     1
 72
     2
176
     1
 73
     0
176
     1
 90
        0
176
     1
 40
-0.6
176
     1
 41
-30.0
176
     1
 62
     5
 63
     7
421
 16777215
176
     1
 74
     2
176
     1
 91
        2
176
     1
 64
     7
176
     1
 65
   257
176
     1
 75
     1
176
     1
175
     1
176
     1
 42
40.0
176
     1
 92
        8
176
     1
 66
     7
176
     1
 43
1.0
176
     1
 76
     1
176
     1
 77
     6
176
     1
 78
     2
176
     1
 67
     7
176
     1
 79
     3
176
     1
170
     0
176
     1
171
     0
176
     1
290
     0
176
     1
 93
        1
176
     1
 44
0.0
176
     1
173
     0
176
     1
  0
VISUALSTYLE
  5
35
102
{ACAD_REACTORS
330
2A
102
}
330
2A
100
AcDbVisualStyle
  2
Dim
 70
    11
177
     2
291
     1
 71
     2
176
     1
 72
     2
176
     1
 73
     0
176
     1
 90
        0
176
     1
 40
-0.6
176
     1
 41
-30.0
176
     1
 62
     5
 63
     7
421
 16777215
176
     1
 74
     1
176
     1
 91
        4
176
     1
 64
     7
176
     1
 65
   257
176
     1
 75
     1
176
     1
175
     1
176
     1
 42
1.0
176
     1
 92
        8
176
     1
 66
     7
176
     1
 43
1.0
176
     1
 76
     1
176
     1
 77
     6
176
     1
 78
     2
176
     1
 67
     7
176
     1
 79
     5
176
     1
170
     0
176
     1
171
     0
176
     1
290
     0
176
     1
 93
        1
176
     1
 44
-50.0
176
     1
173
     0
176
     1
  0
VISUALSTYLE
  5
39
102
{ACAD_REACTORS
330
2A
102
}
330
2A
100
AcDbVisualStyle
  2
Facepattern
 70
    15
177
     2
291
     1
 71
     2
176
     1
 72
     2
176
     1
 73
     0
176
     1
 90
        0
176
     1
 40
-0.6
176
     1
 41
-30.0
176
     1
 62
     5
 63
     7
421
 16777215
176
     1
 74
     1
176
     1
 91
        4
176
     1
 64
     7
176
     1
 65
   257
176
     1
 75
     1
176
     1
175
     1
176
     1
 42
1.0
176
     1
 92
        8
176
     1
 66
     7
176
     1
 43
1.0
176
     1
 76
     1
176
     1
 77
     6
176
     1
 78
     2
176
     1
 67
     7
176
     1
 79
     5
176
     1
170
     0
176
     1
171
     0
176
     1
290
     0
176
     1
 93
        1
176
     1
 44
0.0
176
     1
173
     0
176
     1
  0
VISUALSTYLE
  5
2B
102
{ACAD_REACTORS
330
2A
102
}
330
2A
100
AcDbVisualStyle
  2
Flat
 70
     0
177
     2
291
     1
 71
     2
176
     1
 72
     1
176
     1
 73
     1
176
     1
 90
        2
176
     1
 40
-0.6
176
     1
 41
30.0
176
     1
 62
     5
 63
     7
421
 16777215
176
     1
 74
     0
176
     1
 91
        4
176
     1
 64
     7
176
     1
 65
   257
176
     1
 75
     1
176
     1
175
     1
176
     1
 42
1.0
176
     1
 92
        8
176
     1
 66
     7
176
     1
 43
1.0
176
     1
 76
     1
176
     1
 77
     6
176
     1
 78
     2
176
     1
 67
     7
176
     1
 79
     5
176
     1
170
     0
176
     1
171
     0
176
     1
290
     0
176
     1
 93
       13
176
     1
 44
0.0
176
     1
173
     0
176
     1
  0
VISUALSTYLE
  5
2C
102
{ACAD_REACTORS
330
2A
102
}
330
2A
100
AcDbVisualStyle
  2
FlatWithEdges
 70
     1
177
     2
291
     1
 71
     2
176
     1
 72
     1
176
     1
 73
     1
176
     1
 90
        2
176
     1
 40
-0.6
176
     1
 41
30.0
176
     1
 62
     5
 63
     7
421
 16777215
176
     1
 74
     1
176
     1
 91
        4
176
     1
 64
     7
176
     1
 65
   257
176
     1
 75
     1
176
     1
175
     1
176
     1
 42
1.0
176
     1
 92
        0
176
     1
 66
   257
176
     1
 43
1.0
176
     1
 76
     1
176
     1
 77
     6
176
     1
 78
     2
176
     1
 67
     7
176
     1
 79
     5
176
     1
170
     0
176
     1
171
     0
176
     1
290
     0
176
     1
 93
       13
176
     1
 44
0.0
176
     1
173
     0
176
     1
  0
VISUALSTYLE
  5
2D
102
{ACAD_REACTORS
330
2A
102
}
330
2A
100
AcDbVisualStyle
  2
Gouraud
 70
     2
177
     2
291
     1
 71
     2
176
     1
 72
     2
176
     1
 73
     1
176
     1
 90
        2
176
     1
 40
-0.6
176
     1
 41
30.0
176
     1
 62
     5
 63
     7
421
 16777215
176
     1
 74
     0
176
     1
 91
        4
176
     1
 64
     7
176
     1
 65
   257
176
     1
 75
     1
176
     1
175
     1
176
     1
 42
1.0
176
     1
 92
        0
176
     1
 66
     7
176
     1
 43
1.0
176
     1
 76
     1
176
     1
 77
     6
176
     1
 78
     2
176
     1
 67
     7
176
     1
 79
     5
176
     1
170
     0
176
     1
171
     0
176
     1
290
     0
176
     1
 93
       13
176
     1
 44
0.0
176
     1
173
     0
176
     1
  0
VISUALSTYLE
  5
2E
102
{ACAD_REACTORS
330
2A
102
}
330
2A
100
AcDbVisualStyle
  2
GouraudWithEdges
 70
     3
177
     2
291
     1
 71
     2
176
     1
 72
     2
176
     1
 73
     1
176
     1
 90
        2
176
     1
 40
-0.6
176
     1
 41
30.0
176
     1
 62
     5
 63
     7
421
 16777215
176
     1
 74
     1
176
     1
 91
        4
176
     1
 64
     7
176
     1
 65
   257
176
     1
 75
     1
176
     1
175
     1
176
     1
 42
1.0
176
     1
 92
        0
176
     1
 66
   257
176
     1
 43
1.0
176
     1
 76
     1
176
     1
 77
     6
176
     1
 78
     2
176
     1
 67
     7
176
     1
 79
     5
176
     1
170
     0
176
     1
171
     0
176
     1
290
     0
176
     1
 93
       13
176
     1
 44
0.0
176
     1
173
     0
176
     1
  0
VISUALSTYLE
  5
38
102
{ACAD_REACTORS
330
2A
102
}
330
2A
100
AcDbVisualStyle
  2
Linepattern
 70
    14
177
     2
291
     1
 71
     2
176
     1
 72
     2
176
     1
 73
     0
176
     1
 90
        0
176
     1
 40
-0.6
176
     1
 41
-30.0
176
     1
 62
     5
 63
     7
421
 16777215
176
     1
 74
     1
176
     1
 91
        4
176
     1
 64
     7
176
     1
 65
   257
176
     1
 75
     7
176
     1
175
     7
176
     1
 42
1.0
176
     1
 92
        8
176
     1
 66
     7
176
     1
 43
1.0
176
     1
 76
     1
176
     1
 77
     6
176
     1
 78
     2
176
     1
 67
     7
176
     1
 79
     5
176
     1
170
     0
176
     1
171
     0
176
     1
290
     0
176
     1
 93
        1
176
     1
 44
0.0
176
     1
173
     0
176
     1
  0
VISUALSTYLE
  5
33
102
{ACAD_REACTORS
330
2A
102
}
330
2A
100
AcDbVisualStyle
  2
Realistic
 70
     8
177
     2
291
     0
 71
     2
176
     1
 72
     2
176
     1
 73
     0
176
     1
 90
        0
176
     1
 40
-0.6
176
     1
 41
-30.0
176
     1
 62
     5
 63
     7
421
 16777215
176
     1
 74
     1
176
     1
 91
        0
176
     1
 64
     7
176
     1
 65
   257
176
     1
 75
     1
176
     1
175
     1
176
     1
 42
1.0
176
     1
 92
        8
176
     1
 66
     8
424
  7895160
176
     1
 43
1.0
176
     1
 76
     1
176
     1
 77
     6
176
     1
 78
     2
176
     1
 67
     7
176
     1
 79
     5
176
     1
170
     0
176
     1
171
     0
176
     1
290
     0
176
     1
 93
       13
176
     1
 44
0.0
176
     1
173
     0
176
     1
  0
VISUALSTYLE
  5
37
102
{ACAD_REACTORS
330
2A
102
}
330
2A
100
AcDbVisualStyle
  2
Thicken
 70
    13
177
     2
291
     1
 71
     2
176
     1
 72
     2
176
     1
 73
     0
176
     1
 90
        0
176
     1
 40
-0.6
176
     1
 41
-30.0
176
     1
 62
     5
 63
     7
421
 16777215
176
     1
 74
     1
176
     1
 91
        4
176
     1
 64
     7
176
     1
 65
   257
176
     1
 75
     1
176
     1
175
     1
176
     1
 42
1.0
176
     1
 92
       12
176
     1
 66
     7
176
     1
 43
1.0
176
     1
 76
     1
176
     1
 77
     6
176
     1
 78
     2
176
     1
 67
     7
176
     1
 79
     5
176
     1
170
     0
176
     1
171
     0
176
     1
290
     0
176
     1
 93
        1
176
     1
 44
0.0
176
     1
173
     0
176
     1
  0
ENDSEC
  0
EOF
