  0
SECTION
  2
HEADER
  9
$ACADVER
  1
AC1024
  9
$ACADMAINTVER
 70
     6
  9
$DWGCODEPAGE
  3
UNDEFINED
  9
$INSBASE
 10
0.0
 20
0.0
 30
0.0
  9
$EXTMIN
 10
1.000000000000000E+20
 20
1.000000000000000E+20
 30
1.000000000000000E+20
  9
$EXTMAX
 10
-1.000000000000000E+20
 20
-1.000000000000000E+20
 30
-1.000000000000000E+20
  9
$LIMMIN
 10
0.0
 20
0.0
  9
$LIMMAX
 10
12.0
 20
9.0
  9
$ORTHOMODE
 70
     0
  9
$REGENMODE
 70
     1
  9
$FILLMODE
 70
     1
  9
$QTEXTMODE
 70
     0
  9
$MIRRTEXT
 70
     1
  9
$LTSCALE
 40
1.0
  9
$ATTMODE
 70
     1
  9
$TEXTSIZE
 40
0.2
  9
$TRACEWID
 40
0.05
  9
$TEXTSTYLE
  7
Standard
  9
$CLAYER
  8
0
  9
$CELTYPE
  6
ByLayer
  9
$CECOLOR
 62
   256
  9
$CELTSCALE
 40
1.0
  9
$DISPSILH
 70
     0
  9
$DIMSCALE
 40
1.0
  9
$DIMASZ
 40
0.18
  9
$DIMEXO
 40
0.0625
  9
$DIMDLI
 40
0.38
  9
$DIMRND
 40
0.0
  9
$DIMDLE
 40
0.0
  9
$DIMEXE
 40
0.18
  9
$DIMTP
 40
0.0
  9
$DIMTM
 40
0.0
  9
$DIMTXT
 40
0.18
  9
$DIMCEN
 40
0.09
  9
$DIMTSZ
 40
0.0
  9
$DIMTOL
 70
     0
  9
$DIMLIM
 70
     0
  9
$DIMTIH
 70
     1
  9
$DIMTOH
 70
     1
  9
$DIMSE1
 70
     0
  9
$DIMSE2
 70
     0
  9
$DIMTAD
 70
     0
  9
$DIMZIN
 70
     0
  9
$DIMBLK
  1

  9
$DIMASO
 70
     1
  9
$DIMSHO
 70
     1
  9
$DIMPOST
  1

  9
$DIMAPOST
  1

  9
$DIMALT
 70
     0
  9
$DIMALTD
 70
     2
  9
$DIMALTF
 40
25.4
  9
$DIMLFAC
 40
1.0
  9
$DIMTOFL
 70
     0
  9
$DIMTVP
 40
0.0
  9
$DIMTIX
 70
     0
  9
$DIMSOXD
 70
     0
  9
$DIMSAH
 70
     0
  9
$DIMBLK1
  1

  9
$DIMBLK2
  1

  9
$DIMSTYLE
  2
Standard
  9
$DIMCLRD
 70
     0
  9
$DIMCLRE
 70
     0
  9
$DIMCLRT
 70
     0
  9
$DIMTFAC
 40
1.0
  9
$DIMGAP
 40
0.09
  9
$DIMJUST
 70
     0
  9
$DIMSD1
 70
     0
  9
$DIMSD2
 70
     0
  9
$DIMTOLJ
 70
     1
  9
$DIMTZIN
 70
     0
  9
$DIMALTZ
 70
     0
  9
$DIMALTTZ
 70
     0
  9
$DIMUPT
 70
     0
  9
$DIMDEC
 70
     4
  9
$DIMTDEC
 70
     4
  9
$DIMALTU
 70
     2
  9
$DIMALTTD
 70
     2
  9
$DIMTXSTY
  7
Standard
  9
$DIMAUNIT
 70
     0
  9
$DIMADEC
 70
     0
  9
$DIMALTRND
 40
0.0
  9
$DIMAZIN
 70
     0
  9
$DIMDSEP
 70
    46
  9
$DIMATFIT
 70
     3
  9
$DIMFRAC
 70
     0
  9
$DIMLDRBLK
  1

  9
$DIMLUNIT
 70
     2
  9
$DIMLWD
 70
    -2
  9
$DIMLWE
 70
    -2
  9
$DIMTMOVE
 70
     0
  9
$DIMFXL
 40
1.0
  9
$DIMFXLON
 70
     0
  9
$DIMJOGANG
 40
0.7853981633974483
  9
$DIMTFILL
 70
     0
  9
$DIMTFILLCLR
 70
     0
  9
$DIMARCSYM
 70
     0
  9
$DIMLTYPE
  6

  9
$DIMLTEX1
  6

  9
$DIMLTEX2
  6

  9
$DIMTXTDIRECTION
 70
     0
  9
$LUNITS
 70
     2
  9
$LUPREC
 70
     4
  9
$SKETCHINC
 40
0.1
  9
$FILLETRAD
 40
0.5
  9
$AUNITS
 70
     0
  9
$AUPREC
 70
     0
  9
$MENU
  1
.
  9
$ELEVATION
 40
0.0
  9
$PELEVATION
 40
0.0
  9
$THICKNESS
 40
0.0
  9
$LIMCHECK
 70
     0
  9
$CHAMFERA
 40
0.5
  9
$CHAMFERB
 40
0.5
  9
$CHAMFERC
 40
1.0
  9
$CHAMFERD
 40
0.0
  9
$SKPOLY
 70
     0
  9
$TDCREATE
 40
2457917.626898136
  9
$TDUCREATE
 40
2457917.251898148
  9
$TDUPDATE
 40
2457917.626898136
  9
$TDUUPDATE
 40
2457917.251898148
  9
$TDINDWG
 40
0.0000000116
  9
$TDUSRTIMER
 40
0.0000000116
  9
$USRTIMER
 70
     1
  9
$ANGBASE
 50
0.0
  9
$ANGDIR
 70
     0
  9
$PDMODE
 70
     0
  9
$PDSIZE
 40
0.0
  9
$PLINEWID
 40
0.0
  9
$SPLFRAME
 70
     0
  9
$SPLINETYPE
 70
     6
  9
$SPLINESEGS
 70
     8
  9
$HANDSEED
  5
163
  9
$SURFTAB1
 70
     6
  9
$SURFTAB2
 70
     6
  9
$SURFTYPE
 70
     6
  9
$SURFU
 70
     6
  9
$SURFV
 70
     6
  9
$UCSBASE
  2

  9
$UCSNAME
  2

  9
$UCSORG
 10
0.0
 20
0.0
 30
0.0
  9
$UCSXDIR
 10
1.0
 20
0.0
 30
0.0
  9
$UCSYDIR
 10
0.0
 20
1.0
 30
0.0
  9
$UCSORTHOREF
  2

  9
$UCSORTHOVIEW
 70
     0
  9
$UCSORGTOP
 10
0.0
 20
0.0
 30
0.0
  9
$UCSORGBOTTOM
 10
0.0
 20
0.0
 30
0.0
  9
$UCSORGLEFT
 10
0.0
 20
0.0
 30
0.0
  9
$UCSORGRIGHT
 10
0.0
 20
0.0
 30
0.0
  9
$UCSORGFRONT
 10
0.0
 20
0.0
 30
0.0
  9
$UCSORGBACK
 10
0.0
 20
0.0
 30
0.0
  9
$PUCSBASE
  2

  9
$PUCSNAME
  2

  9
$PUCSORG
 10
0.0
 20
0.0
 30
0.0
  9
$PUCSXDIR
 10
1.0
 20
0.0
 30
0.0
  9
$PUCSYDIR
 10
0.0
 20
1.0
 30
0.0
  9
$PUCSORTHOREF
  2

  9
$PUCSORTHOVIEW
 70
     0
  9
$PUCSORGTOP
 10
0.0
 20
0.0
 30
0.0
  9
$PUCSORGBOTTOM
 10
0.0
 20
0.0
 30
0.0
  9
$PUCSORGLEFT
 10
0.0
 20
0.0
 30
0.0
  9
$PUCSORGRIGHT
 10
0.0
 20
0.0
 30
0.0
  9
$PUCSORGFRONT
 10
0.0
 20
0.0
 30
0.0
  9
$PUCSORGBACK
 10
0.0
 20
0.0
 30
0.0
  9
$USERI1
 70
     0
  9
$USERI2
 70
     0
  9
$USERI3
 70
     0
  9
$USERI4
 70
     0
  9
$USERI5
 70
     0
  9
$USERR1
 40
0.0
  9
$USERR2
 40
0.0
  9
$USERR3
 40
0.0
  9
$USERR4
 40
0.0
  9
$USERR5
 40
0.0
  9
$WORLDVIEW
 70
     1
  9
$SHADEDGE
 70
     3
  9
$SHADEDIF
 70
    70
  9
$TILEMODE
 70
     1
  9
$MAXACTVP
 70
    64
  9
$PINSBASE
 10
0.0
 20
0.0
 30
0.0
  9
$PLIMCHECK
 70
     0
  9
$PEXTMIN
 10
1.000000000000000E+20
 20
1.000000000000000E+20
 30
1.000000000000000E+20
  9
$PEXTMAX
 10
-1.000000000000000E+20
 20
-1.000000000000000E+20
 30
-1.000000000000000E+20
  9
$PLIMMIN
 10
0.0
 20
0.0
  9
$PLIMMAX
 10
12.0
 20
9.0
  9
$UNITMODE
 70
     0
  9
$VISRETAIN
 70
     1
  9
$PLINEGEN
 70
     0
  9
$PSLTSCALE
 70
     1
  9
$TREEDEPTH
 70
  3020
  9
$CMLSTYLE
  2
Standard
  9
$CMLJUST
 70
     0
  9
$CMLSCALE
 40
1.0
  9
$PROXYGRAPHICS
 70
     1
  9
$MEASUREMENT
 70
     0
  9
$CELWEIGHT
370
    -1
  9
$ENDCAPS
280
     0
  9
$JOINSTYLE
280
     0
  9
$LWDISPLAY
290
     1
  9
$INSUNITS
 70
     1
  9
$HYPERLINKBASE
  1

  9
$STYLESHEET
  1

  9
$XEDIT
290
     1
  9
$CEPSNTYPE
380
     0
  9
$PSTYLEMODE
290
     1
  9
$FINGERPRINTGUID
  2
{F95277A4-96CC-99A2-5A2E-65DB33D621AE}
  9
$VERSIONGUID
  2
{FAEB1C32-E019-11D5-929B-00C0DF256EC4}
  9
$EXTNAMES
290
     1
  9
$PSVPSCALE
 40
0.0
  9
$OLESTARTUP
290
     0
  9
$SORTENTS
280
   127
  9
$INDEXCTL
280
     0
  9
$HIDETEXT
280
     1
  9
$XCLIPFRAME
280
     2
  9
$HALOGAP
280
     0
  9
$OBSCOLOR
 70
   257
  9
$OBSLTYPE
280
     0
  9
$INTERSECTIONDISPLAY
280
     0
  9
$INTERSECTIONCOLOR
 70
   257
  9
$DIMASSOC
280
     2
  9
$PROJECTNAME
  1

  9
$CAMERADISPLAY
290
     0
  9
$LENSLENGTH
 40
50.0
  9
$CAMERAHEIGHT
 40
0.0
  9
$STEPSPERSEC
 40
2.0
  9
$STEPSIZE
 40
6.0
  9
$3DDWFPREC
 40
2.0
  9
$PSOLWIDTH
 40
0.25
  9
$PSOLHEIGHT
 40
4.0
  9
$LOFTANG1
 40
1.570796326794897
  9
$LOFTANG2
 40
1.570796326794897
  9
$LOFTMAG1
 40
0.0
  9
$LOFTMAG2
 40
0.0
  9
$LOFTPARAM
 70
     7
  9
$LOFTNORMALS
280
     1
  9
$LATITUDE
 40
37.795
  9
$LONGITUDE
 40
-122.394
  9
$NORTHDIRECTION
 40
0.0
  9
$TIMEZONE
 70
 -8000
  9
$LIGHTGLYPHDISPLAY
280
     1
  9
$TILEMODELIGHTSYNCH
280
     1
  9
$CMATERIAL
347
3C
  9
$SOLIDHIST
280
     1
  9
$SHOWHIST
280
     1
  9
$DWFFRAME
280
     2
  9
$DGNFRAME
280
     2
  9
$REALWORLDSCALE
290
     1
  9
$INTERFERECOLOR
 62
   256
  9
$CSHADOW
280
     0
  9
$SHADOWPLANELOCATION
 40
0.0
  0
ENDSEC
  0
SECTION
  2
CLASSES
  0
CLASS
  1
ACDBDICTIONARYWDFLT
  2
AcDbDictionaryWithDefault
  3
ObjectDBX Classes
 90
        0
 91
        4
280
     0
281
     0
  0
CLASS
  1
VISUALSTYLE
  2
AcDbVisualStyle
  3
ObjectDBX Classes
 90
     4095
 91
        4
280
     0
281
     0
  0
CLASS
  1
MATERIAL
  2
AcDbMaterial
  3
ObjectDBX Classes
 90
     1153
 91
        4
280
     0
281
     0
  0
CLASS
  1
SUN
  2
AcDbSun
  3
SCENEOE
 90
     1024
 91
        4
280
     0
281
     0
  0
ENDSEC
  0
SECTION
  2
TABLES
  0
TABLE
  2
VPORT
  5
8
330
0
100
AcDbSymbolTable
 70
     1
  0
VPORT
  5
29
330
8
100
AcDbSymbolTableRecord
100
AcDbViewportTableRecord
  2
*Active
 70
     0
 10
0.0
 20
0.0
 11
1.0
 21
1.0
 12
0.0
 22
0.0
 13
0.0
 23
0.0
 14
0.5
 24
0.5
 15
0.5
 25
0.5
 16
0.0
 26
0.0
 36
1.0
 17
91.00082462281999
 27
-128.4993055234307
 37
0.0
 40
256.9986110468615
 41
0.7081814508812795
 42
50.0
 43
0.0
 44
0.0
 50
0.0
 51
0.0
 71
     0
 72
   100
 73
     1
 74
     3
 75
     0
 76
     0
 77
     0
 78
     0
281
     0
 65
     1
110
0.0
120
0.0
130
0.0
111
1.0
121
0.0
131
0.0
112
0.0
122
1.0
132
0.0
 79
     0
146
0.0
 60
     3
 61
     5
292
     1
282
     1
141
0.0
142
0.0
 63
   250
361
3F
  0
ENDTAB
  0
TABLE
  2
LTYPE
  5
5
330
0
100
AcDbSymbolTable
 70
    12
  0
LTYPE
  5
14
330
5
100
AcDbSymbolTableRecord
100
AcDbLinetypeTableRecord
  2
ByBlock
 70
     0
  3

 72
    65
 73
     0
 40
0.0
  0
LTYPE
  5
15
330
5
100
AcDbSymbolTableRecord
100
AcDbLinetypeTableRecord
  2
ByLayer
 70
     0
  3

 72
    65
 73
     0
 40
0.0
  0
LTYPE
  5
16
330
5
100
AcDbSymbolTableRecord
100
AcDbLinetypeTableRecord
  2
Continuous
 70
     0
  3
Solid line
 72
    65
 73
     0
 40
0.0
  0
LTYPE
  5
8E
330
5
100
AcDbSymbolTableRecord
100
AcDbLinetypeTableRecord
  2
AI-Linetype-1
 70
     0
  3
Adobe Illustrator Linetype No. 1
 72
    65
 73
     2
 40
3.500014142644928
 49
2.000003083046956
 74
     0
 49
-1.500011059597972
 74
     0
  0
LTYPE
  5
93
330
5
100
AcDbSymbolTableRecord
100
AcDbLinetypeTableRecord
  2
AI-Linetype-2
 70
     0
  3
Adobe Illustrator Linetype No. 2
 72
    65
 73
     2
 40
3.500014142644928
 49
2.000003083046956
 74
     0
 49
-1.500011059597972
 74
     0
  0
LTYPE
  5
98
330
5
100
AcDbSymbolTableRecord
100
AcDbLinetypeTableRecord
  2
AI-Linetype-3
 70
     0
  3
Adobe Illustrator Linetype No. 3
 72
    65
 73
     2
 40
3.500014142644928
 49
2.000003083046956
 74
     0
 49
-1.500011059597972
 74
     0
  0
LTYPE
  5
9D
330
5
100
AcDbSymbolTableRecord
100
AcDbLinetypeTableRecord
  2
AI-Linetype-4
 70
     0
  3
Adobe Illustrator Linetype No. 4
 72
    65
 73
     2
 40
3.500014142644928
 49
2.000003083046956
 74
     0
 49
-1.500011059597972
 74
     0
  0
LTYPE
  5
A2
330
5
100
AcDbSymbolTableRecord
100
AcDbLinetypeTableRecord
  2
AI-Linetype-5
 70
     0
  3
Adobe Illustrator Linetype No. 5
 72
    65
 73
     2
 40
3.500014142644928
 49
2.000003083046956
 74
     0
 49
-1.500011059597972
 74
     0
  0
LTYPE
  5
A7
330
5
100
AcDbSymbolTableRecord
100
AcDbLinetypeTableRecord
  2
AI-Linetype-6
 70
     0
  3
Adobe Illustrator Linetype No. 6
 72
    65
 73
     2
 40
3.500014142644928
 49
2.000003083046956
 74
     0
 49
-1.500011059597972
 74
     0
  0
LTYPE
  5
B6
330
5
100
AcDbSymbolTableRecord
100
AcDbLinetypeTableRecord
  2
AI-Linetype-7
 70
     0
  3
Adobe Illustrator Linetype No. 7
 72
    65
 73
     2
 40
3.500014142644928
 49
2.000003083046956
 74
     0
 49
-1.500011059597972
 74
     0
  0
LTYPE
  5
B8
330
5
100
AcDbSymbolTableRecord
100
AcDbLinetypeTableRecord
  2
AI-Linetype-8
 70
     0
  3
Adobe Illustrator Linetype No. 8
 72
    65
 73
     2
 40
3.500014142644928
 49
2.000003083046956
 74
     0
 49
-1.500011059597972
 74
     0
  0
LTYPE
  5
BA
330
5
100
AcDbSymbolTableRecord
100
AcDbLinetypeTableRecord
  2
AI-Linetype-9
 70
     0
  3
Adobe Illustrator Linetype No. 9
 72
    65
 73
     2
 40
3.500014142644928
 49
2.000003083046956
 74
     0
 49
-1.500011059597972
 74
     0
  0
LTYPE
  5
BC
330
5
100
AcDbSymbolTableRecord
100
AcDbLinetypeTableRecord
  2
AI-Linetype-10
 70
     0
  3
Adobe Illustrator Linetype No. 10
 72
    65
 73
     2
 40
3.500014142644928
 49
2.000003083046956
 74
     0
 49
-1.500011059597972
 74
     0
  0
LTYPE
  5
BE
330
5
100
AcDbSymbolTableRecord
100
AcDbLinetypeTableRecord
  2
AI-Linetype-11
 70
     0
  3
Adobe Illustrator Linetype No. 11
 72
    65
 73
     2
 40
3.500014142644928
 49
2.000003083046956
 74
     0
 49
-1.500011059597972
 74
     0
  0
ENDTAB
  0
TABLE
  2
LAYER
  5
2
330
0
100
AcDbSymbolTable
 70
     2
  0
LAYER
  5
10
330
2
100
AcDbSymbolTableRecord
100
AcDbLayerTableRecord
  2
0
 70
     0
 62
     7
  6
Continuous
370
    -3
390
F
347
3E
  0
LAYER
  5
40
330
2
100
AcDbSymbolTableRecord
100
AcDbLayerTableRecord
  2
_U+30EC_U+30A4_U+30E4_U+30FC 1
 70
     0
 62
     7
  6
Continuous
370
    -3
390
F
347
3E
  0
ENDTAB
  0
TABLE
  2
STYLE
  5
3
330
0
100
AcDbSymbolTable
 70
     1
  0
STYLE
  5
11
330
3
100
AcDbSymbolTableRecord
100
AcDbTextStyleTableRecord
  2
Standard
 70
     0
 40
0.0
 41
1.0
 50
0.0
 71
     0
 42
0.2
  3
txt
  4

  0
ENDTAB
  0
TABLE
  2
VIEW
  5
6
330
0
100
AcDbSymbolTable
 70
     0
  0
ENDTAB
  0
TABLE
  2
UCS
  5
7
330
0
100
AcDbSymbolTable
 70
     0
  0
ENDTAB
  0
TABLE
  2
APPID
  5
9
330
0
100
AcDbSymbolTable
 70
     1
  0
APPID
  5
12
330
9
100
AcDbSymbolTableRecord
100
AcDbRegAppTableRecord
  2
ACAD
 70
     0
  0
ENDTAB
  0
TABLE
  2
DIMSTYLE
  5
A
330
0
100
AcDbSymbolTable
 70
     1
100
AcDbDimStyleTable
  0
DIMSTYLE
105
27
330
A
100
AcDbSymbolTableRecord
100
AcDbDimStyleTableRecord
  2
Standard
 70
     0
178
     0
340
11
  0
ENDTAB
  0
TABLE
  2
BLOCK_RECORD
  5
1
330
0
100
AcDbSymbolTable
 70
     9
  0
BLOCK_RECORD
  5
1F
330
1
100
AcDbSymbolTableRecord
100
AcDbBlockTableRecord
  2
*Model_Space
340
22
 70
     0
280
     1
281
     0
  0
BLOCK_RECORD
  5
1B
330
1
100
AcDbSymbolTableRecord
100
AcDbBlockTableRecord
  2
*Paper_Space
340
1E
 70
     0
280
     1
281
     0
  0
BLOCK_RECORD
  5
23
330
1
100
AcDbSymbolTableRecord
100
AcDbBlockTableRecord
  2
*Paper_Space0
340
26
 70
     0
280
     1
281
     0
  0
BLOCK_RECORD
  5
D8
330
1
100
AcDbSymbolTableRecord
100
AcDbBlockTableRecord
  2
block 2
340
0
102
{BLKREFS
331
D9
102
}
 70
     0
280
     1
281
     0
  0
BLOCK_RECORD
  5
ED
330
1
100
AcDbSymbolTableRecord
100
AcDbBlockTableRecord
  2
block 3
340
0
102
{BLKREFS
331
EE
102
}
 70
     0
280
     1
281
     0
  0
BLOCK_RECORD
  5
102
330
1
100
AcDbSymbolTableRecord
100
AcDbBlockTableRecord
  2
block 4
340
0
102
{BLKREFS
331
103
102
}
 70
     0
280
     1
281
     0
  0
BLOCK_RECORD
  5
116
330
1
100
AcDbSymbolTableRecord
100
AcDbBlockTableRecord
  2
block 5
340
0
102
{BLKREFS
331
117
102
}
 70
     0
280
     1
281
     0
  0
BLOCK_RECORD
  5
126
330
1
100
AcDbSymbolTableRecord
100
AcDbBlockTableRecord
  2
block 6
340
0
102
{BLKREFS
331
127
102
}
 70
     0
280
     1
281
     0
  0
BLOCK_RECORD
  5
136
330
1
100
AcDbSymbolTableRecord
100
AcDbBlockTableRecord
  2
block 7
340
0
102
{BLKREFS
331
137
102
}
 70
     0
280
     1
281
     0
  0
BLOCK_RECORD
  5
146
330
1
100
AcDbSymbolTableRecord
100
AcDbBlockTableRecord
  2
block 8
340
0
102
{BLKREFS
331
147
102
}
 70
     0
280
     1
281
     0
  0
BLOCK_RECORD
  5
158
330
1
100
AcDbSymbolTableRecord
100
AcDbBlockTableRecord
  2
block 9
340
0
102
{BLKREFS
331
159
102
}
 70
     0
280
     1
281
     0
  0
ENDTAB
  0
ENDSEC
  0
SECTION
  2
BLOCKS
  0
BLOCK
  5
20
330
1F
100
AcDbEntity
  8
0
100
AcDbBlockBegin
  2
*Model_Space
 70
     0
 10
0.0
 20
0.0
 30
0.0
  3
*Model_Space
  1

  0
ENDBLK
  5
21
330
1F
100
AcDbEntity
  8
0
100
AcDbBlockEnd
  0
BLOCK
  5
1C
330
1B
100
AcDbEntity
 67
     1
  8
0
100
AcDbBlockBegin
  2
*Paper_Space
 70
     0
 10
0.0
 20
0.0
 30
0.0
  3
*Paper_Space
  1

  0
ENDBLK
  5
1D
330
1B
100
AcDbEntity
 67
     1
  8
0
100
AcDbBlockEnd
  0
BLOCK
  5
24
330
23
100
AcDbEntity
  8
0
100
AcDbBlockBegin
  2
*Paper_Space0
 70
     0
 10
0.0
 20
0.0
 30
0.0
  3
*Paper_Space0
  1

  0
ENDBLK
  5
25
330
23
100
AcDbEntity
  8
0
100
AcDbBlockEnd
  0
BLOCK
  5
DA
330
D8
100
AcDbEntity
  8
0
100
AcDbBlockBegin
  2
block 2
 70
     0
 10
0.0
 20
0.0
 30
0.0
  3
block 2
  1

  0
SPLINE
  5
DC
330
D8
100
AcDbEntity
  8
_U+30EC_U+30A4_U+30E4_U+30FC 1
370
     0
100
AcDbSpline
210
0.0
220
0.0
230
1.0
 70
    11
 71
     3
 72
    26
 73
    22
 74
     0
 42
0.0000000001
 43
0.0000000001
 12
1.0
 22
0.0
 32
0.0
 13
1.0
 23
0.0
 33
0.0
 40
0.0
 40
0.0
 40
0.0
 40
0.0
 40
1.0
 40
1.0
 40
1.0
 40
2.0
 40
2.0
 40
2.0
 40
3.0
 40
3.0
 40
3.0
 40
4.0
 40
4.0
 40
4.0
 40
5.0
 40
5.0
 40
5.0
 40
6.0
 40
6.0
 40
6.0
 40
7.0
 40
7.0
 40
7.0
 40
7.0
 10
51.04374049288143
 20
-131.3063693248123
 30
0.0
 10
51.04374049288143
 20
-131.3063693248123
 30
0.0
 10
49.84949814291957
 20
-131.3063693248123
 30
0.0
 10
49.84949814291957
 20
-131.3063693248123
 30
0.0
 10
49.84949814291957
 20
-131.3063693248123
 30
0.0
 10
49.84949814291957
 20
-131.6877413950295
 30
0.0
 10
49.84949814291957
 20
-131.6877413950295
 30
0.0
 10
49.84949814291957
 20
-131.6877413950295
 30
0.0
 10
49.68930120285545
 20
-131.6877413950295
 30
0.0
 10
49.68930120285545
 20
-131.6877413950295
 30
0.0
 10
49.67345376362331
 20
-131.3043022675212
 30
0.0
 10
49.49723712955278
 20
-131.2505587779513
 30
0.0
 10
49.37373045640657
 20
-131.2161078230988
 30
0.0
 10
49.37373045640657
 20
-131.2161078230988
 30
0.0
 10
49.37373045640657
 20
-131.0472981443215
 30
0.0
 10
49.37373045640657
 20
-131.0472981443215
 30
0.0
 10
49.37373045640657
 20
-131.0472981443215
 30
0.0
 10
51.04374049288143
 20
-131.0472981443215
 30
0.0
 10
51.04374049288143
 20
-131.0472981443215
 30
0.0
 10
51.04374049288143
 20
-131.0472981443215
 30
0.0
 10
51.04374049288143
 20
-131.3063693248123
 30
0.0
 10
51.04374049288143
 20
-131.3063693248123
 30
0.0
  0
HATCH
  5
DD
330
D8
100
AcDbEntity
  8
_U+30EC_U+30A4_U+30E4_U+30FC 1
 62
   179
420
  2234388
100
AcDbHatch
 10
0.0
 20
0.0
 30
0.0
210
0.0
220
0.0
230
1.0
  2
SOLID
 70
     1
 71
     0
 91
        1
 92
        1
 93
        1
 72
     4
 94
        3
 73
     0
 74
     1
 95
       26
 96
       22
 40
0.0
 40
0.0
 40
0.0
 40
0.0
 40
1.0
 40
1.0
 40
1.0
 40
2.0
 40
2.0
 40
2.0
 40
3.0
 40
3.0
 40
3.0
 40
4.0
 40
4.0
 40
4.0
 40
5.0
 40
5.0
 40
5.0
 40
6.0
 40
6.0
 40
6.0
 40
7.0
 40
7.0
 40
7.0
 40
7.0
 10
51.04374049288143
 20
-131.3063693248123
 10
51.04374049288143
 20
-131.3063693248123
 10
49.84949814291957
 20
-131.3063693248123
 10
49.84949814291957
 20
-131.3063693248123
 10
49.84949814291957
 20
-131.3063693248123
 10
49.84949814291957
 20
-131.6877413950295
 10
49.84949814291957
 20
-131.6877413950295
 10
49.84949814291957
 20
-131.6877413950295
 10
49.68930120285545
 20
-131.6877413950295
 10
49.68930120285545
 20
-131.6877413950295
 10
49.67345376362331
 20
-131.3043022675212
 10
49.49723712955278
 20
-131.2505587779513
 10
49.37373045640657
 20
-131.2161078230988
 10
49.37373045640657
 20
-131.2161078230988
 10
49.37373045640657
 20
-131.0472981443215
 10
49.37373045640657
 20
-131.0472981443215
 10
49.37373045640657
 20
-131.0472981443215
 10
51.04374049288143
 20
-131.0472981443215
 10
51.04374049288143
 20
-131.0472981443215
 10
51.04374049288143
 20
-131.0472981443215
 10
51.04374049288143
 20
-131.3063693248123
 10
51.04374049288143
 20
-131.3063693248123
 97
        0
 97
        0
 75
     2
 76
     1
 98
        0
  0
SPLINE
  5
DE
330
D8
100
AcDbEntity
  8
_U+30EC_U+30A4_U+30E4_U+30FC 1
370
     0
100
AcDbSpline
210
0.0
220
0.0
230
1.0
 70
    11
 71
     3
 72
    29
 73
    25
 74
     0
 42
0.0000000001
 43
0.0000000001
 12
1.0
 22
0.0
 32
0.0
 13
1.0
 23
0.0
 33
0.0
 40
0.0
 40
0.0
 40
0.0
 40
0.0
 40
1.0
 40
1.0
 40
1.0
 40
2.0
 40
2.0
 40
2.0
 40
3.0
 40
3.0
 40
3.0
 40
4.0
 40
4.0
 40
4.0
 40
5.0
 40
5.0
 40
5.0
 40
6.0
 40
6.0
 40
6.0
 40
7.0
 40
7.0
 40
7.0
 40
8.0
 40
8.0
 40
8.0
 40
8.0
 10
50.85150416480449
 20
-129.4325818903849
 30
0.0
 10
51.07801919295967
 20
-129.5569498374024
 30
0.0
 10
51.09868976587116
 20
-129.757454394644
 30
0.0
 10
51.09868976587116
 20
-129.8918131185687
 30
0.0
 10
51.09868976587116
 20
-130.0778482747722
 30
0.0
 10
51.04839137178651
 20
-130.2414903103216
 30
0.0
 10
50.85150416480449
 20
-130.351388856301
 30
0.0
 10
50.64118108542998
 20
-130.4712781791877
 30
0.0
 10
50.38486598132739
 20
-130.4933267902933
 30
0.0
 10
50.20864934725687
 20
-130.4933267902933
 30
0.0
 10
50.05310328609784
 20
-130.4933267902933
 30
0.0
 10
49.7809407427631
 20
-130.4736897460274
 30
0.0
 10
49.56579452970925
 20
-130.351388856301
 30
0.0
 10
49.34616969252457
 20
-130.226676399735
 30
0.0
 10
49.32102049548224
 20
-130.04098575308
 30
0.0
 10
49.32102049548224
 20
-129.8918131185687
 30
0.0
 10
49.32102049548224
 20
-129.7085340387534
 30
0.0
 10
49.36907957750148
 20
-129.5424804363644
 30
0.0
 10
49.56579452970925
 20
-129.4325818903849
 30
0.0
 10
49.7740505517926
 20
-129.3178602107261
 30
0.0
 10
50.02106389808501
 20
-129.2909884659412
 30
0.0
 10
50.20864934725687
 20
-129.2909884659412
 30
0.0
 10
50.39399548436331
 20
-129.2909884659412
 30
0.0
 10
50.6434203974954
 20
-129.3151041343379
 30
0.0
 10
50.85150416480449
 20
-129.4325818903849
 30
0.0
  0
SPLINE
  5
DF
330
D8
100
AcDbEntity
  8
_U+30EC_U+30A4_U+30E4_U+30FC 1
370
     0
100
AcDbSpline
210
0.0
220
0.0
230
1.0
 70
    11
 71
     3
 72
    17
 73
    13
 74
     0
 42
0.0000000001
 43
0.0000000001
 12
1.0
 22
0.0
 32
0.0
 13
1.0
 23
0.0
 33
0.0
 40
0.0
 40
0.0
 40
0.0
 40
0.0
 40
1.0
 40
1.0
 40
1.0
 40
2.0
 40
2.0
 40
2.0
 40
3.0
 40
3.0
 40
3.0
 40
4.0
 40
4.0
 40
4.0
 40
4.0
 10
49.5292765175656
 20
-129.8918131185687
 30
0.0
 10
49.5292765175656
 20
-130.1805121202327
 30
0.0
 10
49.83571776097858
 20
-130.2342556098025
 30
0.0
 10
50.20864934725687
 20
-130.2342556098025
 30
0.0
 10
50.55419242442743
 20
-130.2342556098025
 30
0.0
 10
50.8881944317224
 20
-130.192569954431
 30
0.0
 10
50.8881944317224
 20
-129.8918131185687
 30
0.0
 10
50.8881944317224
 20
-129.605870193293
 30
0.0
 10
50.58382024560058
 20
-129.5500596464319
 30
0.0
 10
50.20864934725687
 20
-129.5500596464319
 30
0.0
 10
49.86327852486057
 20
-129.5500596464319
 30
0.0
 10
49.5292765175656
 20
-129.5938123590946
 30
0.0
 10
49.5292765175656
 20
-129.8918131185687
 30
0.0
  0
HATCH
  5
E0
330
D8
100
AcDbEntity
  8
_U+30EC_U+30A4_U+30E4_U+30FC 1
 62
   179
420
  2234388
100
AcDbHatch
 10
0.0
 20
0.0
 30
0.0
210
0.0
220
0.0
230
1.0
  2
SOLID
 70
     1
 71
     0
 91
        2
 92
        1
 93
        1
 72
     4
 94
        3
 73
     0
 74
     1
 95
       29
 96
       25
 40
0.0
 40
0.0
 40
0.0
 40
0.0
 40
1.0
 40
1.0
 40
1.0
 40
2.0
 40
2.0
 40
2.0
 40
3.0
 40
3.0
 40
3.0
 40
4.0
 40
4.0
 40
4.0
 40
5.0
 40
5.0
 40
5.0
 40
6.0
 40
6.0
 40
6.0
 40
7.0
 40
7.0
 40
7.0
 40
8.0
 40
8.0
 40
8.0
 40
8.0
 10
50.85150416480449
 20
-129.4325818903849
 10
51.07801919295967
 20
-129.5569498374024
 10
51.09868976587116
 20
-129.757454394644
 10
51.09868976587116
 20
-129.8918131185687
 10
51.09868976587116
 20
-130.0778482747722
 10
51.04839137178651
 20
-130.2414903103216
 10
50.85150416480449
 20
-130.351388856301
 10
50.64118108542998
 20
-130.4712781791877
 10
50.38486598132739
 20
-130.4933267902933
 10
50.20864934725687
 20
-130.4933267902933
 10
50.05310328609784
 20
-130.4933267902933
 10
49.7809407427631
 20
-130.4736897460274
 10
49.56579452970925
 20
-130.351388856301
 10
49.34616969252457
 20
-130.226676399735
 10
49.32102049548224
 20
-130.04098575308
 10
49.32102049548224
 20
-129.8918131185687
 10
49.32102049548224
 20
-129.7085340387534
 10
49.36907957750148
 20
-129.5424804363644
 10
49.56579452970925
 20
-129.4325818903849
 10
49.7740505517926
 20
-129.3178602107261
 10
50.02106389808501
 20
-129.2909884659412
 10
50.20864934725687
 20
-129.2909884659412
 10
50.39399548436331
 20
-129.2909884659412
 10
50.6434203974954
 20
-129.3151041343379
 10
50.85150416480449
 20
-129.4325818903849
 97
        0
 97
        0
 92
        1
 93
        1
 72
     4
 94
        3
 73
     0
 74
     1
 95
       17
 96
       13
 40
0.0
 40
0.0
 40
0.0
 40
0.0
 40
1.0
 40
1.0
 40
1.0
 40
2.0
 40
2.0
 40
2.0
 40
3.0
 40
3.0
 40
3.0
 40
4.0
 40
4.0
 40
4.0
 40
4.0
 10
49.5292765175656
 20
-129.8918131185687
 10
49.5292765175656
 20
-130.1805121202327
 10
49.83571776097858
 20
-130.2342556098025
 10
50.20864934725687
 20
-130.2342556098025
 10
50.55419242442743
 20
-130.2342556098025
 10
50.8881944317224
 20
-130.192569954431
 10
50.8881944317224
 20
-129.8918131185687
 10
50.8881944317224
 20
-129.605870193293
 10
50.58382024560058
 20
-129.5500596464319
 10
50.20864934725687
 20
-129.5500596464319
 10
49.86327852486057
 20
-129.5500596464319
 10
49.5292765175656
 20
-129.5938123590946
 10
49.5292765175656
 20
-129.8918131185687
 97
        0
 97
        0
 75
     2
 76
     1
 98
        0
  0
ENDBLK
  5
DB
330
D8
100
AcDbEntity
  8
0
100
AcDbBlockEnd
  0
BLOCK
  5
EF
330
ED
100
AcDbEntity
  8
0
100
AcDbBlockBegin
  2
block 3
 70
     0
 10
0.0
 20
0.0
 30
0.0
  3
block 3
  1

  0
SPLINE
  5
F1
330
ED
100
AcDbEntity
  8
_U+30EC_U+30A4_U+30E4_U+30FC 1
370
     0
100
AcDbSpline
210
0.0
220
0.0
230
1.0
 70
    11
 71
     3
 72
    26
 73
    22
 74
     0
 42
0.0000000001
 43
0.0000000001
 12
1.0
 22
0.0
 32
0.0
 13
1.0
 23
0.0
 33
0.0
 40
0.0
 40
0.0
 40
0.0
 40
0.0
 40
1.0
 40
1.0
 40
1.0
 40
2.0
 40
2.0
 40
2.0
 40
3.0
 40
3.0
 40
3.0
 40
4.0
 40
4.0
 40
4.0
 40
5.0
 40
5.0
 40
5.0
 40
6.0
 40
6.0
 40
6.0
 40
7.0
 40
7.0
 40
7.0
 40
7.0
 10
128.7439073028835
 20
-130.8867566947089
 30
0.0
 10
128.7439073028835
 20
-130.8867566947089
 30
0.0
 10
127.5494926981474
 20
-130.8867566947089
 30
0.0
 10
127.5494926981474
 20
-130.8867566947089
 30
0.0
 10
127.5494926981474
 20
-130.8867566947089
 30
0.0
 10
127.5494926981474
 20
-131.2677842553775
 30
0.0
 10
127.5494926981474
 20
-131.2677842553775
 30
0.0
 10
127.5494926981474
 20
-131.2677842553775
 30
0.0
 10
127.3892957580832
 20
-131.2677842553775
 30
0.0
 10
127.3892957580832
 20
-131.2677842553775
 30
0.0
 10
127.3734483188511
 20
-130.8840006183207
 30
0.0
 10
127.1970594300063
 20
-130.8302571287508
 30
0.0
 10
127.0737250116344
 20
-130.7961506834468
 30
0.0
 10
127.0737250116344
 20
-130.7961506834468
 30
0.0
 10
127.0737250116344
 20
-130.6276855142181
 30
0.0
 10
127.0737250116344
 20
-130.6276855142181
 30
0.0
 10
127.0737250116344
 20
-130.6276855142181
 30
0.0
 10
128.7439073028835
 20
-130.6276855142181
 30
0.0
 10
128.7439073028835
 20
-130.6276855142181
 30
0.0
 10
128.7439073028835
 20
-130.6276855142181
 30
0.0
 10
128.7439073028835
 20
-130.8867566947089
 30
0.0
 10
128.7439073028835
 20
-130.8867566947089
 30
0.0
  0
HATCH
  5
F2
330
ED
100
AcDbEntity
  8
_U+30EC_U+30A4_U+30E4_U+30FC 1
 62
   179
420
  2234388
100
AcDbHatch
 10
0.0
 20
0.0
 30
0.0
210
0.0
220
0.0
230
1.0
  2
SOLID
 70
     1
 71
     0
 91
        1
 92
        1
 93
        1
 72
     4
 94
        3
 73
     0
 74
     1
 95
       26
 96
       22
 40
0.0
 40
0.0
 40
0.0
 40
0.0
 40
1.0
 40
1.0
 40
1.0
 40
2.0
 40
2.0
 40
2.0
 40
3.0
 40
3.0
 40
3.0
 40
4.0
 40
4.0
 40
4.0
 40
5.0
 40
5.0
 40
5.0
 40
6.0
 40
6.0
 40
6.0
 40
7.0
 40
7.0
 40
7.0
 40
7.0
 10
128.7439073028835
 20
-130.8867566947089
 10
128.7439073028835
 20
-130.8867566947089
 10
127.5494926981474
 20
-130.8867566947089
 10
127.5494926981474
 20
-130.8867566947089
 10
127.5494926981474
 20
-130.8867566947089
 10
127.5494926981474
 20
-131.2677842553775
 10
127.5494926981474
 20
-131.2677842553775
 10
127.5494926981474
 20
-131.2677842553775
 10
127.3892957580832
 20
-131.2677842553775
 10
127.3892957580832
 20
-131.2677842553775
 10
127.3734483188511
 20
-130.8840006183207
 10
127.1970594300063
 20
-130.8302571287508
 10
127.0737250116344
 20
-130.7961506834468
 10
127.0737250116344
 20
-130.7961506834468
 10
127.0737250116344
 20
-130.6276855142181
 10
127.0737250116344
 20
-130.6276855142181
 10
127.0737250116344
 20
-130.6276855142181
 10
128.7439073028835
 20
-130.6276855142181
 10
128.7439073028835
 20
-130.6276855142181
 10
128.7439073028835
 20
-130.6276855142181
 10
128.7439073028835
 20
-130.8867566947089
 10
128.7439073028835
 20
-130.8867566947089
 97
        0
 97
        0
 75
     2
 76
     1
 98
        0
  0
SPLINE
  5
F3
330
ED
100
AcDbEntity
  8
_U+30EC_U+30A4_U+30E4_U+30FC 1
370
     0
100
AcDbSpline
210
0.0
220
0.0
230
1.0
 70
    11
 71
     3
 72
    29
 73
    25
 74
     0
 42
0.0000000001
 43
0.0000000001
 12
1.0
 22
0.0
 32
0.0
 13
1.0
 23
0.0
 33
0.0
 40
0.0
 40
0.0
 40
0.0
 40
0.0
 40
1.0
 40
1.0
 40
1.0
 40
2.0
 40
2.0
 40
2.0
 40
3.0
 40
3.0
 40
3.0
 40
4.0
 40
4.0
 40
4.0
 40
5.0
 40
5.0
 40
5.0
 40
6.0
 40
6.0
 40
6.0
 40
7.0
 40
7.0
 40
7.0
 40
8.0
 40
8.0
 40
8.0
 40
8.0
 10
128.5516709748065
 20
-129.012624750733
 30
0.0
 10
128.7780137481874
 20
-129.137337207299
 30
0.0
 10
128.7986843210989
 20
-129.3378417645405
 30
0.0
 10
128.7986843210989
 20
-129.4722004884653
 30
0.0
 10
128.7986843210989
 20
-129.6575466255717
 30
0.0
 10
128.7483859270143
 20
-129.8215331706696
 30
0.0
 10
128.5516709748065
 20
-129.9314317166491
 30
0.0
 10
128.3411756406578
 20
-130.0509765299873
 30
0.0
 10
128.0848605365552
 20
-130.0730251410929
 30
0.0
 10
127.9088161572589
 20
-130.0730251410929
 30
0.0
 10
127.7530978413256
 20
-130.0730251410929
 30
0.0
 10
127.4809352979909
 20
-130.0537326063755
 30
0.0
 10
127.2659613397113
 20
-129.9314317166491
 30
0.0
 10
127.0461642477524
 20
-129.8070637696316
 30
0.0
 10
127.02101505071
 20
-129.6210286134281
 30
0.0
 10
127.02101505071
 20
-129.4722004884653
 30
0.0
 10
127.02101505071
 20
-129.28892140865
 30
0.0
 10
127.068901877955
 20
-129.1225232967124
 30
0.0
 10
127.2659613397113
 20
-129.012624750733
 30
0.0
 10
127.4740451070204
 20
-128.8975585615256
 30
0.0
 10
127.7210584533128
 20
-128.8706868167407
 30
0.0
 10
127.9088161572589
 20
-128.8706868167407
 30
0.0
 10
128.0941622943654
 20
-128.8706868167407
 30
0.0
 10
128.3435872074974
 20
-128.8954915042345
 30
0.0
 10
128.5516709748065
 20
-129.012624750733
 30
0.0
  0
SPLINE
  5
F4
330
ED
100
AcDbEntity
  8
_U+30EC_U+30A4_U+30E4_U+30FC 1
370
     0
100
AcDbSpline
210
0.0
220
0.0
230
1.0
 70
    11
 71
     3
 72
    17
 73
    13
 74
     0
 42
0.0000000001
 43
0.0000000001
 12
1.0
 22
0.0
 32
0.0
 13
1.0
 23
0.0
 33
0.0
 40
0.0
 40
0.0
 40
0.0
 40
0.0
 40
1.0
 40
1.0
 40
1.0
 40
2.0
 40
2.0
 40
2.0
 40
3.0
 40
3.0
 40
3.0
 40
4.0
 40
4.0
 40
4.0
 40
4.0
 10
127.2294433275677
 20
-129.4722004884653
 30
0.0
 10
127.2294433275677
 20
-129.7602104710322
 30
0.0
 10
127.5357123162064
 20
-129.8139539606021
 30
0.0
 10
127.9088161572589
 20
-129.8139539606021
 30
0.0
 10
128.254014724881
 20
-129.8139539606021
 30
0.0
 10
128.5881889869502
 20
-129.7726128147791
 30
0.0
 10
128.5881889869502
 20
-129.4722004884653
 30
0.0
 10
128.5881889869502
 20
-129.1862575631895
 30
0.0
 10
128.2836425460541
 20
-129.1297579972315
 30
0.0
 10
127.9088161572589
 20
-129.1297579972315
 30
0.0
 10
127.5632730800884
 20
-129.1297579972315
 30
0.0
 10
127.2294433275677
 20
-129.1738552194427
 30
0.0
 10
127.2294433275677
 20
-129.4722004884653
 30
0.0
  0
HATCH
  5
F5
330
ED
100
AcDbEntity
  8
_U+30EC_U+30A4_U+30E4_U+30FC 1
 62
   179
420
  2234388
100
AcDbHatch
 10
0.0
 20
0.0
 30
0.0
210
0.0
220
0.0
230
1.0
  2
SOLID
 70
     1
 71
     0
 91
        2
 92
        1
 93
        1
 72
     4
 94
        3
 73
     0
 74
     1
 95
       29
 96
       25
 40
0.0
 40
0.0
 40
0.0
 40
0.0
 40
1.0
 40
1.0
 40
1.0
 40
2.0
 40
2.0
 40
2.0
 40
3.0
 40
3.0
 40
3.0
 40
4.0
 40
4.0
 40
4.0
 40
5.0
 40
5.0
 40
5.0
 40
6.0
 40
6.0
 40
6.0
 40
7.0
 40
7.0
 40
7.0
 40
8.0
 40
8.0
 40
8.0
 40
8.0
 10
128.5516709748065
 20
-129.012624750733
 10
128.7780137481874
 20
-129.137337207299
 10
128.7986843210989
 20
-129.3378417645405
 10
128.7986843210989
 20
-129.4722004884653
 10
128.7986843210989
 20
-129.6575466255717
 10
128.7483859270143
 20
-129.8215331706696
 10
128.5516709748065
 20
-129.9314317166491
 10
128.3411756406578
 20
-130.0509765299873
 10
128.0848605365552
 20
-130.0730251410929
 10
127.9088161572589
 20
-130.0730251410929
 10
127.7530978413256
 20
-130.0730251410929
 10
127.4809352979909
 20
-130.0537326063755
 10
127.2659613397113
 20
-129.9314317166491
 10
127.0461642477524
 20
-129.8070637696316
 10
127.02101505071
 20
-129.6210286134281
 10
127.02101505071
 20
-129.4722004884653
 10
127.02101505071
 20
-129.28892140865
 10
127.068901877955
 20
-129.1225232967124
 10
127.2659613397113
 20
-129.012624750733
 10
127.4740451070204
 20
-128.8975585615256
 10
127.7210584533128
 20
-128.8706868167407
 10
127.9088161572589
 20
-128.8706868167407
 10
128.0941622943654
 20
-128.8706868167407
 10
128.3435872074974
 20
-128.8954915042345
 10
128.5516709748065
 20
-129.012624750733
 97
        0
 97
        0
 92
        1
 93
        1
 72
     4
 94
        3
 73
     0
 74
     1
 95
       17
 96
       13
 40
0.0
 40
0.0
 40
0.0
 40
0.0
 40
1.0
 40
1.0
 40
1.0
 40
2.0
 40
2.0
 40
2.0
 40
3.0
 40
3.0
 40
3.0
 40
4.0
 40
4.0
 40
4.0
 40
4.0
 10
127.2294433275677
 20
-129.4722004884653
 10
127.2294433275677
 20
-129.7602104710322
 10
127.5357123162064
 20
-129.8139539606021
 10
127.9088161572589
 20
-129.8139539606021
 10
128.254014724881
 20
-129.8139539606021
 10
128.5881889869502
 20
-129.7726128147791
 10
128.5881889869502
 20
-129.4722004884653
 10
128.5881889869502
 20
-129.1862575631895
 10
128.2836425460541
 20
-129.1297579972315
 10
127.9088161572589
 20
-129.1297579972315
 10
127.5632730800884
 20
-129.1297579972315
 10
127.2294433275677
 20
-129.1738552194427
 10
127.2294433275677
 20
-129.4722004884653
 97
        0
 97
        0
 75
     2
 76
     1
 98
        0
  0
ENDBLK
  5
F0
330
ED
100
AcDbEntity
  8
0
100
AcDbBlockEnd
  0
BLOCK
  5
104
330
102
100
AcDbEntity
  8
0
100
AcDbBlockBegin
  2
block 4
 70
     0
 10
0.0
 20
0.0
 30
0.0
  3
block 4
  1

  0
SPLINE
  5
106
330
102
100
AcDbEntity
  8
_U+30EC_U+30A4_U+30E4_U+30FC 1
370
     0
100
AcDbSpline
210
0.0
220
0.0
230
1.0
 70
    11
 71
     3
 72
    26
 73
    22
 74
     0
 42
0.0000000001
 43
0.0000000001
 12
1.0
 22
0.0
 32
0.0
 13
1.0
 23
0.0
 33
0.0
 40
0.0
 40
0.0
 40
0.0
 40
0.0
 40
1.0
 40
1.0
 40
1.0
 40
2.0
 40
2.0
 40
2.0
 40
3.0
 40
3.0
 40
3.0
 40
4.0
 40
4.0
 40
4.0
 40
5.0
 40
5.0
 40
5.0
 40
6.0
 40
6.0
 40
6.0
 40
7.0
 40
7.0
 40
7.0
 40
7.0
 10
132.1559298714749
 20
-129.9865532444131
 30
0.0
 10
132.1559298714749
 20
-129.9865532444131
 30
0.0
 10
130.9618597762873
 20
-129.9865532444131
 30
0.0
 10
130.9618597762873
 20
-129.9865532444131
 30
0.0
 10
130.9618597762873
 20
-129.9865532444131
 30
0.0
 10
130.9618597762873
 20
-130.3679253146302
 30
0.0
 10
130.9618597762873
 20
-130.3679253146302
 30
0.0
 10
130.9618597762873
 20
-130.3679253146302
 30
0.0
 10
130.8013183266747
 20
-130.3679253146302
 30
0.0
 10
130.8013183266747
 20
-130.3679253146302
 30
0.0
 10
130.7854708874425
 20
-129.9841416775734
 30
0.0
 10
130.6094265081463
 20
-129.9303981880035
 30
0.0
 10
130.4857475802258
 20
-129.895947233151
 30
0.0
 10
130.4857475802258
 20
-129.895947233151
 30
0.0
 10
130.4857475802258
 20
-129.7274820639223
 30
0.0
 10
130.4857475802258
 20
-129.7274820639223
 30
0.0
 10
130.4857475802258
 20
-129.7274820639223
 30
0.0
 10
132.1559298714749
 20
-129.7274820639223
 30
0.0
 10
132.1559298714749
 20
-129.7274820639223
 30
0.0
 10
132.1559298714749
 20
-129.7274820639223
 30
0.0
 10
132.1559298714749
 20
-129.9865532444131
 30
0.0
 10
132.1559298714749
 20
-129.9865532444131
 30
0.0
  0
HATCH
  5
107
330
102
100
AcDbEntity
  8
_U+30EC_U+30A4_U+30E4_U+30FC 1
 62
   179
420
  2234388
100
AcDbHatch
 10
0.0
 20
0.0
 30
0.0
210
0.0
220
0.0
230
1.0
  2
SOLID
 70
     1
 71
     0
 91
        1
 92
        1
 93
        1
 72
     4
 94
        3
 73
     0
 74
     1
 95
       26
 96
       22
 40
0.0
 40
0.0
 40
0.0
 40
0.0
 40
1.0
 40
1.0
 40
1.0
 40
2.0
 40
2.0
 40
2.0
 40
3.0
 40
3.0
 40
3.0
 40
4.0
 40
4.0
 40
4.0
 40
5.0
 40
5.0
 40
5.0
 40
6.0
 40
6.0
 40
6.0
 40
7.0
 40
7.0
 40
7.0
 40
7.0
 10
132.1559298714749
 20
-129.9865532444131
 10
132.1559298714749
 20
-129.9865532444131
 10
130.9618597762873
 20
-129.9865532444131
 10
130.9618597762873
 20
-129.9865532444131
 10
130.9618597762873
 20
-129.9865532444131
 10
130.9618597762873
 20
-130.3679253146302
 10
130.9618597762873
 20
-130.3679253146302
 10
130.9618597762873
 20
-130.3679253146302
 10
130.8013183266747
 20
-130.3679253146302
 10
130.8013183266747
 20
-130.3679253146302
 10
130.7854708874425
 20
-129.9841416775734
 10
130.6094265081463
 20
-129.9303981880035
 10
130.4857475802258
 20
-129.895947233151
 10
130.4857475802258
 20
-129.895947233151
 10
130.4857475802258
 20
-129.7274820639223
 10
130.4857475802258
 20
-129.7274820639223
 10
130.4857475802258
 20
-129.7274820639223
 10
132.1559298714749
 20
-129.7274820639223
 10
132.1559298714749
 20
-129.7274820639223
 10
132.1559298714749
 20
-129.7274820639223
 10
132.1559298714749
 20
-129.9865532444131
 10
132.1559298714749
 20
-129.9865532444131
 97
        0
 97
        0
 75
     2
 76
     1
 98
        0
  0
SPLINE
  5
108
330
102
100
AcDbEntity
  8
_U+30EC_U+30A4_U+30E4_U+30FC 1
370
     0
100
AcDbSpline
210
0.0
220
0.0
230
1.0
 70
    11
 71
     3
 72
    62
 73
    58
 74
     0
 42
0.0000000001
 43
0.0000000001
 12
1.0
 22
0.0
 32
0.0
 13
1.0
 23
0.0
 33
0.0
 40
0.0
 40
0.0
 40
0.0
 40
0.0
 40
1.0
 40
1.0
 40
1.0
 40
2.0
 40
2.0
 40
2.0
 40
3.0
 40
3.0
 40
3.0
 40
4.0
 40
4.0
 40
4.0
 40
5.0
 40
5.0
 40
5.0
 40
6.0
 40
6.0
 40
6.0
 40
7.0
 40
7.0
 40
7.0
 40
8.0
 40
8.0
 40
8.0
 40
9.0
 40
9.0
 40
9.0
 40
10.0
 40
10.0
 40
10.0
 40
11.0
 40
11.0
 40
11.0
 40
12.0
 40
12.0
 40
12.0
 40
13.0
 40
13.0
 40
13.0
 40
14.0
 40
14.0
 40
14.0
 40
15.0
 40
15.0
 40
15.0
 40
16.0
 40
16.0
 40
16.0
 40
17.0
 40
17.0
 40
17.0
 40
18.0
 40
18.0
 40
18.0
 40
19.0
 40
19.0
 40
19.0
 40
19.0
 10
132.2110513992389
 20
-128.5818155603025
 30
0.0
 10
132.2110513992389
 20
-128.6917141062819
 30
0.0
 10
132.1879692594877
 20
-128.9433783314794
 30
0.0
 10
131.9864311736006
 20
-129.0877278323114
 30
0.0
 10
131.8651638125198
 20
-129.1731662003456
 30
0.0
 10
131.75767683338
 20
-129.1779893340249
 30
0.0
 10
131.6663818030209
 20
-129.1828124677043
 30
0.0
 10
131.6663818030209
 20
-129.1828124677043
 30
0.0
 10
131.6663818030209
 20
-128.9285644208929
 30
0.0
 10
131.6663818030209
 20
-128.9285644208929
 30
0.0
 10
131.7466525278272
 20
-128.9264973636017
 30
0.0
 10
132.0002115555416
 20
-128.9140950198548
 30
0.0
 10
132.0002115555416
 20
-128.5866386939818
 30
0.0
 10
132.0002115555416
 20
-128.4278197921118
 30
0.0
 10
131.9251084739632
 20
-128.2517754128155
 30
0.0
 10
131.6777506181222
 20
-128.2517754128155
 30
0.0
 10
131.5520046329106
 20
-128.2517754128155
 30
0.0
 10
131.4992946719863
 20
-128.2958726350267
 30
0.0
 10
131.4648437171338
 20
-128.3325629019446
 30
0.0
 10
131.384917501876
 20
-128.4180012699788
 30
0.0
 10
131.371137119935
 20
-128.5523599939036
 30
0.0
 10
131.371137119935
 20
-128.6159220056064
 30
0.0
 10
131.371137119935
 20
-128.637970616712
 30
0.0
 10
131.3735486867747
 20
-128.6794840173093
 30
0.0
 10
131.3780273109055
 20
-128.7113511505479
 30
0.0
 10
131.3780273109055
 20
-128.7113511505479
 30
0.0
 10
131.1678764863053
 20
-128.7113511505479
 30
0.0
 10
131.1678764863053
 20
-128.7113511505479
 30
0.0
 10
131.1744221677272
 20
-128.6672539283367
 30
0.0
 10
131.1768337345669
 20
-128.6183335724461
 30
0.0
 10
131.1768337345669
 20
-128.6110988719271
 30
0.0
 10
131.1768337345669
 20
-128.5353067712516
 30
0.0
 10
131.1540961043643
 20
-128.3055189023854
 30
0.0
 10
130.8977810002617
 20
-128.3055189023854
 30
0.0
 10
130.7055446721847
 20
-128.3055189023854
 30
0.0
 10
130.6459445202899
 20
-128.4571031037364
 30
0.0
 10
130.6459445202899
 20
-128.5842271271422
 30
0.0
 10
130.6459445202899
 20
-128.8896348419096
 30
0.0
 10
130.8977810002617
 20
-128.8996256188168
 30
0.0
 10
130.9756401582283
 20
-128.9044487524961
 30
0.0
 10
130.9756401582283
 20
-128.9044487524961
 30
0.0
 10
130.9756401582283
 20
-129.1387152454931
 30
0.0
 10
130.9756401582283
 20
-129.1387152454931
 30
0.0
 10
130.8405924152065
 20
-129.1290689781344
 30
0.0
 10
130.43338212885
 20
-129.0973740996701
 30
0.0
 10
130.43338212885
 20
-128.5695854713298
 30
0.0
 10
130.43338212885
 20
-128.3105142908391
 30
0.0
 10
130.5704969291629
 20
-128.0318060660823
 30
0.0
 10
130.8908908092912
 20
-128.0318060660823
 30
0.0
 10
131.0920843856298
 20
-128.0318060660823
 30
0.0
 10
131.1813123586977
 20
-128.1418768668361
 30
0.0
 10
131.247802701563
 20
-128.2567708012691
 30
0.0
 10
131.2774305227362
 20
-128.185801834273
 30
0.0
 10
131.3642469289645
 20
-127.9756510096728
 30
0.0
 10
131.6639702361812
 20
-127.9756510096728
 30
0.0
 10
132.0301838862633
 20
-127.9756510096728
 30
0.0
 10
132.2110513992389
 20
-128.2615939349485
 30
0.0
 10
132.2110513992389
 20
-128.5818155603025
 30
0.0
  0
HATCH
  5
109
330
102
100
AcDbEntity
  8
_U+30EC_U+30A4_U+30E4_U+30FC 1
 62
   179
420
  2234388
100
AcDbHatch
 10
0.0
 20
0.0
 30
0.0
210
0.0
220
0.0
230
1.0
  2
SOLID
 70
     1
 71
     0
 91
        1
 92
        1
 93
        1
 72
     4
 94
        3
 73
     0
 74
     1
 95
       62
 96
       58
 40
0.0
 40
0.0
 40
0.0
 40
0.0
 40
1.0
 40
1.0
 40
1.0
 40
2.0
 40
2.0
 40
2.0
 40
3.0
 40
3.0
 40
3.0
 40
4.0
 40
4.0
 40
4.0
 40
5.0
 40
5.0
 40
5.0
 40
6.0
 40
6.0
 40
6.0
 40
7.0
 40
7.0
 40
7.0
 40
8.0
 40
8.0
 40
8.0
 40
9.0
 40
9.0
 40
9.0
 40
10.0
 40
10.0
 40
10.0
 40
11.0
 40
11.0
 40
11.0
 40
12.0
 40
12.0
 40
12.0
 40
13.0
 40
13.0
 40
13.0
 40
14.0
 40
14.0
 40
14.0
 40
15.0
 40
15.0
 40
15.0
 40
16.0
 40
16.0
 40
16.0
 40
17.0
 40
17.0
 40
17.0
 40
18.0
 40
18.0
 40
18.0
 40
19.0
 40
19.0
 40
19.0
 40
19.0
 10
132.2110513992389
 20
-128.5818155603025
 10
132.2110513992389
 20
-128.6917141062819
 10
132.1879692594877
 20
-128.9433783314794
 10
131.9864311736006
 20
-129.0877278323114
 10
131.8651638125198
 20
-129.1731662003456
 10
131.75767683338
 20
-129.1779893340249
 10
131.6663818030209
 20
-129.1828124677043
 10
131.6663818030209
 20
-129.1828124677043
 10
131.6663818030209
 20
-128.9285644208929
 10
131.6663818030209
 20
-128.9285644208929
 10
131.7466525278272
 20
-128.9264973636017
 10
132.0002115555416
 20
-128.9140950198548
 10
132.0002115555416
 20
-128.5866386939818
 10
132.0002115555416
 20
-128.4278197921118
 10
131.9251084739632
 20
-128.2517754128155
 10
131.6777506181222
 20
-128.2517754128155
 10
131.5520046329106
 20
-128.2517754128155
 10
131.4992946719863
 20
-128.2958726350267
 10
131.4648437171338
 20
-128.3325629019446
 10
131.384917501876
 20
-128.4180012699788
 10
131.371137119935
 20
-128.5523599939036
 10
131.371137119935
 20
-128.6159220056064
 10
131.371137119935
 20
-128.637970616712
 10
131.3735486867747
 20
-128.6794840173093
 10
131.3780273109055
 20
-128.7113511505479
 10
131.3780273109055
 20
-128.7113511505479
 10
131.1678764863053
 20
-128.7113511505479
 10
131.1678764863053
 20
-128.7113511505479
 10
131.1744221677272
 20
-128.6672539283367
 10
131.1768337345669
 20
-128.6183335724461
 10
131.1768337345669
 20
-128.6110988719271
 10
131.1768337345669
 20
-128.5353067712516
 10
131.1540961043643
 20
-128.3055189023854
 10
130.8977810002617
 20
-128.3055189023854
 10
130.7055446721847
 20
-128.3055189023854
 10
130.6459445202899
 20
-128.4571031037364
 10
130.6459445202899
 20
-128.5842271271422
 10
130.6459445202899
 20
-128.8896348419096
 10
130.8977810002617
 20
-128.8996256188168
 10
130.9756401582283
 20
-128.9044487524961
 10
130.9756401582283
 20
-128.9044487524961
 10
130.9756401582283
 20
-129.1387152454931
 10
130.9756401582283
 20
-129.1387152454931
 10
130.8405924152065
 20
-129.1290689781344
 10
130.43338212885
 20
-129.0973740996701
 10
130.43338212885
 20
-128.5695854713298
 10
130.43338212885
 20
-128.3105142908391
 10
130.5704969291629
 20
-128.0318060660823
 10
130.8908908092912
 20
-128.0318060660823
 10
131.0920843856298
 20
-128.0318060660823
 10
131.1813123586977
 20
-128.1418768668361
 10
131.247802701563
 20
-128.2567708012691
 10
131.2774305227362
 20
-128.185801834273
 10
131.3642469289645
 20
-127.9756510096728
 10
131.6639702361812
 20
-127.9756510096728
 10
132.0301838862633
 20
-127.9756510096728
 10
132.2110513992389
 20
-128.2615939349485
 10
132.2110513992389
 20
-128.5818155603025
 97
        0
 97
        0
 75
     2
 76
     1
 98
        0
  0
ENDBLK
  5
105
330
102
100
AcDbEntity
  8
0
100
AcDbBlockEnd
  0
BLOCK
  5
118
330
116
100
AcDbEntity
  8
0
100
AcDbBlockBegin
  2
block 5
 70
     0
 10
0.0
 20
0.0
 30
0.0
  3
block 5
  1

  0
SPLINE
  5
11A
330
116
100
AcDbEntity
  8
_U+30EC_U+30A4_U+30E4_U+30FC 1
370
     0
100
AcDbSpline
210
0.0
220
0.0
230
1.0
 70
    11
 71
     3
 72
    29
 73
    25
 74
     0
 42
0.0000000001
 43
0.0000000001
 12
1.0
 22
0.0
 32
0.0
 13
1.0
 23
0.0
 33
0.0
 40
0.0
 40
0.0
 40
0.0
 40
0.0
 40
1.0
 40
1.0
 40
1.0
 40
2.0
 40
2.0
 40
2.0
 40
3.0
 40
3.0
 40
3.0
 40
4.0
 40
4.0
 40
4.0
 40
5.0
 40
5.0
 40
5.0
 40
6.0
 40
6.0
 40
6.0
 40
7.0
 40
7.0
 40
7.0
 40
8.0
 40
8.0
 40
8.0
 40
8.0
 10
115.4954481048067
 20
-122.4550577493342
 30
0.0
 10
115.1878010779739
 20
-122.4550577493342
 30
0.0
 10
114.8946234521791
 20
-122.3062296243714
 30
0.0
 10
114.8946234521791
 20
-121.9288194139622
 30
0.0
 10
114.8946234521791
 20
-121.6520059917224
 30
0.0
 10
115.0582654877285
 20
-121.5489976367135
 30
0.0
 10
115.1805663774549
 20
-121.4826795486224
 30
0.0
 10
115.0362168766229
 20
-121.4186007725967
 30
0.0
 10
114.948366941749
 20
-121.2950940994505
 30
0.0
 10
114.948366941749
 20
-121.1212890322197
 30
0.0
 10
114.948366941749
 20
-120.8238050370684
 30
0.0
 10
115.1778103010667
 20
-120.6773884789452
 30
0.0
 10
115.4954481048067
 20
-120.6773884789452
 30
0.0
 10
115.823076685454
 20
-120.6773884789452
 30
0.0
 10
116.0432182869614
 20
-120.8329345401043
 30
0.0
 10
116.0432182869614
 20
-121.1212890322197
 30
0.0
 10
116.0432182869614
 20
-121.2950940994505
 30
0.0
 10
115.9526122756994
 20
-121.4186007725967
 30
0.0
 10
115.8082627748674
 20
-121.4826795486224
 30
0.0
 10
115.9109266203278
 20
-121.5376288216121
 30
0.0
 10
116.0942057001431
 20
-121.6406371766211
 30
0.0
 10
116.0942057001431
 20
-121.9243407898314
 30
0.0
 10
116.0942057001431
 20
-122.3291395093483
 30
0.0
 10
115.7717447627237
 20
-122.4550577493342
 30
0.0
 10
115.4954481048067
 20
-122.4550577493342
 30
0.0
  0
SPLINE
  5
11B
330
116
100
AcDbEntity
  8
_U+30EC_U+30A4_U+30E4_U+30FC 1
370
     0
100
AcDbSpline
210
0.0
220
0.0
230
1.0
 70
    11
 71
     3
 72
    17
 73
    13
 74
     0
 42
0.0000000001
 43
0.0000000001
 12
1.0
 22
0.0
 32
0.0
 13
1.0
 23
0.0
 33
0.0
 40
0.0
 40
0.0
 40
0.0
 40
0.0
 40
1.0
 40
1.0
 40
1.0
 40
2.0
 40
2.0
 40
2.0
 40
3.0
 40
3.0
 40
3.0
 40
4.0
 40
4.0
 40
4.0
 40
4.0
 10
115.4954481048067
 20
-121.5994682855724
 30
0.0
 10
115.3293945024177
 20
-121.5994682855724
 30
0.0
 10
115.1536946326699
 20
-121.6931748827712
 30
0.0
 10
115.1536946326699
 20
-121.9127997199558
 30
0.0
 10
115.1536946326699
 20
-122.1346638692059
 30
0.0
 10
115.300111190793
 20
-122.2445624151854
 30
0.0
 10
115.4954481048067
 20
-122.2445624151854
 30
0.0
 10
115.7107665726348
 20
-122.2445624151854
 30
0.0
 10
115.8378905960405
 20
-122.1119262390033
 30
0.0
 10
115.8378905960405
 20
-121.9196899109263
 30
0.0
 10
115.8378905960405
 20
-121.6793945008302
 30
0.0
 10
115.6497883825459
 20
-121.5994682855724
 30
0.0
 10
115.4954481048067
 20
-121.5994682855724
 30
0.0
  0
SPLINE
  5
11C
330
116
100
AcDbEntity
  8
_U+30EC_U+30A4_U+30E4_U+30FC 1
370
     0
100
AcDbSpline
210
0.0
220
0.0
230
1.0
 70
    11
 71
     3
 72
    17
 73
    13
 74
     0
 42
0.0000000001
 43
0.0000000001
 12
1.0
 22
0.0
 32
0.0
 13
1.0
 23
0.0
 33
0.0
 40
0.0
 40
0.0
 40
0.0
 40
0.0
 40
1.0
 40
1.0
 40
1.0
 40
2.0
 40
2.0
 40
2.0
 40
3.0
 40
3.0
 40
3.0
 40
4.0
 40
4.0
 40
4.0
 40
4.0
 10
115.4954481048067
 20
-120.8856445010286
 30
0.0
 10
115.3049343244724
 20
-120.8856445010286
 30
0.0
 10
115.2074381222398
 20
-120.9884806012633
 30
0.0
 10
115.2074381222398
 20
-121.1348971593864
 30
0.0
 10
115.2074381222398
 20
-121.2677055903428
 30
0.0
 10
115.2901204138858
 20
-121.3958631423941
 30
0.0
 10
115.4954481048067
 20
-121.3958631423941
 30
0.0
 10
115.7007757957276
 20
-121.3958631423941
 30
0.0
 10
115.7841471064706
 20
-121.2677055903428
 30
0.0
 10
115.7841471064706
 20
-121.1348971593864
 30
0.0
 10
115.7841471064706
 20
-120.9884806012633
 30
0.0
 10
115.6838948278499
 20
-120.8856445010286
 30
0.0
 10
115.4954481048067
 20
-120.8856445010286
 30
0.0
  0
HATCH
  5
11D
330
116
100
AcDbEntity
  8
_U+30EC_U+30A4_U+30E4_U+30FC 1
 62
   179
420
  2234388
100
AcDbHatch
 10
0.0
 20
0.0
 30
0.0
210
0.0
220
0.0
230
1.0
  2
SOLID
 70
     1
 71
     0
 91
        3
 92
        1
 93
        1
 72
     4
 94
        3
 73
     0
 74
     1
 95
       29
 96
       25
 40
0.0
 40
0.0
 40
0.0
 40
0.0
 40
1.0
 40
1.0
 40
1.0
 40
2.0
 40
2.0
 40
2.0
 40
3.0
 40
3.0
 40
3.0
 40
4.0
 40
4.0
 40
4.0
 40
5.0
 40
5.0
 40
5.0
 40
6.0
 40
6.0
 40
6.0
 40
7.0
 40
7.0
 40
7.0
 40
8.0
 40
8.0
 40
8.0
 40
8.0
 10
115.4954481048067
 20
-122.4550577493342
 10
115.1878010779739
 20
-122.4550577493342
 10
114.8946234521791
 20
-122.3062296243714
 10
114.8946234521791
 20
-121.9288194139622
 10
114.8946234521791
 20
-121.6520059917224
 10
115.0582654877285
 20
-121.5489976367135
 10
115.1805663774549
 20
-121.4826795486224
 10
115.0362168766229
 20
-121.4186007725967
 10
114.948366941749
 20
-121.2950940994505
 10
114.948366941749
 20
-121.1212890322197
 10
114.948366941749
 20
-120.8238050370684
 10
115.1778103010667
 20
-120.6773884789452
 10
115.4954481048067
 20
-120.6773884789452
 10
115.823076685454
 20
-120.6773884789452
 10
116.0432182869614
 20
-120.8329345401043
 10
116.0432182869614
 20
-121.1212890322197
 10
116.0432182869614
 20
-121.2950940994505
 10
115.9526122756994
 20
-121.4186007725967
 10
115.8082627748674
 20
-121.4826795486224
 10
115.9109266203278
 20
-121.5376288216121
 10
116.0942057001431
 20
-121.6406371766211
 10
116.0942057001431
 20
-121.9243407898314
 10
116.0942057001431
 20
-122.3291395093483
 10
115.7717447627237
 20
-122.4550577493342
 10
115.4954481048067
 20
-122.4550577493342
 97
        0
 97
        0
 92
        1
 93
        1
 72
     4
 94
        3
 73
     0
 74
     1
 95
       17
 96
       13
 40
0.0
 40
0.0
 40
0.0
 40
0.0
 40
1.0
 40
1.0
 40
1.0
 40
2.0
 40
2.0
 40
2.0
 40
3.0
 40
3.0
 40
3.0
 40
4.0
 40
4.0
 40
4.0
 40
4.0
 10
115.4954481048067
 20
-121.5994682855724
 10
115.3293945024177
 20
-121.5994682855724
 10
115.1536946326699
 20
-121.6931748827712
 10
115.1536946326699
 20
-121.9127997199558
 10
115.1536946326699
 20
-122.1346638692059
 10
115.300111190793
 20
-122.2445624151854
 10
115.4954481048067
 20
-122.2445624151854
 10
115.7107665726348
 20
-122.2445624151854
 10
115.8378905960405
 20
-122.1119262390033
 10
115.8378905960405
 20
-121.9196899109263
 10
115.8378905960405
 20
-121.6793945008302
 10
115.6497883825459
 20
-121.5994682855724
 10
115.4954481048067
 20
-121.5994682855724
 97
        0
 97
        0
 92
        1
 93
        1
 72
     4
 94
        3
 73
     0
 74
     1
 95
       17
 96
       13
 40
0.0
 40
0.0
 40
0.0
 40
0.0
 40
1.0
 40
1.0
 40
1.0
 40
2.0
 40
2.0
 40
2.0
 40
3.0
 40
3.0
 40
3.0
 40
4.0
 40
4.0
 40
4.0
 40
4.0
 10
115.4954481048067
 20
-120.8856445010286
 10
115.3049343244724
 20
-120.8856445010286
 10
115.2074381222398
 20
-120.9884806012633
 10
115.2074381222398
 20
-121.1348971593864
 10
115.2074381222398
 20
-121.2677055903428
 10
115.2901204138858
 20
-121.3958631423941
 10
115.4954481048067
 20
-121.3958631423941
 10
115.7007757957276
 20
-121.3958631423941
 10
115.7841471064706
 20
-121.2677055903428
 10
115.7841471064706
 20
-121.1348971593864
 10
115.7841471064706
 20
-120.9884806012633
 10
115.6838948278499
 20
-120.8856445010286
 10
115.4954481048067
 20
-120.8856445010286
 97
        0
 97
        0
 75
     2
 76
     1
 98
        0
  0
ENDBLK
  5
119
330
116
100
AcDbEntity
  8
0
100
AcDbBlockEnd
  0
BLOCK
  5
128
330
126
100
AcDbEntity
  8
0
100
AcDbBlockBegin
  2
block 6
 70
     0
 10
0.0
 20
0.0
 30
0.0
  3
block 6
  1

  0
SPLINE
  5
12A
330
126
100
AcDbEntity
  8
_U+30EC_U+30A4_U+30E4_U+30FC 1
370
     0
100
AcDbSpline
210
0.0
220
0.0
230
1.0
 70
    11
 71
     3
 72
    26
 73
    22
 74
     0
 42
0.0000000001
 43
0.0000000001
 12
1.0
 22
0.0
 32
0.0
 13
1.0
 23
0.0
 33
0.0
 40
0.0
 40
0.0
 40
0.0
 40
0.0
 40
1.0
 40
1.0
 40
1.0
 40
2.0
 40
2.0
 40
2.0
 40
3.0
 40
3.0
 40
3.0
 40
4.0
 40
4.0
 40
4.0
 40
5.0
 40
5.0
 40
5.0
 40
6.0
 40
6.0
 40
6.0
 40
7.0
 40
7.0
 40
7.0
 40
7.0
 10
121.6601019661128
 20
-122.4001084763444
 30
0.0
 10
121.6601019661128
 20
-122.4001084763444
 30
0.0
 10
121.6601019661128
 20
-121.2058661263826
 30
0.0
 10
121.6601019661128
 20
-121.2058661263826
 30
0.0
 10
121.6601019661128
 20
-121.2058661263826
 30
0.0
 10
121.2790744054441
 20
-121.2058661263826
 30
0.0
 10
121.2790744054441
 20
-121.2058661263826
 30
0.0
 10
121.2790744054441
 20
-121.2058661263826
 30
0.0
 10
121.2790744054441
 20
-121.0458414410927
 30
0.0
 10
121.2790744054441
 20
-121.0458414410927
 30
0.0
 10
121.662858042501
 20
-121.0298217470863
 30
0.0
 10
121.7166015320709
 20
-120.8536051130158
 30
0.0
 10
121.7507079773748
 20
-120.7300984398696
 30
0.0
 10
121.7507079773748
 20
-120.7300984398696
 30
0.0
 10
121.9191731466035
 20
-120.7300984398696
 30
0.0
 10
121.9191731466035
 20
-120.7300984398696
 30
0.0
 10
121.9191731466035
 20
-120.7300984398696
 30
0.0
 10
121.9191731466035
 20
-122.4001084763444
 30
0.0
 10
121.9191731466035
 20
-122.4001084763444
 30
0.0
 10
121.9191731466035
 20
-122.4001084763444
 30
0.0
 10
121.6601019661128
 20
-122.4001084763444
 30
0.0
 10
121.6601019661128
 20
-122.4001084763444
 30
0.0
  0
HATCH
  5
12B
330
126
100
AcDbEntity
  8
_U+30EC_U+30A4_U+30E4_U+30FC 1
 62
   179
420
  2234388
100
AcDbHatch
 10
0.0
 20
0.0
 30
0.0
210
0.0
220
0.0
230
1.0
  2
SOLID
 70
     1
 71
     0
 91
        1
 92
        1
 93
        1
 72
     4
 94
        3
 73
     0
 74
     1
 95
       26
 96
       22
 40
0.0
 40
0.0
 40
0.0
 40
0.0
 40
1.0
 40
1.0
 40
1.0
 40
2.0
 40
2.0
 40
2.0
 40
3.0
 40
3.0
 40
3.0
 40
4.0
 40
4.0
 40
4.0
 40
5.0
 40
5.0
 40
5.0
 40
6.0
 40
6.0
 40
6.0
 40
7.0
 40
7.0
 40
7.0
 40
7.0
 10
121.6601019661128
 20
-122.4001084763444
 10
121.6601019661128
 20
-122.4001084763444
 10
121.6601019661128
 20
-121.2058661263826
 10
121.6601019661128
 20
-121.2058661263826
 10
121.6601019661128
 20
-121.2058661263826
 10
121.2790744054441
 20
-121.2058661263826
 10
121.2790744054441
 20
-121.2058661263826
 10
121.2790744054441
 20
-121.2058661263826
 10
121.2790744054441
 20
-121.0458414410927
 10
121.2790744054441
 20
-121.0458414410927
 10
121.662858042501
 20
-121.0298217470863
 10
121.7166015320709
 20
-120.8536051130158
 10
121.7507079773748
 20
-120.7300984398696
 10
121.7507079773748
 20
-120.7300984398696
 10
121.9191731466035
 20
-120.7300984398696
 10
121.9191731466035
 20
-120.7300984398696
 10
121.9191731466035
 20
-120.7300984398696
 10
121.9191731466035
 20
-122.4001084763444
 10
121.9191731466035
 20
-122.4001084763444
 10
121.9191731466035
 20
-122.4001084763444
 10
121.6601019661128
 20
-122.4001084763444
 10
121.6601019661128
 20
-122.4001084763444
 97
        0
 97
        0
 75
     2
 76
     1
 98
        0
  0
SPLINE
  5
12C
330
126
100
AcDbEntity
  8
_U+30EC_U+30A4_U+30E4_U+30FC 1
370
     0
100
AcDbSpline
210
0.0
220
0.0
230
1.0
 70
    11
 71
     3
 72
    53
 73
    49
 74
     0
 42
0.0000000001
 43
0.0000000001
 12
1.0
 22
0.0
 32
0.0
 13
1.0
 23
0.0
 33
0.0
 40
0.0
 40
0.0
 40
0.0
 40
0.0
 40
1.0
 40
1.0
 40
1.0
 40
2.0
 40
2.0
 40
2.0
 40
3.0
 40
3.0
 40
3.0
 40
4.0
 40
4.0
 40
4.0
 40
5.0
 40
5.0
 40
5.0
 40
6.0
 40
6.0
 40
6.0
 40
7.0
 40
7.0
 40
7.0
 40
8.0
 40
8.0
 40
8.0
 40
9.0
 40
9.0
 40
9.0
 40
10.0
 40
10.0
 40
10.0
 40
11.0
 40
11.0
 40
11.0
 40
12.0
 40
12.0
 40
12.0
 40
13.0
 40
13.0
 40
13.0
 40
14.0
 40
14.0
 40
14.0
 40
15.0
 40
15.0
 40
15.0
 40
16.0
 40
16.0
 40
16.0
 40
16.0
 10
123.0526095612507
 20
-122.4550577493342
 30
0.0
 10
122.9623480595372
 20
-122.4550577493342
 30
0.0
 10
122.8452148130387
 20
-122.4366264884881
 30
0.0
 10
122.7277370569917
 20
-122.3680690883316
 30
0.0
 10
122.5275770092987
 20
-122.2490410393162
 30
0.0
 10
122.5027723218049
 20
-122.1072753600982
 30
0.0
 10
122.4810682202478
 20
-121.9906588779225
 30
0.0
 10
122.4810682202478
 20
-121.9906588779225
 30
0.0
 10
122.7377278338989
 20
-121.9906588779225
 30
0.0
 10
122.7377278338989
 20
-121.9906588779225
 30
0.0
 10
122.8011175908275
 20
-122.2056328362021
 30
0.0
 10
122.9478786584991
 20
-122.2376722242149
 30
0.0
 10
123.0553656376389
 20
-122.2376722242149
 30
0.0
 10
123.2165961063486
 20
-122.2376722242149
 30
0.0
 10
123.3926404856449
 20
-122.1301852450751
 30
0.0
 10
123.3926404856449
 20
-121.8785210198776
 30
0.0
 10
123.3926404856449
 20
-121.6017075976378
 30
0.0
 10
123.1849012278843
 20
-121.5262600065108
 30
0.0
 10
123.0457193702802
 20
-121.5262600065108
 30
0.0
 10
123.0088568485881
 20
-121.5262600065108
 30
0.0
 10
122.8452148130387
 20
-121.5262600065108
 30
0.0
 10
122.7425509675783
 20
-121.6657863736634
 30
0.0
 10
122.7425509675783
 20
-121.6657863736634
 30
0.0
 10
122.539634843497
 20
-121.6451158007519
 30
0.0
 10
122.539634843497
 20
-121.6451158007519
 30
0.0
 10
122.539634843497
 20
-121.6451158007519
 30
0.0
 10
122.6791612106497
 20
-120.7300984398696
 30
0.0
 10
122.6791612106497
 20
-120.7300984398696
 30
0.0
 10
122.6791612106497
 20
-120.7300984398696
 30
0.0
 10
123.5783311322999
 20
-120.7300984398696
 30
0.0
 10
123.5783311322999
 20
-120.7300984398696
 30
0.0
 10
123.5783311322999
 20
-120.7300984398696
 30
0.0
 10
123.5783311322999
 20
-120.9405937740183
 30
0.0
 10
123.5783311322999
 20
-120.9405937740183
 30
0.0
 10
123.5783311322999
 20
-120.9405937740183
 30
0.0
 10
122.8672634241443
 20
-120.9405937740183
 30
0.0
 10
122.8672634241443
 20
-120.9405937740183
 30
0.0
 10
122.8672634241443
 20
-120.9405937740183
 30
0.0
 10
122.7914713234688
 20
-121.3981024544595
 30
0.0
 10
122.7914713234688
 20
-121.3981024544595
 30
0.0
 10
122.8624402904649
 20
-121.3614121875416
 30
0.0
 10
122.9575249258578
 20
-121.3180039844274
 30
0.0
 10
123.0946397261708
 20
-121.3180039844274
 30
0.0
 10
123.387472842417
 20
-121.3180039844274
 30
0.0
 10
123.6613579334944
 20
-121.5193698155403
 30
0.0
 10
123.6613579334944
 20
-121.8578504469661
 30
0.0
 10
123.6613579334944
 20
-122.2011542120712
 30
0.0
 10
123.4022867530036
 20
-122.4550577493342
 30
0.0
 10
123.0526095612507
 20
-122.4550577493342
 30
0.0
  0
HATCH
  5
12D
330
126
100
AcDbEntity
  8
_U+30EC_U+30A4_U+30E4_U+30FC 1
 62
   179
420
  2234388
100
AcDbHatch
 10
0.0
 20
0.0
 30
0.0
210
0.0
220
0.0
230
1.0
  2
SOLID
 70
     1
 71
     0
 91
        1
 92
        1
 93
        1
 72
     4
 94
        3
 73
     0
 74
     1
 95
       53
 96
       49
 40
0.0
 40
0.0
 40
0.0
 40
0.0
 40
1.0
 40
1.0
 40
1.0
 40
2.0
 40
2.0
 40
2.0
 40
3.0
 40
3.0
 40
3.0
 40
4.0
 40
4.0
 40
4.0
 40
5.0
 40
5.0
 40
5.0
 40
6.0
 40
6.0
 40
6.0
 40
7.0
 40
7.0
 40
7.0
 40
8.0
 40
8.0
 40
8.0
 40
9.0
 40
9.0
 40
9.0
 40
10.0
 40
10.0
 40
10.0
 40
11.0
 40
11.0
 40
11.0
 40
12.0
 40
12.0
 40
12.0
 40
13.0
 40
13.0
 40
13.0
 40
14.0
 40
14.0
 40
14.0
 40
15.0
 40
15.0
 40
15.0
 40
16.0
 40
16.0
 40
16.0
 40
16.0
 10
123.0526095612507
 20
-122.4550577493342
 10
122.9623480595372
 20
-122.4550577493342
 10
122.8452148130387
 20
-122.4366264884881
 10
122.7277370569917
 20
-122.3680690883316
 10
122.5275770092987
 20
-122.2490410393162
 10
122.5027723218049
 20
-122.1072753600982
 10
122.4810682202478
 20
-121.9906588779225
 10
122.4810682202478
 20
-121.9906588779225
 10
122.7377278338989
 20
-121.9906588779225
 10
122.7377278338989
 20
-121.9906588779225
 10
122.8011175908275
 20
-122.2056328362021
 10
122.9478786584991
 20
-122.2376722242149
 10
123.0553656376389
 20
-122.2376722242149
 10
123.2165961063486
 20
-122.2376722242149
 10
123.3926404856449
 20
-122.1301852450751
 10
123.3926404856449
 20
-121.8785210198776
 10
123.3926404856449
 20
-121.6017075976378
 10
123.1849012278843
 20
-121.5262600065108
 10
123.0457193702802
 20
-121.5262600065108
 10
123.0088568485881
 20
-121.5262600065108
 10
122.8452148130387
 20
-121.5262600065108
 10
122.7425509675783
 20
-121.6657863736634
 10
122.7425509675783
 20
-121.6657863736634
 10
122.539634843497
 20
-121.6451158007519
 10
122.539634843497
 20
-121.6451158007519
 10
122.539634843497
 20
-121.6451158007519
 10
122.6791612106497
 20
-120.7300984398696
 10
122.6791612106497
 20
-120.7300984398696
 10
122.6791612106497
 20
-120.7300984398696
 10
123.5783311322999
 20
-120.7300984398696
 10
123.5783311322999
 20
-120.7300984398696
 10
123.5783311322999
 20
-120.7300984398696
 10
123.5783311322999
 20
-120.9405937740183
 10
123.5783311322999
 20
-120.9405937740183
 10
123.5783311322999
 20
-120.9405937740183
 10
122.8672634241443
 20
-120.9405937740183
 10
122.8672634241443
 20
-120.9405937740183
 10
122.8672634241443
 20
-120.9405937740183
 10
122.7914713234688
 20
-121.3981024544595
 10
122.7914713234688
 20
-121.3981024544595
 10
122.8624402904649
 20
-121.3614121875416
 10
122.9575249258578
 20
-121.3180039844274
 10
123.0946397261708
 20
-121.3180039844274
 10
123.387472842417
 20
-121.3180039844274
 10
123.6613579334944
 20
-121.5193698155403
 10
123.6613579334944
 20
-121.8578504469661
 10
123.6613579334944
 20
-122.2011542120712
 10
123.4022867530036
 20
-122.4550577493342
 10
123.0526095612507
 20
-122.4550577493342
 97
        0
 97
        0
 75
     2
 76
     1
 98
        0
  0
ENDBLK
  5
129
330
126
100
AcDbEntity
  8
0
100
AcDbBlockEnd
  0
BLOCK
  5
138
330
136
100
AcDbEntity
  8
0
100
AcDbBlockBegin
  2
block 7
 70
     0
 10
0.0
 20
0.0
 30
0.0
  3
block 7
  1

  0
SPLINE
  5
13A
330
136
100
AcDbEntity
  8
_U+30EC_U+30A4_U+30E4_U+30FC 1
370
     0
100
AcDbSpline
210
0.0
220
0.0
230
1.0
 70
    11
 71
     3
 72
    26
 73
    22
 74
     0
 42
0.0000000001
 43
0.0000000001
 12
1.0
 22
0.0
 32
0.0
 13
1.0
 23
0.0
 33
0.0
 40
0.0
 40
0.0
 40
0.0
 40
0.0
 40
1.0
 40
1.0
 40
1.0
 40
2.0
 40
2.0
 40
2.0
 40
3.0
 40
3.0
 40
3.0
 40
4.0
 40
4.0
 40
4.0
 40
5.0
 40
5.0
 40
5.0
 40
6.0
 40
6.0
 40
6.0
 40
7.0
 40
7.0
 40
7.0
 40
7.0
 10
56.56037189341199
 20
-135.7725911118902
 30
0.0
 10
56.56037189341199
 20
-135.7725911118902
 30
0.0
 10
56.56037189341199
 20
-134.5785210167026
 30
0.0
 10
56.56037189341199
 20
-134.5785210167026
 30
0.0
 10
56.56037189341199
 20
-134.5785210167026
 30
0.0
 10
56.1791720779691
 20
-134.5785210167026
 30
0.0
 10
56.1791720779691
 20
-134.5785210167026
 30
0.0
 10
56.1791720779691
 20
-134.5785210167026
 30
0.0
 10
56.1791720779691
 20
-134.4183240766385
 30
0.0
 10
56.1791720779691
 20
-134.4183240766385
 30
0.0
 10
56.56278346025167
 20
-134.4024766374063
 30
0.0
 10
56.61652694982156
 20
-134.2264322581101
 30
0.0
 10
56.6508056498998
 20
-134.1027533301896
 30
0.0
 10
56.6508056498998
 20
-134.1027533301896
 30
0.0
 10
56.81944307390278
 20
-134.1027533301896
 30
0.0
 10
56.81944307390278
 20
-134.1027533301896
 30
0.0
 10
56.81944307390278
 20
-134.1027533301896
 30
0.0
 10
56.81944307390278
 20
-135.7725911118902
 30
0.0
 10
56.81944307390278
 20
-135.7725911118902
 30
0.0
 10
56.81944307390278
 20
-135.7725911118902
 30
0.0
 10
56.56037189341199
 20
-135.7725911118902
 30
0.0
 10
56.56037189341199
 20
-135.7725911118902
 30
0.0
  0
HATCH
  5
13B
330
136
100
AcDbEntity
  8
_U+30EC_U+30A4_U+30E4_U+30FC 1
 62
   179
420
  2234388
100
AcDbHatch
 10
0.0
 20
0.0
 30
0.0
210
0.0
220
0.0
230
1.0
  2
SOLID
 70
     1
 71
     0
 91
        1
 92
        1
 93
        1
 72
     4
 94
        3
 73
     0
 74
     1
 95
       26
 96
       22
 40
0.0
 40
0.0
 40
0.0
 40
0.0
 40
1.0
 40
1.0
 40
1.0
 40
2.0
 40
2.0
 40
2.0
 40
3.0
 40
3.0
 40
3.0
 40
4.0
 40
4.0
 40
4.0
 40
5.0
 40
5.0
 40
5.0
 40
6.0
 40
6.0
 40
6.0
 40
7.0
 40
7.0
 40
7.0
 40
7.0
 10
56.56037189341199
 20
-135.7725911118902
 10
56.56037189341199
 20
-135.7725911118902
 10
56.56037189341199
 20
-134.5785210167026
 10
56.56037189341199
 20
-134.5785210167026
 10
56.56037189341199
 20
-134.5785210167026
 10
56.1791720779691
 20
-134.5785210167026
 10
56.1791720779691
 20
-134.5785210167026
 10
56.1791720779691
 20
-134.5785210167026
 10
56.1791720779691
 20
-134.4183240766385
 10
56.1791720779691
 20
-134.4183240766385
 10
56.56278346025167
 20
-134.4024766374063
 10
56.61652694982156
 20
-134.2264322581101
 10
56.6508056498998
 20
-134.1027533301896
 10
56.6508056498998
 20
-134.1027533301896
 10
56.81944307390278
 20
-134.1027533301896
 10
56.81944307390278
 20
-134.1027533301896
 10
56.81944307390278
 20
-134.1027533301896
 10
56.81944307390278
 20
-135.7725911118902
 10
56.81944307390278
 20
-135.7725911118902
 10
56.81944307390278
 20
-135.7725911118902
 10
56.56037189341199
 20
-135.7725911118902
 10
56.56037189341199
 20
-135.7725911118902
 97
        0
 97
        0
 75
     2
 76
     1
 98
        0
  0
SPLINE
  5
13C
330
136
100
AcDbEntity
  8
_U+30EC_U+30A4_U+30E4_U+30FC 1
370
     0
100
AcDbSpline
210
0.0
220
0.0
230
1.0
 70
    11
 71
     3
 72
    26
 73
    22
 74
     0
 42
0.0000000001
 43
0.0000000001
 12
1.0
 22
0.0
 32
0.0
 13
1.0
 23
0.0
 33
0.0
 40
0.0
 40
0.0
 40
0.0
 40
0.0
 40
1.0
 40
1.0
 40
1.0
 40
2.0
 40
2.0
 40
2.0
 40
3.0
 40
3.0
 40
3.0
 40
4.0
 40
4.0
 40
4.0
 40
5.0
 40
5.0
 40
5.0
 40
6.0
 40
6.0
 40
6.0
 40
7.0
 40
7.0
 40
7.0
 40
7.0
 10
57.91877304324601
 20
-135.7725911118902
 30
0.0
 10
57.91877304324601
 20
-135.7725911118902
 30
0.0
 10
57.91877304324601
 20
-134.5785210167026
 30
0.0
 10
57.91877304324601
 20
-134.5785210167026
 30
0.0
 10
57.91877304324601
 20
-134.5785210167026
 30
0.0
 10
57.53757322780311
 20
-134.5785210167026
 30
0.0
 10
57.53757322780311
 20
-134.5785210167026
 30
0.0
 10
57.53757322780311
 20
-134.5785210167026
 30
0.0
 10
57.53757322780311
 20
-134.4183240766385
 30
0.0
 10
57.53757322780311
 20
-134.4183240766385
 30
0.0
 10
57.92118461008568
 20
-134.4024766374063
 30
0.0
 10
57.97492809965558
 20
-134.2264322581101
 30
0.0
 10
58.00920679973381
 20
-134.1027533301896
 30
0.0
 10
58.00920679973381
 20
-134.1027533301896
 30
0.0
 10
58.17784422373679
 20
-134.1027533301896
 30
0.0
 10
58.17784422373679
 20
-134.1027533301896
 30
0.0
 10
58.17784422373679
 20
-134.1027533301896
 30
0.0
 10
58.17784422373679
 20
-135.7725911118902
 30
0.0
 10
58.17784422373679
 20
-135.7725911118902
 30
0.0
 10
58.17784422373679
 20
-135.7725911118902
 30
0.0
 10
57.91877304324601
 20
-135.7725911118902
 30
0.0
 10
57.91877304324601
 20
-135.7725911118902
 30
0.0
  0
HATCH
  5
13D
330
136
100
AcDbEntity
  8
_U+30EC_U+30A4_U+30E4_U+30FC 1
 62
   179
420
  2234388
100
AcDbHatch
 10
0.0
 20
0.0
 30
0.0
210
0.0
220
0.0
230
1.0
  2
SOLID
 70
     1
 71
     0
 91
        1
 92
        1
 93
        1
 72
     4
 94
        3
 73
     0
 74
     1
 95
       26
 96
       22
 40
0.0
 40
0.0
 40
0.0
 40
0.0
 40
1.0
 40
1.0
 40
1.0
 40
2.0
 40
2.0
 40
2.0
 40
3.0
 40
3.0
 40
3.0
 40
4.0
 40
4.0
 40
4.0
 40
5.0
 40
5.0
 40
5.0
 40
6.0
 40
6.0
 40
6.0
 40
7.0
 40
7.0
 40
7.0
 40
7.0
 10
57.91877304324601
 20
-135.7725911118902
 10
57.91877304324601
 20
-135.7725911118902
 10
57.91877304324601
 20
-134.5785210167026
 10
57.91877304324601
 20
-134.5785210167026
 10
57.91877304324601
 20
-134.5785210167026
 10
57.53757322780311
 20
-134.5785210167026
 10
57.53757322780311
 20
-134.5785210167026
 10
57.53757322780311
 20
-134.5785210167026
 10
57.53757322780311
 20
-134.4183240766385
 10
57.53757322780311
 20
-134.4183240766385
 10
57.92118461008568
 20
-134.4024766374063
 10
57.97492809965558
 20
-134.2264322581101
 10
58.00920679973381
 20
-134.1027533301896
 10
58.00920679973381
 20
-134.1027533301896
 10
58.17784422373679
 20
-134.1027533301896
 10
58.17784422373679
 20
-134.1027533301896
 10
58.17784422373679
 20
-134.1027533301896
 10
58.17784422373679
 20
-135.7725911118902
 10
58.17784422373679
 20
-135.7725911118902
 10
58.17784422373679
 20
-135.7725911118902
 10
57.91877304324601
 20
-135.7725911118902
 10
57.91877304324601
 20
-135.7725911118902
 97
        0
 97
        0
 75
     2
 76
     1
 98
        0
  0
ENDBLK
  5
139
330
136
100
AcDbEntity
  8
0
100
AcDbBlockEnd
  0
BLOCK
  5
148
330
146
100
AcDbEntity
  8
0
100
AcDbBlockBegin
  2
block 8
 70
     0
 10
0.0
 20
0.0
 30
0.0
  3
block 8
  1

  0
SPLINE
  5
14A
330
146
100
AcDbEntity
  8
_U+30EC_U+30A4_U+30E4_U+30FC 1
370
     0
100
AcDbSpline
210
0.0
220
0.0
230
1.0
 70
    11
 71
     3
 72
    53
 73
    49
 74
     0
 42
0.0000000001
 43
0.0000000001
 12
1.0
 22
0.0
 32
0.0
 13
1.0
 23
0.0
 33
0.0
 40
0.0
 40
0.0
 40
0.0
 40
0.0
 40
1.0
 40
1.0
 40
1.0
 40
2.0
 40
2.0
 40
2.0
 40
3.0
 40
3.0
 40
3.0
 40
4.0
 40
4.0
 40
4.0
 40
5.0
 40
5.0
 40
5.0
 40
6.0
 40
6.0
 40
6.0
 40
7.0
 40
7.0
 40
7.0
 40
8.0
 40
8.0
 40
8.0
 40
9.0
 40
9.0
 40
9.0
 40
10.0
 40
10.0
 40
10.0
 40
11.0
 40
11.0
 40
11.0
 40
12.0
 40
12.0
 40
12.0
 40
13.0
 40
13.0
 40
13.0
 40
14.0
 40
14.0
 40
14.0
 40
15.0
 40
15.0
 40
15.0
 40
16.0
 40
16.0
 40
16.0
 40
16.0
 10
119.7101779214614
 20
-135.8277126396542
 30
0.0
 10
119.6199164197478
 20
-135.8277126396542
 30
0.0
 10
119.5027831732493
 20
-135.8094536335824
 30
0.0
 10
119.3853054172023
 20
-135.7408962334259
 30
0.0
 10
119.1851453695093
 20
-135.6216959296362
 30
0.0
 10
119.1603406820155
 20
-135.479757995644
 30
0.0
 10
119.1386365804584
 20
-135.3633137682425
 30
0.0
 10
119.1386365804584
 20
-135.3633137682425
 30
0.0
 10
119.3952961941095
 20
-135.3633137682425
 30
0.0
 10
119.3952961941095
 20
-135.3633137682425
 30
0.0
 10
119.4586859510381
 20
-135.5782877265221
 30
0.0
 10
119.6054470187098
 20
-135.6103271145349
 30
0.0
 10
119.7129339978495
 20
-135.6103271145349
 30
0.0
 10
119.8741644665592
 20
-135.6103271145349
 30
0.0
 10
120.0502088458555
 20
-135.5028401353951
 30
0.0
 10
120.0502088458555
 20
-135.2510036554234
 30
0.0
 10
120.0502088458555
 20
-134.9743624879578
 30
0.0
 10
119.8424695880949
 20
-134.8989148968308
 30
0.0
 10
119.7032877304909
 20
-134.8989148968308
 30
0.0
 10
119.6664252087987
 20
-134.8989148968308
 30
0.0
 10
119.5027831732493
 20
-134.8989148968308
 30
0.0
 10
119.4001193277889
 20
-135.0384412639835
 30
0.0
 10
119.4001193277889
 20
-135.0384412639835
 30
0.0
 10
119.1972032037076
 20
-135.0177706910719
 30
0.0
 10
119.1972032037076
 20
-135.0177706910719
 30
0.0
 10
119.1972032037076
 20
-135.0177706910719
 30
0.0
 10
119.3367295708603
 20
-134.1027533301896
 30
0.0
 10
119.3367295708603
 20
-134.1027533301896
 30
0.0
 10
119.3367295708603
 20
-134.1027533301896
 30
0.0
 10
120.2358994925105
 20
-134.1027533301896
 30
0.0
 10
120.2358994925105
 20
-134.1027533301896
 30
0.0
 10
120.2358994925105
 20
-134.1027533301896
 30
0.0
 10
120.2358994925105
 20
-134.3132486643384
 30
0.0
 10
120.2358994925105
 20
-134.3132486643384
 30
0.0
 10
120.2358994925105
 20
-134.3132486643384
 30
0.0
 10
119.5248317843549
 20
-134.3132486643384
 30
0.0
 10
119.5248317843549
 20
-134.3132486643384
 30
0.0
 10
119.5248317843549
 20
-134.3132486643384
 30
0.0
 10
119.4490396836794
 20
-134.7707573447795
 30
0.0
 10
119.4490396836794
 20
-134.7707573447795
 30
0.0
 10
119.5200086506756
 20
-134.7342393326359
 30
0.0
 10
119.6150932860685
 20
-134.6908311295217
 30
0.0
 10
119.7522080863814
 20
-134.6908311295217
 30
0.0
 10
120.0450412026276
 20
-134.6908311295217
 30
0.0
 10
120.318926293705
 20
-134.8920247058603
 30
0.0
 10
120.318926293705
 20
-135.2303330825119
 30
0.0
 10
120.318926293705
 20
-135.5738091023913
 30
0.0
 10
120.0598551132142
 20
-135.8277126396542
 30
0.0
 10
119.7101779214614
 20
-135.8277126396542
 30
0.0
  0
HATCH
  5
14B
330
146
100
AcDbEntity
  8
_U+30EC_U+30A4_U+30E4_U+30FC 1
 62
   179
420
  2234388
100
AcDbHatch
 10
0.0
 20
0.0
 30
0.0
210
0.0
220
0.0
230
1.0
  2
SOLID
 70
     1
 71
     0
 91
        1
 92
        1
 93
        1
 72
     4
 94
        3
 73
     0
 74
     1
 95
       53
 96
       49
 40
0.0
 40
0.0
 40
0.0
 40
0.0
 40
1.0
 40
1.0
 40
1.0
 40
2.0
 40
2.0
 40
2.0
 40
3.0
 40
3.0
 40
3.0
 40
4.0
 40
4.0
 40
4.0
 40
5.0
 40
5.0
 40
5.0
 40
6.0
 40
6.0
 40
6.0
 40
7.0
 40
7.0
 40
7.0
 40
8.0
 40
8.0
 40
8.0
 40
9.0
 40
9.0
 40
9.0
 40
10.0
 40
10.0
 40
10.0
 40
11.0
 40
11.0
 40
11.0
 40
12.0
 40
12.0
 40
12.0
 40
13.0
 40
13.0
 40
13.0
 40
14.0
 40
14.0
 40
14.0
 40
15.0
 40
15.0
 40
15.0
 40
16.0
 40
16.0
 40
16.0
 40
16.0
 10
119.7101779214614
 20
-135.8277126396542
 10
119.6199164197478
 20
-135.8277126396542
 10
119.5027831732493
 20
-135.8094536335824
 10
119.3853054172023
 20
-135.7408962334259
 10
119.1851453695093
 20
-135.6216959296362
 10
119.1603406820155
 20
-135.479757995644
 10
119.1386365804584
 20
-135.3633137682425
 10
119.1386365804584
 20
-135.3633137682425
 10
119.3952961941095
 20
-135.3633137682425
 10
119.3952961941095
 20
-135.3633137682425
 10
119.4586859510381
 20
-135.5782877265221
 10
119.6054470187098
 20
-135.6103271145349
 10
119.7129339978495
 20
-135.6103271145349
 10
119.8741644665592
 20
-135.6103271145349
 10
120.0502088458555
 20
-135.5028401353951
 10
120.0502088458555
 20
-135.2510036554234
 10
120.0502088458555
 20
-134.9743624879578
 10
119.8424695880949
 20
-134.8989148968308
 10
119.7032877304909
 20
-134.8989148968308
 10
119.6664252087987
 20
-134.8989148968308
 10
119.5027831732493
 20
-134.8989148968308
 10
119.4001193277889
 20
-135.0384412639835
 10
119.4001193277889
 20
-135.0384412639835
 10
119.1972032037076
 20
-135.0177706910719
 10
119.1972032037076
 20
-135.0177706910719
 10
119.1972032037076
 20
-135.0177706910719
 10
119.3367295708603
 20
-134.1027533301896
 10
119.3367295708603
 20
-134.1027533301896
 10
119.3367295708603
 20
-134.1027533301896
 10
120.2358994925105
 20
-134.1027533301896
 10
120.2358994925105
 20
-134.1027533301896
 10
120.2358994925105
 20
-134.1027533301896
 10
120.2358994925105
 20
-134.3132486643384
 10
120.2358994925105
 20
-134.3132486643384
 10
120.2358994925105
 20
-134.3132486643384
 10
119.5248317843549
 20
-134.3132486643384
 10
119.5248317843549
 20
-134.3132486643384
 10
119.5248317843549
 20
-134.3132486643384
 10
119.4490396836794
 20
-134.7707573447795
 10
119.4490396836794
 20
-134.7707573447795
 10
119.5200086506756
 20
-134.7342393326359
 10
119.6150932860685
 20
-134.6908311295217
 10
119.7522080863814
 20
-134.6908311295217
 10
120.0450412026276
 20
-134.6908311295217
 10
120.318926293705
 20
-134.8920247058603
 10
120.318926293705
 20
-135.2303330825119
 10
120.318926293705
 20
-135.5738091023913
 10
120.0598551132142
 20
-135.8277126396542
 10
119.7101779214614
 20
-135.8277126396542
 97
        0
 97
        0
 75
     2
 76
     1
 98
        0
  0
ENDBLK
  5
149
330
146
100
AcDbEntity
  8
0
100
AcDbBlockEnd
  0
BLOCK
  5
15A
330
158
100
AcDbEntity
  8
0
100
AcDbBlockBegin
  2
block 9
 70
     0
 10
0.0
 20
0.0
 30
0.0
  3
block 9
  1

  0
SPLINE
  5
15C
330
158
100
AcDbEntity
  8
_U+30EC_U+30A4_U+30E4_U+30FC 1
370
     0
100
AcDbSpline
210
0.0
220
0.0
230
1.0
 70
    11
 71
     3
 72
    32
 73
    28
 74
     0
 42
0.0000000001
 43
0.0000000001
 12
1.0
 22
0.0
 32
0.0
 13
1.0
 23
0.0
 33
0.0
 40
0.0
 40
0.0
 40
0.0
 40
0.0
 40
1.0
 40
1.0
 40
1.0
 40
2.0
 40
2.0
 40
2.0
 40
3.0
 40
3.0
 40
3.0
 40
4.0
 40
4.0
 40
4.0
 40
5.0
 40
5.0
 40
5.0
 40
6.0
 40
6.0
 40
6.0
 40
7.0
 40
7.0
 40
7.0
 40
8.0
 40
8.0
 40
8.0
 40
9.0
 40
9.0
 40
9.0
 40
9.0
 10
88.36756047052964
 20
-135.8277126396542
 30
0.0
 10
88.16722816806237
 20
-135.8277126396542
 30
0.0
 10
87.8836968096263
 20
-135.7519205389787
 30
0.0
 10
87.83977184218936
 20
-135.3929415894157
 30
0.0
 10
87.83977184218936
 20
-135.3929415894157
 30
0.0
 10
88.08661293370751
 20
-135.3929415894157
 30
0.0
 10
88.08661293370751
 20
-135.3929415894157
 30
0.0
 10
88.09884302268016
 20
-135.4570203654413
 30
0.0
 10
88.13553328959806
 20
-135.6172173055054
 30
0.0
 10
88.37014429214358
 20
-135.6172173055054
 30
0.0
 10
88.70724688537527
 20
-135.6172173055054
 30
0.0
 10
88.75134410758648
 20
-135.2603054132335
 30
0.0
 10
88.76598576339879
 20
-135.0384412639835
 30
0.0
 10
88.66091035109866
 20
-135.1252576702117
 30
0.0
 10
88.5827066835835
 20
-135.1869248793977
 30
0.0
 10
88.37255585898325
 20
-135.1869248793977
 30
0.0
 10
88.16481660122268
 20
-135.1869248793977
 30
0.0
 10
87.81531166424409
 20
-135.0725477092874
 30
0.0
 10
87.81531166424409
 20
-134.6336425444666
 30
0.0
 10
87.81531166424409
 20
-134.2877549577475
 30
0.0
 10
88.04509953311026
 20
-134.0500433692653
 30
0.0
 10
88.41165769274085
 20
-134.0500433692653
 30
0.0
 10
89.00541989962365
 20
-134.0500433692653
 30
0.0
 10
89.01764998859629
 20
-134.6494899836987
 30
0.0
 10
89.01764998859629
 20
-134.8803113812105
 30
0.0
 10
89.01764998859629
 20
-135.1297362943426
 30
0.0
 10
88.99577363226496
 20
-135.8277126396542
 30
0.0
 10
88.36756047052964
 20
-135.8277126396542
 30
0.0
  0
SPLINE
  5
15D
330
158
100
AcDbEntity
  8
_U+30EC_U+30A4_U+30E4_U+30FC 1
370
     0
100
AcDbSpline
210
0.0
220
0.0
230
1.0
 70
    11
 71
     3
 72
    17
 73
    13
 74
     0
 42
0.0000000001
 43
0.0000000001
 12
1.0
 22
0.0
 32
0.0
 13
1.0
 23
0.0
 33
0.0
 40
0.0
 40
0.0
 40
0.0
 40
0.0
 40
1.0
 40
1.0
 40
1.0
 40
2.0
 40
2.0
 40
2.0
 40
3.0
 40
3.0
 40
3.0
 40
4.0
 40
4.0
 40
4.0
 40
4.0
 10
88.41406925958051
 20
-134.2581271365744
 30
0.0
 10
88.27712671404183
 20
-134.2581271365744
 30
0.0
 10
88.07438284473488
 20
-134.3201388553089
 30
0.0
 10
88.07438284473488
 20
-134.6288194107873
 30
0.0
 10
88.07438284473488
 20
-134.87342119024
 30
0.0
 10
88.23561331344457
 20
-134.9767740547975
 30
0.0
 10
88.39202064847491
 20
-134.9767740547975
 30
0.0
 10
88.69501679640264
 20
-134.9767740547975
 30
0.0
 10
88.73911401861383
 20
-134.750086771868
 30
0.0
 10
88.73911401861383
 20
-134.6243407866564
 30
0.0
 10
88.73911401861383
 20
-134.4345160254192
 30
0.0
 10
88.6290432178601
 20
-134.2581271365744
 30
0.0
 10
88.41406925958051
 20
-134.2581271365744
 30
0.0
  0
HATCH
  5
15E
330
158
100
AcDbEntity
  8
_U+30EC_U+30A4_U+30E4_U+30FC 1
 62
   179
420
  2234388
100
AcDbHatch
 10
0.0
 20
0.0
 30
0.0
210
0.0
220
0.0
230
1.0
  2
SOLID
 70
     1
 71
     0
 91
        2
 92
        1
 93
        1
 72
     4
 94
        3
 73
     0
 74
     1
 95
       32
 96
       28
 40
0.0
 40
0.0
 40
0.0
 40
0.0
 40
1.0
 40
1.0
 40
1.0
 40
2.0
 40
2.0
 40
2.0
 40
3.0
 40
3.0
 40
3.0
 40
4.0
 40
4.0
 40
4.0
 40
5.0
 40
5.0
 40
5.0
 40
6.0
 40
6.0
 40
6.0
 40
7.0
 40
7.0
 40
7.0
 40
8.0
 40
8.0
 40
8.0
 40
9.0
 40
9.0
 40
9.0
 40
9.0
 10
88.36756047052964
 20
-135.8277126396542
 10
88.16722816806237
 20
-135.8277126396542
 10
87.8836968096263
 20
-135.7519205389787
 10
87.83977184218936
 20
-135.3929415894157
 10
87.83977184218936
 20
-135.3929415894157
 10
88.08661293370751
 20
-135.3929415894157
 10
88.08661293370751
 20
-135.3929415894157
 10
88.09884302268016
 20
-135.4570203654413
 10
88.13553328959806
 20
-135.6172173055054
 10
88.37014429214358
 20
-135.6172173055054
 10
88.70724688537527
 20
-135.6172173055054
 10
88.75134410758648
 20
-135.2603054132335
 10
88.76598576339879
 20
-135.0384412639835
 10
88.66091035109866
 20
-135.1252576702117
 10
88.5827066835835
 20
-135.1869248793977
 10
88.37255585898325
 20
-135.1869248793977
 10
88.16481660122268
 20
-135.1869248793977
 10
87.81531166424409
 20
-135.0725477092874
 10
87.81531166424409
 20
-134.6336425444666
 10
87.81531166424409
 20
-134.2877549577475
 10
88.04509953311026
 20
-134.0500433692653
 10
88.41165769274085
 20
-134.0500433692653
 10
89.00541989962365
 20
-134.0500433692653
 10
89.01764998859629
 20
-134.6494899836987
 10
89.01764998859629
 20
-134.8803113812105
 10
89.01764998859629
 20
-135.1297362943426
 10
88.99577363226496
 20
-135.8277126396542
 10
88.36756047052964
 20
-135.8277126396542
 97
        0
 97
        0
 92
        1
 93
        1
 72
     4
 94
        3
 73
     0
 74
     1
 95
       17
 96
       13
 40
0.0
 40
0.0
 40
0.0
 40
0.0
 40
1.0
 40
1.0
 40
1.0
 40
2.0
 40
2.0
 40
2.0
 40
3.0
 40
3.0
 40
3.0
 40
4.0
 40
4.0
 40
4.0
 40
4.0
 10
88.41406925958051
 20
-134.2581271365744
 10
88.27712671404183
 20
-134.2581271365744
 10
88.07438284473488
 20
-134.3201388553089
 10
88.07438284473488
 20
-134.6288194107873
 10
88.07438284473488
 20
-134.87342119024
 10
88.23561331344457
 20
-134.9767740547975
 10
88.39202064847491
 20
-134.9767740547975
 10
88.69501679640264
 20
-134.9767740547975
 10
88.73911401861383
 20
-134.750086771868
 10
88.73911401861383
 20
-134.6243407866564
 10
88.73911401861383
 20
-134.4345160254192
 10
88.6290432178601
 20
-134.2581271365744
 10
88.41406925958051
 20
-134.2581271365744
 97
        0
 97
        0
 75
     2
 76
     1
 98
        0
  0
SPLINE
  5
15F
330
158
100
AcDbEntity
  8
_U+30EC_U+30A4_U+30E4_U+30FC 1
370
     0
100
AcDbSpline
210
0.0
220
0.0
230
1.0
 70
    11
 71
     3
 72
    53
 73
    49
 74
     0
 42
0.0000000001
 43
0.0000000001
 12
1.0
 22
0.0
 32
0.0
 13
1.0
 23
0.0
 33
0.0
 40
0.0
 40
0.0
 40
0.0
 40
0.0
 40
1.0
 40
1.0
 40
1.0
 40
2.0
 40
2.0
 40
2.0
 40
3.0
 40
3.0
 40
3.0
 40
4.0
 40
4.0
 40
4.0
 40
5.0
 40
5.0
 40
5.0
 40
6.0
 40
6.0
 40
6.0
 40
7.0
 40
7.0
 40
7.0
 40
8.0
 40
8.0
 40
8.0
 40
9.0
 40
9.0
 40
9.0
 40
10.0
 40
10.0
 40
10.0
 40
11.0
 40
11.0
 40
11.0
 40
12.0
 40
12.0
 40
12.0
 40
13.0
 40
13.0
 40
13.0
 40
14.0
 40
14.0
 40
14.0
 40
15.0
 40
15.0
 40
15.0
 40
16.0
 40
16.0
 40
16.0
 40
16.0
 10
89.7528333651486
 20
-135.8277126396542
 30
0.0
 10
89.66239960866079
 20
-135.8277126396542
 30
0.0
 10
89.5452663621623
 20
-135.8094536335824
 30
0.0
 10
89.42778860611529
 20
-135.7408962334259
 30
0.0
 10
89.227456303648
 20
-135.6216959296362
 30
0.0
 10
89.20299612570273
 20
-135.479757995644
 30
0.0
 10
89.18111976937139
 20
-135.3633137682425
 30
0.0
 10
89.18111976937139
 20
-135.3633137682425
 30
0.0
 10
89.43760712824825
 20
-135.3633137682425
 30
0.0
 10
89.43760712824825
 20
-135.3633137682425
 30
0.0
 10
89.5011691399511
 20
-135.5782877265221
 30
0.0
 10
89.64775795284848
 20
-135.6103271145349
 30
0.0
 10
89.75541718676254
 20
-135.6103271145349
 30
0.0
 10
89.91664765547223
 20
-135.6103271145349
 30
0.0
 10
90.0926920347685
 20
-135.5028401353951
 30
0.0
 10
90.0926920347685
 20
-135.2510036554234
 30
0.0
 10
90.0926920347685
 20
-134.9743624879578
 30
0.0
 10
89.88495277700794
 20
-134.8989148968308
 30
0.0
 10
89.74559866462958
 20
-134.8989148968308
 30
0.0
 10
89.70890839771167
 20
-134.8989148968308
 30
0.0
 10
89.5452663621623
 20
-134.8989148968308
 30
0.0
 10
89.44260251670185
 20
-135.0384412639835
 30
0.0
 10
89.44260251670185
 20
-135.0384412639835
 30
0.0
 10
89.23968639262064
 20
-135.0177706910719
 30
0.0
 10
89.23968639262064
 20
-135.0177706910719
 30
0.0
 10
89.23968639262064
 20
-135.0177706910719
 30
0.0
 10
89.379040504999
 20
-134.1027533301896
 30
0.0
 10
89.379040504999
 20
-134.1027533301896
 30
0.0
 10
89.379040504999
 20
-134.1027533301896
 30
0.0
 10
90.27838268142347
 20
-134.1027533301896
 30
0.0
 10
90.27838268142347
 20
-134.1027533301896
 30
0.0
 10
90.27838268142347
 20
-134.1027533301896
 30
0.0
 10
90.27838268142347
 20
-134.3132486643384
 30
0.0
 10
90.27838268142347
 20
-134.3132486643384
 30
0.0
 10
90.27838268142347
 20
-134.3132486643384
 30
0.0
 10
89.56714271849364
 20
-134.3132486643384
 30
0.0
 10
89.56714271849364
 20
-134.3132486643384
 30
0.0
 10
89.56714271849364
 20
-134.3132486643384
 30
0.0
 10
89.49135061781814
 20
-134.7707573447795
 30
0.0
 10
89.49135061781814
 20
-134.7707573447795
 30
0.0
 10
89.56231958481429
 20
-134.7342393326359
 30
0.0
 10
89.65757647498144
 20
-134.6908311295217
 30
0.0
 10
89.79451902052013
 20
-134.6908311295217
 30
0.0
 10
90.08769664631488
 20
-134.6908311295217
 30
0.0
 10
90.36140948261799
 20
-134.8920247058603
 30
0.0
 10
90.36140948261799
 20
-135.2303330825119
 30
0.0
 10
90.36140948261799
 20
-135.5738091023913
 30
0.0
 10
90.1023383021272
 20
-135.8277126396542
 30
0.0
 10
89.7528333651486
 20
-135.8277126396542
 30
0.0
  0
HATCH
  5
160
330
158
100
AcDbEntity
  8
_U+30EC_U+30A4_U+30E4_U+30FC 1
 62
   179
420
  2234388
100
AcDbHatch
 10
0.0
 20
0.0
 30
0.0
210
0.0
220
0.0
230
1.0
  2
SOLID
 70
     1
 71
     0
 91
        1
 92
        1
 93
        1
 72
     4
 94
        3
 73
     0
 74
     1
 95
       53
 96
       49
 40
0.0
 40
0.0
 40
0.0
 40
0.0
 40
1.0
 40
1.0
 40
1.0
 40
2.0
 40
2.0
 40
2.0
 40
3.0
 40
3.0
 40
3.0
 40
4.0
 40
4.0
 40
4.0
 40
5.0
 40
5.0
 40
5.0
 40
6.0
 40
6.0
 40
6.0
 40
7.0
 40
7.0
 40
7.0
 40
8.0
 40
8.0
 40
8.0
 40
9.0
 40
9.0
 40
9.0
 40
10.0
 40
10.0
 40
10.0
 40
11.0
 40
11.0
 40
11.0
 40
12.0
 40
12.0
 40
12.0
 40
13.0
 40
13.0
 40
13.0
 40
14.0
 40
14.0
 40
14.0
 40
15.0
 40
15.0
 40
15.0
 40
16.0
 40
16.0
 40
16.0
 40
16.0
 10
89.7528333651486
 20
-135.8277126396542
 10
89.66239960866079
 20
-135.8277126396542
 10
89.5452663621623
 20
-135.8094536335824
 10
89.42778860611529
 20
-135.7408962334259
 10
89.227456303648
 20
-135.6216959296362
 10
89.20299612570273
 20
-135.479757995644
 10
89.18111976937139
 20
-135.3633137682425
 10
89.18111976937139
 20
-135.3633137682425
 10
89.43760712824825
 20
-135.3633137682425
 10
89.43760712824825
 20
-135.3633137682425
 10
89.5011691399511
 20
-135.5782877265221
 10
89.64775795284848
 20
-135.6103271145349
 10
89.75541718676254
 20
-135.6103271145349
 10
89.91664765547223
 20
-135.6103271145349
 10
90.0926920347685
 20
-135.5028401353951
 10
90.0926920347685
 20
-135.2510036554234
 10
90.0926920347685
 20
-134.9743624879578
 10
89.88495277700794
 20
-134.8989148968308
 10
89.74559866462958
 20
-134.8989148968308
 10
89.70890839771167
 20
-134.8989148968308
 10
89.5452663621623
 20
-134.8989148968308
 10
89.44260251670185
 20
-135.0384412639835
 10
89.44260251670185
 20
-135.0384412639835
 10
89.23968639262064
 20
-135.0177706910719
 10
89.23968639262064
 20
-135.0177706910719
 10
89.23968639262064
 20
-135.0177706910719
 10
89.379040504999
 20
-134.1027533301896
 10
89.379040504999
 20
-134.1027533301896
 10
89.379040504999
 20
-134.1027533301896
 10
90.27838268142347
 20
-134.1027533301896
 10
90.27838268142347
 20
-134.1027533301896
 10
90.27838268142347
 20
-134.1027533301896
 10
90.27838268142347
 20
-134.3132486643384
 10
90.27838268142347
 20
-134.3132486643384
 10
90.27838268142347
 20
-134.3132486643384
 10
89.56714271849364
 20
-134.3132486643384
 10
89.56714271849364
 20
-134.3132486643384
 10
89.56714271849364
 20
-134.3132486643384
 10
89.49135061781814
 20
-134.7707573447795
 10
89.49135061781814
 20
-134.7707573447795
 10
89.56231958481429
 20
-134.7342393326359
 10
89.65757647498144
 20
-134.6908311295217
 10
89.79451902052013
 20
-134.6908311295217
 10
90.08769664631488
 20
-134.6908311295217
 10
90.36140948261799
 20
-134.8920247058603
 10
90.36140948261799
 20
-135.2303330825119
 10
90.36140948261799
 20
-135.5738091023913
 10
90.1023383021272
 20
-135.8277126396542
 10
89.7528333651486
 20
-135.8277126396542
 97
        0
 97
        0
 75
     2
 76
     1
 98
        0
  0
ENDBLK
  5
15B
330
158
100
AcDbEntity
  8
0
100
AcDbBlockEnd
  0
ENDSEC
  0
SECTION
  2
ENTITIES
  0
SPLINE
  5
41
330
1F
100
AcDbEntity
  8
_U+30EC_U+30A4_U+30E4_U+30FC 1
370
     0
100
AcDbSpline
210
0.0
220
0.0
230
1.0
 70
    11
 71
     3
 72
   104
 73
   100
 74
     0
 42
0.0000000001
 43
0.0000000001
 12
1.0
 22
0.0
 32
0.0
 13
1.0
 23
0.0
 33
0.0
 40
0.0
 40
0.0
 40
0.0
 40
0.0
 40
1.0
 40
1.0
 40
1.0
 40
2.0
 40
2.0
 40
2.0
 40
3.0
 40
3.0
 40
3.0
 40
4.0
 40
4.0
 40
4.0
 40
5.0
 40
5.0
 40
5.0
 40
6.0
 40
6.0
 40
6.0
 40
7.0
 40
7.0
 40
7.0
 40
8.0
 40
8.0
 40
8.0
 40
9.0
 40
9.0
 40
9.0
 40
10.0
 40
10.0
 40
10.0
 40
11.0
 40
11.0
 40
11.0
 40
12.0
 40
12.0
 40
12.0
 40
13.0
 40
13.0
 40
13.0
 40
14.0
 40
14.0
 40
14.0
 40
15.0
 40
15.0
 40
15.0
 40
16.0
 40
16.0
 40
16.0
 40
17.0
 40
17.0
 40
17.0
 40
18.0
 40
18.0
 40
18.0
 40
19.0
 40
19.0
 40
19.0
 40
20.0
 40
20.0
 40
20.0
 40
21.0
 40
21.0
 40
21.0
 40
22.0
 40
22.0
 40
22.0
 40
23.0
 40
23.0
 40
23.0
 40
24.0
 40
24.0
 40
24.0
 40
25.0
 40
25.0
 40
25.0
 40
26.0
 40
26.0
 40
26.0
 40
27.0
 40
27.0
 40
27.0
 40
28.0
 40
28.0
 40
28.0
 40
29.0
 40
29.0
 40
29.0
 40
30.0
 40
30.0
 40
30.0
 40
31.0
 40
31.0
 40
31.0
 40
32.0
 40
32.0
 40
32.0
 40
33.0
 40
33.0
 40
33.0
 40
33.0
 10
54.98422526390222
 20
-127.1176513571094
 30
0.0
 10
54.98422526390222
 20
-127.1176513571094
 30
0.0
 10
61.09909871900991
 20
-127.1176513571094
 30
0.0
 10
61.09909871900991
 20
-127.1176513571094
 30
0.0
 10
61.09909871900991
 20
-127.1176513571094
 30
0.0
 10
61.86356814395111
 20
-127.4116916348139
 30
0.0
 10
61.80465425656524
 20
-127.9408583013483
 30
0.0
 10
61.80465425656524
 20
-127.9408583013483
 30
0.0
 10
61.80465425656524
 20
-132.8208333001281
 30
0.0
 10
61.80465425656524
 20
-132.8208333001281
 30
0.0
 10
61.80465425656524
 20
-132.8208333001281
 30
0.0
 10
61.74574036917937
 20
-133.0561360778469
 30
0.0
 10
62.09851813795704
 20
-133.1150499667215
 30
0.0
 10
62.09851813795704
 20
-133.1150499667215
 30
0.0
 10
92.73162291199698
 20
-133.1150499667215
 30
0.0
 10
92.73162291199698
 20
-133.1150499667215
 30
0.0
 10
92.73162291199698
 20
-133.1150499667215
 30
0.0
 10
117.5435417234366
 20
-133.1736110778177
 30
0.0
 10
117.5435417234366
 20
-133.1736110778177
 30
0.0
 10
117.5435417234366
 20
-133.1736110778177
 30
0.0
 10
117.9552333796002
 20
-133.2325249666917
 30
0.0
 10
117.9552333796002
 20
-132.8797471890021
 30
0.0
 10
117.9552333796002
 20
-132.8797471890021
 30
0.0
 10
117.9552333796002
 20
-128.4111110790084
 30
0.0
 10
117.9552333796002
 20
-128.4111110790084
 30
0.0
 10
117.9552333796002
 20
-128.4111110790084
 30
0.0
 10
117.7199306078255
 20
-128.117247190193
 30
0.0
 10
117.7199306078255
 20
-128.117247190193
 30
0.0
 10
117.7199306078255
 20
-128.117247190193
 30
0.0
 10
114.4274556918235
 20
-128.1759846901781
 30
0.0
 10
114.4274556918235
 20
-128.1759846901781
 30
0.0
 10
114.4274556918235
 20
-128.1759846901781
 30
0.0
 10
113.1338196137158
 20
-127.2938638570653
 30
0.0
 10
114.4274556918235
 20
-126.6472221905604
 30
0.0
 10
114.4274556918235
 20
-126.6472221905604
 30
0.0
 10
118.6607889171555
 20
-126.6472221905604
 30
0.0
 10
118.6607889171555
 20
-126.6472221905604
 30
0.0
 10
118.6607889171555
 20
-126.6472221905604
 30
0.0
 10
119.8955111078774
 20
-125.2950249686764
 30
0.0
 10
119.8955111078774
 20
-125.2950249686764
 30
0.0
 10
119.8955111078774
 20
-125.2950249686764
 30
0.0
 10
126.1276831711036
 20
-125.2950249686764
 30
0.0
 10
126.1276831711036
 20
-125.2950249686764
 30
0.0
 10
126.1276831711036
 20
-125.2950249686764
 30
0.0
 10
127.656622020986
 20
-126.8236110794052
 30
0.0
 10
127.656622020986
 20
-126.8236110794052
 30
0.0
 10
127.656622020986
 20
-126.8236110794052
 30
0.0
 10
127.8330109053749
 20
-127.1763888570948
 30
0.0
 10
127.3624053618255
 20
-127.1763888570948
 30
0.0
 10
127.3624053618255
 20
-127.1763888570948
 30
0.0
 10
125.9512942867148
 20
-125.8240152463219
 30
0.0
 10
125.9512942867148
 20
-125.8240152463219
 30
0.0
 10
125.9512942867148
 20
-125.8240152463219
 30
0.0
 10
120.1304611018833
 20
-125.7652777463365
 30
0.0
 10
120.1304611018833
 20
-125.7652777463365
 30
0.0
 10
120.1304611018833
 20
-125.7652777463365
 30
0.0
 10
118.8371778015443
 20
-127.0587374682354
 30
0.0
 10
118.8371778015443
 20
-127.0587374682354
 30
0.0
 10
118.8371778015443
 20
-127.0587374682354
 30
0.0
 10
114.7802334606012
 20
-126.99999996825
 30
0.0
 10
114.7802334606012
 20
-126.99999996825
 30
0.0
 10
114.6038445762123
 20
-126.99999996825
 30
0.0
 10
114.1918354200569
 20
-126.99999996825
 30
0.0
 10
114.3682243044457
 20
-127.3527777459396
 30
0.0
 10
114.3682243044457
 20
-127.3527777459396
 30
0.0
 10
114.0746779230458
 20
-127.6466416347549
 30
0.0
 10
115.0151834546071
 20
-127.7642930236146
 30
0.0
 10
115.0151834546071
 20
-127.7642930236146
 30
0.0
 10
117.6024556108225
 20
-127.7642930236146
 30
0.0
 10
117.6024556108225
 20
-127.7642930236146
 30
0.0
 10
117.6024556108225
 20
-127.7642930236146
 30
0.0
 10
118.3080111483778
 20
-127.8232069124886
 30
0.0
 10
118.3665722579949
 20
-128.2347221901636
 30
0.0
 10
118.3665722579949
 20
-128.2347221901636
 30
0.0
 10
118.3665722579949
 20
-132.8793944112244
 30
0.0
 10
118.3665722579949
 20
-132.8793944112244
 30
0.0
 10
118.3665722579949
 20
-132.8793944112244
 30
0.0
 10
118.249097260992
 20
-133.5849499666035
 30
0.0
 10
117.073288957656
 20
-133.5849499666035
 30
0.0
 10
117.073288957656
 20
-133.5849499666035
 30
0.0
 10
98.43462832205675
 20
-133.5849499666035
 30
0.0
 10
98.43462832205675
 20
-133.5849499666035
 30
0.0
 10
98.43462832205675
 20
-133.5849499666035
 30
0.0
 10
62.56894729262206
 20
-133.5849499666035
 30
0.0
 10
62.56894729262206
 20
-133.5849499666035
 30
0.0
 10
62.56894729262206
 20
-133.5849499666035
 30
0.0
 10
61.33422510190022
 20
-133.9380805220709
 30
0.0
 10
61.33422510190022
 20
-132.4094944113423
 30
0.0
 10
61.33422510190022
 20
-132.4094944113423
 30
0.0
 10
61.33422510190022
 20
-127.9408583013483
 30
0.0
 10
61.33422510190022
 20
-127.9408583013483
 30
0.0
 10
61.33422510190022
 20
-127.9408583013483
 30
0.0
 10
61.56952787367493
 20
-127.6466416347549
 30
0.0
 10
60.80505844873372
 20
-127.5291666347844
 30
0.0
 10
60.80505844873372
 20
-127.5291666347844
 30
0.0
 10
54.92531137651635
 20
-127.5291666347844
 30
0.0
 10
54.92531137651635
 20
-127.5291666347844
 30
0.0
 10
54.92531137651635
 20
-127.5291666347844
 30
0.0
 10
54.69036138251042
 20
-127.3527777459396
 30
0.0
 10
54.98422526390222
 20
-127.1176513571094
 30
0.0
  0
HATCH
  5
42
330
1F
100
AcDbEntity
  8
_U+30EC_U+30A4_U+30E4_U+30FC 1
 62
   253
420
 10066329
100
AcDbHatch
 10
0.0
 20
0.0
 30
0.0
210
0.0
220
0.0
230
1.0
  2
SOLID
 70
     1
 71
     0
 91
        1
 92
        1
 93
        1
 72
     4
 94
        3
 73
     0
 74
     1
 95
      104
 96
      100
 40
0.0
 40
0.0
 40
0.0
 40
0.0
 40
1.0
 40
1.0
 40
1.0
 40
2.0
 40
2.0
 40
2.0
 40
3.0
 40
3.0
 40
3.0
 40
4.0
 40
4.0
 40
4.0
 40
5.0
 40
5.0
 40
5.0
 40
6.0
 40
6.0
 40
6.0
 40
7.0
 40
7.0
 40
7.0
 40
8.0
 40
8.0
 40
8.0
 40
9.0
 40
9.0
 40
9.0
 40
10.0
 40
10.0
 40
10.0
 40
11.0
 40
11.0
 40
11.0
 40
12.0
 40
12.0
 40
12.0
 40
13.0
 40
13.0
 40
13.0
 40
14.0
 40
14.0
 40
14.0
 40
15.0
 40
15.0
 40
15.0
 40
16.0
 40
16.0
 40
16.0
 40
17.0
 40
17.0
 40
17.0
 40
18.0
 40
18.0
 40
18.0
 40
19.0
 40
19.0
 40
19.0
 40
20.0
 40
20.0
 40
20.0
 40
21.0
 40
21.0
 40
21.0
 40
22.0
 40
22.0
 40
22.0
 40
23.0
 40
23.0
 40
23.0
 40
24.0
 40
24.0
 40
24.0
 40
25.0
 40
25.0
 40
25.0
 40
26.0
 40
26.0
 40
26.0
 40
27.0
 40
27.0
 40
27.0
 40
28.0
 40
28.0
 40
28.0
 40
29.0
 40
29.0
 40
29.0
 40
30.0
 40
30.0
 40
30.0
 40
31.0
 40
31.0
 40
31.0
 40
32.0
 40
32.0
 40
32.0
 40
33.0
 40
33.0
 40
33.0
 40
33.0
 10
54.98422526390222
 20
-127.1176513571094
 10
54.98422526390222
 20
-127.1176513571094
 10
61.09909871900991
 20
-127.1176513571094
 10
61.09909871900991
 20
-127.1176513571094
 10
61.09909871900991
 20
-127.1176513571094
 10
61.86356814395111
 20
-127.4116916348139
 10
61.80465425656524
 20
-127.9408583013483
 10
61.80465425656524
 20
-127.9408583013483
 10
61.80465425656524
 20
-132.8208333001281
 10
61.80465425656524
 20
-132.8208333001281
 10
61.80465425656524
 20
-132.8208333001281
 10
61.74574036917937
 20
-133.0561360778469
 10
62.09851813795704
 20
-133.1150499667215
 10
62.09851813795704
 20
-133.1150499667215
 10
92.73162291199698
 20
-133.1150499667215
 10
92.73162291199698
 20
-133.1150499667215
 10
92.73162291199698
 20
-133.1150499667215
 10
117.5435417234366
 20
-133.1736110778177
 10
117.5435417234366
 20
-133.1736110778177
 10
117.5435417234366
 20
-133.1736110778177
 10
117.9552333796002
 20
-133.2325249666917
 10
117.9552333796002
 20
-132.8797471890021
 10
117.9552333796002
 20
-132.8797471890021
 10
117.9552333796002
 20
-128.4111110790084
 10
117.9552333796002
 20
-128.4111110790084
 10
117.9552333796002
 20
-128.4111110790084
 10
117.7199306078255
 20
-128.117247190193
 10
117.7199306078255
 20
-128.117247190193
 10
117.7199306078255
 20
-128.117247190193
 10
114.4274556918235
 20
-128.1759846901781
 10
114.4274556918235
 20
-128.1759846901781
 10
114.4274556918235
 20
-128.1759846901781
 10
113.1338196137158
 20
-127.2938638570653
 10
114.4274556918235
 20
-126.6472221905604
 10
114.4274556918235
 20
-126.6472221905604
 10
118.6607889171555
 20
-126.6472221905604
 10
118.6607889171555
 20
-126.6472221905604
 10
118.6607889171555
 20
-126.6472221905604
 10
119.8955111078774
 20
-125.2950249686764
 10
119.8955111078774
 20
-125.2950249686764
 10
119.8955111078774
 20
-125.2950249686764
 10
126.1276831711036
 20
-125.2950249686764
 10
126.1276831711036
 20
-125.2950249686764
 10
126.1276831711036
 20
-125.2950249686764
 10
127.656622020986
 20
-126.8236110794052
 10
127.656622020986
 20
-126.8236110794052
 10
127.656622020986
 20
-126.8236110794052
 10
127.8330109053749
 20
-127.1763888570948
 10
127.3624053618255
 20
-127.1763888570948
 10
127.3624053618255
 20
-127.1763888570948
 10
125.9512942867148
 20
-125.8240152463219
 10
125.9512942867148
 20
-125.8240152463219
 10
125.9512942867148
 20
-125.8240152463219
 10
120.1304611018833
 20
-125.7652777463365
 10
120.1304611018833
 20
-125.7652777463365
 10
120.1304611018833
 20
-125.7652777463365
 10
118.8371778015443
 20
-127.0587374682354
 10
118.8371778015443
 20
-127.0587374682354
 10
118.8371778015443
 20
-127.0587374682354
 10
114.7802334606012
 20
-126.99999996825
 10
114.7802334606012
 20
-126.99999996825
 10
114.6038445762123
 20
-126.99999996825
 10
114.1918354200569
 20
-126.99999996825
 10
114.3682243044457
 20
-127.3527777459396
 10
114.3682243044457
 20
-127.3527777459396
 10
114.0746779230458
 20
-127.6466416347549
 10
115.0151834546071
 20
-127.7642930236146
 10
115.0151834546071
 20
-127.7642930236146
 10
117.6024556108225
 20
-127.7642930236146
 10
117.6024556108225
 20
-127.7642930236146
 10
117.6024556108225
 20
-127.7642930236146
 10
118.3080111483778
 20
-127.8232069124886
 10
118.3665722579949
 20
-128.2347221901636
 10
118.3665722579949
 20
-128.2347221901636
 10
118.3665722579949
 20
-132.8793944112244
 10
118.3665722579949
 20
-132.8793944112244
 10
118.3665722579949
 20
-132.8793944112244
 10
118.249097260992
 20
-133.5849499666035
 10
117.073288957656
 20
-133.5849499666035
 10
117.073288957656
 20
-133.5849499666035
 10
98.43462832205675
 20
-133.5849499666035
 10
98.43462832205675
 20
-133.5849499666035
 10
98.43462832205675
 20
-133.5849499666035
 10
62.56894729262206
 20
-133.5849499666035
 10
62.56894729262206
 20
-133.5849499666035
 10
62.56894729262206
 20
-133.5849499666035
 10
61.33422510190022
 20
-133.9380805220709
 10
61.33422510190022
 20
-132.4094944113423
 10
61.33422510190022
 20
-132.4094944113423
 10
61.33422510190022
 20
-127.9408583013483
 10
61.33422510190022
 20
-127.9408583013483
 10
61.33422510190022
 20
-127.9408583013483
 10
61.56952787367493
 20
-127.6466416347549
 10
60.80505844873372
 20
-127.5291666347844
 10
60.80505844873372
 20
-127.5291666347844
 10
54.92531137651635
 20
-127.5291666347844
 10
54.92531137651635
 20
-127.5291666347844
 10
54.92531137651635
 20
-127.5291666347844
 10
54.69036138251042
 20
-127.3527777459396
 10
54.98422526390222
 20
-127.1176513571094
 97
        0
 97
        0
 75
     2
 76
     1
 98
        0
  0
POLYLINE
  5
43
330
1F
100
AcDbEntity
  8
_U+30EC_U+30A4_U+30E4_U+30FC 1
 62
   179
420
  2234388
370
    25
100
AcDb2dPolyline
 66
     1
 10
0.0
 20
0.0
 30
0.0
  0
VERTEX
  5
44
330
43
100
AcDbEntity
  8
_U+30EC_U+30A4_U+30E4_U+30FC 1
 62
   179
420
  2234388
370
    25
100
AcDbVertex
100
AcDb2dVertex
 10
62.08027952731123
 20
-133.5718619110514
 30
0.0
  0
VERTEX
  5
45
330
43
100
AcDbEntity
  8
_U+30EC_U+30A4_U+30E4_U+30FC 1
 62
   179
420
  2234388
370
    25
100
AcDbVertex
100
AcDb2dVertex
 10
117.6403792209661
 20
-133.5718619110514
 30
0.0
  0
SEQEND
  5
46
330
43
100
AcDbEntity
  8
_U+30EC_U+30A4_U+30E4_U+30FC 1
 62
   179
420
  2234388
370
    25
  0
POLYLINE
  5
47
330
1F
100
AcDbEntity
  8
_U+30EC_U+30A4_U+30E4_U+30FC 1
 62
   179
420
  2234388
370
    25
100
AcDb2dPolyline
 66
     1
 10
0.0
 20
0.0
 30
0.0
  0
VERTEX
  5
48
330
47
100
AcDbEntity
  8
_U+30EC_U+30A4_U+30E4_U+30FC 1
 62
   179
420
  2234388
370
    25
100
AcDbVertex
100
AcDb2dVertex
 10
118.3603986470413
 20
-128.4154149678962
 30
0.0
  0
VERTEX
  5
49
330
47
100
AcDbEntity
  8
_U+30EC_U+30A4_U+30E4_U+30FC 1
 62
   179
420
  2234388
370
    25
100
AcDbVertex
100
AcDb2dVertex
 10
118.3603986470413
 20
-132.8518424667872
 30
0.0
  0
SEQEND
  5
4A
330
47
100
AcDbEntity
  8
_U+30EC_U+30A4_U+30E4_U+30FC 1
 62
   179
420
  2234388
370
    25
  0
POLYLINE
  5
4B
330
1F
100
AcDbEntity
  8
_U+30EC_U+30A4_U+30E4_U+30FC 1
 62
   179
420
  2234388
370
    25
100
AcDb2dPolyline
 66
     1
 10
0.0
 20
0.0
 30
0.0
  0
VERTEX
  5
4C
330
4B
100
AcDbEntity
  8
_U+30EC_U+30A4_U+30E4_U+30FC 1
 62
   179
420
  2234388
370
    25
100
AcDbVertex
100
AcDb2dVertex
 10
61.36043649012041
 20
-127.8717844124765
 30
0.0
  0
VERTEX
  5
4D
330
4B
100
AcDbEntity
  8
_U+30EC_U+30A4_U+30E4_U+30FC 1
 62
   179
420
  2234388
370
    25
100
AcDbVertex
100
AcDb2dVertex
 10
61.36043649012041
 20
-132.8518424667872
 30
0.0
  0
SEQEND
  5
4E
330
4B
100
AcDbEntity
  8
_U+30EC_U+30A4_U+30E4_U+30FC 1
 62
   179
420
  2234388
370
    25
  0
POLYLINE
  5
4F
330
1F
100
AcDbEntity
  8
_U+30EC_U+30A4_U+30E4_U+30FC 1
 62
   179
420
  2234388
370
    25
100
AcDb2dPolyline
 66
     1
 10
0.0
 20
0.0
 30
0.0
  0
VERTEX
  5
50
330
4F
100
AcDbEntity
  8
_U+30EC_U+30A4_U+30E4_U+30FC 1
 62
   179
420
  2234388
370
    25
100
AcDbVertex
100
AcDb2dVertex
 10
62.08027952731123
 20
-133.1515624667121
 30
0.0
  0
VERTEX
  5
51
330
4F
100
AcDbEntity
  8
_U+30EC_U+30A4_U+30E4_U+30FC 1
 62
   179
420
  2234388
370
    25
100
AcDbVertex
100
AcDb2dVertex
 10
117.6403792209661
 20
-133.1515624667121
 30
0.0
  0
SEQEND
  5
52
330
4F
100
AcDbEntity
  8
_U+30EC_U+30A4_U+30E4_U+30FC 1
 62
   179
420
  2234388
370
    25
  0
POLYLINE
  5
53
330
1F
100
AcDbEntity
  8
_U+30EC_U+30A4_U+30E4_U+30FC 1
 62
   179
420
  2234388
370
    25
100
AcDb2dPolyline
 66
     1
 10
0.0
 20
0.0
 30
0.0
  0
VERTEX
  5
54
330
53
100
AcDbEntity
  8
_U+30EC_U+30A4_U+30E4_U+30FC 1
 62
   179
420
  2234388
370
    25
100
AcDbVertex
100
AcDb2dVertex
 10
61.78038314607334
 20
-127.8717844124765
 30
0.0
  0
VERTEX
  5
55
330
53
100
AcDbEntity
  8
_U+30EC_U+30A4_U+30E4_U+30FC 1
 62
   179
420
  2234388
370
    25
100
AcDbVertex
100
AcDb2dVertex
 10
61.78038314607334
 20
-132.8518424667872
 30
0.0
  0
SEQEND
  5
56
330
53
100
AcDbEntity
  8
_U+30EC_U+30A4_U+30E4_U+30FC 1
 62
   179
420
  2234388
370
    25
  0
POLYLINE
  5
57
330
1F
100
AcDbEntity
  8
_U+30EC_U+30A4_U+30E4_U+30FC 1
 62
   179
420
  2234388
370
    25
100
AcDb2dPolyline
 66
     1
 10
0.0
 20
0.0
 30
0.0
  0
VERTEX
  5
58
330
57
100
AcDbEntity
  8
_U+30EC_U+30A4_U+30E4_U+30FC 1
 62
   179
420
  2234388
370
    25
100
AcDbVertex
100
AcDb2dVertex
 10
117.9400992133196
 20
-128.4154149678962
 30
0.0
  0
VERTEX
  5
59
330
57
100
AcDbEntity
  8
_U+30EC_U+30A4_U+30E4_U+30FC 1
 62
   179
420
  2234388
370
    25
100
AcDbVertex
100
AcDb2dVertex
 10
117.9400992133196
 20
-132.8518424667872
 30
0.0
  0
SEQEND
  5
5A
330
57
100
AcDbEntity
  8
_U+30EC_U+30A4_U+30E4_U+30FC 1
 62
   179
420
  2234388
370
    25
  0
POLYLINE
  5
5B
330
1F
100
AcDbEntity
  8
_U+30EC_U+30A4_U+30E4_U+30FC 1
 62
   179
420
  2234388
370
    25
100
AcDb2dPolyline
 66
     1
 10
0.0
 20
0.0
 30
0.0
  0
VERTEX
  5
5C
330
5B
100
AcDbEntity
  8
_U+30EC_U+30A4_U+30E4_U+30FC 1
 62
   179
420
  2234388
370
    25
100
AcDbVertex
100
AcDb2dVertex
 10
54.9702905420355
 20
-127.5717116347738
 30
0.0
  0
VERTEX
  5
5D
330
5B
100
AcDbEntity
  8
_U+30EC_U+30A4_U+30E4_U+30FC 1
 62
   179
420
  2234388
370
    25
100
AcDbVertex
100
AcDb2dVertex
 10
61.06036371999812
 20
-127.5717116347738
 30
0.0
  0
SEQEND
  5
5E
330
5B
100
AcDbEntity
  8
_U+30EC_U+30A4_U+30E4_U+30FC 1
 62
   179
420
  2234388
370
    25
  0
POLYLINE
  5
5F
330
1F
100
AcDbEntity
  8
_U+30EC_U+30A4_U+30E4_U+30FC 1
 62
   179
420
  2234388
370
    25
100
AcDb2dPolyline
 66
     1
 10
0.0
 20
0.0
 30
0.0
  0
VERTEX
  5
60
330
5F
100
AcDbEntity
  8
_U+30EC_U+30A4_U+30E4_U+30FC 1
 62
   179
420
  2234388
370
    25
100
AcDbVertex
100
AcDb2dVertex
 10
54.9702905420355
 20
-127.151764968212
 30
0.0
  0
VERTEX
  5
61
330
5F
100
AcDbEntity
  8
_U+30EC_U+30A4_U+30E4_U+30FC 1
 62
   179
420
  2234388
370
    25
100
AcDbVertex
100
AcDb2dVertex
 10
61.06036371999812
 20
-127.151764968212
 30
0.0
  0
SEQEND
  5
62
330
5F
100
AcDbEntity
  8
_U+30EC_U+30A4_U+30E4_U+30FC 1
 62
   179
420
  2234388
370
    25
  0
POLYLINE
  5
63
330
1F
100
AcDbEntity
  8
_U+30EC_U+30A4_U+30E4_U+30FC 1
 62
   179
420
  2234388
370
    25
100
AcDb2dPolyline
 66
     1
 10
0.0
 20
0.0
 30
0.0
  0
VERTEX
  5
64
330
63
100
AcDbEntity
  8
_U+30EC_U+30A4_U+30E4_U+30FC 1
 62
   179
420
  2234388
370
    25
100
AcDbVertex
100
AcDb2dVertex
 10
119.9168894406653
 20
-125.3516810797731
 30
0.0
  0
VERTEX
  5
65
330
63
100
AcDbEntity
  8
_U+30EC_U+30A4_U+30E4_U+30FC 1
 62
   179
420
  2234388
370
    25
100
AcDbVertex
100
AcDb2dVertex
 10
126.1573165036809
 20
-125.3516810797731
 30
0.0
  0
SEQEND
  5
66
330
63
100
AcDbEntity
  8
_U+30EC_U+30A4_U+30E4_U+30FC 1
 62
   179
420
  2234388
370
    25
  0
POLYLINE
  5
67
330
1F
100
AcDbEntity
  8
_U+30EC_U+30A4_U+30E4_U+30FC 1
 62
   179
420
  2234388
370
    25
100
AcDb2dPolyline
 66
     1
 10
0.0
 20
0.0
 30
0.0
  0
VERTEX
  5
68
330
67
100
AcDbEntity
  8
_U+30EC_U+30A4_U+30E4_U+30FC 1
 62
   179
420
  2234388
370
    25
100
AcDbVertex
100
AcDb2dVertex
 10
114.6141809648375
 20
-128.1153421901935
 30
0.0
  0
VERTEX
  5
69
330
67
100
AcDbEntity
  8
_U+30EC_U+30A4_U+30E4_U+30FC 1
 62
   179
420
  2234388
370
    25
100
AcDbVertex
100
AcDb2dVertex
 10
117.6403792209661
 20
-128.1153421901935
 30
0.0
  0
SEQEND
  5
6A
330
67
100
AcDbEntity
  8
_U+30EC_U+30A4_U+30E4_U+30FC 1
 62
   179
420
  2234388
370
    25
  0
POLYLINE
  5
6B
330
1F
100
AcDbEntity
  8
_U+30EC_U+30A4_U+30E4_U+30FC 1
 62
   179
420
  2234388
370
    25
100
AcDb2dPolyline
 66
     1
 10
0.0
 20
0.0
 30
0.0
  0
VERTEX
  5
6C
330
6B
100
AcDbEntity
  8
_U+30EC_U+30A4_U+30E4_U+30FC 1
 62
   179
420
  2234388
370
    25
100
AcDbVertex
100
AcDb2dVertex
 10
114.6141809648375
 20
-126.6081344127923
 30
0.0
  0
VERTEX
  5
6D
330
6B
100
AcDbEntity
  8
_U+30EC_U+30A4_U+30E4_U+30FC 1
 62
   179
420
  2234388
370
    25
100
AcDbVertex
100
AcDb2dVertex
 10
118.6601186393948
 20
-126.6081344127923
 30
0.0
  0
SEQEND
  5
6E
330
6B
100
AcDbEntity
  8
_U+30EC_U+30A4_U+30E4_U+30FC 1
 62
   179
420
  2234388
370
    25
  0
POLYLINE
  5
6F
330
1F
100
AcDbEntity
  8
_U+30EC_U+30A4_U+30E4_U+30FC 1
 62
   179
420
  2234388
370
    25
100
AcDb2dPolyline
 66
     1
 10
0.0
 20
0.0
 30
0.0
  0
VERTEX
  5
70
330
6F
100
AcDbEntity
  8
_U+30EC_U+30A4_U+30E4_U+30FC 1
 62
   179
420
  2234388
370
    25
100
AcDbVertex
100
AcDb2dVertex
 10
114.6141809648375
 20
-127.028257468243
 30
0.0
  0
VERTEX
  5
71
330
6F
100
AcDbEntity
  8
_U+30EC_U+30A4_U+30E4_U+30FC 1
 62
   179
420
  2234388
370
    25
100
AcDbVertex
100
AcDb2dVertex
 10
118.8344261349479
 20
-127.028257468243
 30
0.0
  0
SEQEND
  5
72
330
6F
100
AcDbEntity
  8
_U+30EC_U+30A4_U+30E4_U+30FC 1
 62
   179
420
  2234388
370
    25
  0
POLYLINE
  5
73
330
1F
100
AcDbEntity
  8
_U+30EC_U+30A4_U+30E4_U+30FC 1
 62
   179
420
  2234388
370
    25
100
AcDb2dPolyline
 66
     1
 10
0.0
 20
0.0
 30
0.0
  0
VERTEX
  5
74
330
73
100
AcDbEntity
  8
_U+30EC_U+30A4_U+30E4_U+30FC 1
 62
   179
420
  2234388
370
    25
100
AcDbVertex
100
AcDb2dVertex
 10
114.6141809648375
 20
-127.6953955236317
 30
0.0
  0
VERTEX
  5
75
330
73
100
AcDbEntity
  8
_U+30EC_U+30A4_U+30E4_U+30FC 1
 62
   179
420
  2234388
370
    25
100
AcDbVertex
100
AcDb2dVertex
 10
117.6403792209661
 20
-127.6953955236317
 30
0.0
  0
SEQEND
  5
76
330
73
100
AcDbEntity
  8
_U+30EC_U+30A4_U+30E4_U+30FC 1
 62
   179
420
  2234388
370
    25
  0
POLYLINE
  5
77
330
1F
100
AcDbEntity
  8
_U+30EC_U+30A4_U+30E4_U+30FC 1
 62
   179
420
  2234388
370
    25
100
AcDb2dPolyline
 66
     1
 10
0.0
 20
0.0
 30
0.0
  0
VERTEX
  5
78
330
77
100
AcDbEntity
  8
_U+30EC_U+30A4_U+30E4_U+30FC 1
 62
   179
420
  2234388
370
    25
100
AcDbVertex
100
AcDb2dVertex
 10
118.6601186393948
 20
-126.6081344127923
 30
0.0
  0
VERTEX
  5
79
330
77
100
AcDbEntity
  8
_U+30EC_U+30A4_U+30E4_U+30FC 1
 62
   179
420
  2234388
370
    25
100
AcDbVertex
100
AcDb2dVertex
 10
119.9168894406653
 20
-125.3516810797731
 30
0.0
  0
SEQEND
  5
7A
330
77
100
AcDbEntity
  8
_U+30EC_U+30A4_U+30E4_U+30FC 1
 62
   179
420
  2234388
370
    25
  0
POLYLINE
  5
7B
330
1F
100
AcDbEntity
  8
_U+30EC_U+30A4_U+30E4_U+30FC 1
 62
   179
420
  2234388
370
    25
100
AcDb2dPolyline
 66
     1
 10
0.0
 20
0.0
 30
0.0
  0
VERTEX
  5
7C
330
7B
100
AcDbEntity
  8
_U+30EC_U+30A4_U+30E4_U+30FC 1
 62
   179
420
  2234388
370
    25
100
AcDbVertex
100
AcDb2dVertex
 10
118.8344261349479
 20
-127.028257468243
 30
0.0
  0
VERTEX
  5
7D
330
7B
100
AcDbEntity
  8
_U+30EC_U+30A4_U+30E4_U+30FC 1
 62
   179
420
  2234388
370
    25
100
AcDbVertex
100
AcDb2dVertex
 10
120.0905266584576
 20
-125.7716630241127
 30
0.0
  0
SEQEND
  5
7E
330
7B
100
AcDbEntity
  8
_U+30EC_U+30A4_U+30E4_U+30FC 1
 62
   179
420
  2234388
370
    25
  0
POLYLINE
  5
7F
330
1F
100
AcDbEntity
  8
_U+30EC_U+30A4_U+30E4_U+30FC 1
 62
   179
420
  2234388
370
    25
100
AcDb2dPolyline
 66
     1
 10
0.0
 20
0.0
 30
0.0
  0
VERTEX
  5
80
330
7F
100
AcDbEntity
  8
_U+30EC_U+30A4_U+30E4_U+30FC 1
 62
   179
420
  2234388
370
    25
100
AcDbVertex
100
AcDb2dVertex
 10
120.0905266584576
 20
-125.7716630241127
 30
0.0
  0
VERTEX
  5
81
330
7F
100
AcDbEntity
  8
_U+30EC_U+30A4_U+30E4_U+30FC 1
 62
   179
420
  2234388
370
    25
100
AcDbVertex
100
AcDb2dVertex
 10
125.9833617858967
 20
-125.7716630241127
 30
0.0
  0
SEQEND
  5
82
330
7F
100
AcDbEntity
  8
_U+30EC_U+30A4_U+30E4_U+30FC 1
 62
   179
420
  2234388
370
    25
  0
POLYLINE
  5
83
330
1F
100
AcDbEntity
  8
_U+30EC_U+30A4_U+30E4_U+30FC 1
 62
   179
420
  2234388
370
    25
100
AcDb2dPolyline
 66
     1
 10
0.0
 20
0.0
 30
0.0
  0
VERTEX
  5
84
330
83
100
AcDbEntity
  8
_U+30EC_U+30A4_U+30E4_U+30FC 1
 62
   179
420
  2234388
370
    25
100
AcDbVertex
100
AcDb2dVertex
 10
125.9833617858967
 20
-125.7716630241127
 30
0.0
  0
VERTEX
  5
85
330
83
100
AcDbEntity
  8
_U+30EC_U+30A4_U+30E4_U+30FC 1
 62
   179
420
  2234388
370
    25
100
AcDbVertex
100
AcDb2dVertex
 10
127.3017981411494
 20
-127.0902758015608
 30
0.0
  0
SEQEND
  5
86
330
83
100
AcDbEntity
  8
_U+30EC_U+30A4_U+30E4_U+30FC 1
 62
   179
420
  2234388
370
    25
  0
POLYLINE
  5
87
330
1F
100
AcDbEntity
  8
_U+30EC_U+30A4_U+30E4_U+30FC 1
 62
   179
420
  2234388
370
    25
100
AcDb2dPolyline
 66
     1
 10
0.0
 20
0.0
 30
0.0
  0
VERTEX
  5
88
330
87
100
AcDbEntity
  8
_U+30EC_U+30A4_U+30E4_U+30FC 1
 62
   179
420
  2234388
370
    25
100
AcDbVertex
100
AcDb2dVertex
 10
126.1573165036809
 20
-125.3516810797731
 30
0.0
  0
VERTEX
  5
89
330
87
100
AcDbEntity
  8
_U+30EC_U+30A4_U+30E4_U+30FC 1
 62
   179
420
  2234388
370
    25
100
AcDbVertex
100
AcDb2dVertex
 10
127.5987664669065
 20
-126.7933074683017
 30
0.0
  0
SEQEND
  5
8A
330
87
100
AcDbEntity
  8
_U+30EC_U+30A4_U+30E4_U+30FC 1
 62
   179
420
  2234388
370
    25
  0
POLYLINE
  5
8B
330
1F
100
AcDbEntity
  8
_U+30EC_U+30A4_U+30E4_U+30FC 1
  6
AI-Linetype-1
 62
   179
420
  2234388
370
    25
100
AcDb2dPolyline
 66
     1
 10
0.0
 20
0.0
 30
0.0
  0
VERTEX
  5
8C
330
8B
100
AcDbEntity
  8
_U+30EC_U+30A4_U+30E4_U+30FC 1
  6
AI-Linetype-1
 62
   179
420
  2234388
370
    25
100
AcDbVertex
100
AcDb2dVertex
 10
114.9704159557492
 20
-127.151764968212
 30
0.0
  0
VERTEX
  5
8D
330
8B
100
AcDbEntity
  8
_U+30EC_U+30A4_U+30E4_U+30FC 1
  6
AI-Linetype-1
 62
   179
420
  2234388
370
    25
100
AcDbVertex
100
AcDb2dVertex
 10
121.0603127448275
 20
-127.151764968212
 30
0.0
  0
SEQEND
  5
8F
330
8B
100
AcDbEntity
  8
_U+30EC_U+30A4_U+30E4_U+30FC 1
  6
AI-Linetype-1
 62
   179
420
  2234388
370
    25
  0
POLYLINE
  5
90
330
1F
100
AcDbEntity
  8
_U+30EC_U+30A4_U+30E4_U+30FC 1
  6
AI-Linetype-2
 62
   179
420
  2234388
370
    25
100
AcDb2dPolyline
 66
     1
 10
0.0
 20
0.0
 30
0.0
  0
VERTEX
  5
91
330
90
100
AcDbEntity
  8
_U+30EC_U+30A4_U+30E4_U+30FC 1
  6
AI-Linetype-2
 62
   179
420
  2234388
370
    25
100
AcDbVertex
100
AcDb2dVertex
 10
114.9704159557492
 20
-127.5717116347738
 30
0.0
  0
VERTEX
  5
92
330
90
100
AcDbEntity
  8
_U+30EC_U+30A4_U+30E4_U+30FC 1
  6
AI-Linetype-2
 62
   179
420
  2234388
370
    25
100
AcDbVertex
100
AcDb2dVertex
 10
121.0603127448275
 20
-127.5717116347738
 30
0.0
  0
SEQEND
  5
94
330
90
100
AcDbEntity
  8
_U+30EC_U+30A4_U+30E4_U+30FC 1
  6
AI-Linetype-2
 62
   179
420
  2234388
370
    25
  0
POLYLINE
  5
95
330
1F
100
AcDbEntity
  8
_U+30EC_U+30A4_U+30E4_U+30FC 1
  6
AI-Linetype-3
 62
   179
420
  2234388
370
    25
100
AcDb2dPolyline
 66
     1
 10
0.0
 20
0.0
 30
0.0
  0
VERTEX
  5
96
330
95
100
AcDbEntity
  8
_U+30EC_U+30A4_U+30E4_U+30FC 1
  6
AI-Linetype-3
 62
   179
420
  2234388
370
    25
100
AcDbVertex
100
AcDb2dVertex
 10
121.7803321709027
 20
-127.8717844124765
 30
0.0
  0
VERTEX
  5
97
330
95
100
AcDbEntity
  8
_U+30EC_U+30A4_U+30E4_U+30FC 1
  6
AI-Linetype-3
 62
   179
420
  2234388
370
    25
100
AcDbVertex
100
AcDb2dVertex
 10
121.7803321709027
 20
-132.8518424667872
 30
0.0
  0
SEQEND
  5
99
330
95
100
AcDbEntity
  8
_U+30EC_U+30A4_U+30E4_U+30FC 1
  6
AI-Linetype-3
 62
   179
420
  2234388
370
    25
  0
POLYLINE
  5
9A
330
1F
100
AcDbEntity
  8
_U+30EC_U+30A4_U+30E4_U+30FC 1
  6
AI-Linetype-4
 62
   179
420
  2234388
370
    25
100
AcDb2dPolyline
 66
     1
 10
0.0
 20
0.0
 30
0.0
  0
VERTEX
  5
9B
330
9A
100
AcDbEntity
  8
_U+30EC_U+30A4_U+30E4_U+30FC 1
  6
AI-Linetype-4
 62
   179
420
  2234388
370
    25
100
AcDbVertex
100
AcDb2dVertex
 10
122.080404941025
 20
-133.1515624667121
 30
0.0
  0
VERTEX
  5
9C
330
9A
100
AcDbEntity
  8
_U+30EC_U+30A4_U+30E4_U+30FC 1
  6
AI-Linetype-4
 62
   179
420
  2234388
370
    25
100
AcDbVertex
100
AcDb2dVertex
 10
133.8588432516431
 20
-133.1515624667121
 30
0.0
  0
SEQEND
  5
9E
330
9A
100
AcDbEntity
  8
_U+30EC_U+30A4_U+30E4_U+30FC 1
  6
AI-Linetype-4
 62
   179
420
  2234388
370
    25
  0
POLYLINE
  5
9F
330
1F
100
AcDbEntity
  8
_U+30EC_U+30A4_U+30E4_U+30FC 1
  6
AI-Linetype-5
 62
   179
420
  2234388
370
    25
100
AcDb2dPolyline
 66
     1
 10
0.0
 20
0.0
 30
0.0
  0
VERTEX
  5
A0
330
9F
100
AcDbEntity
  8
_U+30EC_U+30A4_U+30E4_U+30FC 1
  6
AI-Linetype-5
 62
   179
420
  2234388
370
    25
100
AcDbVertex
100
AcDb2dVertex
 10
121.3603855149497
 20
-127.8717844124765
 30
0.0
  0
VERTEX
  5
A1
330
9F
100
AcDbEntity
  8
_U+30EC_U+30A4_U+30E4_U+30FC 1
  6
AI-Linetype-5
 62
   179
420
  2234388
370
    25
100
AcDbVertex
100
AcDb2dVertex
 10
121.3603855149497
 20
-132.8518424667872
 30
0.0
  0
SEQEND
  5
A3
330
9F
100
AcDbEntity
  8
_U+30EC_U+30A4_U+30E4_U+30FC 1
  6
AI-Linetype-5
 62
   179
420
  2234388
370
    25
  0
POLYLINE
  5
A4
330
1F
100
AcDbEntity
  8
_U+30EC_U+30A4_U+30E4_U+30FC 1
  6
AI-Linetype-6
 62
   179
420
  2234388
370
    25
100
AcDb2dPolyline
 66
     1
 10
0.0
 20
0.0
 30
0.0
  0
VERTEX
  5
A5
330
A4
100
AcDbEntity
  8
_U+30EC_U+30A4_U+30E4_U+30FC 1
  6
AI-Linetype-6
 62
   179
420
  2234388
370
    25
100
AcDbVertex
100
AcDb2dVertex
 10
122.080404941025
 20
-133.5718619110514
 30
0.0
  0
VERTEX
  5
A6
330
A4
100
AcDbEntity
  8
_U+30EC_U+30A4_U+30E4_U+30FC 1
  6
AI-Linetype-6
 62
   179
420
  2234388
370
    25
100
AcDbVertex
100
AcDb2dVertex
 10
133.775802744334
 20
-133.5718619110514
 30
0.0
  0
SEQEND
  5
A8
330
A4
100
AcDbEntity
  8
_U+30EC_U+30A4_U+30E4_U+30FC 1
  6
AI-Linetype-6
 62
   179
420
  2234388
370
    25
  0
SPLINE
  5
A9
330
1F
100
AcDbEntity
  8
_U+30EC_U+30A4_U+30E4_U+30FC 1
 62
   179
420
  2234388
370
    25
100
AcDbSpline
210
0.0
220
0.0
230
1.0
 70
     8
 71
     3
 72
    11
 73
     7
 74
     0
 42
0.0000000001
 43
0.0000000001
 12
1.0
 22
0.0
 32
0.0
 13
1.0
 23
0.0
 33
0.0
 40
0.0
 40
0.0
 40
0.0
 40
0.0
 40
1.0
 40
1.0
 40
1.0
 40
2.0
 40
2.0
 40
2.0
 40
2.0
 10
54.9702905420355
 20
-127.5717116347738
 30
0.0
 10
54.85436776721516
 20
-127.5717116347738
 30
0.0
 10
54.76031721405903
 20
-127.4778374681307
 30
0.0
 10
54.76031721405903
 20
-127.3617383014931
 30
0.0
 10
54.76031721405903
 20
-127.245815523744
 30
0.0
 10
54.85436776721516
 20
-127.151764968212
 30
0.0
 10
54.9702905420355
 20
-127.151764968212
 30
0.0
  0
SPLINE
  5
AA
330
1F
100
AcDbEntity
  8
_U+30EC_U+30A4_U+30E4_U+30FC 1
 62
   179
420
  2234388
370
    25
100
AcDbSpline
210
0.0
220
0.0
230
1.0
 70
     8
 71
     3
 72
     8
 73
     4
 74
     0
 42
0.0000000001
 43
0.0000000001
 12
1.0
 22
0.0
 32
0.0
 13
1.0
 23
0.0
 33
0.0
 40
0.0
 40
0.0
 40
0.0
 40
0.0
 40
1.0
 40
1.0
 40
1.0
 40
1.0
 10
61.36043649012041
 20
-127.8717844124765
 30
0.0
 10
61.36043649012041
 20
-127.7060846902958
 30
0.0
 10
61.22606343799299
 20
-127.5717116347738
 30
0.0
 10
61.06036371999812
 20
-127.5717116347738
 30
0.0
  0
SPLINE
  5
AB
330
1F
100
AcDbEntity
  8
_U+30EC_U+30A4_U+30E4_U+30FC 1
 62
   179
420
  2234388
370
    25
100
AcDbSpline
210
0.0
220
0.0
230
1.0
 70
     8
 71
     3
 72
     8
 73
     4
 74
     0
 42
0.0000000001
 43
0.0000000001
 12
1.0
 22
0.0
 32
0.0
 13
1.0
 23
0.0
 33
0.0
 40
0.0
 40
0.0
 40
0.0
 40
0.0
 40
1.0
 40
1.0
 40
1.0
 40
1.0
 10
61.78038314607334
 20
-132.8518424667872
 30
0.0
 10
61.78038314607334
 20
-133.0171894111901
 30
0.0
 10
61.91472092042387
 20
-133.1515624667121
 30
0.0
 10
62.08027952731123
 20
-133.1515624667121
 30
0.0
  0
SPLINE
  5
AC
330
1F
100
AcDbEntity
  8
_U+30EC_U+30A4_U+30E4_U+30FC 1
 62
   179
420
  2234388
370
    25
100
AcDbSpline
210
0.0
220
0.0
230
1.0
 70
     8
 71
     3
 72
     8
 73
     4
 74
     0
 42
0.0000000001
 43
0.0000000001
 12
1.0
 22
0.0
 32
0.0
 13
1.0
 23
0.0
 33
0.0
 40
0.0
 40
0.0
 40
0.0
 40
0.0
 40
1.0
 40
1.0
 40
1.0
 40
1.0
 10
61.36043649012041
 20
-132.8518424667872
 30
0.0
 10
61.36043649012041
 20
-133.2493877444653
 30
0.0
 10
61.6826989818988
 20
-133.5718619110514
 30
0.0
 10
62.08027952731123
 20
-133.5718619110514
 30
0.0
  0
SPLINE
  5
AD
330
1F
100
AcDbEntity
  8
_U+30EC_U+30A4_U+30E4_U+30FC 1
 62
   179
420
  2234388
370
    25
100
AcDbSpline
210
0.0
220
0.0
230
1.0
 70
     8
 71
     3
 72
     8
 73
     4
 74
     0
 42
0.0000000001
 43
0.0000000001
 12
1.0
 22
0.0
 32
0.0
 13
1.0
 23
0.0
 33
0.0
 40
0.0
 40
0.0
 40
0.0
 40
0.0
 40
1.0
 40
1.0
 40
1.0
 40
1.0
 10
61.78038314607334
 20
-127.8717844124765
 30
0.0
 10
61.78038314607334
 20
-127.4742038570202
 30
0.0
 10
61.45790898763367
 20
-127.151764968212
 30
0.0
 10
61.06036371999812
 20
-127.151764968212
 30
0.0
  0
SPLINE
  5
AE
330
1F
100
AcDbEntity
  8
_U+30EC_U+30A4_U+30E4_U+30FC 1
 62
   179
420
  2234388
370
    25
100
AcDbSpline
210
0.0
220
0.0
230
1.0
 70
     8
 71
     3
 72
     8
 73
     4
 74
     0
 42
0.0000000001
 43
0.0000000001
 12
1.0
 22
0.0
 32
0.0
 13
1.0
 23
0.0
 33
0.0
 40
0.0
 40
0.0
 40
0.0
 40
0.0
 40
1.0
 40
1.0
 40
1.0
 40
1.0
 10
117.6403792209661
 20
-133.1515624667121
 30
0.0
 10
117.8057261611922
 20
-133.1515624667121
 30
0.0
 10
117.9400992133196
 20
-133.0171894111901
 30
0.0
 10
117.9400992133196
 20
-132.8518424667872
 30
0.0
  0
SPLINE
  5
AF
330
1F
100
AcDbEntity
  8
_U+30EC_U+30A4_U+30E4_U+30FC 1
 62
   179
420
  2234388
370
    25
100
AcDbSpline
210
0.0
220
0.0
230
1.0
 70
     8
 71
     3
 72
     8
 73
     4
 74
     0
 42
0.0000000001
 43
0.0000000001
 12
1.0
 22
0.0
 32
0.0
 13
1.0
 23
0.0
 33
0.0
 40
0.0
 40
0.0
 40
0.0
 40
0.0
 40
1.0
 40
1.0
 40
1.0
 40
1.0
 10
117.6403792209661
 20
-133.5718619110514
 30
0.0
 10
118.0379244886017
 20
-133.5718619110514
 30
0.0
 10
118.3603986470413
 20
-133.2493877444653
 30
0.0
 10
118.3603986470413
 20
-132.8518424667872
 30
0.0
  0
SPLINE
  5
B0
330
1F
100
AcDbEntity
  8
_U+30EC_U+30A4_U+30E4_U+30FC 1
 62
   179
420
  2234388
370
    25
100
AcDbSpline
210
0.0
220
0.0
230
1.0
 70
     8
 71
     3
 72
    11
 73
     7
 74
     0
 42
0.0000000001
 43
0.0000000001
 12
1.0
 22
0.0
 32
0.0
 13
1.0
 23
0.0
 33
0.0
 40
0.0
 40
0.0
 40
0.0
 40
0.0
 40
1.0
 40
1.0
 40
1.0
 40
2.0
 40
2.0
 40
2.0
 40
2.0
 10
114.6141809648375
 20
-127.028257468243
 30
0.0
 10
114.4295370806593
 20
-127.028257468243
 30
0.0
 10
114.2803473622432
 20
-127.1775883015388
 30
0.0
 10
114.2803473622432
 20
-127.3617383014931
 30
0.0
 10
114.2803473622432
 20
-127.5460646903356
 30
0.0
 10
114.4295370806593
 20
-127.6953955236317
 30
0.0
 10
114.6141809648375
 20
-127.6953955236317
 30
0.0
  0
SPLINE
  5
B1
330
1F
100
AcDbEntity
  8
_U+30EC_U+30A4_U+30E4_U+30FC 1
 62
   179
420
  2234388
370
    25
100
AcDbSpline
210
0.0
220
0.0
230
1.0
 70
     8
 71
     3
 72
    11
 73
     7
 74
     0
 42
0.0000000001
 43
0.0000000001
 12
1.0
 22
0.0
 32
0.0
 13
1.0
 23
0.0
 33
0.0
 40
0.0
 40
0.0
 40
0.0
 40
0.0
 40
1.0
 40
1.0
 40
1.0
 40
2.0
 40
2.0
 40
2.0
 40
2.0
 10
114.6141809648375
 20
-126.6081344127923
 30
0.0
 10
114.1976944158947
 20
-126.6081344127923
 30
0.0
 10
113.8604007062903
 20
-126.9455663571524
 30
0.0
 10
113.8604007062903
 20
-127.3617383014931
 30
0.0
 10
113.8604007062903
 20
-127.7779102458334
 30
0.0
 10
114.1976944158947
 20
-128.1153421901935
 30
0.0
 10
114.6141809648375
 20
-128.1153421901935
 30
0.0
  0
SPLINE
  5
B2
330
1F
100
AcDbEntity
  8
_U+30EC_U+30A4_U+30E4_U+30FC 1
 62
   179
420
  2234388
370
    25
100
AcDbSpline
210
0.0
220
0.0
230
1.0
 70
     8
 71
     3
 72
     8
 73
     4
 74
     0
 42
0.0000000001
 43
0.0000000001
 12
1.0
 22
0.0
 32
0.0
 13
1.0
 23
0.0
 33
0.0
 40
0.0
 40
0.0
 40
0.0
 40
0.0
 40
1.0
 40
1.0
 40
1.0
 40
1.0
 10
117.9400992133196
 20
-128.4154149678962
 30
0.0
 10
117.9400992133196
 20
-128.2497152457152
 30
0.0
 10
117.8057261611922
 20
-128.1153421901935
 30
0.0
 10
117.6403792209661
 20
-128.1153421901935
 30
0.0
  0
SPLINE
  5
B3
330
1F
100
AcDbEntity
  8
_U+30EC_U+30A4_U+30E4_U+30FC 1
 62
   179
420
  2234388
370
    25
100
AcDbSpline
210
0.0
220
0.0
230
1.0
 70
     8
 71
     3
 72
     8
 73
     4
 74
     0
 42
0.0000000001
 43
0.0000000001
 12
1.0
 22
0.0
 32
0.0
 13
1.0
 23
0.0
 33
0.0
 40
0.0
 40
0.0
 40
0.0
 40
0.0
 40
1.0
 40
1.0
 40
1.0
 40
1.0
 10
118.3603986470413
 20
-128.4154149678962
 30
0.0
 10
118.3603986470413
 20
-128.0176933013288
 30
0.0
 10
118.0379244886017
 20
-127.6953955236317
 30
0.0
 10
117.6403792209661
 20
-127.6953955236317
 30
0.0
  0
SPLINE
  5
B4
330
1F
100
AcDbEntity
  8
_U+30EC_U+30A4_U+30E4_U+30FC 1
 62
   179
420
  2234388
370
    25
100
AcDbSpline
210
0.0
220
0.0
230
1.0
 70
     8
 71
     3
 72
    14
 73
    10
 74
     0
 42
0.0000000001
 43
0.0000000001
 12
1.0
 22
0.0
 32
0.0
 13
1.0
 23
0.0
 33
0.0
 40
0.0
 40
0.0
 40
0.0
 40
0.0
 40
1.0
 40
1.0
 40
1.0
 40
2.0
 40
2.0
 40
2.0
 40
3.0
 40
3.0
 40
3.0
 40
3.0
 10
127.3017981411494
 20
-127.0902758015608
 30
0.0
 10
127.3837836946134
 20
-127.1722613570958
 30
0.0
 10
127.5167456356657
 20
-127.1722613570958
 30
0.0
 10
127.5987664669065
 20
-127.0902758015608
 30
0.0
 10
127.6807520203704
 20
-127.008254968248
 30
0.0
 10
127.6807520203704
 20
-126.8752930238367
 30
0.0
 10
127.5987664669065
 20
-126.7933074683017
 30
0.0
 10
127.5987664669065
 20
-126.7933074683017
 30
0.0
 10
127.5987664669065
 20
-126.7933074683017
 30
0.0
 10
127.5987664669065
 20
-126.7933074683017
 30
0.0
  0
SPLINE
  5
B5
330
1F
100
AcDbEntity
  8
_U+30EC_U+30A4_U+30E4_U+30FC 1
  6
AI-Linetype-7
 62
   179
420
  2234388
370
    25
100
AcDbSpline
210
0.0
220
0.0
230
1.0
 70
     8
 71
     3
 72
     8
 73
     4
 74
     0
 42
0.0000000001
 43
0.0000000001
 12
1.0
 22
0.0
 32
0.0
 13
1.0
 23
0.0
 33
0.0
 40
0.0
 40
0.0
 40
0.0
 40
0.0
 40
1.0
 40
1.0
 40
1.0
 40
1.0
 10
121.3603855149497
 20
-132.8518424667872
 30
0.0
 10
121.3603855149497
 20
-133.2493877444653
 30
0.0
 10
121.6828243956125
 20
-133.5718619110514
 30
0.0
 10
122.080404941025
 20
-133.5718619110514
 30
0.0
  0
SPLINE
  5
B7
330
1F
100
AcDbEntity
  8
_U+30EC_U+30A4_U+30E4_U+30FC 1
  6
AI-Linetype-8
 62
   179
420
  2234388
370
    25
100
AcDbSpline
210
0.0
220
0.0
230
1.0
 70
     8
 71
     3
 72
     8
 73
     4
 74
     0
 42
0.0000000001
 43
0.0000000001
 12
1.0
 22
0.0
 32
0.0
 13
1.0
 23
0.0
 33
0.0
 40
0.0
 40
0.0
 40
0.0
 40
0.0
 40
1.0
 40
1.0
 40
1.0
 40
1.0
 10
121.7803321709027
 20
-127.8717844124765
 30
0.0
 10
121.7803321709027
 20
-127.4742038570202
 30
0.0
 10
121.4582138585241
 20
-127.151764968212
 30
0.0
 10
121.0603127448275
 20
-127.151764968212
 30
0.0
  0
SPLINE
  5
B9
330
1F
100
AcDbEntity
  8
_U+30EC_U+30A4_U+30E4_U+30FC 1
  6
AI-Linetype-9
 62
   179
420
  2234388
370
    25
100
AcDbSpline
210
0.0
220
0.0
230
1.0
 70
     8
 71
     3
 72
     8
 73
     4
 74
     0
 42
0.0000000001
 43
0.0000000001
 12
1.0
 22
0.0
 32
0.0
 13
1.0
 23
0.0
 33
0.0
 40
0.0
 40
0.0
 40
0.0
 40
0.0
 40
1.0
 40
1.0
 40
1.0
 40
1.0
 10
121.7803321709027
 20
-132.8518424667872
 30
0.0
 10
121.7803321709027
 20
-133.0171894111901
 30
0.0
 10
121.9147083028544
 20
-133.1515624667121
 30
0.0
 10
122.080404941025
 20
-133.1515624667121
 30
0.0
  0
SPLINE
  5
BB
330
1F
100
AcDbEntity
  8
_U+30EC_U+30A4_U+30E4_U+30FC 1
  6
AI-Linetype-10
 62
   179
420
  2234388
370
    25
100
AcDbSpline
210
0.0
220
0.0
230
1.0
 70
     8
 71
     3
 72
    11
 73
     7
 74
     0
 42
0.0000000001
 43
0.0000000001
 12
1.0
 22
0.0
 32
0.0
 13
1.0
 23
0.0
 33
0.0
 40
0.0
 40
0.0
 40
0.0
 40
0.0
 40
1.0
 40
1.0
 40
1.0
 40
2.0
 40
2.0
 40
2.0
 40
2.0
 10
114.9704159557492
 20
-127.151764968212
 30
0.0
 10
114.8543167920445
 20
-127.151764968212
 30
0.0
 10
114.7602662388884
 20
-127.245815523744
 30
0.0
 10
114.7602662388884
 20
-127.3617383014931
 30
0.0
 10
114.7602662388884
 20
-127.4778374681307
 30
0.0
 10
114.8543167920445
 20
-127.5717116347738
 30
0.0
 10
114.9704159557492
 20
-127.5717116347738
 30
0.0
  0
SPLINE
  5
BD
330
1F
100
AcDbEntity
  8
_U+30EC_U+30A4_U+30E4_U+30FC 1
  6
AI-Linetype-11
 62
   179
420
  2234388
370
    25
100
AcDbSpline
210
0.0
220
0.0
230
1.0
 70
     8
 71
     3
 72
     8
 73
     4
 74
     0
 42
0.0000000001
 43
0.0000000001
 12
1.0
 22
0.0
 32
0.0
 13
1.0
 23
0.0
 33
0.0
 40
0.0
 40
0.0
 40
0.0
 40
0.0
 40
1.0
 40
1.0
 40
1.0
 40
1.0
 10
121.3603855149497
 20
-127.8717844124765
 30
0.0
 10
121.3603855149497
 20
-127.7060846902958
 30
0.0
 10
121.2260124628223
 20
-127.5717116347738
 30
0.0
 10
121.0603127448275
 20
-127.5717116347738
 30
0.0
  0
SPLINE
  5
BF
330
1F
100
AcDbEntity
  8
_U+30EC_U+30A4_U+30E4_U+30FC 1
 62
   179
420
  2234388
370
     9
100
AcDbSpline
210
0.0
220
0.0
230
1.0
 70
    11
 71
     3
 72
    17
 73
    13
 74
     0
 42
0.0000000001
 43
0.0000000001
 12
1.0
 22
0.0
 32
0.0
 13
1.0
 23
0.0
 33
0.0
 40
0.0
 40
0.0
 40
0.0
 40
0.0
 40
1.0
 40
1.0
 40
1.0
 40
2.0
 40
2.0
 40
2.0
 40
3.0
 40
3.0
 40
3.0
 40
4.0
 40
4.0
 40
4.0
 40
4.0
 10
52.42041282931052
 20
-127.1078441348897
 30
0.0
 10
52.42041282931052
 20
-127.0747535793425
 30
0.0
 10
52.39353116332966
 20
-127.0478719126824
 30
0.0
 10
52.3602994975108
 20
-127.0478719126824
 30
0.0
 10
52.32720894279946
 20
-127.0478719126824
 30
0.0
 10
52.3003272768186
 20
-127.0747535793425
 30
0.0
 10
52.3003272768186
 20
-127.1078441348897
 30
0.0
 10
52.3003272768186
 20
-127.1410758015482
 30
0.0
 10
52.32720894279946
 20
-127.167957468208
 30
0.0
 10
52.3602994975108
 20
-127.167957468208
 30
0.0
 10
52.39353116332966
 20
-127.167957468208
 30
0.0
 10
52.42041282931052
 20
-127.1410758015482
 30
0.0
 10
52.42041282931052
 20
-127.1078441348897
 30
0.0
  0
SPLINE
  5
C0
330
1F
100
AcDbEntity
  8
_U+30EC_U+30A4_U+30E4_U+30FC 1
 62
   179
420
  2234388
370
     9
100
AcDbSpline
210
0.0
220
0.0
230
1.0
 70
    11
 71
     3
 72
    17
 73
    13
 74
     0
 42
0.0000000001
 43
0.0000000001
 12
1.0
 22
0.0
 32
0.0
 13
1.0
 23
0.0
 33
0.0
 40
0.0
 40
0.0
 40
0.0
 40
0.0
 40
1.0
 40
1.0
 40
1.0
 40
2.0
 40
2.0
 40
2.0
 40
3.0
 40
3.0
 40
3.0
 40
4.0
 40
4.0
 40
4.0
 40
4.0
 10
52.42041282931052
 20
-133.5718619110514
 30
0.0
 10
52.42041282931052
 20
-133.5388066332821
 30
0.0
 10
52.39353116332966
 20
-133.5119249666223
 30
0.0
 10
52.3602994975108
 20
-133.5119249666223
 30
0.0
 10
52.32720894279946
 20
-133.5119249666223
 30
0.0
 10
52.3003272768186
 20
-133.5388066332821
 30
0.0
 10
52.3003272768186
 20
-133.5718619110514
 30
0.0
 10
52.3003272768186
 20
-133.6049524665989
 30
0.0
 10
52.32720894279946
 20
-133.6317988554811
 30
0.0
 10
52.3602994975108
 20
-133.6317988554811
 30
0.0
 10
52.39353116332966
 20
-133.6317988554811
 30
0.0
 10
52.42041282931052
 20
-133.6049524665989
 30
0.0
 10
52.42041282931052
 20
-133.5718619110514
 30
0.0
  0
SPLINE
  5
C1
330
1F
100
AcDbEntity
  8
_U+30EC_U+30A4_U+30E4_U+30FC 1
 62
   179
420
  2234388
370
     9
100
AcDbSpline
210
0.0
220
0.0
230
1.0
 70
    11
 71
     3
 72
    17
 73
    13
 74
     0
 42
0.0000000001
 43
0.0000000001
 12
1.0
 22
0.0
 32
0.0
 13
1.0
 23
0.0
 33
0.0
 40
0.0
 40
0.0
 40
0.0
 40
0.0
 40
1.0
 40
1.0
 40
1.0
 40
2.0
 40
2.0
 40
2.0
 40
3.0
 40
3.0
 40
3.0
 40
4.0
 40
4.0
 40
4.0
 40
4.0
 10
54.8202555418504
 20
-135.9717032993404
 30
0.0
 10
54.8202555418504
 20
-135.9386480215711
 30
0.0
 10
54.7933724909935
 20
-135.9117663549106
 30
0.0
 10
54.76031721405903
 20
-135.9117663549106
 30
0.0
 10
54.72722665934769
 20
-135.9117663549106
 30
0.0
 10
54.7003802711437
 20
-135.9386480215711
 30
0.0
 10
54.7003802711437
 20
-135.9717032993404
 30
0.0
 10
54.7003802711437
 20
-136.0047938548879
 30
0.0
 10
54.72722665934769
 20
-136.0316755215476
 30
0.0
 10
54.76031721405903
 20
-136.0316755215476
 30
0.0
 10
54.7933724909935
 20
-136.0316755215476
 30
0.0
 10
54.8202555418504
 20
-136.0047938548879
 30
0.0
 10
54.8202555418504
 20
-135.9717032993404
 30
0.0
  0
SPLINE
  5
C2
330
1F
100
AcDbEntity
  8
_U+30EC_U+30A4_U+30E4_U+30FC 1
 62
   179
420
  2234388
370
     9
100
AcDbSpline
210
0.0
220
0.0
230
1.0
 70
    11
 71
     3
 72
    17
 73
    13
 74
     0
 42
0.0000000001
 43
0.0000000001
 12
1.0
 22
0.0
 32
0.0
 13
1.0
 23
0.0
 33
0.0
 40
0.0
 40
0.0
 40
0.0
 40
0.0
 40
1.0
 40
1.0
 40
1.0
 40
2.0
 40
2.0
 40
2.0
 40
3.0
 40
3.0
 40
3.0
 40
4.0
 40
4.0
 40
4.0
 40
4.0
 10
61.42037498464475
 20
-135.9717032993404
 30
0.0
 10
61.42037498464475
 20
-135.9386480215711
 30
0.0
 10
61.39349176705487
 20
-135.9117663549106
 30
0.0
 10
61.36043649012041
 20
-135.9117663549106
 30
0.0
 10
61.32716954652467
 20
-135.9117663549106
 30
0.0
 10
61.30028788054381
 20
-135.9386480215711
 30
0.0
 10
61.30028788054381
 20
-135.9717032993404
 30
0.0
 10
61.30028788054381
 20
-136.0047938548879
 30
0.0
 10
61.32716954652467
 20
-136.0316755215476
 30
0.0
 10
61.36043649012041
 20
-136.0316755215476
 30
0.0
 10
61.39349176705487
 20
-136.0316755215476
 30
0.0
 10
61.42037498464475
 20
-136.0047938548879
 30
0.0
 10
61.42037498464475
 20
-135.9717032993404
 30
0.0
  0
SPLINE
  5
C3
330
1F
100
AcDbEntity
  8
_U+30EC_U+30A4_U+30E4_U+30FC 1
 62
   179
420
  2234388
370
     9
100
AcDbSpline
210
0.0
220
0.0
230
1.0
 70
    11
 71
     3
 72
    17
 73
    13
 74
     0
 42
0.0000000001
 43
0.0000000001
 12
1.0
 22
0.0
 32
0.0
 13
1.0
 23
0.0
 33
0.0
 40
0.0
 40
0.0
 40
0.0
 40
0.0
 40
1.0
 40
1.0
 40
1.0
 40
2.0
 40
2.0
 40
2.0
 40
3.0
 40
3.0
 40
3.0
 40
4.0
 40
4.0
 40
4.0
 40
4.0
 10
118.4203355899567
 20
-135.9717032993404
 30
0.0
 10
118.4203355899567
 20
-135.9386480215711
 30
0.0
 10
118.3934539239758
 20
-135.9117663549106
 30
0.0
 10
118.3603986470413
 20
-135.9117663549106
 30
0.0
 10
118.327311081529
 20
-135.9117663549106
 30
0.0
 10
118.3004264263491
 20
-135.9386480215711
 30
0.0
 10
118.3004264263491
 20
-135.9717032993404
 30
0.0
 10
118.3004264263491
 20
-136.0047938548879
 30
0.0
 10
118.327311081529
 20
-136.0316755215476
 30
0.0
 10
118.3603986470413
 20
-136.0316755215476
 30
0.0
 10
118.3934539239758
 20
-136.0316755215476
 30
0.0
 10
118.4203355899567
 20
-136.0047938548879
 30
0.0
 10
118.4203355899567
 20
-135.9717032993404
 30
0.0
  0
SPLINE
  5
C4
330
1F
100
AcDbEntity
  8
_U+30EC_U+30A4_U+30E4_U+30FC 1
 62
   179
420
  2234388
370
     9
100
AcDbSpline
210
0.0
220
0.0
230
1.0
 70
    11
 71
     3
 72
    17
 73
    13
 74
     0
 42
0.0000000001
 43
0.0000000001
 12
1.0
 22
0.0
 32
0.0
 13
1.0
 23
0.0
 33
0.0
 40
0.0
 40
0.0
 40
0.0
 40
0.0
 40
1.0
 40
1.0
 40
1.0
 40
2.0
 40
2.0
 40
2.0
 40
3.0
 40
3.0
 40
3.0
 40
4.0
 40
4.0
 40
4.0
 40
4.0
 10
121.4203224578651
 20
-135.9717032993404
 30
0.0
 10
121.4203224578651
 20
-135.9386480215711
 30
0.0
 10
121.3934407918842
 20
-135.9117663549106
 30
0.0
 10
121.3603855149497
 20
-135.9117663549106
 30
0.0
 10
121.3272949602384
 20
-135.9117663549106
 30
0.0
 10
121.3004485720344
 20
-135.9386480215711
 30
0.0
 10
121.3004485720344
 20
-135.9717032993404
 30
0.0
 10
121.3004485720344
 20
-136.0047938548879
 30
0.0
 10
121.3272949602384
 20
-136.0316755215476
 30
0.0
 10
121.3603855149497
 20
-136.0316755215476
 30
0.0
 10
121.3934407918842
 20
-136.0316755215476
 30
0.0
 10
121.4203224578651
 20
-136.0047938548879
 30
0.0
 10
121.4203224578651
 20
-135.9717032993404
 30
0.0
  0
SPLINE
  5
C5
330
1F
100
AcDbEntity
  8
_U+30EC_U+30A4_U+30E4_U+30FC 1
 62
   179
420
  2234388
370
     9
100
AcDbSpline
210
0.0
220
0.0
230
1.0
 70
    11
 71
     3
 72
    17
 73
    13
 74
     0
 42
0.0000000001
 43
0.0000000001
 12
1.0
 22
0.0
 32
0.0
 13
1.0
 23
0.0
 33
0.0
 40
0.0
 40
0.0
 40
0.0
 40
0.0
 40
1.0
 40
1.0
 40
1.0
 40
2.0
 40
2.0
 40
2.0
 40
3.0
 40
3.0
 40
3.0
 40
4.0
 40
4.0
 40
4.0
 40
4.0
 10
113.9203376492056
 20
-122.9516633025955
 30
0.0
 10
113.9203376492056
 20
-122.9186080248259
 30
0.0
 10
113.8934912610016
 20
-122.8917263581661
 30
0.0
 10
113.8604007062903
 20
-122.8917263581661
 30
0.0
 10
113.8273454293558
 20
-122.8917263581661
 30
0.0
 10
113.8004666382168
 20
-122.9186080248259
 30
0.0
 10
113.8004666382168
 20
-122.9516633025955
 30
0.0
 10
113.8004666382168
 20
-122.9849302470315
 30
0.0
 10
113.8273454293558
 20
-123.0117766359138
 30
0.0
 10
113.8604007062903
 20
-123.0117766359138
 30
0.0
 10
113.8934912610016
 20
-123.0117766359138
 30
0.0
 10
113.9203376492056
 20
-122.9849302470315
 30
0.0
 10
113.9203376492056
 20
-122.9516633025955
 30
0.0
  0
SPLINE
  5
C6
330
1F
100
AcDbEntity
  8
_U+30EC_U+30A4_U+30E4_U+30FC 1
 62
   179
420
  2234388
370
     9
100
AcDbSpline
210
0.0
220
0.0
230
1.0
 70
    11
 71
     3
 72
    17
 73
    13
 74
     0
 42
0.0000000001
 43
0.0000000001
 12
1.0
 22
0.0
 32
0.0
 13
1.0
 23
0.0
 33
0.0
 40
0.0
 40
0.0
 40
0.0
 40
0.0
 40
1.0
 40
1.0
 40
1.0
 40
2.0
 40
2.0
 40
2.0
 40
3.0
 40
3.0
 40
3.0
 40
4.0
 40
4.0
 40
4.0
 40
4.0
 10
118.7204083600789
 20
-122.9516633025955
 30
0.0
 10
118.7204083600789
 20
-122.9186080248259
 30
0.0
 10
118.6935266940981
 20
-122.8917263581661
 30
0.0
 10
118.6601186393948
 20
-122.8917263581661
 30
0.0
 10
118.6270280846835
 20
-122.8917263581661
 30
0.0
 10
118.6001816964795
 20
-122.9186080248259
 30
0.0
 10
118.6001816964795
 20
-122.9516633025955
 30
0.0
 10
118.6001816964795
 20
-122.9849302470315
 30
0.0
 10
118.6270280846835
 20
-123.0117766359138
 30
0.0
 10
118.6601186393948
 20
-123.0117766359138
 30
0.0
 10
118.6935266940981
 20
-123.0117766359138
 30
0.0
 10
118.7204083600789
 20
-122.9849302470315
 30
0.0
 10
118.7204083600789
 20
-122.9516633025955
 30
0.0
  0
SPLINE
  5
C7
330
1F
100
AcDbEntity
  8
_U+30EC_U+30A4_U+30E4_U+30FC 1
 62
   179
420
  2234388
370
     9
100
AcDbSpline
210
0.0
220
0.0
230
1.0
 70
    11
 71
     3
 72
    17
 73
    13
 74
     0
 42
0.0000000001
 43
0.0000000001
 12
1.0
 22
0.0
 32
0.0
 13
1.0
 23
0.0
 33
0.0
 40
0.0
 40
0.0
 40
0.0
 40
0.0
 40
1.0
 40
1.0
 40
1.0
 40
2.0
 40
2.0
 40
2.0
 40
3.0
 40
3.0
 40
3.0
 40
4.0
 40
4.0
 40
4.0
 40
4.0
 10
127.7203721902919
 20
-122.9516633025955
 30
0.0
 10
127.7203721902919
 20
-122.9186080248259
 30
0.0
 10
127.6934872978233
 20
-122.8917263581661
 30
0.0
 10
127.6604320208888
 20
-122.8917263581661
 30
0.0
 10
127.6269886884087
 20
-122.8917263581661
 30
0.0
 10
127.6001423002047
 20
-122.9186080248259
 30
0.0
 10
127.6001423002047
 20
-122.9516633025955
 30
0.0
 10
127.6001423002047
 20
-122.9849302470315
 30
0.0
 10
127.6269886884087
 20
-123.0117766359138
 30
0.0
 10
127.6604320208888
 20
-123.0117766359138
 30
0.0
 10
127.6934872978233
 20
-123.0117766359138
 30
0.0
 10
127.7203721902919
 20
-122.9849302470315
 30
0.0
 10
127.7203721902919
 20
-122.9516633025955
 30
0.0
  0
SPLINE
  5
C8
330
1F
100
AcDbEntity
  8
_U+30EC_U+30A4_U+30E4_U+30FC 1
 62
   179
420
  2234388
370
     9
100
AcDbSpline
210
0.0
220
0.0
230
1.0
 70
    11
 71
     3
 72
    17
 73
    13
 74
     0
 42
0.0000000001
 43
0.0000000001
 12
1.0
 22
0.0
 32
0.0
 13
1.0
 23
0.0
 33
0.0
 40
0.0
 40
0.0
 40
0.0
 40
0.0
 40
1.0
 40
1.0
 40
1.0
 40
2.0
 40
2.0
 40
2.0
 40
3.0
 40
3.0
 40
3.0
 40
4.0
 40
4.0
 40
4.0
 40
4.0
 10
132.5204043969006
 20
-125.3516810797731
 30
0.0
 10
132.5204043969006
 20
-125.3186258020038
 30
0.0
 10
132.4935580086966
 20
-125.2917441353436
 30
0.0
 10
132.4604674539853
 20
-125.2917441353436
 30
0.0
 10
132.4274121770508
 20
-125.2917441353436
 30
0.0
 10
132.4005305110699
 20
-125.3186258020038
 30
0.0
 10
132.4005305110699
 20
-125.3516810797731
 30
0.0
 10
132.4005305110699
 20
-125.3849480242094
 30
0.0
 10
132.4274121770508
 20
-125.4117944130914
 30
0.0
 10
132.4604674539853
 20
-125.4117944130914
 30
0.0
 10
132.4935580086966
 20
-125.4117944130914
 30
0.0
 10
132.5204043969006
 20
-125.3849480242094
 30
0.0
 10
132.5204043969006
 20
-125.3516810797731
 30
0.0
  0
SPLINE
  5
C9
330
1F
100
AcDbEntity
  8
_U+30EC_U+30A4_U+30E4_U+30FC 1
 62
   179
420
  2234388
370
     9
100
AcDbSpline
210
0.0
220
0.0
230
1.0
 70
    11
 71
     3
 72
    17
 73
    13
 74
     0
 42
0.0000000001
 43
0.0000000001
 12
1.0
 22
0.0
 32
0.0
 13
1.0
 23
0.0
 33
0.0
 40
0.0
 40
0.0
 40
0.0
 40
0.0
 40
1.0
 40
1.0
 40
1.0
 40
2.0
 40
2.0
 40
2.0
 40
3.0
 40
3.0
 40
3.0
 40
4.0
 40
4.0
 40
4.0
 40
4.0
 10
130.1205630692368
 20
-127.151764968212
 30
0.0
 10
130.1205630692368
 20
-127.1186744126648
 30
0.0
 10
130.0936814032559
 20
-127.0918280237826
 30
0.0
 10
130.0602733485527
 20
-127.0918280237826
 30
0.0
 10
130.0272180716182
 20
-127.0918280237826
 30
0.0
 10
130.0003364056373
 20
-127.1186744126648
 30
0.0
 10
130.0003364056373
 20
-127.151764968212
 30
0.0
 10
130.0003364056373
 20
-127.1848202459816
 30
0.0
 10
130.0272180716182
 20
-127.2117019126414
 30
0.0
 10
130.0602733485527
 20
-127.2117019126414
 30
0.0
 10
130.0936814032559
 20
-127.2117019126414
 30
0.0
 10
130.1205630692368
 20
-127.1848202459816
 30
0.0
 10
130.1205630692368
 20
-127.151764968212
 30
0.0
  0
SPLINE
  5
CA
330
1F
100
AcDbEntity
  8
_U+30EC_U+30A4_U+30E4_U+30FC 1
 62
   179
420
  2234388
370
    25
100
AcDbSpline
210
0.0
220
0.0
230
1.0
 70
    11
 71
     3
 72
    17
 73
    13
 74
     0
 42
0.0000000001
 43
0.0000000001
 12
1.0
 22
0.0
 32
0.0
 13
1.0
 23
0.0
 33
0.0
 40
0.0
 40
0.0
 40
0.0
 40
0.0
 40
1.0
 40
1.0
 40
1.0
 40
2.0
 40
2.0
 40
2.0
 40
3.0
 40
3.0
 40
3.0
 40
4.0
 40
4.0
 40
4.0
 40
4.0
 10
130.1205630692368
 20
-133.1515624667121
 30
0.0
 10
130.1205630692368
 20
-133.1185071889428
 30
0.0
 10
130.0936814032559
 20
-133.0916255222824
 30
0.0
 10
130.0602733485527
 20
-133.0916255222824
 30
0.0
 10
130.0272180716182
 20
-133.0916255222824
 30
0.0
 10
130.0003364056373
 20
-133.1185071889428
 30
0.0
 10
130.0003364056373
 20
-133.1515624667121
 30
0.0
 10
130.0003364056373
 20
-133.1849705222592
 30
0.0
 10
130.0272180716182
 20
-133.211852188919
 30
0.0
 10
130.0602733485527
 20
-133.211852188919
 30
0.0
 10
130.0936814032559
 20
-133.211852188919
 30
0.0
 10
130.1205630692368
 20
-133.1849705222592
 30
0.0
 10
130.1205630692368
 20
-133.1515624667121
 30
0.0
  0
SPLINE
  5
CB
330
1F
100
AcDbEntity
  8
_U+30EC_U+30A4_U+30E4_U+30FC 1
 62
   179
420
  2234388
370
    25
100
AcDbSpline
210
0.0
220
0.0
230
1.0
 70
    11
 71
     3
 72
    17
 73
    13
 74
     0
 42
0.0000000001
 43
0.0000000001
 12
1.0
 22
0.0
 32
0.0
 13
1.0
 23
0.0
 33
0.0
 40
0.0
 40
0.0
 40
0.0
 40
0.0
 40
1.0
 40
1.0
 40
1.0
 40
2.0
 40
2.0
 40
2.0
 40
3.0
 40
3.0
 40
3.0
 40
4.0
 40
4.0
 40
4.0
 40
4.0
 10
132.5204043969006
 20
-133.1515624667121
 30
0.0
 10
132.5204043969006
 20
-133.1185071889428
 30
0.0
 10
132.4935580086966
 20
-133.0916255222824
 30
0.0
 10
132.4604674539853
 20
-133.0916255222824
 30
0.0
 10
132.4274121770508
 20
-133.0916255222824
 30
0.0
 10
132.4005305110699
 20
-133.1185071889428
 30
0.0
 10
132.4005305110699
 20
-133.1515624667121
 30
0.0
 10
132.4005305110699
 20
-133.1849705222592
 30
0.0
 10
132.4274121770508
 20
-133.211852188919
 30
0.0
 10
132.4604674539853
 20
-133.211852188919
 30
0.0
 10
132.4935580086966
 20
-133.211852188919
 30
0.0
 10
132.5204043969006
 20
-133.1849705222592
 30
0.0
 10
132.5204043969006
 20
-133.1515624667121
 30
0.0
  0
POLYLINE
  5
CC
330
1F
100
AcDbEntity
  8
_U+30EC_U+30A4_U+30E4_U+30FC 1
 62
   179
420
  2234388
370
     9
100
AcDb2dPolyline
 66
     1
 10
0.0
 20
0.0
 30
0.0
  0
VERTEX
  5
CD
330
CC
100
AcDbEntity
  8
_U+30EC_U+30A4_U+30E4_U+30FC 1
 62
   179
420
  2234388
370
     9
100
AcDbVertex
100
AcDb2dVertex
 10
52.3602994975108
 20
-127.1078441348897
 30
0.0
  0
VERTEX
  5
CE
330
CC
100
AcDbEntity
  8
_U+30EC_U+30A4_U+30E4_U+30FC 1
 62
   179
420
  2234388
370
     9
100
AcDbVertex
100
AcDb2dVertex
 10
52.3602994975108
 20
-133.5718619110514
 30
0.0
  0
SEQEND
  5
CF
330
CC
100
AcDbEntity
  8
_U+30EC_U+30A4_U+30E4_U+30FC 1
 62
   179
420
  2234388
370
     9
  0
POLYLINE
  5
D0
330
1F
100
AcDbEntity
  8
_U+30EC_U+30A4_U+30E4_U+30FC 1
 62
   179
420
  2234388
370
     9
100
AcDb2dPolyline
 66
     1
 10
0.0
 20
0.0
 30
0.0
  0
VERTEX
  5
D1
330
D0
100
AcDbEntity
  8
_U+30EC_U+30A4_U+30E4_U+30FC 1
 62
   179
420
  2234388
370
     9
100
AcDbVertex
100
AcDb2dVertex
 10
53.44636113646973
 20
-127.1078441348897
 30
0.0
  0
VERTEX
  5
D2
330
D0
100
AcDbEntity
  8
_U+30EC_U+30A4_U+30E4_U+30FC 1
 62
   179
420
  2234388
370
     9
100
AcDbVertex
100
AcDb2dVertex
 10
51.76033034615062
 20
-127.1078441348897
 30
0.0
  0
SEQEND
  5
D3
330
D0
100
AcDbEntity
  8
_U+30EC_U+30A4_U+30E4_U+30FC 1
 62
   179
420
  2234388
370
     9
  0
POLYLINE
  5
D4
330
1F
100
AcDbEntity
  8
_U+30EC_U+30A4_U+30E4_U+30FC 1
 62
   179
420
  2234388
370
     9
100
AcDb2dPolyline
 66
     1
 10
0.0
 20
0.0
 30
0.0
  0
VERTEX
  5
D5
330
D4
100
AcDbEntity
  8
_U+30EC_U+30A4_U+30E4_U+30FC 1
 62
   179
420
  2234388
370
     9
100
AcDbVertex
100
AcDb2dVertex
 10
60.55635012174547
 20
-133.5718619110514
 30
0.0
  0
VERTEX
  5
D6
330
D4
100
AcDbEntity
  8
_U+30EC_U+30A4_U+30E4_U+30FC 1
 62
   179
420
  2234388
370
     9
100
AcDbVertex
100
AcDb2dVertex
 10
51.76033034615062
 20
-133.5718619110514
 30
0.0
  0
SEQEND
  5
D7
330
D4
100
AcDbEntity
  8
_U+30EC_U+30A4_U+30E4_U+30FC 1
 62
   179
420
  2234388
370
     9
  0
INSERT
  5
D9
330
1F
100
AcDbEntity
  8
_U+30EC_U+30A4_U+30E4_U+30FC 1
100
AcDbBlockReference
  2
block 2
 10
0.0
 20
0.0
 30
0.0
  0
POLYLINE
  5
E1
330
1F
100
AcDbEntity
  8
_U+30EC_U+30A4_U+30E4_U+30FC 1
 62
   179
420
  2234388
370
     9
100
AcDb2dPolyline
 66
     1
 10
0.0
 20
0.0
 30
0.0
  0
VERTEX
  5
E2
330
E1
100
AcDbEntity
  8
_U+30EC_U+30A4_U+30E4_U+30FC 1
 62
   179
420
  2234388
370
     9
100
AcDbVertex
100
AcDb2dVertex
 10
130.0602733485527
 20
-127.151764968212
 30
0.0
  0
VERTEX
  5
E3
330
E1
100
AcDbEntity
  8
_U+30EC_U+30A4_U+30E4_U+30FC 1
 62
   179
420
  2234388
370
     9
100
AcDbVertex
100
AcDb2dVertex
 10
130.0602733485527
 20
-133.1515624667121
 30
0.0
  0
SEQEND
  5
E4
330
E1
100
AcDbEntity
  8
_U+30EC_U+30A4_U+30E4_U+30FC 1
 62
   179
420
  2234388
370
     9
  0
POLYLINE
  5
E5
330
1F
100
AcDbEntity
  8
_U+30EC_U+30A4_U+30E4_U+30FC 1
 62
   179
420
  2234388
370
     9
100
AcDb2dPolyline
 66
     1
 10
0.0
 20
0.0
 30
0.0
  0
VERTEX
  5
E6
330
E5
100
AcDbEntity
  8
_U+30EC_U+30A4_U+30E4_U+30FC 1
 62
   179
420
  2234388
370
     9
100
AcDbVertex
100
AcDb2dVertex
 10
128.9740353207093
 20
-127.151764968212
 30
0.0
  0
VERTEX
  5
E7
330
E5
100
AcDbEntity
  8
_U+30EC_U+30A4_U+30E4_U+30FC 1
 62
   179
420
  2234388
370
     9
100
AcDbVertex
100
AcDb2dVertex
 10
130.6604221895572
 20
-127.151764968212
 30
0.0
  0
SEQEND
  5
E8
330
E5
100
AcDbEntity
  8
_U+30EC_U+30A4_U+30E4_U+30FC 1
 62
   179
420
  2234388
370
     9
  0
POLYLINE
  5
E9
330
1F
100
AcDbEntity
  8
_U+30EC_U+30A4_U+30E4_U+30FC 1
 62
   179
420
  2234388
370
    25
100
AcDb2dPolyline
 66
     1
 10
0.0
 20
0.0
 30
0.0
  0
VERTEX
  5
EA
330
E9
100
AcDbEntity
  8
_U+30EC_U+30A4_U+30E4_U+30FC 1
 62
   179
420
  2234388
370
    25
100
AcDbVertex
100
AcDb2dVertex
 10
131.5843791430028
 20
-133.1515624667121
 30
0.0
  0
VERTEX
  5
EB
330
E9
100
AcDbEntity
  8
_U+30EC_U+30A4_U+30E4_U+30FC 1
 62
   179
420
  2234388
370
    25
100
AcDbVertex
100
AcDb2dVertex
 10
131.260211651273
 20
-133.1515624667121
 30
0.0
  0
SEQEND
  5
EC
330
E9
100
AcDbEntity
  8
_U+30EC_U+30A4_U+30E4_U+30FC 1
 62
   179
420
  2234388
370
    25
  0
INSERT
  5
EE
330
1F
100
AcDbEntity
  8
_U+30EC_U+30A4_U+30E4_U+30FC 1
100
AcDbBlockReference
  2
block 3
 10
0.0
 20
0.0
 30
0.0
  0
POLYLINE
  5
F6
330
1F
100
AcDbEntity
  8
_U+30EC_U+30A4_U+30E4_U+30FC 1
 62
   179
420
  2234388
370
     9
100
AcDb2dPolyline
 66
     1
 10
0.0
 20
0.0
 30
0.0
  0
VERTEX
  5
F7
330
F6
100
AcDbEntity
  8
_U+30EC_U+30A4_U+30E4_U+30FC 1
 62
   179
420
  2234388
370
     9
100
AcDbVertex
100
AcDb2dVertex
 10
132.4604674539853
 20
-133.1515624667121
 30
0.0
  0
VERTEX
  5
F8
330
F6
100
AcDbEntity
  8
_U+30EC_U+30A4_U+30E4_U+30FC 1
 62
   179
420
  2234388
370
     9
100
AcDbVertex
100
AcDb2dVertex
 10
132.4604674539853
 20
-125.3516810797731
 30
0.0
  0
SEQEND
  5
F9
330
F6
100
AcDbEntity
  8
_U+30EC_U+30A4_U+30E4_U+30FC 1
 62
   179
420
  2234388
370
     9
  0
POLYLINE
  5
FA
330
1F
100
AcDbEntity
  8
_U+30EC_U+30A4_U+30E4_U+30FC 1
 62
   179
420
  2234388
370
    25
100
AcDb2dPolyline
 66
     1
 10
0.0
 20
0.0
 30
0.0
  0
VERTEX
  5
FB
330
FA
100
AcDbEntity
  8
_U+30EC_U+30A4_U+30E4_U+30FC 1
 62
   179
420
  2234388
370
    25
100
AcDbVertex
100
AcDb2dVertex
 10
133.9845732484354
 20
-133.1515624667121
 30
0.0
  0
VERTEX
  5
FC
330
FA
100
AcDbEntity
  8
_U+30EC_U+30A4_U+30E4_U+30FC 1
 62
   179
420
  2234388
370
    25
100
AcDbVertex
100
AcDb2dVertex
 10
133.6600529789368
 20
-133.1515624667121
 30
0.0
  0
SEQEND
  5
FD
330
FA
100
AcDbEntity
  8
_U+30EC_U+30A4_U+30E4_U+30FC 1
 62
   179
420
  2234388
370
    25
  0
POLYLINE
  5
FE
330
1F
100
AcDbEntity
  8
_U+30EC_U+30A4_U+30E4_U+30FC 1
 62
   179
420
  2234388
370
     9
100
AcDb2dPolyline
 66
     1
 10
0.0
 20
0.0
 30
0.0
  0
VERTEX
  5
FF
330
FE
100
AcDbEntity
  8
_U+30EC_U+30A4_U+30E4_U+30FC 1
 62
   179
420
  2234388
370
     9
100
AcDbVertex
100
AcDb2dVertex
 10
127.6814222981311
 20
-125.3516810797731
 30
0.0
  0
VERTEX
  5
100
330
FE
100
AcDbEntity
  8
_U+30EC_U+30A4_U+30E4_U+30FC 1
 62
   179
420
  2234388
370
     9
100
AcDbVertex
100
AcDb2dVertex
 10
133.0606129942298
 20
-125.3516810797731
 30
0.0
  0
SEQEND
  5
101
330
FE
100
AcDbEntity
  8
_U+30EC_U+30A4_U+30E4_U+30FC 1
 62
   179
420
  2234388
370
     9
  0
INSERT
  5
103
330
1F
100
AcDbEntity
  8
_U+30EC_U+30A4_U+30E4_U+30FC 1
100
AcDbBlockReference
  2
block 4
 10
0.0
 20
0.0
 30
0.0
  0
POLYLINE
  5
10A
330
1F
100
AcDbEntity
  8
_U+30EC_U+30A4_U+30E4_U+30FC 1
 62
   179
420
  2234388
370
     9
100
AcDb2dPolyline
 66
     1
 10
0.0
 20
0.0
 30
0.0
  0
VERTEX
  5
10B
330
10A
100
AcDbEntity
  8
_U+30EC_U+30A4_U+30E4_U+30FC 1
 62
   179
420
  2234388
370
     9
100
AcDbVertex
100
AcDb2dVertex
 10
113.8604007062903
 20
-122.9516633025955
 30
0.0
  0
VERTEX
  5
10C
330
10A
100
AcDbEntity
  8
_U+30EC_U+30A4_U+30E4_U+30FC 1
 62
   179
420
  2234388
370
     9
100
AcDbVertex
100
AcDb2dVertex
 10
118.6601186393948
 20
-122.9516633025955
 30
0.0
  0
SEQEND
  5
10D
330
10A
100
AcDbEntity
  8
_U+30EC_U+30A4_U+30E4_U+30FC 1
 62
   179
420
  2234388
370
     9
  0
POLYLINE
  5
10E
330
1F
100
AcDbEntity
  8
_U+30EC_U+30A4_U+30E4_U+30FC 1
 62
   179
420
  2234388
370
     9
100
AcDb2dPolyline
 66
     1
 10
0.0
 20
0.0
 30
0.0
  0
VERTEX
  5
10F
330
10E
100
AcDbEntity
  8
_U+30EC_U+30A4_U+30E4_U+30FC 1
 62
   179
420
  2234388
370
     9
100
AcDbVertex
100
AcDb2dVertex
 10
113.8604007062903
 20
-125.8378088574295
 30
0.0
  0
VERTEX
  5
110
330
10E
100
AcDbEntity
  8
_U+30EC_U+30A4_U+30E4_U+30FC 1
 62
   179
420
  2234388
370
     9
100
AcDbVertex
100
AcDb2dVertex
 10
113.8604007062903
 20
-122.3516941360787
 30
0.0
  0
SEQEND
  5
111
330
10E
100
AcDbEntity
  8
_U+30EC_U+30A4_U+30E4_U+30FC 1
 62
   179
420
  2234388
370
     9
  0
POLYLINE
  5
112
330
1F
100
AcDbEntity
  8
_U+30EC_U+30A4_U+30E4_U+30FC 1
 62
   179
420
  2234388
370
     9
100
AcDb2dPolyline
 66
     1
 10
0.0
 20
0.0
 30
0.0
  0
VERTEX
  5
113
330
112
100
AcDbEntity
  8
_U+30EC_U+30A4_U+30E4_U+30FC 1
 62
   179
420
  2234388
370
     9
100
AcDbVertex
100
AcDb2dVertex
 10
118.6601186393948
 20
-125.0841696909512
 30
0.0
  0
VERTEX
  5
114
330
112
100
AcDbEntity
  8
_U+30EC_U+30A4_U+30E4_U+30FC 1
 62
   179
420
  2234388
370
     9
100
AcDbVertex
100
AcDb2dVertex
 10
118.6601186393948
 20
-122.3516941360787
 30
0.0
  0
SEQEND
  5
115
330
112
100
AcDbEntity
  8
_U+30EC_U+30A4_U+30E4_U+30FC 1
 62
   179
420
  2234388
370
     9
  0
INSERT
  5
117
330
1F
100
AcDbEntity
  8
_U+30EC_U+30A4_U+30E4_U+30FC 1
100
AcDbBlockReference
  2
block 5
 10
0.0
 20
0.0
 30
0.0
  0
POLYLINE
  5
11E
330
1F
100
AcDbEntity
  8
_U+30EC_U+30A4_U+30E4_U+30FC 1
 62
   179
420
  2234388
370
     9
100
AcDb2dPolyline
 66
     1
 10
0.0
 20
0.0
 30
0.0
  0
VERTEX
  5
11F
330
11E
100
AcDbEntity
  8
_U+30EC_U+30A4_U+30E4_U+30FC 1
 62
   179
420
  2234388
370
     9
100
AcDbVertex
100
AcDb2dVertex
 10
118.6601186393948
 20
-122.9516633025955
 30
0.0
  0
VERTEX
  5
120
330
11E
100
AcDbEntity
  8
_U+30EC_U+30A4_U+30E4_U+30FC 1
 62
   179
420
  2234388
370
     9
100
AcDbVertex
100
AcDb2dVertex
 10
127.6604320208888
 20
-122.9516633025955
 30
0.0
  0
SEQEND
  5
121
330
11E
100
AcDbEntity
  8
_U+30EC_U+30A4_U+30E4_U+30FC 1
 62
   179
420
  2234388
370
     9
  0
POLYLINE
  5
122
330
1F
100
AcDbEntity
  8
_U+30EC_U+30A4_U+30E4_U+30FC 1
 62
   179
420
  2234388
370
     9
100
AcDb2dPolyline
 66
     1
 10
0.0
 20
0.0
 30
0.0
  0
VERTEX
  5
123
330
122
100
AcDbEntity
  8
_U+30EC_U+30A4_U+30E4_U+30FC 1
 62
   179
420
  2234388
370
     9
100
AcDbVertex
100
AcDb2dVertex
 10
127.6604320208888
 20
-125.4176505242013
 30
0.0
  0
VERTEX
  5
124
330
122
100
AcDbEntity
  8
_U+30EC_U+30A4_U+30E4_U+30FC 1
 62
   179
420
  2234388
370
     9
100
AcDbVertex
100
AcDb2dVertex
 10
127.6604320208888
 20
-122.3516941360787
 30
0.0
  0
SEQEND
  5
125
330
122
100
AcDbEntity
  8
_U+30EC_U+30A4_U+30E4_U+30FC 1
 62
   179
420
  2234388
370
     9
  0
INSERT
  5
127
330
1F
100
AcDbEntity
  8
_U+30EC_U+30A4_U+30E4_U+30FC 1
100
AcDbBlockReference
  2
block 6
 10
0.0
 20
0.0
 30
0.0
  0
POLYLINE
  5
12E
330
1F
100
AcDbEntity
  8
_U+30EC_U+30A4_U+30E4_U+30FC 1
 62
   179
420
  2234388
370
     9
100
AcDb2dPolyline
 66
     1
 10
0.0
 20
0.0
 30
0.0
  0
VERTEX
  5
12F
330
12E
100
AcDbEntity
  8
_U+30EC_U+30A4_U+30E4_U+30FC 1
 62
   179
420
  2234388
370
     9
100
AcDbVertex
100
AcDb2dVertex
 10
54.76031721405903
 20
-135.9717032993404
 30
0.0
  0
VERTEX
  5
130
330
12E
100
AcDbEntity
  8
_U+30EC_U+30A4_U+30E4_U+30FC 1
 62
   179
420
  2234388
370
     9
100
AcDbVertex
100
AcDb2dVertex
 10
61.36043649012041
 20
-135.9717032993404
 30
0.0
  0
SEQEND
  5
131
330
12E
100
AcDbEntity
  8
_U+30EC_U+30A4_U+30E4_U+30FC 1
 62
   179
420
  2234388
370
     9
  0
POLYLINE
  5
132
330
1F
100
AcDbEntity
  8
_U+30EC_U+30A4_U+30E4_U+30FC 1
 62
   179
420
  2234388
370
     9
100
AcDb2dPolyline
 66
     1
 10
0.0
 20
0.0
 30
0.0
  0
VERTEX
  5
133
330
132
100
AcDbEntity
  8
_U+30EC_U+30A4_U+30E4_U+30FC 1
 62
   179
420
  2234388
370
     9
100
AcDbVertex
100
AcDb2dVertex
 10
54.76031721405903
 20
-128.8858441344452
 30
0.0
  0
VERTEX
  5
134
330
132
100
AcDbEntity
  8
_U+30EC_U+30A4_U+30E4_U+30FC 1
 62
   179
420
  2234388
370
     9
100
AcDbVertex
100
AcDb2dVertex
 10
54.76031721405903
 20
-136.5718488547457
 30
0.0
  0
SEQEND
  5
135
330
132
100
AcDbEntity
  8
_U+30EC_U+30A4_U+30E4_U+30FC 1
 62
   179
420
  2234388
370
     9
  0
INSERT
  5
137
330
1F
100
AcDbEntity
  8
_U+30EC_U+30A4_U+30E4_U+30FC 1
100
AcDbBlockReference
  2
block 7
 10
0.0
 20
0.0
 30
0.0
  0
POLYLINE
  5
13E
330
1F
100
AcDbEntity
  8
_U+30EC_U+30A4_U+30E4_U+30FC 1
 62
   179
420
  2234388
370
     9
100
AcDb2dPolyline
 66
     1
 10
0.0
 20
0.0
 30
0.0
  0
VERTEX
  5
13F
330
13E
100
AcDbEntity
  8
_U+30EC_U+30A4_U+30E4_U+30FC 1
 62
   179
420
  2234388
370
     9
100
AcDbVertex
100
AcDb2dVertex
 10
118.3603986470413
 20
-135.9717032993404
 30
0.0
  0
VERTEX
  5
140
330
13E
100
AcDbEntity
  8
_U+30EC_U+30A4_U+30E4_U+30FC 1
 62
   179
420
  2234388
370
     9
100
AcDbVertex
100
AcDb2dVertex
 10
121.3603855149497
 20
-135.9717032993404
 30
0.0
  0
SEQEND
  5
141
330
13E
100
AcDbEntity
  8
_U+30EC_U+30A4_U+30E4_U+30FC 1
 62
   179
420
  2234388
370
     9
  0
POLYLINE
  5
142
330
1F
100
AcDbEntity
  8
_U+30EC_U+30A4_U+30E4_U+30FC 1
 62
   179
420
  2234388
370
     9
100
AcDb2dPolyline
 66
     1
 10
0.0
 20
0.0
 30
0.0
  0
VERTEX
  5
143
330
142
100
AcDbEntity
  8
_U+30EC_U+30A4_U+30E4_U+30FC 1
 62
   179
420
  2234388
370
     9
100
AcDbVertex
100
AcDb2dVertex
 10
121.3603855149497
 20
-134.3755955219615
 30
0.0
  0
VERTEX
  5
144
330
142
100
AcDbEntity
  8
_U+30EC_U+30A4_U+30E4_U+30FC 1
 62
   179
420
  2234388
370
     9
100
AcDbVertex
100
AcDb2dVertex
 10
121.3603855149497
 20
-136.5718488547457
 30
0.0
  0
SEQEND
  5
145
330
142
100
AcDbEntity
  8
_U+30EC_U+30A4_U+30E4_U+30FC 1
 62
   179
420
  2234388
370
     9
  0
INSERT
  5
147
330
1F
100
AcDbEntity
  8
_U+30EC_U+30A4_U+30E4_U+30FC 1
100
AcDbBlockReference
  2
block 8
 10
0.0
 20
0.0
 30
0.0
  0
POLYLINE
  5
14C
330
1F
100
AcDbEntity
  8
_U+30EC_U+30A4_U+30E4_U+30FC 1
 62
   179
420
  2234388
370
     9
100
AcDb2dPolyline
 66
     1
 10
0.0
 20
0.0
 30
0.0
  0
VERTEX
  5
14D
330
14C
100
AcDbEntity
  8
_U+30EC_U+30A4_U+30E4_U+30FC 1
 62
   179
420
  2234388
370
     9
100
AcDbVertex
100
AcDb2dVertex
 10
118.3603986470413
 20
-135.9717032993404
 30
0.0
  0
VERTEX
  5
14E
330
14C
100
AcDbEntity
  8
_U+30EC_U+30A4_U+30E4_U+30FC 1
 62
   179
420
  2234388
370
     9
100
AcDbVertex
100
AcDb2dVertex
 10
61.36043649012041
 20
-135.9717032993404
 30
0.0
  0
SEQEND
  5
14F
330
14C
100
AcDbEntity
  8
_U+30EC_U+30A4_U+30E4_U+30FC 1
 62
   179
420
  2234388
370
     9
  0
POLYLINE
  5
150
330
1F
100
AcDbEntity
  8
_U+30EC_U+30A4_U+30E4_U+30FC 1
 62
   179
420
  2234388
370
     9
100
AcDb2dPolyline
 66
     1
 10
0.0
 20
0.0
 30
0.0
  0
VERTEX
  5
151
330
150
100
AcDbEntity
  8
_U+30EC_U+30A4_U+30E4_U+30FC 1
 62
   179
420
  2234388
370
     9
100
AcDbVertex
100
AcDb2dVertex
 10
118.3603986470413
 20
-134.3755955219615
 30
0.0
  0
VERTEX
  5
152
330
150
100
AcDbEntity
  8
_U+30EC_U+30A4_U+30E4_U+30FC 1
 62
   179
420
  2234388
370
     9
100
AcDbVertex
100
AcDb2dVertex
 10
118.3603986470413
 20
-136.5718488547457
 30
0.0
  0
SEQEND
  5
153
330
150
100
AcDbEntity
  8
_U+30EC_U+30A4_U+30E4_U+30FC 1
 62
   179
420
  2234388
370
     9
  0
POLYLINE
  5
154
330
1F
100
AcDbEntity
  8
_U+30EC_U+30A4_U+30E4_U+30FC 1
 62
   179
420
  2234388
370
     9
100
AcDb2dPolyline
 66
     1
 10
0.0
 20
0.0
 30
0.0
  0
VERTEX
  5
155
330
154
100
AcDbEntity
  8
_U+30EC_U+30A4_U+30E4_U+30FC 1
 62
   179
420
  2234388
370
     9
100
AcDbVertex
100
AcDb2dVertex
 10
61.36043649012041
 20
-134.3755955219615
 30
0.0
  0
VERTEX
  5
156
330
154
100
AcDbEntity
  8
_U+30EC_U+30A4_U+30E4_U+30FC 1
 62
   179
420
  2234388
370
     9
100
AcDbVertex
100
AcDb2dVertex
 10
61.36043649012041
 20
-136.5718488547457
 30
0.0
  0
SEQEND
  5
157
330
154
100
AcDbEntity
  8
_U+30EC_U+30A4_U+30E4_U+30FC 1
 62
   179
420
  2234388
370
     9
  0
INSERT
  5
159
330
1F
100
AcDbEntity
  8
_U+30EC_U+30A4_U+30E4_U+30FC 1
100
AcDbBlockReference
  2
block 9
 10
0.0
 20
0.0
 30
0.0
  0
ENDSEC
  0
SECTION
  2
OBJECTS
  0
DICTIONARY
  5
C
330
0
100
AcDbDictionary
281
     1
  3
ACAD_GROUP
350
D
  3
ACAD_LAYOUT
350
1A
  3
ACAD_MATERIAL
350
3B
  3
ACAD_MLEADERSTYLE
350
162
  3
ACAD_MLINESTYLE
350
17
  3
ACAD_PLOTSETTINGS
350
19
  3
ACAD_PLOTSTYLENAME
350
E
  3
ACAD_TABLESTYLE
350
161
  3
ACAD_VISUALSTYLE
350
2A
  0
SUN
  5
3F
330
29
100
AcDbSun
 90
        1
290
     0
 63
     7
421
 16777215
 40
1.0
291
     1
 91
  2455826
 92
 54000000
292
     0
 70
     2
 71
   256
280
     1
  0
DICTIONARY
  5
D
102
{ACAD_REACTORS
330
C
102
}
330
C
100
AcDbDictionary
281
     1
  0
DICTIONARY
  5
1A
102
{ACAD_REACTORS
330
C
102
}
330
C
100
AcDbDictionary
281
     1
  3
Layout1
350
1E
  3
Layout2
350
26
  3
Model
350
22
  0
DICTIONARY
  5
3B
102
{ACAD_REACTORS
330
C
102
}
330
C
100
AcDbDictionary
281
     1
  3
ByBlock
350
3D
  3
ByLayer
350
3C
  3
Global
350
3E
  0
DICTIONARY
  5
162
102
{ACAD_REACTORS
330
C
102
}
330
C
100
AcDbDictionary
281
     1
  0
DICTIONARY
  5
17
102
{ACAD_REACTORS
330
C
102
}
330
C
100
AcDbDictionary
281
     1
  3
Standard
350
18
  0
DICTIONARY
  5
19
102
{ACAD_REACTORS
330
C
102
}
330
C
100
AcDbDictionary
281
     1
  0
ACDBDICTIONARYWDFLT
  5
E
102
{ACAD_REACTORS
330
C
102
}
330
C
100
AcDbDictionary
281
     1
  3
Normal
350
F
100
AcDbDictionaryWithDefault
340
F
  0
DICTIONARY
  5
161
102
{ACAD_REACTORS
330
C
102
}
330
C
100
AcDbDictionary
281
     1
  0
DICTIONARY
  5
2A
102
{ACAD_REACTORS
330
C
102
}
330
C
100
AcDbDictionary
281
     1
  3
2dWireframe
350
2F
  3
3D Hidden
350
31
  3
3dWireframe
350
30
  3
Basic
350
32
  3
Brighten
350
36
  3
ColorChange
350
3A
  3
Conceptual
350
34
  3
Dim
350
35
  3
Facepattern
350
39
  3
Flat
350
2B
  3
FlatWithEdges
350
2C
  3
Gouraud
350
2D
  3
GouraudWithEdges
350
2E
  3
Linepattern
350
38
  3
Realistic
350
33
  3
Thicken
350
37
  0
LAYOUT
  5
1E
102
{ACAD_REACTORS
330
1A
102
}
330
1A
100
AcDbPlotSettings
  1

  2
none_device
  4

  6

 40
0.0
 41
0.0
 42
0.0
 43
0.0
 44
0.0
 45
0.0
 46
0.0
 47
0.0
 48
0.0
 49
0.0
140
0.0
141
0.0
142
1.0
143
1.0
 70
   688
 72
     0
 73
     0
 74
     5
  7

 75
    16
 76
     0
 77
     2
 78
   300
147
1.0
148
0.0
149
0.0
100
AcDbLayout
  1
Layout1
 70
     1
 71
     1
 10
0.0
 20
0.0
 11
12.0
 21
9.0
 12
0.0
 22
0.0
 32
0.0
 14
1.000000000000000E+20
 24
1.000000000000000E+20
 34
1.000000000000000E+20
 15
-1.000000000000000E+20
 25
-1.000000000000000E+20
 35
-1.000000000000000E+20
146
0.0
 13
0.0
 23
0.0
 33
0.0
 16
1.0
 26
0.0
 36
0.0
 17
0.0
 27
1.0
 37
0.0
 76
     0
330
1B
  0
LAYOUT
  5
26
102
{ACAD_REACTORS
330
1A
102
}
330
1A
100
AcDbPlotSettings
  1

  2
none_device
  4

  6

 40
0.0
 41
0.0
 42
0.0
 43
0.0
 44
0.0
 45
0.0
 46
0.0
 47
0.0
 48
0.0
 49
0.0
140
0.0
141
0.0
142
1.0
143
1.0
 70
   688
 72
     0
 73
     0
 74
     5
  7

 75
    16
 76
     0
 77
     2
 78
   300
147
1.0
148
0.0
149
0.0
100
AcDbLayout
  1
Layout2
 70
     1
 71
     2
 10
0.0
 20
0.0
 11
0.0
 21
0.0
 12
0.0
 22
0.0
 32
0.0
 14
0.0
 24
0.0
 34
0.0
 15
0.0
 25
0.0
 35
0.0
146
0.0
 13
0.0
 23
0.0
 33
0.0
 16
1.0
 26
0.0
 36
0.0
 17
0.0
 27
1.0
 37
0.0
 76
     0
330
23
  0
LAYOUT
  5
22
102
{ACAD_REACTORS
330
1A
102
}
330
1A
100
AcDbPlotSettings
  1

  2
none_device
  4

  6

 40
0.0
 41
0.0
 42
0.0
 43
0.0
 44
0.0
 45
0.0
 46
0.0
 47
0.0
 48
0.0
 49
0.0
140
0.0
141
0.0
142
1.0
143
1.0
 70
  1712
 72
     0
 73
     0
 74
     0
  7

 75
     0
 76
     0
 77
     2
 78
   300
147
1.0
148
0.0
149
0.0
100
AcDbLayout
  1
Model
 70
     1
 71
     0
 10
0.0
 20
0.0
 11
12.0
 21
9.0
 12
0.0
 22
0.0
 32
0.0
 14
1.000000000000000E+20
 24
1.000000000000000E+20
 34
1.000000000000000E+20
 15
-1.000000000000000E+20
 25
-1.000000000000000E+20
 35
-1.000000000000000E+20
146
0.0
 13
0.0
 23
0.0
 33
0.0
 16
1.0
 26
0.0
 36
0.0
 17
0.0
 27
1.0
 37
0.0
 76
     0
330
1F
331
29
  0
MATERIAL
  5
3D
102
{ACAD_REACTORS
330
3B
102
}
330
3B
100
AcDbMaterial
  1
ByBlock
 72
     1
 94
      127
  0
MATERIAL
  5
3C
102
{ACAD_REACTORS
330
3B
102
}
330
3B
100
AcDbMaterial
  1
ByLayer
 72
     1
 94
      127
  0
MATERIAL
  5
3E
102
{ACAD_REACTORS
330
3B
102
}
330
3B
100
AcDbMaterial
  1
Global
 72
     1
 94
      127
  0
MLINESTYLE
  5
18
102
{ACAD_REACTORS
330
17
102
}
330
17
100
AcDbMlineStyle
  2
Standard
 70
     0
  3

 62
   256
 51
90.0
 52
90.0
 71
     2
 49
0.5
 62
   256
  6
BYLAYER
 49
-0.5
 62
   256
  6
BYLAYER
  0
ACDBPLACEHOLDER
  5
F
102
{ACAD_REACTORS
330
E
102
}
330
E
  0
VISUALSTYLE
  5
2F
102
{ACAD_REACTORS
330
2A
102
}
330
2A
100
AcDbVisualStyle
  2
2dWireframe
 70
     4
177
     2
291
     0
 71
     0
176
     1
 72
     2
176
     1
 73
     0
176
     1
 90
        0
176
     1
 40
-0.6
176
     1
 41
-30.0
176
     1
 62
     5
 63
     7
421
 16777215
176
     1
 74
     1
176
     1
 91
        4
176
     1
 64
     7
176
     1
 65
   257
176
     1
 75
     1
176
     1
175
     1
176
     1
 42
1.0
176
     1
 92
        0
176
     1
 66
   257
176
     1
 43
1.0
176
     1
 76
     1
176
     1
 77
     6
176
     1
 78
     2
176
     1
 67
     7
176
     1
 79
     5
176
     1
170
     0
176
     1
171
     0
176
     1
290
     0
176
     1
 93
        1
176
     1
 44
0.0
176
     1
173
     0
176
     1
  0
VISUALSTYLE
  5
31
102
{ACAD_REACTORS
330
2A
102
}
330
2A
100
AcDbVisualStyle
  2
3D Hidden
 70
     6
177
     2
291
     0
 71
     1
176
     1
 72
     2
176
     1
 73
     2
176
     1
 90
        0
176
     1
 40
-0.6
176
     1
 41
-30.0
176
     1
 62
     5
 63
     7
421
 16777215
176
     1
 74
     2
176
     1
 91
        2
176
     1
 64
     7
176
     1
 65
   257
176
     1
 75
     2
176
     1
175
     1
176
     1
 42
40.0
176
     1
 92
        0
176
     1
 66
   257
176
     1
 43
1.0
176
     1
 76
     1
176
     1
 77
     6
176
     1
 78
     2
176
     1
 67
     7
176
     1
 79
     3
176
     1
170
     0
176
     1
171
     0
176
     1
290
     0
176
     1
 93
        1
176
     1
 44
0.0
176
     1
173
     0
176
     1
  0
VISUALSTYLE
  5
30
102
{ACAD_REACTORS
330
2A
102
}
330
2A
100
AcDbVisualStyle
  2
3dWireframe
 70
     5
177
     2
291
     0
 71
     0
176
     1
 72
     2
176
     1
 73
     0
176
     1
 90
        0
176
     1
 40
-0.6
176
     1
 41
-30.0
176
     1
 62
     5
 63
     7
421
 16777215
176
     1
 74
     1
176
     1
 91
        4
176
     1
 64
     7
176
     1
 65
   257
176
     1
 75
     1
176
     1
175
     1
176
     1
 42
1.0
176
     1
 92
        0
176
     1
 66
   257
176
     1
 43
1.0
176
     1
 76
     1
176
     1
 77
     6
176
     1
 78
     2
176
     1
 67
     7
176
     1
 79
     5
176
     1
170
     0
176
     1
171
     0
176
     1
290
     0
176
     1
 93
        1
176
     1
 44
0.0
176
     1
173
     0
176
     1
  0
VISUALSTYLE
  5
32
102
{ACAD_REACTORS
330
2A
102
}
330
2A
100
AcDbVisualStyle
  2
Basic
 70
     7
177
     2
291
     1
 71
     1
176
     1
 72
     0
176
     1
 73
     1
176
     1
 90
        0
176
     1
 40
-0.6
176
     1
 41
-30.0
176
     1
 62
     5
 63
     7
421
 16777215
176
     1
 74
     0
176
     1
 91
        4
176
     1
 64
     7
176
     1
 65
   257
176
     1
 75
     1
176
     1
175
     1
176
     1
 42
1.0
176
     1
 92
        8
176
     1
 66
     7
176
     1
 43
1.0
176
     1
 76
     1
176
     1
 77
     6
176
     1
 78
     2
176
     1
 67
     7
176
     1
 79
     5
176
     1
170
     0
176
     1
171
     0
176
     1
290
     0
176
     1
 93
        1
176
     1
 44
0.0
176
     1
173
     0
176
     1
  0
VISUALSTYLE
  5
36
102
{ACAD_REACTORS
330
2A
102
}
330
2A
100
AcDbVisualStyle
  2
Brighten
 70
    12
177
     2
291
     1
 71
     2
176
     1
 72
     2
176
     1
 73
     0
176
     1
 90
        0
176
     1
 40
-0.6
176
     1
 41
-30.0
176
     1
 62
     5
 63
     7
421
 16777215
176
     1
 74
     1
176
     1
 91
        4
176
     1
 64
     7
176
     1
 65
   257
176
     1
 75
     1
176
     1
175
     1
176
     1
 42
1.0
176
     1
 92
        8
176
     1
 66
     7
176
     1
 43
1.0
176
     1
 76
     1
176
     1
 77
     6
176
     1
 78
     2
176
     1
 67
     7
176
     1
 79
     5
176
     1
170
     0
176
     1
171
     0
176
     1
290
     0
176
     1
 93
        1
176
     1
 44
50.0
176
     1
173
     0
176
     1
  0
VISUALSTYLE
  5
3A
102
{ACAD_REACTORS
330
2A
102
}
330
2A
100
AcDbVisualStyle
  2
ColorChange
 70
    16
177
     2
291
     1
 71
     2
176
     1
 72
     2
176
     1
 73
     3
176
     1
 90
        0
176
     1
 40
-0.6
176
     1
 41
-30.0
176
     1
 62
     5
 63
     8
421
  8421504
176
     1
 74
     1
176
     1
 91
        4
176
     1
 64
     7
176
     1
 65
   257
176
     1
 75
     1
176
     1
175
     1
176
     1
 42
1.0
176
     1
 92
        8
176
     1
 66
     8
424
  8421504
176
     1
 43
1.0
176
     1
 76
     1
176
     1
 77
     6
176
     1
 78
     2
176
     1
 67
     7
176
     1
 79
     5
176
     1
170
     0
176
     1
171
     0
176
     1
290
     0
176
     1
 93
        1
176
     1
 44
0.0
176
     1
173
     0
176
     1
  0
VISUALSTYLE
  5
34
102
{ACAD_REACTORS
330
2A
102
}
330
2A
100
AcDbVisualStyle
  2
Conceptual
 70
     9
177
     2
291
     0
 71
     3
176
     1
 72
     2
176
     1
 73
     0
176
     1
 90
        0
176
     1
 40
-0.6
176
     1
 41
-30.0
176
     1
 62
     5
 63
     7
421
 16777215
176
     1
 74
     2
176
     1
 91
        2
176
     1
 64
     7
176
     1
 65
   257
176
     1
 75
     1
176
     1
175
     1
176
     1
 42
40.0
176
     1
 92
        8
176
     1
 66
     7
176
     1
 43
1.0
176
     1
 76
     1
176
     1
 77
     6
176
     1
 78
     2
176
     1
 67
     7
176
     1
 79
     3
176
     1
170
     0
176
     1
171
     0
176
     1
290
     0
176
     1
 93
        1
176
     1
 44
0.0
176
     1
173
     0
176
     1
  0
VISUALSTYLE
  5
35
102
{ACAD_REACTORS
330
2A
102
}
330
2A
100
AcDbVisualStyle
  2
Dim
 70
    11
177
     2
291
     1
 71
     2
176
     1
 72
     2
176
     1
 73
     0
176
     1
 90
        0
176
     1
 40
-0.6
176
     1
 41
-30.0
176
     1
 62
     5
 63
     7
421
 16777215
176
     1
 74
     1
176
     1
 91
        4
176
     1
 64
     7
176
     1
 65
   257
176
     1
 75
     1
176
     1
175
     1
176
     1
 42
1.0
176
     1
 92
        8
176
     1
 66
     7
176
     1
 43
1.0
176
     1
 76
     1
176
     1
 77
     6
176
     1
 78
     2
176
     1
 67
     7
176
     1
 79
     5
176
     1
170
     0
176
     1
171
     0
176
     1
290
     0
176
     1
 93
        1
176
     1
 44
-50.0
176
     1
173
     0
176
     1
  0
VISUALSTYLE
  5
39
102
{ACAD_REACTORS
330
2A
102
}
330
2A
100
AcDbVisualStyle
  2
Facepattern
 70
    15
177
     2
291
     1
 71
     2
176
     1
 72
     2
176
     1
 73
     0
176
     1
 90
        0
176
     1
 40
-0.6
176
     1
 41
-30.0
176
     1
 62
     5
 63
     7
421
 16777215
176
     1
 74
     1
176
     1
 91
        4
176
     1
 64
     7
176
     1
 65
   257
176
     1
 75
     1
176
     1
175
     1
176
     1
 42
1.0
176
     1
 92
        8
176
     1
 66
     7
176
     1
 43
1.0
176
     1
 76
     1
176
     1
 77
     6
176
     1
 78
     2
176
     1
 67
     7
176
     1
 79
     5
176
     1
170
     0
176
     1
171
     0
176
     1
290
     0
176
     1
 93
        1
176
     1
 44
0.0
176
     1
173
     0
176
     1
  0
VISUALSTYLE
  5
2B
102
{ACAD_REACTORS
330
2A
102
}
330
2A
100
AcDbVisualStyle
  2
Flat
 70
     0
177
     2
291
     1
 71
     2
176
     1
 72
     1
176
     1
 73
     1
176
     1
 90
        2
176
     1
 40
-0.6
176
     1
 41
30.0
176
     1
 62
     5
 63
     7
421
 16777215
176
     1
 74
     0
176
     1
 91
        4
176
     1
 64
     7
176
     1
 65
   257
176
     1
 75
     1
176
     1
175
     1
176
     1
 42
1.0
176
     1
 92
        8
176
     1
 66
     7
176
     1
 43
1.0
176
     1
 76
     1
176
     1
 77
     6
176
     1
 78
     2
176
     1
 67
     7
176
     1
 79
     5
176
     1
170
     0
176
     1
171
     0
176
     1
290
     0
176
     1
 93
       13
176
     1
 44
0.0
176
     1
173
     0
176
     1
  0
VISUALSTYLE
  5
2C
102
{ACAD_REACTORS
330
2A
102
}
330
2A
100
AcDbVisualStyle
  2
FlatWithEdges
 70
     1
177
     2
291
     1
 71
     2
176
     1
 72
     1
176
     1
 73
     1
176
     1
 90
        2
176
     1
 40
-0.6
176
     1
 41
30.0
176
     1
 62
     5
 63
     7
421
 16777215
176
     1
 74
     1
176
     1
 91
        4
176
     1
 64
     7
176
     1
 65
   257
176
     1
 75
     1
176
     1
175
     1
176
     1
 42
1.0
176
     1
 92
        0
176
     1
 66
   257
176
     1
 43
1.0
176
     1
 76
     1
176
     1
 77
     6
176
     1
 78
     2
176
     1
 67
     7
176
     1
 79
     5
176
     1
170
     0
176
     1
171
     0
176
     1
290
     0
176
     1
 93
       13
176
     1
 44
0.0
176
     1
173
     0
176
     1
  0
VISUALSTYLE
  5
2D
102
{ACAD_REACTORS
330
2A
102
}
330
2A
100
AcDbVisualStyle
  2
Gouraud
 70
     2
177
     2
291
     1
 71
     2
176
     1
 72
     2
176
     1
 73
     1
176
     1
 90
        2
176
     1
 40
-0.6
176
     1
 41
30.0
176
     1
 62
     5
 63
     7
421
 16777215
176
     1
 74
     0
176
     1
 91
        4
176
     1
 64
     7
176
     1
 65
   257
176
     1
 75
     1
176
     1
175
     1
176
     1
 42
1.0
176
     1
 92
        0
176
     1
 66
     7
176
     1
 43
1.0
176
     1
 76
     1
176
     1
 77
     6
176
     1
 78
     2
176
     1
 67
     7
176
     1
 79
     5
176
     1
170
     0
176
     1
171
     0
176
     1
290
     0
176
     1
 93
       13
176
     1
 44
0.0
176
     1
173
     0
176
     1
  0
VISUALSTYLE
  5
2E
102
{ACAD_REACTORS
330
2A
102
}
330
2A
100
AcDbVisualStyle
  2
GouraudWithEdges
 70
     3
177
     2
291
     1
 71
     2
176
     1
 72
     2
176
     1
 73
     1
176
     1
 90
        2
176
     1
 40
-0.6
176
     1
 41
30.0
176
     1
 62
     5
 63
     7
421
 16777215
176
     1
 74
     1
176
     1
 91
        4
176
     1
 64
     7
176
     1
 65
   257
176
     1
 75
     1
176
     1
175
     1
176
     1
 42
1.0
176
     1
 92
        0
176
     1
 66
   257
176
     1
 43
1.0
176
     1
 76
     1
176
     1
 77
     6
176
     1
 78
     2
176
     1
 67
     7
176
     1
 79
     5
176
     1
170
     0
176
     1
171
     0
176
     1
290
     0
176
     1
 93
       13
176
     1
 44
0.0
176
     1
173
     0
176
     1
  0
VISUALSTYLE
  5
38
102
{ACAD_REACTORS
330
2A
102
}
330
2A
100
AcDbVisualStyle
  2
Linepattern
 70
    14
177
     2
291
     1
 71
     2
176
     1
 72
     2
176
     1
 73
     0
176
     1
 90
        0
176
     1
 40
-0.6
176
     1
 41
-30.0
176
     1
 62
     5
 63
     7
421
 16777215
176
     1
 74
     1
176
     1
 91
        4
176
     1
 64
     7
176
     1
 65
   257
176
     1
 75
     7
176
     1
175
     7
176
     1
 42
1.0
176
     1
 92
        8
176
     1
 66
     7
176
     1
 43
1.0
176
     1
 76
     1
176
     1
 77
     6
176
     1
 78
     2
176
     1
 67
     7
176
     1
 79
     5
176
     1
170
     0
176
     1
171
     0
176
     1
290
     0
176
     1
 93
        1
176
     1
 44
0.0
176
     1
173
     0
176
     1
  0
VISUALSTYLE
  5
33
102
{ACAD_REACTORS
330
2A
102
}
330
2A
100
AcDbVisualStyle
  2
Realistic
 70
     8
177
     2
291
     0
 71
     2
176
     1
 72
     2
176
     1
 73
     0
176
     1
 90
        0
176
     1
 40
-0.6
176
     1
 41
-30.0
176
     1
 62
     5
 63
     7
421
 16777215
176
     1
 74
     1
176
     1
 91
        0
176
     1
 64
     7
176
     1
 65
   257
176
     1
 75
     1
176
     1
175
     1
176
     1
 42
1.0
176
     1
 92
        8
176
     1
 66
     8
424
  7895160
176
     1
 43
1.0
176
     1
 76
     1
176
     1
 77
     6
176
     1
 78
     2
176
     1
 67
     7
176
     1
 79
     5
176
     1
170
     0
176
     1
171
     0
176
     1
290
     0
176
     1
 93
       13
176
     1
 44
0.0
176
     1
173
     0
176
     1
  0
VISUALSTYLE
  5
37
102
{ACAD_REACTORS
330
2A
102
}
330
2A
100
AcDbVisualStyle
  2
Thicken
 70
    13
177
     2
291
     1
 71
     2
176
     1
 72
     2
176
     1
 73
     0
176
     1
 90
        0
176
     1
 40
-0.6
176
     1
 41
-30.0
176
     1
 62
     5
 63
     7
421
 16777215
176
     1
 74
     1
176
     1
 91
        4
176
     1
 64
     7
176
     1
 65
   257
176
     1
 75
     1
176
     1
175
     1
176
     1
 42
1.0
176
     1
 92
       12
176
     1
 66
     7
176
     1
 43
1.0
176
     1
 76
     1
176
     1
 77
     6
176
     1
 78
     2
176
     1
 67
     7
176
     1
 79
     5
176
     1
170
     0
176
     1
171
     0
176
     1
290
     0
176
     1
 93
        1
176
     1
 44
0.0
176
     1
173
     0
176
     1
  0
ENDSEC
  0
EOF
