  0
SECTION
  2
HEADER
  9
$ACADVER
  1
AC1024
  9
$ACADMAINTVER
 70
     6
  9
$DWGCODEPAGE
  3
UNDEFINED
  9
$INSBASE
 10
0.0
 20
0.0
 30
0.0
  9
$EXTMIN
 10
1.000000000000000E+20
 20
1.000000000000000E+20
 30
1.000000000000000E+20
  9
$EXTMAX
 10
-1.000000000000000E+20
 20
-1.000000000000000E+20
 30
-1.000000000000000E+20
  9
$LIMMIN
 10
0.0
 20
0.0
  9
$LIMMAX
 10
12.0
 20
9.0
  9
$ORTHOMODE
 70
     0
  9
$REGENMODE
 70
     1
  9
$FILLMODE
 70
     1
  9
$QTEXTMODE
 70
     0
  9
$MIRRTEXT
 70
     1
  9
$LTSCALE
 40
1.0
  9
$ATTMODE
 70
     1
  9
$TEXTSIZE
 40
0.2
  9
$TRACEWID
 40
0.05
  9
$TEXTSTYLE
  7
Standard
  9
$CLAYER
  8
0
  9
$CELTYPE
  6
ByLayer
  9
$CECOLOR
 62
   256
  9
$CELTSCALE
 40
1.0
  9
$DISPSILH
 70
     0
  9
$DIMSCALE
 40
1.0
  9
$DIMASZ
 40
0.18
  9
$DIMEXO
 40
0.0625
  9
$DIMDLI
 40
0.38
  9
$DIMRND
 40
0.0
  9
$DIMDLE
 40
0.0
  9
$DIMEXE
 40
0.18
  9
$DIMTP
 40
0.0
  9
$DIMTM
 40
0.0
  9
$DIMTXT
 40
0.18
  9
$DIMCEN
 40
0.09
  9
$DIMTSZ
 40
0.0
  9
$DIMTOL
 70
     0
  9
$DIMLIM
 70
     0
  9
$DIMTIH
 70
     1
  9
$DIMTOH
 70
     1
  9
$DIMSE1
 70
     0
  9
$DIMSE2
 70
     0
  9
$DIMTAD
 70
     0
  9
$DIMZIN
 70
     0
  9
$DIMBLK
  1

  9
$DIMASO
 70
     1
  9
$DIMSHO
 70
     1
  9
$DIMPOST
  1

  9
$DIMAPOST
  1

  9
$DIMALT
 70
     0
  9
$DIMALTD
 70
     2
  9
$DIMALTF
 40
25.4
  9
$DIMLFAC
 40
1.0
  9
$DIMTOFL
 70
     0
  9
$DIMTVP
 40
0.0
  9
$DIMTIX
 70
     0
  9
$DIMSOXD
 70
     0
  9
$DIMSAH
 70
     0
  9
$DIMBLK1
  1

  9
$DIMBLK2
  1

  9
$DIMSTYLE
  2
Standard
  9
$DIMCLRD
 70
     0
  9
$DIMCLRE
 70
     0
  9
$DIMCLRT
 70
     0
  9
$DIMTFAC
 40
1.0
  9
$DIMGAP
 40
0.09
  9
$DIMJUST
 70
     0
  9
$DIMSD1
 70
     0
  9
$DIMSD2
 70
     0
  9
$DIMTOLJ
 70
     1
  9
$DIMTZIN
 70
     0
  9
$DIMALTZ
 70
     0
  9
$DIMALTTZ
 70
     0
  9
$DIMUPT
 70
     0
  9
$DIMDEC
 70
     4
  9
$DIMTDEC
 70
     4
  9
$DIMALTU
 70
     2
  9
$DIMALTTD
 70
     2
  9
$DIMTXSTY
  7
Standard
  9
$DIMAUNIT
 70
     0
  9
$DIMADEC
 70
     0
  9
$DIMALTRND
 40
0.0
  9
$DIMAZIN
 70
     0
  9
$DIMDSEP
 70
    46
  9
$DIMATFIT
 70
     3
  9
$DIMFRAC
 70
     0
  9
$DIMLDRBLK
  1

  9
$DIMLUNIT
 70
     2
  9
$DIMLWD
 70
    -2
  9
$DIMLWE
 70
    -2
  9
$DIMTMOVE
 70
     0
  9
$DIMFXL
 40
1.0
  9
$DIMFXLON
 70
     0
  9
$DIMJOGANG
 40
0.7853981633974483
  9
$DIMTFILL
 70
     0
  9
$DIMTFILLCLR
 70
     0
  9
$DIMARCSYM
 70
     0
  9
$DIMLTYPE
  6

  9
$DIMLTEX1
  6

  9
$DIMLTEX2
  6

  9
$DIMTXTDIRECTION
 70
     0
  9
$LUNITS
 70
     2
  9
$LUPREC
 70
     4
  9
$SKETCHINC
 40
0.1
  9
$FILLETRAD
 40
0.5
  9
$AUNITS
 70
     0
  9
$AUPREC
 70
     0
  9
$MENU
  1
.
  9
$ELEVATION
 40
0.0
  9
$PELEVATION
 40
0.0
  9
$THICKNESS
 40
0.0
  9
$LIMCHECK
 70
     0
  9
$CHAMFERA
 40
0.5
  9
$CHAMFERB
 40
0.5
  9
$CHAMFERC
 40
1.0
  9
$CHAMFERD
 40
0.0
  9
$SKPOLY
 70
     0
  9
$TDCREATE
 40
2457917.626875
  9
$TDUCREATE
 40
2457917.251875
  9
$TDUPDATE
 40
2457917.626875
  9
$TDUUPDATE
 40
2457917.251875
  9
$TDINDWG
 40
0.0000000116
  9
$TDUSRTIMER
 40
0.0000000116
  9
$USRTIMER
 70
     1
  9
$ANGBASE
 50
0.0
  9
$ANGDIR
 70
     0
  9
$PDMODE
 70
     0
  9
$PDSIZE
 40
0.0
  9
$PLINEWID
 40
0.0
  9
$SPLFRAME
 70
     0
  9
$SPLINETYPE
 70
     6
  9
$SPLINESEGS
 70
     8
  9
$HANDSEED
  5
168
  9
$SURFTAB1
 70
     6
  9
$SURFTAB2
 70
     6
  9
$SURFTYPE
 70
     6
  9
$SURFU
 70
     6
  9
$SURFV
 70
     6
  9
$UCSBASE
  2

  9
$UCSNAME
  2

  9
$UCSORG
 10
0.0
 20
0.0
 30
0.0
  9
$UCSXDIR
 10
1.0
 20
0.0
 30
0.0
  9
$UCSYDIR
 10
0.0
 20
1.0
 30
0.0
  9
$UCSORTHOREF
  2

  9
$UCSORTHOVIEW
 70
     0
  9
$UCSORGTOP
 10
0.0
 20
0.0
 30
0.0
  9
$UCSORGBOTTOM
 10
0.0
 20
0.0
 30
0.0
  9
$UCSORGLEFT
 10
0.0
 20
0.0
 30
0.0
  9
$UCSORGRIGHT
 10
0.0
 20
0.0
 30
0.0
  9
$UCSORGFRONT
 10
0.0
 20
0.0
 30
0.0
  9
$UCSORGBACK
 10
0.0
 20
0.0
 30
0.0
  9
$PUCSBASE
  2

  9
$PUCSNAME
  2

  9
$PUCSORG
 10
0.0
 20
0.0
 30
0.0
  9
$PUCSXDIR
 10
1.0
 20
0.0
 30
0.0
  9
$PUCSYDIR
 10
0.0
 20
1.0
 30
0.0
  9
$PUCSORTHOREF
  2

  9
$PUCSORTHOVIEW
 70
     0
  9
$PUCSORGTOP
 10
0.0
 20
0.0
 30
0.0
  9
$PUCSORGBOTTOM
 10
0.0
 20
0.0
 30
0.0
  9
$PUCSORGLEFT
 10
0.0
 20
0.0
 30
0.0
  9
$PUCSORGRIGHT
 10
0.0
 20
0.0
 30
0.0
  9
$PUCSORGFRONT
 10
0.0
 20
0.0
 30
0.0
  9
$PUCSORGBACK
 10
0.0
 20
0.0
 30
0.0
  9
$USERI1
 70
     0
  9
$USERI2
 70
     0
  9
$USERI3
 70
     0
  9
$USERI4
 70
     0
  9
$USERI5
 70
     0
  9
$USERR1
 40
0.0
  9
$USERR2
 40
0.0
  9
$USERR3
 40
0.0
  9
$USERR4
 40
0.0
  9
$USERR5
 40
0.0
  9
$WORLDVIEW
 70
     1
  9
$SHADEDGE
 70
     3
  9
$SHADEDIF
 70
    70
  9
$TILEMODE
 70
     1
  9
$MAXACTVP
 70
    64
  9
$PINSBASE
 10
0.0
 20
0.0
 30
0.0
  9
$PLIMCHECK
 70
     0
  9
$PEXTMIN
 10
1.000000000000000E+20
 20
1.000000000000000E+20
 30
1.000000000000000E+20
  9
$PEXTMAX
 10
-1.000000000000000E+20
 20
-1.000000000000000E+20
 30
-1.000000000000000E+20
  9
$PLIMMIN
 10
0.0
 20
0.0
  9
$PLIMMAX
 10
12.0
 20
9.0
  9
$UNITMODE
 70
     0
  9
$VISRETAIN
 70
     1
  9
$PLINEGEN
 70
     0
  9
$PSLTSCALE
 70
     1
  9
$TREEDEPTH
 70
  3020
  9
$CMLSTYLE
  2
Standard
  9
$CMLJUST
 70
     0
  9
$CMLSCALE
 40
1.0
  9
$PROXYGRAPHICS
 70
     1
  9
$MEASUREMENT
 70
     0
  9
$CELWEIGHT
370
    -1
  9
$ENDCAPS
280
     0
  9
$JOINSTYLE
280
     0
  9
$LWDISPLAY
290
     1
  9
$INSUNITS
 70
     1
  9
$HYPERLINKBASE
  1

  9
$STYLESHEET
  1

  9
$XEDIT
290
     1
  9
$CEPSNTYPE
380
     0
  9
$PSTYLEMODE
290
     1
  9
$FINGERPRINTGUID
  2
{EB8A03BB-A7FD-01ED-EFAB-DF1C45F4AAE6}
  9
$VERSIONGUID
  2
{FAEB1C32-E019-11D5-929B-00C0DF256EC4}
  9
$EXTNAMES
290
     1
  9
$PSVPSCALE
 40
0.0
  9
$OLESTARTUP
290
     0
  9
$SORTENTS
280
   127
  9
$INDEXCTL
280
     0
  9
$HIDETEXT
280
     1
  9
$XCLIPFRAME
280
     2
  9
$HALOGAP
280
     0
  9
$OBSCOLOR
 70
   257
  9
$OBSLTYPE
280
     0
  9
$INTERSECTIONDISPLAY
280
     0
  9
$INTERSECTIONCOLOR
 70
   257
  9
$DIMASSOC
280
     2
  9
$PROJECTNAME
  1

  9
$CAMERADISPLAY
290
     0
  9
$LENSLENGTH
 40
50.0
  9
$CAMERAHEIGHT
 40
0.0
  9
$STEPSPERSEC
 40
2.0
  9
$STEPSIZE
 40
6.0
  9
$3DDWFPREC
 40
2.0
  9
$PSOLWIDTH
 40
0.25
  9
$PSOLHEIGHT
 40
4.0
  9
$LOFTANG1
 40
1.570796326794897
  9
$LOFTANG2
 40
1.570796326794897
  9
$LOFTMAG1
 40
0.0
  9
$LOFTMAG2
 40
0.0
  9
$LOFTPARAM
 70
     7
  9
$LOFTNORMALS
280
     1
  9
$LATITUDE
 40
37.795
  9
$LONGITUDE
 40
-122.394
  9
$NORTHDIRECTION
 40
0.0
  9
$TIMEZONE
 70
 -8000
  9
$LIGHTGLYPHDISPLAY
280
     1
  9
$TILEMODELIGHTSYNCH
280
     1
  9
$CMATERIAL
347
3C
  9
$SOLIDHIST
280
     1
  9
$SHOWHIST
280
     1
  9
$DWFFRAME
280
     2
  9
$DGNFRAME
280
     2
  9
$REALWORLDSCALE
290
     1
  9
$INTERFERECOLOR
 62
   256
  9
$CSHADOW
280
     0
  9
$SHADOWPLANELOCATION
 40
0.0
  0
ENDSEC
  0
SECTION
  2
CLASSES
  0
CLASS
  1
ACDBDICTIONARYWDFLT
  2
AcDbDictionaryWithDefault
  3
ObjectDBX Classes
 90
        0
 91
        4
280
     0
281
     0
  0
CLASS
  1
VISUALSTYLE
  2
AcDbVisualStyle
  3
ObjectDBX Classes
 90
     4095
 91
        4
280
     0
281
     0
  0
CLASS
  1
MATERIAL
  2
AcDbMaterial
  3
ObjectDBX Classes
 90
     1153
 91
        4
280
     0
281
     0
  0
CLASS
  1
SUN
  2
AcDbSun
  3
SCENEOE
 90
     1024
 91
        4
280
     0
281
     0
  0
ENDSEC
  0
SECTION
  2
TABLES
  0
TABLE
  2
VPORT
  5
8
330
0
100
AcDbSymbolTable
 70
     1
  0
VPORT
  5
29
330
8
100
AcDbSymbolTableRecord
100
AcDbViewportTableRecord
  2
*Active
 70
     0
 10
0.0
 20
0.0
 11
1.0
 21
1.0
 12
0.0
 22
0.0
 13
0.0
 23
0.0
 14
0.5
 24
0.5
 15
0.5
 25
0.5
 16
0.0
 26
0.0
 36
1.0
 17
91.00082462281999
 27
-128.4993055234307
 37
0.0
 40
256.9986110468615
 41
0.7081814508812795
 42
50.0
 43
0.0
 44
0.0
 50
0.0
 51
0.0
 71
     0
 72
   100
 73
     1
 74
     3
 75
     0
 76
     0
 77
     0
 78
     0
281
     0
 65
     1
110
0.0
120
0.0
130
0.0
111
1.0
121
0.0
131
0.0
112
0.0
122
1.0
132
0.0
 79
     0
146
0.0
 60
     3
 61
     5
292
     1
282
     1
141
0.0
142
0.0
 63
   250
361
3F
  0
ENDTAB
  0
TABLE
  2
LTYPE
  5
5
330
0
100
AcDbSymbolTable
 70
    12
  0
LTYPE
  5
14
330
5
100
AcDbSymbolTableRecord
100
AcDbLinetypeTableRecord
  2
ByBlock
 70
     0
  3

 72
    65
 73
     0
 40
0.0
  0
LTYPE
  5
15
330
5
100
AcDbSymbolTableRecord
100
AcDbLinetypeTableRecord
  2
ByLayer
 70
     0
  3

 72
    65
 73
     0
 40
0.0
  0
LTYPE
  5
16
330
5
100
AcDbSymbolTableRecord
100
AcDbLinetypeTableRecord
  2
Continuous
 70
     0
  3
Solid line
 72
    65
 73
     0
 40
0.0
  0
LTYPE
  5
8E
330
5
100
AcDbSymbolTableRecord
100
AcDbLinetypeTableRecord
  2
AI-Linetype-1
 70
     0
  3
Adobe Illustrator Linetype No. 1
 72
    65
 73
     2
 40
3.500014142644928
 49
2.000003083046956
 74
     0
 49
-1.500011059597972
 74
     0
  0
LTYPE
  5
93
330
5
100
AcDbSymbolTableRecord
100
AcDbLinetypeTableRecord
  2
AI-Linetype-2
 70
     0
  3
Adobe Illustrator Linetype No. 2
 72
    65
 73
     2
 40
3.500014142644928
 49
2.000003083046956
 74
     0
 49
-1.500011059597972
 74
     0
  0
LTYPE
  5
98
330
5
100
AcDbSymbolTableRecord
100
AcDbLinetypeTableRecord
  2
AI-Linetype-3
 70
     0
  3
Adobe Illustrator Linetype No. 3
 72
    65
 73
     2
 40
3.500014142644928
 49
2.000003083046956
 74
     0
 49
-1.500011059597972
 74
     0
  0
LTYPE
  5
9D
330
5
100
AcDbSymbolTableRecord
100
AcDbLinetypeTableRecord
  2
AI-Linetype-4
 70
     0
  3
Adobe Illustrator Linetype No. 4
 72
    65
 73
     2
 40
3.500014142644928
 49
2.000003083046956
 74
     0
 49
-1.500011059597972
 74
     0
  0
LTYPE
  5
A2
330
5
100
AcDbSymbolTableRecord
100
AcDbLinetypeTableRecord
  2
AI-Linetype-5
 70
     0
  3
Adobe Illustrator Linetype No. 5
 72
    65
 73
     2
 40
3.500014142644928
 49
2.000003083046956
 74
     0
 49
-1.500011059597972
 74
     0
  0
LTYPE
  5
A7
330
5
100
AcDbSymbolTableRecord
100
AcDbLinetypeTableRecord
  2
AI-Linetype-6
 70
     0
  3
Adobe Illustrator Linetype No. 6
 72
    65
 73
     2
 40
3.500014142644928
 49
2.000003083046956
 74
     0
 49
-1.500011059597972
 74
     0
  0
LTYPE
  5
B6
330
5
100
AcDbSymbolTableRecord
100
AcDbLinetypeTableRecord
  2
AI-Linetype-7
 70
     0
  3
Adobe Illustrator Linetype No. 7
 72
    65
 73
     2
 40
3.500014142644928
 49
2.000003083046956
 74
     0
 49
-1.500011059597972
 74
     0
  0
LTYPE
  5
B8
330
5
100
AcDbSymbolTableRecord
100
AcDbLinetypeTableRecord
  2
AI-Linetype-8
 70
     0
  3
Adobe Illustrator Linetype No. 8
 72
    65
 73
     2
 40
3.500014142644928
 49
2.000003083046956
 74
     0
 49
-1.500011059597972
 74
     0
  0
LTYPE
  5
BA
330
5
100
AcDbSymbolTableRecord
100
AcDbLinetypeTableRecord
  2
AI-Linetype-9
 70
     0
  3
Adobe Illustrator Linetype No. 9
 72
    65
 73
     2
 40
3.500014142644928
 49
2.000003083046956
 74
     0
 49
-1.500011059597972
 74
     0
  0
LTYPE
  5
BC
330
5
100
AcDbSymbolTableRecord
100
AcDbLinetypeTableRecord
  2
AI-Linetype-10
 70
     0
  3
Adobe Illustrator Linetype No. 10
 72
    65
 73
     2
 40
3.500014142644928
 49
2.000003083046956
 74
     0
 49
-1.500011059597972
 74
     0
  0
LTYPE
  5
BE
330
5
100
AcDbSymbolTableRecord
100
AcDbLinetypeTableRecord
  2
AI-Linetype-11
 70
     0
  3
Adobe Illustrator Linetype No. 11
 72
    65
 73
     2
 40
3.500014142644928
 49
2.000003083046956
 74
     0
 49
-1.500011059597972
 74
     0
  0
ENDTAB
  0
TABLE
  2
LAYER
  5
2
330
0
100
AcDbSymbolTable
 70
     2
  0
LAYER
  5
10
330
2
100
AcDbSymbolTableRecord
100
AcDbLayerTableRecord
  2
0
 70
     0
 62
     7
  6
Continuous
370
    -3
390
F
347
3E
  0
LAYER
  5
40
330
2
100
AcDbSymbolTableRecord
100
AcDbLayerTableRecord
  2
_U+30EC_U+30A4_U+30E4_U+30FC 1
 70
     0
 62
     7
  6
Continuous
370
    -3
390
F
347
3E
  0
ENDTAB
  0
TABLE
  2
STYLE
  5
3
330
0
100
AcDbSymbolTable
 70
     1
  0
STYLE
  5
11
330
3
100
AcDbSymbolTableRecord
100
AcDbTextStyleTableRecord
  2
Standard
 70
     0
 40
0.0
 41
1.0
 50
0.0
 71
     0
 42
0.2
  3
txt
  4

  0
ENDTAB
  0
TABLE
  2
VIEW
  5
6
330
0
100
AcDbSymbolTable
 70
     0
  0
ENDTAB
  0
TABLE
  2
UCS
  5
7
330
0
100
AcDbSymbolTable
 70
     0
  0
ENDTAB
  0
TABLE
  2
APPID
  5
9
330
0
100
AcDbSymbolTable
 70
     1
  0
APPID
  5
12
330
9
100
AcDbSymbolTableRecord
100
AcDbRegAppTableRecord
  2
ACAD
 70
     0
  0
ENDTAB
  0
TABLE
  2
DIMSTYLE
  5
A
330
0
100
AcDbSymbolTable
 70
     1
100
AcDbDimStyleTable
  0
DIMSTYLE
105
27
330
A
100
AcDbSymbolTableRecord
100
AcDbDimStyleTableRecord
  2
Standard
 70
     0
178
     0
340
11
  0
ENDTAB
  0
TABLE
  2
BLOCK_RECORD
  5
1
330
0
100
AcDbSymbolTable
 70
     9
  0
BLOCK_RECORD
  5
1F
330
1
100
AcDbSymbolTableRecord
100
AcDbBlockTableRecord
  2
*Model_Space
340
22
 70
     0
280
     1
281
     0
  0
BLOCK_RECORD
  5
1B
330
1
100
AcDbSymbolTableRecord
100
AcDbBlockTableRecord
  2
*Paper_Space
340
1E
 70
     0
280
     1
281
     0
  0
BLOCK_RECORD
  5
23
330
1
100
AcDbSymbolTableRecord
100
AcDbBlockTableRecord
  2
*Paper_Space0
340
26
 70
     0
280
     1
281
     0
  0
BLOCK_RECORD
  5
D8
330
1
100
AcDbSymbolTableRecord
100
AcDbBlockTableRecord
  2
block 2
340
0
102
{BLKREFS
331
D9
102
}
 70
     0
280
     1
281
     0
  0
BLOCK_RECORD
  5
EA
330
1
100
AcDbSymbolTableRecord
100
AcDbBlockTableRecord
  2
block 3
340
0
102
{BLKREFS
331
EB
102
}
 70
     0
280
     1
281
     0
  0
BLOCK_RECORD
  5
FF
330
1
100
AcDbSymbolTableRecord
100
AcDbBlockTableRecord
  2
block 4
340
0
102
{BLKREFS
331
100
102
}
 70
     0
280
     1
281
     0
  0
BLOCK_RECORD
  5
114
330
1
100
AcDbSymbolTableRecord
100
AcDbBlockTableRecord
  2
block 5
340
0
102
{BLKREFS
331
115
102
}
 70
     0
280
     1
281
     0
  0
BLOCK_RECORD
  5
129
330
1
100
AcDbSymbolTableRecord
100
AcDbBlockTableRecord
  2
block 6
340
0
102
{BLKREFS
331
12A
102
}
 70
     0
280
     1
281
     0
  0
BLOCK_RECORD
  5
13A
330
1
100
AcDbSymbolTableRecord
100
AcDbBlockTableRecord
  2
block 7
340
0
102
{BLKREFS
331
13B
102
}
 70
     0
280
     1
281
     0
  0
BLOCK_RECORD
  5
14E
330
1
100
AcDbSymbolTableRecord
100
AcDbBlockTableRecord
  2
block 8
340
0
102
{BLKREFS
331
14F
102
}
 70
     0
280
     1
281
     0
  0
BLOCK_RECORD
  5
15E
330
1
100
AcDbSymbolTableRecord
100
AcDbBlockTableRecord
  2
block 9
340
0
102
{BLKREFS
331
15F
102
}
 70
     0
280
     1
281
     0
  0
ENDTAB
  0
ENDSEC
  0
SECTION
  2
BLOCKS
  0
BLOCK
  5
20
330
1F
100
AcDbEntity
  8
0
100
AcDbBlockBegin
  2
*Model_Space
 70
     0
 10
0.0
 20
0.0
 30
0.0
  3
*Model_Space
  1

  0
ENDBLK
  5
21
330
1F
100
AcDbEntity
  8
0
100
AcDbBlockEnd
  0
BLOCK
  5
1C
330
1B
100
AcDbEntity
 67
     1
  8
0
100
AcDbBlockBegin
  2
*Paper_Space
 70
     0
 10
0.0
 20
0.0
 30
0.0
  3
*Paper_Space
  1

  0
ENDBLK
  5
1D
330
1B
100
AcDbEntity
 67
     1
  8
0
100
AcDbBlockEnd
  0
BLOCK
  5
24
330
23
100
AcDbEntity
  8
0
100
AcDbBlockBegin
  2
*Paper_Space0
 70
     0
 10
0.0
 20
0.0
 30
0.0
  3
*Paper_Space0
  1

  0
ENDBLK
  5
25
330
23
100
AcDbEntity
  8
0
100
AcDbBlockEnd
  0
BLOCK
  5
DA
330
D8
100
AcDbEntity
  8
0
100
AcDbBlockBegin
  2
block 2
 70
     0
 10
0.0
 20
0.0
 30
0.0
  3
block 2
  1

  0
SPLINE
  5
DC
330
D8
100
AcDbEntity
  8
_U+30EC_U+30A4_U+30E4_U+30FC 1
370
     0
100
AcDbSpline
210
0.0
220
0.0
230
1.0
 70
    11
 71
     3
 72
    32
 73
    28
 74
     0
 42
0.0000000001
 43
0.0000000001
 12
1.0
 22
0.0
 32
0.0
 13
1.0
 23
0.0
 33
0.0
 40
0.0
 40
0.0
 40
0.0
 40
0.0
 40
1.0
 40
1.0
 40
1.0
 40
2.0
 40
2.0
 40
2.0
 40
3.0
 40
3.0
 40
3.0
 40
4.0
 40
4.0
 40
4.0
 40
5.0
 40
5.0
 40
5.0
 40
6.0
 40
6.0
 40
6.0
 40
7.0
 40
7.0
 40
7.0
 40
8.0
 40
8.0
 40
8.0
 40
9.0
 40
9.0
 40
9.0
 40
9.0
 10
89.82190752962786
 20
-135.7395181952318
 30
0.0
 10
89.62157522716058
 20
-135.7395181952318
 30
0.0
 10
89.33804386872453
 20
-135.6637260945563
 30
0.0
 10
89.29411890128759
 20
-135.3047471449933
 30
0.0
 10
89.29411890128759
 20
-135.3047471449933
 30
0.0
 10
89.54095999280574
 20
-135.3047471449933
 30
0.0
 10
89.54095999280574
 20
-135.3047471449933
 30
0.0
 10
89.55319008177837
 20
-135.3688259210189
 30
0.0
 10
89.58988034869628
 20
-135.529022861083
 30
0.0
 10
89.8244913512418
 20
-135.529022861083
 30
0.0
 10
90.1615939444735
 20
-135.529022861083
 30
0.0
 10
90.20569116668469
 20
-135.1721109688112
 30
0.0
 10
90.220332822497
 20
-134.950246819561
 30
0.0
 10
90.11525741019689
 20
-135.0370632257894
 30
0.0
 10
90.0370537426817
 20
-135.0987304349753
 30
0.0
 10
89.82690291808147
 20
-135.0987304349753
 30
0.0
 10
89.61916366032091
 20
-135.0987304349753
 30
0.0
 10
89.26965872334232
 20
-134.984353264865
 30
0.0
 10
89.26965872334232
 20
-134.5454481000442
 30
0.0
 10
89.26965872334232
 20
-134.1995605133251
 30
0.0
 10
89.49944659220847
 20
-133.9618489248429
 30
0.0
 10
89.86600475183906
 20
-133.9618489248429
 30
0.0
 10
90.45976695872187
 20
-133.9618489248429
 30
0.0
 10
90.4719970476945
 20
-134.5612955392764
 30
0.0
 10
90.4719970476945
 20
-134.7921169367881
 30
0.0
 10
90.4719970476945
 20
-135.0415418499202
 30
0.0
 10
90.45012069136317
 20
-135.7395181952318
 30
0.0
 10
89.82190752962786
 20
-135.7395181952318
 30
0.0
  0
SPLINE
  5
DD
330
D8
100
AcDbEntity
  8
_U+30EC_U+30A4_U+30E4_U+30FC 1
370
     0
100
AcDbSpline
210
0.0
220
0.0
230
1.0
 70
    11
 71
     3
 72
    17
 73
    13
 74
     0
 42
0.0000000001
 43
0.0000000001
 12
1.0
 22
0.0
 32
0.0
 13
1.0
 23
0.0
 33
0.0
 40
0.0
 40
0.0
 40
0.0
 40
0.0
 40
1.0
 40
1.0
 40
1.0
 40
2.0
 40
2.0
 40
2.0
 40
3.0
 40
3.0
 40
3.0
 40
4.0
 40
4.0
 40
4.0
 40
4.0
 10
89.86841631867874
 20
-134.169932692152
 30
0.0
 10
89.73147377314005
 20
-134.169932692152
 30
0.0
 10
89.5287299038331
 20
-134.2319444108865
 30
0.0
 10
89.5287299038331
 20
-134.5406249663648
 30
0.0
 10
89.5287299038331
 20
-134.7852267458176
 30
0.0
 10
89.68996037254279
 20
-134.8885796103751
 30
0.0
 10
89.84636770757314
 20
-134.8885796103751
 30
0.0
 10
90.14936385550085
 20
-134.8885796103751
 30
0.0
 10
90.19346107771206
 20
-134.6618923274457
 30
0.0
 10
90.19346107771206
 20
-134.536146342234
 30
0.0
 10
90.19346107771206
 20
-134.3463215809968
 30
0.0
 10
90.08339027695833
 20
-134.169932692152
 30
0.0
 10
89.86841631867874
 20
-134.169932692152
 30
0.0
  0
HATCH
  5
DE
330
D8
100
AcDbEntity
  8
_U+30EC_U+30A4_U+30E4_U+30FC 1
 62
   179
420
  2234388
100
AcDbHatch
 10
0.0
 20
0.0
 30
0.0
210
0.0
220
0.0
230
1.0
  2
SOLID
 70
     1
 71
     0
 91
        2
 92
        1
 93
        1
 72
     4
 94
        3
 73
     0
 74
     1
 95
       32
 96
       28
 40
0.0
 40
0.0
 40
0.0
 40
0.0
 40
1.0
 40
1.0
 40
1.0
 40
2.0
 40
2.0
 40
2.0
 40
3.0
 40
3.0
 40
3.0
 40
4.0
 40
4.0
 40
4.0
 40
5.0
 40
5.0
 40
5.0
 40
6.0
 40
6.0
 40
6.0
 40
7.0
 40
7.0
 40
7.0
 40
8.0
 40
8.0
 40
8.0
 40
9.0
 40
9.0
 40
9.0
 40
9.0
 10
89.82190752962786
 20
-135.7395181952318
 10
89.62157522716058
 20
-135.7395181952318
 10
89.33804386872453
 20
-135.6637260945563
 10
89.29411890128759
 20
-135.3047471449933
 10
89.29411890128759
 20
-135.3047471449933
 10
89.54095999280574
 20
-135.3047471449933
 10
89.54095999280574
 20
-135.3047471449933
 10
89.55319008177837
 20
-135.3688259210189
 10
89.58988034869628
 20
-135.529022861083
 10
89.8244913512418
 20
-135.529022861083
 10
90.1615939444735
 20
-135.529022861083
 10
90.20569116668469
 20
-135.1721109688112
 10
90.220332822497
 20
-134.950246819561
 10
90.11525741019689
 20
-135.0370632257894
 10
90.0370537426817
 20
-135.0987304349753
 10
89.82690291808147
 20
-135.0987304349753
 10
89.61916366032091
 20
-135.0987304349753
 10
89.26965872334232
 20
-134.984353264865
 10
89.26965872334232
 20
-134.5454481000442
 10
89.26965872334232
 20
-134.1995605133251
 10
89.49944659220847
 20
-133.9618489248429
 10
89.86600475183906
 20
-133.9618489248429
 10
90.45976695872187
 20
-133.9618489248429
 10
90.4719970476945
 20
-134.5612955392764
 10
90.4719970476945
 20
-134.7921169367881
 10
90.4719970476945
 20
-135.0415418499202
 10
90.45012069136317
 20
-135.7395181952318
 10
89.82190752962786
 20
-135.7395181952318
 97
        0
 97
        0
 92
        1
 93
        1
 72
     4
 94
        3
 73
     0
 74
     1
 95
       17
 96
       13
 40
0.0
 40
0.0
 40
0.0
 40
0.0
 40
1.0
 40
1.0
 40
1.0
 40
2.0
 40
2.0
 40
2.0
 40
3.0
 40
3.0
 40
3.0
 40
4.0
 40
4.0
 40
4.0
 40
4.0
 10
89.86841631867874
 20
-134.169932692152
 10
89.73147377314005
 20
-134.169932692152
 10
89.5287299038331
 20
-134.2319444108865
 10
89.5287299038331
 20
-134.5406249663648
 10
89.5287299038331
 20
-134.7852267458176
 10
89.68996037254279
 20
-134.8885796103751
 10
89.84636770757314
 20
-134.8885796103751
 10
90.14936385550085
 20
-134.8885796103751
 10
90.19346107771206
 20
-134.6618923274457
 10
90.19346107771206
 20
-134.536146342234
 10
90.19346107771206
 20
-134.3463215809968
 10
90.08339027695833
 20
-134.169932692152
 10
89.86841631867874
 20
-134.169932692152
 97
        0
 97
        0
 75
     2
 76
     1
 98
        0
  0
SPLINE
  5
DF
330
D8
100
AcDbEntity
  8
_U+30EC_U+30A4_U+30E4_U+30FC 1
370
     0
100
AcDbSpline
210
0.0
220
0.0
230
1.0
 70
    11
 71
     3
 72
    29
 73
    25
 74
     0
 42
0.0000000001
 43
0.0000000001
 12
1.0
 22
0.0
 32
0.0
 13
1.0
 23
0.0
 33
0.0
 40
0.0
 40
0.0
 40
0.0
 40
0.0
 40
1.0
 40
1.0
 40
1.0
 40
2.0
 40
2.0
 40
2.0
 40
3.0
 40
3.0
 40
3.0
 40
4.0
 40
4.0
 40
4.0
 40
5.0
 40
5.0
 40
5.0
 40
6.0
 40
6.0
 40
6.0
 40
7.0
 40
7.0
 40
7.0
 40
8.0
 40
8.0
 40
8.0
 40
8.0
 10
91.68846026353623
 20
-135.4921603393909
 30
0.0
 10
91.56409231651871
 20
-135.7188476223203
 30
0.0
 10
91.36358775927717
 20
-135.7395181952318
 30
0.0
 10
91.22922903535242
 20
-135.7395181952318
 30
0.0
 10
91.04353838869746
 20
-135.7395181952318
 30
0.0
 10
90.87972409837383
 20
-135.6892198011471
 30
0.0
 10
90.76982555239435
 20
-135.4921603393909
 30
0.0
 10
90.65010848428192
 20
-135.2820095147906
 30
0.0
 10
90.62805987317633
 20
-135.025694410688
 30
0.0
 10
90.62805987317633
 20
-134.8493055218432
 30
0.0
 10
90.62805987317633
 20
-134.6939317154585
 30
0.0
 10
90.64752466266799
 20
-134.4217691721237
 30
0.0
 10
90.76982555239435
 20
-134.2064507042956
 30
0.0
 10
90.89436575418614
 20
-133.9869981218852
 30
0.0
 10
91.08022865561536
 20
-133.9618489248429
 30
0.0
 10
91.22922903535242
 20
-133.9618489248429
 30
0.0
 10
91.41250811516771
 20
-133.9618489248429
 30
0.0
 10
91.57890622710528
 20
-134.0100802616364
 30
0.0
 10
91.68846026353623
 20
-134.2064507042956
 30
0.0
 10
91.80352645274357
 20
-134.4148789811532
 30
0.0
 10
91.83039819752851
 20
-134.6618923274457
 30
0.0
 10
91.83039819752851
 20
-134.8493055218432
 30
0.0
 10
91.83039819752851
 20
-135.0346516589497
 30
0.0
 10
91.80593801958324
 20
-135.2840765720818
 30
0.0
 10
91.68846026353623
 20
-135.4921603393909
 30
0.0
  0
SPLINE
  5
E0
330
D8
100
AcDbEntity
  8
_U+30EC_U+30A4_U+30E4_U+30FC 1
370
     0
100
AcDbSpline
210
0.0
220
0.0
230
1.0
 70
    11
 71
     3
 72
    17
 73
    13
 74
     0
 42
0.0000000001
 43
0.0000000001
 12
1.0
 22
0.0
 32
0.0
 13
1.0
 23
0.0
 33
0.0
 40
0.0
 40
0.0
 40
0.0
 40
0.0
 40
1.0
 40
1.0
 40
1.0
 40
2.0
 40
2.0
 40
2.0
 40
3.0
 40
3.0
 40
3.0
 40
4.0
 40
4.0
 40
4.0
 40
4.0
 10
91.22922903535242
 20
-134.169932692152
 30
0.0
 10
90.940874543237
 20
-134.169932692152
 30
0.0
 10
90.8871310536671
 20
-134.4765461903392
 30
0.0
 10
90.8871310536671
 20
-134.8493055218432
 30
0.0
 10
90.8871310536671
 20
-135.1951931085623
 30
0.0
 10
90.92864445426437
 20
-135.529022861083
 30
0.0
 10
91.22922903535242
 20
-135.529022861083
 30
0.0
 10
91.51517196062815
 20
-135.529022861083
 30
0.0
 10
91.57132701703773
 20
-135.2248209297355
 30
0.0
 10
91.57132701703773
 20
-134.8493055218432
 30
0.0
 10
91.57132701703773
 20
-134.5041069542212
 30
0.0
 10
91.52722979482652
 20
-134.169932692152
 30
0.0
 10
91.22922903535242
 20
-134.169932692152
 30
0.0
  0
HATCH
  5
E1
330
D8
100
AcDbEntity
  8
_U+30EC_U+30A4_U+30E4_U+30FC 1
 62
   179
420
  2234388
100
AcDbHatch
 10
0.0
 20
0.0
 30
0.0
210
0.0
220
0.0
230
1.0
  2
SOLID
 70
     1
 71
     0
 91
        2
 92
        1
 93
        1
 72
     4
 94
        3
 73
     0
 74
     1
 95
       29
 96
       25
 40
0.0
 40
0.0
 40
0.0
 40
0.0
 40
1.0
 40
1.0
 40
1.0
 40
2.0
 40
2.0
 40
2.0
 40
3.0
 40
3.0
 40
3.0
 40
4.0
 40
4.0
 40
4.0
 40
5.0
 40
5.0
 40
5.0
 40
6.0
 40
6.0
 40
6.0
 40
7.0
 40
7.0
 40
7.0
 40
8.0
 40
8.0
 40
8.0
 40
8.0
 10
91.68846026353623
 20
-135.4921603393909
 10
91.56409231651871
 20
-135.7188476223203
 10
91.36358775927717
 20
-135.7395181952318
 10
91.22922903535242
 20
-135.7395181952318
 10
91.04353838869746
 20
-135.7395181952318
 10
90.87972409837383
 20
-135.6892198011471
 10
90.76982555239435
 20
-135.4921603393909
 10
90.65010848428192
 20
-135.2820095147906
 10
90.62805987317633
 20
-135.025694410688
 10
90.62805987317633
 20
-134.8493055218432
 10
90.62805987317633
 20
-134.6939317154585
 10
90.64752466266799
 20
-134.4217691721237
 10
90.76982555239435
 20
-134.2064507042956
 10
90.89436575418614
 20
-133.9869981218852
 10
91.08022865561536
 20
-133.9618489248429
 10
91.22922903535242
 20
-133.9618489248429
 10
91.41250811516771
 20
-133.9618489248429
 10
91.57890622710528
 20
-134.0100802616364
 10
91.68846026353623
 20
-134.2064507042956
 10
91.80352645274357
 20
-134.4148789811532
 10
91.83039819752851
 20
-134.6618923274457
 10
91.83039819752851
 20
-134.8493055218432
 10
91.83039819752851
 20
-135.0346516589497
 10
91.80593801958324
 20
-135.2840765720818
 10
91.68846026353623
 20
-135.4921603393909
 97
        0
 97
        0
 92
        1
 93
        1
 72
     4
 94
        3
 73
     0
 74
     1
 95
       17
 96
       13
 40
0.0
 40
0.0
 40
0.0
 40
0.0
 40
1.0
 40
1.0
 40
1.0
 40
2.0
 40
2.0
 40
2.0
 40
3.0
 40
3.0
 40
3.0
 40
4.0
 40
4.0
 40
4.0
 40
4.0
 10
91.22922903535242
 20
-134.169932692152
 10
90.940874543237
 20
-134.169932692152
 10
90.8871310536671
 20
-134.4765461903392
 10
90.8871310536671
 20
-134.8493055218432
 10
90.8871310536671
 20
-135.1951931085623
 10
90.92864445426437
 20
-135.529022861083
 10
91.22922903535242
 20
-135.529022861083
 10
91.51517196062815
 20
-135.529022861083
 10
91.57132701703773
 20
-135.2248209297355
 10
91.57132701703773
 20
-134.8493055218432
 10
91.57132701703773
 20
-134.5041069542212
 10
91.52722979482652
 20
-134.169932692152
 10
91.22922903535242
 20
-134.169932692152
 97
        0
 97
        0
 75
     2
 76
     1
 98
        0
  0
ENDBLK
  5
DB
330
D8
100
AcDbEntity
  8
0
100
AcDbBlockEnd
  0
BLOCK
  5
EC
330
EA
100
AcDbEntity
  8
0
100
AcDbBlockBegin
  2
block 3
 70
     0
 10
0.0
 20
0.0
 30
0.0
  3
block 3
  1

  0
SPLINE
  5
EE
330
EA
100
AcDbEntity
  8
_U+30EC_U+30A4_U+30E4_U+30FC 1
370
     0
100
AcDbSpline
210
0.0
220
0.0
230
1.0
 70
    11
 71
     3
 72
    26
 73
    22
 74
     0
 42
0.0000000001
 43
0.0000000001
 12
1.0
 22
0.0
 32
0.0
 13
1.0
 23
0.0
 33
0.0
 40
0.0
 40
0.0
 40
0.0
 40
0.0
 40
1.0
 40
1.0
 40
1.0
 40
2.0
 40
2.0
 40
2.0
 40
3.0
 40
3.0
 40
3.0
 40
4.0
 40
4.0
 40
4.0
 40
5.0
 40
5.0
 40
5.0
 40
6.0
 40
6.0
 40
6.0
 40
7.0
 40
7.0
 40
7.0
 40
7.0
 10
58.01471895251021
 20
-135.7725911118902
 30
0.0
 10
58.01471895251021
 20
-135.7725911118902
 30
0.0
 10
58.01471895251021
 20
-134.5785210167026
 30
0.0
 10
58.01471895251021
 20
-134.5785210167026
 30
0.0
 10
58.01471895251021
 20
-134.5785210167026
 30
0.0
 10
57.63351913706732
 20
-134.5785210167026
 30
0.0
 10
57.63351913706732
 20
-134.5785210167026
 30
0.0
 10
57.63351913706732
 20
-134.5785210167026
 30
0.0
 10
57.63351913706732
 20
-134.4183240766385
 30
0.0
 10
57.63351913706732
 20
-134.4183240766385
 30
0.0
 10
58.01713051934988
 20
-134.4024766374063
 30
0.0
 10
58.07087400891979
 20
-134.2264322581101
 30
0.0
 10
58.10515270899802
 20
-134.1027533301896
 30
0.0
 10
58.10515270899802
 20
-134.1027533301896
 30
0.0
 10
58.273790133001
 20
-134.1027533301896
 30
0.0
 10
58.273790133001
 20
-134.1027533301896
 30
0.0
 10
58.273790133001
 20
-134.1027533301896
 30
0.0
 10
58.273790133001
 20
-135.7725911118902
 30
0.0
 10
58.273790133001
 20
-135.7725911118902
 30
0.0
 10
58.273790133001
 20
-135.7725911118902
 30
0.0
 10
58.01471895251021
 20
-135.7725911118902
 30
0.0
 10
58.01471895251021
 20
-135.7725911118902
 30
0.0
  0
HATCH
  5
EF
330
EA
100
AcDbEntity
  8
_U+30EC_U+30A4_U+30E4_U+30FC 1
 62
   179
420
  2234388
100
AcDbHatch
 10
0.0
 20
0.0
 30
0.0
210
0.0
220
0.0
230
1.0
  2
SOLID
 70
     1
 71
     0
 91
        1
 92
        1
 93
        1
 72
     4
 94
        3
 73
     0
 74
     1
 95
       26
 96
       22
 40
0.0
 40
0.0
 40
0.0
 40
0.0
 40
1.0
 40
1.0
 40
1.0
 40
2.0
 40
2.0
 40
2.0
 40
3.0
 40
3.0
 40
3.0
 40
4.0
 40
4.0
 40
4.0
 40
5.0
 40
5.0
 40
5.0
 40
6.0
 40
6.0
 40
6.0
 40
7.0
 40
7.0
 40
7.0
 40
7.0
 10
58.01471895251021
 20
-135.7725911118902
 10
58.01471895251021
 20
-135.7725911118902
 10
58.01471895251021
 20
-134.5785210167026
 10
58.01471895251021
 20
-134.5785210167026
 10
58.01471895251021
 20
-134.5785210167026
 10
57.63351913706732
 20
-134.5785210167026
 10
57.63351913706732
 20
-134.5785210167026
 10
57.63351913706732
 20
-134.5785210167026
 10
57.63351913706732
 20
-134.4183240766385
 10
57.63351913706732
 20
-134.4183240766385
 10
58.01713051934988
 20
-134.4024766374063
 10
58.07087400891979
 20
-134.2264322581101
 10
58.10515270899802
 20
-134.1027533301896
 10
58.10515270899802
 20
-134.1027533301896
 10
58.273790133001
 20
-134.1027533301896
 10
58.273790133001
 20
-134.1027533301896
 10
58.273790133001
 20
-134.1027533301896
 10
58.273790133001
 20
-135.7725911118902
 10
58.273790133001
 20
-135.7725911118902
 10
58.273790133001
 20
-135.7725911118902
 10
58.01471895251021
 20
-135.7725911118902
 10
58.01471895251021
 20
-135.7725911118902
 97
        0
 97
        0
 75
     2
 76
     1
 98
        0
  0
SPLINE
  5
F0
330
EA
100
AcDbEntity
  8
_U+30EC_U+30A4_U+30E4_U+30FC 1
370
     0
100
AcDbSpline
210
0.0
220
0.0
230
1.0
 70
    11
 71
     3
 72
    32
 73
    28
 74
     0
 42
0.0000000001
 43
0.0000000001
 12
1.0
 22
0.0
 32
0.0
 13
1.0
 23
0.0
 33
0.0
 40
0.0
 40
0.0
 40
0.0
 40
0.0
 40
1.0
 40
1.0
 40
1.0
 40
2.0
 40
2.0
 40
2.0
 40
3.0
 40
3.0
 40
3.0
 40
4.0
 40
4.0
 40
4.0
 40
5.0
 40
5.0
 40
5.0
 40
6.0
 40
6.0
 40
6.0
 40
7.0
 40
7.0
 40
7.0
 40
8.0
 40
8.0
 40
8.0
 40
9.0
 40
9.0
 40
9.0
 40
9.0
 10
59.4342705472074
 20
-135.8277126396542
 30
0.0
 10
58.83792451871066
 20
-135.8277126396542
 30
0.0
 10
58.8281059965777
 20
-135.2282660252207
 30
0.0
 10
58.8281059965777
 20
-134.997444627709
 30
0.0
 10
58.8281059965777
 20
-134.7480197145769
 30
0.0
 10
58.8501546076833
 20
-134.0479763119741
 30
0.0
 10
59.47819551464434
 20
-134.0479763119741
 30
0.0
 10
59.67852781711162
 20
-134.0479763119741
 30
0.0
 10
59.96205917554768
 20
-134.1230793935526
 30
0.0
 10
60.00598414298462
 20
-134.4824028526641
 30
0.0
 10
60.00598414298462
 20
-134.4824028526641
 30
0.0
 10
59.75914305146647
 20
-134.4824028526641
 30
0.0
 10
59.75914305146647
 20
-134.4824028526641
 30
0.0
 10
59.74708521726809
 20
-134.4207356434782
 30
0.0
 10
59.71039495035019
 20
-134.260538703414
 30
0.0
 10
59.47578394780466
 20
-134.260538703414
 30
0.0
 10
59.13850909979871
 20
-134.260538703414
 30
0.0
 10
59.09200031074784
 20
-134.6150390288462
 30
0.0
 10
59.07735865493552
 20
-134.8369031780963
 30
0.0
 10
59.18484563407532
 20
-134.7524983387077
 30
0.0
 10
59.26304930159049
 20
-134.6884195626821
 30
0.0
 10
59.47320012619073
 20
-134.6884195626821
 30
0.0
 10
59.6809393839513
 20
-134.6884195626821
 30
0.0
 10
60.03044432092989
 20
-134.805208299632
 30
0.0
 10
60.03044432092989
 20
-135.2441134644529
 30
0.0
 10
60.03044432092989
 20
-135.5896565416234
 30
0.0
 10
59.80082870683799
 20
-135.8277126396542
 30
0.0
 10
59.4342705472074
 20
-135.8277126396542
 30
0.0
  0
SPLINE
  5
F1
330
EA
100
AcDbEntity
  8
_U+30EC_U+30A4_U+30E4_U+30FC 1
370
     0
100
AcDbSpline
210
0.0
220
0.0
230
1.0
 70
    11
 71
     3
 72
    17
 73
    13
 74
     0
 42
0.0000000001
 43
0.0000000001
 12
1.0
 22
0.0
 32
0.0
 13
1.0
 23
0.0
 33
0.0
 40
0.0
 40
0.0
 40
0.0
 40
0.0
 40
1.0
 40
1.0
 40
1.0
 40
2.0
 40
2.0
 40
2.0
 40
3.0
 40
3.0
 40
3.0
 40
4.0
 40
4.0
 40
4.0
 40
4.0
 10
59.45373533669907
 20
-134.8989148968308
 30
0.0
 10
59.15073918877135
 20
-134.8989148968308
 30
0.0
 10
59.10664196656015
 20
-135.1276692370514
 30
0.0
 10
59.10664196656015
 20
-135.253415222263
 30
0.0
 10
59.10664196656015
 20
-135.4432399835003
 30
0.0
 10
59.21671276731388
 20
-135.6196288723451
 30
0.0
 10
59.4292751587538
 20
-135.6196288723451
 30
0.0
 10
59.56862927113215
 20
-135.6196288723451
 30
0.0
 10
59.7713731404391
 20
-135.5555500963195
 30
0.0
 10
59.7713731404391
 20
-135.2465250312925
 30
0.0
 10
59.7713731404391
 20
-135.003990309131
 30
0.0
 10
59.61014267172941
 20
-134.8989148968308
 30
0.0
 10
59.45373533669907
 20
-134.8989148968308
 30
0.0
  0
HATCH
  5
F2
330
EA
100
AcDbEntity
  8
_U+30EC_U+30A4_U+30E4_U+30FC 1
 62
   179
420
  2234388
100
AcDbHatch
 10
0.0
 20
0.0
 30
0.0
210
0.0
220
0.0
230
1.0
  2
SOLID
 70
     1
 71
     0
 91
        2
 92
        1
 93
        1
 72
     4
 94
        3
 73
     0
 74
     1
 95
       32
 96
       28
 40
0.0
 40
0.0
 40
0.0
 40
0.0
 40
1.0
 40
1.0
 40
1.0
 40
2.0
 40
2.0
 40
2.0
 40
3.0
 40
3.0
 40
3.0
 40
4.0
 40
4.0
 40
4.0
 40
5.0
 40
5.0
 40
5.0
 40
6.0
 40
6.0
 40
6.0
 40
7.0
 40
7.0
 40
7.0
 40
8.0
 40
8.0
 40
8.0
 40
9.0
 40
9.0
 40
9.0
 40
9.0
 10
59.4342705472074
 20
-135.8277126396542
 10
58.83792451871066
 20
-135.8277126396542
 10
58.8281059965777
 20
-135.2282660252207
 10
58.8281059965777
 20
-134.997444627709
 10
58.8281059965777
 20
-134.7480197145769
 10
58.8501546076833
 20
-134.0479763119741
 10
59.47819551464434
 20
-134.0479763119741
 10
59.67852781711162
 20
-134.0479763119741
 10
59.96205917554768
 20
-134.1230793935526
 10
60.00598414298462
 20
-134.4824028526641
 10
60.00598414298462
 20
-134.4824028526641
 10
59.75914305146647
 20
-134.4824028526641
 10
59.75914305146647
 20
-134.4824028526641
 10
59.74708521726809
 20
-134.4207356434782
 10
59.71039495035019
 20
-134.260538703414
 10
59.47578394780466
 20
-134.260538703414
 10
59.13850909979871
 20
-134.260538703414
 10
59.09200031074784
 20
-134.6150390288462
 10
59.07735865493552
 20
-134.8369031780963
 10
59.18484563407532
 20
-134.7524983387077
 10
59.26304930159049
 20
-134.6884195626821
 10
59.47320012619073
 20
-134.6884195626821
 10
59.6809393839513
 20
-134.6884195626821
 10
60.03044432092989
 20
-134.805208299632
 10
60.03044432092989
 20
-135.2441134644529
 10
60.03044432092989
 20
-135.5896565416234
 10
59.80082870683799
 20
-135.8277126396542
 10
59.4342705472074
 20
-135.8277126396542
 97
        0
 97
        0
 92
        1
 93
        1
 72
     4
 94
        3
 73
     0
 74
     1
 95
       17
 96
       13
 40
0.0
 40
0.0
 40
0.0
 40
0.0
 40
1.0
 40
1.0
 40
1.0
 40
2.0
 40
2.0
 40
2.0
 40
3.0
 40
3.0
 40
3.0
 40
4.0
 40
4.0
 40
4.0
 40
4.0
 10
59.45373533669907
 20
-134.8989148968308
 10
59.15073918877135
 20
-134.8989148968308
 10
59.10664196656015
 20
-135.1276692370514
 10
59.10664196656015
 20
-135.253415222263
 10
59.10664196656015
 20
-135.4432399835003
 10
59.21671276731388
 20
-135.6196288723451
 10
59.4292751587538
 20
-135.6196288723451
 10
59.56862927113215
 20
-135.6196288723451
 10
59.7713731404391
 20
-135.5555500963195
 10
59.7713731404391
 20
-135.2465250312925
 10
59.7713731404391
 20
-135.003990309131
 10
59.61014267172941
 20
-134.8989148968308
 10
59.45373533669907
 20
-134.8989148968308
 97
        0
 97
        0
 75
     2
 76
     1
 98
        0
  0
ENDBLK
  5
ED
330
EA
100
AcDbEntity
  8
0
100
AcDbBlockEnd
  0
BLOCK
  5
101
330
FF
100
AcDbEntity
  8
0
100
AcDbBlockBegin
  2
block 4
 70
     0
 10
0.0
 20
0.0
 30
0.0
  3
block 4
  1

  0
SPLINE
  5
103
330
FF
100
AcDbEntity
  8
_U+30EC_U+30A4_U+30E4_U+30FC 1
370
     0
100
AcDbSpline
210
0.0
220
0.0
230
1.0
 70
    11
 71
     3
 72
    26
 73
    22
 74
     0
 42
0.0000000001
 43
0.0000000001
 12
1.0
 22
0.0
 32
0.0
 13
1.0
 23
0.0
 33
0.0
 40
0.0
 40
0.0
 40
0.0
 40
0.0
 40
1.0
 40
1.0
 40
1.0
 40
2.0
 40
2.0
 40
2.0
 40
3.0
 40
3.0
 40
3.0
 40
4.0
 40
4.0
 40
4.0
 40
5.0
 40
5.0
 40
5.0
 40
6.0
 40
6.0
 40
6.0
 40
7.0
 40
7.0
 40
7.0
 40
7.0
 10
50.9979207229276
 20
-131.3070583439093
 30
0.0
 10
50.9979207229276
 20
-131.3070583439093
 30
0.0
 10
49.80367837296575
 20
-131.3070583439093
 30
0.0
 10
49.80367837296575
 20
-131.3070583439093
 30
0.0
 10
49.80367837296575
 20
-131.3070583439093
 30
0.0
 10
49.80367837296575
 20
-131.6884304141265
 30
0.0
 10
49.80367837296575
 20
-131.6884304141265
 30
0.0
 10
49.80367837296575
 20
-131.6884304141265
 30
0.0
 10
49.64365368767589
 20
-131.6884304141265
 30
0.0
 10
49.64365368767589
 20
-131.6884304141265
 30
0.0
 10
49.62763399366948
 20
-131.3049912866182
 30
0.0
 10
49.45141735959896
 20
-131.2512477970483
 30
0.0
 10
49.32791068645275
 20
-131.2167968421958
 30
0.0
 10
49.32791068645275
 20
-131.2167968421958
 30
0.0
 10
49.32791068645275
 20
-131.0479871634186
 30
0.0
 10
49.32791068645275
 20
-131.0479871634186
 30
0.0
 10
49.32791068645275
 20
-131.0479871634186
 30
0.0
 10
50.9979207229276
 20
-131.0479871634186
 30
0.0
 10
50.9979207229276
 20
-131.0479871634186
 30
0.0
 10
50.9979207229276
 20
-131.0479871634186
 30
0.0
 10
50.9979207229276
 20
-131.3070583439093
 30
0.0
 10
50.9979207229276
 20
-131.3070583439093
 30
0.0
  0
HATCH
  5
104
330
FF
100
AcDbEntity
  8
_U+30EC_U+30A4_U+30E4_U+30FC 1
 62
   179
420
  2234388
100
AcDbHatch
 10
0.0
 20
0.0
 30
0.0
210
0.0
220
0.0
230
1.0
  2
SOLID
 70
     1
 71
     0
 91
        1
 92
        1
 93
        1
 72
     4
 94
        3
 73
     0
 74
     1
 95
       26
 96
       22
 40
0.0
 40
0.0
 40
0.0
 40
0.0
 40
1.0
 40
1.0
 40
1.0
 40
2.0
 40
2.0
 40
2.0
 40
3.0
 40
3.0
 40
3.0
 40
4.0
 40
4.0
 40
4.0
 40
5.0
 40
5.0
 40
5.0
 40
6.0
 40
6.0
 40
6.0
 40
7.0
 40
7.0
 40
7.0
 40
7.0
 10
50.9979207229276
 20
-131.3070583439093
 10
50.9979207229276
 20
-131.3070583439093
 10
49.80367837296575
 20
-131.3070583439093
 10
49.80367837296575
 20
-131.3070583439093
 10
49.80367837296575
 20
-131.3070583439093
 10
49.80367837296575
 20
-131.6884304141265
 10
49.80367837296575
 20
-131.6884304141265
 10
49.80367837296575
 20
-131.6884304141265
 10
49.64365368767589
 20
-131.6884304141265
 10
49.64365368767589
 20
-131.6884304141265
 10
49.62763399366948
 20
-131.3049912866182
 10
49.45141735959896
 20
-131.2512477970483
 10
49.32791068645275
 20
-131.2167968421958
 10
49.32791068645275
 20
-131.2167968421958
 10
49.32791068645275
 20
-131.0479871634186
 10
49.32791068645275
 20
-131.0479871634186
 10
49.32791068645275
 20
-131.0479871634186
 10
50.9979207229276
 20
-131.0479871634186
 10
50.9979207229276
 20
-131.0479871634186
 10
50.9979207229276
 20
-131.0479871634186
 10
50.9979207229276
 20
-131.3070583439093
 10
50.9979207229276
 20
-131.3070583439093
 97
        0
 97
        0
 75
     2
 76
     1
 98
        0
  0
SPLINE
  5
105
330
FF
100
AcDbEntity
  8
_U+30EC_U+30A4_U+30E4_U+30FC 1
370
     0
100
AcDbSpline
210
0.0
220
0.0
230
1.0
 70
    11
 71
     3
 72
    29
 73
    25
 74
     0
 42
0.0000000001
 43
0.0000000001
 12
1.0
 22
0.0
 32
0.0
 13
1.0
 23
0.0
 33
0.0
 40
0.0
 40
0.0
 40
0.0
 40
0.0
 40
1.0
 40
1.0
 40
1.0
 40
2.0
 40
2.0
 40
2.0
 40
3.0
 40
3.0
 40
3.0
 40
4.0
 40
4.0
 40
4.0
 40
5.0
 40
5.0
 40
5.0
 40
6.0
 40
6.0
 40
6.0
 40
7.0
 40
7.0
 40
7.0
 40
8.0
 40
8.0
 40
8.0
 40
8.0
 10
50.80568439485067
 20
-129.433270909482
 30
0.0
 10
51.03219942300584
 20
-129.5576388564995
 30
0.0
 10
51.05286999591734
 20
-129.758143413741
 30
0.0
 10
51.05286999591734
 20
-129.8925021376658
 30
0.0
 10
51.05286999591734
 20
-130.0785372938693
 30
0.0
 10
51.00257160183269
 20
-130.2421793294186
 30
0.0
 10
50.80568439485067
 20
-130.3520778753981
 30
0.0
 10
50.5951890607019
 20
-130.4719671982848
 30
0.0
 10
50.33904621137357
 20
-130.4940158093904
 30
0.0
 10
50.16282957730304
 20
-130.4940158093904
 30
0.0
 10
50.00728351614401
 20
-130.4940158093904
 30
0.0
 10
49.73512097280928
 20
-130.4743787651245
 30
0.0
 10
49.51997475975543
 20
-130.3520778753981
 30
0.0
 10
49.30034992257075
 20
-130.2273654188321
 30
0.0
 10
49.27520072552842
 20
-130.0416747721771
 30
0.0
 10
49.27520072552842
 20
-129.8925021376658
 30
0.0
 10
49.27520072552842
 20
-129.7092230578505
 30
0.0
 10
49.32325980754766
 20
-129.5431694554614
 30
0.0
 10
49.51997475975543
 20
-129.433270909482
 30
0.0
 10
49.72823078183877
 20
-129.3185492298231
 30
0.0
 10
49.97524412813119
 20
-129.2916774850382
 30
0.0
 10
50.16282957730304
 20
-129.2916774850382
 30
0.0
 10
50.34817571440949
 20
-129.2916774850382
 30
0.0
 10
50.59760062754157
 20
-129.315793153435
 30
0.0
 10
50.80568439485067
 20
-129.433270909482
 30
0.0
  0
SPLINE
  5
106
330
FF
100
AcDbEntity
  8
_U+30EC_U+30A4_U+30E4_U+30FC 1
370
     0
100
AcDbSpline
210
0.0
220
0.0
230
1.0
 70
    11
 71
     3
 72
    17
 73
    13
 74
     0
 42
0.0000000001
 43
0.0000000001
 12
1.0
 22
0.0
 32
0.0
 13
1.0
 23
0.0
 33
0.0
 40
0.0
 40
0.0
 40
0.0
 40
0.0
 40
1.0
 40
1.0
 40
1.0
 40
2.0
 40
2.0
 40
2.0
 40
3.0
 40
3.0
 40
3.0
 40
4.0
 40
4.0
 40
4.0
 40
4.0
 10
49.48345674761178
 20
-129.8925021376658
 30
0.0
 10
49.48345674761178
 20
-130.1812011393297
 30
0.0
 10
49.79007024579901
 20
-130.2349446288996
 30
0.0
 10
50.16282957730304
 20
-130.2349446288996
 30
0.0
 10
50.5083726544736
 20
-130.2349446288996
 30
0.0
 10
50.84237466176857
 20
-130.1932589735281
 30
0.0
 10
50.84237466176857
 20
-129.8925021376658
 30
0.0
 10
50.84237466176857
 20
-129.60655921239
 30
0.0
 10
50.53800047564675
 20
-129.550748665529
 30
0.0
 10
50.16282957730304
 20
-129.550748665529
 30
0.0
 10
49.81745875490675
 20
-129.550748665529
 30
0.0
 10
49.48345674761178
 20
-129.5945013781917
 30
0.0
 10
49.48345674761178
 20
-129.8925021376658
 30
0.0
  0
HATCH
  5
107
330
FF
100
AcDbEntity
  8
_U+30EC_U+30A4_U+30E4_U+30FC 1
 62
   179
420
  2234388
100
AcDbHatch
 10
0.0
 20
0.0
 30
0.0
210
0.0
220
0.0
230
1.0
  2
SOLID
 70
     1
 71
     0
 91
        2
 92
        1
 93
        1
 72
     4
 94
        3
 73
     0
 74
     1
 95
       29
 96
       25
 40
0.0
 40
0.0
 40
0.0
 40
0.0
 40
1.0
 40
1.0
 40
1.0
 40
2.0
 40
2.0
 40
2.0
 40
3.0
 40
3.0
 40
3.0
 40
4.0
 40
4.0
 40
4.0
 40
5.0
 40
5.0
 40
5.0
 40
6.0
 40
6.0
 40
6.0
 40
7.0
 40
7.0
 40
7.0
 40
8.0
 40
8.0
 40
8.0
 40
8.0
 10
50.80568439485067
 20
-129.433270909482
 10
51.03219942300584
 20
-129.5576388564995
 10
51.05286999591734
 20
-129.758143413741
 10
51.05286999591734
 20
-129.8925021376658
 10
51.05286999591734
 20
-130.0785372938693
 10
51.00257160183269
 20
-130.2421793294186
 10
50.80568439485067
 20
-130.3520778753981
 10
50.5951890607019
 20
-130.4719671982848
 10
50.33904621137357
 20
-130.4940158093904
 10
50.16282957730304
 20
-130.4940158093904
 10
50.00728351614401
 20
-130.4940158093904
 10
49.73512097280928
 20
-130.4743787651245
 10
49.51997475975543
 20
-130.3520778753981
 10
49.30034992257075
 20
-130.2273654188321
 10
49.27520072552842
 20
-130.0416747721771
 10
49.27520072552842
 20
-129.8925021376658
 10
49.27520072552842
 20
-129.7092230578505
 10
49.32325980754766
 20
-129.5431694554614
 10
49.51997475975543
 20
-129.433270909482
 10
49.72823078183877
 20
-129.3185492298231
 10
49.97524412813119
 20
-129.2916774850382
 10
50.16282957730304
 20
-129.2916774850382
 10
50.34817571440949
 20
-129.2916774850382
 10
50.59760062754157
 20
-129.315793153435
 10
50.80568439485067
 20
-129.433270909482
 97
        0
 97
        0
 92
        1
 93
        1
 72
     4
 94
        3
 73
     0
 74
     1
 95
       17
 96
       13
 40
0.0
 40
0.0
 40
0.0
 40
0.0
 40
1.0
 40
1.0
 40
1.0
 40
2.0
 40
2.0
 40
2.0
 40
3.0
 40
3.0
 40
3.0
 40
4.0
 40
4.0
 40
4.0
 40
4.0
 10
49.48345674761178
 20
-129.8925021376658
 10
49.48345674761178
 20
-130.1812011393297
 10
49.79007024579901
 20
-130.2349446288996
 10
50.16282957730304
 20
-130.2349446288996
 10
50.5083726544736
 20
-130.2349446288996
 10
50.84237466176857
 20
-130.1932589735281
 10
50.84237466176857
 20
-129.8925021376658
 10
50.84237466176857
 20
-129.60655921239
 10
50.53800047564675
 20
-129.550748665529
 10
50.16282957730304
 20
-129.550748665529
 10
49.81745875490675
 20
-129.550748665529
 10
49.48345674761178
 20
-129.5945013781917
 10
49.48345674761178
 20
-129.8925021376658
 97
        0
 97
        0
 75
     2
 76
     1
 98
        0
  0
ENDBLK
  5
102
330
FF
100
AcDbEntity
  8
0
100
AcDbBlockEnd
  0
BLOCK
  5
116
330
114
100
AcDbEntity
  8
0
100
AcDbBlockBegin
  2
block 5
 70
     0
 10
0.0
 20
0.0
 30
0.0
  3
block 5
  1

  0
SPLINE
  5
118
330
114
100
AcDbEntity
  8
_U+30EC_U+30A4_U+30E4_U+30FC 1
370
     0
100
AcDbSpline
210
0.0
220
0.0
230
1.0
 70
    11
 71
     3
 72
    26
 73
    22
 74
     0
 42
0.0000000001
 43
0.0000000001
 12
1.0
 22
0.0
 32
0.0
 13
1.0
 23
0.0
 33
0.0
 40
0.0
 40
0.0
 40
0.0
 40
0.0
 40
1.0
 40
1.0
 40
1.0
 40
2.0
 40
2.0
 40
2.0
 40
3.0
 40
3.0
 40
3.0
 40
4.0
 40
4.0
 40
4.0
 40
5.0
 40
5.0
 40
5.0
 40
6.0
 40
6.0
 40
6.0
 40
7.0
 40
7.0
 40
7.0
 40
7.0
 10
119.8149088242129
 20
-135.6843966674678
 30
0.0
 10
119.8149088242129
 20
-135.6843966674678
 30
0.0
 10
119.8149088242129
 20
-134.4903265722802
 30
0.0
 10
119.8149088242129
 20
-134.4903265722802
 30
0.0
 10
119.8149088242129
 20
-134.4903265722802
 30
0.0
 10
119.4331922444473
 20
-134.4903265722802
 30
0.0
 10
119.4331922444473
 20
-134.4903265722802
 30
0.0
 10
119.4331922444473
 20
-134.4903265722802
 30
0.0
 10
119.4331922444473
 20
-134.3301296322161
 30
0.0
 10
119.4331922444473
 20
-134.3301296322161
 30
0.0
 10
119.8169758815041
 20
-134.3142821929839
 30
0.0
 10
119.870719371074
 20
-134.1382378136877
 30
0.0
 10
119.9051703259265
 20
-134.0145588857672
 30
0.0
 10
119.9051703259265
 20
-134.0145588857672
 30
0.0
 10
120.0739800047037
 20
-134.0145588857672
 30
0.0
 10
120.0739800047037
 20
-134.0145588857672
 30
0.0
 10
120.0739800047037
 20
-134.0145588857672
 30
0.0
 10
120.0739800047037
 20
-135.6843966674678
 30
0.0
 10
120.0739800047037
 20
-135.6843966674678
 30
0.0
 10
120.0739800047037
 20
-135.6843966674678
 30
0.0
 10
119.8149088242129
 20
-135.6843966674678
 30
0.0
 10
119.8149088242129
 20
-135.6843966674678
 30
0.0
  0
HATCH
  5
119
330
114
100
AcDbEntity
  8
_U+30EC_U+30A4_U+30E4_U+30FC 1
 62
   179
420
  2234388
100
AcDbHatch
 10
0.0
 20
0.0
 30
0.0
210
0.0
220
0.0
230
1.0
  2
SOLID
 70
     1
 71
     0
 91
        1
 92
        1
 93
        1
 72
     4
 94
        3
 73
     0
 74
     1
 95
       26
 96
       22
 40
0.0
 40
0.0
 40
0.0
 40
0.0
 40
1.0
 40
1.0
 40
1.0
 40
2.0
 40
2.0
 40
2.0
 40
3.0
 40
3.0
 40
3.0
 40
4.0
 40
4.0
 40
4.0
 40
5.0
 40
5.0
 40
5.0
 40
6.0
 40
6.0
 40
6.0
 40
7.0
 40
7.0
 40
7.0
 40
7.0
 10
119.8149088242129
 20
-135.6843966674678
 10
119.8149088242129
 20
-135.6843966674678
 10
119.8149088242129
 20
-134.4903265722802
 10
119.8149088242129
 20
-134.4903265722802
 10
119.8149088242129
 20
-134.4903265722802
 10
119.4331922444473
 20
-134.4903265722802
 10
119.4331922444473
 20
-134.4903265722802
 10
119.4331922444473
 20
-134.4903265722802
 10
119.4331922444473
 20
-134.3301296322161
 10
119.4331922444473
 20
-134.3301296322161
 10
119.8169758815041
 20
-134.3142821929839
 10
119.870719371074
 20
-134.1382378136877
 10
119.9051703259265
 20
-134.0145588857672
 10
119.9051703259265
 20
-134.0145588857672
 10
120.0739800047037
 20
-134.0145588857672
 10
120.0739800047037
 20
-134.0145588857672
 10
120.0739800047037
 20
-134.0145588857672
 10
120.0739800047037
 20
-135.6843966674678
 10
120.0739800047037
 20
-135.6843966674678
 10
120.0739800047037
 20
-135.6843966674678
 10
119.8149088242129
 20
-135.6843966674678
 10
119.8149088242129
 20
-135.6843966674678
 97
        0
 97
        0
 75
     2
 76
     1
 98
        0
  0
SPLINE
  5
11A
330
114
100
AcDbEntity
  8
_U+30EC_U+30A4_U+30E4_U+30FC 1
370
     0
100
AcDbSpline
210
0.0
220
0.0
230
1.0
 70
    11
 71
     3
 72
    29
 73
    25
 74
     0
 42
0.0000000001
 43
0.0000000001
 12
1.0
 22
0.0
 32
0.0
 13
1.0
 23
0.0
 33
0.0
 40
0.0
 40
0.0
 40
0.0
 40
0.0
 40
1.0
 40
1.0
 40
1.0
 40
2.0
 40
2.0
 40
2.0
 40
3.0
 40
3.0
 40
3.0
 40
4.0
 40
4.0
 40
4.0
 40
5.0
 40
5.0
 40
5.0
 40
6.0
 40
6.0
 40
6.0
 40
7.0
 40
7.0
 40
7.0
 40
8.0
 40
8.0
 40
8.0
 40
8.0
 10
121.6890407681889
 20
-135.4921603393909
 30
0.0
 10
121.5643283116228
 20
-135.7188476223203
 30
0.0
 10
121.3638237543813
 20
-135.7395181952318
 30
0.0
 10
121.2294650304565
 20
-135.7395181952318
 30
0.0
 10
121.043429874253
 20
-135.7395181952318
 30
0.0
 10
120.8801323482522
 20
-135.6892198011471
 30
0.0
 10
120.7698892927242
 20
-135.4921603393909
 30
0.0
 10
120.6499999698375
 20
-135.2820095147906
 30
0.0
 10
120.6279513587319
 20
-135.025694410688
 30
0.0
 10
120.6279513587319
 20
-134.8493055218432
 30
0.0
 10
120.6279513587319
 20
-134.6939317154585
 30
0.0
 10
120.6479329125464
 20
-134.4217691721237
 30
0.0
 10
120.7698892927242
 20
-134.2064507042956
 30
0.0
 10
120.8946017492902
 20
-133.9869981218852
 30
0.0
 10
121.0799478863967
 20
-133.9618489248429
 30
0.0
 10
121.2294650304565
 20
-133.9618489248429
 30
0.0
 10
121.4127441102718
 20
-133.9618489248429
 30
0.0
 10
121.5787977126609
 20
-134.0100802616364
 30
0.0
 10
121.6890407681889
 20
-134.2064507042956
 30
0.0
 10
121.8034179382991
 20
-134.4148789811532
 30
0.0
 10
121.8302896830841
 20
-134.6618923274457
 30
0.0
 10
121.8302896830841
 20
-134.8493055218432
 30
0.0
 10
121.8302896830841
 20
-135.0346516589497
 30
0.0
 10
121.8061740146874
 20
-135.2840765720818
 30
0.0
 10
121.6890407681889
 20
-135.4921603393909
 30
0.0
  0
SPLINE
  5
11B
330
114
100
AcDbEntity
  8
_U+30EC_U+30A4_U+30E4_U+30FC 1
370
     0
100
AcDbSpline
210
0.0
220
0.0
230
1.0
 70
    11
 71
     3
 72
    17
 73
    13
 74
     0
 42
0.0000000001
 43
0.0000000001
 12
1.0
 22
0.0
 32
0.0
 13
1.0
 23
0.0
 33
0.0
 40
0.0
 40
0.0
 40
0.0
 40
0.0
 40
1.0
 40
1.0
 40
1.0
 40
2.0
 40
2.0
 40
2.0
 40
3.0
 40
3.0
 40
3.0
 40
4.0
 40
4.0
 40
4.0
 40
4.0
 10
121.2294650304565
 20
-134.169932692152
 30
0.0
 10
120.9407660287926
 20
-134.169932692152
 30
0.0
 10
120.8870225392227
 20
-134.4765461903392
 30
0.0
 10
120.8870225392227
 20
-134.8493055218432
 30
0.0
 10
120.8870225392227
 20
-135.1951931085623
 30
0.0
 10
120.9290527041427
 20
-135.529022861083
 30
0.0
 10
121.2294650304565
 20
-135.529022861083
 30
0.0
 10
121.5154079557323
 20
-135.529022861083
 30
0.0
 10
121.5712185025933
 20
-135.2248209297355
 30
0.0
 10
121.5712185025933
 20
-134.8493055218432
 30
0.0
 10
121.5712185025933
 20
-134.5041069542212
 30
0.0
 10
121.5278102994792
 20
-134.169932692152
 30
0.0
 10
121.2294650304565
 20
-134.169932692152
 30
0.0
  0
HATCH
  5
11C
330
114
100
AcDbEntity
  8
_U+30EC_U+30A4_U+30E4_U+30FC 1
 62
   179
420
  2234388
100
AcDbHatch
 10
0.0
 20
0.0
 30
0.0
210
0.0
220
0.0
230
1.0
  2
SOLID
 70
     1
 71
     0
 91
        2
 92
        1
 93
        1
 72
     4
 94
        3
 73
     0
 74
     1
 95
       29
 96
       25
 40
0.0
 40
0.0
 40
0.0
 40
0.0
 40
1.0
 40
1.0
 40
1.0
 40
2.0
 40
2.0
 40
2.0
 40
3.0
 40
3.0
 40
3.0
 40
4.0
 40
4.0
 40
4.0
 40
5.0
 40
5.0
 40
5.0
 40
6.0
 40
6.0
 40
6.0
 40
7.0
 40
7.0
 40
7.0
 40
8.0
 40
8.0
 40
8.0
 40
8.0
 10
121.6890407681889
 20
-135.4921603393909
 10
121.5643283116228
 20
-135.7188476223203
 10
121.3638237543813
 20
-135.7395181952318
 10
121.2294650304565
 20
-135.7395181952318
 10
121.043429874253
 20
-135.7395181952318
 10
120.8801323482522
 20
-135.6892198011471
 10
120.7698892927242
 20
-135.4921603393909
 10
120.6499999698375
 20
-135.2820095147906
 10
120.6279513587319
 20
-135.025694410688
 10
120.6279513587319
 20
-134.8493055218432
 10
120.6279513587319
 20
-134.6939317154585
 10
120.6479329125464
 20
-134.4217691721237
 10
120.7698892927242
 20
-134.2064507042956
 10
120.8946017492902
 20
-133.9869981218852
 10
121.0799478863967
 20
-133.9618489248429
 10
121.2294650304565
 20
-133.9618489248429
 10
121.4127441102718
 20
-133.9618489248429
 10
121.5787977126609
 20
-134.0100802616364
 10
121.6890407681889
 20
-134.2064507042956
 10
121.8034179382991
 20
-134.4148789811532
 10
121.8302896830841
 20
-134.6618923274457
 10
121.8302896830841
 20
-134.8493055218432
 10
121.8302896830841
 20
-135.0346516589497
 10
121.8061740146874
 20
-135.2840765720818
 10
121.6890407681889
 20
-135.4921603393909
 97
        0
 97
        0
 92
        1
 93
        1
 72
     4
 94
        3
 73
     0
 74
     1
 95
       17
 96
       13
 40
0.0
 40
0.0
 40
0.0
 40
0.0
 40
1.0
 40
1.0
 40
1.0
 40
2.0
 40
2.0
 40
2.0
 40
3.0
 40
3.0
 40
3.0
 40
4.0
 40
4.0
 40
4.0
 40
4.0
 10
121.2294650304565
 20
-134.169932692152
 10
120.9407660287926
 20
-134.169932692152
 10
120.8870225392227
 20
-134.4765461903392
 10
120.8870225392227
 20
-134.8493055218432
 10
120.8870225392227
 20
-135.1951931085623
 10
120.9290527041427
 20
-135.529022861083
 10
121.2294650304565
 20
-135.529022861083
 10
121.5154079557323
 20
-135.529022861083
 10
121.5712185025933
 20
-135.2248209297355
 10
121.5712185025933
 20
-134.8493055218432
 10
121.5712185025933
 20
-134.5041069542212
 10
121.5278102994792
 20
-134.169932692152
 10
121.2294650304565
 20
-134.169932692152
 97
        0
 97
        0
 75
     2
 76
     1
 98
        0
  0
ENDBLK
  5
117
330
114
100
AcDbEntity
  8
0
100
AcDbBlockEnd
  0
BLOCK
  5
12B
330
129
100
AcDbEntity
  8
0
100
AcDbBlockBegin
  2
block 6
 70
     0
 10
0.0
 20
0.0
 30
0.0
  3
block 6
  1

  0
SPLINE
  5
12D
330
129
100
AcDbEntity
  8
_U+30EC_U+30A4_U+30E4_U+30FC 1
370
     0
100
AcDbSpline
210
0.0
220
0.0
230
1.0
 70
    11
 71
     3
 72
    26
 73
    22
 74
     0
 42
0.0000000001
 43
0.0000000001
 12
1.0
 22
0.0
 32
0.0
 13
1.0
 23
0.0
 33
0.0
 40
0.0
 40
0.0
 40
0.0
 40
0.0
 40
1.0
 40
1.0
 40
1.0
 40
2.0
 40
2.0
 40
2.0
 40
3.0
 40
3.0
 40
3.0
 40
4.0
 40
4.0
 40
4.0
 40
5.0
 40
5.0
 40
5.0
 40
6.0
 40
6.0
 40
6.0
 40
7.0
 40
7.0
 40
7.0
 40
7.0
 10
128.6977430233811
 20
-130.8874457138059
 30
0.0
 10
128.6977430233811
 20
-130.8874457138059
 30
0.0
 10
127.5036729281935
 20
-130.8874457138059
 30
0.0
 10
127.5036729281935
 20
-130.8874457138059
 30
0.0
 10
127.5036729281935
 20
-130.8874457138059
 30
0.0
 10
127.5036729281935
 20
-131.2684732744746
 30
0.0
 10
127.5036729281935
 20
-131.2684732744746
 30
0.0
 10
127.5036729281935
 20
-131.2684732744746
 30
0.0
 10
127.3438204976779
 20
-131.2684732744746
 30
0.0
 10
127.3438204976779
 20
-131.2684732744746
 30
0.0
 10
127.3272840393487
 20
-130.8846896374177
 30
0.0
 10
127.151584169601
 20
-130.8309461478478
 30
0.0
 10
127.027560732132
 20
-130.7968397025438
 30
0.0
 10
127.027560732132
 20
-130.7968397025438
 30
0.0
 10
127.027560732132
 20
-130.6283745333151
 30
0.0
 10
127.027560732132
 20
-130.6283745333151
 30
0.0
 10
127.027560732132
 20
-130.6283745333151
 30
0.0
 10
128.6977430233811
 20
-130.6283745333151
 30
0.0
 10
128.6977430233811
 20
-130.6283745333151
 30
0.0
 10
128.6977430233811
 20
-130.6283745333151
 30
0.0
 10
128.6977430233811
 20
-130.8874457138059
 30
0.0
 10
128.6977430233811
 20
-130.8874457138059
 30
0.0
  0
HATCH
  5
12E
330
129
100
AcDbEntity
  8
_U+30EC_U+30A4_U+30E4_U+30FC 1
 62
   179
420
  2234388
100
AcDbHatch
 10
0.0
 20
0.0
 30
0.0
210
0.0
220
0.0
230
1.0
  2
SOLID
 70
     1
 71
     0
 91
        1
 92
        1
 93
        1
 72
     4
 94
        3
 73
     0
 74
     1
 95
       26
 96
       22
 40
0.0
 40
0.0
 40
0.0
 40
0.0
 40
1.0
 40
1.0
 40
1.0
 40
2.0
 40
2.0
 40
2.0
 40
3.0
 40
3.0
 40
3.0
 40
4.0
 40
4.0
 40
4.0
 40
5.0
 40
5.0
 40
5.0
 40
6.0
 40
6.0
 40
6.0
 40
7.0
 40
7.0
 40
7.0
 40
7.0
 10
128.6977430233811
 20
-130.8874457138059
 10
128.6977430233811
 20
-130.8874457138059
 10
127.5036729281935
 20
-130.8874457138059
 10
127.5036729281935
 20
-130.8874457138059
 10
127.5036729281935
 20
-130.8874457138059
 10
127.5036729281935
 20
-131.2684732744746
 10
127.5036729281935
 20
-131.2684732744746
 10
127.5036729281935
 20
-131.2684732744746
 10
127.3438204976779
 20
-131.2684732744746
 10
127.3438204976779
 20
-131.2684732744746
 10
127.3272840393487
 20
-130.8846896374177
 10
127.151584169601
 20
-130.8309461478478
 10
127.027560732132
 20
-130.7968397025438
 10
127.027560732132
 20
-130.7968397025438
 10
127.027560732132
 20
-130.6283745333151
 10
127.027560732132
 20
-130.6283745333151
 10
127.027560732132
 20
-130.6283745333151
 10
128.6977430233811
 20
-130.6283745333151
 10
128.6977430233811
 20
-130.6283745333151
 10
128.6977430233811
 20
-130.6283745333151
 10
128.6977430233811
 20
-130.8874457138059
 10
128.6977430233811
 20
-130.8874457138059
 97
        0
 97
        0
 75
     2
 76
     1
 98
        0
  0
SPLINE
  5
12F
330
129
100
AcDbEntity
  8
_U+30EC_U+30A4_U+30E4_U+30FC 1
370
     0
100
AcDbSpline
210
0.0
220
0.0
230
1.0
 70
    11
 71
     3
 72
    29
 73
    25
 74
     0
 42
0.0000000001
 43
0.0000000001
 12
1.0
 22
0.0
 32
0.0
 13
1.0
 23
0.0
 33
0.0
 40
0.0
 40
0.0
 40
0.0
 40
0.0
 40
1.0
 40
1.0
 40
1.0
 40
2.0
 40
2.0
 40
2.0
 40
3.0
 40
3.0
 40
3.0
 40
4.0
 40
4.0
 40
4.0
 40
5.0
 40
5.0
 40
5.0
 40
6.0
 40
6.0
 40
6.0
 40
7.0
 40
7.0
 40
7.0
 40
8.0
 40
8.0
 40
8.0
 40
8.0
 10
128.5055066953042
 20
-129.01331376983
 30
0.0
 10
128.7321939782336
 20
-129.1380262263961
 30
0.0
 10
128.7528645511451
 20
-129.3385307836376
 30
0.0
 10
128.7528645511451
 20
-129.4728895075623
 30
0.0
 10
128.7528645511451
 20
-129.6582356446688
 30
0.0
 10
128.7025661570605
 20
-129.8222221897667
 30
0.0
 10
128.5055066953042
 20
-129.9321207357461
 30
0.0
 10
128.295355870704
 20
-130.0516655490843
 30
0.0
 10
128.0390407666013
 20
-130.0737141601899
 30
0.0
 10
127.8626518777566
 20
-130.0737141601899
 30
0.0
 10
127.7076225809203
 20
-130.0737141601899
 30
0.0
 10
127.4347710184885
 20
-130.0544216254725
 30
0.0
 10
127.2197970602089
 20
-129.9321207357461
 30
0.0
 10
127.0006889873471
 20
-129.8077527887286
 30
0.0
 10
126.9751952807562
 20
-129.6217176325251
 30
0.0
 10
126.9751952807562
 20
-129.4728895075623
 30
0.0
 10
126.9751952807562
 20
-129.289610427747
 30
0.0
 10
127.0234266175497
 20
-129.1232123158095
 30
0.0
 10
127.2197970602089
 20
-129.01331376983
 30
0.0
 10
127.427880827518
 20
-128.8982475806227
 30
0.0
 10
127.675238683359
 20
-128.8713758358377
 30
0.0
 10
127.8626518777566
 20
-128.8713758358377
 30
0.0
 10
128.047998014863
 20
-128.8713758358377
 30
0.0
 10
128.2974229279951
 20
-128.8961805233315
 30
0.0
 10
128.5055066953042
 20
-129.01331376983
 30
0.0
  0
SPLINE
  5
130
330
129
100
AcDbEntity
  8
_U+30EC_U+30A4_U+30E4_U+30FC 1
370
     0
100
AcDbSpline
210
0.0
220
0.0
230
1.0
 70
    11
 71
     3
 72
    17
 73
    13
 74
     0
 42
0.0000000001
 43
0.0000000001
 12
1.0
 22
0.0
 32
0.0
 13
1.0
 23
0.0
 33
0.0
 40
0.0
 40
0.0
 40
0.0
 40
0.0
 40
1.0
 40
1.0
 40
1.0
 40
2.0
 40
2.0
 40
2.0
 40
3.0
 40
3.0
 40
3.0
 40
4.0
 40
4.0
 40
4.0
 40
4.0
 10
127.1832790480653
 20
-129.4728895075623
 30
0.0
 10
127.1832790480653
 20
-129.7608994901292
 30
0.0
 10
127.4898925462525
 20
-129.8146429796991
 30
0.0
 10
127.8626518777566
 20
-129.8146429796991
 30
0.0
 10
128.2085394644756
 20
-129.8146429796991
 30
0.0
 10
128.5420247074478
 20
-129.7733018338761
 30
0.0
 10
128.5420247074478
 20
-129.4728895075623
 30
0.0
 10
128.5420247074478
 20
-129.1869465822866
 30
0.0
 10
128.2381672856488
 20
-129.1304470163285
 30
0.0
 10
127.8626518777566
 20
-129.1304470163285
 30
0.0
 10
127.5174533101345
 20
-129.1304470163285
 30
0.0
 10
127.1832790480653
 20
-129.1745442385397
 30
0.0
 10
127.1832790480653
 20
-129.4728895075623
 30
0.0
  0
HATCH
  5
131
330
129
100
AcDbEntity
  8
_U+30EC_U+30A4_U+30E4_U+30FC 1
 62
   179
420
  2234388
100
AcDbHatch
 10
0.0
 20
0.0
 30
0.0
210
0.0
220
0.0
230
1.0
  2
SOLID
 70
     1
 71
     0
 91
        2
 92
        1
 93
        1
 72
     4
 94
        3
 73
     0
 74
     1
 95
       29
 96
       25
 40
0.0
 40
0.0
 40
0.0
 40
0.0
 40
1.0
 40
1.0
 40
1.0
 40
2.0
 40
2.0
 40
2.0
 40
3.0
 40
3.0
 40
3.0
 40
4.0
 40
4.0
 40
4.0
 40
5.0
 40
5.0
 40
5.0
 40
6.0
 40
6.0
 40
6.0
 40
7.0
 40
7.0
 40
7.0
 40
8.0
 40
8.0
 40
8.0
 40
8.0
 10
128.5055066953042
 20
-129.01331376983
 10
128.7321939782336
 20
-129.1380262263961
 10
128.7528645511451
 20
-129.3385307836376
 10
128.7528645511451
 20
-129.4728895075623
 10
128.7528645511451
 20
-129.6582356446688
 10
128.7025661570605
 20
-129.8222221897667
 10
128.5055066953042
 20
-129.9321207357461
 10
128.295355870704
 20
-130.0516655490843
 10
128.0390407666013
 20
-130.0737141601899
 10
127.8626518777566
 20
-130.0737141601899
 10
127.7076225809203
 20
-130.0737141601899
 10
127.4347710184885
 20
-130.0544216254725
 10
127.2197970602089
 20
-129.9321207357461
 10
127.0006889873471
 20
-129.8077527887286
 10
126.9751952807562
 20
-129.6217176325251
 10
126.9751952807562
 20
-129.4728895075623
 10
126.9751952807562
 20
-129.289610427747
 10
127.0234266175497
 20
-129.1232123158095
 10
127.2197970602089
 20
-129.01331376983
 10
127.427880827518
 20
-128.8982475806227
 10
127.675238683359
 20
-128.8713758358377
 10
127.8626518777566
 20
-128.8713758358377
 10
128.047998014863
 20
-128.8713758358377
 10
128.2974229279951
 20
-128.8961805233315
 10
128.5055066953042
 20
-129.01331376983
 97
        0
 97
        0
 92
        1
 93
        1
 72
     4
 94
        3
 73
     0
 74
     1
 95
       17
 96
       13
 40
0.0
 40
0.0
 40
0.0
 40
0.0
 40
1.0
 40
1.0
 40
1.0
 40
2.0
 40
2.0
 40
2.0
 40
3.0
 40
3.0
 40
3.0
 40
4.0
 40
4.0
 40
4.0
 40
4.0
 10
127.1832790480653
 20
-129.4728895075623
 10
127.1832790480653
 20
-129.7608994901292
 10
127.4898925462525
 20
-129.8146429796991
 10
127.8626518777566
 20
-129.8146429796991
 10
128.2085394644756
 20
-129.8146429796991
 10
128.5420247074478
 20
-129.7733018338761
 10
128.5420247074478
 20
-129.4728895075623
 10
128.5420247074478
 20
-129.1869465822866
 10
128.2381672856488
 20
-129.1304470163285
 10
127.8626518777566
 20
-129.1304470163285
 10
127.5174533101345
 20
-129.1304470163285
 10
127.1832790480653
 20
-129.1745442385397
 10
127.1832790480653
 20
-129.4728895075623
 97
        0
 97
        0
 75
     2
 76
     1
 98
        0
  0
ENDBLK
  5
12C
330
129
100
AcDbEntity
  8
0
100
AcDbBlockEnd
  0
BLOCK
  5
13C
330
13A
100
AcDbEntity
  8
0
100
AcDbBlockBegin
  2
block 7
 70
     0
 10
0.0
 20
0.0
 30
0.0
  3
block 7
  1

  0
SPLINE
  5
13E
330
13A
100
AcDbEntity
  8
_U+30EC_U+30A4_U+30E4_U+30FC 1
370
     0
100
AcDbSpline
210
0.0
220
0.0
230
1.0
 70
    11
 71
     3
 72
    26
 73
    22
 74
     0
 42
0.0000000001
 43
0.0000000001
 12
1.0
 22
0.0
 32
0.0
 13
1.0
 23
0.0
 33
0.0
 40
0.0
 40
0.0
 40
0.0
 40
0.0
 40
1.0
 40
1.0
 40
1.0
 40
2.0
 40
2.0
 40
2.0
 40
3.0
 40
3.0
 40
3.0
 40
4.0
 40
4.0
 40
4.0
 40
5.0
 40
5.0
 40
5.0
 40
6.0
 40
6.0
 40
6.0
 40
7.0
 40
7.0
 40
7.0
 40
7.0
 10
132.0277723194236
 20
-129.9872422635101
 30
0.0
 10
132.0277723194236
 20
-129.9872422635101
 30
0.0
 10
130.833702224236
 20
-129.9872422635101
 30
0.0
 10
130.833702224236
 20
-129.9872422635101
 30
0.0
 10
130.833702224236
 20
-129.9872422635101
 30
0.0
 10
130.833702224236
 20
-130.3686143337273
 30
0.0
 10
130.833702224236
 20
-130.3686143337273
 30
0.0
 10
130.833702224236
 20
-130.3686143337273
 30
0.0
 10
130.6735052841719
 20
-130.3686143337273
 30
0.0
 10
130.6735052841719
 20
-130.3686143337273
 30
0.0
 10
130.6573133353912
 20
-129.9848306966705
 30
0.0
 10
130.481268956095
 20
-129.9310872071006
 30
0.0
 10
130.3575900281745
 20
-129.8966362522481
 30
0.0
 10
130.3575900281745
 20
-129.8966362522481
 30
0.0
 10
130.3575900281745
 20
-129.7281710830194
 30
0.0
 10
130.3575900281745
 20
-129.7281710830194
 30
0.0
 10
130.3575900281745
 20
-129.7281710830194
 30
0.0
 10
132.0277723194236
 20
-129.7281710830194
 30
0.0
 10
132.0277723194236
 20
-129.7281710830194
 30
0.0
 10
132.0277723194236
 20
-129.7281710830194
 30
0.0
 10
132.0277723194236
 20
-129.9872422635101
 30
0.0
 10
132.0277723194236
 20
-129.9872422635101
 30
0.0
  0
HATCH
  5
13F
330
13A
100
AcDbEntity
  8
_U+30EC_U+30A4_U+30E4_U+30FC 1
 62
   179
420
  2234388
100
AcDbHatch
 10
0.0
 20
0.0
 30
0.0
210
0.0
220
0.0
230
1.0
  2
SOLID
 70
     1
 71
     0
 91
        1
 92
        1
 93
        1
 72
     4
 94
        3
 73
     0
 74
     1
 95
       26
 96
       22
 40
0.0
 40
0.0
 40
0.0
 40
0.0
 40
1.0
 40
1.0
 40
1.0
 40
2.0
 40
2.0
 40
2.0
 40
3.0
 40
3.0
 40
3.0
 40
4.0
 40
4.0
 40
4.0
 40
5.0
 40
5.0
 40
5.0
 40
6.0
 40
6.0
 40
6.0
 40
7.0
 40
7.0
 40
7.0
 40
7.0
 10
132.0277723194236
 20
-129.9872422635101
 10
132.0277723194236
 20
-129.9872422635101
 10
130.833702224236
 20
-129.9872422635101
 10
130.833702224236
 20
-129.9872422635101
 10
130.833702224236
 20
-129.9872422635101
 10
130.833702224236
 20
-130.3686143337273
 10
130.833702224236
 20
-130.3686143337273
 10
130.833702224236
 20
-130.3686143337273
 10
130.6735052841719
 20
-130.3686143337273
 10
130.6735052841719
 20
-130.3686143337273
 10
130.6573133353912
 20
-129.9848306966705
 10
130.481268956095
 20
-129.9310872071006
 10
130.3575900281745
 20
-129.8966362522481
 10
130.3575900281745
 20
-129.8966362522481
 10
130.3575900281745
 20
-129.7281710830194
 10
130.3575900281745
 20
-129.7281710830194
 10
130.3575900281745
 20
-129.7281710830194
 10
132.0277723194236
 20
-129.7281710830194
 10
132.0277723194236
 20
-129.7281710830194
 10
132.0277723194236
 20
-129.7281710830194
 10
132.0277723194236
 20
-129.9872422635101
 10
132.0277723194236
 20
-129.9872422635101
 97
        0
 97
        0
 75
     2
 76
     1
 98
        0
  0
SPLINE
  5
140
330
13A
100
AcDbEntity
  8
_U+30EC_U+30A4_U+30E4_U+30FC 1
370
     0
100
AcDbSpline
210
0.0
220
0.0
230
1.0
 70
    11
 71
     3
 72
    62
 73
    58
 74
     0
 42
0.0000000001
 43
0.0000000001
 12
1.0
 22
0.0
 32
0.0
 13
1.0
 23
0.0
 33
0.0
 40
0.0
 40
0.0
 40
0.0
 40
0.0
 40
1.0
 40
1.0
 40
1.0
 40
2.0
 40
2.0
 40
2.0
 40
3.0
 40
3.0
 40
3.0
 40
4.0
 40
4.0
 40
4.0
 40
5.0
 40
5.0
 40
5.0
 40
6.0
 40
6.0
 40
6.0
 40
7.0
 40
7.0
 40
7.0
 40
8.0
 40
8.0
 40
8.0
 40
9.0
 40
9.0
 40
9.0
 40
10.0
 40
10.0
 40
10.0
 40
11.0
 40
11.0
 40
11.0
 40
12.0
 40
12.0
 40
12.0
 40
13.0
 40
13.0
 40
13.0
 40
14.0
 40
14.0
 40
14.0
 40
15.0
 40
15.0
 40
15.0
 40
16.0
 40
16.0
 40
16.0
 40
17.0
 40
17.0
 40
17.0
 40
18.0
 40
18.0
 40
18.0
 40
19.0
 40
19.0
 40
19.0
 40
19.0
 10
132.0825493376391
 20
-128.5825045793995
 30
0.0
 10
132.0825493376391
 20
-128.692403125379
 30
0.0
 10
132.0598117074364
 20
-128.9440673505765
 30
0.0
 10
131.8586181310978
 20
-129.0884168514085
 30
0.0
 10
131.7373507700171
 20
-129.1738552194427
 30
0.0
 10
131.6298637908773
 20
-129.178678353122
 30
0.0
 10
131.5382242509696
 20
-129.1835014868014
 30
0.0
 10
131.5382242509696
 20
-129.1835014868014
 30
0.0
 10
131.5382242509696
 20
-128.9292534399899
 30
0.0
 10
131.5382242509696
 20
-128.9292534399899
 30
0.0
 10
131.6181504662274
 20
-128.9271863826988
 30
0.0
 10
131.8720540034903
 20
-128.9147840389519
 30
0.0
 10
131.8720540034903
 20
-128.5873277130789
 30
0.0
 10
131.8720540034903
 20
-128.4285088112088
 30
0.0
 10
131.7966064123634
 20
-128.2524644319126
 30
0.0
 10
131.5495930660709
 20
-128.2524644319126
 30
0.0
 10
131.4238470808593
 20
-128.2524644319126
 30
0.0
 10
131.371137119935
 20
-128.2965616541238
 30
0.0
 10
131.337030674631
 20
-128.3332519210417
 30
0.0
 10
131.2567599498247
 20
-128.4186902890759
 30
0.0
 10
131.2429795678837
 20
-128.5530490130006
 30
0.0
 10
131.2429795678837
 20
-128.6166110247035
 30
0.0
 10
131.2429795678837
 20
-128.6386596358091
 30
0.0
 10
131.2453911347234
 20
-128.6801730364064
 30
0.0
 10
131.2498697588542
 20
-128.7120401696449
 30
0.0
 10
131.2498697588542
 20
-128.7120401696449
 30
0.0
 10
131.0393744247054
 20
-128.7120401696449
 30
0.0
 10
131.0393744247054
 20
-128.7120401696449
 30
0.0
 10
131.0462646156759
 20
-128.6679429474337
 30
0.0
 10
131.0486761825156
 20
-128.6190225915432
 30
0.0
 10
131.0486761825156
 20
-128.6117878910241
 30
0.0
 10
131.0486761825156
 20
-128.5359957903486
 30
0.0
 10
131.0255940427645
 20
-128.3062079214825
 30
0.0
 10
130.7696234482104
 20
-128.3062079214825
 30
0.0
 10
130.5773871201334
 20
-128.3062079214825
 30
0.0
 10
130.5177869682386
 20
-128.4577921228335
 30
0.0
 10
130.5177869682386
 20
-128.5849161462392
 30
0.0
 10
130.5177869682386
 20
-128.8903238610066
 30
0.0
 10
130.7696234482104
 20
-128.9003146379138
 30
0.0
 10
130.8471380966285
 20
-128.9051377715932
 30
0.0
 10
130.8471380966285
 20
-128.9051377715932
 30
0.0
 10
130.8471380966285
 20
-129.1394042645902
 30
0.0
 10
130.8471380966285
 20
-129.1394042645902
 30
0.0
 10
130.7124348631552
 20
-129.1297579972315
 30
0.0
 10
130.3052245767987
 20
-129.0980631187672
 30
0.0
 10
130.3052245767987
 20
-128.5702744904269
 30
0.0
 10
130.3052245767987
 20
-128.3112033099361
 30
0.0
 10
130.4423393771116
 20
-128.0324950851794
 30
0.0
 10
130.7627332572399
 20
-128.0324950851794
 30
0.0
 10
130.9639268335785
 20
-128.0324950851794
 30
0.0
 10
131.0531548066464
 20
-128.1425658859331
 30
0.0
 10
131.1196451495118
 20
-128.2574598203662
 30
0.0
 10
131.1492729706849
 20
-128.1864908533701
 30
0.0
 10
131.2360893769132
 20
-127.9763400287698
 30
0.0
 10
131.53581268413
 20
-127.9763400287698
 30
0.0
 10
131.902026334212
 20
-127.9763400287698
 30
0.0
 10
132.0825493376391
 20
-128.2622829540456
 30
0.0
 10
132.0825493376391
 20
-128.5825045793995
 30
0.0
  0
HATCH
  5
141
330
13A
100
AcDbEntity
  8
_U+30EC_U+30A4_U+30E4_U+30FC 1
 62
   179
420
  2234388
100
AcDbHatch
 10
0.0
 20
0.0
 30
0.0
210
0.0
220
0.0
230
1.0
  2
SOLID
 70
     1
 71
     0
 91
        1
 92
        1
 93
        1
 72
     4
 94
        3
 73
     0
 74
     1
 95
       62
 96
       58
 40
0.0
 40
0.0
 40
0.0
 40
0.0
 40
1.0
 40
1.0
 40
1.0
 40
2.0
 40
2.0
 40
2.0
 40
3.0
 40
3.0
 40
3.0
 40
4.0
 40
4.0
 40
4.0
 40
5.0
 40
5.0
 40
5.0
 40
6.0
 40
6.0
 40
6.0
 40
7.0
 40
7.0
 40
7.0
 40
8.0
 40
8.0
 40
8.0
 40
9.0
 40
9.0
 40
9.0
 40
10.0
 40
10.0
 40
10.0
 40
11.0
 40
11.0
 40
11.0
 40
12.0
 40
12.0
 40
12.0
 40
13.0
 40
13.0
 40
13.0
 40
14.0
 40
14.0
 40
14.0
 40
15.0
 40
15.0
 40
15.0
 40
16.0
 40
16.0
 40
16.0
 40
17.0
 40
17.0
 40
17.0
 40
18.0
 40
18.0
 40
18.0
 40
19.0
 40
19.0
 40
19.0
 40
19.0
 10
132.0825493376391
 20
-128.5825045793995
 10
132.0825493376391
 20
-128.692403125379
 10
132.0598117074364
 20
-128.9440673505765
 10
131.8586181310978
 20
-129.0884168514085
 10
131.7373507700171
 20
-129.1738552194427
 10
131.6298637908773
 20
-129.178678353122
 10
131.5382242509696
 20
-129.1835014868014
 10
131.5382242509696
 20
-129.1835014868014
 10
131.5382242509696
 20
-128.9292534399899
 10
131.5382242509696
 20
-128.9292534399899
 10
131.6181504662274
 20
-128.9271863826988
 10
131.8720540034903
 20
-128.9147840389519
 10
131.8720540034903
 20
-128.5873277130789
 10
131.8720540034903
 20
-128.4285088112088
 10
131.7966064123634
 20
-128.2524644319126
 10
131.5495930660709
 20
-128.2524644319126
 10
131.4238470808593
 20
-128.2524644319126
 10
131.371137119935
 20
-128.2965616541238
 10
131.337030674631
 20
-128.3332519210417
 10
131.2567599498247
 20
-128.4186902890759
 10
131.2429795678837
 20
-128.5530490130006
 10
131.2429795678837
 20
-128.6166110247035
 10
131.2429795678837
 20
-128.6386596358091
 10
131.2453911347234
 20
-128.6801730364064
 10
131.2498697588542
 20
-128.7120401696449
 10
131.2498697588542
 20
-128.7120401696449
 10
131.0393744247054
 20
-128.7120401696449
 10
131.0393744247054
 20
-128.7120401696449
 10
131.0462646156759
 20
-128.6679429474337
 10
131.0486761825156
 20
-128.6190225915432
 10
131.0486761825156
 20
-128.6117878910241
 10
131.0486761825156
 20
-128.5359957903486
 10
131.0255940427645
 20
-128.3062079214825
 10
130.7696234482104
 20
-128.3062079214825
 10
130.5773871201334
 20
-128.3062079214825
 10
130.5177869682386
 20
-128.4577921228335
 10
130.5177869682386
 20
-128.5849161462392
 10
130.5177869682386
 20
-128.8903238610066
 10
130.7696234482104
 20
-128.9003146379138
 10
130.8471380966285
 20
-128.9051377715932
 10
130.8471380966285
 20
-128.9051377715932
 10
130.8471380966285
 20
-129.1394042645902
 10
130.8471380966285
 20
-129.1394042645902
 10
130.7124348631552
 20
-129.1297579972315
 10
130.3052245767987
 20
-129.0980631187672
 10
130.3052245767987
 20
-128.5702744904269
 10
130.3052245767987
 20
-128.3112033099361
 10
130.4423393771116
 20
-128.0324950851794
 10
130.7627332572399
 20
-128.0324950851794
 10
130.9639268335785
 20
-128.0324950851794
 10
131.0531548066464
 20
-128.1425658859331
 10
131.1196451495118
 20
-128.2574598203662
 10
131.1492729706849
 20
-128.1864908533701
 10
131.2360893769132
 20
-127.9763400287698
 10
131.53581268413
 20
-127.9763400287698
 10
131.902026334212
 20
-127.9763400287698
 10
132.0825493376391
 20
-128.2622829540456
 10
132.0825493376391
 20
-128.5825045793995
 97
        0
 97
        0
 75
     2
 76
     1
 98
        0
  0
ENDBLK
  5
13D
330
13A
100
AcDbEntity
  8
0
100
AcDbBlockEnd
  0
BLOCK
  5
150
330
14E
100
AcDbEntity
  8
0
100
AcDbBlockBegin
  2
block 8
 70
     0
 10
0.0
 20
0.0
 30
0.0
  3
block 8
  1

  0
SPLINE
  5
152
330
14E
100
AcDbEntity
  8
_U+30EC_U+30A4_U+30E4_U+30FC 1
370
     0
100
AcDbSpline
210
0.0
220
0.0
230
1.0
 70
    11
 71
     3
 72
    29
 73
    25
 74
     0
 42
0.0000000001
 43
0.0000000001
 12
1.0
 22
0.0
 32
0.0
 13
1.0
 23
0.0
 33
0.0
 40
0.0
 40
0.0
 40
0.0
 40
0.0
 40
1.0
 40
1.0
 40
1.0
 40
2.0
 40
2.0
 40
2.0
 40
3.0
 40
3.0
 40
3.0
 40
4.0
 40
4.0
 40
4.0
 40
5.0
 40
5.0
 40
5.0
 40
6.0
 40
6.0
 40
6.0
 40
7.0
 40
7.0
 40
7.0
 40
8.0
 40
8.0
 40
8.0
 40
8.0
 10
115.4499728444014
 20
-122.4550577493342
 30
0.0
 10
115.1419813080201
 20
-122.4550577493342
 30
0.0
 10
114.8491481917738
 20
-122.3062296243714
 30
0.0
 10
114.8491481917738
 20
-121.9288194139622
 30
0.0
 10
114.8491481917738
 20
-121.6520059917224
 30
0.0
 10
115.0124457177747
 20
-121.5489976367135
 30
0.0
 10
115.1350911170496
 20
-121.4826795486224
 30
0.0
 10
114.9903971066691
 20
-121.4186007725967
 30
0.0
 10
114.9028916813437
 20
-121.2950940994505
 30
0.0
 10
114.9028916813437
 20
-121.1212890322197
 30
0.0
 10
114.9028916813437
 20
-120.8238050370684
 30
0.0
 10
115.1323350406614
 20
-120.6773884789452
 30
0.0
 10
115.4499728444014
 20
-120.6773884789452
 30
0.0
 10
115.7779459345972
 20
-120.6773884789452
 30
0.0
 10
115.9977430265561
 20
-120.8329345401043
 30
0.0
 10
115.9977430265561
 20
-121.1212890322197
 30
0.0
 10
115.9977430265561
 20
-121.2950940994505
 30
0.0
 10
115.9074815248426
 20
-121.4186007725967
 30
0.0
 10
115.7627875144621
 20
-121.4826795486224
 30
0.0
 10
115.8654513599225
 20
-121.5376288216121
 30
0.0
 10
116.0487304397378
 20
-121.6406371766211
 30
0.0
 10
116.0487304397378
 20
-121.9243407898314
 30
0.0
 10
116.0487304397378
 20
-122.3291395093483
 30
0.0
 10
115.7262695023184
 20
-122.4550577493342
 30
0.0
 10
115.4499728444014
 20
-122.4550577493342
 30
0.0
  0
SPLINE
  5
153
330
14E
100
AcDbEntity
  8
_U+30EC_U+30A4_U+30E4_U+30FC 1
370
     0
100
AcDbSpline
210
0.0
220
0.0
230
1.0
 70
    11
 71
     3
 72
    17
 73
    13
 74
     0
 42
0.0000000001
 43
0.0000000001
 12
1.0
 22
0.0
 32
0.0
 13
1.0
 23
0.0
 33
0.0
 40
0.0
 40
0.0
 40
0.0
 40
0.0
 40
1.0
 40
1.0
 40
1.0
 40
2.0
 40
2.0
 40
2.0
 40
3.0
 40
3.0
 40
3.0
 40
4.0
 40
4.0
 40
4.0
 40
4.0
 10
115.4499728444014
 20
-121.5994682855724
 30
0.0
 10
115.2839192420124
 20
-121.5994682855724
 30
0.0
 10
115.1082193722646
 20
-121.6931748827712
 30
0.0
 10
115.1082193722646
 20
-121.9127997199558
 30
0.0
 10
115.1082193722646
 20
-122.1346638692059
 30
0.0
 10
115.2549804399363
 20
-122.2445624151854
 30
0.0
 10
115.4499728444014
 20
-122.2445624151854
 30
0.0
 10
115.664946802681
 20
-122.2445624151854
 30
0.0
 10
115.7924153356352
 20
-122.1119262390033
 30
0.0
 10
115.7924153356352
 20
-121.9196899109263
 30
0.0
 10
115.7924153356352
 20
-121.6793945008302
 30
0.0
 10
115.6043131221406
 20
-121.5994682855724
 30
0.0
 10
115.4499728444014
 20
-121.5994682855724
 30
0.0
  0
SPLINE
  5
154
330
14E
100
AcDbEntity
  8
_U+30EC_U+30A4_U+30E4_U+30FC 1
370
     0
100
AcDbSpline
210
0.0
220
0.0
230
1.0
 70
    11
 71
     3
 72
    17
 73
    13
 74
     0
 42
0.0000000001
 43
0.0000000001
 12
1.0
 22
0.0
 32
0.0
 13
1.0
 23
0.0
 33
0.0
 40
0.0
 40
0.0
 40
0.0
 40
0.0
 40
1.0
 40
1.0
 40
1.0
 40
2.0
 40
2.0
 40
2.0
 40
3.0
 40
3.0
 40
3.0
 40
4.0
 40
4.0
 40
4.0
 40
4.0
 10
115.4499728444014
 20
-120.8856445010286
 30
0.0
 10
115.2598035736156
 20
-120.8856445010286
 30
0.0
 10
115.1619628618345
 20
-120.9884806012633
 30
0.0
 10
115.1619628618345
 20
-121.1348971593864
 30
0.0
 10
115.1619628618345
 20
-121.2677055903428
 30
0.0
 10
115.2446451534805
 20
-121.3958631423941
 30
0.0
 10
115.4499728444014
 20
-121.3958631423941
 30
0.0
 10
115.6553005353223
 20
-121.3958631423941
 30
0.0
 10
115.7386718460653
 20
-121.2677055903428
 30
0.0
 10
115.7386718460653
 20
-121.1348971593864
 30
0.0
 10
115.7386718460653
 20
-120.9884806012633
 30
0.0
 10
115.638075057896
 20
-120.8856445010286
 30
0.0
 10
115.4499728444014
 20
-120.8856445010286
 30
0.0
  0
HATCH
  5
155
330
14E
100
AcDbEntity
  8
_U+30EC_U+30A4_U+30E4_U+30FC 1
 62
   179
420
  2234388
100
AcDbHatch
 10
0.0
 20
0.0
 30
0.0
210
0.0
220
0.0
230
1.0
  2
SOLID
 70
     1
 71
     0
 91
        3
 92
        1
 93
        1
 72
     4
 94
        3
 73
     0
 74
     1
 95
       29
 96
       25
 40
0.0
 40
0.0
 40
0.0
 40
0.0
 40
1.0
 40
1.0
 40
1.0
 40
2.0
 40
2.0
 40
2.0
 40
3.0
 40
3.0
 40
3.0
 40
4.0
 40
4.0
 40
4.0
 40
5.0
 40
5.0
 40
5.0
 40
6.0
 40
6.0
 40
6.0
 40
7.0
 40
7.0
 40
7.0
 40
8.0
 40
8.0
 40
8.0
 40
8.0
 10
115.4499728444014
 20
-122.4550577493342
 10
115.1419813080201
 20
-122.4550577493342
 10
114.8491481917738
 20
-122.3062296243714
 10
114.8491481917738
 20
-121.9288194139622
 10
114.8491481917738
 20
-121.6520059917224
 10
115.0124457177747
 20
-121.5489976367135
 10
115.1350911170496
 20
-121.4826795486224
 10
114.9903971066691
 20
-121.4186007725967
 10
114.9028916813437
 20
-121.2950940994505
 10
114.9028916813437
 20
-121.1212890322197
 10
114.9028916813437
 20
-120.8238050370684
 10
115.1323350406614
 20
-120.6773884789452
 10
115.4499728444014
 20
-120.6773884789452
 10
115.7779459345972
 20
-120.6773884789452
 10
115.9977430265561
 20
-120.8329345401043
 10
115.9977430265561
 20
-121.1212890322197
 10
115.9977430265561
 20
-121.2950940994505
 10
115.9074815248426
 20
-121.4186007725967
 10
115.7627875144621
 20
-121.4826795486224
 10
115.8654513599225
 20
-121.5376288216121
 10
116.0487304397378
 20
-121.6406371766211
 10
116.0487304397378
 20
-121.9243407898314
 10
116.0487304397378
 20
-122.3291395093483
 10
115.7262695023184
 20
-122.4550577493342
 10
115.4499728444014
 20
-122.4550577493342
 97
        0
 97
        0
 92
        1
 93
        1
 72
     4
 94
        3
 73
     0
 74
     1
 95
       17
 96
       13
 40
0.0
 40
0.0
 40
0.0
 40
0.0
 40
1.0
 40
1.0
 40
1.0
 40
2.0
 40
2.0
 40
2.0
 40
3.0
 40
3.0
 40
3.0
 40
4.0
 40
4.0
 40
4.0
 40
4.0
 10
115.4499728444014
 20
-121.5994682855724
 10
115.2839192420124
 20
-121.5994682855724
 10
115.1082193722646
 20
-121.6931748827712
 10
115.1082193722646
 20
-121.9127997199558
 10
115.1082193722646
 20
-122.1346638692059
 10
115.2549804399363
 20
-122.2445624151854
 10
115.4499728444014
 20
-122.2445624151854
 10
115.664946802681
 20
-122.2445624151854
 10
115.7924153356352
 20
-122.1119262390033
 10
115.7924153356352
 20
-121.9196899109263
 10
115.7924153356352
 20
-121.6793945008302
 10
115.6043131221406
 20
-121.5994682855724
 10
115.4499728444014
 20
-121.5994682855724
 97
        0
 97
        0
 92
        1
 93
        1
 72
     4
 94
        3
 73
     0
 74
     1
 95
       17
 96
       13
 40
0.0
 40
0.0
 40
0.0
 40
0.0
 40
1.0
 40
1.0
 40
1.0
 40
2.0
 40
2.0
 40
2.0
 40
3.0
 40
3.0
 40
3.0
 40
4.0
 40
4.0
 40
4.0
 40
4.0
 10
115.4499728444014
 20
-120.8856445010286
 10
115.2598035736156
 20
-120.8856445010286
 10
115.1619628618345
 20
-120.9884806012633
 10
115.1619628618345
 20
-121.1348971593864
 10
115.1619628618345
 20
-121.2677055903428
 10
115.2446451534805
 20
-121.3958631423941
 10
115.4499728444014
 20
-121.3958631423941
 10
115.6553005353223
 20
-121.3958631423941
 10
115.7386718460653
 20
-121.2677055903428
 10
115.7386718460653
 20
-121.1348971593864
 10
115.7386718460653
 20
-120.9884806012633
 10
115.638075057896
 20
-120.8856445010286
 10
115.4499728444014
 20
-120.8856445010286
 97
        0
 97
        0
 75
     2
 76
     1
 98
        0
  0
ENDBLK
  5
151
330
14E
100
AcDbEntity
  8
0
100
AcDbBlockEnd
  0
BLOCK
  5
160
330
15E
100
AcDbEntity
  8
0
100
AcDbBlockBegin
  2
block 9
 70
     0
 10
0.0
 20
0.0
 30
0.0
  3
block 9
  1

  0
SPLINE
  5
162
330
15E
100
AcDbEntity
  8
_U+30EC_U+30A4_U+30E4_U+30FC 1
370
     0
100
AcDbSpline
210
0.0
220
0.0
230
1.0
 70
    11
 71
     3
 72
    26
 73
    22
 74
     0
 42
0.0000000001
 43
0.0000000001
 12
1.0
 22
0.0
 32
0.0
 13
1.0
 23
0.0
 33
0.0
 40
0.0
 40
0.0
 40
0.0
 40
0.0
 40
1.0
 40
1.0
 40
1.0
 40
2.0
 40
2.0
 40
2.0
 40
3.0
 40
3.0
 40
3.0
 40
4.0
 40
4.0
 40
4.0
 40
5.0
 40
5.0
 40
5.0
 40
6.0
 40
6.0
 40
6.0
 40
7.0
 40
7.0
 40
7.0
 40
7.0
 10
121.6146267057075
 20
-122.4001084763444
 30
0.0
 10
121.6146267057075
 20
-122.4001084763444
 30
0.0
 10
121.6146267057075
 20
-121.2058661263826
 30
0.0
 10
121.6146267057075
 20
-121.2058661263826
 30
0.0
 10
121.6146267057075
 20
-121.2058661263826
 30
0.0
 10
121.2335991450388
 20
-121.2058661263826
 30
0.0
 10
121.2335991450388
 20
-121.2058661263826
 30
0.0
 10
121.2335991450388
 20
-121.2058661263826
 30
0.0
 10
121.2335991450388
 20
-121.0458414410927
 30
0.0
 10
121.2335991450388
 20
-121.0458414410927
 30
0.0
 10
121.6173827820957
 20
-121.0298217470863
 30
0.0
 10
121.6711262716656
 20
-120.8536051130158
 30
0.0
 10
121.704888207421
 20
-120.7300984398696
 30
0.0
 10
121.704888207421
 20
-120.7300984398696
 30
0.0
 10
121.8736978861982
 20
-120.7300984398696
 30
0.0
 10
121.8736978861982
 20
-120.7300984398696
 30
0.0
 10
121.8736978861982
 20
-120.7300984398696
 30
0.0
 10
121.8736978861982
 20
-122.4001084763444
 30
0.0
 10
121.8736978861982
 20
-122.4001084763444
 30
0.0
 10
121.8736978861982
 20
-122.4001084763444
 30
0.0
 10
121.6146267057075
 20
-122.4001084763444
 30
0.0
 10
121.6146267057075
 20
-122.4001084763444
 30
0.0
  0
HATCH
  5
163
330
15E
100
AcDbEntity
  8
_U+30EC_U+30A4_U+30E4_U+30FC 1
 62
   179
420
  2234388
100
AcDbHatch
 10
0.0
 20
0.0
 30
0.0
210
0.0
220
0.0
230
1.0
  2
SOLID
 70
     1
 71
     0
 91
        1
 92
        1
 93
        1
 72
     4
 94
        3
 73
     0
 74
     1
 95
       26
 96
       22
 40
0.0
 40
0.0
 40
0.0
 40
0.0
 40
1.0
 40
1.0
 40
1.0
 40
2.0
 40
2.0
 40
2.0
 40
3.0
 40
3.0
 40
3.0
 40
4.0
 40
4.0
 40
4.0
 40
5.0
 40
5.0
 40
5.0
 40
6.0
 40
6.0
 40
6.0
 40
7.0
 40
7.0
 40
7.0
 40
7.0
 10
121.6146267057075
 20
-122.4001084763444
 10
121.6146267057075
 20
-122.4001084763444
 10
121.6146267057075
 20
-121.2058661263826
 10
121.6146267057075
 20
-121.2058661263826
 10
121.6146267057075
 20
-121.2058661263826
 10
121.2335991450388
 20
-121.2058661263826
 10
121.2335991450388
 20
-121.2058661263826
 10
121.2335991450388
 20
-121.2058661263826
 10
121.2335991450388
 20
-121.0458414410927
 10
121.2335991450388
 20
-121.0458414410927
 10
121.6173827820957
 20
-121.0298217470863
 10
121.6711262716656
 20
-120.8536051130158
 10
121.704888207421
 20
-120.7300984398696
 10
121.704888207421
 20
-120.7300984398696
 10
121.8736978861982
 20
-120.7300984398696
 10
121.8736978861982
 20
-120.7300984398696
 10
121.8736978861982
 20
-120.7300984398696
 10
121.8736978861982
 20
-122.4001084763444
 10
121.8736978861982
 20
-122.4001084763444
 10
121.8736978861982
 20
-122.4001084763444
 10
121.6146267057075
 20
-122.4001084763444
 10
121.6146267057075
 20
-122.4001084763444
 97
        0
 97
        0
 75
     2
 76
     1
 98
        0
  0
SPLINE
  5
164
330
15E
100
AcDbEntity
  8
_U+30EC_U+30A4_U+30E4_U+30FC 1
370
     0
100
AcDbSpline
210
0.0
220
0.0
230
1.0
 70
    11
 71
     3
 72
    53
 73
    49
 74
     0
 42
0.0000000001
 43
0.0000000001
 12
1.0
 22
0.0
 32
0.0
 13
1.0
 23
0.0
 33
0.0
 40
0.0
 40
0.0
 40
0.0
 40
0.0
 40
1.0
 40
1.0
 40
1.0
 40
2.0
 40
2.0
 40
2.0
 40
3.0
 40
3.0
 40
3.0
 40
4.0
 40
4.0
 40
4.0
 40
5.0
 40
5.0
 40
5.0
 40
6.0
 40
6.0
 40
6.0
 40
7.0
 40
7.0
 40
7.0
 40
8.0
 40
8.0
 40
8.0
 40
9.0
 40
9.0
 40
9.0
 40
10.0
 40
10.0
 40
10.0
 40
11.0
 40
11.0
 40
11.0
 40
12.0
 40
12.0
 40
12.0
 40
13.0
 40
13.0
 40
13.0
 40
14.0
 40
14.0
 40
14.0
 40
15.0
 40
15.0
 40
15.0
 40
16.0
 40
16.0
 40
16.0
 40
16.0
 10
123.0071343008455
 20
-122.4550577493342
 30
0.0
 10
122.9168727991319
 20
-122.4550577493342
 30
0.0
 10
122.7997395526334
 20
-122.4366264884881
 30
0.0
 10
122.6826063061349
 20
-122.3680690883316
 30
0.0
 10
122.4821017488934
 20
-122.2490410393162
 30
0.0
 10
122.4572970613996
 20
-122.1072753600982
 30
0.0
 10
122.435248450294
 20
-121.9906588779225
 30
0.0
 10
122.435248450294
 20
-121.9906588779225
 30
0.0
 10
122.6922525734936
 20
-121.9906588779225
 30
0.0
 10
122.6922525734936
 20
-121.9906588779225
 30
0.0
 10
122.7556423304222
 20
-122.2056328362021
 30
0.0
 10
122.9024033980939
 20
-122.2376722242149
 30
0.0
 10
123.0098903772336
 20
-122.2376722242149
 30
0.0
 10
123.1711208459433
 20
-122.2376722242149
 30
0.0
 10
123.3468207156911
 20
-122.1301852450751
 30
0.0
 10
123.3468207156911
 20
-121.8785210198776
 30
0.0
 10
123.3468207156911
 20
-121.6017075976378
 30
0.0
 10
123.139425967479
 20
-121.5262600065108
 30
0.0
 10
123.0002441098749
 20
-121.5262600065108
 30
0.0
 10
122.9637260977313
 20
-121.5262600065108
 30
0.0
 10
122.7997395526334
 20
-121.5262600065108
 30
0.0
 10
122.697075707173
 20
-121.6657863736634
 30
0.0
 10
122.697075707173
 20
-121.6657863736634
 30
0.0
 10
122.4945040926403
 20
-121.6451158007519
 30
0.0
 10
122.4945040926403
 20
-121.6451158007519
 30
0.0
 10
122.4945040926403
 20
-121.6451158007519
 30
0.0
 10
122.6336859502444
 20
-120.7300984398696
 30
0.0
 10
122.6336859502444
 20
-120.7300984398696
 30
0.0
 10
122.6336859502444
 20
-120.7300984398696
 30
0.0
 10
123.5328558718946
 20
-120.7300984398696
 30
0.0
 10
123.5328558718946
 20
-120.7300984398696
 30
0.0
 10
123.5328558718946
 20
-120.7300984398696
 30
0.0
 10
123.5328558718946
 20
-120.9405937740183
 30
0.0
 10
123.5328558718946
 20
-120.9405937740183
 30
0.0
 10
123.5328558718946
 20
-120.9405937740183
 30
0.0
 10
122.821788163739
 20
-120.9405937740183
 30
0.0
 10
122.821788163739
 20
-120.9405937740183
 30
0.0
 10
122.821788163739
 20
-120.9405937740183
 30
0.0
 10
122.7459960630635
 20
-121.3981024544595
 30
0.0
 10
122.7459960630635
 20
-121.3981024544595
 30
0.0
 10
122.8169650300596
 20
-121.3614121875416
 30
0.0
 10
122.9120496654525
 20
-121.3180039844274
 30
0.0
 10
123.0491644657655
 20
-121.3180039844274
 30
0.0
 10
123.3419975820117
 20
-121.3180039844274
 30
0.0
 10
123.6162271826376
 20
-121.5193698155403
 30
0.0
 10
123.6162271826376
 20
-121.8578504469661
 30
0.0
 10
123.6162271826376
 20
-122.2011542120712
 30
0.0
 10
123.3571560021468
 20
-122.4550577493342
 30
0.0
 10
123.0071343008455
 20
-122.4550577493342
 30
0.0
  0
HATCH
  5
165
330
15E
100
AcDbEntity
  8
_U+30EC_U+30A4_U+30E4_U+30FC 1
 62
   179
420
  2234388
100
AcDbHatch
 10
0.0
 20
0.0
 30
0.0
210
0.0
220
0.0
230
1.0
  2
SOLID
 70
     1
 71
     0
 91
        1
 92
        1
 93
        1
 72
     4
 94
        3
 73
     0
 74
     1
 95
       53
 96
       49
 40
0.0
 40
0.0
 40
0.0
 40
0.0
 40
1.0
 40
1.0
 40
1.0
 40
2.0
 40
2.0
 40
2.0
 40
3.0
 40
3.0
 40
3.0
 40
4.0
 40
4.0
 40
4.0
 40
5.0
 40
5.0
 40
5.0
 40
6.0
 40
6.0
 40
6.0
 40
7.0
 40
7.0
 40
7.0
 40
8.0
 40
8.0
 40
8.0
 40
9.0
 40
9.0
 40
9.0
 40
10.0
 40
10.0
 40
10.0
 40
11.0
 40
11.0
 40
11.0
 40
12.0
 40
12.0
 40
12.0
 40
13.0
 40
13.0
 40
13.0
 40
14.0
 40
14.0
 40
14.0
 40
15.0
 40
15.0
 40
15.0
 40
16.0
 40
16.0
 40
16.0
 40
16.0
 10
123.0071343008455
 20
-122.4550577493342
 10
122.9168727991319
 20
-122.4550577493342
 10
122.7997395526334
 20
-122.4366264884881
 10
122.6826063061349
 20
-122.3680690883316
 10
122.4821017488934
 20
-122.2490410393162
 10
122.4572970613996
 20
-122.1072753600982
 10
122.435248450294
 20
-121.9906588779225
 10
122.435248450294
 20
-121.9906588779225
 10
122.6922525734936
 20
-121.9906588779225
 10
122.6922525734936
 20
-121.9906588779225
 10
122.7556423304222
 20
-122.2056328362021
 10
122.9024033980939
 20
-122.2376722242149
 10
123.0098903772336
 20
-122.2376722242149
 10
123.1711208459433
 20
-122.2376722242149
 10
123.3468207156911
 20
-122.1301852450751
 10
123.3468207156911
 20
-121.8785210198776
 10
123.3468207156911
 20
-121.6017075976378
 10
123.139425967479
 20
-121.5262600065108
 10
123.0002441098749
 20
-121.5262600065108
 10
122.9637260977313
 20
-121.5262600065108
 10
122.7997395526334
 20
-121.5262600065108
 10
122.697075707173
 20
-121.6657863736634
 10
122.697075707173
 20
-121.6657863736634
 10
122.4945040926403
 20
-121.6451158007519
 10
122.4945040926403
 20
-121.6451158007519
 10
122.4945040926403
 20
-121.6451158007519
 10
122.6336859502444
 20
-120.7300984398696
 10
122.6336859502444
 20
-120.7300984398696
 10
122.6336859502444
 20
-120.7300984398696
 10
123.5328558718946
 20
-120.7300984398696
 10
123.5328558718946
 20
-120.7300984398696
 10
123.5328558718946
 20
-120.7300984398696
 10
123.5328558718946
 20
-120.9405937740183
 10
123.5328558718946
 20
-120.9405937740183
 10
123.5328558718946
 20
-120.9405937740183
 10
122.821788163739
 20
-120.9405937740183
 10
122.821788163739
 20
-120.9405937740183
 10
122.821788163739
 20
-120.9405937740183
 10
122.7459960630635
 20
-121.3981024544595
 10
122.7459960630635
 20
-121.3981024544595
 10
122.8169650300596
 20
-121.3614121875416
 10
122.9120496654525
 20
-121.3180039844274
 10
123.0491644657655
 20
-121.3180039844274
 10
123.3419975820117
 20
-121.3180039844274
 10
123.6162271826376
 20
-121.5193698155403
 10
123.6162271826376
 20
-121.8578504469661
 10
123.6162271826376
 20
-122.2011542120712
 10
123.3571560021468
 20
-122.4550577493342
 10
123.0071343008455
 20
-122.4550577493342
 97
        0
 97
        0
 75
     2
 76
     1
 98
        0
  0
ENDBLK
  5
161
330
15E
100
AcDbEntity
  8
0
100
AcDbBlockEnd
  0
ENDSEC
  0
SECTION
  2
ENTITIES
  0
SPLINE
  5
41
330
1F
100
AcDbEntity
  8
_U+30EC_U+30A4_U+30E4_U+30FC 1
370
     0
100
AcDbSpline
210
0.0
220
0.0
230
1.0
 70
    11
 71
     3
 72
   104
 73
   100
 74
     0
 42
0.0000000001
 43
0.0000000001
 12
1.0
 22
0.0
 32
0.0
 13
1.0
 23
0.0
 33
0.0
 40
0.0
 40
0.0
 40
0.0
 40
0.0
 40
1.0
 40
1.0
 40
1.0
 40
2.0
 40
2.0
 40
2.0
 40
3.0
 40
3.0
 40
3.0
 40
4.0
 40
4.0
 40
4.0
 40
5.0
 40
5.0
 40
5.0
 40
6.0
 40
6.0
 40
6.0
 40
7.0
 40
7.0
 40
7.0
 40
8.0
 40
8.0
 40
8.0
 40
9.0
 40
9.0
 40
9.0
 40
10.0
 40
10.0
 40
10.0
 40
11.0
 40
11.0
 40
11.0
 40
12.0
 40
12.0
 40
12.0
 40
13.0
 40
13.0
 40
13.0
 40
14.0
 40
14.0
 40
14.0
 40
15.0
 40
15.0
 40
15.0
 40
16.0
 40
16.0
 40
16.0
 40
17.0
 40
17.0
 40
17.0
 40
18.0
 40
18.0
 40
18.0
 40
19.0
 40
19.0
 40
19.0
 40
20.0
 40
20.0
 40
20.0
 40
21.0
 40
21.0
 40
21.0
 40
22.0
 40
22.0
 40
22.0
 40
23.0
 40
23.0
 40
23.0
 40
24.0
 40
24.0
 40
24.0
 40
25.0
 40
25.0
 40
25.0
 40
26.0
 40
26.0
 40
26.0
 40
27.0
 40
27.0
 40
27.0
 40
28.0
 40
28.0
 40
28.0
 40
29.0
 40
29.0
 40
29.0
 40
30.0
 40
30.0
 40
30.0
 40
31.0
 40
31.0
 40
31.0
 40
32.0
 40
32.0
 40
32.0
 40
33.0
 40
33.0
 40
33.0
 40
33.0
 10
54.90911887692945
 20
-127.1322916348836
 30
0.0
 10
54.90911887692945
 20
-127.1322916348836
 30
0.0
 10
64.03724364405159
 20
-127.1322916348836
 30
0.0
 10
64.03724364405159
 20
-127.1322916348836
 30
0.0
 10
64.03724364405159
 20
-127.1322916348836
 30
0.0
 10
64.87509084489855
 20
-127.3968749681508
 30
0.0
 10
64.78689640270413
 20
-127.9260416346852
 30
0.0
 10
64.78689640270413
 20
-127.9260416346852
 30
0.0
 10
64.69870196050971
 20
-132.8649305223393
 30
0.0
 10
64.69870196050971
 20
-132.8649305223393
 30
0.0
 10
64.69870196050971
 20
-132.8649305223393
 30
0.0
 10
65.05147972928738
 20
-133.1736110778177
 30
0.0
 10
65.05147972928738
 20
-133.1736110778177
 30
0.0
 10
65.05147972928738
 20
-133.1736110778177
 30
0.0
 10
86.43863196143344
 20
-133.1295138556065
 30
0.0
 10
86.43863196143344
 20
-133.1295138556065
 30
0.0
 10
86.43863196143344
 20
-133.1295138556065
 30
0.0
 10
117.4832520027525
 20
-133.1295138556065
 30
0.0
 10
117.4832520027525
 20
-133.1295138556065
 30
0.0
 10
117.4832520027525
 20
-133.1295138556065
 30
0.0
 10
117.8801269926274
 20
-132.9090277445505
 30
0.0
 10
117.8801269926274
 20
-132.9090277445505
 30
0.0
 10
117.8801269926274
 20
-132.9090277445505
 30
0.0
 10
117.8801269926274
 20
-128.3229166345859
 30
0.0
 10
117.8801269926274
 20
-128.3229166345859
 30
0.0
 10
117.8801269926274
 20
-128.3229166345859
 30
0.0
 10
117.7037381082386
 20
-128.10243052353
 30
0.0
 10
117.7037381082386
 20
-128.10243052353
 30
0.0
 10
117.7037381082386
 20
-128.10243052353
 30
0.0
 10
114.5728354103368
 20
-128.10243052353
 30
0.0
 10
114.5728354103368
 20
-128.10243052353
 30
0.0
 10
114.5728354103368
 20
-128.10243052353
 30
0.0
 10
114.0436687571703
 20
-128.1465277457411
 30
0.0
 10
113.779085430587
 20
-127.440972190362
 30
0.0
 10
113.779085430587
 20
-127.440972190362
 30
0.0
 10
113.8231826516842
 20
-126.559027746138
 30
0.0
 10
114.5287381892396
 20
-126.6031249683492
 30
0.0
 10
114.5287381892396
 20
-126.6031249683492
 30
0.0
 10
118.5856825301828
 20
-126.6472221905604
 30
0.0
 10
118.5856825301828
 20
-126.6472221905604
 30
0.0
 10
118.5856825301828
 20
-126.6472221905604
 30
0.0
 10
119.8645019420018
 20
-125.3243055242245
 30
0.0
 10
119.8645019420018
 20
-125.3243055242245
 30
0.0
 10
119.8645019420018
 20
-125.3243055242245
 30
0.0
 10
126.038112895611
 20
-125.3243055242245
 30
0.0
 10
126.038112895611
 20
-125.3243055242245
 30
0.0
 10
126.038112895611
 20
-125.3243055242245
 30
0.0
 10
127.5815156340133
 20
-126.8236110794052
 30
0.0
 10
127.5815156340133
 20
-126.8236110794052
 30
0.0
 10
127.5815156340133
 20
-126.8236110794052
 30
0.0
 10
127.6256128551105
 20
-127.2645833015172
 30
0.0
 10
127.2728350863328
 20
-127.1322916348836
 30
0.0
 10
127.2728350863328
 20
-127.1322916348836
 30
0.0
 10
125.9499184534165
 20
-125.7211805241253
 30
0.0
 10
125.9499184534165
 20
-125.7211805241253
 30
0.0
 10
125.9499184534165
 20
-125.7211805241253
 30
0.0
 10
120.0408908263906
 20
-125.8093749685477
 30
0.0
 10
120.0408908263906
 20
-125.8093749685477
 30
0.0
 10
120.0408908263906
 20
-125.8093749685477
 30
0.0
 10
118.850265856766
 20
-126.99999996825
 30
0.0
 10
118.850265856766
 20
-126.99999996825
 30
0.0
 10
118.850265856766
 20
-126.99999996825
 30
0.0
 10
114.4405437470452
 20
-126.99999996825
 30
0.0
 10
114.4405437470452
 20
-126.99999996825
 30
0.0
 10
114.4405437470452
 20
-126.99999996825
 30
0.0
 10
113.9113770938787
 20
-127.5291666347844
 30
0.0
 10
114.5287381892396
 20
-127.7055555236292
 30
0.0
 10
114.5287381892396
 20
-127.7055555236292
 30
0.0
 10
117.5273492238497
 20
-127.7055555236292
 30
0.0
 10
117.5273492238497
 20
-127.7055555236292
 30
0.0
 10
117.5273492238497
 20
-127.7055555236292
 30
0.0
 10
118.2770019825023
 20
-127.7055555236292
 30
0.0
 10
118.3210992035995
 20
-128.2788194123748
 30
0.0
 10
118.3210992035995
 20
-128.2788194123748
 30
0.0
 10
118.3210992035995
 20
-132.9090277445505
 30
0.0
 10
118.3210992035995
 20
-132.9090277445505
 30
0.0
 10
118.3210992035995
 20
-132.9090277445505
 30
0.0
 10
118.1888075403079
 20
-133.4381944110849
 30
0.0
 10
117.6155436660442
 20
-133.6145832999297
 30
0.0
 10
117.6155436660442
 20
-133.6145832999297
 30
0.0
 10
83.96918757998978
 20
-133.6145832999297
 30
0.0
 10
83.96918757998978
 20
-133.6145832999297
 30
0.0
 10
83.96918757998978
 20
-133.6145832999297
 30
0.0
 10
64.96328528709296
 20
-133.6145832999297
 30
0.0
 10
64.96328528709296
 20
-133.6145832999297
 30
0.0
 10
64.96328528709296
 20
-133.6145832999297
 30
0.0
 10
64.25772974953763
 20
-133.3940971888737
 30
0.0
 10
64.25772974953763
 20
-132.5562499668609
 30
0.0
 10
64.25772974953763
 20
-132.5562499668609
 30
0.0
 10
64.25772974953763
 20
-127.881944412474
 30
0.0
 10
64.25772974953763
 20
-127.881944412474
 30
0.0
 10
64.25772974953763
 20
-127.881944412474
 30
0.0
 10
64.34592419173204
 20
-127.6173610792068
 30
0.0
 10
63.86085475966275
 20
-127.5291666347844
 30
0.0
 10
63.86085475966275
 20
-127.5291666347844
 30
0.0
 10
54.86502165583224
 20
-127.6173610792068
 30
0.0
 10
54.86502165583224
 20
-127.6173610792068
 30
0.0
 10
54.86502165583224
 20
-127.6173610792068
 30
0.0
 10
54.55634110815178
 20
-127.220486079306
 30
0.0
 10
54.90911887692945
 20
-127.1322916348836
 30
0.0
  0
HATCH
  5
42
330
1F
100
AcDbEntity
  8
_U+30EC_U+30A4_U+30E4_U+30FC 1
 62
   253
420
 10066329
100
AcDbHatch
 10
0.0
 20
0.0
 30
0.0
210
0.0
220
0.0
230
1.0
  2
SOLID
 70
     1
 71
     0
 91
        1
 92
        1
 93
        1
 72
     4
 94
        3
 73
     0
 74
     1
 95
      104
 96
      100
 40
0.0
 40
0.0
 40
0.0
 40
0.0
 40
1.0
 40
1.0
 40
1.0
 40
2.0
 40
2.0
 40
2.0
 40
3.0
 40
3.0
 40
3.0
 40
4.0
 40
4.0
 40
4.0
 40
5.0
 40
5.0
 40
5.0
 40
6.0
 40
6.0
 40
6.0
 40
7.0
 40
7.0
 40
7.0
 40
8.0
 40
8.0
 40
8.0
 40
9.0
 40
9.0
 40
9.0
 40
10.0
 40
10.0
 40
10.0
 40
11.0
 40
11.0
 40
11.0
 40
12.0
 40
12.0
 40
12.0
 40
13.0
 40
13.0
 40
13.0
 40
14.0
 40
14.0
 40
14.0
 40
15.0
 40
15.0
 40
15.0
 40
16.0
 40
16.0
 40
16.0
 40
17.0
 40
17.0
 40
17.0
 40
18.0
 40
18.0
 40
18.0
 40
19.0
 40
19.0
 40
19.0
 40
20.0
 40
20.0
 40
20.0
 40
21.0
 40
21.0
 40
21.0
 40
22.0
 40
22.0
 40
22.0
 40
23.0
 40
23.0
 40
23.0
 40
24.0
 40
24.0
 40
24.0
 40
25.0
 40
25.0
 40
25.0
 40
26.0
 40
26.0
 40
26.0
 40
27.0
 40
27.0
 40
27.0
 40
28.0
 40
28.0
 40
28.0
 40
29.0
 40
29.0
 40
29.0
 40
30.0
 40
30.0
 40
30.0
 40
31.0
 40
31.0
 40
31.0
 40
32.0
 40
32.0
 40
32.0
 40
33.0
 40
33.0
 40
33.0
 40
33.0
 10
54.90911887692945
 20
-127.1322916348836
 10
54.90911887692945
 20
-127.1322916348836
 10
64.03724364405159
 20
-127.1322916348836
 10
64.03724364405159
 20
-127.1322916348836
 10
64.03724364405159
 20
-127.1322916348836
 10
64.87509084489855
 20
-127.3968749681508
 10
64.78689640270413
 20
-127.9260416346852
 10
64.78689640270413
 20
-127.9260416346852
 10
64.69870196050971
 20
-132.8649305223393
 10
64.69870196050971
 20
-132.8649305223393
 10
64.69870196050971
 20
-132.8649305223393
 10
65.05147972928738
 20
-133.1736110778177
 10
65.05147972928738
 20
-133.1736110778177
 10
65.05147972928738
 20
-133.1736110778177
 10
86.43863196143344
 20
-133.1295138556065
 10
86.43863196143344
 20
-133.1295138556065
 10
86.43863196143344
 20
-133.1295138556065
 10
117.4832520027525
 20
-133.1295138556065
 10
117.4832520027525
 20
-133.1295138556065
 10
117.4832520027525
 20
-133.1295138556065
 10
117.8801269926274
 20
-132.9090277445505
 10
117.8801269926274
 20
-132.9090277445505
 10
117.8801269926274
 20
-132.9090277445505
 10
117.8801269926274
 20
-128.3229166345859
 10
117.8801269926274
 20
-128.3229166345859
 10
117.8801269926274
 20
-128.3229166345859
 10
117.7037381082386
 20
-128.10243052353
 10
117.7037381082386
 20
-128.10243052353
 10
117.7037381082386
 20
-128.10243052353
 10
114.5728354103368
 20
-128.10243052353
 10
114.5728354103368
 20
-128.10243052353
 10
114.5728354103368
 20
-128.10243052353
 10
114.0436687571703
 20
-128.1465277457411
 10
113.779085430587
 20
-127.440972190362
 10
113.779085430587
 20
-127.440972190362
 10
113.8231826516842
 20
-126.559027746138
 10
114.5287381892396
 20
-126.6031249683492
 10
114.5287381892396
 20
-126.6031249683492
 10
118.5856825301828
 20
-126.6472221905604
 10
118.5856825301828
 20
-126.6472221905604
 10
118.5856825301828
 20
-126.6472221905604
 10
119.8645019420018
 20
-125.3243055242245
 10
119.8645019420018
 20
-125.3243055242245
 10
119.8645019420018
 20
-125.3243055242245
 10
126.038112895611
 20
-125.3243055242245
 10
126.038112895611
 20
-125.3243055242245
 10
126.038112895611
 20
-125.3243055242245
 10
127.5815156340133
 20
-126.8236110794052
 10
127.5815156340133
 20
-126.8236110794052
 10
127.5815156340133
 20
-126.8236110794052
 10
127.6256128551105
 20
-127.2645833015172
 10
127.2728350863328
 20
-127.1322916348836
 10
127.2728350863328
 20
-127.1322916348836
 10
125.9499184534165
 20
-125.7211805241253
 10
125.9499184534165
 20
-125.7211805241253
 10
125.9499184534165
 20
-125.7211805241253
 10
120.0408908263906
 20
-125.8093749685477
 10
120.0408908263906
 20
-125.8093749685477
 10
120.0408908263906
 20
-125.8093749685477
 10
118.850265856766
 20
-126.99999996825
 10
118.850265856766
 20
-126.99999996825
 10
118.850265856766
 20
-126.99999996825
 10
114.4405437470452
 20
-126.99999996825
 10
114.4405437470452
 20
-126.99999996825
 10
114.4405437470452
 20
-126.99999996825
 10
113.9113770938787
 20
-127.5291666347844
 10
114.5287381892396
 20
-127.7055555236292
 10
114.5287381892396
 20
-127.7055555236292
 10
117.5273492238497
 20
-127.7055555236292
 10
117.5273492238497
 20
-127.7055555236292
 10
117.5273492238497
 20
-127.7055555236292
 10
118.2770019825023
 20
-127.7055555236292
 10
118.3210992035995
 20
-128.2788194123748
 10
118.3210992035995
 20
-128.2788194123748
 10
118.3210992035995
 20
-132.9090277445505
 10
118.3210992035995
 20
-132.9090277445505
 10
118.3210992035995
 20
-132.9090277445505
 10
118.1888075403079
 20
-133.4381944110849
 10
117.6155436660442
 20
-133.6145832999297
 10
117.6155436660442
 20
-133.6145832999297
 10
83.96918757998978
 20
-133.6145832999297
 10
83.96918757998978
 20
-133.6145832999297
 10
83.96918757998978
 20
-133.6145832999297
 10
64.96328528709296
 20
-133.6145832999297
 10
64.96328528709296
 20
-133.6145832999297
 10
64.96328528709296
 20
-133.6145832999297
 10
64.25772974953763
 20
-133.3940971888737
 10
64.25772974953763
 20
-132.5562499668609
 10
64.25772974953763
 20
-132.5562499668609
 10
64.25772974953763
 20
-127.881944412474
 10
64.25772974953763
 20
-127.881944412474
 10
64.25772974953763
 20
-127.881944412474
 10
64.34592419173204
 20
-127.6173610792068
 10
63.86085475966275
 20
-127.5291666347844
 10
63.86085475966275
 20
-127.5291666347844
 10
54.86502165583224
 20
-127.6173610792068
 10
54.86502165583224
 20
-127.6173610792068
 10
54.86502165583224
 20
-127.6173610792068
 10
54.55634110815178
 20
-127.220486079306
 10
54.90911887692945
 20
-127.1322916348836
 97
        0
 97
        0
 75
     2
 76
     1
 98
        0
  0
POLYLINE
  5
43
330
1F
100
AcDbEntity
  8
_U+30EC_U+30A4_U+30E4_U+30FC 1
 62
   179
420
  2234388
370
    25
100
AcDb2dPolyline
 66
     1
 10
0.0
 20
0.0
 30
0.0
  0
VERTEX
  5
44
330
43
100
AcDbEntity
  8
_U+30EC_U+30A4_U+30E4_U+30FC 1
 62
   179
420
  2234388
370
    25
100
AcDbVertex
100
AcDb2dVertex
 10
65.0347933408242
 20
-133.5718619110514
 30
0.0
  0
VERTEX
  5
45
330
43
100
AcDbEntity
  8
_U+30EC_U+30A4_U+30E4_U+30FC 1
 62
   179
420
  2234388
370
    25
100
AcDbVertex
100
AcDb2dVertex
 10
117.5948708887938
 20
-133.5718619110514
 30
0.0
  0
SEQEND
  5
46
330
43
100
AcDbEntity
  8
_U+30EC_U+30A4_U+30E4_U+30FC 1
 62
   179
420
  2234388
370
    25
  0
POLYLINE
  5
47
330
1F
100
AcDbEntity
  8
_U+30EC_U+30A4_U+30E4_U+30FC 1
 62
   179
420
  2234388
370
    25
100
AcDb2dPolyline
 66
     1
 10
0.0
 20
0.0
 30
0.0
  0
VERTEX
  5
48
330
47
100
AcDbEntity
  8
_U+30EC_U+30A4_U+30E4_U+30FC 1
 62
   179
420
  2234388
370
    25
100
AcDbVertex
100
AcDb2dVertex
 10
118.3149255926459
 20
-128.4154149678962
 30
0.0
  0
VERTEX
  5
49
330
47
100
AcDbEntity
  8
_U+30EC_U+30A4_U+30E4_U+30FC 1
 62
   179
420
  2234388
370
    25
100
AcDbVertex
100
AcDb2dVertex
 10
118.3149255926459
 20
-132.8518424667872
 30
0.0
  0
SEQEND
  5
4A
330
47
100
AcDbEntity
  8
_U+30EC_U+30A4_U+30E4_U+30FC 1
 62
   179
420
  2234388
370
    25
  0
POLYLINE
  5
4B
330
1F
100
AcDbEntity
  8
_U+30EC_U+30A4_U+30E4_U+30FC 1
 62
   179
420
  2234388
370
    25
100
AcDb2dPolyline
 66
     1
 10
0.0
 20
0.0
 30
0.0
  0
VERTEX
  5
4C
330
4B
100
AcDbEntity
  8
_U+30EC_U+30A4_U+30E4_U+30FC 1
 62
   179
420
  2234388
370
    25
100
AcDbVertex
100
AcDb2dVertex
 10
64.31459752586458
 20
-127.8717844124765
 30
0.0
  0
VERTEX
  5
4D
330
4B
100
AcDbEntity
  8
_U+30EC_U+30A4_U+30E4_U+30FC 1
 62
   179
420
  2234388
370
    25
100
AcDbVertex
100
AcDb2dVertex
 10
64.31459752586458
 20
-132.8518424667872
 30
0.0
  0
SEQEND
  5
4E
330
4B
100
AcDbEntity
  8
_U+30EC_U+30A4_U+30E4_U+30FC 1
 62
   179
420
  2234388
370
    25
  0
POLYLINE
  5
4F
330
1F
100
AcDbEntity
  8
_U+30EC_U+30A4_U+30E4_U+30FC 1
 62
   179
420
  2234388
370
    25
100
AcDb2dPolyline
 66
     1
 10
0.0
 20
0.0
 30
0.0
  0
VERTEX
  5
50
330
4F
100
AcDbEntity
  8
_U+30EC_U+30A4_U+30E4_U+30FC 1
 62
   179
420
  2234388
370
    25
100
AcDbVertex
100
AcDb2dVertex
 10
65.0347933408242
 20
-133.1515624667121
 30
0.0
  0
VERTEX
  5
51
330
4F
100
AcDbEntity
  8
_U+30EC_U+30A4_U+30E4_U+30FC 1
 62
   179
420
  2234388
370
    25
100
AcDbVertex
100
AcDb2dVertex
 10
117.5948708887938
 20
-133.1515624667121
 30
0.0
  0
SEQEND
  5
52
330
4F
100
AcDbEntity
  8
_U+30EC_U+30A4_U+30E4_U+30FC 1
 62
   179
420
  2234388
370
    25
  0
POLYLINE
  5
53
330
1F
100
AcDbEntity
  8
_U+30EC_U+30A4_U+30E4_U+30FC 1
 62
   179
420
  2234388
370
    25
100
AcDb2dPolyline
 66
     1
 10
0.0
 20
0.0
 30
0.0
  0
VERTEX
  5
54
330
53
100
AcDbEntity
  8
_U+30EC_U+30A4_U+30E4_U+30FC 1
 62
   179
420
  2234388
370
    25
100
AcDbVertex
100
AcDb2dVertex
 10
64.73472220603854
 20
-127.8717844124765
 30
0.0
  0
VERTEX
  5
55
330
53
100
AcDbEntity
  8
_U+30EC_U+30A4_U+30E4_U+30FC 1
 62
   179
420
  2234388
370
    25
100
AcDbVertex
100
AcDb2dVertex
 10
64.73472220603854
 20
-132.8518424667872
 30
0.0
  0
SEQEND
  5
56
330
53
100
AcDbEntity
  8
_U+30EC_U+30A4_U+30E4_U+30FC 1
 62
   179
420
  2234388
370
    25
  0
POLYLINE
  5
57
330
1F
100
AcDbEntity
  8
_U+30EC_U+30A4_U+30E4_U+30FC 1
 62
   179
420
  2234388
370
    25
100
AcDb2dPolyline
 66
     1
 10
0.0
 20
0.0
 30
0.0
  0
VERTEX
  5
58
330
57
100
AcDbEntity
  8
_U+30EC_U+30A4_U+30E4_U+30FC 1
 62
   179
420
  2234388
370
    25
100
AcDbVertex
100
AcDb2dVertex
 10
117.8946261589242
 20
-128.4154149678962
 30
0.0
  0
VERTEX
  5
59
330
57
100
AcDbEntity
  8
_U+30EC_U+30A4_U+30E4_U+30FC 1
 62
   179
420
  2234388
370
    25
100
AcDbVertex
100
AcDb2dVertex
 10
117.8946261589242
 20
-132.8518424667872
 30
0.0
  0
SEQEND
  5
5A
330
57
100
AcDbEntity
  8
_U+30EC_U+30A4_U+30E4_U+30FC 1
 62
   179
420
  2234388
370
    25
  0
POLYLINE
  5
5B
330
1F
100
AcDbEntity
  8
_U+30EC_U+30A4_U+30E4_U+30FC 1
 62
   179
420
  2234388
370
    25
100
AcDb2dPolyline
 66
     1
 10
0.0
 20
0.0
 30
0.0
  0
VERTEX
  5
5C
330
5B
100
AcDbEntity
  8
_U+30EC_U+30A4_U+30E4_U+30FC 1
 62
   179
420
  2234388
370
    25
100
AcDbVertex
100
AcDb2dVertex
 10
54.92464109875566
 20
-127.5717116347738
 30
0.0
  0
VERTEX
  5
5D
330
5B
100
AcDbEntity
  8
_U+30EC_U+30A4_U+30E4_U+30FC 1
 62
   179
420
  2234388
370
    25
100
AcDbVertex
100
AcDb2dVertex
 10
64.01470276177405
 20
-127.5717116347738
 30
0.0
  0
SEQEND
  5
5E
330
5B
100
AcDbEntity
  8
_U+30EC_U+30A4_U+30E4_U+30FC 1
 62
   179
420
  2234388
370
    25
  0
POLYLINE
  5
5F
330
1F
100
AcDbEntity
  8
_U+30EC_U+30A4_U+30E4_U+30FC 1
 62
   179
420
  2234388
370
    25
100
AcDb2dPolyline
 66
     1
 10
0.0
 20
0.0
 30
0.0
  0
VERTEX
  5
60
330
5F
100
AcDbEntity
  8
_U+30EC_U+30A4_U+30E4_U+30FC 1
 62
   179
420
  2234388
370
    25
100
AcDbVertex
100
AcDb2dVertex
 10
54.92464109875566
 20
-127.151764968212
 30
0.0
  0
VERTEX
  5
61
330
5F
100
AcDbEntity
  8
_U+30EC_U+30A4_U+30E4_U+30FC 1
 62
   179
420
  2234388
370
    25
100
AcDbVertex
100
AcDb2dVertex
 10
64.01470276177405
 20
-127.151764968212
 30
0.0
  0
SEQEND
  5
62
330
5F
100
AcDbEntity
  8
_U+30EC_U+30A4_U+30E4_U+30FC 1
 62
   179
420
  2234388
370
    25
  0
POLYLINE
  5
63
330
1F
100
AcDbEntity
  8
_U+30EC_U+30A4_U+30E4_U+30FC 1
 62
   179
420
  2234388
370
    25
100
AcDb2dPolyline
 66
     1
 10
0.0
 20
0.0
 30
0.0
  0
VERTEX
  5
64
330
63
100
AcDbEntity
  8
_U+30EC_U+30A4_U+30E4_U+30FC 1
 62
   179
420
  2234388
370
    25
100
AcDbVertex
100
AcDb2dVertex
 10
119.8714194144765
 20
-125.3516810797731
 30
0.0
  0
VERTEX
  5
65
330
63
100
AcDbEntity
  8
_U+30EC_U+30A4_U+30E4_U+30FC 1
 62
   179
420
  2234388
370
    25
100
AcDbVertex
100
AcDb2dVertex
 10
126.1118434492855
 20
-125.3516810797731
 30
0.0
  0
SEQEND
  5
66
330
63
100
AcDbEntity
  8
_U+30EC_U+30A4_U+30E4_U+30FC 1
 62
   179
420
  2234388
370
    25
  0
POLYLINE
  5
67
330
1F
100
AcDbEntity
  8
_U+30EC_U+30A4_U+30E4_U+30FC 1
 62
   179
420
  2234388
370
    25
100
AcDb2dPolyline
 66
     1
 10
0.0
 20
0.0
 30
0.0
  0
VERTEX
  5
68
330
67
100
AcDbEntity
  8
_U+30EC_U+30A4_U+30E4_U+30FC 1
 62
   179
420
  2234388
370
    25
100
AcDbVertex
100
AcDb2dVertex
 10
114.5683551326733
 20
-128.1153421901935
 30
0.0
  0
VERTEX
  5
69
330
67
100
AcDbEntity
  8
_U+30EC_U+30A4_U+30E4_U+30FC 1
 62
   179
420
  2234388
370
    25
100
AcDbVertex
100
AcDb2dVertex
 10
117.5948708887938
 20
-128.1153421901935
 30
0.0
  0
SEQEND
  5
6A
330
67
100
AcDbEntity
  8
_U+30EC_U+30A4_U+30E4_U+30FC 1
 62
   179
420
  2234388
370
    25
  0
POLYLINE
  5
6B
330
1F
100
AcDbEntity
  8
_U+30EC_U+30A4_U+30E4_U+30FC 1
 62
   179
420
  2234388
370
    25
100
AcDb2dPolyline
 66
     1
 10
0.0
 20
0.0
 30
0.0
  0
VERTEX
  5
6C
330
6B
100
AcDbEntity
  8
_U+30EC_U+30A4_U+30E4_U+30FC 1
 62
   179
420
  2234388
370
    25
100
AcDbVertex
100
AcDb2dVertex
 10
114.5683551326733
 20
-126.6082755239036
 30
0.0
  0
VERTEX
  5
6D
330
6B
100
AcDbEntity
  8
_U+30EC_U+30A4_U+30E4_U+30FC 1
 62
   179
420
  2234388
370
    25
100
AcDbVertex
100
AcDb2dVertex
 10
118.6146455849994
 20
-126.6082755239036
 30
0.0
  0
SEQEND
  5
6E
330
6B
100
AcDbEntity
  8
_U+30EC_U+30A4_U+30E4_U+30FC 1
 62
   179
420
  2234388
370
    25
  0
POLYLINE
  5
6F
330
1F
100
AcDbEntity
  8
_U+30EC_U+30A4_U+30E4_U+30FC 1
 62
   179
420
  2234388
370
    25
100
AcDb2dPolyline
 66
     1
 10
0.0
 20
0.0
 30
0.0
  0
VERTEX
  5
70
330
6F
100
AcDbEntity
  8
_U+30EC_U+30A4_U+30E4_U+30FC 1
 62
   179
420
  2234388
370
    25
100
AcDbVertex
100
AcDb2dVertex
 10
114.5683551326733
 20
-127.028257468243
 30
0.0
  0
VERTEX
  5
71
330
6F
100
AcDbEntity
  8
_U+30EC_U+30A4_U+30E4_U+30FC 1
 62
   179
420
  2234388
370
    25
100
AcDbVertex
100
AcDb2dVertex
 10
118.7889530805524
 20
-127.028257468243
 30
0.0
  0
SEQEND
  5
72
330
6F
100
AcDbEntity
  8
_U+30EC_U+30A4_U+30E4_U+30FC 1
 62
   179
420
  2234388
370
    25
  0
POLYLINE
  5
73
330
1F
100
AcDbEntity
  8
_U+30EC_U+30A4_U+30E4_U+30FC 1
 62
   179
420
  2234388
370
    25
100
AcDb2dPolyline
 66
     1
 10
0.0
 20
0.0
 30
0.0
  0
VERTEX
  5
74
330
73
100
AcDbEntity
  8
_U+30EC_U+30A4_U+30E4_U+30FC 1
 62
   179
420
  2234388
370
    25
100
AcDbVertex
100
AcDb2dVertex
 10
114.5683551326733
 20
-127.6953955236317
 30
0.0
  0
VERTEX
  5
75
330
73
100
AcDbEntity
  8
_U+30EC_U+30A4_U+30E4_U+30FC 1
 62
   179
420
  2234388
370
    25
100
AcDbVertex
100
AcDb2dVertex
 10
117.5948708887938
 20
-127.6953955236317
 30
0.0
  0
SEQEND
  5
76
330
73
100
AcDbEntity
  8
_U+30EC_U+30A4_U+30E4_U+30FC 1
 62
   179
420
  2234388
370
    25
  0
POLYLINE
  5
77
330
1F
100
AcDbEntity
  8
_U+30EC_U+30A4_U+30E4_U+30FC 1
 62
   179
420
  2234388
370
    25
100
AcDb2dPolyline
 66
     1
 10
0.0
 20
0.0
 30
0.0
  0
VERTEX
  5
78
330
77
100
AcDbEntity
  8
_U+30EC_U+30A4_U+30E4_U+30FC 1
 62
   179
420
  2234388
370
    25
100
AcDbVertex
100
AcDb2dVertex
 10
118.6146455849994
 20
-126.6082755239036
 30
0.0
  0
VERTEX
  5
79
330
77
100
AcDbEntity
  8
_U+30EC_U+30A4_U+30E4_U+30FC 1
 62
   179
420
  2234388
370
    25
100
AcDbVertex
100
AcDb2dVertex
 10
119.8714194144765
 20
-125.3516810797731
 30
0.0
  0
SEQEND
  5
7A
330
77
100
AcDbEntity
  8
_U+30EC_U+30A4_U+30E4_U+30FC 1
 62
   179
420
  2234388
370
    25
  0
POLYLINE
  5
7B
330
1F
100
AcDbEntity
  8
_U+30EC_U+30A4_U+30E4_U+30FC 1
 62
   179
420
  2234388
370
    25
100
AcDb2dPolyline
 66
     1
 10
0.0
 20
0.0
 30
0.0
  0
VERTEX
  5
7C
330
7B
100
AcDbEntity
  8
_U+30EC_U+30A4_U+30E4_U+30FC 1
 62
   179
420
  2234388
370
    25
100
AcDbVertex
100
AcDb2dVertex
 10
118.7889530805524
 20
-127.028257468243
 30
0.0
  0
VERTEX
  5
7D
330
7B
100
AcDbEntity
  8
_U+30EC_U+30A4_U+30E4_U+30FC 1
 62
   179
420
  2234388
370
    25
100
AcDbVertex
100
AcDb2dVertex
 10
120.0450536040622
 20
-125.7718394130016
 30
0.0
  0
SEQEND
  5
7E
330
7B
100
AcDbEntity
  8
_U+30EC_U+30A4_U+30E4_U+30FC 1
 62
   179
420
  2234388
370
    25
  0
POLYLINE
  5
7F
330
1F
100
AcDbEntity
  8
_U+30EC_U+30A4_U+30E4_U+30FC 1
 62
   179
420
  2234388
370
    25
100
AcDb2dPolyline
 66
     1
 10
0.0
 20
0.0
 30
0.0
  0
VERTEX
  5
80
330
7F
100
AcDbEntity
  8
_U+30EC_U+30A4_U+30E4_U+30FC 1
 62
   179
420
  2234388
370
    25
100
AcDbVertex
100
AcDb2dVertex
 10
120.0450536040622
 20
-125.7718394130016
 30
0.0
  0
VERTEX
  5
81
330
7F
100
AcDbEntity
  8
_U+30EC_U+30A4_U+30E4_U+30FC 1
 62
   179
420
  2234388
370
    25
100
AcDbVertex
100
AcDb2dVertex
 10
125.9375359537324
 20
-125.7718394130016
 30
0.0
  0
SEQEND
  5
82
330
7F
100
AcDbEntity
  8
_U+30EC_U+30A4_U+30E4_U+30FC 1
 62
   179
420
  2234388
370
    25
  0
POLYLINE
  5
83
330
1F
100
AcDbEntity
  8
_U+30EC_U+30A4_U+30E4_U+30FC 1
 62
   179
420
  2234388
370
    25
100
AcDb2dPolyline
 66
     1
 10
0.0
 20
0.0
 30
0.0
  0
VERTEX
  5
84
330
83
100
AcDbEntity
  8
_U+30EC_U+30A4_U+30E4_U+30FC 1
 62
   179
420
  2234388
370
    25
100
AcDbVertex
100
AcDb2dVertex
 10
125.9375359537324
 20
-125.7718394130016
 30
0.0
  0
VERTEX
  5
85
330
83
100
AcDbEntity
  8
_U+30EC_U+30A4_U+30E4_U+30FC 1
 62
   179
420
  2234388
370
    25
100
AcDbVertex
100
AcDb2dVertex
 10
127.256325086754
 20
-127.0902758015608
 30
0.0
  0
SEQEND
  5
86
330
83
100
AcDbEntity
  8
_U+30EC_U+30A4_U+30E4_U+30FC 1
 62
   179
420
  2234388
370
    25
  0
POLYLINE
  5
87
330
1F
100
AcDbEntity
  8
_U+30EC_U+30A4_U+30E4_U+30FC 1
 62
   179
420
  2234388
370
    25
100
AcDb2dPolyline
 66
     1
 10
0.0
 20
0.0
 30
0.0
  0
VERTEX
  5
88
330
87
100
AcDbEntity
  8
_U+30EC_U+30A4_U+30E4_U+30FC 1
 62
   179
420
  2234388
370
    25
100
AcDbVertex
100
AcDb2dVertex
 10
126.1118434492855
 20
-125.3516810797731
 30
0.0
  0
VERTEX
  5
89
330
87
100
AcDbEntity
  8
_U+30EC_U+30A4_U+30E4_U+30FC 1
 62
   179
420
  2234388
370
    25
100
AcDbVertex
100
AcDb2dVertex
 10
127.553293412511
 20
-126.7933074683017
 30
0.0
  0
SEQEND
  5
8A
330
87
100
AcDbEntity
  8
_U+30EC_U+30A4_U+30E4_U+30FC 1
 62
   179
420
  2234388
370
    25
  0
POLYLINE
  5
8B
330
1F
100
AcDbEntity
  8
_U+30EC_U+30A4_U+30E4_U+30FC 1
  6
AI-Linetype-1
 62
   179
420
  2234388
370
    25
100
AcDb2dPolyline
 66
     1
 10
0.0
 20
0.0
 30
0.0
  0
VERTEX
  5
8C
330
8B
100
AcDbEntity
  8
_U+30EC_U+30A4_U+30E4_U+30FC 1
  6
AI-Linetype-1
 62
   179
420
  2234388
370
    25
100
AcDbVertex
100
AcDb2dVertex
 10
114.9249429013538
 20
-127.151764968212
 30
0.0
  0
VERTEX
  5
8D
330
8B
100
AcDbEntity
  8
_U+30EC_U+30A4_U+30E4_U+30FC 1
  6
AI-Linetype-1
 62
   179
420
  2234388
370
    25
100
AcDbVertex
100
AcDb2dVertex
 10
124.0151793361092
 20
-127.151764968212
 30
0.0
  0
SEQEND
  5
8F
330
8B
100
AcDbEntity
  8
_U+30EC_U+30A4_U+30E4_U+30FC 1
  6
AI-Linetype-1
 62
   179
420
  2234388
370
    25
  0
POLYLINE
  5
90
330
1F
100
AcDbEntity
  8
_U+30EC_U+30A4_U+30E4_U+30FC 1
  6
AI-Linetype-2
 62
   179
420
  2234388
370
    25
100
AcDb2dPolyline
 66
     1
 10
0.0
 20
0.0
 30
0.0
  0
VERTEX
  5
91
330
90
100
AcDbEntity
  8
_U+30EC_U+30A4_U+30E4_U+30FC 1
  6
AI-Linetype-2
 62
   179
420
  2234388
370
    25
100
AcDbVertex
100
AcDb2dVertex
 10
114.9249429013538
 20
-127.5717116347738
 30
0.0
  0
VERTEX
  5
92
330
90
100
AcDbEntity
  8
_U+30EC_U+30A4_U+30E4_U+30FC 1
  6
AI-Linetype-2
 62
   179
420
  2234388
370
    25
100
AcDbVertex
100
AcDb2dVertex
 10
124.0151793361092
 20
-127.5717116347738
 30
0.0
  0
SEQEND
  5
94
330
90
100
AcDbEntity
  8
_U+30EC_U+30A4_U+30E4_U+30FC 1
  6
AI-Linetype-2
 62
   179
420
  2234388
370
    25
  0
POLYLINE
  5
95
330
1F
100
AcDbEntity
  8
_U+30EC_U+30A4_U+30E4_U+30FC 1
  6
AI-Linetype-3
 62
   179
420
  2234388
370
    25
100
AcDb2dPolyline
 66
     1
 10
0.0
 20
0.0
 30
0.0
  0
VERTEX
  5
96
330
95
100
AcDbEntity
  8
_U+30EC_U+30A4_U+30E4_U+30FC 1
  6
AI-Linetype-3
 62
   179
420
  2234388
370
    25
100
AcDbVertex
100
AcDb2dVertex
 10
124.7344932066468
 20
-127.8717844124765
 30
0.0
  0
VERTEX
  5
97
330
95
100
AcDbEntity
  8
_U+30EC_U+30A4_U+30E4_U+30FC 1
  6
AI-Linetype-3
 62
   179
420
  2234388
370
    25
100
AcDbVertex
100
AcDb2dVertex
 10
124.7344932066468
 20
-132.8518424667872
 30
0.0
  0
SEQEND
  5
99
330
95
100
AcDbEntity
  8
_U+30EC_U+30A4_U+30E4_U+30FC 1
  6
AI-Linetype-3
 62
   179
420
  2234388
370
    25
  0
POLYLINE
  5
9A
330
1F
100
AcDbEntity
  8
_U+30EC_U+30A4_U+30E4_U+30FC 1
  6
AI-Linetype-4
 62
   179
420
  2234388
370
    25
100
AcDb2dPolyline
 66
     1
 10
0.0
 20
0.0
 30
0.0
  0
VERTEX
  5
9B
330
9A
100
AcDbEntity
  8
_U+30EC_U+30A4_U+30E4_U+30FC 1
  6
AI-Linetype-4
 62
   179
420
  2234388
370
    25
100
AcDbVertex
100
AcDb2dVertex
 10
125.0349187545379
 20
-133.1515624667121
 30
0.0
  0
VERTEX
  5
9C
330
9A
100
AcDbEntity
  8
_U+30EC_U+30A4_U+30E4_U+30FC 1
  6
AI-Linetype-4
 62
   179
420
  2234388
370
    25
100
AcDbVertex
100
AcDb2dVertex
 10
133.2859321551481
 20
-133.1515624667121
 30
0.0
  0
SEQEND
  5
9E
330
9A
100
AcDbEntity
  8
_U+30EC_U+30A4_U+30E4_U+30FC 1
  6
AI-Linetype-4
 62
   179
420
  2234388
370
    25
  0
POLYLINE
  5
9F
330
1F
100
AcDbEntity
  8
_U+30EC_U+30A4_U+30E4_U+30FC 1
  6
AI-Linetype-5
 62
   179
420
  2234388
370
    25
100
AcDb2dPolyline
 66
     1
 10
0.0
 20
0.0
 30
0.0
  0
VERTEX
  5
A0
330
9F
100
AcDbEntity
  8
_U+30EC_U+30A4_U+30E4_U+30FC 1
  6
AI-Linetype-5
 62
   179
420
  2234388
370
    25
100
AcDbVertex
100
AcDb2dVertex
 10
124.3148993284627
 20
-127.8717844124765
 30
0.0
  0
VERTEX
  5
A1
330
9F
100
AcDbEntity
  8
_U+30EC_U+30A4_U+30E4_U+30FC 1
  6
AI-Linetype-5
 62
   179
420
  2234388
370
    25
100
AcDbVertex
100
AcDb2dVertex
 10
124.3148993284627
 20
-132.8518424667872
 30
0.0
  0
SEQEND
  5
A3
330
9F
100
AcDbEntity
  8
_U+30EC_U+30A4_U+30E4_U+30FC 1
  6
AI-Linetype-5
 62
   179
420
  2234388
370
    25
  0
POLYLINE
  5
A4
330
1F
100
AcDbEntity
  8
_U+30EC_U+30A4_U+30E4_U+30FC 1
  6
AI-Linetype-6
 62
   179
420
  2234388
370
    25
100
AcDb2dPolyline
 66
     1
 10
0.0
 20
0.0
 30
0.0
  0
VERTEX
  5
A5
330
A4
100
AcDbEntity
  8
_U+30EC_U+30A4_U+30E4_U+30FC 1
  6
AI-Linetype-6
 62
   179
420
  2234388
370
    25
100
AcDbVertex
100
AcDb2dVertex
 10
125.0349187545379
 20
-133.5718619110514
 30
0.0
  0
VERTEX
  5
A6
330
A4
100
AcDbEntity
  8
_U+30EC_U+30A4_U+30E4_U+30FC 1
  6
AI-Linetype-6
 62
   179
420
  2234388
370
    25
100
AcDbVertex
100
AcDb2dVertex
 10
133.3906365969214
 20
-133.5718619110514
 30
0.0
  0
SEQEND
  5
A8
330
A4
100
AcDbEntity
  8
_U+30EC_U+30A4_U+30E4_U+30FC 1
  6
AI-Linetype-6
 62
   179
420
  2234388
370
    25
  0
SPLINE
  5
A9
330
1F
100
AcDbEntity
  8
_U+30EC_U+30A4_U+30E4_U+30FC 1
 62
   179
420
  2234388
370
    25
100
AcDbSpline
210
0.0
220
0.0
230
1.0
 70
     8
 71
     3
 72
    11
 73
     7
 74
     0
 42
0.0000000001
 43
0.0000000001
 12
1.0
 22
0.0
 32
0.0
 13
1.0
 23
0.0
 33
0.0
 40
0.0
 40
0.0
 40
0.0
 40
0.0
 40
1.0
 40
1.0
 40
1.0
 40
2.0
 40
2.0
 40
2.0
 40
2.0
 10
54.92464109875566
 20
-127.151764968212
 30
0.0
 10
54.80871832393532
 20
-127.151764968212
 30
0.0
 10
54.7146677707792
 20
-127.245815523744
 30
0.0
 10
54.7146677707792
 20
-127.3617383014931
 30
0.0
 10
54.7146677707792
 20
-127.4778374681307
 30
0.0
 10
54.80871832393532
 20
-127.5717116347738
 30
0.0
 10
54.92464109875566
 20
-127.5717116347738
 30
0.0
  0
SPLINE
  5
AA
330
1F
100
AcDbEntity
  8
_U+30EC_U+30A4_U+30E4_U+30FC 1
 62
   179
420
  2234388
370
    25
100
AcDbSpline
210
0.0
220
0.0
230
1.0
 70
     8
 71
     3
 72
     8
 73
     4
 74
     0
 42
0.0000000001
 43
0.0000000001
 12
1.0
 22
0.0
 32
0.0
 13
1.0
 23
0.0
 33
0.0
 40
0.0
 40
0.0
 40
0.0
 40
0.0
 40
1.0
 40
1.0
 40
1.0
 40
1.0
 10
64.31459752586458
 20
-127.8717844124765
 30
0.0
 10
64.31459752586458
 20
-127.7060846902958
 30
0.0
 10
64.18040086262157
 20
-127.5717116347738
 30
0.0
 10
64.01470276177405
 20
-127.5717116347738
 30
0.0
  0
SPLINE
  5
AB
330
1F
100
AcDbEntity
  8
_U+30EC_U+30A4_U+30E4_U+30FC 1
 62
   179
420
  2234388
370
    25
100
AcDbSpline
210
0.0
220
0.0
230
1.0
 70
     8
 71
     3
 72
     8
 73
     4
 74
     0
 42
0.0000000001
 43
0.0000000001
 12
1.0
 22
0.0
 32
0.0
 13
1.0
 23
0.0
 33
0.0
 40
0.0
 40
0.0
 40
0.0
 40
0.0
 40
1.0
 40
1.0
 40
1.0
 40
1.0
 10
64.73472220603854
 20
-132.8518424667872
 30
0.0
 10
64.73472220603854
 20
-133.0171894111901
 30
0.0
 10
64.86909362282933
 20
-133.1515624667121
 30
0.0
 10
65.0347933408242
 20
-133.1515624667121
 30
0.0
  0
SPLINE
  5
AC
330
1F
100
AcDbEntity
  8
_U+30EC_U+30A4_U+30E4_U+30FC 1
 62
   179
420
  2234388
370
    25
100
AcDbSpline
210
0.0
220
0.0
230
1.0
 70
     8
 71
     3
 72
     8
 73
     4
 74
     0
 42
0.0000000001
 43
0.0000000001
 12
1.0
 22
0.0
 32
0.0
 13
1.0
 23
0.0
 33
0.0
 40
0.0
 40
0.0
 40
0.0
 40
0.0
 40
1.0
 40
1.0
 40
1.0
 40
1.0
 10
64.31459752586458
 20
-132.8518424667872
 30
0.0
 10
64.31459752586458
 20
-133.2493877444653
 30
0.0
 10
64.63703640652737
 20
-133.5718619110514
 30
0.0
 10
65.0347933408242
 20
-133.5718619110514
 30
0.0
  0
SPLINE
  5
AD
330
1F
100
AcDbEntity
  8
_U+30EC_U+30A4_U+30E4_U+30FC 1
 62
   179
420
  2234388
370
    25
100
AcDbSpline
210
0.0
220
0.0
230
1.0
 70
     8
 71
     3
 72
     8
 73
     4
 74
     0
 42
0.0000000001
 43
0.0000000001
 12
1.0
 22
0.0
 32
0.0
 13
1.0
 23
0.0
 33
0.0
 40
0.0
 40
0.0
 40
0.0
 40
0.0
 40
1.0
 40
1.0
 40
1.0
 40
1.0
 10
64.73472220603854
 20
-127.8717844124765
 30
0.0
 10
64.73472220603854
 20
-127.4742038570202
 30
0.0
 10
64.41224641226225
 20
-127.151764968212
 30
0.0
 10
64.01470276177405
 20
-127.151764968212
 30
0.0
  0
SPLINE
  5
AE
330
1F
100
AcDbEntity
  8
_U+30EC_U+30A4_U+30E4_U+30FC 1
 62
   179
420
  2234388
370
    25
100
AcDbSpline
210
0.0
220
0.0
230
1.0
 70
     8
 71
     3
 72
     8
 73
     4
 74
     0
 42
0.0000000001
 43
0.0000000001
 12
1.0
 22
0.0
 32
0.0
 13
1.0
 23
0.0
 33
0.0
 40
0.0
 40
0.0
 40
0.0
 40
0.0
 40
1.0
 40
1.0
 40
1.0
 40
1.0
 10
117.5948708887938
 20
-133.1515624667121
 30
0.0
 10
117.7602531067968
 20
-133.1515624667121
 30
0.0
 10
117.8946261589242
 20
-133.0171894111901
 30
0.0
 10
117.8946261589242
 20
-132.8518424667872
 30
0.0
  0
SPLINE
  5
AF
330
1F
100
AcDbEntity
  8
_U+30EC_U+30A4_U+30E4_U+30FC 1
 62
   179
420
  2234388
370
    25
100
AcDbSpline
210
0.0
220
0.0
230
1.0
 70
     8
 71
     3
 72
     8
 73
     4
 74
     0
 42
0.0000000001
 43
0.0000000001
 12
1.0
 22
0.0
 32
0.0
 13
1.0
 23
0.0
 33
0.0
 40
0.0
 40
0.0
 40
0.0
 40
0.0
 40
1.0
 40
1.0
 40
1.0
 40
1.0
 10
117.5948708887938
 20
-133.5718619110514
 30
0.0
 10
117.9924514342062
 20
-133.5718619110514
 30
0.0
 10
118.3149255926459
 20
-133.2493877444653
 30
0.0
 10
118.3149255926459
 20
-132.8518424667872
 30
0.0
  0
SPLINE
  5
B0
330
1F
100
AcDbEntity
  8
_U+30EC_U+30A4_U+30E4_U+30FC 1
 62
   179
420
  2234388
370
    25
100
AcDbSpline
210
0.0
220
0.0
230
1.0
 70
     8
 71
     3
 72
    11
 73
     7
 74
     0
 42
0.0000000001
 43
0.0000000001
 12
1.0
 22
0.0
 32
0.0
 13
1.0
 23
0.0
 33
0.0
 40
0.0
 40
0.0
 40
0.0
 40
0.0
 40
1.0
 40
1.0
 40
1.0
 40
2.0
 40
2.0
 40
2.0
 40
2.0
 10
114.5683551326733
 20
-127.028257468243
 30
0.0
 10
114.3840640262639
 20
-127.028257468243
 30
0.0
 10
114.2345568078559
 20
-127.1775883015388
 30
0.0
 10
114.2345568078559
 20
-127.3617383014931
 30
0.0
 10
114.2345568078559
 20
-127.5460646903356
 30
0.0
 10
114.3840640262639
 20
-127.6953955236317
 30
0.0
 10
114.5683551326733
 20
-127.6953955236317
 30
0.0
  0
SPLINE
  5
B1
330
1F
100
AcDbEntity
  8
_U+30EC_U+30A4_U+30E4_U+30FC 1
 62
   179
420
  2234388
370
    25
100
AcDbSpline
210
0.0
220
0.0
230
1.0
 70
     8
 71
     3
 72
    11
 73
     7
 74
     0
 42
0.0000000001
 43
0.0000000001
 12
1.0
 22
0.0
 32
0.0
 13
1.0
 23
0.0
 33
0.0
 40
0.0
 40
0.0
 40
0.0
 40
0.0
 40
1.0
 40
1.0
 40
1.0
 40
2.0
 40
2.0
 40
2.0
 40
2.0
 10
114.5683551326733
 20
-126.6082755239036
 30
0.0
 10
114.1518656988544
 20
-126.6082755239036
 30
0.0
 10
113.8149305271018
 20
-126.9455663571524
 30
0.0
 10
113.8149305271018
 20
-127.3617383014931
 30
0.0
 10
113.8149305271018
 20
-127.7779102458334
 30
0.0
 10
114.1518656988544
 20
-128.1153421901935
 30
0.0
 10
114.5683551326733
 20
-128.1153421901935
 30
0.0
  0
SPLINE
  5
B2
330
1F
100
AcDbEntity
  8
_U+30EC_U+30A4_U+30E4_U+30FC 1
 62
   179
420
  2234388
370
    25
100
AcDbSpline
210
0.0
220
0.0
230
1.0
 70
     8
 71
     3
 72
     8
 73
     4
 74
     0
 42
0.0000000001
 43
0.0000000001
 12
1.0
 22
0.0
 32
0.0
 13
1.0
 23
0.0
 33
0.0
 40
0.0
 40
0.0
 40
0.0
 40
0.0
 40
1.0
 40
1.0
 40
1.0
 40
1.0
 10
117.8946261589242
 20
-128.4154149678962
 30
0.0
 10
117.8946261589242
 20
-128.2497152457152
 30
0.0
 10
117.7602531067968
 20
-128.1153421901935
 30
0.0
 10
117.5948708887938
 20
-128.1153421901935
 30
0.0
  0
SPLINE
  5
B3
330
1F
100
AcDbEntity
  8
_U+30EC_U+30A4_U+30E4_U+30FC 1
 62
   179
420
  2234388
370
    25
100
AcDbSpline
210
0.0
220
0.0
230
1.0
 70
     8
 71
     3
 72
     8
 73
     4
 74
     0
 42
0.0000000001
 43
0.0000000001
 12
1.0
 22
0.0
 32
0.0
 13
1.0
 23
0.0
 33
0.0
 40
0.0
 40
0.0
 40
0.0
 40
0.0
 40
1.0
 40
1.0
 40
1.0
 40
1.0
 10
118.3149255926459
 20
-128.4154149678962
 30
0.0
 10
118.3149255926459
 20
-128.0176933013288
 30
0.0
 10
117.9924514342062
 20
-127.6953955236317
 30
0.0
 10
117.5948708887938
 20
-127.6953955236317
 30
0.0
  0
SPLINE
  5
B4
330
1F
100
AcDbEntity
  8
_U+30EC_U+30A4_U+30E4_U+30FC 1
 62
   179
420
  2234388
370
    25
100
AcDbSpline
210
0.0
220
0.0
230
1.0
 70
     8
 71
     3
 72
    14
 73
    10
 74
     0
 42
0.0000000001
 43
0.0000000001
 12
1.0
 22
0.0
 32
0.0
 13
1.0
 23
0.0
 33
0.0
 40
0.0
 40
0.0
 40
0.0
 40
0.0
 40
1.0
 40
1.0
 40
1.0
 40
2.0
 40
2.0
 40
2.0
 40
3.0
 40
3.0
 40
3.0
 40
3.0
 10
127.256325086754
 20
-127.0902758015608
 30
0.0
 10
127.3383138570546
 20
-127.1722613570958
 30
0.0
 10
127.4712725812702
 20
-127.1722613570958
 30
0.0
 10
127.553293412511
 20
-127.0902758015608
 30
0.0
 10
127.635278965975
 20
-127.008254968248
 30
0.0
 10
127.635278965975
 20
-126.8752930238367
 30
0.0
 10
127.553293412511
 20
-126.7933074683017
 30
0.0
 10
127.553293412511
 20
-126.7933074683017
 30
0.0
 10
127.553293412511
 20
-126.7933074683017
 30
0.0
 10
127.553293412511
 20
-126.7933074683017
 30
0.0
  0
SPLINE
  5
B5
330
1F
100
AcDbEntity
  8
_U+30EC_U+30A4_U+30E4_U+30FC 1
  6
AI-Linetype-7
 62
   179
420
  2234388
370
    25
100
AcDbSpline
210
0.0
220
0.0
230
1.0
 70
     8
 71
     3
 72
     8
 73
     4
 74
     0
 42
0.0000000001
 43
0.0000000001
 12
1.0
 22
0.0
 32
0.0
 13
1.0
 23
0.0
 33
0.0
 40
0.0
 40
0.0
 40
0.0
 40
0.0
 40
1.0
 40
1.0
 40
1.0
 40
1.0
 10
124.3148993284627
 20
-132.8518424667872
 30
0.0
 10
124.3148993284627
 20
-133.2493877444653
 30
0.0
 10
124.6373382091255
 20
-133.5718619110514
 30
0.0
 10
125.0349187545379
 20
-133.5718619110514
 30
0.0
  0
SPLINE
  5
B7
330
1F
100
AcDbEntity
  8
_U+30EC_U+30A4_U+30E4_U+30FC 1
  6
AI-Linetype-8
 62
   179
420
  2234388
370
    25
100
AcDbSpline
210
0.0
220
0.0
230
1.0
 70
     8
 71
     3
 72
     8
 73
     4
 74
     0
 42
0.0000000001
 43
0.0000000001
 12
1.0
 22
0.0
 32
0.0
 13
1.0
 23
0.0
 33
0.0
 40
0.0
 40
0.0
 40
0.0
 40
0.0
 40
1.0
 40
1.0
 40
1.0
 40
1.0
 10
124.7344932066468
 20
-127.8717844124765
 30
0.0
 10
124.7344932066468
 20
-127.4742038570202
 30
0.0
 10
124.4120543259841
 20
-127.151764968212
 30
0.0
 10
124.0151793361092
 20
-127.151764968212
 30
0.0
  0
SPLINE
  5
B9
330
1F
100
AcDbEntity
  8
_U+30EC_U+30A4_U+30E4_U+30FC 1
  6
AI-Linetype-9
 62
   179
420
  2234388
370
    25
100
AcDbSpline
210
0.0
220
0.0
230
1.0
 70
     8
 71
     3
 72
     8
 73
     4
 74
     0
 42
0.0000000001
 43
0.0000000001
 12
1.0
 22
0.0
 32
0.0
 13
1.0
 23
0.0
 33
0.0
 40
0.0
 40
0.0
 40
0.0
 40
0.0
 40
1.0
 40
1.0
 40
1.0
 40
1.0
 10
124.7344932066468
 20
-132.8518424667872
 30
0.0
 10
124.7344932066468
 20
-133.0171894111901
 30
0.0
 10
124.8688694132275
 20
-133.1515624667121
 30
0.0
 10
125.0349187545379
 20
-133.1515624667121
 30
0.0
  0
SPLINE
  5
BB
330
1F
100
AcDbEntity
  8
_U+30EC_U+30A4_U+30E4_U+30FC 1
  6
AI-Linetype-10
 62
   179
420
  2234388
370
    25
100
AcDbSpline
210
0.0
220
0.0
230
1.0
 70
     8
 71
     3
 72
    11
 73
     7
 74
     0
 42
0.0000000001
 43
0.0000000001
 12
1.0
 22
0.0
 32
0.0
 13
1.0
 23
0.0
 33
0.0
 40
0.0
 40
0.0
 40
0.0
 40
0.0
 40
1.0
 40
1.0
 40
1.0
 40
2.0
 40
2.0
 40
2.0
 40
2.0
 10
114.9249429013538
 20
-127.151764968212
 30
0.0
 10
114.8084909598803
 20
-127.151764968212
 30
0.0
 10
114.7147931844929
 20
-127.245815523744
 30
0.0
 10
114.7147931844929
 20
-127.3617383014931
 30
0.0
 10
114.7147931844929
 20
-127.4778374681307
 30
0.0
 10
114.8084909598803
 20
-127.5717116347738
 30
0.0
 10
114.9249429013538
 20
-127.5717116347738
 30
0.0
  0
SPLINE
  5
BD
330
1F
100
AcDbEntity
  8
_U+30EC_U+30A4_U+30E4_U+30FC 1
  6
AI-Linetype-11
 62
   179
420
  2234388
370
    25
100
AcDbSpline
210
0.0
220
0.0
230
1.0
 70
     8
 71
     3
 72
     8
 73
     4
 74
     0
 42
0.0000000001
 43
0.0000000001
 12
1.0
 22
0.0
 32
0.0
 13
1.0
 23
0.0
 33
0.0
 40
0.0
 40
0.0
 40
0.0
 40
0.0
 40
1.0
 40
1.0
 40
1.0
 40
1.0
 10
124.3148993284627
 20
-127.8717844124765
 30
0.0
 10
124.3148993284627
 20
-127.7060846902958
 30
0.0
 10
124.1805262763353
 20
-127.5717116347738
 30
0.0
 10
124.0151793361092
 20
-127.5717116347738
 30
0.0
  0
SPLINE
  5
BF
330
1F
100
AcDbEntity
  8
_U+30EC_U+30A4_U+30E4_U+30FC 1
 62
   179
420
  2234388
370
     9
100
AcDbSpline
210
0.0
220
0.0
230
1.0
 70
    11
 71
     3
 72
    17
 73
    13
 74
     0
 42
0.0000000001
 43
0.0000000001
 12
1.0
 22
0.0
 32
0.0
 13
1.0
 23
0.0
 33
0.0
 40
0.0
 40
0.0
 40
0.0
 40
0.0
 40
1.0
 40
1.0
 40
1.0
 40
2.0
 40
2.0
 40
2.0
 40
3.0
 40
3.0
 40
3.0
 40
4.0
 40
4.0
 40
4.0
 40
4.0
 10
52.37476338603069
 20
-127.1300691348842
 30
0.0
 10
52.37476338603069
 20
-127.096978579337
 30
0.0
 10
52.34788172004983
 20
-127.0700969126769
 30
0.0
 10
52.31465005423097
 20
-127.0700969126769
 30
0.0
 10
52.28155949951963
 20
-127.0700969126769
 30
0.0
 10
52.25467783353877
 20
-127.096978579337
 30
0.0
 10
52.25467783353877
 20
-127.1300691348842
 30
0.0
 10
52.25467783353877
 20
-127.1633008015427
 30
0.0
 10
52.28155949951963
 20
-127.1901824682025
 30
0.0
 10
52.31465005423097
 20
-127.1901824682025
 30
0.0
 10
52.34788172004983
 20
-127.1901824682025
 30
0.0
 10
52.37476338603069
 20
-127.1633008015427
 30
0.0
 10
52.37476338603069
 20
-127.1300691348842
 30
0.0
  0
SPLINE
  5
C0
330
1F
100
AcDbEntity
  8
_U+30EC_U+30A4_U+30E4_U+30FC 1
 62
   179
420
  2234388
370
     9
100
AcDbSpline
210
0.0
220
0.0
230
1.0
 70
    11
 71
     3
 72
    17
 73
    13
 74
     0
 42
0.0000000001
 43
0.0000000001
 12
1.0
 22
0.0
 32
0.0
 13
1.0
 23
0.0
 33
0.0
 40
0.0
 40
0.0
 40
0.0
 40
0.0
 40
1.0
 40
1.0
 40
1.0
 40
2.0
 40
2.0
 40
2.0
 40
3.0
 40
3.0
 40
3.0
 40
4.0
 40
4.0
 40
4.0
 40
4.0
 10
52.37476338603069
 20
-133.5718619110514
 30
0.0
 10
52.37476338603069
 20
-133.5388066332821
 30
0.0
 10
52.34788172004983
 20
-133.5119249666223
 30
0.0
 10
52.31465005423097
 20
-133.5119249666223
 30
0.0
 10
52.28155949951963
 20
-133.5119249666223
 30
0.0
 10
52.25467783353877
 20
-133.5388066332821
 30
0.0
 10
52.25467783353877
 20
-133.5718619110514
 30
0.0
 10
52.25467783353877
 20
-133.6049524665989
 30
0.0
 10
52.28155949951963
 20
-133.6317988554811
 30
0.0
 10
52.31465005423097
 20
-133.6317988554811
 30
0.0
 10
52.34788172004983
 20
-133.6317988554811
 30
0.0
 10
52.37476338603069
 20
-133.6049524665989
 30
0.0
 10
52.37476338603069
 20
-133.5718619110514
 30
0.0
  0
SPLINE
  5
C1
330
1F
100
AcDbEntity
  8
_U+30EC_U+30A4_U+30E4_U+30FC 1
 62
   179
420
  2234388
370
     9
100
AcDbSpline
210
0.0
220
0.0
230
1.0
 70
    11
 71
     3
 72
    17
 73
    13
 74
     0
 42
0.0000000001
 43
0.0000000001
 12
1.0
 22
0.0
 32
0.0
 13
1.0
 23
0.0
 33
0.0
 40
0.0
 40
0.0
 40
0.0
 40
0.0
 40
1.0
 40
1.0
 40
1.0
 40
2.0
 40
2.0
 40
2.0
 40
3.0
 40
3.0
 40
3.0
 40
4.0
 40
4.0
 40
4.0
 40
4.0
 10
54.77460471369452
 20
-135.9717032993404
 30
0.0
 10
54.77460471369452
 20
-135.9386480215711
 30
0.0
 10
54.74772304771367
 20
-135.9117663549106
 30
0.0
 10
54.7146677707792
 20
-135.9117663549106
 30
0.0
 10
54.68157721606786
 20
-135.9117663549106
 30
0.0
 10
54.65473082786387
 20
-135.9386480215711
 30
0.0
 10
54.65473082786387
 20
-135.9717032993404
 30
0.0
 10
54.65473082786387
 20
-136.0047938548879
 30
0.0
 10
54.68157721606786
 20
-136.0316755215476
 30
0.0
 10
54.7146677707792
 20
-136.0316755215476
 30
0.0
 10
54.74772304771367
 20
-136.0316755215476
 30
0.0
 10
54.77460471369452
 20
-136.0047938548879
 30
0.0
 10
54.77460471369452
 20
-135.9717032993404
 30
0.0
  0
SPLINE
  5
C2
330
1F
100
AcDbEntity
  8
_U+30EC_U+30A4_U+30E4_U+30FC 1
 62
   179
420
  2234388
370
     9
100
AcDbSpline
210
0.0
220
0.0
230
1.0
 70
    11
 71
     3
 72
    17
 73
    13
 74
     0
 42
0.0000000001
 43
0.0000000001
 12
1.0
 22
0.0
 32
0.0
 13
1.0
 23
0.0
 33
0.0
 40
0.0
 40
0.0
 40
0.0
 40
0.0
 40
1.0
 40
1.0
 40
1.0
 40
2.0
 40
2.0
 40
2.0
 40
3.0
 40
3.0
 40
3.0
 40
4.0
 40
4.0
 40
4.0
 40
4.0
 10
64.3747108576643
 20
-135.9717032993404
 30
0.0
 10
64.3747108576643
 20
-135.9386480215711
 30
0.0
 10
64.34782919168345
 20
-135.9117663549106
 30
0.0
 10
64.31459752586458
 20
-135.9117663549106
 30
0.0
 10
64.28150697115325
 20
-135.9117663549106
 30
0.0
 10
64.25466058294926
 20
-135.9386480215711
 30
0.0
 10
64.25466058294926
 20
-135.9717032993404
 30
0.0
 10
64.25466058294926
 20
-136.0047938548879
 30
0.0
 10
64.28150697115325
 20
-136.0316755215476
 30
0.0
 10
64.31459752586458
 20
-136.0316755215476
 30
0.0
 10
64.34782919168345
 20
-136.0316755215476
 30
0.0
 10
64.3747108576643
 20
-136.0047938548879
 30
0.0
 10
64.3747108576643
 20
-135.9717032993404
 30
0.0
  0
SPLINE
  5
C3
330
1F
100
AcDbEntity
  8
_U+30EC_U+30A4_U+30E4_U+30FC 1
 62
   179
420
  2234388
370
     9
100
AcDbSpline
210
0.0
220
0.0
230
1.0
 70
    11
 71
     3
 72
    17
 73
    13
 74
     0
 42
0.0000000001
 43
0.0000000001
 12
1.0
 22
0.0
 32
0.0
 13
1.0
 23
0.0
 33
0.0
 40
0.0
 40
0.0
 40
0.0
 40
0.0
 40
1.0
 40
1.0
 40
1.0
 40
2.0
 40
2.0
 40
2.0
 40
3.0
 40
3.0
 40
3.0
 40
4.0
 40
4.0
 40
4.0
 40
4.0
 10
118.3748625355612
 20
-135.9717032993404
 30
0.0
 10
118.3748625355612
 20
-135.9386480215711
 30
0.0
 10
118.3479808695804
 20
-135.9117663549106
 30
0.0
 10
118.3149255926459
 20
-135.9117663549106
 30
0.0
 10
118.2818350379345
 20
-135.9117663549106
 30
0.0
 10
118.2549533719537
 20
-135.9386480215711
 30
0.0
 10
118.2549533719537
 20
-135.9717032993404
 30
0.0
 10
118.2549533719537
 20
-136.0047938548879
 30
0.0
 10
118.2818350379345
 20
-136.0316755215476
 30
0.0
 10
118.3149255926459
 20
-136.0316755215476
 30
0.0
 10
118.3479808695804
 20
-136.0316755215476
 30
0.0
 10
118.3748625355612
 20
-136.0047938548879
 30
0.0
 10
118.3748625355612
 20
-135.9717032993404
 30
0.0
  0
SPLINE
  5
C4
330
1F
100
AcDbEntity
  8
_U+30EC_U+30A4_U+30E4_U+30FC 1
 62
   179
420
  2234388
370
     9
100
AcDbSpline
210
0.0
220
0.0
230
1.0
 70
    11
 71
     3
 72
    17
 73
    13
 74
     0
 42
0.0000000001
 43
0.0000000001
 12
1.0
 22
0.0
 32
0.0
 13
1.0
 23
0.0
 33
0.0
 40
0.0
 40
0.0
 40
0.0
 40
0.0
 40
1.0
 40
1.0
 40
1.0
 40
2.0
 40
2.0
 40
2.0
 40
3.0
 40
3.0
 40
3.0
 40
4.0
 40
4.0
 40
4.0
 40
4.0
 10
124.374836271378
 20
-135.9717032993404
 30
0.0
 10
124.374836271378
 20
-135.9386480215711
 30
0.0
 10
124.3479546053972
 20
-135.9117663549106
 30
0.0
 10
124.3148993284627
 20
-135.9117663549106
 30
0.0
 10
124.2818087737514
 20
-135.9117663549106
 30
0.0
 10
124.2549623855474
 20
-135.9386480215711
 30
0.0
 10
124.2549623855474
 20
-135.9717032993404
 30
0.0
 10
124.2549623855474
 20
-136.0047938548879
 30
0.0
 10
124.2818087737514
 20
-136.0316755215476
 30
0.0
 10
124.3148993284627
 20
-136.0316755215476
 30
0.0
 10
124.3479546053972
 20
-136.0316755215476
 30
0.0
 10
124.374836271378
 20
-136.0047938548879
 30
0.0
 10
124.374836271378
 20
-135.9717032993404
 30
0.0
  0
SPLINE
  5
C5
330
1F
100
AcDbEntity
  8
_U+30EC_U+30A4_U+30E4_U+30FC 1
 62
   179
420
  2234388
370
     9
100
AcDbSpline
210
0.0
220
0.0
230
1.0
 70
    11
 71
     3
 72
    17
 73
    13
 74
     0
 42
0.0000000001
 43
0.0000000001
 12
1.0
 22
0.0
 32
0.0
 13
1.0
 23
0.0
 33
0.0
 40
0.0
 40
0.0
 40
0.0
 40
0.0
 40
1.0
 40
1.0
 40
1.0
 40
2.0
 40
2.0
 40
2.0
 40
3.0
 40
3.0
 40
3.0
 40
4.0
 40
4.0
 40
4.0
 40
4.0
 10
113.8748645948102
 20
-122.9518396914844
 30
0.0
 10
113.8748645948102
 20
-122.9186080248259
 30
0.0
 10
113.8480182066062
 20
-122.8917263581661
 30
0.0
 10
113.8149305271018
 20
-122.8917263581661
 30
0.0
 10
113.7818723749604
 20
-122.8917263581661
 30
0.0
 10
113.7549907089795
 20
-122.9186080248259
 30
0.0
 10
113.7549907089795
 20
-122.9518396914844
 30
0.0
 10
113.7549907089795
 20
-122.9849302470315
 30
0.0
 10
113.7818723749604
 20
-123.0117766359138
 30
0.0
 10
113.8149305271018
 20
-123.0117766359138
 30
0.0
 10
113.8480182066062
 20
-123.0117766359138
 30
0.0
 10
113.8748645948102
 20
-122.9849302470315
 30
0.0
 10
113.8748645948102
 20
-122.9518396914844
 30
0.0
  0
SPLINE
  5
C6
330
1F
100
AcDbEntity
  8
_U+30EC_U+30A4_U+30E4_U+30FC 1
 62
   179
420
  2234388
370
     9
100
AcDbSpline
210
0.0
220
0.0
230
1.0
 70
    11
 71
     3
 72
    17
 73
    13
 74
     0
 42
0.0000000001
 43
0.0000000001
 12
1.0
 22
0.0
 32
0.0
 13
1.0
 23
0.0
 33
0.0
 40
0.0
 40
0.0
 40
0.0
 40
0.0
 40
1.0
 40
1.0
 40
1.0
 40
2.0
 40
2.0
 40
2.0
 40
3.0
 40
3.0
 40
3.0
 40
4.0
 40
4.0
 40
4.0
 40
4.0
 10
118.6745825279147
 20
-122.9518396914844
 30
0.0
 10
118.6745825279147
 20
-122.9186080248259
 30
0.0
 10
118.6477008619339
 20
-122.8917263581661
 30
0.0
 10
118.6146455849994
 20
-122.8917263581661
 30
0.0
 10
118.581555030288
 20
-122.8917263581661
 30
0.0
 10
118.5546733643072
 20
-122.9186080248259
 30
0.0
 10
118.5546733643072
 20
-122.9518396914844
 30
0.0
 10
118.5546733643072
 20
-122.9849302470315
 30
0.0
 10
118.581555030288
 20
-123.0117766359138
 30
0.0
 10
118.6146455849994
 20
-123.0117766359138
 30
0.0
 10
118.6477008619339
 20
-123.0117766359138
 30
0.0
 10
118.6745825279147
 20
-122.9849302470315
 30
0.0
 10
118.6745825279147
 20
-122.9518396914844
 30
0.0
  0
SPLINE
  5
C7
330
1F
100
AcDbEntity
  8
_U+30EC_U+30A4_U+30E4_U+30FC 1
 62
   179
420
  2234388
370
     9
100
AcDbSpline
210
0.0
220
0.0
230
1.0
 70
    11
 71
     3
 72
    17
 73
    13
 74
     0
 42
0.0000000001
 43
0.0000000001
 12
1.0
 22
0.0
 32
0.0
 13
1.0
 23
0.0
 33
0.0
 40
0.0
 40
0.0
 40
0.0
 40
0.0
 40
1.0
 40
1.0
 40
1.0
 40
2.0
 40
2.0
 40
2.0
 40
3.0
 40
3.0
 40
3.0
 40
4.0
 40
4.0
 40
4.0
 40
4.0
 10
127.6745431316399
 20
-122.9518396914844
 30
0.0
 10
127.6745431316399
 20
-122.9186080248259
 30
0.0
 10
127.6476614656591
 20
-122.8917263581661
 30
0.0
 10
127.6146061887246
 20
-122.8917263581661
 30
0.0
 10
127.5815156340133
 20
-122.8917263581661
 30
0.0
 10
127.5546692458093
 20
-122.9186080248259
 30
0.0
 10
127.5546692458093
 20
-122.9518396914844
 30
0.0
 10
127.5546692458093
 20
-122.9849302470315
 30
0.0
 10
127.5815156340133
 20
-123.0117766359138
 30
0.0
 10
127.6146061887246
 20
-123.0117766359138
 30
0.0
 10
127.6476614656591
 20
-123.0117766359138
 30
0.0
 10
127.6745431316399
 20
-122.9849302470315
 30
0.0
 10
127.6745431316399
 20
-122.9518396914844
 30
0.0
  0
SPLINE
  5
C8
330
1F
100
AcDbEntity
  8
_U+30EC_U+30A4_U+30E4_U+30FC 1
 62
   179
420
  2234388
370
     9
100
AcDbSpline
210
0.0
220
0.0
230
1.0
 70
    11
 71
     3
 72
    17
 73
    13
 74
     0
 42
0.0000000001
 43
0.0000000001
 12
1.0
 22
0.0
 32
0.0
 13
1.0
 23
0.0
 33
0.0
 40
0.0
 40
0.0
 40
0.0
 40
0.0
 40
1.0
 40
1.0
 40
1.0
 40
2.0
 40
2.0
 40
2.0
 40
3.0
 40
3.0
 40
3.0
 40
4.0
 40
4.0
 40
4.0
 40
4.0
 10
132.4749313425052
 20
-125.3516810797731
 30
0.0
 10
132.4749313425052
 20
-125.3186258020038
 30
0.0
 10
132.4480849543012
 20
-125.2917441353436
 30
0.0
 10
132.4149943995898
 20
-125.2917441353436
 30
0.0
 10
132.3819391226554
 20
-125.2917441353436
 30
0.0
 10
132.3550574566745
 20
-125.3186258020038
 30
0.0
 10
132.3550574566745
 20
-125.3516810797731
 30
0.0
 10
132.3550574566745
 20
-125.3849480242094
 30
0.0
 10
132.3819391226554
 20
-125.4117944130914
 30
0.0
 10
132.4149943995898
 20
-125.4117944130914
 30
0.0
 10
132.4480849543012
 20
-125.4117944130914
 30
0.0
 10
132.4749313425052
 20
-125.3849480242094
 30
0.0
 10
132.4749313425052
 20
-125.3516810797731
 30
0.0
  0
SPLINE
  5
C9
330
1F
100
AcDbEntity
  8
_U+30EC_U+30A4_U+30E4_U+30FC 1
 62
   179
420
  2234388
370
     9
100
AcDbSpline
210
0.0
220
0.0
230
1.0
 70
    11
 71
     3
 72
    17
 73
    13
 74
     0
 42
0.0000000001
 43
0.0000000001
 12
1.0
 22
0.0
 32
0.0
 13
1.0
 23
0.0
 33
0.0
 40
0.0
 40
0.0
 40
0.0
 40
0.0
 40
1.0
 40
1.0
 40
1.0
 40
2.0
 40
2.0
 40
2.0
 40
3.0
 40
3.0
 40
3.0
 40
4.0
 40
4.0
 40
4.0
 40
4.0
 10
130.0750900148413
 20
-127.151764968212
 30
0.0
 10
130.0750900148413
 20
-127.1186744126648
 30
0.0
 10
130.0482083488605
 20
-127.0918280237826
 30
0.0
 10
130.0144475163884
 20
-127.0918280237826
 30
0.0
 10
129.981392239454
 20
-127.0918280237826
 30
0.0
 10
129.9545138564003
 20
-127.1186744126648
 30
0.0
 10
129.9545138564003
 20
-127.151764968212
 30
0.0
 10
129.9545138564003
 20
-127.1849966348705
 30
0.0
 10
129.981392239454
 20
-127.2118783015303
 30
0.0
 10
130.0144475163884
 20
-127.2118783015303
 30
0.0
 10
130.0482083488605
 20
-127.2118783015303
 30
0.0
 10
130.0750900148413
 20
-127.1849966348705
 30
0.0
 10
130.0750900148413
 20
-127.151764968212
 30
0.0
  0
SPLINE
  5
CA
330
1F
100
AcDbEntity
  8
_U+30EC_U+30A4_U+30E4_U+30FC 1
 62
   179
420
  2234388
370
    25
100
AcDbSpline
210
0.0
220
0.0
230
1.0
 70
    11
 71
     3
 72
    17
 73
    13
 74
     0
 42
0.0000000001
 43
0.0000000001
 12
1.0
 22
0.0
 32
0.0
 13
1.0
 23
0.0
 33
0.0
 40
0.0
 40
0.0
 40
0.0
 40
0.0
 40
1.0
 40
1.0
 40
1.0
 40
2.0
 40
2.0
 40
2.0
 40
3.0
 40
3.0
 40
3.0
 40
4.0
 40
4.0
 40
4.0
 40
4.0
 10
130.0750900148413
 20
-133.1515624667121
 30
0.0
 10
130.0750900148413
 20
-133.1185071889428
 30
0.0
 10
130.0482083488605
 20
-133.0916255222824
 30
0.0
 10
130.0144475163884
 20
-133.0916255222824
 30
0.0
 10
129.981392239454
 20
-133.0916255222824
 30
0.0
 10
129.9545138564003
 20
-133.1185071889428
 30
0.0
 10
129.9545138564003
 20
-133.1515624667121
 30
0.0
 10
129.9545138564003
 20
-133.1849705222592
 30
0.0
 10
129.981392239454
 20
-133.211852188919
 30
0.0
 10
130.0144475163884
 20
-133.211852188919
 30
0.0
 10
130.0482083488605
 20
-133.211852188919
 30
0.0
 10
130.0750900148413
 20
-133.1849705222592
 30
0.0
 10
130.0750900148413
 20
-133.1515624667121
 30
0.0
  0
SPLINE
  5
CB
330
1F
100
AcDbEntity
  8
_U+30EC_U+30A4_U+30E4_U+30FC 1
 62
   179
420
  2234388
370
    25
100
AcDbSpline
210
0.0
220
0.0
230
1.0
 70
    11
 71
     3
 72
    17
 73
    13
 74
     0
 42
0.0000000001
 43
0.0000000001
 12
1.0
 22
0.0
 32
0.0
 13
1.0
 23
0.0
 33
0.0
 40
0.0
 40
0.0
 40
0.0
 40
0.0
 40
1.0
 40
1.0
 40
1.0
 40
2.0
 40
2.0
 40
2.0
 40
3.0
 40
3.0
 40
3.0
 40
4.0
 40
4.0
 40
4.0
 40
4.0
 10
132.4749313425052
 20
-133.1515624667121
 30
0.0
 10
132.4749313425052
 20
-133.1185071889428
 30
0.0
 10
132.4480849543012
 20
-133.0916255222824
 30
0.0
 10
132.4149943995898
 20
-133.0916255222824
 30
0.0
 10
132.3819391226554
 20
-133.0916255222824
 30
0.0
 10
132.3550574566745
 20
-133.1185071889428
 30
0.0
 10
132.3550574566745
 20
-133.1515624667121
 30
0.0
 10
132.3550574566745
 20
-133.1849705222592
 30
0.0
 10
132.3819391226554
 20
-133.211852188919
 30
0.0
 10
132.4149943995898
 20
-133.211852188919
 30
0.0
 10
132.4480849543012
 20
-133.211852188919
 30
0.0
 10
132.4749313425052
 20
-133.1849705222592
 30
0.0
 10
132.4749313425052
 20
-133.1515624667121
 30
0.0
  0
POLYLINE
  5
CC
330
1F
100
AcDbEntity
  8
_U+30EC_U+30A4_U+30E4_U+30FC 1
 62
   179
420
  2234388
370
     9
100
AcDb2dPolyline
 66
     1
 10
0.0
 20
0.0
 30
0.0
  0
VERTEX
  5
CD
330
CC
100
AcDbEntity
  8
_U+30EC_U+30A4_U+30E4_U+30FC 1
 62
   179
420
  2234388
370
     9
100
AcDbVertex
100
AcDb2dVertex
 10
64.31459752586458
 20
-135.9717032993404
 30
0.0
  0
VERTEX
  5
CE
330
CC
100
AcDbEntity
  8
_U+30EC_U+30A4_U+30E4_U+30FC 1
 62
   179
420
  2234388
370
     9
100
AcDbVertex
100
AcDb2dVertex
 10
118.3149255926459
 20
-135.9717032993404
 30
0.0
  0
SEQEND
  5
CF
330
CC
100
AcDbEntity
  8
_U+30EC_U+30A4_U+30E4_U+30FC 1
 62
   179
420
  2234388
370
     9
  0
POLYLINE
  5
D0
330
1F
100
AcDbEntity
  8
_U+30EC_U+30A4_U+30E4_U+30FC 1
 62
   179
420
  2234388
370
     9
100
AcDb2dPolyline
 66
     1
 10
0.0
 20
0.0
 30
0.0
  0
VERTEX
  5
D1
330
D0
100
AcDbEntity
  8
_U+30EC_U+30A4_U+30E4_U+30FC 1
 62
   179
420
  2234388
370
     9
100
AcDbVertex
100
AcDb2dVertex
 10
64.31459752586458
 20
-134.3759482997393
 30
0.0
  0
VERTEX
  5
D2
330
D0
100
AcDbEntity
  8
_U+30EC_U+30A4_U+30E4_U+30FC 1
 62
   179
420
  2234388
370
     9
100
AcDbVertex
100
AcDb2dVertex
 10
64.31459752586458
 20
-136.5718488547457
 30
0.0
  0
SEQEND
  5
D3
330
D0
100
AcDbEntity
  8
_U+30EC_U+30A4_U+30E4_U+30FC 1
 62
   179
420
  2234388
370
     9
  0
POLYLINE
  5
D4
330
1F
100
AcDbEntity
  8
_U+30EC_U+30A4_U+30E4_U+30FC 1
 62
   179
420
  2234388
370
     9
100
AcDb2dPolyline
 66
     1
 10
0.0
 20
0.0
 30
0.0
  0
VERTEX
  5
D5
330
D4
100
AcDbEntity
  8
_U+30EC_U+30A4_U+30E4_U+30FC 1
 62
   179
420
  2234388
370
     9
100
AcDbVertex
100
AcDb2dVertex
 10
118.3149255926459
 20
-134.3759482997393
 30
0.0
  0
VERTEX
  5
D6
330
D4
100
AcDbEntity
  8
_U+30EC_U+30A4_U+30E4_U+30FC 1
 62
   179
420
  2234388
370
     9
100
AcDbVertex
100
AcDb2dVertex
 10
118.3149255926459
 20
-136.5718488547457
 30
0.0
  0
SEQEND
  5
D7
330
D4
100
AcDbEntity
  8
_U+30EC_U+30A4_U+30E4_U+30FC 1
 62
   179
420
  2234388
370
     9
  0
INSERT
  5
D9
330
1F
100
AcDbEntity
  8
_U+30EC_U+30A4_U+30E4_U+30FC 1
100
AcDbBlockReference
  2
block 2
 10
0.0
 20
0.0
 30
0.0
  0
POLYLINE
  5
E2
330
1F
100
AcDbEntity
  8
_U+30EC_U+30A4_U+30E4_U+30FC 1
 62
   179
420
  2234388
370
     9
100
AcDb2dPolyline
 66
     1
 10
0.0
 20
0.0
 30
0.0
  0
VERTEX
  5
E3
330
E2
100
AcDbEntity
  8
_U+30EC_U+30A4_U+30E4_U+30FC 1
 62
   179
420
  2234388
370
     9
100
AcDbVertex
100
AcDb2dVertex
 10
64.31459752586458
 20
-135.9717032993404
 30
0.0
  0
VERTEX
  5
E4
330
E2
100
AcDbEntity
  8
_U+30EC_U+30A4_U+30E4_U+30FC 1
 62
   179
420
  2234388
370
     9
100
AcDbVertex
100
AcDb2dVertex
 10
54.7146677707792
 20
-135.9717032993404
 30
0.0
  0
SEQEND
  5
E5
330
E2
100
AcDbEntity
  8
_U+30EC_U+30A4_U+30E4_U+30FC 1
 62
   179
420
  2234388
370
     9
  0
POLYLINE
  5
E6
330
1F
100
AcDbEntity
  8
_U+30EC_U+30A4_U+30E4_U+30FC 1
 62
   179
420
  2234388
370
     9
100
AcDb2dPolyline
 66
     1
 10
0.0
 20
0.0
 30
0.0
  0
VERTEX
  5
E7
330
E6
100
AcDbEntity
  8
_U+30EC_U+30A4_U+30E4_U+30FC 1
 62
   179
420
  2234388
370
     9
100
AcDbVertex
100
AcDb2dVertex
 10
54.7146677707792
 20
-128.8858441344452
 30
0.0
  0
VERTEX
  5
E8
330
E6
100
AcDbEntity
  8
_U+30EC_U+30A4_U+30E4_U+30FC 1
 62
   179
420
  2234388
370
     9
100
AcDbVertex
100
AcDb2dVertex
 10
54.7146677707792
 20
-136.5718488547457
 30
0.0
  0
SEQEND
  5
E9
330
E6
100
AcDbEntity
  8
_U+30EC_U+30A4_U+30E4_U+30FC 1
 62
   179
420
  2234388
370
     9
  0
INSERT
  5
EB
330
1F
100
AcDbEntity
  8
_U+30EC_U+30A4_U+30E4_U+30FC 1
100
AcDbBlockReference
  2
block 3
 10
0.0
 20
0.0
 30
0.0
  0
POLYLINE
  5
F3
330
1F
100
AcDbEntity
  8
_U+30EC_U+30A4_U+30E4_U+30FC 1
 62
   179
420
  2234388
370
     9
100
AcDb2dPolyline
 66
     1
 10
0.0
 20
0.0
 30
0.0
  0
VERTEX
  5
F4
330
F3
100
AcDbEntity
  8
_U+30EC_U+30A4_U+30E4_U+30FC 1
 62
   179
420
  2234388
370
     9
100
AcDbVertex
100
AcDb2dVertex
 10
52.31465005423097
 20
-127.1300691348842
 30
0.0
  0
VERTEX
  5
F5
330
F3
100
AcDbEntity
  8
_U+30EC_U+30A4_U+30E4_U+30FC 1
 62
   179
420
  2234388
370
     9
100
AcDbVertex
100
AcDb2dVertex
 10
52.31465005423097
 20
-133.5718619110514
 30
0.0
  0
SEQEND
  5
F6
330
F3
100
AcDbEntity
  8
_U+30EC_U+30A4_U+30E4_U+30FC 1
 62
   179
420
  2234388
370
     9
  0
POLYLINE
  5
F7
330
1F
100
AcDbEntity
  8
_U+30EC_U+30A4_U+30E4_U+30FC 1
 62
   179
420
  2234388
370
     9
100
AcDb2dPolyline
 66
     1
 10
0.0
 20
0.0
 30
0.0
  0
VERTEX
  5
F8
330
F7
100
AcDbEntity
  8
_U+30EC_U+30A4_U+30E4_U+30FC 1
 62
   179
420
  2234388
370
     9
100
AcDbVertex
100
AcDb2dVertex
 10
53.4007116931899
 20
-127.1300691348842
 30
0.0
  0
VERTEX
  5
F9
330
F7
100
AcDbEntity
  8
_U+30EC_U+30A4_U+30E4_U+30FC 1
 62
   179
420
  2234388
370
     9
100
AcDbVertex
100
AcDb2dVertex
 10
51.7146809028708
 20
-127.1300691348842
 30
0.0
  0
SEQEND
  5
FA
330
F7
100
AcDbEntity
  8
_U+30EC_U+30A4_U+30E4_U+30FC 1
 62
   179
420
  2234388
370
     9
  0
POLYLINE
  5
FB
330
1F
100
AcDbEntity
  8
_U+30EC_U+30A4_U+30E4_U+30FC 1
 62
   179
420
  2234388
370
     9
100
AcDb2dPolyline
 66
     1
 10
0.0
 20
0.0
 30
0.0
  0
VERTEX
  5
FC
330
FB
100
AcDbEntity
  8
_U+30EC_U+30A4_U+30E4_U+30FC 1
 62
   179
420
  2234388
370
     9
100
AcDbVertex
100
AcDb2dVertex
 10
63.51068754637404
 20
-133.5718619110514
 30
0.0
  0
VERTEX
  5
FD
330
FB
100
AcDbEntity
  8
_U+30EC_U+30A4_U+30E4_U+30FC 1
 62
   179
420
  2234388
370
     9
100
AcDbVertex
100
AcDb2dVertex
 10
51.7146809028708
 20
-133.5718619110514
 30
0.0
  0
SEQEND
  5
FE
330
FB
100
AcDbEntity
  8
_U+30EC_U+30A4_U+30E4_U+30FC 1
 62
   179
420
  2234388
370
     9
  0
INSERT
  5
100
330
1F
100
AcDbEntity
  8
_U+30EC_U+30A4_U+30E4_U+30FC 1
100
AcDbBlockReference
  2
block 4
 10
0.0
 20
0.0
 30
0.0
  0
POLYLINE
  5
108
330
1F
100
AcDbEntity
  8
_U+30EC_U+30A4_U+30E4_U+30FC 1
 62
   179
420
  2234388
370
     9
100
AcDb2dPolyline
 66
     1
 10
0.0
 20
0.0
 30
0.0
  0
VERTEX
  5
109
330
108
100
AcDbEntity
  8
_U+30EC_U+30A4_U+30E4_U+30FC 1
 62
   179
420
  2234388
370
     9
100
AcDbVertex
100
AcDb2dVertex
 10
124.3148993284627
 20
-135.9717032993404
 30
0.0
  0
VERTEX
  5
10A
330
108
100
AcDbEntity
  8
_U+30EC_U+30A4_U+30E4_U+30FC 1
 62
   179
420
  2234388
370
     9
100
AcDbVertex
100
AcDb2dVertex
 10
118.3149255926459
 20
-135.9717032993404
 30
0.0
  0
SEQEND
  5
10B
330
108
100
AcDbEntity
  8
_U+30EC_U+30A4_U+30E4_U+30FC 1
 62
   179
420
  2234388
370
     9
  0
POLYLINE
  5
10C
330
1F
100
AcDbEntity
  8
_U+30EC_U+30A4_U+30E4_U+30FC 1
 62
   179
420
  2234388
370
     9
100
AcDb2dPolyline
 66
     1
 10
0.0
 20
0.0
 30
0.0
  0
VERTEX
  5
10D
330
10C
100
AcDbEntity
  8
_U+30EC_U+30A4_U+30E4_U+30FC 1
 62
   179
420
  2234388
370
     9
100
AcDbVertex
100
AcDb2dVertex
 10
124.3148993284627
 20
-134.3759482997393
 30
0.0
  0
VERTEX
  5
10E
330
10C
100
AcDbEntity
  8
_U+30EC_U+30A4_U+30E4_U+30FC 1
 62
   179
420
  2234388
370
     9
100
AcDbVertex
100
AcDb2dVertex
 10
124.3148993284627
 20
-136.5718488547457
 30
0.0
  0
SEQEND
  5
10F
330
10C
100
AcDbEntity
  8
_U+30EC_U+30A4_U+30E4_U+30FC 1
 62
   179
420
  2234388
370
     9
  0
POLYLINE
  5
110
330
1F
100
AcDbEntity
  8
_U+30EC_U+30A4_U+30E4_U+30FC 1
 62
   179
420
  2234388
370
     9
100
AcDb2dPolyline
 66
     1
 10
0.0
 20
0.0
 30
0.0
  0
VERTEX
  5
111
330
110
100
AcDbEntity
  8
_U+30EC_U+30A4_U+30E4_U+30FC 1
 62
   179
420
  2234388
370
     9
100
AcDbVertex
100
AcDb2dVertex
 10
118.3149255926459
 20
-134.3759482997393
 30
0.0
  0
VERTEX
  5
112
330
110
100
AcDbEntity
  8
_U+30EC_U+30A4_U+30E4_U+30FC 1
 62
   179
420
  2234388
370
     9
100
AcDbVertex
100
AcDb2dVertex
 10
118.3149255926459
 20
-136.5718488547457
 30
0.0
  0
SEQEND
  5
113
330
110
100
AcDbEntity
  8
_U+30EC_U+30A4_U+30E4_U+30FC 1
 62
   179
420
  2234388
370
     9
  0
INSERT
  5
115
330
1F
100
AcDbEntity
  8
_U+30EC_U+30A4_U+30E4_U+30FC 1
100
AcDbBlockReference
  2
block 5
 10
0.0
 20
0.0
 30
0.0
  0
POLYLINE
  5
11D
330
1F
100
AcDbEntity
  8
_U+30EC_U+30A4_U+30E4_U+30FC 1
 62
   179
420
  2234388
370
     9
100
AcDb2dPolyline
 66
     1
 10
0.0
 20
0.0
 30
0.0
  0
VERTEX
  5
11E
330
11D
100
AcDbEntity
  8
_U+30EC_U+30A4_U+30E4_U+30FC 1
 62
   179
420
  2234388
370
     9
100
AcDbVertex
100
AcDb2dVertex
 10
130.0144475163884
 20
-127.151764968212
 30
0.0
  0
VERTEX
  5
11F
330
11D
100
AcDbEntity
  8
_U+30EC_U+30A4_U+30E4_U+30FC 1
 62
   179
420
  2234388
370
     9
100
AcDbVertex
100
AcDb2dVertex
 10
130.0144475163884
 20
-133.1515624667121
 30
0.0
  0
SEQEND
  5
120
330
11D
100
AcDbEntity
  8
_U+30EC_U+30A4_U+30E4_U+30FC 1
 62
   179
420
  2234388
370
     9
  0
POLYLINE
  5
121
330
1F
100
AcDbEntity
  8
_U+30EC_U+30A4_U+30E4_U+30FC 1
 62
   179
420
  2234388
370
     9
100
AcDb2dPolyline
 66
     1
 10
0.0
 20
0.0
 30
0.0
  0
VERTEX
  5
122
330
121
100
AcDbEntity
  8
_U+30EC_U+30A4_U+30E4_U+30FC 1
 62
   179
420
  2234388
370
     9
100
AcDbVertex
100
AcDb2dVertex
 10
128.9285622663139
 20
-127.151764968212
 30
0.0
  0
VERTEX
  5
123
330
121
100
AcDbEntity
  8
_U+30EC_U+30A4_U+30E4_U+30FC 1
 62
   179
420
  2234388
370
     9
100
AcDbVertex
100
AcDb2dVertex
 10
130.614593056633
 20
-127.151764968212
 30
0.0
  0
SEQEND
  5
124
330
121
100
AcDbEntity
  8
_U+30EC_U+30A4_U+30E4_U+30FC 1
 62
   179
420
  2234388
370
     9
  0
POLYLINE
  5
125
330
1F
100
AcDbEntity
  8
_U+30EC_U+30A4_U+30E4_U+30FC 1
 62
   179
420
  2234388
370
    25
100
AcDb2dPolyline
 66
     1
 10
0.0
 20
0.0
 30
0.0
  0
VERTEX
  5
126
330
125
100
AcDbEntity
  8
_U+30EC_U+30A4_U+30E4_U+30FC 1
 62
   179
420
  2234388
370
    25
100
AcDbVertex
100
AcDb2dVertex
 10
131.5385533108386
 20
-133.1515624667121
 30
0.0
  0
VERTEX
  5
127
330
125
100
AcDbEntity
  8
_U+30EC_U+30A4_U+30E4_U+30FC 1
 62
   179
420
  2234388
370
    25
100
AcDbVertex
100
AcDb2dVertex
 10
131.2147385968776
 20
-133.1515624667121
 30
0.0
  0
SEQEND
  5
128
330
125
100
AcDbEntity
  8
_U+30EC_U+30A4_U+30E4_U+30FC 1
 62
   179
420
  2234388
370
    25
  0
INSERT
  5
12A
330
1F
100
AcDbEntity
  8
_U+30EC_U+30A4_U+30E4_U+30FC 1
100
AcDbBlockReference
  2
block 6
 10
0.0
 20
0.0
 30
0.0
  0
POLYLINE
  5
132
330
1F
100
AcDbEntity
  8
_U+30EC_U+30A4_U+30E4_U+30FC 1
 62
   179
420
  2234388
370
     9
100
AcDb2dPolyline
 66
     1
 10
0.0
 20
0.0
 30
0.0
  0
VERTEX
  5
133
330
132
100
AcDbEntity
  8
_U+30EC_U+30A4_U+30E4_U+30FC 1
 62
   179
420
  2234388
370
     9
100
AcDbVertex
100
AcDb2dVertex
 10
132.4149943995898
 20
-133.1515624667121
 30
0.0
  0
VERTEX
  5
134
330
132
100
AcDbEntity
  8
_U+30EC_U+30A4_U+30E4_U+30FC 1
 62
   179
420
  2234388
370
     9
100
AcDbVertex
100
AcDb2dVertex
 10
132.4149943995898
 20
-125.3516810797731
 30
0.0
  0
SEQEND
  5
135
330
132
100
AcDbEntity
  8
_U+30EC_U+30A4_U+30E4_U+30FC 1
 62
   179
420
  2234388
370
     9
  0
POLYLINE
  5
136
330
1F
100
AcDbEntity
  8
_U+30EC_U+30A4_U+30E4_U+30FC 1
 62
   179
420
  2234388
370
     9
100
AcDb2dPolyline
 66
     1
 10
0.0
 20
0.0
 30
0.0
  0
VERTEX
  5
137
330
136
100
AcDbEntity
  8
_U+30EC_U+30A4_U+30E4_U+30FC 1
 62
   179
420
  2234388
370
     9
100
AcDbVertex
100
AcDb2dVertex
 10
127.6359492437357
 20
-125.3516810797731
 30
0.0
  0
VERTEX
  5
138
330
136
100
AcDbEntity
  8
_U+30EC_U+30A4_U+30E4_U+30FC 1
 62
   179
420
  2234388
370
     9
100
AcDbVertex
100
AcDb2dVertex
 10
133.0151399398344
 20
-125.3516810797731
 30
0.0
  0
SEQEND
  5
139
330
136
100
AcDbEntity
  8
_U+30EC_U+30A4_U+30E4_U+30FC 1
 62
   179
420
  2234388
370
     9
  0
INSERT
  5
13B
330
1F
100
AcDbEntity
  8
_U+30EC_U+30A4_U+30E4_U+30FC 1
100
AcDbBlockReference
  2
block 7
 10
0.0
 20
0.0
 30
0.0
  0
POLYLINE
  5
142
330
1F
100
AcDbEntity
  8
_U+30EC_U+30A4_U+30E4_U+30FC 1
 62
   179
420
  2234388
370
     9
100
AcDb2dPolyline
 66
     1
 10
0.0
 20
0.0
 30
0.0
  0
VERTEX
  5
143
330
142
100
AcDbEntity
  8
_U+30EC_U+30A4_U+30E4_U+30FC 1
 62
   179
420
  2234388
370
     9
100
AcDbVertex
100
AcDb2dVertex
 10
113.8149305271018
 20
-122.9518396914844
 30
0.0
  0
VERTEX
  5
144
330
142
100
AcDbEntity
  8
_U+30EC_U+30A4_U+30E4_U+30FC 1
 62
   179
420
  2234388
370
     9
100
AcDbVertex
100
AcDb2dVertex
 10
118.6146455849994
 20
-122.9518396914844
 30
0.0
  0
SEQEND
  5
145
330
142
100
AcDbEntity
  8
_U+30EC_U+30A4_U+30E4_U+30FC 1
 62
   179
420
  2234388
370
     9
  0
POLYLINE
  5
146
330
1F
100
AcDbEntity
  8
_U+30EC_U+30A4_U+30E4_U+30FC 1
 62
   179
420
  2234388
370
     9
100
AcDb2dPolyline
 66
     1
 10
0.0
 20
0.0
 30
0.0
  0
VERTEX
  5
147
330
146
100
AcDbEntity
  8
_U+30EC_U+30A4_U+30E4_U+30FC 1
 62
   179
420
  2234388
370
     9
100
AcDbVertex
100
AcDb2dVertex
 10
113.8149305271018
 20
-125.8378088574295
 30
0.0
  0
VERTEX
  5
148
330
146
100
AcDbEntity
  8
_U+30EC_U+30A4_U+30E4_U+30FC 1
 62
   179
420
  2234388
370
     9
100
AcDbVertex
100
AcDb2dVertex
 10
113.8149305271018
 20
-122.3518705249676
 30
0.0
  0
SEQEND
  5
149
330
146
100
AcDbEntity
  8
_U+30EC_U+30A4_U+30E4_U+30FC 1
 62
   179
420
  2234388
370
     9
  0
POLYLINE
  5
14A
330
1F
100
AcDbEntity
  8
_U+30EC_U+30A4_U+30E4_U+30FC 1
 62
   179
420
  2234388
370
     9
100
AcDb2dPolyline
 66
     1
 10
0.0
 20
0.0
 30
0.0
  0
VERTEX
  5
14B
330
14A
100
AcDbEntity
  8
_U+30EC_U+30A4_U+30E4_U+30FC 1
 62
   179
420
  2234388
370
     9
100
AcDbVertex
100
AcDb2dVertex
 10
118.6146455849994
 20
-125.0841696909512
 30
0.0
  0
VERTEX
  5
14C
330
14A
100
AcDbEntity
  8
_U+30EC_U+30A4_U+30E4_U+30FC 1
 62
   179
420
  2234388
370
     9
100
AcDbVertex
100
AcDb2dVertex
 10
118.6146455849994
 20
-122.3518705249676
 30
0.0
  0
SEQEND
  5
14D
330
14A
100
AcDbEntity
  8
_U+30EC_U+30A4_U+30E4_U+30FC 1
 62
   179
420
  2234388
370
     9
  0
INSERT
  5
14F
330
1F
100
AcDbEntity
  8
_U+30EC_U+30A4_U+30E4_U+30FC 1
100
AcDbBlockReference
  2
block 8
 10
0.0
 20
0.0
 30
0.0
  0
POLYLINE
  5
156
330
1F
100
AcDbEntity
  8
_U+30EC_U+30A4_U+30E4_U+30FC 1
 62
   179
420
  2234388
370
     9
100
AcDb2dPolyline
 66
     1
 10
0.0
 20
0.0
 30
0.0
  0
VERTEX
  5
157
330
156
100
AcDbEntity
  8
_U+30EC_U+30A4_U+30E4_U+30FC 1
 62
   179
420
  2234388
370
     9
100
AcDbVertex
100
AcDb2dVertex
 10
118.6146455849994
 20
-122.9518396914844
 30
0.0
  0
VERTEX
  5
158
330
156
100
AcDbEntity
  8
_U+30EC_U+30A4_U+30E4_U+30FC 1
 62
   179
420
  2234388
370
     9
100
AcDbVertex
100
AcDb2dVertex
 10
127.6146061887246
 20
-122.9518396914844
 30
0.0
  0
SEQEND
  5
159
330
156
100
AcDbEntity
  8
_U+30EC_U+30A4_U+30E4_U+30FC 1
 62
   179
420
  2234388
370
     9
  0
POLYLINE
  5
15A
330
1F
100
AcDbEntity
  8
_U+30EC_U+30A4_U+30E4_U+30FC 1
 62
   179
420
  2234388
370
     9
100
AcDb2dPolyline
 66
     1
 10
0.0
 20
0.0
 30
0.0
  0
VERTEX
  5
15B
330
15A
100
AcDbEntity
  8
_U+30EC_U+30A4_U+30E4_U+30FC 1
 62
   179
420
  2234388
370
     9
100
AcDbVertex
100
AcDb2dVertex
 10
127.6146061887246
 20
-125.4178269130899
 30
0.0
  0
VERTEX
  5
15C
330
15A
100
AcDbEntity
  8
_U+30EC_U+30A4_U+30E4_U+30FC 1
 62
   179
420
  2234388
370
     9
100
AcDbVertex
100
AcDb2dVertex
 10
127.6146061887246
 20
-122.3518705249676
 30
0.0
  0
SEQEND
  5
15D
330
15A
100
AcDbEntity
  8
_U+30EC_U+30A4_U+30E4_U+30FC 1
 62
   179
420
  2234388
370
     9
  0
INSERT
  5
15F
330
1F
100
AcDbEntity
  8
_U+30EC_U+30A4_U+30E4_U+30FC 1
100
AcDbBlockReference
  2
block 9
 10
0.0
 20
0.0
 30
0.0
  0
ENDSEC
  0
SECTION
  2
OBJECTS
  0
DICTIONARY
  5
C
330
0
100
AcDbDictionary
281
     1
  3
ACAD_GROUP
350
D
  3
ACAD_LAYOUT
350
1A
  3
ACAD_MATERIAL
350
3B
  3
ACAD_MLEADERSTYLE
350
167
  3
ACAD_MLINESTYLE
350
17
  3
ACAD_PLOTSETTINGS
350
19
  3
ACAD_PLOTSTYLENAME
350
E
  3
ACAD_TABLESTYLE
350
166
  3
ACAD_VISUALSTYLE
350
2A
  0
SUN
  5
3F
330
29
100
AcDbSun
 90
        1
290
     0
 63
     7
421
 16777215
 40
1.0
291
     1
 91
  2455826
 92
 54000000
292
     0
 70
     2
 71
   256
280
     1
  0
DICTIONARY
  5
D
102
{ACAD_REACTORS
330
C
102
}
330
C
100
AcDbDictionary
281
     1
  0
DICTIONARY
  5
1A
102
{ACAD_REACTORS
330
C
102
}
330
C
100
AcDbDictionary
281
     1
  3
Layout1
350
1E
  3
Layout2
350
26
  3
Model
350
22
  0
DICTIONARY
  5
3B
102
{ACAD_REACTORS
330
C
102
}
330
C
100
AcDbDictionary
281
     1
  3
ByBlock
350
3D
  3
ByLayer
350
3C
  3
Global
350
3E
  0
DICTIONARY
  5
167
102
{ACAD_REACTORS
330
C
102
}
330
C
100
AcDbDictionary
281
     1
  0
DICTIONARY
  5
17
102
{ACAD_REACTORS
330
C
102
}
330
C
100
AcDbDictionary
281
     1
  3
Standard
350
18
  0
DICTIONARY
  5
19
102
{ACAD_REACTORS
330
C
102
}
330
C
100
AcDbDictionary
281
     1
  0
ACDBDICTIONARYWDFLT
  5
E
102
{ACAD_REACTORS
330
C
102
}
330
C
100
AcDbDictionary
281
     1
  3
Normal
350
F
100
AcDbDictionaryWithDefault
340
F
  0
DICTIONARY
  5
166
102
{ACAD_REACTORS
330
C
102
}
330
C
100
AcDbDictionary
281
     1
  0
DICTIONARY
  5
2A
102
{ACAD_REACTORS
330
C
102
}
330
C
100
AcDbDictionary
281
     1
  3
2dWireframe
350
2F
  3
3D Hidden
350
31
  3
3dWireframe
350
30
  3
Basic
350
32
  3
Brighten
350
36
  3
ColorChange
350
3A
  3
Conceptual
350
34
  3
Dim
350
35
  3
Facepattern
350
39
  3
Flat
350
2B
  3
FlatWithEdges
350
2C
  3
Gouraud
350
2D
  3
GouraudWithEdges
350
2E
  3
Linepattern
350
38
  3
Realistic
350
33
  3
Thicken
350
37
  0
LAYOUT
  5
1E
102
{ACAD_REACTORS
330
1A
102
}
330
1A
100
AcDbPlotSettings
  1

  2
none_device
  4

  6

 40
0.0
 41
0.0
 42
0.0
 43
0.0
 44
0.0
 45
0.0
 46
0.0
 47
0.0
 48
0.0
 49
0.0
140
0.0
141
0.0
142
1.0
143
1.0
 70
   688
 72
     0
 73
     0
 74
     5
  7

 75
    16
 76
     0
 77
     2
 78
   300
147
1.0
148
0.0
149
0.0
100
AcDbLayout
  1
Layout1
 70
     1
 71
     1
 10
0.0
 20
0.0
 11
12.0
 21
9.0
 12
0.0
 22
0.0
 32
0.0
 14
1.000000000000000E+20
 24
1.000000000000000E+20
 34
1.000000000000000E+20
 15
-1.000000000000000E+20
 25
-1.000000000000000E+20
 35
-1.000000000000000E+20
146
0.0
 13
0.0
 23
0.0
 33
0.0
 16
1.0
 26
0.0
 36
0.0
 17
0.0
 27
1.0
 37
0.0
 76
     0
330
1B
  0
LAYOUT
  5
26
102
{ACAD_REACTORS
330
1A
102
}
330
1A
100
AcDbPlotSettings
  1

  2
none_device
  4

  6

 40
0.0
 41
0.0
 42
0.0
 43
0.0
 44
0.0
 45
0.0
 46
0.0
 47
0.0
 48
0.0
 49
0.0
140
0.0
141
0.0
142
1.0
143
1.0
 70
   688
 72
     0
 73
     0
 74
     5
  7

 75
    16
 76
     0
 77
     2
 78
   300
147
1.0
148
0.0
149
0.0
100
AcDbLayout
  1
Layout2
 70
     1
 71
     2
 10
0.0
 20
0.0
 11
0.0
 21
0.0
 12
0.0
 22
0.0
 32
0.0
 14
0.0
 24
0.0
 34
0.0
 15
0.0
 25
0.0
 35
0.0
146
0.0
 13
0.0
 23
0.0
 33
0.0
 16
1.0
 26
0.0
 36
0.0
 17
0.0
 27
1.0
 37
0.0
 76
     0
330
23
  0
LAYOUT
  5
22
102
{ACAD_REACTORS
330
1A
102
}
330
1A
100
AcDbPlotSettings
  1

  2
none_device
  4

  6

 40
0.0
 41
0.0
 42
0.0
 43
0.0
 44
0.0
 45
0.0
 46
0.0
 47
0.0
 48
0.0
 49
0.0
140
0.0
141
0.0
142
1.0
143
1.0
 70
  1712
 72
     0
 73
     0
 74
     0
  7

 75
     0
 76
     0
 77
     2
 78
   300
147
1.0
148
0.0
149
0.0
100
AcDbLayout
  1
Model
 70
     1
 71
     0
 10
0.0
 20
0.0
 11
12.0
 21
9.0
 12
0.0
 22
0.0
 32
0.0
 14
1.000000000000000E+20
 24
1.000000000000000E+20
 34
1.000000000000000E+20
 15
-1.000000000000000E+20
 25
-1.000000000000000E+20
 35
-1.000000000000000E+20
146
0.0
 13
0.0
 23
0.0
 33
0.0
 16
1.0
 26
0.0
 36
0.0
 17
0.0
 27
1.0
 37
0.0
 76
     0
330
1F
331
29
  0
MATERIAL
  5
3D
102
{ACAD_REACTORS
330
3B
102
}
330
3B
100
AcDbMaterial
  1
ByBlock
 72
     1
 94
      127
  0
MATERIAL
  5
3C
102
{ACAD_REACTORS
330
3B
102
}
330
3B
100
AcDbMaterial
  1
ByLayer
 72
     1
 94
      127
  0
MATERIAL
  5
3E
102
{ACAD_REACTORS
330
3B
102
}
330
3B
100
AcDbMaterial
  1
Global
 72
     1
 94
      127
  0
MLINESTYLE
  5
18
102
{ACAD_REACTORS
330
17
102
}
330
17
100
AcDbMlineStyle
  2
Standard
 70
     0
  3

 62
   256
 51
90.0
 52
90.0
 71
     2
 49
0.5
 62
   256
  6
BYLAYER
 49
-0.5
 62
   256
  6
BYLAYER
  0
ACDBPLACEHOLDER
  5
F
102
{ACAD_REACTORS
330
E
102
}
330
E
  0
VISUALSTYLE
  5
2F
102
{ACAD_REACTORS
330
2A
102
}
330
2A
100
AcDbVisualStyle
  2
2dWireframe
 70
     4
177
     2
291
     0
 71
     0
176
     1
 72
     2
176
     1
 73
     0
176
     1
 90
        0
176
     1
 40
-0.6
176
     1
 41
-30.0
176
     1
 62
     5
 63
     7
421
 16777215
176
     1
 74
     1
176
     1
 91
        4
176
     1
 64
     7
176
     1
 65
   257
176
     1
 75
     1
176
     1
175
     1
176
     1
 42
1.0
176
     1
 92
        0
176
     1
 66
   257
176
     1
 43
1.0
176
     1
 76
     1
176
     1
 77
     6
176
     1
 78
     2
176
     1
 67
     7
176
     1
 79
     5
176
     1
170
     0
176
     1
171
     0
176
     1
290
     0
176
     1
 93
        1
176
     1
 44
0.0
176
     1
173
     0
176
     1
  0
VISUALSTYLE
  5
31
102
{ACAD_REACTORS
330
2A
102
}
330
2A
100
AcDbVisualStyle
  2
3D Hidden
 70
     6
177
     2
291
     0
 71
     1
176
     1
 72
     2
176
     1
 73
     2
176
     1
 90
        0
176
     1
 40
-0.6
176
     1
 41
-30.0
176
     1
 62
     5
 63
     7
421
 16777215
176
     1
 74
     2
176
     1
 91
        2
176
     1
 64
     7
176
     1
 65
   257
176
     1
 75
     2
176
     1
175
     1
176
     1
 42
40.0
176
     1
 92
        0
176
     1
 66
   257
176
     1
 43
1.0
176
     1
 76
     1
176
     1
 77
     6
176
     1
 78
     2
176
     1
 67
     7
176
     1
 79
     3
176
     1
170
     0
176
     1
171
     0
176
     1
290
     0
176
     1
 93
        1
176
     1
 44
0.0
176
     1
173
     0
176
     1
  0
VISUALSTYLE
  5
30
102
{ACAD_REACTORS
330
2A
102
}
330
2A
100
AcDbVisualStyle
  2
3dWireframe
 70
     5
177
     2
291
     0
 71
     0
176
     1
 72
     2
176
     1
 73
     0
176
     1
 90
        0
176
     1
 40
-0.6
176
     1
 41
-30.0
176
     1
 62
     5
 63
     7
421
 16777215
176
     1
 74
     1
176
     1
 91
        4
176
     1
 64
     7
176
     1
 65
   257
176
     1
 75
     1
176
     1
175
     1
176
     1
 42
1.0
176
     1
 92
        0
176
     1
 66
   257
176
     1
 43
1.0
176
     1
 76
     1
176
     1
 77
     6
176
     1
 78
     2
176
     1
 67
     7
176
     1
 79
     5
176
     1
170
     0
176
     1
171
     0
176
     1
290
     0
176
     1
 93
        1
176
     1
 44
0.0
176
     1
173
     0
176
     1
  0
VISUALSTYLE
  5
32
102
{ACAD_REACTORS
330
2A
102
}
330
2A
100
AcDbVisualStyle
  2
Basic
 70
     7
177
     2
291
     1
 71
     1
176
     1
 72
     0
176
     1
 73
     1
176
     1
 90
        0
176
     1
 40
-0.6
176
     1
 41
-30.0
176
     1
 62
     5
 63
     7
421
 16777215
176
     1
 74
     0
176
     1
 91
        4
176
     1
 64
     7
176
     1
 65
   257
176
     1
 75
     1
176
     1
175
     1
176
     1
 42
1.0
176
     1
 92
        8
176
     1
 66
     7
176
     1
 43
1.0
176
     1
 76
     1
176
     1
 77
     6
176
     1
 78
     2
176
     1
 67
     7
176
     1
 79
     5
176
     1
170
     0
176
     1
171
     0
176
     1
290
     0
176
     1
 93
        1
176
     1
 44
0.0
176
     1
173
     0
176
     1
  0
VISUALSTYLE
  5
36
102
{ACAD_REACTORS
330
2A
102
}
330
2A
100
AcDbVisualStyle
  2
Brighten
 70
    12
177
     2
291
     1
 71
     2
176
     1
 72
     2
176
     1
 73
     0
176
     1
 90
        0
176
     1
 40
-0.6
176
     1
 41
-30.0
176
     1
 62
     5
 63
     7
421
 16777215
176
     1
 74
     1
176
     1
 91
        4
176
     1
 64
     7
176
     1
 65
   257
176
     1
 75
     1
176
     1
175
     1
176
     1
 42
1.0
176
     1
 92
        8
176
     1
 66
     7
176
     1
 43
1.0
176
     1
 76
     1
176
     1
 77
     6
176
     1
 78
     2
176
     1
 67
     7
176
     1
 79
     5
176
     1
170
     0
176
     1
171
     0
176
     1
290
     0
176
     1
 93
        1
176
     1
 44
50.0
176
     1
173
     0
176
     1
  0
VISUALSTYLE
  5
3A
102
{ACAD_REACTORS
330
2A
102
}
330
2A
100
AcDbVisualStyle
  2
ColorChange
 70
    16
177
     2
291
     1
 71
     2
176
     1
 72
     2
176
     1
 73
     3
176
     1
 90
        0
176
     1
 40
-0.6
176
     1
 41
-30.0
176
     1
 62
     5
 63
     8
421
  8421504
176
     1
 74
     1
176
     1
 91
        4
176
     1
 64
     7
176
     1
 65
   257
176
     1
 75
     1
176
     1
175
     1
176
     1
 42
1.0
176
     1
 92
        8
176
     1
 66
     8
424
  8421504
176
     1
 43
1.0
176
     1
 76
     1
176
     1
 77
     6
176
     1
 78
     2
176
     1
 67
     7
176
     1
 79
     5
176
     1
170
     0
176
     1
171
     0
176
     1
290
     0
176
     1
 93
        1
176
     1
 44
0.0
176
     1
173
     0
176
     1
  0
VISUALSTYLE
  5
34
102
{ACAD_REACTORS
330
2A
102
}
330
2A
100
AcDbVisualStyle
  2
Conceptual
 70
     9
177
     2
291
     0
 71
     3
176
     1
 72
     2
176
     1
 73
     0
176
     1
 90
        0
176
     1
 40
-0.6
176
     1
 41
-30.0
176
     1
 62
     5
 63
     7
421
 16777215
176
     1
 74
     2
176
     1
 91
        2
176
     1
 64
     7
176
     1
 65
   257
176
     1
 75
     1
176
     1
175
     1
176
     1
 42
40.0
176
     1
 92
        8
176
     1
 66
     7
176
     1
 43
1.0
176
     1
 76
     1
176
     1
 77
     6
176
     1
 78
     2
176
     1
 67
     7
176
     1
 79
     3
176
     1
170
     0
176
     1
171
     0
176
     1
290
     0
176
     1
 93
        1
176
     1
 44
0.0
176
     1
173
     0
176
     1
  0
VISUALSTYLE
  5
35
102
{ACAD_REACTORS
330
2A
102
}
330
2A
100
AcDbVisualStyle
  2
Dim
 70
    11
177
     2
291
     1
 71
     2
176
     1
 72
     2
176
     1
 73
     0
176
     1
 90
        0
176
     1
 40
-0.6
176
     1
 41
-30.0
176
     1
 62
     5
 63
     7
421
 16777215
176
     1
 74
     1
176
     1
 91
        4
176
     1
 64
     7
176
     1
 65
   257
176
     1
 75
     1
176
     1
175
     1
176
     1
 42
1.0
176
     1
 92
        8
176
     1
 66
     7
176
     1
 43
1.0
176
     1
 76
     1
176
     1
 77
     6
176
     1
 78
     2
176
     1
 67
     7
176
     1
 79
     5
176
     1
170
     0
176
     1
171
     0
176
     1
290
     0
176
     1
 93
        1
176
     1
 44
-50.0
176
     1
173
     0
176
     1
  0
VISUALSTYLE
  5
39
102
{ACAD_REACTORS
330
2A
102
}
330
2A
100
AcDbVisualStyle
  2
Facepattern
 70
    15
177
     2
291
     1
 71
     2
176
     1
 72
     2
176
     1
 73
     0
176
     1
 90
        0
176
     1
 40
-0.6
176
     1
 41
-30.0
176
     1
 62
     5
 63
     7
421
 16777215
176
     1
 74
     1
176
     1
 91
        4
176
     1
 64
     7
176
     1
 65
   257
176
     1
 75
     1
176
     1
175
     1
176
     1
 42
1.0
176
     1
 92
        8
176
     1
 66
     7
176
     1
 43
1.0
176
     1
 76
     1
176
     1
 77
     6
176
     1
 78
     2
176
     1
 67
     7
176
     1
 79
     5
176
     1
170
     0
176
     1
171
     0
176
     1
290
     0
176
     1
 93
        1
176
     1
 44
0.0
176
     1
173
     0
176
     1
  0
VISUALSTYLE
  5
2B
102
{ACAD_REACTORS
330
2A
102
}
330
2A
100
AcDbVisualStyle
  2
Flat
 70
     0
177
     2
291
     1
 71
     2
176
     1
 72
     1
176
     1
 73
     1
176
     1
 90
        2
176
     1
 40
-0.6
176
     1
 41
30.0
176
     1
 62
     5
 63
     7
421
 16777215
176
     1
 74
     0
176
     1
 91
        4
176
     1
 64
     7
176
     1
 65
   257
176
     1
 75
     1
176
     1
175
     1
176
     1
 42
1.0
176
     1
 92
        8
176
     1
 66
     7
176
     1
 43
1.0
176
     1
 76
     1
176
     1
 77
     6
176
     1
 78
     2
176
     1
 67
     7
176
     1
 79
     5
176
     1
170
     0
176
     1
171
     0
176
     1
290
     0
176
     1
 93
       13
176
     1
 44
0.0
176
     1
173
     0
176
     1
  0
VISUALSTYLE
  5
2C
102
{ACAD_REACTORS
330
2A
102
}
330
2A
100
AcDbVisualStyle
  2
FlatWithEdges
 70
     1
177
     2
291
     1
 71
     2
176
     1
 72
     1
176
     1
 73
     1
176
     1
 90
        2
176
     1
 40
-0.6
176
     1
 41
30.0
176
     1
 62
     5
 63
     7
421
 16777215
176
     1
 74
     1
176
     1
 91
        4
176
     1
 64
     7
176
     1
 65
   257
176
     1
 75
     1
176
     1
175
     1
176
     1
 42
1.0
176
     1
 92
        0
176
     1
 66
   257
176
     1
 43
1.0
176
     1
 76
     1
176
     1
 77
     6
176
     1
 78
     2
176
     1
 67
     7
176
     1
 79
     5
176
     1
170
     0
176
     1
171
     0
176
     1
290
     0
176
     1
 93
       13
176
     1
 44
0.0
176
     1
173
     0
176
     1
  0
VISUALSTYLE
  5
2D
102
{ACAD_REACTORS
330
2A
102
}
330
2A
100
AcDbVisualStyle
  2
Gouraud
 70
     2
177
     2
291
     1
 71
     2
176
     1
 72
     2
176
     1
 73
     1
176
     1
 90
        2
176
     1
 40
-0.6
176
     1
 41
30.0
176
     1
 62
     5
 63
     7
421
 16777215
176
     1
 74
     0
176
     1
 91
        4
176
     1
 64
     7
176
     1
 65
   257
176
     1
 75
     1
176
     1
175
     1
176
     1
 42
1.0
176
     1
 92
        0
176
     1
 66
     7
176
     1
 43
1.0
176
     1
 76
     1
176
     1
 77
     6
176
     1
 78
     2
176
     1
 67
     7
176
     1
 79
     5
176
     1
170
     0
176
     1
171
     0
176
     1
290
     0
176
     1
 93
       13
176
     1
 44
0.0
176
     1
173
     0
176
     1
  0
VISUALSTYLE
  5
2E
102
{ACAD_REACTORS
330
2A
102
}
330
2A
100
AcDbVisualStyle
  2
GouraudWithEdges
 70
     3
177
     2
291
     1
 71
     2
176
     1
 72
     2
176
     1
 73
     1
176
     1
 90
        2
176
     1
 40
-0.6
176
     1
 41
30.0
176
     1
 62
     5
 63
     7
421
 16777215
176
     1
 74
     1
176
     1
 91
        4
176
     1
 64
     7
176
     1
 65
   257
176
     1
 75
     1
176
     1
175
     1
176
     1
 42
1.0
176
     1
 92
        0
176
     1
 66
   257
176
     1
 43
1.0
176
     1
 76
     1
176
     1
 77
     6
176
     1
 78
     2
176
     1
 67
     7
176
     1
 79
     5
176
     1
170
     0
176
     1
171
     0
176
     1
290
     0
176
     1
 93
       13
176
     1
 44
0.0
176
     1
173
     0
176
     1
  0
VISUALSTYLE
  5
38
102
{ACAD_REACTORS
330
2A
102
}
330
2A
100
AcDbVisualStyle
  2
Linepattern
 70
    14
177
     2
291
     1
 71
     2
176
     1
 72
     2
176
     1
 73
     0
176
     1
 90
        0
176
     1
 40
-0.6
176
     1
 41
-30.0
176
     1
 62
     5
 63
     7
421
 16777215
176
     1
 74
     1
176
     1
 91
        4
176
     1
 64
     7
176
     1
 65
   257
176
     1
 75
     7
176
     1
175
     7
176
     1
 42
1.0
176
     1
 92
        8
176
     1
 66
     7
176
     1
 43
1.0
176
     1
 76
     1
176
     1
 77
     6
176
     1
 78
     2
176
     1
 67
     7
176
     1
 79
     5
176
     1
170
     0
176
     1
171
     0
176
     1
290
     0
176
     1
 93
        1
176
     1
 44
0.0
176
     1
173
     0
176
     1
  0
VISUALSTYLE
  5
33
102
{ACAD_REACTORS
330
2A
102
}
330
2A
100
AcDbVisualStyle
  2
Realistic
 70
     8
177
     2
291
     0
 71
     2
176
     1
 72
     2
176
     1
 73
     0
176
     1
 90
        0
176
     1
 40
-0.6
176
     1
 41
-30.0
176
     1
 62
     5
 63
     7
421
 16777215
176
     1
 74
     1
176
     1
 91
        0
176
     1
 64
     7
176
     1
 65
   257
176
     1
 75
     1
176
     1
175
     1
176
     1
 42
1.0
176
     1
 92
        8
176
     1
 66
     8
424
  7895160
176
     1
 43
1.0
176
     1
 76
     1
176
     1
 77
     6
176
     1
 78
     2
176
     1
 67
     7
176
     1
 79
     5
176
     1
170
     0
176
     1
171
     0
176
     1
290
     0
176
     1
 93
       13
176
     1
 44
0.0
176
     1
173
     0
176
     1
  0
VISUALSTYLE
  5
37
102
{ACAD_REACTORS
330
2A
102
}
330
2A
100
AcDbVisualStyle
  2
Thicken
 70
    13
177
     2
291
     1
 71
     2
176
     1
 72
     2
176
     1
 73
     0
176
     1
 90
        0
176
     1
 40
-0.6
176
     1
 41
-30.0
176
     1
 62
     5
 63
     7
421
 16777215
176
     1
 74
     1
176
     1
 91
        4
176
     1
 64
     7
176
     1
 65
   257
176
     1
 75
     1
176
     1
175
     1
176
     1
 42
1.0
176
     1
 92
       12
176
     1
 66
     7
176
     1
 43
1.0
176
     1
 76
     1
176
     1
 77
     6
176
     1
 78
     2
176
     1
 67
     7
176
     1
 79
     5
176
     1
170
     0
176
     1
171
     0
176
     1
290
     0
176
     1
 93
        1
176
     1
 44
0.0
176
     1
173
     0
176
     1
  0
ENDSEC
  0
EOF
