  0
SECTION
  2
HEADER
  9
$ACADVER
  1
AC1024
  9
$ACADMAINTVER
 70
     6
  9
$DWGCODEPAGE
  3
UNDEFINED
  9
$INSBASE
 10
0.0
 20
0.0
 30
0.0
  9
$EXTMIN
 10
1.000000000000000E+20
 20
1.000000000000000E+20
 30
1.000000000000000E+20
  9
$EXTMAX
 10
-1.000000000000000E+20
 20
-1.000000000000000E+20
 30
-1.000000000000000E+20
  9
$LIMMIN
 10
0.0
 20
0.0
  9
$LIMMAX
 10
12.0
 20
9.0
  9
$ORTHOMODE
 70
     0
  9
$REGENMODE
 70
     1
  9
$FILLMODE
 70
     1
  9
$QTEXTMODE
 70
     0
  9
$MIRRTEXT
 70
     1
  9
$LTSCALE
 40
1.0
  9
$ATTMODE
 70
     1
  9
$TEXTSIZE
 40
0.2
  9
$TRACEWID
 40
0.05
  9
$TEXTSTYLE
  7
Standard
  9
$CLAYER
  8
0
  9
$CELTYPE
  6
ByLayer
  9
$CECOLOR
 62
   256
  9
$CELTSCALE
 40
1.0
  9
$DISPSILH
 70
     0
  9
$DIMSCALE
 40
1.0
  9
$DIMASZ
 40
0.18
  9
$DIMEXO
 40
0.0625
  9
$DIMDLI
 40
0.38
  9
$DIMRND
 40
0.0
  9
$DIMDLE
 40
0.0
  9
$DIMEXE
 40
0.18
  9
$DIMTP
 40
0.0
  9
$DIMTM
 40
0.0
  9
$DIMTXT
 40
0.18
  9
$DIMCEN
 40
0.09
  9
$DIMTSZ
 40
0.0
  9
$DIMTOL
 70
     0
  9
$DIMLIM
 70
     0
  9
$DIMTIH
 70
     1
  9
$DIMTOH
 70
     1
  9
$DIMSE1
 70
     0
  9
$DIMSE2
 70
     0
  9
$DIMTAD
 70
     0
  9
$DIMZIN
 70
     0
  9
$DIMBLK
  1

  9
$DIMASO
 70
     1
  9
$DIMSHO
 70
     1
  9
$DIMPOST
  1

  9
$DIMAPOST
  1

  9
$DIMALT
 70
     0
  9
$DIMALTD
 70
     2
  9
$DIMALTF
 40
25.4
  9
$DIMLFAC
 40
1.0
  9
$DIMTOFL
 70
     0
  9
$DIMTVP
 40
0.0
  9
$DIMTIX
 70
     0
  9
$DIMSOXD
 70
     0
  9
$DIMSAH
 70
     0
  9
$DIMBLK1
  1

  9
$DIMBLK2
  1

  9
$DIMSTYLE
  2
Standard
  9
$DIMCLRD
 70
     0
  9
$DIMCLRE
 70
     0
  9
$DIMCLRT
 70
     0
  9
$DIMTFAC
 40
1.0
  9
$DIMGAP
 40
0.09
  9
$DIMJUST
 70
     0
  9
$DIMSD1
 70
     0
  9
$DIMSD2
 70
     0
  9
$DIMTOLJ
 70
     1
  9
$DIMTZIN
 70
     0
  9
$DIMALTZ
 70
     0
  9
$DIMALTTZ
 70
     0
  9
$DIMUPT
 70
     0
  9
$DIMDEC
 70
     4
  9
$DIMTDEC
 70
     4
  9
$DIMALTU
 70
     2
  9
$DIMALTTD
 70
     2
  9
$DIMTXSTY
  7
Standard
  9
$DIMAUNIT
 70
     0
  9
$DIMADEC
 70
     0
  9
$DIMALTRND
 40
0.0
  9
$DIMAZIN
 70
     0
  9
$DIMDSEP
 70
    46
  9
$DIMATFIT
 70
     3
  9
$DIMFRAC
 70
     0
  9
$DIMLDRBLK
  1

  9
$DIMLUNIT
 70
     2
  9
$DIMLWD
 70
    -2
  9
$DIMLWE
 70
    -2
  9
$DIMTMOVE
 70
     0
  9
$DIMFXL
 40
1.0
  9
$DIMFXLON
 70
     0
  9
$DIMJOGANG
 40
0.7853981633974483
  9
$DIMTFILL
 70
     0
  9
$DIMTFILLCLR
 70
     0
  9
$DIMARCSYM
 70
     0
  9
$DIMLTYPE
  6

  9
$DIMLTEX1
  6

  9
$DIMLTEX2
  6

  9
$DIMTXTDIRECTION
 70
     0
  9
$LUNITS
 70
     2
  9
$LUPREC
 70
     4
  9
$SKETCHINC
 40
0.1
  9
$FILLETRAD
 40
0.5
  9
$AUNITS
 70
     0
  9
$AUPREC
 70
     0
  9
$MENU
  1
.
  9
$ELEVATION
 40
0.0
  9
$PELEVATION
 40
0.0
  9
$THICKNESS
 40
0.0
  9
$LIMCHECK
 70
     0
  9
$CHAMFERA
 40
0.5
  9
$CHAMFERB
 40
0.5
  9
$CHAMFERC
 40
1.0
  9
$CHAMFERD
 40
0.0
  9
$SKPOLY
 70
     0
  9
$TDCREATE
 40
2457917.626782408
  9
$TDUCREATE
 40
2457917.251782408
  9
$TDUPDATE
 40
2457917.626782408
  9
$TDUUPDATE
 40
2457917.251782408
  9
$TDINDWG
 40
0.0000000116
  9
$TDUSRTIMER
 40
0.0000000116
  9
$USRTIMER
 70
     1
  9
$ANGBASE
 50
0.0
  9
$ANGDIR
 70
     0
  9
$PDMODE
 70
     0
  9
$PDSIZE
 40
0.0
  9
$PLINEWID
 40
0.0
  9
$SPLFRAME
 70
     0
  9
$SPLINETYPE
 70
     6
  9
$SPLINESEGS
 70
     8
  9
$HANDSEED
  5
162
  9
$SURFTAB1
 70
     6
  9
$SURFTAB2
 70
     6
  9
$SURFTYPE
 70
     6
  9
$SURFU
 70
     6
  9
$SURFV
 70
     6
  9
$UCSBASE
  2

  9
$UCSNAME
  2

  9
$UCSORG
 10
0.0
 20
0.0
 30
0.0
  9
$UCSXDIR
 10
1.0
 20
0.0
 30
0.0
  9
$UCSYDIR
 10
0.0
 20
1.0
 30
0.0
  9
$UCSORTHOREF
  2

  9
$UCSORTHOVIEW
 70
     0
  9
$UCSORGTOP
 10
0.0
 20
0.0
 30
0.0
  9
$UCSORGBOTTOM
 10
0.0
 20
0.0
 30
0.0
  9
$UCSORGLEFT
 10
0.0
 20
0.0
 30
0.0
  9
$UCSORGRIGHT
 10
0.0
 20
0.0
 30
0.0
  9
$UCSORGFRONT
 10
0.0
 20
0.0
 30
0.0
  9
$UCSORGBACK
 10
0.0
 20
0.0
 30
0.0
  9
$PUCSBASE
  2

  9
$PUCSNAME
  2

  9
$PUCSORG
 10
0.0
 20
0.0
 30
0.0
  9
$PUCSXDIR
 10
1.0
 20
0.0
 30
0.0
  9
$PUCSYDIR
 10
0.0
 20
1.0
 30
0.0
  9
$PUCSORTHOREF
  2

  9
$PUCSORTHOVIEW
 70
     0
  9
$PUCSORGTOP
 10
0.0
 20
0.0
 30
0.0
  9
$PUCSORGBOTTOM
 10
0.0
 20
0.0
 30
0.0
  9
$PUCSORGLEFT
 10
0.0
 20
0.0
 30
0.0
  9
$PUCSORGRIGHT
 10
0.0
 20
0.0
 30
0.0
  9
$PUCSORGFRONT
 10
0.0
 20
0.0
 30
0.0
  9
$PUCSORGBACK
 10
0.0
 20
0.0
 30
0.0
  9
$USERI1
 70
     0
  9
$USERI2
 70
     0
  9
$USERI3
 70
     0
  9
$USERI4
 70
     0
  9
$USERI5
 70
     0
  9
$USERR1
 40
0.0
  9
$USERR2
 40
0.0
  9
$USERR3
 40
0.0
  9
$USERR4
 40
0.0
  9
$USERR5
 40
0.0
  9
$WORLDVIEW
 70
     1
  9
$SHADEDGE
 70
     3
  9
$SHADEDIF
 70
    70
  9
$TILEMODE
 70
     1
  9
$MAXACTVP
 70
    64
  9
$PINSBASE
 10
0.0
 20
0.0
 30
0.0
  9
$PLIMCHECK
 70
     0
  9
$PEXTMIN
 10
1.000000000000000E+20
 20
1.000000000000000E+20
 30
1.000000000000000E+20
  9
$PEXTMAX
 10
-1.000000000000000E+20
 20
-1.000000000000000E+20
 30
-1.000000000000000E+20
  9
$PLIMMIN
 10
0.0
 20
0.0
  9
$PLIMMAX
 10
12.0
 20
9.0
  9
$UNITMODE
 70
     0
  9
$VISRETAIN
 70
     1
  9
$PLINEGEN
 70
     0
  9
$PSLTSCALE
 70
     1
  9
$TREEDEPTH
 70
  3020
  9
$CMLSTYLE
  2
Standard
  9
$CMLJUST
 70
     0
  9
$CMLSCALE
 40
1.0
  9
$PROXYGRAPHICS
 70
     1
  9
$MEASUREMENT
 70
     0
  9
$CELWEIGHT
370
    -1
  9
$ENDCAPS
280
     0
  9
$JOINSTYLE
280
     0
  9
$LWDISPLAY
290
     1
  9
$INSUNITS
 70
     1
  9
$HYPERLINKBASE
  1

  9
$STYLESHEET
  1

  9
$XEDIT
290
     1
  9
$CEPSNTYPE
380
     0
  9
$PSTYLEMODE
290
     1
  9
$FINGERPRINTGUID
  2
{CED47C64-F63D-1315-B421-E07A986B1947}
  9
$VERSIONGUID
  2
{FAEB1C32-E019-11D5-929B-00C0DF256EC4}
  9
$EXTNAMES
290
     1
  9
$PSVPSCALE
 40
0.0
  9
$OLESTARTUP
290
     0
  9
$SORTENTS
280
   127
  9
$INDEXCTL
280
     0
  9
$HIDETEXT
280
     1
  9
$XCLIPFRAME
280
     2
  9
$HALOGAP
280
     0
  9
$OBSCOLOR
 70
   257
  9
$OBSLTYPE
280
     0
  9
$INTERSECTIONDISPLAY
280
     0
  9
$INTERSECTIONCOLOR
 70
   257
  9
$DIMASSOC
280
     2
  9
$PROJECTNAME
  1

  9
$CAMERADISPLAY
290
     0
  9
$LENSLENGTH
 40
50.0
  9
$CAMERAHEIGHT
 40
0.0
  9
$STEPSPERSEC
 40
2.0
  9
$STEPSIZE
 40
6.0
  9
$3DDWFPREC
 40
2.0
  9
$PSOLWIDTH
 40
0.25
  9
$PSOLHEIGHT
 40
4.0
  9
$LOFTANG1
 40
1.570796326794897
  9
$LOFTANG2
 40
1.570796326794897
  9
$LOFTMAG1
 40
0.0
  9
$LOFTMAG2
 40
0.0
  9
$LOFTPARAM
 70
     7
  9
$LOFTNORMALS
280
     1
  9
$LATITUDE
 40
37.795
  9
$LONGITUDE
 40
-122.394
  9
$NORTHDIRECTION
 40
0.0
  9
$TIMEZONE
 70
 -8000
  9
$LIGHTGLYPHDISPLAY
280
     1
  9
$TILEMODELIGHTSYNCH
280
     1
  9
$CMATERIAL
347
3C
  9
$SOLIDHIST
280
     1
  9
$SHOWHIST
280
     1
  9
$DWFFRAME
280
     2
  9
$DGNFRAME
280
     2
  9
$REALWORLDSCALE
290
     1
  9
$INTERFERECOLOR
 62
   256
  9
$CSHADOW
280
     0
  9
$SHADOWPLANELOCATION
 40
0.0
  0
ENDSEC
  0
SECTION
  2
CLASSES
  0
CLASS
  1
ACDBDICTIONARYWDFLT
  2
AcDbDictionaryWithDefault
  3
ObjectDBX Classes
 90
        0
 91
        4
280
     0
281
     0
  0
CLASS
  1
VISUALSTYLE
  2
AcDbVisualStyle
  3
ObjectDBX Classes
 90
     4095
 91
        4
280
     0
281
     0
  0
CLASS
  1
MATERIAL
  2
AcDbMaterial
  3
ObjectDBX Classes
 90
     1153
 91
        4
280
     0
281
     0
  0
CLASS
  1
SUN
  2
AcDbSun
  3
SCENEOE
 90
     1024
 91
        4
280
     0
281
     0
  0
ENDSEC
  0
SECTION
  2
TABLES
  0
TABLE
  2
VPORT
  5
8
330
0
100
AcDbSymbolTable
 70
     1
  0
VPORT
  5
29
330
8
100
AcDbSymbolTableRecord
100
AcDbViewportTableRecord
  2
*Active
 70
     0
 10
0.0
 20
0.0
 11
1.0
 21
1.0
 12
0.0
 22
0.0
 13
0.0
 23
0.0
 14
0.5
 24
0.5
 15
0.5
 25
0.5
 16
0.0
 26
0.0
 36
1.0
 17
91.00082462281999
 27
-128.4993055234307
 37
0.0
 40
256.9986110468615
 41
0.7081814508812795
 42
50.0
 43
0.0
 44
0.0
 50
0.0
 51
0.0
 71
     0
 72
   100
 73
     1
 74
     3
 75
     0
 76
     0
 77
     0
 78
     0
281
     0
 65
     1
110
0.0
120
0.0
130
0.0
111
1.0
121
0.0
131
0.0
112
0.0
122
1.0
132
0.0
 79
     0
146
0.0
 60
     3
 61
     5
292
     1
282
     1
141
0.0
142
0.0
 63
   250
361
3F
  0
ENDTAB
  0
TABLE
  2
LTYPE
  5
5
330
0
100
AcDbSymbolTable
 70
     1
  0
LTYPE
  5
14
330
5
100
AcDbSymbolTableRecord
100
AcDbLinetypeTableRecord
  2
ByBlock
 70
     0
  3

 72
    65
 73
     0
 40
0.0
  0
LTYPE
  5
15
330
5
100
AcDbSymbolTableRecord
100
AcDbLinetypeTableRecord
  2
ByLayer
 70
     0
  3

 72
    65
 73
     0
 40
0.0
  0
LTYPE
  5
16
330
5
100
AcDbSymbolTableRecord
100
AcDbLinetypeTableRecord
  2
Continuous
 70
     0
  3
Solid line
 72
    65
 73
     0
 40
0.0
  0
ENDTAB
  0
TABLE
  2
LAYER
  5
2
330
0
100
AcDbSymbolTable
 70
     2
  0
LAYER
  5
10
330
2
100
AcDbSymbolTableRecord
100
AcDbLayerTableRecord
  2
0
 70
     0
 62
     7
  6
Continuous
370
    -3
390
F
347
3E
  0
LAYER
  5
40
330
2
100
AcDbSymbolTableRecord
100
AcDbLayerTableRecord
  2
_U+30EC_U+30A4_U+30E4_U+30FC 1
 70
     0
 62
     7
  6
Continuous
370
    -3
390
F
347
3E
  0
ENDTAB
  0
TABLE
  2
STYLE
  5
3
330
0
100
AcDbSymbolTable
 70
     1
  0
STYLE
  5
11
330
3
100
AcDbSymbolTableRecord
100
AcDbTextStyleTableRecord
  2
Standard
 70
     0
 40
0.0
 41
1.0
 50
0.0
 71
     0
 42
0.2
  3
txt
  4

  0
ENDTAB
  0
TABLE
  2
VIEW
  5
6
330
0
100
AcDbSymbolTable
 70
     0
  0
ENDTAB
  0
TABLE
  2
UCS
  5
7
330
0
100
AcDbSymbolTable
 70
     0
  0
ENDTAB
  0
TABLE
  2
APPID
  5
9
330
0
100
AcDbSymbolTable
 70
     1
  0
APPID
  5
12
330
9
100
AcDbSymbolTableRecord
100
AcDbRegAppTableRecord
  2
ACAD
 70
     0
  0
ENDTAB
  0
TABLE
  2
DIMSTYLE
  5
A
330
0
100
AcDbSymbolTable
 70
     1
100
AcDbDimStyleTable
  0
DIMSTYLE
105
27
330
A
100
AcDbSymbolTableRecord
100
AcDbDimStyleTableRecord
  2
Standard
 70
     0
178
     0
340
11
  0
ENDTAB
  0
TABLE
  2
BLOCK_RECORD
  5
1
330
0
100
AcDbSymbolTable
 70
     9
  0
BLOCK_RECORD
  5
1F
330
1
100
AcDbSymbolTableRecord
100
AcDbBlockTableRecord
  2
*Model_Space
340
22
 70
     0
280
     1
281
     0
  0
BLOCK_RECORD
  5
1B
330
1
100
AcDbSymbolTableRecord
100
AcDbBlockTableRecord
  2
*Paper_Space
340
1E
 70
     0
280
     1
281
     0
  0
BLOCK_RECORD
  5
23
330
1
100
AcDbSymbolTableRecord
100
AcDbBlockTableRecord
  2
*Paper_Space0
340
26
 70
     0
280
     1
281
     0
  0
BLOCK_RECORD
  5
AE
330
1
100
AcDbSymbolTableRecord
100
AcDbBlockTableRecord
  2
block 2
340
0
102
{BLKREFS
331
AF
102
}
 70
     0
280
     1
281
     0
  0
BLOCK_RECORD
  5
C0
330
1
100
AcDbSymbolTableRecord
100
AcDbBlockTableRecord
  2
block 3
340
0
102
{BLKREFS
331
C1
102
}
 70
     0
280
     1
281
     0
  0
BLOCK_RECORD
  5
D0
330
1
100
AcDbSymbolTableRecord
100
AcDbBlockTableRecord
  2
block 4
340
0
102
{BLKREFS
331
D1
102
}
 70
     0
280
     1
281
     0
  0
BLOCK_RECORD
  5
E2
330
1
100
AcDbSymbolTableRecord
100
AcDbBlockTableRecord
  2
block 5
340
0
102
{BLKREFS
331
E3
102
}
 70
     0
280
     1
281
     0
  0
BLOCK_RECORD
  5
10A
330
1
100
AcDbSymbolTableRecord
100
AcDbBlockTableRecord
  2
block 6
340
0
102
{BLKREFS
331
10B
102
}
 70
     0
280
     1
281
     0
  0
BLOCK_RECORD
  5
11E
330
1
100
AcDbSymbolTableRecord
100
AcDbBlockTableRecord
  2
block 7
340
0
102
{BLKREFS
331
11F
102
}
 70
     0
280
     1
281
     0
  0
BLOCK_RECORD
  5
12C
330
1
100
AcDbSymbolTableRecord
100
AcDbBlockTableRecord
  2
block 8
340
0
102
{BLKREFS
331
12D
102
}
 70
     0
280
     1
281
     0
  0
BLOCK_RECORD
  5
156
330
1
100
AcDbSymbolTableRecord
100
AcDbBlockTableRecord
  2
block 9
340
0
102
{BLKREFS
331
157
102
}
 70
     0
280
     1
281
     0
  0
ENDTAB
  0
ENDSEC
  0
SECTION
  2
BLOCKS
  0
BLOCK
  5
20
330
1F
100
AcDbEntity
  8
0
100
AcDbBlockBegin
  2
*Model_Space
 70
     0
 10
0.0
 20
0.0
 30
0.0
  3
*Model_Space
  1

  0
ENDBLK
  5
21
330
1F
100
AcDbEntity
  8
0
100
AcDbBlockEnd
  0
BLOCK
  5
1C
330
1B
100
AcDbEntity
 67
     1
  8
0
100
AcDbBlockBegin
  2
*Paper_Space
 70
     0
 10
0.0
 20
0.0
 30
0.0
  3
*Paper_Space
  1

  0
ENDBLK
  5
1D
330
1B
100
AcDbEntity
 67
     1
  8
0
100
AcDbBlockEnd
  0
BLOCK
  5
24
330
23
100
AcDbEntity
  8
0
100
AcDbBlockBegin
  2
*Paper_Space0
 70
     0
 10
0.0
 20
0.0
 30
0.0
  3
*Paper_Space0
  1

  0
ENDBLK
  5
25
330
23
100
AcDbEntity
  8
0
100
AcDbBlockEnd
  0
BLOCK
  5
B0
330
AE
100
AcDbEntity
  8
0
100
AcDbBlockBegin
  2
block 2
 70
     0
 10
0.0
 20
0.0
 30
0.0
  3
block 2
  1

  0
SPLINE
  5
B2
330
AE
100
AcDbEntity
  8
_U+30EC_U+30A4_U+30E4_U+30FC 1
370
     0
100
AcDbSpline
210
0.0
220
0.0
230
1.0
 70
    11
 71
     3
 72
    62
 73
    58
 74
     0
 42
0.0000000001
 43
0.0000000001
 12
1.0
 22
0.0
 32
0.0
 13
1.0
 23
0.0
 33
0.0
 40
0.0
 40
0.0
 40
0.0
 40
0.0
 40
1.0
 40
1.0
 40
1.0
 40
2.0
 40
2.0
 40
2.0
 40
3.0
 40
3.0
 40
3.0
 40
4.0
 40
4.0
 40
4.0
 40
5.0
 40
5.0
 40
5.0
 40
6.0
 40
6.0
 40
6.0
 40
7.0
 40
7.0
 40
7.0
 40
8.0
 40
8.0
 40
8.0
 40
9.0
 40
9.0
 40
9.0
 40
10.0
 40
10.0
 40
10.0
 40
11.0
 40
11.0
 40
11.0
 40
12.0
 40
12.0
 40
12.0
 40
13.0
 40
13.0
 40
13.0
 40
14.0
 40
14.0
 40
14.0
 40
15.0
 40
15.0
 40
15.0
 40
16.0
 40
16.0
 40
16.0
 40
17.0
 40
17.0
 40
17.0
 40
18.0
 40
18.0
 40
18.0
 40
19.0
 40
19.0
 40
19.0
 40
19.0
 10
102.1667181819236
 20
-139.5367024390742
 30
0.0
 10
102.1667181819236
 20
-139.6469454946022
 30
0.0
 10
102.1436360421724
 20
-139.8984374650254
 30
0.0
 10
101.9424424658338
 20
-140.0427869658574
 30
0.0
 10
101.821175104753
 20
-140.1282253338915
 30
0.0
 10
101.7136881256132
 20
-140.1330484675709
 30
0.0
 10
101.6220485857056
 20
-140.1378716012503
 30
0.0
 10
101.6220485857056
 20
-140.1378716012503
 30
0.0
 10
101.6220485857056
 20
-139.8839680639873
 30
0.0
 10
101.6220485857056
 20
-139.8839680639873
 30
0.0
 10
101.7023193105119
 20
-139.8815564971477
 30
0.0
 10
101.9562228477748
 20
-139.8691541534008
 30
0.0
 10
101.9562228477748
 20
-139.5415255727535
 30
0.0
 10
101.9562228477748
 20
-139.3827066708835
 30
0.0
 10
101.8807752566479
 20
-139.2070068011357
 30
0.0
 10
101.6334174008069
 20
-139.2070068011357
 30
0.0
 10
101.5076714155953
 20
-139.2070068011357
 30
0.0
 10
101.454961454671
 20
-139.2507595137984
 30
0.0
 10
101.420855009367
 20
-139.2876220354906
 30
0.0
 10
101.3405842845607
 20
-139.3730604035248
 30
0.0
 10
101.3271484121682
 20
-139.5074191274495
 30
0.0
 10
101.3271484121682
 20
-139.5711533939267
 30
0.0
 10
101.3271484121682
 20
-139.5928574954837
 30
0.0
 10
101.3292154694594
 20
-139.6345431508553
 30
0.0
 10
101.3336940935902
 20
-139.6662380293195
 30
0.0
 10
101.3336940935902
 20
-139.6662380293195
 30
0.0
 10
101.1231987594414
 20
-139.6662380293195
 30
0.0
 10
101.1231987594414
 20
-139.6662380293195
 30
0.0
 10
101.1300889504119
 20
-139.6224853166569
 30
0.0
 10
101.1325005172516
 20
-139.5735649607663
 30
0.0
 10
101.1325005172516
 20
-139.5659857506988
 30
0.0
 10
101.1325005172516
 20
-139.4905381595718
 30
0.0
 10
101.109762887049
 20
-139.2607502907057
 30
0.0
 10
100.8534477829464
 20
-139.2607502907057
 30
0.0
 10
100.6612114548694
 20
-139.2607502907057
 30
0.0
 10
100.6016113029746
 20
-139.4123344920567
 30
0.0
 10
100.6016113029746
 20
-139.5391140059138
 30
0.0
 10
100.6016113029746
 20
-139.8446939754555
 30
0.0
 10
100.8534477829464
 20
-139.8543402428142
 30
0.0
 10
100.931306940913
 20
-139.8595078860421
 30
0.0
 10
100.931306940913
 20
-139.8595078860421
 30
0.0
 10
100.931306940913
 20
-140.0941188885876
 30
0.0
 10
100.931306940913
 20
-140.0941188885876
 30
0.0
 10
100.7962591978912
 20
-140.0841281116804
 30
0.0
 10
100.3890489115347
 20
-140.0524332332161
 30
0.0
 10
100.3890489115347
 20
-139.5246446048758
 30
0.0
 10
100.3890489115347
 20
-139.265573424385
 30
0.0
 10
100.5261637118476
 20
-138.9868651996283
 30
0.0
 10
100.8465575919759
 20
-138.9868651996283
 30
0.0
 10
101.0477511683145
 20
-138.9868651996283
 30
0.0
 10
101.1369791413824
 20
-139.0967637456078
 30
0.0
 10
101.2034694842477
 20
-139.2118299348151
 30
0.0
 10
101.2330973054209
 20
-139.140860967819
 30
0.0
 10
101.3202582211977
 20
-138.9307101432187
 30
0.0
 10
101.6199815284145
 20
-138.9307101432187
 30
0.0
 10
101.985850668948
 20
-138.9307101432187
 30
0.0
 10
102.1667181819236
 20
-139.2166530684945
 30
0.0
 10
102.1667181819236
 20
-139.5367024390742
 30
0.0
  0
HATCH
  5
B3
330
AE
100
AcDbEntity
  8
_U+30EC_U+30A4_U+30E4_U+30FC 1
 62
   179
420
  2234388
100
AcDbHatch
 10
0.0
 20
0.0
 30
0.0
210
0.0
220
0.0
230
1.0
  2
SOLID
 70
     1
 71
     0
 91
        1
 92
        1
 93
        1
 72
     4
 94
        3
 73
     0
 74
     1
 95
       62
 96
       58
 40
0.0
 40
0.0
 40
0.0
 40
0.0
 40
1.0
 40
1.0
 40
1.0
 40
2.0
 40
2.0
 40
2.0
 40
3.0
 40
3.0
 40
3.0
 40
4.0
 40
4.0
 40
4.0
 40
5.0
 40
5.0
 40
5.0
 40
6.0
 40
6.0
 40
6.0
 40
7.0
 40
7.0
 40
7.0
 40
8.0
 40
8.0
 40
8.0
 40
9.0
 40
9.0
 40
9.0
 40
10.0
 40
10.0
 40
10.0
 40
11.0
 40
11.0
 40
11.0
 40
12.0
 40
12.0
 40
12.0
 40
13.0
 40
13.0
 40
13.0
 40
14.0
 40
14.0
 40
14.0
 40
15.0
 40
15.0
 40
15.0
 40
16.0
 40
16.0
 40
16.0
 40
17.0
 40
17.0
 40
17.0
 40
18.0
 40
18.0
 40
18.0
 40
19.0
 40
19.0
 40
19.0
 40
19.0
 10
102.1667181819236
 20
-139.5367024390742
 10
102.1667181819236
 20
-139.6469454946022
 10
102.1436360421724
 20
-139.8984374650254
 10
101.9424424658338
 20
-140.0427869658574
 10
101.821175104753
 20
-140.1282253338915
 10
101.7136881256132
 20
-140.1330484675709
 10
101.6220485857056
 20
-140.1378716012503
 10
101.6220485857056
 20
-140.1378716012503
 10
101.6220485857056
 20
-139.8839680639873
 10
101.6220485857056
 20
-139.8839680639873
 10
101.7023193105119
 20
-139.8815564971477
 10
101.9562228477748
 20
-139.8691541534008
 10
101.9562228477748
 20
-139.5415255727535
 10
101.9562228477748
 20
-139.3827066708835
 10
101.8807752566479
 20
-139.2070068011357
 10
101.6334174008069
 20
-139.2070068011357
 10
101.5076714155953
 20
-139.2070068011357
 10
101.454961454671
 20
-139.2507595137984
 10
101.420855009367
 20
-139.2876220354906
 10
101.3405842845607
 20
-139.3730604035248
 10
101.3271484121682
 20
-139.5074191274495
 10
101.3271484121682
 20
-139.5711533939267
 10
101.3271484121682
 20
-139.5928574954837
 10
101.3292154694594
 20
-139.6345431508553
 10
101.3336940935902
 20
-139.6662380293195
 10
101.3336940935902
 20
-139.6662380293195
 10
101.1231987594414
 20
-139.6662380293195
 10
101.1231987594414
 20
-139.6662380293195
 10
101.1300889504119
 20
-139.6224853166569
 10
101.1325005172516
 20
-139.5735649607663
 10
101.1325005172516
 20
-139.5659857506988
 10
101.1325005172516
 20
-139.4905381595718
 10
101.109762887049
 20
-139.2607502907057
 10
100.8534477829464
 20
-139.2607502907057
 10
100.6612114548694
 20
-139.2607502907057
 10
100.6016113029746
 20
-139.4123344920567
 10
100.6016113029746
 20
-139.5391140059138
 10
100.6016113029746
 20
-139.8446939754555
 10
100.8534477829464
 20
-139.8543402428142
 10
100.931306940913
 20
-139.8595078860421
 10
100.931306940913
 20
-139.8595078860421
 10
100.931306940913
 20
-140.0941188885876
 10
100.931306940913
 20
-140.0941188885876
 10
100.7962591978912
 20
-140.0841281116804
 10
100.3890489115347
 20
-140.0524332332161
 10
100.3890489115347
 20
-139.5246446048758
 10
100.3890489115347
 20
-139.265573424385
 10
100.5261637118476
 20
-138.9868651996283
 10
100.8465575919759
 20
-138.9868651996283
 10
101.0477511683145
 20
-138.9868651996283
 10
101.1369791413824
 20
-139.0967637456078
 10
101.2034694842477
 20
-139.2118299348151
 10
101.2330973054209
 20
-139.140860967819
 10
101.3202582211977
 20
-138.9307101432187
 10
101.6199815284145
 20
-138.9307101432187
 10
101.985850668948
 20
-138.9307101432187
 10
102.1667181819236
 20
-139.2166530684945
 10
102.1667181819236
 20
-139.5367024390742
 97
        0
 97
        0
 75
     2
 76
     1
 98
        0
  0
ENDBLK
  5
B1
330
AE
100
AcDbEntity
  8
0
100
AcDbBlockEnd
  0
BLOCK
  5
C2
330
C0
100
AcDbEntity
  8
0
100
AcDbBlockBegin
  2
block 3
 70
     0
 10
0.0
 20
0.0
 30
0.0
  3
block 3
  1

  0
SPLINE
  5
C4
330
C0
100
AcDbEntity
  8
_U+30EC_U+30A4_U+30E4_U+30FC 1
370
     0
100
AcDbSpline
210
0.0
220
0.0
230
1.0
 70
    11
 71
     3
 72
    44
 73
    40
 74
     0
 42
0.0000000001
 43
0.0000000001
 12
1.0
 22
0.0
 32
0.0
 13
1.0
 23
0.0
 33
0.0
 40
0.0
 40
0.0
 40
0.0
 40
0.0
 40
1.0
 40
1.0
 40
1.0
 40
2.0
 40
2.0
 40
2.0
 40
3.0
 40
3.0
 40
3.0
 40
4.0
 40
4.0
 40
4.0
 40
5.0
 40
5.0
 40
5.0
 40
6.0
 40
6.0
 40
6.0
 40
7.0
 40
7.0
 40
7.0
 40
8.0
 40
8.0
 40
8.0
 40
9.0
 40
9.0
 40
9.0
 40
10.0
 40
10.0
 40
10.0
 40
11.0
 40
11.0
 40
11.0
 40
12.0
 40
12.0
 40
12.0
 40
13.0
 40
13.0
 40
13.0
 40
13.0
 10
83.484137620188
 20
-135.1483398099629
 30
0.0
 10
83.65570337535344
 20
-135.3998317803862
 30
0.0
 10
83.7358018453855
 20
-135.5076632690745
 30
0.0
 10
83.89134790654452
 20
-135.563818325484
 30
0.0
 10
83.89134790654452
 20
-135.563818325484
 30
0.0
 10
83.89134790654452
 20
-134.6643038942853
 30
0.0
 10
83.89134790654452
 20
-134.6643038942853
 30
0.0
 10
83.89134790654452
 20
-134.6643038942853
 30
0.0
 10
84.11321205579462
 20
-134.6643038942853
 30
0.0
 10
84.11321205579462
 20
-134.6643038942853
 30
0.0
 10
84.11321205579462
 20
-134.6643038942853
 30
0.0
 10
84.11321205579462
 20
-135.8521728175995
 30
0.0
 10
84.11321205579462
 20
-135.8521728175995
 30
0.0
 10
83.72650008757532
 20
-135.8153102959073
 30
0.0
 10
83.64192299341244
 20
-135.7395181952318
 30
0.0
 10
83.31928980121879
 20
-135.294756368086
 30
0.0
 10
83.1043158429392
 20
-134.9991671754516
 30
0.0
 10
83.03110756387764
 20
-134.9233750747761
 30
0.0
 10
82.88245169368912
 20
-134.9233750747761
 30
0.0
 10
82.75429414163781
 20
-134.9233750747761
 30
0.0
 10
82.61235620764553
 20
-135.0064018759706
 30
0.0
 10
82.61235620764553
 20
-135.2337781779971
 30
0.0
 10
82.61235620764553
 20
-135.5345350138594
 30
0.0
 10
82.86178112077761
 20
-135.5441812812181
 30
0.0
 10
82.9876993607635
 20
-135.5490044148975
 30
0.0
 10
82.9876993607635
 20
-135.5490044148975
 30
0.0
 10
82.9876993607635
 20
-135.8080755953883
 30
0.0
 10
82.9876993607635
 20
-135.8080755953883
 30
0.0
 10
82.85041230567629
 20
-135.7984293280296
 30
0.0
 10
82.72914494459549
 20
-135.7860269842827
 30
0.0
 10
82.6009873925442
 20
-135.6933539157294
 30
0.0
 10
82.42718232531335
 20
-135.5662298923237
 30
0.0
 10
82.39049205839544
 20
-135.3512559340441
 30
0.0
 10
82.39049205839544
 20
-135.2165527005709
 30
0.0
 10
82.39049205839544
 20
-134.8965033299912
 30
0.0
 10
82.58961857744288
 20
-134.6570691937663
 30
0.0
 10
82.88469100575452
 20
-134.6570691937663
 30
0.0
 10
83.13170435204694
 20
-134.6570691937663
 30
0.0
 10
83.239363585961
 20
-134.791427917691
 30
0.0
 10
83.484137620188
 20
-135.1483398099629
 30
0.0
  0
HATCH
  5
C5
330
C0
100
AcDbEntity
  8
_U+30EC_U+30A4_U+30E4_U+30FC 1
 62
   179
420
  2234388
100
AcDbHatch
 10
0.0
 20
0.0
 30
0.0
210
0.0
220
0.0
230
1.0
  2
SOLID
 70
     1
 71
     0
 91
        1
 92
        1
 93
        1
 72
     4
 94
        3
 73
     0
 74
     1
 95
       44
 96
       40
 40
0.0
 40
0.0
 40
0.0
 40
0.0
 40
1.0
 40
1.0
 40
1.0
 40
2.0
 40
2.0
 40
2.0
 40
3.0
 40
3.0
 40
3.0
 40
4.0
 40
4.0
 40
4.0
 40
5.0
 40
5.0
 40
5.0
 40
6.0
 40
6.0
 40
6.0
 40
7.0
 40
7.0
 40
7.0
 40
8.0
 40
8.0
 40
8.0
 40
9.0
 40
9.0
 40
9.0
 40
10.0
 40
10.0
 40
10.0
 40
11.0
 40
11.0
 40
11.0
 40
12.0
 40
12.0
 40
12.0
 40
13.0
 40
13.0
 40
13.0
 40
13.0
 10
83.484137620188
 20
-135.1483398099629
 10
83.65570337535344
 20
-135.3998317803862
 10
83.7358018453855
 20
-135.5076632690745
 10
83.89134790654452
 20
-135.563818325484
 10
83.89134790654452
 20
-135.563818325484
 10
83.89134790654452
 20
-134.6643038942853
 10
83.89134790654452
 20
-134.6643038942853
 10
83.89134790654452
 20
-134.6643038942853
 10
84.11321205579462
 20
-134.6643038942853
 10
84.11321205579462
 20
-134.6643038942853
 10
84.11321205579462
 20
-134.6643038942853
 10
84.11321205579462
 20
-135.8521728175995
 10
84.11321205579462
 20
-135.8521728175995
 10
83.72650008757532
 20
-135.8153102959073
 10
83.64192299341244
 20
-135.7395181952318
 10
83.31928980121879
 20
-135.294756368086
 10
83.1043158429392
 20
-134.9991671754516
 10
83.03110756387764
 20
-134.9233750747761
 10
82.88245169368912
 20
-134.9233750747761
 10
82.75429414163781
 20
-134.9233750747761
 10
82.61235620764553
 20
-135.0064018759706
 10
82.61235620764553
 20
-135.2337781779971
 10
82.61235620764553
 20
-135.5345350138594
 10
82.86178112077761
 20
-135.5441812812181
 10
82.9876993607635
 20
-135.5490044148975
 10
82.9876993607635
 20
-135.5490044148975
 10
82.9876993607635
 20
-135.8080755953883
 10
82.9876993607635
 20
-135.8080755953883
 10
82.85041230567629
 20
-135.7984293280296
 10
82.72914494459549
 20
-135.7860269842827
 10
82.6009873925442
 20
-135.6933539157294
 10
82.42718232531335
 20
-135.5662298923237
 10
82.39049205839544
 20
-135.3512559340441
 10
82.39049205839544
 20
-135.2165527005709
 10
82.39049205839544
 20
-134.8965033299912
 10
82.58961857744288
 20
-134.6570691937663
 10
82.88469100575452
 20
-134.6570691937663
 10
83.13170435204694
 20
-134.6570691937663
 10
83.239363585961
 20
-134.791427917691
 10
83.484137620188
 20
-135.1483398099629
 97
        0
 97
        0
 75
     2
 76
     1
 98
        0
  0
SPLINE
  5
C6
330
C0
100
AcDbEntity
  8
_U+30EC_U+30A4_U+30E4_U+30FC 1
370
     0
100
AcDbSpline
210
0.0
220
0.0
230
1.0
 70
    11
 71
     3
 72
    53
 73
    49
 74
     0
 42
0.0000000001
 43
0.0000000001
 12
1.0
 22
0.0
 32
0.0
 13
1.0
 23
0.0
 33
0.0
 40
0.0
 40
0.0
 40
0.0
 40
0.0
 40
1.0
 40
1.0
 40
1.0
 40
2.0
 40
2.0
 40
2.0
 40
3.0
 40
3.0
 40
3.0
 40
4.0
 40
4.0
 40
4.0
 40
5.0
 40
5.0
 40
5.0
 40
6.0
 40
6.0
 40
6.0
 40
7.0
 40
7.0
 40
7.0
 40
8.0
 40
8.0
 40
8.0
 40
9.0
 40
9.0
 40
9.0
 40
10.0
 40
10.0
 40
10.0
 40
11.0
 40
11.0
 40
11.0
 40
12.0
 40
12.0
 40
12.0
 40
13.0
 40
13.0
 40
13.0
 40
14.0
 40
14.0
 40
14.0
 40
15.0
 40
15.0
 40
15.0
 40
16.0
 40
16.0
 40
16.0
 40
16.0
 10
84.16816132878435
 20
-133.9194742503743
 30
0.0
 10
84.16816132878435
 20
-134.0097357520879
 30
0.0
 10
84.14990232271253
 20
-134.1272135081349
 30
0.0
 10
84.0811726677818
 20
-134.2443467546334
 30
0.0
 10
83.96214461876642
 20
-134.4448513118749
 30
0.0
 10
83.82037893954838
 20
-134.4693114898202
 30
0.0
 10
83.70376245737268
 20
-134.4913601009258
 30
0.0
 10
83.70376245737268
 20
-134.4913601009258
 30
0.0
 10
83.70376245737268
 20
-134.2347004872747
 30
0.0
 10
83.70376245737268
 20
-134.2347004872747
 30
0.0
 10
83.91873641565226
 20
-134.1709662207975
 30
0.0
 10
83.95077580366508
 20
-134.0245496626744
 30
0.0
 10
83.95077580366508
 20
-133.9170626835346
 30
0.0
 10
83.95077580366508
 20
-133.7558322148249
 30
0.0
 10
83.84328882452529
 20
-133.5797878355287
 30
0.0
 10
83.59162459932779
 20
-133.5797878355287
 30
0.0
 10
83.31481117708796
 20
-133.5797878355287
 30
0.0
 10
83.239363585961
 20
-133.7875270932892
 30
0.0
 10
83.239363585961
 20
-133.9267089508933
 30
0.0
 10
83.239363585961
 20
-133.963226963037
 30
0.0
 10
83.239363585961
 20
-134.1272135081349
 30
0.0
 10
83.37888995311361
 20
-134.2298773535953
 30
0.0
 10
83.37888995311361
 20
-134.2298773535953
 30
0.0
 10
83.35821938020212
 20
-134.432448968128
 30
0.0
 10
83.35821938020212
 20
-134.432448968128
 30
0.0
 10
83.35821938020212
 20
-134.432448968128
 30
0.0
 10
82.44320201931976
 20
-134.2932671105239
 30
0.0
 10
82.44320201931976
 20
-134.2932671105239
 30
0.0
 10
82.44320201931976
 20
-134.2932671105239
 30
0.0
 10
82.44320201931976
 20
-133.3940971888737
 30
0.0
 10
82.44320201931976
 20
-133.3940971888737
 30
0.0
 10
82.44320201931976
 20
-133.3940971888737
 30
0.0
 10
82.65369735346853
 20
-133.3940971888737
 30
0.0
 10
82.65369735346853
 20
-133.3940971888737
 30
0.0
 10
82.65369735346853
 20
-133.3940971888737
 30
0.0
 10
82.65369735346853
 20
-134.1051648970293
 30
0.0
 10
82.65369735346853
 20
-134.1051648970293
 30
0.0
 10
82.65369735346853
 20
-134.1051648970293
 30
0.0
 10
83.1112060339097
 20
-134.1809569977048
 30
0.0
 10
83.1112060339097
 20
-134.1809569977048
 30
0.0
 10
83.0745157669918
 20
-134.1099880307086
 30
0.0
 10
83.03110756387764
 20
-134.0145588857672
 30
0.0
 10
83.03110756387764
 20
-133.8777885950028
 30
0.0
 10
83.03110756387764
 20
-133.584610969208
 30
0.0
 10
83.23247339499049
 20
-133.3107258781307
 30
0.0
 10
83.57095402641629
 20
-133.3107258781307
 30
0.0
 10
83.91425779152144
 20
-133.3107258781307
 30
0.0
 10
84.16816132878435
 20
-133.5697970586214
 30
0.0
 10
84.16816132878435
 20
-133.9194742503743
 30
0.0
  0
HATCH
  5
C7
330
C0
100
AcDbEntity
  8
_U+30EC_U+30A4_U+30E4_U+30FC 1
 62
   179
420
  2234388
100
AcDbHatch
 10
0.0
 20
0.0
 30
0.0
210
0.0
220
0.0
230
1.0
  2
SOLID
 70
     1
 71
     0
 91
        1
 92
        1
 93
        1
 72
     4
 94
        3
 73
     0
 74
     1
 95
       53
 96
       49
 40
0.0
 40
0.0
 40
0.0
 40
0.0
 40
1.0
 40
1.0
 40
1.0
 40
2.0
 40
2.0
 40
2.0
 40
3.0
 40
3.0
 40
3.0
 40
4.0
 40
4.0
 40
4.0
 40
5.0
 40
5.0
 40
5.0
 40
6.0
 40
6.0
 40
6.0
 40
7.0
 40
7.0
 40
7.0
 40
8.0
 40
8.0
 40
8.0
 40
9.0
 40
9.0
 40
9.0
 40
10.0
 40
10.0
 40
10.0
 40
11.0
 40
11.0
 40
11.0
 40
12.0
 40
12.0
 40
12.0
 40
13.0
 40
13.0
 40
13.0
 40
14.0
 40
14.0
 40
14.0
 40
15.0
 40
15.0
 40
15.0
 40
16.0
 40
16.0
 40
16.0
 40
16.0
 10
84.16816132878435
 20
-133.9194742503743
 10
84.16816132878435
 20
-134.0097357520879
 10
84.14990232271253
 20
-134.1272135081349
 10
84.0811726677818
 20
-134.2443467546334
 10
83.96214461876642
 20
-134.4448513118749
 10
83.82037893954838
 20
-134.4693114898202
 10
83.70376245737268
 20
-134.4913601009258
 10
83.70376245737268
 20
-134.4913601009258
 10
83.70376245737268
 20
-134.2347004872747
 10
83.70376245737268
 20
-134.2347004872747
 10
83.91873641565226
 20
-134.1709662207975
 10
83.95077580366508
 20
-134.0245496626744
 10
83.95077580366508
 20
-133.9170626835346
 10
83.95077580366508
 20
-133.7558322148249
 10
83.84328882452529
 20
-133.5797878355287
 10
83.59162459932779
 20
-133.5797878355287
 10
83.31481117708796
 20
-133.5797878355287
 10
83.239363585961
 20
-133.7875270932892
 10
83.239363585961
 20
-133.9267089508933
 10
83.239363585961
 20
-133.963226963037
 10
83.239363585961
 20
-134.1272135081349
 10
83.37888995311361
 20
-134.2298773535953
 10
83.37888995311361
 20
-134.2298773535953
 10
83.35821938020212
 20
-134.432448968128
 10
83.35821938020212
 20
-134.432448968128
 10
83.35821938020212
 20
-134.432448968128
 10
82.44320201931976
 20
-134.2932671105239
 10
82.44320201931976
 20
-134.2932671105239
 10
82.44320201931976
 20
-134.2932671105239
 10
82.44320201931976
 20
-133.3940971888737
 10
82.44320201931976
 20
-133.3940971888737
 10
82.44320201931976
 20
-133.3940971888737
 10
82.65369735346853
 20
-133.3940971888737
 10
82.65369735346853
 20
-133.3940971888737
 10
82.65369735346853
 20
-133.3940971888737
 10
82.65369735346853
 20
-134.1051648970293
 10
82.65369735346853
 20
-134.1051648970293
 10
82.65369735346853
 20
-134.1051648970293
 10
83.1112060339097
 20
-134.1809569977048
 10
83.1112060339097
 20
-134.1809569977048
 10
83.0745157669918
 20
-134.1099880307086
 10
83.03110756387764
 20
-134.0145588857672
 10
83.03110756387764
 20
-133.8777885950028
 10
83.03110756387764
 20
-133.584610969208
 10
83.23247339499049
 20
-133.3107258781307
 10
83.57095402641629
 20
-133.3107258781307
 10
83.91425779152144
 20
-133.3107258781307
 10
84.16816132878435
 20
-133.5697970586214
 10
84.16816132878435
 20
-133.9194742503743
 97
        0
 97
        0
 75
     2
 76
     1
 98
        0
  0
ENDBLK
  5
C3
330
C0
100
AcDbEntity
  8
0
100
AcDbBlockEnd
  0
BLOCK
  5
D2
330
D0
100
AcDbEntity
  8
0
100
AcDbBlockBegin
  2
block 4
 70
     0
 10
0.0
 20
0.0
 30
0.0
  3
block 4
  1

  0
SPLINE
  5
D4
330
D0
100
AcDbEntity
  8
_U+30EC_U+30A4_U+30E4_U+30FC 1
370
     0
100
AcDbSpline
210
0.0
220
0.0
230
1.0
 70
    11
 71
     3
 72
    26
 73
    22
 74
     0
 42
0.0000000001
 43
0.0000000001
 12
1.0
 22
0.0
 32
0.0
 13
1.0
 23
0.0
 33
0.0
 40
0.0
 40
0.0
 40
0.0
 40
0.0
 40
1.0
 40
1.0
 40
1.0
 40
2.0
 40
2.0
 40
2.0
 40
3.0
 40
3.0
 40
3.0
 40
4.0
 40
4.0
 40
4.0
 40
5.0
 40
5.0
 40
5.0
 40
6.0
 40
6.0
 40
6.0
 40
7.0
 40
7.0
 40
7.0
 40
7.0
 10
83.71857636795924
 20
-129.1356146595564
 30
0.0
 10
83.71857636795924
 20
-129.1356146595564
 30
0.0
 10
82.52433401799739
 20
-129.1356146595564
 30
0.0
 10
82.52433401799739
 20
-129.1356146595564
 30
0.0
 10
82.52433401799739
 20
-129.1356146595564
 30
0.0
 10
82.52433401799739
 20
-129.5169867297735
 30
0.0
 10
82.52433401799739
 20
-129.5169867297735
 30
0.0
 10
82.52433401799739
 20
-129.5169867297735
 30
0.0
 10
82.36413707793328
 20
-129.5169867297735
 30
0.0
 10
82.36413707793328
 20
-129.5169867297735
 30
0.0
 10
82.34828963870113
 20
-129.1332030927167
 30
0.0
 10
82.17207300463059
 20
-129.0794596031468
 30
0.0
 10
82.0485663314844
 20
-129.0453531578428
 30
0.0
 10
82.0485663314844
 20
-129.0453531578428
 30
0.0
 10
82.0485663314844
 20
-128.8765434790656
 30
0.0
 10
82.0485663314844
 20
-128.8765434790656
 30
0.0
 10
82.0485663314844
 20
-128.8765434790656
 30
0.0
 10
83.71857636795924
 20
-128.8765434790656
 30
0.0
 10
83.71857636795924
 20
-128.8765434790656
 30
0.0
 10
83.71857636795924
 20
-128.8765434790656
 30
0.0
 10
83.71857636795924
 20
-129.1356146595564
 30
0.0
 10
83.71857636795924
 20
-129.1356146595564
 30
0.0
  0
HATCH
  5
D5
330
D0
100
AcDbEntity
  8
_U+30EC_U+30A4_U+30E4_U+30FC 1
 62
   179
420
  2234388
100
AcDbHatch
 10
0.0
 20
0.0
 30
0.0
210
0.0
220
0.0
230
1.0
  2
SOLID
 70
     1
 71
     0
 91
        1
 92
        1
 93
        1
 72
     4
 94
        3
 73
     0
 74
     1
 95
       26
 96
       22
 40
0.0
 40
0.0
 40
0.0
 40
0.0
 40
1.0
 40
1.0
 40
1.0
 40
2.0
 40
2.0
 40
2.0
 40
3.0
 40
3.0
 40
3.0
 40
4.0
 40
4.0
 40
4.0
 40
5.0
 40
5.0
 40
5.0
 40
6.0
 40
6.0
 40
6.0
 40
7.0
 40
7.0
 40
7.0
 40
7.0
 10
83.71857636795924
 20
-129.1356146595564
 10
83.71857636795924
 20
-129.1356146595564
 10
82.52433401799739
 20
-129.1356146595564
 10
82.52433401799739
 20
-129.1356146595564
 10
82.52433401799739
 20
-129.1356146595564
 10
82.52433401799739
 20
-129.5169867297735
 10
82.52433401799739
 20
-129.5169867297735
 10
82.52433401799739
 20
-129.5169867297735
 10
82.36413707793328
 20
-129.5169867297735
 10
82.36413707793328
 20
-129.5169867297735
 10
82.34828963870113
 20
-129.1332030927167
 10
82.17207300463059
 20
-129.0794596031468
 10
82.0485663314844
 20
-129.0453531578428
 10
82.0485663314844
 20
-129.0453531578428
 10
82.0485663314844
 20
-128.8765434790656
 10
82.0485663314844
 20
-128.8765434790656
 10
82.0485663314844
 20
-128.8765434790656
 10
83.71857636795924
 20
-128.8765434790656
 10
83.71857636795924
 20
-128.8765434790656
 10
83.71857636795924
 20
-128.8765434790656
 10
83.71857636795924
 20
-129.1356146595564
 10
83.71857636795924
 20
-129.1356146595564
 97
        0
 97
        0
 75
     2
 76
     1
 98
        0
  0
ENDBLK
  5
D3
330
D0
100
AcDbEntity
  8
0
100
AcDbBlockEnd
  0
BLOCK
  5
E4
330
E2
100
AcDbEntity
  8
0
100
AcDbBlockBegin
  2
block 5
 70
     0
 10
0.0
 20
0.0
 30
0.0
  3
block 5
  1

  0
POLYLINE
  5
E6
330
E2
100
AcDbEntity
  8
_U+30EC_U+30A4_U+30E4_U+30FC 1
370
     0
100
AcDb2dPolyline
 66
     1
 10
0.0
 20
0.0
 30
0.0
  0
VERTEX
  5
E7
330
E6
100
AcDbEntity
  8
_U+30EC_U+30A4_U+30E4_U+30FC 1
370
     0
100
AcDbVertex
100
AcDb2dVertex
 10
83.73804115745091
 20
-119.7969943276896
 30
0.0
  0
VERTEX
  5
E8
330
E6
100
AcDbEntity
  8
_U+30EC_U+30A4_U+30E4_U+30FC 1
370
     0
100
AcDbVertex
100
AcDb2dVertex
 10
84.11321205579462
 20
-119.7969943276896
 30
0.0
  0
VERTEX
  5
E9
330
E6
100
AcDbEntity
  8
_U+30EC_U+30A4_U+30E4_U+30FC 1
370
     0
100
AcDbVertex
100
AcDb2dVertex
 10
84.11321205579462
 20
-120.0488308076614
 30
0.0
  0
VERTEX
  5
EA
330
E6
100
AcDbEntity
  8
_U+30EC_U+30A4_U+30E4_U+30FC 1
370
     0
100
AcDbVertex
100
AcDb2dVertex
 10
83.73804115745091
 20
-120.0488308076614
 30
0.0
  0
VERTEX
  5
EB
330
E6
100
AcDbEntity
  8
_U+30EC_U+30A4_U+30E4_U+30FC 1
370
     0
100
AcDbVertex
100
AcDb2dVertex
 10
83.73804115745091
 20
-120.8064073048678
 30
0.0
  0
VERTEX
  5
EC
330
E6
100
AcDbEntity
  8
_U+30EC_U+30A4_U+30E4_U+30FC 1
370
     0
100
AcDbVertex
100
AcDb2dVertex
 10
83.49550643528931
 20
-120.8064073048678
 30
0.0
  0
VERTEX
  5
ED
330
E6
100
AcDbEntity
  8
_U+30EC_U+30A4_U+30E4_U+30FC 1
370
     0
100
AcDbVertex
100
AcDb2dVertex
 10
82.44320201931976
 20
-120.0219590628765
 30
0.0
  0
VERTEX
  5
EE
330
E6
100
AcDbEntity
  8
_U+30EC_U+30A4_U+30E4_U+30FC 1
370
     0
100
AcDbVertex
100
AcDb2dVertex
 10
82.44320201931976
 20
-119.7969943276896
 30
0.0
  0
VERTEX
  5
EF
330
E6
100
AcDbEntity
  8
_U+30EC_U+30A4_U+30E4_U+30FC 1
370
     0
100
AcDbVertex
100
AcDb2dVertex
 10
83.52289494439705
 20
-119.7969943276896
 30
0.0
  0
VERTEX
  5
F0
330
E6
100
AcDbEntity
  8
_U+30EC_U+30A4_U+30E4_U+30FC 1
370
     0
100
AcDbVertex
100
AcDb2dVertex
 10
83.52289494439705
 20
-119.5575601914648
 30
0.0
  0
VERTEX
  5
F1
330
E6
100
AcDbEntity
  8
_U+30EC_U+30A4_U+30E4_U+30FC 1
370
     0
100
AcDbVertex
100
AcDb2dVertex
 10
83.73804115745091
 20
-119.5575601914648
 30
0.0
  0
VERTEX
  5
F2
330
E6
100
AcDbEntity
  8
_U+30EC_U+30A4_U+30E4_U+30FC 1
370
     0
100
AcDbVertex
100
AcDb2dVertex
 10
83.73804115745091
 20
-119.7969943276896
 30
0.0
  0
SEQEND
  5
F3
330
E6
100
AcDbEntity
  8
_U+30EC_U+30A4_U+30E4_U+30FC 1
370
     0
  0
POLYLINE
  5
F4
330
E2
100
AcDbEntity
  8
_U+30EC_U+30A4_U+30E4_U+30FC 1
370
     0
100
AcDb2dPolyline
 66
     1
 10
0.0
 20
0.0
 30
0.0
  0
VERTEX
  5
F5
330
F4
100
AcDbEntity
  8
_U+30EC_U+30A4_U+30E4_U+30FC 1
370
     0
100
AcDbVertex
100
AcDb2dVertex
 10
82.81372203875839
 20
-120.0488308076614
 30
0.0
  0
VERTEX
  5
F6
330
F4
100
AcDbEntity
  8
_U+30EC_U+30A4_U+30E4_U+30FC 1
370
     0
100
AcDbVertex
100
AcDb2dVertex
 10
83.52289494439705
 20
-120.5766194360017
 30
0.0
  0
VERTEX
  5
F7
330
F4
100
AcDbEntity
  8
_U+30EC_U+30A4_U+30E4_U+30FC 1
370
     0
100
AcDbVertex
100
AcDb2dVertex
 10
83.52289494439705
 20
-120.0488308076614
 30
0.0
  0
VERTEX
  5
F8
330
F4
100
AcDbEntity
  8
_U+30EC_U+30A4_U+30E4_U+30FC 1
370
     0
100
AcDbVertex
100
AcDb2dVertex
 10
82.81372203875839
 20
-120.0488308076614
 30
0.0
  0
SEQEND
  5
F9
330
F4
100
AcDbEntity
  8
_U+30EC_U+30A4_U+30E4_U+30FC 1
370
     0
  0
HATCH
  5
FA
330
E2
100
AcDbEntity
  8
_U+30EC_U+30A4_U+30E4_U+30FC 1
 62
   179
420
  2234388
100
AcDbHatch
 10
0.0
 20
0.0
 30
0.0
210
0.0
220
0.0
230
1.0
  2
SOLID
 70
     1
 71
     0
 91
        2
 92
        1
 93
       11
 72
     1
 10
83.73804115745091
 20
-119.7969943276896
 11
84.11321205579462
 21
-119.7969943276896
 72
     1
 10
84.11321205579462
 20
-119.7969943276896
 11
84.11321205579462
 21
-120.0488308076614
 72
     1
 10
84.11321205579462
 20
-120.0488308076614
 11
83.73804115745091
 21
-120.0488308076614
 72
     1
 10
83.73804115745091
 20
-120.0488308076614
 11
83.73804115745091
 21
-120.8064073048678
 72
     1
 10
83.73804115745091
 20
-120.8064073048678
 11
83.49550643528931
 21
-120.8064073048678
 72
     1
 10
83.49550643528931
 20
-120.8064073048678
 11
82.44320201931976
 21
-120.0219590628765
 72
     1
 10
82.44320201931976
 20
-120.0219590628765
 11
82.44320201931976
 21
-119.7969943276896
 72
     1
 10
82.44320201931976
 20
-119.7969943276896
 11
83.52289494439705
 21
-119.7969943276896
 72
     1
 10
83.52289494439705
 20
-119.7969943276896
 11
83.52289494439705
 21
-119.5575601914648
 72
     1
 10
83.52289494439705
 20
-119.5575601914648
 11
83.73804115745091
 21
-119.5575601914648
 72
     1
 10
83.73804115745091
 20
-119.5575601914648
 11
83.73804115745091
 21
-119.7969943276896
 97
        0
 92
        1
 93
        3
 72
     1
 10
82.81372203875839
 20
-120.0488308076614
 11
83.52289494439705
 21
-120.5766194360017
 72
     1
 10
83.52289494439705
 20
-120.5766194360017
 11
83.52289494439705
 21
-120.0488308076614
 72
     1
 10
83.52289494439705
 20
-120.0488308076614
 11
82.81372203875839
 21
-120.0488308076614
 97
        0
 75
     2
 76
     1
 98
        0
  0
SPLINE
  5
FB
330
E2
100
AcDbEntity
  8
_U+30EC_U+30A4_U+30E4_U+30FC 1
370
     0
100
AcDbSpline
210
0.0
220
0.0
230
1.0
 70
    11
 71
     3
 72
    29
 73
    25
 74
     0
 42
0.0000000001
 43
0.0000000001
 12
1.0
 22
0.0
 32
0.0
 13
1.0
 23
0.0
 33
0.0
 40
0.0
 40
0.0
 40
0.0
 40
0.0
 40
1.0
 40
1.0
 40
1.0
 40
2.0
 40
2.0
 40
2.0
 40
3.0
 40
3.0
 40
3.0
 40
4.0
 40
4.0
 40
4.0
 40
5.0
 40
5.0
 40
5.0
 40
6.0
 40
6.0
 40
6.0
 40
7.0
 40
7.0
 40
7.0
 40
8.0
 40
8.0
 40
8.0
 40
8.0
 10
83.92097572771767
 20
-118.3628010771801
 30
0.0
 10
84.14749075587285
 20
-118.4875135337462
 30
0.0
 10
84.16816132878435
 20
-118.6880180909877
 30
0.0
 10
84.16816132878435
 20
-118.8223768149125
 30
0.0
 10
84.16816132878435
 20
-119.0080674615674
 30
0.0
 10
84.1178629346997
 20
-119.1717094971168
 30
0.0
 10
83.92097572771767
 20
-119.2819525526448
 30
0.0
 10
83.71065264834317
 20
-119.401497365983
 30
0.0
 10
83.45433754424059
 20
-119.4235459770886
 30
0.0
 10
83.27812091017006
 20
-119.4235459770886
 30
0.0
 10
83.12257484901103
 20
-119.4235459770886
 30
0.0
 10
82.85041230567629
 20
-119.4039089328226
 30
0.0
 10
82.63526609262243
 20
-119.2819525526448
 30
0.0
 10
82.41564125543776
 20
-119.1572400960788
 30
0.0
 10
82.39049205839544
 20
-118.9715494494238
 30
0.0
 10
82.39049205839544
 20
-118.8223768149125
 30
0.0
 10
82.39049205839544
 20
-118.6390977350972
 30
0.0
 10
82.43855114041467
 20
-118.4730441327081
 30
0.0
 10
82.63526609262243
 20
-118.3628010771801
 30
0.0
 10
82.84352211470579
 20
-118.2480793975213
 30
0.0
 10
83.0905354609982
 20
-118.2212076527364
 30
0.0
 10
83.27812091017006
 20
-118.2212076527364
 30
0.0
 10
83.4634670472765
 20
-118.2212076527364
 30
0.0
 10
83.71289196040858
 20
-118.2456678306816
 30
0.0
 10
83.92097572771767
 20
-118.3628010771801
 30
0.0
  0
SPLINE
  5
FC
330
E2
100
AcDbEntity
  8
_U+30EC_U+30A4_U+30E4_U+30FC 1
370
     0
100
AcDbSpline
210
0.0
220
0.0
230
1.0
 70
    11
 71
     3
 72
    17
 73
    13
 74
     0
 42
0.0000000001
 43
0.0000000001
 12
1.0
 22
0.0
 32
0.0
 13
1.0
 23
0.0
 33
0.0
 40
0.0
 40
0.0
 40
0.0
 40
0.0
 40
1.0
 40
1.0
 40
1.0
 40
2.0
 40
2.0
 40
2.0
 40
3.0
 40
3.0
 40
3.0
 40
4.0
 40
4.0
 40
4.0
 40
4.0
 10
82.59874808047879
 20
-118.8223768149125
 30
0.0
 10
82.59874808047879
 20
-119.1107313070279
 30
0.0
 10
82.90518932389176
 20
-119.1644747965978
 30
0.0
 10
83.27812091017006
 20
-119.1644747965978
 30
0.0
 10
83.62366398734062
 20
-119.1644747965978
 30
0.0
 10
83.95766599463559
 20
-119.1227891412262
 30
0.0
 10
83.95766599463559
 20
-118.8223768149125
 30
0.0
 10
83.95766599463559
 20
-118.5364338896367
 30
0.0
 10
83.65329180851377
 20
-118.4802788332272
 30
0.0
 10
83.27812091017006
 20
-118.4802788332272
 30
0.0
 10
82.93275008777375
 20
-118.4802788332272
 30
0.0
 10
82.59874808047879
 20
-118.5243760554384
 30
0.0
 10
82.59874808047879
 20
-118.8223768149125
 30
0.0
  0
HATCH
  5
FD
330
E2
100
AcDbEntity
  8
_U+30EC_U+30A4_U+30E4_U+30FC 1
 62
   179
420
  2234388
100
AcDbHatch
 10
0.0
 20
0.0
 30
0.0
210
0.0
220
0.0
230
1.0
  2
SOLID
 70
     1
 71
     0
 91
        2
 92
        1
 93
        1
 72
     4
 94
        3
 73
     0
 74
     1
 95
       29
 96
       25
 40
0.0
 40
0.0
 40
0.0
 40
0.0
 40
1.0
 40
1.0
 40
1.0
 40
2.0
 40
2.0
 40
2.0
 40
3.0
 40
3.0
 40
3.0
 40
4.0
 40
4.0
 40
4.0
 40
5.0
 40
5.0
 40
5.0
 40
6.0
 40
6.0
 40
6.0
 40
7.0
 40
7.0
 40
7.0
 40
8.0
 40
8.0
 40
8.0
 40
8.0
 10
83.92097572771767
 20
-118.3628010771801
 10
84.14749075587285
 20
-118.4875135337462
 10
84.16816132878435
 20
-118.6880180909877
 10
84.16816132878435
 20
-118.8223768149125
 10
84.16816132878435
 20
-119.0080674615674
 10
84.1178629346997
 20
-119.1717094971168
 10
83.92097572771767
 20
-119.2819525526448
 10
83.71065264834317
 20
-119.401497365983
 10
83.45433754424059
 20
-119.4235459770886
 10
83.27812091017006
 20
-119.4235459770886
 10
83.12257484901103
 20
-119.4235459770886
 10
82.85041230567629
 20
-119.4039089328226
 10
82.63526609262243
 20
-119.2819525526448
 10
82.41564125543776
 20
-119.1572400960788
 10
82.39049205839544
 20
-118.9715494494238
 10
82.39049205839544
 20
-118.8223768149125
 10
82.39049205839544
 20
-118.6390977350972
 10
82.43855114041467
 20
-118.4730441327081
 10
82.63526609262243
 20
-118.3628010771801
 10
82.84352211470579
 20
-118.2480793975213
 10
83.0905354609982
 20
-118.2212076527364
 10
83.27812091017006
 20
-118.2212076527364
 10
83.4634670472765
 20
-118.2212076527364
 10
83.71289196040858
 20
-118.2456678306816
 10
83.92097572771767
 20
-118.3628010771801
 97
        0
 97
        0
 92
        1
 93
        1
 72
     4
 94
        3
 73
     0
 74
     1
 95
       17
 96
       13
 40
0.0
 40
0.0
 40
0.0
 40
0.0
 40
1.0
 40
1.0
 40
1.0
 40
2.0
 40
2.0
 40
2.0
 40
3.0
 40
3.0
 40
3.0
 40
4.0
 40
4.0
 40
4.0
 40
4.0
 10
82.59874808047879
 20
-118.8223768149125
 10
82.59874808047879
 20
-119.1107313070279
 10
82.90518932389176
 20
-119.1644747965978
 10
83.27812091017006
 20
-119.1644747965978
 10
83.62366398734062
 20
-119.1644747965978
 10
83.95766599463559
 20
-119.1227891412262
 10
83.95766599463559
 20
-118.8223768149125
 10
83.95766599463559
 20
-118.5364338896367
 10
83.65329180851377
 20
-118.4802788332272
 10
83.27812091017006
 20
-118.4802788332272
 10
82.93275008777375
 20
-118.4802788332272
 10
82.59874808047879
 20
-118.5243760554384
 10
82.59874808047879
 20
-118.8223768149125
 97
        0
 97
        0
 75
     2
 76
     1
 98
        0
  0
ENDBLK
  5
E5
330
E2
100
AcDbEntity
  8
0
100
AcDbBlockEnd
  0
BLOCK
  5
10C
330
10A
100
AcDbEntity
  8
0
100
AcDbBlockBegin
  2
block 6
 70
     0
 10
0.0
 20
0.0
 30
0.0
  3
block 6
  1

  0
SPLINE
  5
10E
330
10A
100
AcDbEntity
  8
_U+30EC_U+30A4_U+30E4_U+30FC 1
370
     0
100
AcDbSpline
210
0.0
220
0.0
230
1.0
 70
    11
 71
     3
 72
    26
 73
    22
 74
     0
 42
0.0000000001
 43
0.0000000001
 12
1.0
 22
0.0
 32
0.0
 13
1.0
 23
0.0
 33
0.0
 40
0.0
 40
0.0
 40
0.0
 40
0.0
 40
1.0
 40
1.0
 40
1.0
 40
2.0
 40
2.0
 40
2.0
 40
3.0
 40
3.0
 40
3.0
 40
4.0
 40
4.0
 40
4.0
 40
5.0
 40
5.0
 40
5.0
 40
6.0
 40
6.0
 40
6.0
 40
7.0
 40
7.0
 40
7.0
 40
7.0
 10
95.64239635195746
 20
-142.0905517222899
 30
0.0
 10
95.64239635195746
 20
-142.0905517222899
 30
0.0
 10
95.64239635195746
 20
-140.8964816271023
 30
0.0
 10
95.64239635195746
 20
-140.8964816271023
 30
0.0
 10
95.64239635195746
 20
-140.8964816271023
 30
0.0
 10
95.26136879128883
 20
-140.8964816271023
 30
0.0
 10
95.26136879128883
 20
-140.8964816271023
 30
0.0
 10
95.26136879128883
 20
-140.8964816271023
 30
0.0
 10
95.26136879128883
 20
-140.7362846870382
 30
0.0
 10
95.26136879128883
 20
-140.7362846870382
 30
0.0
 10
95.64480791879714
 20
-140.7200927382575
 30
0.0
 10
95.69855140836704
 20
-140.5440483589612
 30
0.0
 10
95.73300236321953
 20
-140.4203694310407
 30
0.0
 10
95.73300236321953
 20
-140.4203694310407
 30
0.0
 10
95.90146753244825
 20
-140.4203694310407
 30
0.0
 10
95.90146753244825
 20
-140.4203694310407
 30
0.0
 10
95.90146753244825
 20
-140.4203694310407
 30
0.0
 10
95.90146753244825
 20
-142.0905517222899
 30
0.0
 10
95.90146753244825
 20
-142.0905517222899
 30
0.0
 10
95.90146753244825
 20
-142.0905517222899
 30
0.0
 10
95.64239635195746
 20
-142.0905517222899
 30
0.0
 10
95.64239635195746
 20
-142.0905517222899
 30
0.0
  0
HATCH
  5
10F
330
10A
100
AcDbEntity
  8
_U+30EC_U+30A4_U+30E4_U+30FC 1
 62
   179
420
  2234388
100
AcDbHatch
 10
0.0
 20
0.0
 30
0.0
210
0.0
220
0.0
230
1.0
  2
SOLID
 70
     1
 71
     0
 91
        1
 92
        1
 93
        1
 72
     4
 94
        3
 73
     0
 74
     1
 95
       26
 96
       22
 40
0.0
 40
0.0
 40
0.0
 40
0.0
 40
1.0
 40
1.0
 40
1.0
 40
2.0
 40
2.0
 40
2.0
 40
3.0
 40
3.0
 40
3.0
 40
4.0
 40
4.0
 40
4.0
 40
5.0
 40
5.0
 40
5.0
 40
6.0
 40
6.0
 40
6.0
 40
7.0
 40
7.0
 40
7.0
 40
7.0
 10
95.64239635195746
 20
-142.0905517222899
 10
95.64239635195746
 20
-142.0905517222899
 10
95.64239635195746
 20
-140.8964816271023
 10
95.64239635195746
 20
-140.8964816271023
 10
95.64239635195746
 20
-140.8964816271023
 10
95.26136879128883
 20
-140.8964816271023
 10
95.26136879128883
 20
-140.8964816271023
 10
95.26136879128883
 20
-140.8964816271023
 10
95.26136879128883
 20
-140.7362846870382
 10
95.26136879128883
 20
-140.7362846870382
 10
95.64480791879714
 20
-140.7200927382575
 10
95.69855140836704
 20
-140.5440483589612
 10
95.73300236321953
 20
-140.4203694310407
 10
95.73300236321953
 20
-140.4203694310407
 10
95.90146753244825
 20
-140.4203694310407
 10
95.90146753244825
 20
-140.4203694310407
 10
95.90146753244825
 20
-140.4203694310407
 10
95.90146753244825
 20
-142.0905517222899
 10
95.90146753244825
 20
-142.0905517222899
 10
95.90146753244825
 20
-142.0905517222899
 10
95.64239635195746
 20
-142.0905517222899
 10
95.64239635195746
 20
-142.0905517222899
 97
        0
 97
        0
 75
     2
 76
     1
 98
        0
  0
SPLINE
  5
110
330
10A
100
AcDbEntity
  8
_U+30EC_U+30A4_U+30E4_U+30FC 1
370
     0
100
AcDbSpline
210
0.0
220
0.0
230
1.0
 70
    11
 71
     3
 72
    53
 73
    49
 74
     0
 42
0.0000000001
 43
0.0000000001
 12
1.0
 22
0.0
 32
0.0
 13
1.0
 23
0.0
 33
0.0
 40
0.0
 40
0.0
 40
0.0
 40
0.0
 40
1.0
 40
1.0
 40
1.0
 40
2.0
 40
2.0
 40
2.0
 40
3.0
 40
3.0
 40
3.0
 40
4.0
 40
4.0
 40
4.0
 40
5.0
 40
5.0
 40
5.0
 40
6.0
 40
6.0
 40
6.0
 40
7.0
 40
7.0
 40
7.0
 40
8.0
 40
8.0
 40
8.0
 40
9.0
 40
9.0
 40
9.0
 40
10.0
 40
10.0
 40
10.0
 40
11.0
 40
11.0
 40
11.0
 40
12.0
 40
12.0
 40
12.0
 40
13.0
 40
13.0
 40
13.0
 40
14.0
 40
14.0
 40
14.0
 40
15.0
 40
15.0
 40
15.0
 40
16.0
 40
16.0
 40
16.0
 40
16.0
 10
97.03490394709544
 20
-142.1453287405053
 30
0.0
 10
96.9446424453819
 20
-142.1453287405053
 30
0.0
 10
96.8275091988834
 20
-142.1270697344335
 30
0.0
 10
96.71003144283638
 20
-142.0585123342771
 30
0.0
 10
96.50952688559485
 20
-141.9396565400359
 30
0.0
 10
96.48506670764957
 20
-141.7977186060436
 30
0.0
 10
96.4633626060925
 20
-141.6809298690937
 30
0.0
 10
96.4633626060925
 20
-141.6809298690937
 30
0.0
 10
96.71967771019509
 20
-141.6809298690937
 30
0.0
 10
96.71967771019509
 20
-141.6809298690937
 30
0.0
 10
96.78341197667221
 20
-141.8962483369218
 30
0.0
 10
96.92982853479532
 20
-141.9282877249346
 30
0.0
 10
97.03766002348364
 20
-141.9282877249346
 30
0.0
 10
97.19889049219334
 20
-141.9282877249346
 30
0.0
 10
97.3749348714896
 20
-141.8204562362463
 30
0.0
 10
97.3749348714896
 20
-141.568964265823
 30
0.0
 10
97.3749348714896
 20
-141.2919785888089
 30
0.0
 10
97.16719561372904
 20
-141.216530997682
 30
0.0
 10
97.02766924657642
 20
-141.216530997682
 30
0.0
 10
96.99115123443278
 20
-141.216530997682
 30
0.0
 10
96.8275091988834
 20
-141.216530997682
 30
0.0
 10
96.72484535342296
 20
-141.3560573648346
 30
0.0
 10
96.72484535342296
 20
-141.3560573648346
 30
0.0
 10
96.52192922934175
 20
-141.3357313014716
 30
0.0
 10
96.52192922934175
 20
-141.3357313014716
 30
0.0
 10
96.52192922934175
 20
-141.3357313014716
 30
0.0
 10
96.66111108694584
 20
-140.4203694310407
 30
0.0
 10
96.66111108694584
 20
-140.4203694310407
 30
0.0
 10
96.66111108694584
 20
-140.4203694310407
 30
0.0
 10
97.56062551814458
 20
-140.4203694310407
 30
0.0
 10
97.56062551814458
 20
-140.4203694310407
 30
0.0
 10
97.56062551814458
 20
-140.4203694310407
 30
0.0
 10
97.56062551814458
 20
-140.6308647651895
 30
0.0
 10
97.56062551814458
 20
-140.6308647651895
 30
0.0
 10
97.56062551814458
 20
-140.6308647651895
 30
0.0
 10
96.84921330044048
 20
-140.6308647651895
 30
0.0
 10
96.84921330044048
 20
-140.6308647651895
 30
0.0
 10
96.84921330044048
 20
-140.6308647651895
 30
0.0
 10
96.77342119976498
 20
-141.0883734456307
 30
0.0
 10
96.77342119976498
 20
-141.0883734456307
 30
0.0
 10
96.84439016676113
 20
-141.051855433487
 30
0.0
 10
96.93981931170255
 20
-141.0084472303729
 30
0.0
 10
97.07658960246697
 20
-141.0084472303729
 30
0.0
 10
97.36976722826174
 20
-141.0084472303729
 30
0.0
 10
97.6436523193391
 20
-141.2096408067115
 30
0.0
 10
97.6436523193391
 20
-141.5482936929116
 30
0.0
 10
97.6436523193391
 20
-141.8914252032424
 30
0.0
 10
97.3845811388483
 20
-142.1453287405053
 30
0.0
 10
97.03490394709544
 20
-142.1453287405053
 30
0.0
  0
HATCH
  5
111
330
10A
100
AcDbEntity
  8
_U+30EC_U+30A4_U+30E4_U+30FC 1
 62
   179
420
  2234388
100
AcDbHatch
 10
0.0
 20
0.0
 30
0.0
210
0.0
220
0.0
230
1.0
  2
SOLID
 70
     1
 71
     0
 91
        1
 92
        1
 93
        1
 72
     4
 94
        3
 73
     0
 74
     1
 95
       53
 96
       49
 40
0.0
 40
0.0
 40
0.0
 40
0.0
 40
1.0
 40
1.0
 40
1.0
 40
2.0
 40
2.0
 40
2.0
 40
3.0
 40
3.0
 40
3.0
 40
4.0
 40
4.0
 40
4.0
 40
5.0
 40
5.0
 40
5.0
 40
6.0
 40
6.0
 40
6.0
 40
7.0
 40
7.0
 40
7.0
 40
8.0
 40
8.0
 40
8.0
 40
9.0
 40
9.0
 40
9.0
 40
10.0
 40
10.0
 40
10.0
 40
11.0
 40
11.0
 40
11.0
 40
12.0
 40
12.0
 40
12.0
 40
13.0
 40
13.0
 40
13.0
 40
14.0
 40
14.0
 40
14.0
 40
15.0
 40
15.0
 40
15.0
 40
16.0
 40
16.0
 40
16.0
 40
16.0
 10
97.03490394709544
 20
-142.1453287405053
 10
96.9446424453819
 20
-142.1453287405053
 10
96.8275091988834
 20
-142.1270697344335
 10
96.71003144283638
 20
-142.0585123342771
 10
96.50952688559485
 20
-141.9396565400359
 10
96.48506670764957
 20
-141.7977186060436
 10
96.4633626060925
 20
-141.6809298690937
 10
96.4633626060925
 20
-141.6809298690937
 10
96.71967771019509
 20
-141.6809298690937
 10
96.71967771019509
 20
-141.6809298690937
 10
96.78341197667221
 20
-141.8962483369218
 10
96.92982853479532
 20
-141.9282877249346
 10
97.03766002348364
 20
-141.9282877249346
 10
97.19889049219334
 20
-141.9282877249346
 10
97.3749348714896
 20
-141.8204562362463
 10
97.3749348714896
 20
-141.568964265823
 10
97.3749348714896
 20
-141.2919785888089
 10
97.16719561372904
 20
-141.216530997682
 10
97.02766924657642
 20
-141.216530997682
 10
96.99115123443278
 20
-141.216530997682
 10
96.8275091988834
 20
-141.216530997682
 10
96.72484535342296
 20
-141.3560573648346
 10
96.72484535342296
 20
-141.3560573648346
 10
96.52192922934175
 20
-141.3357313014716
 10
96.52192922934175
 20
-141.3357313014716
 10
96.52192922934175
 20
-141.3357313014716
 10
96.66111108694584
 20
-140.4203694310407
 10
96.66111108694584
 20
-140.4203694310407
 10
96.66111108694584
 20
-140.4203694310407
 10
97.56062551814458
 20
-140.4203694310407
 10
97.56062551814458
 20
-140.4203694310407
 10
97.56062551814458
 20
-140.4203694310407
 10
97.56062551814458
 20
-140.6308647651895
 10
97.56062551814458
 20
-140.6308647651895
 10
97.56062551814458
 20
-140.6308647651895
 10
96.84921330044048
 20
-140.6308647651895
 10
96.84921330044048
 20
-140.6308647651895
 10
96.84921330044048
 20
-140.6308647651895
 10
96.77342119976498
 20
-141.0883734456307
 10
96.77342119976498
 20
-141.0883734456307
 10
96.84439016676113
 20
-141.051855433487
 10
96.93981931170255
 20
-141.0084472303729
 10
97.07658960246697
 20
-141.0084472303729
 10
97.36976722826174
 20
-141.0084472303729
 10
97.6436523193391
 20
-141.2096408067115
 10
97.6436523193391
 20
-141.5482936929116
 10
97.6436523193391
 20
-141.8914252032424
 10
97.3845811388483
 20
-142.1453287405053
 10
97.03490394709544
 20
-142.1453287405053
 97
        0
 97
        0
 75
     2
 76
     1
 98
        0
  0
ENDBLK
  5
10D
330
10A
100
AcDbEntity
  8
0
100
AcDbBlockEnd
  0
BLOCK
  5
120
330
11E
100
AcDbEntity
  8
0
100
AcDbBlockBegin
  2
block 7
 70
     0
 10
0.0
 20
0.0
 30
0.0
  3
block 7
  1

  0
SPLINE
  5
122
330
11E
100
AcDbEntity
  8
_U+30EC_U+30A4_U+30E4_U+30FC 1
370
     0
100
AcDbSpline
210
0.0
220
0.0
230
1.0
 70
    11
 71
     3
 72
    62
 73
    58
 74
     0
 42
0.0000000001
 43
0.0000000001
 12
1.0
 22
0.0
 32
0.0
 13
1.0
 23
0.0
 33
0.0
 40
0.0
 40
0.0
 40
0.0
 40
0.0
 40
1.0
 40
1.0
 40
1.0
 40
2.0
 40
2.0
 40
2.0
 40
3.0
 40
3.0
 40
3.0
 40
4.0
 40
4.0
 40
4.0
 40
5.0
 40
5.0
 40
5.0
 40
6.0
 40
6.0
 40
6.0
 40
7.0
 40
7.0
 40
7.0
 40
8.0
 40
8.0
 40
8.0
 40
9.0
 40
9.0
 40
9.0
 40
10.0
 40
10.0
 40
10.0
 40
11.0
 40
11.0
 40
11.0
 40
12.0
 40
12.0
 40
12.0
 40
13.0
 40
13.0
 40
13.0
 40
14.0
 40
14.0
 40
14.0
 40
15.0
 40
15.0
 40
15.0
 40
16.0
 40
16.0
 40
16.0
 40
17.0
 40
17.0
 40
17.0
 40
18.0
 40
18.0
 40
18.0
 40
19.0
 40
19.0
 40
19.0
 40
19.0
 10
90.72641734928021
 20
-144.0632133971439
 30
0.0
 10
90.61651880330074
 20
-144.0632133971439
 30
0.0
 10
90.36485457810323
 20
-144.0404757669413
 30
0.0
 10
90.22067733204553
 20
-143.8392821906027
 30
0.0
 10
90.13506670923707
 20
-143.7180148295219
 30
0.0
 10
90.13024357555773
 20
-143.6105278503821
 30
0.0
 10
90.1252481871041
 20
-143.5188883104744
 30
0.0
 10
90.1252481871041
 20
-143.5188883104744
 30
0.0
 10
90.37949623391555
 20
-143.5188883104744
 30
0.0
 10
90.37949623391555
 20
-143.5188883104744
 30
0.0
 10
90.38190780075522
 20
-143.5988145257323
 30
0.0
 10
90.39413788972786
 20
-143.8527180629952
 30
0.0
 10
90.72159421560086
 20
-143.8527180629952
 30
0.0
 10
90.88041311747088
 20
-143.8527180629952
 30
0.0
 10
91.05645749676714
 20
-143.7772704718682
 30
0.0
 10
91.05645749676714
 20
-143.5302571255758
 30
0.0
 10
91.05645749676714
 20
-143.4045111403641
 30
0.0
 10
91.01236027455595
 20
-143.3518011794398
 30
0.0
 10
90.9758422624123
 20
-143.3176947341359
 30
0.0
 10
90.89023163960384
 20
-143.2374240093295
 30
0.0
 10
90.75587291567909
 20
-143.2236436273885
 30
0.0
 10
90.69231090397624
 20
-143.2236436273885
 30
0.0
 10
90.67026229287063
 20
-143.2236436273885
 30
0.0
 10
90.62874889227338
 20
-143.2260551942282
 30
0.0
 10
90.59688175903482
 20
-143.230533818359
 30
0.0
 10
90.59688175903482
 20
-143.230533818359
 30
0.0
 10
90.59688175903482
 20
-143.0200384842103
 30
0.0
 10
90.59688175903482
 20
-143.0200384842103
 30
0.0
 10
90.64097898124601
 20
-143.0269286751808
 30
0.0
 10
90.68989933713655
 20
-143.0293402420205
 30
0.0
 10
90.69713403765559
 20
-143.0293402420205
 30
0.0
 10
90.77292613833107
 20
-143.0293402420205
 30
0.0
 10
91.00271400719724
 20
-143.0062581022693
 30
0.0
 10
91.00271400719724
 20
-142.7502875077152
 30
0.0
 10
91.00271400719724
 20
-142.5580511796383
 30
0.0
 10
90.85112980584626
 20
-142.4984510277434
 30
0.0
 10
90.72400578244053
 20
-142.4984510277434
 30
0.0
 10
90.41859806767313
 20
-142.4984510277434
 30
0.0
 10
90.40877954554017
 20
-142.7502875077152
 30
0.0
 10
90.40395641186082
 20
-142.8278021561333
 30
0.0
 10
90.40395641186082
 20
-142.8278021561333
 30
0.0
 10
90.16934540931531
 20
-142.8278021561333
 30
0.0
 10
90.16934540931531
 20
-142.8278021561333
 30
0.0
 10
90.178991676674
 20
-142.6930989226601
 30
0.0
 10
90.21085880991257
 20
-142.2858886363035
 30
0.0
 10
90.73864743825284
 20
-142.2858886363035
 30
0.0
 10
90.99771861874363
 20
-142.2858886363035
 30
0.0
 10
91.27642684350035
 20
-142.4230034366165
 30
0.0
 10
91.27642684350035
 20
-142.7433973167447
 30
0.0
 10
91.27642684350035
 20
-142.9445908930833
 30
0.0
 10
91.16635604274661
 20
-143.0338188661513
 30
0.0
 10
91.05146210831353
 20
-143.1003092090166
 30
0.0
 10
91.12243107530968
 20
-143.1299370301898
 30
0.0
 10
91.33258189990991
 20
-143.216753436418
 30
0.0
 10
91.33258189990991
 20
-143.5164767436348
 30
0.0
 10
91.33258189990991
 20
-143.8826903937168
 30
0.0
 10
91.04663897463418
 20
-144.0632133971439
 30
0.0
 10
90.72641734928021
 20
-144.0632133971439
 30
0.0
  0
HATCH
  5
123
330
11E
100
AcDbEntity
  8
_U+30EC_U+30A4_U+30E4_U+30FC 1
 62
   179
420
  2234388
100
AcDbHatch
 10
0.0
 20
0.0
 30
0.0
210
0.0
220
0.0
230
1.0
  2
SOLID
 70
     1
 71
     0
 91
        1
 92
        1
 93
        1
 72
     4
 94
        3
 73
     0
 74
     1
 95
       62
 96
       58
 40
0.0
 40
0.0
 40
0.0
 40
0.0
 40
1.0
 40
1.0
 40
1.0
 40
2.0
 40
2.0
 40
2.0
 40
3.0
 40
3.0
 40
3.0
 40
4.0
 40
4.0
 40
4.0
 40
5.0
 40
5.0
 40
5.0
 40
6.0
 40
6.0
 40
6.0
 40
7.0
 40
7.0
 40
7.0
 40
8.0
 40
8.0
 40
8.0
 40
9.0
 40
9.0
 40
9.0
 40
10.0
 40
10.0
 40
10.0
 40
11.0
 40
11.0
 40
11.0
 40
12.0
 40
12.0
 40
12.0
 40
13.0
 40
13.0
 40
13.0
 40
14.0
 40
14.0
 40
14.0
 40
15.0
 40
15.0
 40
15.0
 40
16.0
 40
16.0
 40
16.0
 40
17.0
 40
17.0
 40
17.0
 40
18.0
 40
18.0
 40
18.0
 40
19.0
 40
19.0
 40
19.0
 40
19.0
 10
90.72641734928021
 20
-144.0632133971439
 10
90.61651880330074
 20
-144.0632133971439
 10
90.36485457810323
 20
-144.0404757669413
 10
90.22067733204553
 20
-143.8392821906027
 10
90.13506670923707
 20
-143.7180148295219
 10
90.13024357555773
 20
-143.6105278503821
 10
90.1252481871041
 20
-143.5188883104744
 10
90.1252481871041
 20
-143.5188883104744
 10
90.37949623391555
 20
-143.5188883104744
 10
90.37949623391555
 20
-143.5188883104744
 10
90.38190780075522
 20
-143.5988145257323
 10
90.39413788972786
 20
-143.8527180629952
 10
90.72159421560086
 20
-143.8527180629952
 10
90.88041311747088
 20
-143.8527180629952
 10
91.05645749676714
 20
-143.7772704718682
 10
91.05645749676714
 20
-143.5302571255758
 10
91.05645749676714
 20
-143.4045111403641
 10
91.01236027455595
 20
-143.3518011794398
 10
90.9758422624123
 20
-143.3176947341359
 10
90.89023163960384
 20
-143.2374240093295
 10
90.75587291567909
 20
-143.2236436273885
 10
90.69231090397624
 20
-143.2236436273885
 10
90.67026229287063
 20
-143.2236436273885
 10
90.62874889227338
 20
-143.2260551942282
 10
90.59688175903482
 20
-143.230533818359
 10
90.59688175903482
 20
-143.230533818359
 10
90.59688175903482
 20
-143.0200384842103
 10
90.59688175903482
 20
-143.0200384842103
 10
90.64097898124601
 20
-143.0269286751808
 10
90.68989933713655
 20
-143.0293402420205
 10
90.69713403765559
 20
-143.0293402420205
 10
90.77292613833107
 20
-143.0293402420205
 10
91.00271400719724
 20
-143.0062581022693
 10
91.00271400719724
 20
-142.7502875077152
 10
91.00271400719724
 20
-142.5580511796383
 10
90.85112980584626
 20
-142.4984510277434
 10
90.72400578244053
 20
-142.4984510277434
 10
90.41859806767313
 20
-142.4984510277434
 10
90.40877954554017
 20
-142.7502875077152
 10
90.40395641186082
 20
-142.8278021561333
 10
90.40395641186082
 20
-142.8278021561333
 10
90.16934540931531
 20
-142.8278021561333
 10
90.16934540931531
 20
-142.8278021561333
 10
90.178991676674
 20
-142.6930989226601
 10
90.21085880991257
 20
-142.2858886363035
 10
90.73864743825284
 20
-142.2858886363035
 10
90.99771861874363
 20
-142.2858886363035
 10
91.27642684350035
 20
-142.4230034366165
 10
91.27642684350035
 20
-142.7433973167447
 10
91.27642684350035
 20
-142.9445908930833
 10
91.16635604274661
 20
-143.0338188661513
 10
91.05146210831353
 20
-143.1003092090166
 10
91.12243107530968
 20
-143.1299370301898
 10
91.33258189990991
 20
-143.216753436418
 10
91.33258189990991
 20
-143.5164767436348
 10
91.33258189990991
 20
-143.8826903937168
 10
91.04663897463418
 20
-144.0632133971439
 10
90.72641734928021
 20
-144.0632133971439
 97
        0
 97
        0
 75
     2
 76
     1
 98
        0
  0
SPLINE
  5
124
330
11E
100
AcDbEntity
  8
_U+30EC_U+30A4_U+30E4_U+30FC 1
370
     0
100
AcDbSpline
210
0.0
220
0.0
230
1.0
 70
    11
 71
     3
 72
    29
 73
    25
 74
     0
 42
0.0000000001
 43
0.0000000001
 12
1.0
 22
0.0
 32
0.0
 13
1.0
 23
0.0
 33
0.0
 40
0.0
 40
0.0
 40
0.0
 40
0.0
 40
1.0
 40
1.0
 40
1.0
 40
2.0
 40
2.0
 40
2.0
 40
3.0
 40
3.0
 40
3.0
 40
4.0
 40
4.0
 40
4.0
 40
5.0
 40
5.0
 40
5.0
 40
6.0
 40
6.0
 40
6.0
 40
7.0
 40
7.0
 40
7.0
 40
8.0
 40
8.0
 40
8.0
 40
8.0
 10
92.5542127589795
 20
-143.8162000508515
 30
0.0
 10
92.42950030241346
 20
-144.042887333781
 30
0.0
 10
92.22899574517193
 20
-144.0632133971439
 30
0.0
 10
92.09463702124718
 20
-144.0632133971439
 30
0.0
 10
91.90894637459222
 20
-144.0632133971439
 30
0.0
 10
91.74530433904285
 20
-144.0129150030593
 30
0.0
 10
91.63540579306337
 20
-143.8162000508515
 30
0.0
 10
91.51551647017668
 20
-143.6057047167027
 30
0.0
 10
91.49346785907107
 20
-143.3497341221487
 30
0.0
 10
91.49346785907107
 20
-143.1733452333039
 30
0.0
 10
91.49346785907107
 20
-143.0179714269191
 30
0.0
 10
91.51310490333701
 20
-142.7454643740359
 30
0.0
 10
91.63540579306337
 20
-142.5304904157563
 30
0.0
 10
91.75977374008089
 20
-142.3110378333459
 30
0.0
 10
91.94580889628439
 20
-142.2858886363035
 30
0.0
 10
92.09463702124718
 20
-142.2858886363035
 30
0.0
 10
92.27791610106247
 20
-142.2858886363035
 30
0.0
 10
92.44431421300004
 20
-142.3337754635485
 30
0.0
 10
92.5542127589795
 20
-142.5304904157563
 30
0.0
 10
92.66893443863833
 20
-142.7385741830654
 30
0.0
 10
92.69580618342327
 20
-142.9859320389063
 30
0.0
 10
92.69580618342327
 20
-143.1733452333039
 30
0.0
 10
92.69580618342327
 20
-143.3586913704103
 30
0.0
 10
92.671346005478
 20
-143.6081162835424
 30
0.0
 10
92.5542127589795
 20
-143.8162000508515
 30
0.0
  0
SPLINE
  5
125
330
11E
100
AcDbEntity
  8
_U+30EC_U+30A4_U+30E4_U+30FC 1
370
     0
100
AcDbSpline
210
0.0
220
0.0
230
1.0
 70
    11
 71
     3
 72
    17
 73
    13
 74
     0
 42
0.0000000001
 43
0.0000000001
 12
1.0
 22
0.0
 32
0.0
 13
1.0
 23
0.0
 33
0.0
 40
0.0
 40
0.0
 40
0.0
 40
0.0
 40
1.0
 40
1.0
 40
1.0
 40
2.0
 40
2.0
 40
2.0
 40
3.0
 40
3.0
 40
3.0
 40
4.0
 40
4.0
 40
4.0
 40
4.0
 10
92.09463702124718
 20
-142.4939724036126
 30
0.0
 10
91.80628252913176
 20
-142.4939724036126
 30
0.0
 10
91.75253903956187
 20
-142.8005859017998
 30
0.0
 10
91.75253903956187
 20
-143.1733452333039
 30
0.0
 10
91.75253903956187
 20
-143.5188883104744
 30
0.0
 10
91.79422469493339
 20
-143.8527180629952
 30
0.0
 10
92.09463702124718
 20
-143.8527180629952
 30
0.0
 10
92.38057994652291
 20
-143.8527180629952
 30
0.0
 10
92.4367350029325
 20
-143.5485161316476
 30
0.0
 10
92.4367350029325
 20
-143.1733452333039
 30
0.0
 10
92.4367350029325
 20
-142.8278021561333
 30
0.0
 10
92.39298229026981
 20
-142.4939724036126
 30
0.0
 10
92.09463702124718
 20
-142.4939724036126
 30
0.0
  0
HATCH
  5
126
330
11E
100
AcDbEntity
  8
_U+30EC_U+30A4_U+30E4_U+30FC 1
 62
   179
420
  2234388
100
AcDbHatch
 10
0.0
 20
0.0
 30
0.0
210
0.0
220
0.0
230
1.0
  2
SOLID
 70
     1
 71
     0
 91
        2
 92
        1
 93
        1
 72
     4
 94
        3
 73
     0
 74
     1
 95
       29
 96
       25
 40
0.0
 40
0.0
 40
0.0
 40
0.0
 40
1.0
 40
1.0
 40
1.0
 40
2.0
 40
2.0
 40
2.0
 40
3.0
 40
3.0
 40
3.0
 40
4.0
 40
4.0
 40
4.0
 40
5.0
 40
5.0
 40
5.0
 40
6.0
 40
6.0
 40
6.0
 40
7.0
 40
7.0
 40
7.0
 40
8.0
 40
8.0
 40
8.0
 40
8.0
 10
92.5542127589795
 20
-143.8162000508515
 10
92.42950030241346
 20
-144.042887333781
 10
92.22899574517193
 20
-144.0632133971439
 10
92.09463702124718
 20
-144.0632133971439
 10
91.90894637459222
 20
-144.0632133971439
 10
91.74530433904285
 20
-144.0129150030593
 10
91.63540579306337
 20
-143.8162000508515
 10
91.51551647017668
 20
-143.6057047167027
 10
91.49346785907107
 20
-143.3497341221487
 10
91.49346785907107
 20
-143.1733452333039
 10
91.49346785907107
 20
-143.0179714269191
 10
91.51310490333701
 20
-142.7454643740359
 10
91.63540579306337
 20
-142.5304904157563
 10
91.75977374008089
 20
-142.3110378333459
 10
91.94580889628439
 20
-142.2858886363035
 10
92.09463702124718
 20
-142.2858886363035
 10
92.27791610106247
 20
-142.2858886363035
 10
92.44431421300004
 20
-142.3337754635485
 10
92.5542127589795
 20
-142.5304904157563
 10
92.66893443863833
 20
-142.7385741830654
 10
92.69580618342327
 20
-142.9859320389063
 10
92.69580618342327
 20
-143.1733452333039
 10
92.69580618342327
 20
-143.3586913704103
 10
92.671346005478
 20
-143.6081162835424
 10
92.5542127589795
 20
-143.8162000508515
 97
        0
 97
        0
 92
        1
 93
        1
 72
     4
 94
        3
 73
     0
 74
     1
 95
       17
 96
       13
 40
0.0
 40
0.0
 40
0.0
 40
0.0
 40
1.0
 40
1.0
 40
1.0
 40
2.0
 40
2.0
 40
2.0
 40
3.0
 40
3.0
 40
3.0
 40
4.0
 40
4.0
 40
4.0
 40
4.0
 10
92.09463702124718
 20
-142.4939724036126
 10
91.80628252913176
 20
-142.4939724036126
 10
91.75253903956187
 20
-142.8005859017998
 10
91.75253903956187
 20
-143.1733452333039
 10
91.75253903956187
 20
-143.5188883104744
 10
91.79422469493339
 20
-143.8527180629952
 10
92.09463702124718
 20
-143.8527180629952
 10
92.38057994652291
 20
-143.8527180629952
 10
92.4367350029325
 20
-143.5485161316476
 10
92.4367350029325
 20
-143.1733452333039
 10
92.4367350029325
 20
-142.8278021561333
 10
92.39298229026981
 20
-142.4939724036126
 10
92.09463702124718
 20
-142.4939724036126
 97
        0
 97
        0
 75
     2
 76
     1
 98
        0
  0
ENDBLK
  5
121
330
11E
100
AcDbEntity
  8
0
100
AcDbBlockEnd
  0
BLOCK
  5
12E
330
12C
100
AcDbEntity
  8
0
100
AcDbBlockBegin
  2
block 8
 70
     0
 10
0.0
 20
0.0
 30
0.0
  3
block 8
  1

  0
POLYLINE
  5
130
330
12C
100
AcDbEntity
  8
_U+30EC_U+30A4_U+30E4_U+30FC 1
370
     0
100
AcDb2dPolyline
 66
     1
 10
0.0
 20
0.0
 30
0.0
  0
VERTEX
  5
131
330
130
100
AcDbEntity
  8
_U+30EC_U+30A4_U+30E4_U+30FC 1
370
     0
100
AcDbVertex
100
AcDb2dVertex
 10
98.9000786428097
 20
-135.6695827568812
 30
0.0
  0
VERTEX
  5
132
330
130
100
AcDbEntity
  8
_U+30EC_U+30A4_U+30E4_U+30FC 1
370
     0
100
AcDbVertex
100
AcDb2dVertex
 10
98.55350203699358
 20
-135.8132432386161
 30
0.0
  0
VERTEX
  5
133
330
130
100
AcDbEntity
  8
_U+30EC_U+30A4_U+30E4_U+30FC 1
370
     0
100
AcDbVertex
100
AcDb2dVertex
 10
98.45703936340658
 20
-135.5803547838132
 30
0.0
  0
VERTEX
  5
134
330
130
100
AcDbEntity
  8
_U+30EC_U+30A4_U+30E4_U+30FC 1
370
     0
100
AcDbVertex
100
AcDb2dVertex
 10
98.80361596922272
 20
-135.4366943020783
 30
0.0
  0
VERTEX
  5
135
330
130
100
AcDbEntity
  8
_U+30EC_U+30A4_U+30E4_U+30FC 1
370
     0
100
AcDbVertex
100
AcDb2dVertex
 10
98.5138834389132
 20
-134.7369954090241
 30
0.0
  0
VERTEX
  5
136
330
130
100
AcDbEntity
  8
_U+30EC_U+30A4_U+30E4_U+30FC 1
370
     0
100
AcDbVertex
100
AcDb2dVertex
 10
98.73781464545443
 20
-134.6439778309224
 30
0.0
  0
VERTEX
  5
137
330
130
100
AcDbEntity
  8
_U+30EC_U+30A4_U+30E4_U+30FC 1
370
     0
100
AcDbVertex
100
AcDb2dVertex
 10
100.0104329177057
 20
-134.9657497492447
 30
0.0
  0
VERTEX
  5
138
330
130
100
AcDbEntity
  8
_U+30EC_U+30A4_U+30E4_U+30FC 1
370
     0
100
AcDbVertex
100
AcDb2dVertex
 10
100.096560304837
 20
-135.1738335165538
 30
0.0
  0
VERTEX
  5
139
330
130
100
AcDbEntity
  8
_U+30EC_U+30A4_U+30E4_U+30FC 1
370
     0
100
AcDbVertex
100
AcDb2dVertex
 10
99.09886065230862
 20
-135.5872449747837
 30
0.0
  0
VERTEX
  5
13A
330
130
100
AcDbEntity
  8
_U+30EC_U+30A4_U+30E4_U+30FC 1
370
     0
100
AcDbVertex
100
AcDb2dVertex
 10
99.19050019221626
 20
-135.8084201049368
 30
0.0
  0
VERTEX
  5
13B
330
130
100
AcDbEntity
  8
_U+30EC_U+30A4_U+30E4_U+30FC 1
370
     0
100
AcDbVertex
100
AcDb2dVertex
 10
98.99171818271735
 20
-135.8907578870343
 30
0.0
  0
VERTEX
  5
13C
330
130
100
AcDbEntity
  8
_U+30EC_U+30A4_U+30E4_U+30FC 1
370
     0
100
AcDbVertex
100
AcDb2dVertex
 10
98.9000786428097
 20
-135.6695827568812
 30
0.0
  0
SEQEND
  5
13D
330
130
100
AcDbEntity
  8
_U+30EC_U+30A4_U+30E4_U+30FC 1
370
     0
  0
POLYLINE
  5
13E
330
12C
100
AcDbEntity
  8
_U+30EC_U+30A4_U+30E4_U+30FC 1
370
     0
100
AcDb2dPolyline
 66
     1
 10
0.0
 20
0.0
 30
0.0
  0
VERTEX
  5
13F
330
13E
100
AcDbEntity
  8
_U+30EC_U+30A4_U+30E4_U+30FC 1
370
     0
100
AcDbVertex
100
AcDb2dVertex
 10
99.65765514001615
 20
-135.0828829957432
 30
0.0
  0
VERTEX
  5
140
330
13E
100
AcDbEntity
  8
_U+30EC_U+30A4_U+30E4_U+30FC 1
370
     0
100
AcDbVertex
100
AcDb2dVertex
 10
98.80051538328598
 20
-134.866875508818
 30
0.0
  0
VERTEX
  5
141
330
13E
100
AcDbEntity
  8
_U+30EC_U+30A4_U+30E4_U+30FC 1
370
     0
100
AcDbVertex
100
AcDb2dVertex
 10
99.00239797872163
 20
-135.3543565199809
 30
0.0
  0
VERTEX
  5
142
330
13E
100
AcDbEntity
  8
_U+30EC_U+30A4_U+30E4_U+30FC 1
370
     0
100
AcDbVertex
100
AcDb2dVertex
 10
99.65765514001615
 20
-135.0828829957432
 30
0.0
  0
SEQEND
  5
143
330
13E
100
AcDbEntity
  8
_U+30EC_U+30A4_U+30E4_U+30FC 1
370
     0
  0
HATCH
  5
144
330
12C
100
AcDbEntity
  8
_U+30EC_U+30A4_U+30E4_U+30FC 1
 62
   179
420
  2234388
100
AcDbHatch
 10
0.0
 20
0.0
 30
0.0
210
0.0
220
0.0
230
1.0
  2
SOLID
 70
     1
 71
     0
 91
        2
 92
        1
 93
       11
 72
     1
 10
98.9000786428097
 20
-135.6695827568812
 11
98.55350203699358
 21
-135.8132432386161
 72
     1
 10
98.55350203699358
 20
-135.8132432386161
 11
98.45703936340658
 21
-135.5803547838132
 72
     1
 10
98.45703936340658
 20
-135.5803547838132
 11
98.80361596922272
 21
-135.4366943020783
 72
     1
 10
98.80361596922272
 20
-135.4366943020783
 11
98.5138834389132
 21
-134.7369954090241
 72
     1
 10
98.5138834389132
 20
-134.7369954090241
 11
98.73781464545443
 21
-134.6439778309224
 72
     1
 10
98.73781464545443
 20
-134.6439778309224
 11
100.0104329177057
 21
-134.9657497492447
 72
     1
 10
100.0104329177057
 20
-134.9657497492447
 11
100.096560304837
 21
-135.1738335165538
 72
     1
 10
100.096560304837
 20
-135.1738335165538
 11
99.09886065230862
 21
-135.5872449747837
 72
     1
 10
99.09886065230862
 20
-135.5872449747837
 11
99.19050019221626
 21
-135.8084201049368
 72
     1
 10
99.19050019221626
 20
-135.8084201049368
 11
98.99171818271735
 21
-135.8907578870343
 72
     1
 10
98.99171818271735
 20
-135.8907578870343
 11
98.9000786428097
 21
-135.6695827568812
 97
        0
 92
        1
 93
        3
 72
     1
 10
99.65765514001615
 20
-135.0828829957432
 11
98.80051538328598
 21
-134.866875508818
 72
     1
 10
98.80051538328598
 20
-134.866875508818
 11
99.00239797872163
 21
-135.3543565199809
 72
     1
 10
99.00239797872163
 20
-135.3543565199809
 11
99.65765514001615
 21
-135.0828829957432
 97
        0
 75
     2
 76
     1
 98
        0
  0
SPLINE
  5
145
330
12C
100
AcDbEntity
  8
_U+30EC_U+30A4_U+30E4_U+30FC 1
370
     0
100
AcDbSpline
210
0.0
220
0.0
230
1.0
 70
    11
 71
     3
 72
    53
 73
    49
 74
     0
 42
0.0000000001
 43
0.0000000001
 12
1.0
 22
0.0
 32
0.0
 13
1.0
 23
0.0
 33
0.0
 40
0.0
 40
0.0
 40
0.0
 40
0.0
 40
1.0
 40
1.0
 40
1.0
 40
2.0
 40
2.0
 40
2.0
 40
3.0
 40
3.0
 40
3.0
 40
4.0
 40
4.0
 40
4.0
 40
5.0
 40
5.0
 40
5.0
 40
6.0
 40
6.0
 40
6.0
 40
7.0
 40
7.0
 40
7.0
 40
8.0
 40
8.0
 40
8.0
 40
9.0
 40
9.0
 40
9.0
 40
10.0
 40
10.0
 40
10.0
 40
11.0
 40
11.0
 40
11.0
 40
12.0
 40
12.0
 40
12.0
 40
13.0
 40
13.0
 40
13.0
 40
14.0
 40
14.0
 40
14.0
 40
15.0
 40
15.0
 40
15.0
 40
16.0
 40
16.0
 40
16.0
 40
16.0
 10
98.86735023569983
 20
-136.7137911984605
 30
0.0
 10
98.83255477129882
 20
-136.6304198877174
 30
0.0
 10
98.80464949786828
 20
-136.5150091889615
 30
0.0
 10
98.82325301348864
 20
-136.3806504650368
 30
0.0
 10
98.85667043969556
 20
-136.149829067525
 30
0.0
 10
98.97828231032487
 20
-136.073003438204
 30
0.0
 10
99.07750106030008
 20
-136.0078911335328
 30
0.0
 10
99.07750106030008
 20
-136.0078911335328
 30
0.0
 10
99.1756862816297
 20
-136.2452582124665
 30
0.0
 10
99.1756862816297
 20
-136.2452582124665
 30
0.0
 10
99.00136445007605
 20
-136.3865071273617
 30
0.0
 10
99.02789168531248
 20
-136.5336127045819
 30
0.0
 10
99.06888832158695
 20
-136.6331759641056
 30
0.0
 10
99.13090004032145
 20
-136.7823485986169
 30
0.0
 10
99.29729815225902
 20
-136.9036159596977
 30
0.0
 10
99.52984209751338
 20
-136.8071532861107
 30
0.0
 10
99.78546818251891
 20
-136.7013888547135
 30
0.0
 10
99.77582191516022
 20
-136.480558234109
 30
0.0
 10
99.72276744468736
 20
-136.3520561725092
 30
0.0
 10
99.70864255319785
 20
-136.3182942367538
 30
0.0
 10
99.6459418153663
 20
-136.1667100354028
 30
0.0
 10
99.47747664613757
 20
-136.1253688895798
 30
0.0
 10
99.47747664613757
 20
-136.1253688895798
 30
0.0
 10
99.41925453243685
 20
-135.9300319755661
 30
0.0
 10
99.41925453243685
 20
-135.9300319755661
 30
0.0
 10
99.41925453243685
 20
-135.9300319755661
 30
0.0
 10
100.31773543499
 20
-135.7085123358646
 30
0.0
 10
100.31773543499
 20
-135.7085123358646
 30
0.0
 10
100.31773543499
 20
-135.7085123358646
 30
0.0
 10
100.6619004739665
 20
-136.5394693669068
 30
0.0
 10
100.6619004739665
 20
-136.5394693669068
 30
0.0
 10
100.6619004739665
 20
-136.5394693669068
 30
0.0
 10
100.4675970885984
 20
-136.6197400917131
 30
0.0
 10
100.4675970885984
 20
-136.6197400917131
 30
0.0
 10
100.4675970885984
 20
-136.6197400917131
 30
0.0
 10
100.1954345452637
 20
-135.962760382676
 30
0.0
 10
100.1954345452637
 20
-135.962760382676
 30
0.0
 10
100.1954345452637
 20
-135.962760382676
 30
0.0
 10
99.74378252714739
 20
-136.0681803045246
 30
0.0
 10
99.74378252714739
 20
-136.0681803045246
 30
0.0
 10
99.80476071723632
 20
-136.1195122272549
 30
0.0
 10
99.88158634655738
 20
-136.1908257037995
 30
0.0
 10
99.93360728838466
 20
-136.3176052176567
 30
0.0
 10
100.0459174012038
 20
-136.5883897227974
 30
0.0
 10
99.9646131477519
 20
-136.9184298702843
 30
0.0
 10
99.65179847769122
 20
-137.0479654605297
 30
0.0
 10
99.33484969304824
 20
-137.1795681080662
 30
0.0
 10
99.00101994052753
 20
-137.0369411549769
 30
0.0
 10
98.86735023569983
 20
-136.7137911984605
 30
0.0
  0
HATCH
  5
146
330
12C
100
AcDbEntity
  8
_U+30EC_U+30A4_U+30E4_U+30FC 1
 62
   179
420
  2234388
100
AcDbHatch
 10
0.0
 20
0.0
 30
0.0
210
0.0
220
0.0
230
1.0
  2
SOLID
 70
     1
 71
     0
 91
        1
 92
        1
 93
        1
 72
     4
 94
        3
 73
     0
 74
     1
 95
       53
 96
       49
 40
0.0
 40
0.0
 40
0.0
 40
0.0
 40
1.0
 40
1.0
 40
1.0
 40
2.0
 40
2.0
 40
2.0
 40
3.0
 40
3.0
 40
3.0
 40
4.0
 40
4.0
 40
4.0
 40
5.0
 40
5.0
 40
5.0
 40
6.0
 40
6.0
 40
6.0
 40
7.0
 40
7.0
 40
7.0
 40
8.0
 40
8.0
 40
8.0
 40
9.0
 40
9.0
 40
9.0
 40
10.0
 40
10.0
 40
10.0
 40
11.0
 40
11.0
 40
11.0
 40
12.0
 40
12.0
 40
12.0
 40
13.0
 40
13.0
 40
13.0
 40
14.0
 40
14.0
 40
14.0
 40
15.0
 40
15.0
 40
15.0
 40
16.0
 40
16.0
 40
16.0
 40
16.0
 10
98.86735023569983
 20
-136.7137911984605
 10
98.83255477129882
 20
-136.6304198877174
 10
98.80464949786828
 20
-136.5150091889615
 10
98.82325301348864
 20
-136.3806504650368
 10
98.85667043969556
 20
-136.149829067525
 10
98.97828231032487
 20
-136.073003438204
 10
99.07750106030008
 20
-136.0078911335328
 10
99.07750106030008
 20
-136.0078911335328
 10
99.1756862816297
 20
-136.2452582124665
 10
99.1756862816297
 20
-136.2452582124665
 10
99.00136445007605
 20
-136.3865071273617
 10
99.02789168531248
 20
-136.5336127045819
 10
99.06888832158695
 20
-136.6331759641056
 10
99.13090004032145
 20
-136.7823485986169
 10
99.29729815225902
 20
-136.9036159596977
 10
99.52984209751338
 20
-136.8071532861107
 10
99.78546818251891
 20
-136.7013888547135
 10
99.77582191516022
 20
-136.480558234109
 10
99.72276744468736
 20
-136.3520561725092
 10
99.70864255319785
 20
-136.3182942367538
 10
99.6459418153663
 20
-136.1667100354028
 10
99.47747664613757
 20
-136.1253688895798
 10
99.47747664613757
 20
-136.1253688895798
 10
99.41925453243685
 20
-135.9300319755661
 10
99.41925453243685
 20
-135.9300319755661
 10
99.41925453243685
 20
-135.9300319755661
 10
100.31773543499
 20
-135.7085123358646
 10
100.31773543499
 20
-135.7085123358646
 10
100.31773543499
 20
-135.7085123358646
 10
100.6619004739665
 20
-136.5394693669068
 10
100.6619004739665
 20
-136.5394693669068
 10
100.6619004739665
 20
-136.5394693669068
 10
100.4675970885984
 20
-136.6197400917131
 10
100.4675970885984
 20
-136.6197400917131
 10
100.4675970885984
 20
-136.6197400917131
 10
100.1954345452637
 20
-135.962760382676
 10
100.1954345452637
 20
-135.962760382676
 10
100.1954345452637
 20
-135.962760382676
 10
99.74378252714739
 20
-136.0681803045246
 10
99.74378252714739
 20
-136.0681803045246
 10
99.80476071723632
 20
-136.1195122272549
 10
99.88158634655738
 20
-136.1908257037995
 10
99.93360728838466
 20
-136.3176052176567
 10
100.0459174012038
 20
-136.5883897227974
 10
99.9646131477519
 20
-136.9184298702843
 10
99.65179847769122
 20
-137.0479654605297
 10
99.33484969304824
 20
-137.1795681080662
 10
99.00101994052753
 20
-137.0369411549769
 10
98.86735023569983
 20
-136.7137911984605
 97
        0
 97
        0
 75
     2
 76
     1
 98
        0
  0
SPLINE
  5
147
330
12C
100
AcDbEntity
  8
_U+30EC_U+30A4_U+30E4_U+30FC 1
370
     0
100
AcDbSpline
210
0.0
220
0.0
230
1.0
 70
    11
 71
     3
 72
    17
 73
    13
 74
     0
 42
0.0000000001
 43
0.0000000001
 12
1.0
 22
0.0
 32
0.0
 13
1.0
 23
0.0
 33
0.0
 40
0.0
 40
0.0
 40
0.0
 40
0.0
 40
1.0
 40
1.0
 40
1.0
 40
2.0
 40
2.0
 40
2.0
 40
3.0
 40
3.0
 40
3.0
 40
4.0
 40
4.0
 40
4.0
 40
4.0
 10
100.7897135164692
 20
-137.5709309551906
 30
0.0
 10
100.6246934427258
 20
-137.6391438457985
 30
0.0
 10
100.4266004523239
 20
-137.5547390064099
 30
0.0
 10
100.3504638420999
 20
-137.3714599265946
 30
0.0
 10
100.2760497796185
 20
-137.1912814327161
 30
0.0
 10
100.3532199184881
 20
-136.989743346829
 30
0.0
 10
100.5203070495227
 20
-136.9204969275754
 30
0.0
 10
100.6873941805573
 20
-136.8512505083219
 30
0.0
 10
100.8847981518621
 20
-136.9391004431958
 30
0.0
 10
100.9592122143435
 20
-137.1192789370743
 30
0.0
 10
101.0353488245675
 20
-137.3025580168896
 30
0.0
 10
100.9543890806642
 20
-137.5027180645827
 30
0.0
 10
100.7897135164692
 20
-137.5709309551906
 30
0.0
  0
SPLINE
  5
148
330
12C
100
AcDbEntity
  8
_U+30EC_U+30A4_U+30E4_U+30FC 1
370
     0
100
AcDbSpline
210
0.0
220
0.0
230
1.0
 70
    11
 71
     3
 72
    17
 73
    13
 74
     0
 42
0.0000000001
 43
0.0000000001
 12
1.0
 22
0.0
 32
0.0
 13
1.0
 23
0.0
 33
0.0
 40
0.0
 40
0.0
 40
0.0
 40
0.0
 40
1.0
 40
1.0
 40
1.0
 40
2.0
 40
2.0
 40
2.0
 40
3.0
 40
3.0
 40
3.0
 40
4.0
 40
4.0
 40
4.0
 40
4.0
 10
100.5754285772867
 20
-137.0534776133061
 30
0.0
 10
100.4762098273115
 20
-137.0944742495805
 30
0.0
 10
100.4314235860033
 20
-137.2140190629187
 30
0.0
 10
100.4751762986659
 20
-137.3197834943159
 30
0.0
 10
100.5192735208771
 20
-137.4262369448101
 30
0.0
 10
100.6350287291815
 20
-137.4786023961859
 30
0.0
 10
100.7342474791567
 20
-137.4376057599114
 30
0.0
 10
100.8338107386804
 20
-137.396609123637
 30
0.0
 10
100.8792859990857
 20
-137.2794758771385
 30
0.0
 10
100.8344997577775
 20
-137.1709553693531
 30
0.0
 10
100.7897135164692
 20
-137.0627793711162
 30
0.0
 10
100.6746473272619
 20
-137.0121364674831
 30
0.0
 10
100.5754285772867
 20
-137.0534776133061
 30
0.0
  0
HATCH
  5
149
330
12C
100
AcDbEntity
  8
_U+30EC_U+30A4_U+30E4_U+30FC 1
 62
   179
420
  2234388
100
AcDbHatch
 10
0.0
 20
0.0
 30
0.0
210
0.0
220
0.0
230
1.0
  2
SOLID
 70
     1
 71
     0
 91
        2
 92
        1
 93
        1
 72
     4
 94
        3
 73
     0
 74
     1
 95
       17
 96
       13
 40
0.0
 40
0.0
 40
0.0
 40
0.0
 40
1.0
 40
1.0
 40
1.0
 40
2.0
 40
2.0
 40
2.0
 40
3.0
 40
3.0
 40
3.0
 40
4.0
 40
4.0
 40
4.0
 40
4.0
 10
100.7897135164692
 20
-137.5709309551906
 10
100.6246934427258
 20
-137.6391438457985
 10
100.4266004523239
 20
-137.5547390064099
 10
100.3504638420999
 20
-137.3714599265946
 10
100.2760497796185
 20
-137.1912814327161
 10
100.3532199184881
 20
-136.989743346829
 10
100.5203070495227
 20
-136.9204969275754
 10
100.6873941805573
 20
-136.8512505083219
 10
100.8847981518621
 20
-136.9391004431958
 10
100.9592122143435
 20
-137.1192789370743
 10
101.0353488245675
 20
-137.3025580168896
 10
100.9543890806642
 20
-137.5027180645827
 10
100.7897135164692
 20
-137.5709309551906
 97
        0
 97
        0
 92
        1
 93
        1
 72
     4
 94
        3
 73
     0
 74
     1
 95
       17
 96
       13
 40
0.0
 40
0.0
 40
0.0
 40
0.0
 40
1.0
 40
1.0
 40
1.0
 40
2.0
 40
2.0
 40
2.0
 40
3.0
 40
3.0
 40
3.0
 40
4.0
 40
4.0
 40
4.0
 40
4.0
 10
100.5754285772867
 20
-137.0534776133061
 10
100.4762098273115
 20
-137.0944742495805
 10
100.4314235860033
 20
-137.2140190629187
 10
100.4751762986659
 20
-137.3197834943159
 10
100.5192735208771
 20
-137.4262369448101
 10
100.6350287291815
 20
-137.4786023961859
 10
100.7342474791567
 20
-137.4376057599114
 10
100.8338107386804
 20
-137.396609123637
 10
100.8792859990857
 20
-137.2794758771385
 10
100.8344997577775
 20
-137.1709553693531
 10
100.7897135164692
 20
-137.0627793711162
 10
100.6746473272619
 20
-137.0121364674831
 10
100.5754285772867
 20
-137.0534776133061
 97
        0
 97
        0
 75
     2
 76
     1
 98
        0
  0
ENDBLK
  5
12F
330
12C
100
AcDbEntity
  8
0
100
AcDbBlockEnd
  0
BLOCK
  5
158
330
156
100
AcDbEntity
  8
0
100
AcDbBlockBegin
  2
block 9
 70
     0
 10
0.0
 20
0.0
 30
0.0
  3
block 9
  1

  0
SPLINE
  5
15A
330
156
100
AcDbEntity
  8
_U+30EC_U+30A4_U+30E4_U+30FC 1
370
     0
100
AcDbSpline
210
0.0
220
0.0
230
1.0
 70
    11
 71
     3
 72
    32
 73
    28
 74
     0
 42
0.0000000001
 43
0.0000000001
 12
1.0
 22
0.0
 32
0.0
 13
1.0
 23
0.0
 33
0.0
 40
0.0
 40
0.0
 40
0.0
 40
0.0
 40
1.0
 40
1.0
 40
1.0
 40
2.0
 40
2.0
 40
2.0
 40
3.0
 40
3.0
 40
3.0
 40
4.0
 40
4.0
 40
4.0
 40
5.0
 40
5.0
 40
5.0
 40
6.0
 40
6.0
 40
6.0
 40
7.0
 40
7.0
 40
7.0
 40
8.0
 40
8.0
 40
8.0
 40
9.0
 40
9.0
 40
9.0
 40
9.0
 10
81.26773543975251
 20
-126.0260714745699
 30
0.0
 10
81.26773543975251
 20
-126.6224175030666
 30
0.0
 10
80.66828882531904
 20
-126.6320637704253
 30
0.0
 10
80.43729517303304
 20
-126.6320637704253
 30
0.0
 10
80.18787025990095
 20
-126.6320637704253
 30
0.0
 10
79.48782685729819
 20
-126.6100151593197
 30
0.0
 10
79.48782685729819
 20
-125.9819742523587
 30
0.0
 10
79.48782685729819
 20
-125.7814696951171
 30
0.0
 10
79.56327444842516
 20
-125.4979383366811
 30
0.0
 10
79.92242565276246
 20
-125.4541856240184
 30
0.0
 10
79.92242565276246
 20
-125.4541856240184
 30
0.0
 10
79.92242565276246
 20
-125.7008544607623
 30
0.0
 10
79.92242565276246
 20
-125.7008544607623
 30
0.0
 10
79.86075844357649
 20
-125.7132568045092
 30
0.0
 10
79.70056150351236
 20
-125.7497748166528
 30
0.0
 10
79.70056150351236
 20
-125.9843858191984
 30
0.0
 10
79.70056150351236
 20
-126.3216606672043
 30
0.0
 10
80.05523408371883
 20
-126.3681694562552
 30
0.0
 10
80.27709823296892
 20
-126.3826388572932
 30
0.0
 10
80.19252113880604
 20
-126.2751518781534
 30
0.0
 10
80.12844236278039
 20
-126.1969482106383
 30
0.0
 10
80.12844236278039
 20
-125.986797386038
 30
0.0
 10
80.12844236278039
 20
-125.7790581282775
 30
0.0
 10
80.2450588449561
 20
-125.4297254460731
 30
0.0
 10
80.68430851932546
 20
-125.4297254460731
 30
0.0
 10
81.02967934172175
 20
-125.4297254460731
 30
0.0
 10
81.26773543975251
 20
-125.6595133149393
 30
0.0
 10
81.26773543975251
 20
-126.0260714745699
 30
0.0
  0
SPLINE
  5
15B
330
156
100
AcDbEntity
  8
_U+30EC_U+30A4_U+30E4_U+30FC 1
370
     0
100
AcDbSpline
210
0.0
220
0.0
230
1.0
 70
    11
 71
     3
 72
    17
 73
    13
 74
     0
 42
0.0000000001
 43
0.0000000001
 12
1.0
 22
0.0
 32
0.0
 13
1.0
 23
0.0
 33
0.0
 40
0.0
 40
0.0
 40
0.0
 40
0.0
 40
1.0
 40
1.0
 40
1.0
 40
2.0
 40
2.0
 40
2.0
 40
3.0
 40
3.0
 40
3.0
 40
4.0
 40
4.0
 40
4.0
 40
4.0
 10
80.33893769692916
 20
-126.006434430304
 30
0.0
 10
80.33893769692916
 20
-126.3096028330059
 30
0.0
 10
80.56769203714974
 20
-126.3533555456686
 30
0.0
 10
80.69343802236136
 20
-126.3533555456686
 30
0.0
 10
80.88326278359864
 20
-126.3533555456686
 30
0.0
 10
81.05947941766917
 20
-126.2434569996891
 30
0.0
 10
81.05947941766917
 20
-126.0308946082492
 30
0.0
 10
81.05947941766917
 20
-125.8917127506451
 30
0.0
 10
80.99540064164351
 20
-125.6887966265639
 30
0.0
 10
80.68654783139087
 20
-125.6887966265639
 30
0.0
 10
80.44401310922927
 20
-125.6887966265639
 30
0.0
 10
80.33893769692916
 20
-125.8500270952736
 30
0.0
 10
80.33893769692916
 20
-126.006434430304
 30
0.0
  0
HATCH
  5
15C
330
156
100
AcDbEntity
  8
_U+30EC_U+30A4_U+30E4_U+30FC 1
 62
   179
420
  2234388
100
AcDbHatch
 10
0.0
 20
0.0
 30
0.0
210
0.0
220
0.0
230
1.0
  2
SOLID
 70
     1
 71
     0
 91
        2
 92
        1
 93
        1
 72
     4
 94
        3
 73
     0
 74
     1
 95
       32
 96
       28
 40
0.0
 40
0.0
 40
0.0
 40
0.0
 40
1.0
 40
1.0
 40
1.0
 40
2.0
 40
2.0
 40
2.0
 40
3.0
 40
3.0
 40
3.0
 40
4.0
 40
4.0
 40
4.0
 40
5.0
 40
5.0
 40
5.0
 40
6.0
 40
6.0
 40
6.0
 40
7.0
 40
7.0
 40
7.0
 40
8.0
 40
8.0
 40
8.0
 40
9.0
 40
9.0
 40
9.0
 40
9.0
 10
81.26773543975251
 20
-126.0260714745699
 10
81.26773543975251
 20
-126.6224175030666
 10
80.66828882531904
 20
-126.6320637704253
 10
80.43729517303304
 20
-126.6320637704253
 10
80.18787025990095
 20
-126.6320637704253
 10
79.48782685729819
 20
-126.6100151593197
 10
79.48782685729819
 20
-125.9819742523587
 10
79.48782685729819
 20
-125.7814696951171
 10
79.56327444842516
 20
-125.4979383366811
 10
79.92242565276246
 20
-125.4541856240184
 10
79.92242565276246
 20
-125.4541856240184
 10
79.92242565276246
 20
-125.7008544607623
 10
79.92242565276246
 20
-125.7008544607623
 10
79.86075844357649
 20
-125.7132568045092
 10
79.70056150351236
 20
-125.7497748166528
 10
79.70056150351236
 20
-125.9843858191984
 10
79.70056150351236
 20
-126.3216606672043
 10
80.05523408371883
 20
-126.3681694562552
 10
80.27709823296892
 20
-126.3826388572932
 10
80.19252113880604
 20
-126.2751518781534
 10
80.12844236278039
 20
-126.1969482106383
 10
80.12844236278039
 20
-125.986797386038
 10
80.12844236278039
 20
-125.7790581282775
 10
80.2450588449561
 20
-125.4297254460731
 10
80.68430851932546
 20
-125.4297254460731
 10
81.02967934172175
 20
-125.4297254460731
 10
81.26773543975251
 20
-125.6595133149393
 10
81.26773543975251
 20
-126.0260714745699
 97
        0
 97
        0
 92
        1
 93
        1
 72
     4
 94
        3
 73
     0
 74
     1
 95
       17
 96
       13
 40
0.0
 40
0.0
 40
0.0
 40
0.0
 40
1.0
 40
1.0
 40
1.0
 40
2.0
 40
2.0
 40
2.0
 40
3.0
 40
3.0
 40
3.0
 40
4.0
 40
4.0
 40
4.0
 40
4.0
 10
80.33893769692916
 20
-126.006434430304
 10
80.33893769692916
 20
-126.3096028330059
 10
80.56769203714974
 20
-126.3533555456686
 10
80.69343802236136
 20
-126.3533555456686
 10
80.88326278359864
 20
-126.3533555456686
 10
81.05947941766917
 20
-126.2434569996891
 10
81.05947941766917
 20
-126.0308946082492
 10
81.05947941766917
 20
-125.8917127506451
 10
80.99540064164351
 20
-125.6887966265639
 10
80.68654783139087
 20
-125.6887966265639
 10
80.44401310922927
 20
-125.6887966265639
 10
80.33893769692916
 20
-125.8500270952736
 10
80.33893769692916
 20
-126.006434430304
 97
        0
 97
        0
 75
     2
 76
     1
 98
        0
  0
SPLINE
  5
15D
330
156
100
AcDbEntity
  8
_U+30EC_U+30A4_U+30E4_U+30FC 1
370
     0
100
AcDbSpline
210
0.0
220
0.0
230
1.0
 70
    11
 71
     3
 72
    32
 73
    28
 74
     0
 42
0.0000000001
 43
0.0000000001
 12
1.0
 22
0.0
 32
0.0
 13
1.0
 23
0.0
 33
0.0
 40
0.0
 40
0.0
 40
0.0
 40
0.0
 40
1.0
 40
1.0
 40
1.0
 40
2.0
 40
2.0
 40
2.0
 40
3.0
 40
3.0
 40
3.0
 40
4.0
 40
4.0
 40
4.0
 40
5.0
 40
5.0
 40
5.0
 40
6.0
 40
6.0
 40
6.0
 40
7.0
 40
7.0
 40
7.0
 40
8.0
 40
8.0
 40
8.0
 40
9.0
 40
9.0
 40
9.0
 40
9.0
 10
81.26773543975251
 20
-124.6676703247359
 30
0.0
 10
81.26773543975251
 20
-125.2640163532326
 30
0.0
 10
80.66828882531904
 20
-125.2736626205913
 30
0.0
 10
80.43729517303304
 20
-125.2736626205913
 30
0.0
 10
80.18787025990095
 20
-125.2736626205913
 30
0.0
 10
79.48782685729819
 20
-125.2516140094857
 30
0.0
 10
79.48782685729819
 20
-124.6235731025247
 30
0.0
 10
79.48782685729819
 20
-124.4230685452831
 30
0.0
 10
79.56327444842516
 20
-124.1398816963956
 30
0.0
 10
79.92242565276246
 20
-124.0957844741844
 30
0.0
 10
79.92242565276246
 20
-124.0957844741844
 30
0.0
 10
79.92242565276246
 20
-124.3424533109283
 30
0.0
 10
79.92242565276246
 20
-124.3424533109283
 30
0.0
 10
79.86075844357649
 20
-124.3548556546752
 30
0.0
 10
79.70056150351236
 20
-124.3913736668188
 30
0.0
 10
79.70056150351236
 20
-124.6259846693643
 30
0.0
 10
79.70056150351236
 20
-124.9632595173703
 30
0.0
 10
80.05523408371883
 20
-125.0097683064212
 30
0.0
 10
80.27709823296892
 20
-125.0242377074592
 30
0.0
 10
80.19252113880604
 20
-124.9167507283194
 30
0.0
 10
80.12844236278039
 20
-124.8385470608043
 30
0.0
 10
80.12844236278039
 20
-124.628396236204
 30
0.0
 10
80.12844236278039
 20
-124.4206569784434
 30
0.0
 10
80.2450588449561
 20
-124.0713242962391
 30
0.0
 10
80.68430851932546
 20
-124.0713242962391
 30
0.0
 10
81.02967934172175
 20
-124.0713242962391
 30
0.0
 10
81.26773543975251
 20
-124.3011121651053
 30
0.0
 10
81.26773543975251
 20
-124.6676703247359
 30
0.0
  0
SPLINE
  5
15E
330
156
100
AcDbEntity
  8
_U+30EC_U+30A4_U+30E4_U+30FC 1
370
     0
100
AcDbSpline
210
0.0
220
0.0
230
1.0
 70
    11
 71
     3
 72
    17
 73
    13
 74
     0
 42
0.0000000001
 43
0.0000000001
 12
1.0
 22
0.0
 32
0.0
 13
1.0
 23
0.0
 33
0.0
 40
0.0
 40
0.0
 40
0.0
 40
0.0
 40
1.0
 40
1.0
 40
1.0
 40
2.0
 40
2.0
 40
2.0
 40
3.0
 40
3.0
 40
3.0
 40
4.0
 40
4.0
 40
4.0
 40
4.0
 10
80.33893769692916
 20
-124.6480332804699
 30
0.0
 10
80.33893769692916
 20
-124.9512016831719
 30
0.0
 10
80.56769203714974
 20
-124.9949543958346
 30
0.0
 10
80.69343802236136
 20
-124.9949543958346
 30
0.0
 10
80.88326278359864
 20
-124.9949543958346
 30
0.0
 10
81.05947941766917
 20
-124.8850558498551
 30
0.0
 10
81.05947941766917
 20
-124.6724934584152
 30
0.0
 10
81.05947941766917
 20
-124.5333116008111
 30
0.0
 10
80.99540064164351
 20
-124.3303954767299
 30
0.0
 10
80.68654783139087
 20
-124.3303954767299
 30
0.0
 10
80.44401310922927
 20
-124.3303954767299
 30
0.0
 10
80.33893769692916
 20
-124.4916259454396
 30
0.0
 10
80.33893769692916
 20
-124.6480332804699
 30
0.0
  0
HATCH
  5
15F
330
156
100
AcDbEntity
  8
_U+30EC_U+30A4_U+30E4_U+30FC 1
 62
   179
420
  2234388
100
AcDbHatch
 10
0.0
 20
0.0
 30
0.0
210
0.0
220
0.0
230
1.0
  2
SOLID
 70
     1
 71
     0
 91
        2
 92
        1
 93
        1
 72
     4
 94
        3
 73
     0
 74
     1
 95
       32
 96
       28
 40
0.0
 40
0.0
 40
0.0
 40
0.0
 40
1.0
 40
1.0
 40
1.0
 40
2.0
 40
2.0
 40
2.0
 40
3.0
 40
3.0
 40
3.0
 40
4.0
 40
4.0
 40
4.0
 40
5.0
 40
5.0
 40
5.0
 40
6.0
 40
6.0
 40
6.0
 40
7.0
 40
7.0
 40
7.0
 40
8.0
 40
8.0
 40
8.0
 40
9.0
 40
9.0
 40
9.0
 40
9.0
 10
81.26773543975251
 20
-124.6676703247359
 10
81.26773543975251
 20
-125.2640163532326
 10
80.66828882531904
 20
-125.2736626205913
 10
80.43729517303304
 20
-125.2736626205913
 10
80.18787025990095
 20
-125.2736626205913
 10
79.48782685729819
 20
-125.2516140094857
 10
79.48782685729819
 20
-124.6235731025247
 10
79.48782685729819
 20
-124.4230685452831
 10
79.56327444842516
 20
-124.1398816963956
 10
79.92242565276246
 20
-124.0957844741844
 10
79.92242565276246
 20
-124.0957844741844
 10
79.92242565276246
 20
-124.3424533109283
 10
79.92242565276246
 20
-124.3424533109283
 10
79.86075844357649
 20
-124.3548556546752
 10
79.70056150351236
 20
-124.3913736668188
 10
79.70056150351236
 20
-124.6259846693643
 10
79.70056150351236
 20
-124.9632595173703
 10
80.05523408371883
 20
-125.0097683064212
 10
80.27709823296892
 20
-125.0242377074592
 10
80.19252113880604
 20
-124.9167507283194
 10
80.12844236278039
 20
-124.8385470608043
 10
80.12844236278039
 20
-124.628396236204
 10
80.12844236278039
 20
-124.4206569784434
 10
80.2450588449561
 20
-124.0713242962391
 10
80.68430851932546
 20
-124.0713242962391
 10
81.02967934172175
 20
-124.0713242962391
 10
81.26773543975251
 20
-124.3011121651053
 10
81.26773543975251
 20
-124.6676703247359
 97
        0
 97
        0
 92
        1
 93
        1
 72
     4
 94
        3
 73
     0
 74
     1
 95
       17
 96
       13
 40
0.0
 40
0.0
 40
0.0
 40
0.0
 40
1.0
 40
1.0
 40
1.0
 40
2.0
 40
2.0
 40
2.0
 40
3.0
 40
3.0
 40
3.0
 40
4.0
 40
4.0
 40
4.0
 40
4.0
 10
80.33893769692916
 20
-124.6480332804699
 10
80.33893769692916
 20
-124.9512016831719
 10
80.56769203714974
 20
-124.9949543958346
 10
80.69343802236136
 20
-124.9949543958346
 10
80.88326278359864
 20
-124.9949543958346
 10
81.05947941766917
 20
-124.8850558498551
 10
81.05947941766917
 20
-124.6724934584152
 10
81.05947941766917
 20
-124.5333116008111
 10
80.99540064164351
 20
-124.3303954767299
 10
80.68654783139087
 20
-124.3303954767299
 10
80.44401310922927
 20
-124.3303954767299
 10
80.33893769692916
 20
-124.4916259454396
 10
80.33893769692916
 20
-124.6480332804699
 97
        0
 97
        0
 75
     2
 76
     1
 98
        0
  0
ENDBLK
  5
159
330
156
100
AcDbEntity
  8
0
100
AcDbBlockEnd
  0
ENDSEC
  0
SECTION
  2
ENTITIES
  0
POLYLINE
  5
41
330
1F
100
AcDbEntity
  8
_U+30EC_U+30A4_U+30E4_U+30FC 1
370
     0
100
AcDb2dPolyline
 66
     1
 10
0.0
 20
0.0
 30
0.0
  0
VERTEX
  5
42
330
41
100
AcDbEntity
  8
_U+30EC_U+30A4_U+30E4_U+30FC 1
370
     0
100
AcDbVertex
100
AcDb2dVertex
 10
99.18911664186913
 20
-128.4639924678841
 30
0.0
  0
VERTEX
  5
43
330
41
100
AcDbEntity
  8
_U+30EC_U+30A4_U+30E4_U+30FC 1
370
     0
100
AcDbVertex
100
AcDb2dVertex
 10
99.18911664186913
 20
-110.5308869168116
 30
0.0
  0
VERTEX
  5
44
330
41
100
AcDbEntity
  8
_U+30EC_U+30A4_U+30E4_U+30FC 1
370
     0
100
AcDbVertex
100
AcDb2dVertex
 10
99.83611108615209
 20
-110.5308869168116
 30
0.0
  0
VERTEX
  5
45
330
41
100
AcDbEntity
  8
_U+30EC_U+30A4_U+30E4_U+30FC 1
370
     0
100
AcDbVertex
100
AcDb2dVertex
 10
99.7182833084035
 20
-128.9933355233074
 30
0.0
  0
VERTEX
  5
46
330
41
100
AcDbEntity
  8
_U+30EC_U+30A4_U+30E4_U+30FC 1
370
     0
100
AcDbVertex
100
AcDb2dVertex
 10
86.84189442273403
 20
-129.6396244120348
 30
0.0
  0
VERTEX
  5
47
330
41
100
AcDbEntity
  8
_U+30EC_U+30A4_U+30E4_U+30FC 1
370
     0
100
AcDbVertex
100
AcDb2dVertex
 10
86.84189442273403
 20
-139.5766688539949
 30
0.0
  0
VERTEX
  5
48
330
41
100
AcDbEntity
  8
_U+30EC_U+30A4_U+30E4_U+30FC 1
370
     0
100
AcDbVertex
100
AcDb2dVertex
 10
92.95694442120521
 20
-139.6352299650911
 30
0.0
  0
VERTEX
  5
49
330
41
100
AcDbEntity
  8
_U+30EC_U+30A4_U+30E4_U+30FC 1
370
     0
100
AcDbVertex
100
AcDb2dVertex
 10
93.66249997658439
 20
-138.8711132986157
 30
0.0
  0
VERTEX
  5
4A
330
41
100
AcDbEntity
  8
_U+30EC_U+30A4_U+30E4_U+30FC 1
370
     0
100
AcDbVertex
100
AcDb2dVertex
 10
99.6597221973073
 20
-138.8711132986157
 30
0.0
  0
VERTEX
  5
4B
330
41
100
AcDbEntity
  8
_U+30EC_U+30A4_U+30E4_U+30FC 1
370
     0
100
AcDbVertex
100
AcDb2dVertex
 10
99.6597221973073
 20
-140.2229577427223
 30
0.0
  0
VERTEX
  5
4C
330
41
100
AcDbEntity
  8
_U+30EC_U+30A4_U+30E4_U+30FC 1
370
     0
100
AcDbVertex
100
AcDb2dVertex
 10
86.25416664510313
 20
-140.2229577427223
 30
0.0
  0
VERTEX
  5
4D
330
41
100
AcDbEntity
  8
_U+30EC_U+30A4_U+30E4_U+30FC 1
370
     0
100
AcDbVertex
100
AcDb2dVertex
 10
86.25416664510313
 20
-128.9933355233074
 30
0.0
  0
VERTEX
  5
4E
330
41
100
AcDbEntity
  8
_U+30EC_U+30A4_U+30E4_U+30FC 1
370
     0
100
AcDbVertex
100
AcDb2dVertex
 10
99.18911664186913
 20
-128.4639924678841
 30
0.0
  0
SEQEND
  5
50
330
41
100
AcDbEntity
  8
_U+30EC_U+30A4_U+30E4_U+30FC 1
370
     0
  0
HATCH
  5
4F
330
1F
100
AcDbEntity
  8
_U+30EC_U+30A4_U+30E4_U+30FC 1
 62
   253
420
 10066329
100
AcDbHatch
 10
0.0
 20
0.0
 30
0.0
210
0.0
220
0.0
230
1.0
  2
SOLID
 70
     1
 71
     0
 91
        1
 92
        1
 93
       12
 72
     1
 10
99.18911664186913
 20
-128.4639924678841
 11
99.18911664186913
 21
-110.5308869168116
 72
     1
 10
99.18911664186913
 20
-110.5308869168116
 11
99.83611108615209
 21
-110.5308869168116
 72
     1
 10
99.83611108615209
 20
-110.5308869168116
 11
99.7182833084035
 21
-128.9933355233074
 72
     1
 10
99.7182833084035
 20
-128.9933355233074
 11
86.84189442273403
 21
-129.6396244120348
 72
     1
 10
86.84189442273403
 20
-129.6396244120348
 11
86.84189442273403
 21
-139.5766688539949
 72
     1
 10
86.84189442273403
 20
-139.5766688539949
 11
92.95694442120521
 21
-139.6352299650911
 72
     1
 10
92.95694442120521
 20
-139.6352299650911
 11
93.66249997658439
 21
-138.8711132986157
 72
     1
 10
93.66249997658439
 20
-138.8711132986157
 11
99.6597221973073
 21
-138.8711132986157
 72
     1
 10
99.6597221973073
 20
-138.8711132986157
 11
99.6597221973073
 21
-140.2229577427223
 72
     1
 10
99.6597221973073
 20
-140.2229577427223
 11
86.25416664510313
 21
-140.2229577427223
 72
     1
 10
86.25416664510313
 20
-140.2229577427223
 11
86.25416664510313
 21
-128.9933355233074
 72
     1
 10
86.25416664510313
 20
-128.9933355233074
 11
99.18911664186913
 21
-128.4639924678841
 97
        0
 75
     2
 76
     1
 98
        0
  0
POLYLINE
  5
51
330
1F
100
AcDbEntity
  8
_U+30EC_U+30A4_U+30E4_U+30FC 1
 62
   179
420
  2234388
370
    25
100
AcDb2dPolyline
 66
     1
 10
0.0
 20
0.0
 30
0.0
  0
VERTEX
  5
52
330
51
100
AcDbEntity
  8
_U+30EC_U+30A4_U+30E4_U+30FC 1
 62
   179
420
  2234388
370
    25
100
AcDbVertex
100
AcDb2dVertex
 10
99.1677710811305
 20
-110.502311916819
 30
0.0
  0
VERTEX
  5
53
330
51
100
AcDbEntity
  8
_U+30EC_U+30A4_U+30E4_U+30FC 1
 62
   179
420
  2234388
370
    25
100
AcDbVertex
100
AcDb2dVertex
 10
99.75274717731763
 20
-110.502311916819
 30
0.0
  0
SEQEND
  5
54
330
51
100
AcDbEntity
  8
_U+30EC_U+30A4_U+30E4_U+30FC 1
 62
   179
420
  2234388
370
    25
  0
POLYLINE
  5
55
330
1F
100
AcDbEntity
  8
_U+30EC_U+30A4_U+30E4_U+30FC 1
 62
   179
420
  2234388
370
    25
100
AcDb2dPolyline
 66
     1
 10
0.0
 20
0.0
 30
0.0
  0
VERTEX
  5
56
330
55
100
AcDbEntity
  8
_U+30EC_U+30A4_U+30E4_U+30FC 1
 62
   179
420
  2234388
370
    25
100
AcDbVertex
100
AcDb2dVertex
 10
86.25278863284137
 20
-128.951989967762
 30
0.0
  0
VERTEX
  5
57
330
55
100
AcDbEntity
  8
_U+30EC_U+30A4_U+30E4_U+30FC 1
 62
   179
420
  2234388
370
    25
100
AcDbVertex
100
AcDb2dVertex
 10
86.25278863284137
 20
-140.2022849649496
 30
0.0
  0
SEQEND
  5
58
330
55
100
AcDbEntity
  8
_U+30EC_U+30A4_U+30E4_U+30FC 1
 62
   179
420
  2234388
370
    25
  0
POLYLINE
  5
59
330
1F
100
AcDbEntity
  8
_U+30EC_U+30A4_U+30E4_U+30FC 1
 62
   179
420
  2234388
370
    25
100
AcDb2dPolyline
 66
     1
 10
0.0
 20
0.0
 30
0.0
  0
VERTEX
  5
5A
330
59
100
AcDbEntity
  8
_U+30EC_U+30A4_U+30E4_U+30FC 1
 62
   179
420
  2234388
370
    25
100
AcDbVertex
100
AcDb2dVertex
 10
99.75274717731763
 20
-110.502311916819
 30
0.0
  0
VERTEX
  5
5B
330
59
100
AcDbEntity
  8
_U+30EC_U+30A4_U+30E4_U+30FC 1
 62
   179
420
  2234388
370
    25
100
AcDbVertex
100
AcDb2dVertex
 10
99.75274717731763
 20
-129.0670660788441
 30
0.0
  0
SEQEND
  5
5C
330
59
100
AcDbEntity
  8
_U+30EC_U+30A4_U+30E4_U+30FC 1
 62
   179
420
  2234388
370
    25
  0
POLYLINE
  5
5D
330
1F
100
AcDbEntity
  8
_U+30EC_U+30A4_U+30E4_U+30FC 1
 62
   179
420
  2234388
370
    25
100
AcDb2dPolyline
 66
     1
 10
0.0
 20
0.0
 30
0.0
  0
VERTEX
  5
5E
330
5D
100
AcDbEntity
  8
_U+30EC_U+30A4_U+30E4_U+30FC 1
 62
   179
420
  2234388
370
    25
100
AcDbVertex
100
AcDb2dVertex
 10
86.25278863284137
 20
-140.2022849649496
 30
0.0
  0
VERTEX
  5
5F
330
5D
100
AcDbEntity
  8
_U+30EC_U+30A4_U+30E4_U+30FC 1
 62
   179
420
  2234388
370
    25
100
AcDbVertex
100
AcDb2dVertex
 10
99.75274717731763
 20
-140.2022849649496
 30
0.0
  0
SEQEND
  5
60
330
5D
100
AcDbEntity
  8
_U+30EC_U+30A4_U+30E4_U+30FC 1
 62
   179
420
  2234388
370
    25
  0
POLYLINE
  5
61
330
1F
100
AcDbEntity
  8
_U+30EC_U+30A4_U+30E4_U+30FC 1
 62
   179
420
  2234388
370
    25
100
AcDb2dPolyline
 66
     1
 10
0.0
 20
0.0
 30
0.0
  0
VERTEX
  5
62
330
61
100
AcDbEntity
  8
_U+30EC_U+30A4_U+30E4_U+30FC 1
 62
   179
420
  2234388
370
    25
100
AcDbVertex
100
AcDb2dVertex
 10
99.1677710811305
 20
-110.502311916819
 30
0.0
  0
VERTEX
  5
63
330
61
100
AcDbEntity
  8
_U+30EC_U+30A4_U+30E4_U+30FC 1
 62
   179
420
  2234388
370
    25
100
AcDbVertex
100
AcDb2dVertex
 10
99.1677710811305
 20
-128.5022335789857
 30
0.0
  0
SEQEND
  5
64
330
61
100
AcDbEntity
  8
_U+30EC_U+30A4_U+30E4_U+30FC 1
 62
   179
420
  2234388
370
    25
  0
POLYLINE
  5
65
330
1F
100
AcDbEntity
  8
_U+30EC_U+30A4_U+30E4_U+30FC 1
 62
   179
420
  2234388
370
    25
100
AcDb2dPolyline
 66
     1
 10
0.0
 20
0.0
 30
0.0
  0
VERTEX
  5
66
330
65
100
AcDbEntity
  8
_U+30EC_U+30A4_U+30E4_U+30FC 1
 62
   179
420
  2234388
370
    25
100
AcDbVertex
100
AcDb2dVertex
 10
93.76759010778947
 20
-138.8518163541759
 30
0.0
  0
VERTEX
  5
67
330
65
100
AcDbEntity
  8
_U+30EC_U+30A4_U+30E4_U+30FC 1
 62
   179
420
  2234388
370
    25
100
AcDbVertex
100
AcDb2dVertex
 10
99.75274717731763
 20
-138.8518163541759
 30
0.0
  0
SEQEND
  5
68
330
65
100
AcDbEntity
  8
_U+30EC_U+30A4_U+30E4_U+30FC 1
 62
   179
420
  2234388
370
    25
  0
POLYLINE
  5
69
330
1F
100
AcDbEntity
  8
_U+30EC_U+30A4_U+30E4_U+30FC 1
 62
   179
420
  2234388
370
    25
100
AcDb2dPolyline
 66
     1
 10
0.0
 20
0.0
 30
0.0
  0
VERTEX
  5
6A
330
69
100
AcDbEntity
  8
_U+30EC_U+30A4_U+30E4_U+30FC 1
 62
   179
420
  2234388
370
    25
100
AcDbVertex
100
AcDb2dVertex
 10
99.75274717731763
 20
-138.8518163541759
 30
0.0
  0
VERTEX
  5
6B
330
69
100
AcDbEntity
  8
_U+30EC_U+30A4_U+30E4_U+30FC 1
 62
   179
420
  2234388
370
    25
100
AcDbVertex
100
AcDb2dVertex
 10
99.75274717731763
 20
-140.2022849649496
 30
0.0
  0
SEQEND
  5
6C
330
69
100
AcDbEntity
  8
_U+30EC_U+30A4_U+30E4_U+30FC 1
 62
   179
420
  2234388
370
    25
  0
POLYLINE
  5
6D
330
1F
100
AcDbEntity
  8
_U+30EC_U+30A4_U+30E4_U+30FC 1
 62
   179
420
  2234388
370
    25
100
AcDb2dPolyline
 66
     1
 10
0.0
 20
0.0
 30
0.0
  0
VERTEX
  5
6E
330
6D
100
AcDbEntity
  8
_U+30EC_U+30A4_U+30E4_U+30FC 1
 62
   179
420
  2234388
370
    25
100
AcDbVertex
100
AcDb2dVertex
 10
86.25278863284137
 20
-128.951989967762
 30
0.0
  0
VERTEX
  5
6F
330
6D
100
AcDbEntity
  8
_U+30EC_U+30A4_U+30E4_U+30FC 1
 62
   179
420
  2234388
370
    25
100
AcDbVertex
100
AcDb2dVertex
 10
99.1677710811305
 20
-128.5022335789857
 30
0.0
  0
SEQEND
  5
70
330
6D
100
AcDbEntity
  8
_U+30EC_U+30A4_U+30E4_U+30FC 1
 62
   179
420
  2234388
370
    25
  0
POLYLINE
  5
71
330
1F
100
AcDbEntity
  8
_U+30EC_U+30A4_U+30E4_U+30FC 1
 62
   179
420
  2234388
370
    25
100
AcDb2dPolyline
 66
     1
 10
0.0
 20
0.0
 30
0.0
  0
VERTEX
  5
72
330
71
100
AcDbEntity
  8
_U+30EC_U+30A4_U+30E4_U+30FC 1
 62
   179
420
  2234388
370
    25
100
AcDbVertex
100
AcDb2dVertex
 10
86.83776472902849
 20
-129.5169988565096
 30
0.0
  0
VERTEX
  5
73
330
71
100
AcDbEntity
  8
_U+30EC_U+30A4_U+30E4_U+30FC 1
 62
   179
420
  2234388
370
    25
100
AcDbVertex
100
AcDb2dVertex
 10
86.83776472902849
 20
-139.6173088539848
 30
0.0
  0
SEQEND
  5
74
330
71
100
AcDbEntity
  8
_U+30EC_U+30A4_U+30E4_U+30FC 1
 62
   179
420
  2234388
370
    25
  0
POLYLINE
  5
75
330
1F
100
AcDbEntity
  8
_U+30EC_U+30A4_U+30E4_U+30FC 1
 62
   179
420
  2234388
370
    25
100
AcDb2dPolyline
 66
     1
 10
0.0
 20
0.0
 30
0.0
  0
VERTEX
  5
76
330
75
100
AcDbEntity
  8
_U+30EC_U+30A4_U+30E4_U+30FC 1
 62
   179
420
  2234388
370
    25
100
AcDbVertex
100
AcDb2dVertex
 10
86.83776472902849
 20
-129.5169988565096
 30
0.0
  0
VERTEX
  5
77
330
75
100
AcDbEntity
  8
_U+30EC_U+30A4_U+30E4_U+30FC 1
 62
   179
420
  2234388
370
    25
100
AcDbVertex
100
AcDb2dVertex
 10
99.75274717731763
 20
-129.0670660788441
 30
0.0
  0
SEQEND
  5
78
330
75
100
AcDbEntity
  8
_U+30EC_U+30A4_U+30E4_U+30FC 1
 62
   179
420
  2234388
370
    25
  0
POLYLINE
  5
79
330
1F
100
AcDbEntity
  8
_U+30EC_U+30A4_U+30E4_U+30FC 1
 62
   179
420
  2234388
370
    25
100
AcDb2dPolyline
 66
     1
 10
0.0
 20
0.0
 30
0.0
  0
VERTEX
  5
7A
330
79
100
AcDbEntity
  8
_U+30EC_U+30A4_U+30E4_U+30FC 1
 62
   179
420
  2234388
370
    25
100
AcDbVertex
100
AcDb2dVertex
 10
86.83776472902849
 20
-139.6173088539848
 30
0.0
  0
VERTEX
  5
7B
330
79
100
AcDbEntity
  8
_U+30EC_U+30A4_U+30E4_U+30FC 1
 62
   179
420
  2234388
370
    25
100
AcDbVertex
100
AcDb2dVertex
 10
93.00241512731073
 20
-139.6173088539848
 30
0.0
  0
SEQEND
  5
7C
330
79
100
AcDbEntity
  8
_U+30EC_U+30A4_U+30E4_U+30FC 1
 62
   179
420
  2234388
370
    25
  0
POLYLINE
  5
7D
330
1F
100
AcDbEntity
  8
_U+30EC_U+30A4_U+30E4_U+30FC 1
 62
   179
420
  2234388
370
    25
100
AcDb2dPolyline
 66
     1
 10
0.0
 20
0.0
 30
0.0
  0
VERTEX
  5
7E
330
7D
100
AcDbEntity
  8
_U+30EC_U+30A4_U+30E4_U+30FC 1
 62
   179
420
  2234388
370
    25
100
AcDbVertex
100
AcDb2dVertex
 10
93.00241512731073
 20
-139.6173088539848
 30
0.0
  0
VERTEX
  5
7F
330
7D
100
AcDbEntity
  8
_U+30EC_U+30A4_U+30E4_U+30FC 1
 62
   179
420
  2234388
370
    25
100
AcDbVertex
100
AcDb2dVertex
 10
93.76759010778947
 20
-138.8518163541759
 30
0.0
  0
SEQEND
  5
80
330
7D
100
AcDbEntity
  8
_U+30EC_U+30A4_U+30E4_U+30FC 1
 62
   179
420
  2234388
370
    25
  0
POLYLINE
  5
81
330
1F
100
AcDbEntity
  8
_U+30EC_U+30A4_U+30E4_U+30FC 1
 62
   179
420
  2234388
370
     9
100
AcDb2dPolyline
 66
     1
 10
0.0
 20
0.0
 30
0.0
  0
VERTEX
  5
82
330
81
100
AcDbEntity
  8
_U+30EC_U+30A4_U+30E4_U+30FC 1
 62
   179
420
  2234388
370
     9
100
AcDbVertex
100
AcDb2dVertex
 10
98.8418397005568
 20
-138.4218860765058
 30
0.0
  0
VERTEX
  5
83
330
81
100
AcDbEntity
  8
_U+30EC_U+30A4_U+30E4_U+30FC 1
 62
   179
420
  2234388
370
     9
100
AcDbVertex
100
AcDb2dVertex
 10
98.97346108608775
 20
-138.8518163541759
 30
0.0
  0
SEQEND
  5
84
330
81
100
AcDbEntity
  8
_U+30EC_U+30A4_U+30E4_U+30FC 1
 62
   179
420
  2234388
370
     9
  0
POLYLINE
  5
85
330
1F
100
AcDbEntity
  8
_U+30EC_U+30A4_U+30E4_U+30FC 1
 62
   179
420
  2234388
370
     9
100
AcDb2dPolyline
 66
     1
 10
0.0
 20
0.0
 30
0.0
  0
VERTEX
  5
86
330
85
100
AcDbEntity
  8
_U+30EC_U+30A4_U+30E4_U+30FC 1
 62
   179
420
  2234388
370
     9
100
AcDbVertex
100
AcDb2dVertex
 10
99.07474358350383
 20
-138.4135957987297
 30
0.0
  0
VERTEX
  5
87
330
85
100
AcDbEntity
  8
_U+30EC_U+30A4_U+30E4_U+30FC 1
 62
   179
420
  2234388
370
     9
100
AcDbVertex
100
AcDb2dVertex
 10
98.97346108608775
 20
-138.8518163541759
 30
0.0
  0
SEQEND
  5
88
330
85
100
AcDbEntity
  8
_U+30EC_U+30A4_U+30E4_U+30FC 1
 62
   179
420
  2234388
370
     9
  0
POLYLINE
  5
89
330
1F
100
AcDbEntity
  8
_U+30EC_U+30A4_U+30E4_U+30FC 1
 62
   179
420
  2234388
370
     9
100
AcDb2dPolyline
 66
     1
 10
0.0
 20
0.0
 30
0.0
  0
VERTEX
  5
8A
330
89
100
AcDbEntity
  8
_U+30EC_U+30A4_U+30E4_U+30FC 1
 62
   179
420
  2234388
370
     9
100
AcDbVertex
100
AcDb2dVertex
 10
97.83039055969437
 20
-135.4094813550367
 30
0.0
  0
VERTEX
  5
8B
330
89
100
AcDbEntity
  8
_U+30EC_U+30A4_U+30E4_U+30FC 1
 62
   179
420
  2234388
370
     9
100
AcDbVertex
100
AcDb2dVertex
 10
97.44864973610005
 20
-135.1710741328737
 30
0.0
  0
SEQEND
  5
8C
330
89
100
AcDbEntity
  8
_U+30EC_U+30A4_U+30E4_U+30FC 1
 62
   179
420
  2234388
370
     9
  0
POLYLINE
  5
8D
330
1F
100
AcDbEntity
  8
_U+30EC_U+30A4_U+30E4_U+30FC 1
 62
   179
420
  2234388
370
     9
100
AcDb2dPolyline
 66
     1
 10
0.0
 20
0.0
 30
0.0
  0
VERTEX
  5
8E
330
8D
100
AcDbEntity
  8
_U+30EC_U+30A4_U+30E4_U+30FC 1
 62
   179
420
  2234388
370
     9
100
AcDbVertex
100
AcDb2dVertex
 10
97.66017775336286
 20
-135.56865468833
 30
0.0
  0
VERTEX
  5
8F
330
8D
100
AcDbEntity
  8
_U+30EC_U+30A4_U+30E4_U+30FC 1
 62
   179
420
  2234388
370
     9
100
AcDbVertex
100
AcDb2dVertex
 10
97.44864973610005
 20
-135.1710741328737
 30
0.0
  0
SEQEND
  5
90
330
8D
100
AcDbEntity
  8
_U+30EC_U+30A4_U+30E4_U+30FC 1
 62
   179
420
  2234388
370
     9
  0
SPLINE
  5
91
330
1F
100
AcDbEntity
  8
_U+30EC_U+30A4_U+30E4_U+30FC 1
 62
   179
420
  2234388
370
     9
100
AcDbSpline
210
0.0
220
0.0
230
1.0
 70
    11
 71
     3
 72
    17
 73
    13
 74
     0
 42
0.0000000001
 43
0.0000000001
 12
1.0
 22
0.0
 32
0.0
 13
1.0
 23
0.0
 33
0.0
 40
0.0
 40
0.0
 40
0.0
 40
0.0
 40
1.0
 40
1.0
 40
1.0
 40
2.0
 40
2.0
 40
2.0
 40
3.0
 40
3.0
 40
3.0
 40
4.0
 40
4.0
 40
4.0
 40
4.0
 10
102.9384009849337
 20
-138.8518163541759
 30
0.0
 10
102.9384009849337
 20
-138.8270160764045
 30
0.0
 10
102.9180809854521
 20
-138.8070488541873
 30
0.0
 10
102.8932833076097
 20
-138.8070488541873
 30
0.0
 10
102.868480431162
 20
-138.8070488541873
 30
0.0
 10
102.8485132094492
 20
-138.8270160764045
 30
0.0
 10
102.8485132094492
 20
-138.8518163541759
 30
0.0
 10
102.8485132094492
 20
-138.8773221875028
 30
0.0
 10
102.868480431162
 20
-138.89728940972
 30
0.0
 10
102.8932833076097
 20
-138.89728940972
 30
0.0
 10
102.9180809854521
 20
-138.89728940972
 30
0.0
 10
102.9384009849337
 20
-138.8773221875028
 30
0.0
 10
102.9384009849337
 20
-138.8518163541759
 30
0.0
  0
SPLINE
  5
92
330
1F
100
AcDbEntity
  8
_U+30EC_U+30A4_U+30E4_U+30FC 1
 62
   179
420
  2234388
370
     9
100
AcDbSpline
210
0.0
220
0.0
230
1.0
 70
    11
 71
     3
 72
    17
 73
    13
 74
     0
 42
0.0000000001
 43
0.0000000001
 12
1.0
 22
0.0
 32
0.0
 13
1.0
 23
0.0
 33
0.0
 40
0.0
 40
0.0
 40
0.0
 40
0.0
 40
1.0
 40
1.0
 40
1.0
 40
2.0
 40
2.0
 40
2.0
 40
3.0
 40
3.0
 40
3.0
 40
4.0
 40
4.0
 40
4.0
 40
4.0
 10
102.9384009849337
 20
-140.2022849649496
 30
0.0
 10
102.9384009849337
 20
-140.1774846871776
 30
0.0
 10
102.9180809854521
 20
-140.1575174649604
 30
0.0
 10
102.8932833076097
 20
-140.1575174649604
 30
0.0
 10
102.868480431162
 20
-140.1575174649604
 30
0.0
 10
102.8485132094492
 20
-140.1774846871776
 30
0.0
 10
102.8485132094492
 20
-140.2022849649496
 30
0.0
 10
102.8485132094492
 20
-140.227085242721
 30
0.0
 10
102.868480431162
 20
-140.2470877427163
 30
0.0
 10
102.8932833076097
 20
-140.2470877427163
 30
0.0
 10
102.9180809854521
 20
-140.2470877427163
 30
0.0
 10
102.9384009849337
 20
-140.227085242721
 30
0.0
 10
102.9384009849337
 20
-140.2022849649496
 30
0.0
  0
SPLINE
  5
93
330
1F
100
AcDbEntity
  8
_U+30EC_U+30A4_U+30E4_U+30FC 1
 62
   179
420
  2234388
370
     9
100
AcDbSpline
210
0.0
220
0.0
230
1.0
 70
    11
 71
     3
 72
    17
 73
    13
 74
     0
 42
0.0000000001
 43
0.0000000001
 12
1.0
 22
0.0
 32
0.0
 13
1.0
 23
0.0
 33
0.0
 40
0.0
 40
0.0
 40
0.0
 40
0.0
 40
1.0
 40
1.0
 40
1.0
 40
2.0
 40
2.0
 40
2.0
 40
3.0
 40
3.0
 40
3.0
 40
4.0
 40
4.0
 40
4.0
 40
4.0
 10
99.79751467617551
 20
-142.4133549643966
 30
0.0
 10
99.79751467617551
 20
-142.3885546866252
 30
0.0
 10
99.77754997505588
 20
-142.368587464408
 30
0.0
 10
99.75274717731763
 20
-142.368587464408
 30
0.0
 10
99.72794690017255
 20
-142.368587464408
 30
0.0
 10
99.70759162291408
 20
-142.3885546866252
 30
0.0
 10
99.70759162291408
 20
-142.4133549643966
 30
0.0
 10
99.70759162291408
 20
-142.4381552421679
 30
0.0
 10
99.72794690017255
 20
-142.4588280199407
 30
0.0
 10
99.75274717731763
 20
-142.4588280199407
 30
0.0
 10
99.77754997505588
 20
-142.4588280199407
 30
0.0
 10
99.79751467617551
 20
-142.4381552421679
 30
0.0
 10
99.79751467617551
 20
-142.4133549643966
 30
0.0
  0
SPLINE
  5
94
330
1F
100
AcDbEntity
  8
_U+30EC_U+30A4_U+30E4_U+30FC 1
 62
   179
420
  2234388
370
     9
100
AcDbSpline
210
0.0
220
0.0
230
1.0
 70
    11
 71
     3
 72
    17
 73
    13
 74
     0
 42
0.0000000001
 43
0.0000000001
 12
1.0
 22
0.0
 32
0.0
 13
1.0
 23
0.0
 33
0.0
 40
0.0
 40
0.0
 40
0.0
 40
0.0
 40
1.0
 40
1.0
 40
1.0
 40
2.0
 40
2.0
 40
2.0
 40
3.0
 40
3.0
 40
3.0
 40
4.0
 40
4.0
 40
4.0
 40
4.0
 10
99.79751467617551
 20
-144.2137563528357
 30
0.0
 10
99.79751467617551
 20
-144.1889560750637
 30
0.0
 10
99.77754997505588
 20
-144.168283297291
 30
0.0
 10
99.75274717731763
 20
-144.168283297291
 30
0.0
 10
99.72794690017255
 20
-144.168283297291
 30
0.0
 10
99.70759162291408
 20
-144.1889560750637
 30
0.0
 10
99.70759162291408
 20
-144.2137563528357
 30
0.0
 10
99.70759162291408
 20
-144.2385566306071
 30
0.0
 10
99.72794690017255
 20
-144.2585591306018
 30
0.0
 10
99.75274717731763
 20
-144.2585591306018
 30
0.0
 10
99.77754997505588
 20
-144.2585591306018
 30
0.0
 10
99.79751467617551
 20
-144.2385566306071
 30
0.0
 10
99.79751467617551
 20
-144.2137563528357
 30
0.0
  0
SPLINE
  5
95
330
1F
100
AcDbEntity
  8
_U+30EC_U+30A4_U+30E4_U+30FC 1
 62
   179
420
  2234388
370
     9
100
AcDbSpline
210
0.0
220
0.0
230
1.0
 70
    11
 71
     3
 72
    17
 73
    13
 74
     0
 42
0.0000000001
 43
0.0000000001
 12
1.0
 22
0.0
 32
0.0
 13
1.0
 23
0.0
 33
0.0
 40
0.0
 40
0.0
 40
0.0
 40
0.0
 40
1.0
 40
1.0
 40
1.0
 40
2.0
 40
2.0
 40
2.0
 40
3.0
 40
3.0
 40
3.0
 40
4.0
 40
4.0
 40
4.0
 40
4.0
 10
93.04753540393739
 20
-142.4133549643966
 30
0.0
 10
93.04753540393739
 20
-142.3885546866252
 30
0.0
 10
93.02721540445579
 20
-142.368587464408
 30
0.0
 10
93.00241512731073
 20
-142.368587464408
 30
0.0
 10
92.97761485016565
 20
-142.368587464408
 30
0.0
 10
92.95764997676073
 20
-142.3885546866252
 30
0.0
 10
92.95764997676073
 20
-142.4133549643966
 30
0.0
 10
92.95764997676073
 20
-142.4381552421679
 30
0.0
 10
92.97761485016565
 20
-142.4588280199407
 30
0.0
 10
93.00241512731073
 20
-142.4588280199407
 30
0.0
 10
93.02721540445579
 20
-142.4588280199407
 30
0.0
 10
93.04753540393739
 20
-142.4381552421679
 30
0.0
 10
93.04753540393739
 20
-142.4133549643966
 30
0.0
  0
SPLINE
  5
96
330
1F
100
AcDbEntity
  8
_U+30EC_U+30A4_U+30E4_U+30FC 1
 62
   179
420
  2234388
370
     9
100
AcDbSpline
210
0.0
220
0.0
230
1.0
 70
    11
 71
     3
 72
    17
 73
    13
 74
     0
 42
0.0000000001
 43
0.0000000001
 12
1.0
 22
0.0
 32
0.0
 13
1.0
 23
0.0
 33
0.0
 40
0.0
 40
0.0
 40
0.0
 40
0.0
 40
1.0
 40
1.0
 40
1.0
 40
2.0
 40
2.0
 40
2.0
 40
3.0
 40
3.0
 40
3.0
 40
4.0
 40
4.0
 40
4.0
 40
4.0
 10
86.2975583117588
 20
-144.2137563528357
 30
0.0
 10
86.2975583117588
 20
-144.1889560750637
 30
0.0
 10
86.27758890998643
 20
-144.168283297291
 30
0.0
 10
86.25278863284137
 20
-144.168283297291
 30
0.0
 10
86.2279883556963
 20
-144.168283297291
 30
0.0
 10
86.20766835621471
 20
-144.1889560750637
 30
0.0
 10
86.20766835621471
 20
-144.2137563528357
 30
0.0
 10
86.20766835621471
 20
-144.2385566306071
 30
0.0
 10
86.2279883556963
 20
-144.2585591306018
 30
0.0
 10
86.25278863284137
 20
-144.2585591306018
 30
0.0
 10
86.27758890998643
 20
-144.2585591306018
 30
0.0
 10
86.2975583117588
 20
-144.2385566306071
 30
0.0
 10
86.2975583117588
 20
-144.2137563528357
 30
0.0
  0
SPLINE
  5
97
330
1F
100
AcDbEntity
  8
_U+30EC_U+30A4_U+30E4_U+30FC 1
 62
   179
420
  2234388
370
     9
100
AcDbSpline
210
0.0
220
0.0
230
1.0
 70
    11
 71
     3
 72
    17
 73
    13
 74
     0
 42
0.0000000001
 43
0.0000000001
 12
1.0
 22
0.0
 32
0.0
 13
1.0
 23
0.0
 33
0.0
 40
0.0
 40
0.0
 40
0.0
 40
0.0
 40
1.0
 40
1.0
 40
1.0
 40
2.0
 40
2.0
 40
2.0
 40
3.0
 40
3.0
 40
3.0
 40
4.0
 40
4.0
 40
4.0
 40
4.0
 10
84.49786034427999
 20
-140.2022849649496
 30
0.0
 10
84.49786034427999
 20
-140.1774846871776
 30
0.0
 10
84.47718756702962
 20
-140.1575174649604
 30
0.0
 10
84.45238728988454
 20
-140.1575174649604
 30
0.0
 10
84.42758701273948
 20
-140.1575174649604
 30
0.0
 10
84.40758451324979
 20
-140.1774846871776
 30
0.0
 10
84.40758451324979
 20
-140.2022849649496
 30
0.0
 10
84.40758451324979
 20
-140.227085242721
 30
0.0
 10
84.42758701273948
 20
-140.2470877427163
 30
0.0
 10
84.45238728988454
 20
-140.2470877427163
 30
0.0
 10
84.47718756702962
 20
-140.2470877427163
 30
0.0
 10
84.49786034427999
 20
-140.227085242721
 30
0.0
 10
84.49786034427999
 20
-140.2022849649496
 30
0.0
  0
SPLINE
  5
98
330
1F
100
AcDbEntity
  8
_U+30EC_U+30A4_U+30E4_U+30FC 1
 62
   179
420
  2234388
370
     9
100
AcDbSpline
210
0.0
220
0.0
230
1.0
 70
    11
 71
     3
 72
    17
 73
    13
 74
     0
 42
0.0000000001
 43
0.0000000001
 12
1.0
 22
0.0
 32
0.0
 13
1.0
 23
0.0
 33
0.0
 40
0.0
 40
0.0
 40
0.0
 40
0.0
 40
1.0
 40
1.0
 40
1.0
 40
2.0
 40
2.0
 40
2.0
 40
3.0
 40
3.0
 40
3.0
 40
4.0
 40
4.0
 40
4.0
 40
4.0
 10
81.66805553513855
 20
-140.2022849649496
 30
0.0
 10
81.66805553513855
 20
-140.1774846871776
 30
0.0
 10
81.64808625031712
 20
-140.1575174649604
 30
0.0
 10
81.62293319540326
 20
-140.1575174649604
 30
0.0
 10
81.5981329182582
 20
-140.1575174649604
 30
0.0
 10
81.57813041876851
 20
-140.1774846871776
 30
0.0
 10
81.57813041876851
 20
-140.2022849649496
 30
0.0
 10
81.57813041876851
 20
-140.227085242721
 30
0.0
 10
81.5981329182582
 20
-140.2470877427163
 30
0.0
 10
81.62293319540326
 20
-140.2470877427163
 30
0.0
 10
81.64808625031712
 20
-140.2470877427163
 30
0.0
 10
81.66805553513855
 20
-140.227085242721
 30
0.0
 10
81.66805553513855
 20
-140.2022849649496
 30
0.0
  0
SPLINE
  5
99
330
1F
100
AcDbEntity
  8
_U+30EC_U+30A4_U+30E4_U+30FC 1
 62
   179
420
  2234388
370
     9
100
AcDbSpline
210
0.0
220
0.0
230
1.0
 70
    11
 71
     3
 72
    17
 73
    13
 74
     0
 42
0.0000000001
 43
0.0000000001
 12
1.0
 22
0.0
 32
0.0
 13
1.0
 23
0.0
 33
0.0
 40
0.0
 40
0.0
 40
0.0
 40
0.0
 40
1.0
 40
1.0
 40
1.0
 40
2.0
 40
2.0
 40
2.0
 40
3.0
 40
3.0
 40
3.0
 40
4.0
 40
4.0
 40
4.0
 40
4.0
 10
84.49786034427999
 20
-128.951989967762
 30
0.0
 10
84.49786034427999
 20
-128.9271896899906
 30
0.0
 10
84.47718756702962
 20
-128.9072224677734
 30
0.0
 10
84.45238728988454
 20
-128.9072224677734
 30
0.0
 10
84.42758701273948
 20
-128.9072224677734
 30
0.0
 10
84.40758451324979
 20
-128.9271896899906
 30
0.0
 10
84.40758451324979
 20
-128.951989967762
 30
0.0
 10
84.40758451324979
 20
-128.9767902455333
 30
0.0
 10
84.42758701273948
 20
-128.997463023306
 30
0.0
 10
84.45238728988454
 20
-128.997463023306
 30
0.0
 10
84.47718756702962
 20
-128.997463023306
 30
0.0
 10
84.49786034427999
 20
-128.9767902455333
 30
0.0
 10
84.49786034427999
 20
-128.951989967762
 30
0.0
  0
SPLINE
  5
9A
330
1F
100
AcDbEntity
  8
_U+30EC_U+30A4_U+30E4_U+30FC 1
 62
   179
420
  2234388
370
     9
100
AcDbSpline
210
0.0
220
0.0
230
1.0
 70
    11
 71
     3
 72
    17
 73
    13
 74
     0
 42
0.0000000001
 43
0.0000000001
 12
1.0
 22
0.0
 32
0.0
 13
1.0
 23
0.0
 33
0.0
 40
0.0
 40
0.0
 40
0.0
 40
0.0
 40
1.0
 40
1.0
 40
1.0
 40
2.0
 40
2.0
 40
2.0
 40
3.0
 40
3.0
 40
3.0
 40
4.0
 40
4.0
 40
4.0
 40
4.0
 10
84.49786034427999
 20
-128.5022335789857
 30
0.0
 10
84.49786034427999
 20
-128.477433301214
 30
0.0
 10
84.47718756702962
 20
-128.4571133012191
 30
0.0
 10
84.45238728988454
 20
-128.4571133012191
 30
0.0
 10
84.42758701273948
 20
-128.4571133012191
 30
0.0
 10
84.40758451324979
 20
-128.477433301214
 30
0.0
 10
84.40758451324979
 20
-128.5022335789857
 30
0.0
 10
84.40758451324979
 20
-128.5270338567571
 30
0.0
 10
84.42758701273948
 20
-128.547353856752
 30
0.0
 10
84.45238728988454
 20
-128.547353856752
 30
0.0
 10
84.47718756702962
 20
-128.547353856752
 30
0.0
 10
84.49786034427999
 20
-128.5270338567571
 30
0.0
 10
84.49786034427999
 20
-128.5022335789857
 30
0.0
  0
SPLINE
  5
9B
330
1F
100
AcDbEntity
  8
_U+30EC_U+30A4_U+30E4_U+30FC 1
 62
   179
420
  2234388
370
     9
100
AcDbSpline
210
0.0
220
0.0
230
1.0
 70
    11
 71
     3
 72
    17
 73
    13
 74
     0
 42
0.0000000001
 43
0.0000000001
 12
1.0
 22
0.0
 32
0.0
 13
1.0
 23
0.0
 33
0.0
 40
0.0
 40
0.0
 40
0.0
 40
0.0
 40
1.0
 40
1.0
 40
1.0
 40
2.0
 40
2.0
 40
2.0
 40
3.0
 40
3.0
 40
3.0
 40
4.0
 40
4.0
 40
4.0
 40
4.0
 10
84.49786034427999
 20
-110.502311916819
 30
0.0
 10
84.49786034427999
 20
-110.4775116390473
 30
0.0
 10
84.47718756702962
 20
-110.4575091390523
 30
0.0
 10
84.45238728988454
 20
-110.4575091390523
 30
0.0
 10
84.42758701273948
 20
-110.4575091390523
 30
0.0
 10
84.40758451324979
 20
-110.4775116390473
 30
0.0
 10
84.40758451324979
 20
-110.502311916819
 30
0.0
 10
84.40758451324979
 20
-110.5271121945904
 30
0.0
 10
84.42758701273948
 20
-110.5470794168076
 30
0.0
 10
84.45238728988454
 20
-110.5470794168076
 30
0.0
 10
84.47718756702962
 20
-110.5470794168076
 30
0.0
 10
84.49786034427999
 20
-110.5271121945904
 30
0.0
 10
84.49786034427999
 20
-110.502311916819
 30
0.0
  0
SPLINE
  5
9C
330
1F
100
AcDbEntity
  8
_U+30EC_U+30A4_U+30E4_U+30FC 1
 62
   179
420
  2234388
370
     9
100
AcDbSpline
210
0.0
220
0.0
230
1.0
 70
    11
 71
     3
 72
    17
 73
    13
 74
     0
 42
0.0000000001
 43
0.0000000001
 12
1.0
 22
0.0
 32
0.0
 13
1.0
 23
0.0
 33
0.0
 40
0.0
 40
0.0
 40
0.0
 40
0.0
 40
1.0
 40
1.0
 40
1.0
 40
2.0
 40
2.0
 40
2.0
 40
3.0
 40
3.0
 40
3.0
 40
4.0
 40
4.0
 40
4.0
 40
4.0
 10
81.71144720179421
 20
-110.502311916819
 30
0.0
 10
81.71144720179421
 20
-110.4775116390473
 30
0.0
 10
81.69147791587677
 20
-110.4575091390523
 30
0.0
 10
81.6666776387317
 20
-110.4575091390523
 30
0.0
 10
81.64187736158662
 20
-110.4575091390523
 30
0.0
 10
81.62187486209693
 20
-110.4775116390473
 30
0.0
 10
81.62187486209693
 20
-110.502311916819
 30
0.0
 10
81.62187486209693
 20
-110.5271121945904
 30
0.0
 10
81.64187736158662
 20
-110.5470794168076
 30
0.0
 10
81.6666776387317
 20
-110.5470794168076
 30
0.0
 10
81.69147791587677
 20
-110.5470794168076
 30
0.0
 10
81.71144720179421
 20
-110.5271121945904
 30
0.0
 10
81.71144720179421
 20
-110.502311916819
 30
0.0
  0
SPLINE
  5
9D
330
1F
100
AcDbEntity
  8
_U+30EC_U+30A4_U+30E4_U+30FC 1
 62
   179
420
  2234388
370
     9
100
AcDbSpline
210
0.0
220
0.0
230
1.0
 70
    11
 71
     3
 72
    17
 73
    13
 74
     0
 42
0.0000000001
 43
0.0000000001
 12
1.0
 22
0.0
 32
0.0
 13
1.0
 23
0.0
 33
0.0
 40
0.0
 40
0.0
 40
0.0
 40
0.0
 40
1.0
 40
1.0
 40
1.0
 40
2.0
 40
2.0
 40
2.0
 40
3.0
 40
3.0
 40
3.0
 40
4.0
 40
4.0
 40
4.0
 40
4.0
 10
97.41284279256911
 20
-110.502311916819
 30
0.0
 10
97.41284279256911
 20
-110.4775116390473
 30
0.0
 10
97.39217001531874
 20
-110.4575091390523
 30
0.0
 10
97.36737219788053
 20
-110.4575091390523
 30
0.0
 10
97.34253418325173
 20
-110.4575091390523
 30
0.0
 10
97.32256942011381
 20
-110.4775116390473
 30
0.0
 10
97.32256942011381
 20
-110.502311916819
 30
0.0
 10
97.32256942011381
 20
-110.5271121945904
 30
0.0
 10
97.34253418325173
 20
-110.5470794168076
 30
0.0
 10
97.36737219788053
 20
-110.5470794168076
 30
0.0
 10
97.39217001531874
 20
-110.5470794168076
 30
0.0
 10
97.41284279256911
 20
-110.5271121945904
 30
0.0
 10
97.41284279256911
 20
-110.502311916819
 30
0.0
  0
POLYLINE
  5
9E
330
1F
100
AcDbEntity
  8
_U+30EC_U+30A4_U+30E4_U+30FC 1
 62
   179
420
  2234388
370
     9
100
AcDb2dPolyline
 66
     1
 10
0.0
 20
0.0
 30
0.0
  0
VERTEX
  5
9F
330
9E
100
AcDbEntity
  8
_U+30EC_U+30A4_U+30E4_U+30FC 1
 62
   179
420
  2234388
370
     9
100
AcDbVertex
100
AcDb2dVertex
 10
98.02466527696022
 20
-110.502311916819
 30
0.0
  0
VERTEX
  5
A0
330
9E
100
AcDbEntity
  8
_U+30EC_U+30A4_U+30E4_U+30FC 1
 62
   179
420
  2234388
370
     9
100
AcDbVertex
100
AcDb2dVertex
 10
96.91743697187464
 20
-110.502311916819
 30
0.0
  0
SEQEND
  5
A1
330
9E
100
AcDbEntity
  8
_U+30EC_U+30A4_U+30E4_U+30FC 1
 62
   179
420
  2234388
370
     9
  0
POLYLINE
  5
A2
330
1F
100
AcDbEntity
  8
_U+30EC_U+30A4_U+30E4_U+30FC 1
 62
   179
420
  2234388
370
     9
100
AcDb2dPolyline
 66
     1
 10
0.0
 20
0.0
 30
0.0
  0
VERTEX
  5
A3
330
A2
100
AcDbEntity
  8
_U+30EC_U+30A4_U+30E4_U+30FC 1
 62
   179
420
  2234388
370
     9
100
AcDbVertex
100
AcDb2dVertex
 10
102.8932833076097
 20
-140.2022849649496
 30
0.0
  0
VERTEX
  5
A4
330
A2
100
AcDbEntity
  8
_U+30EC_U+30A4_U+30E4_U+30FC 1
 62
   179
420
  2234388
370
     9
100
AcDbVertex
100
AcDb2dVertex
 10
102.8932833076097
 20
-138.8518163541759
 30
0.0
  0
SEQEND
  5
A5
330
A2
100
AcDbEntity
  8
_U+30EC_U+30A4_U+30E4_U+30FC 1
 62
   179
420
  2234388
370
     9
  0
POLYLINE
  5
A6
330
1F
100
AcDbEntity
  8
_U+30EC_U+30A4_U+30E4_U+30FC 1
 62
   179
420
  2234388
370
     9
100
AcDb2dPolyline
 66
     1
 10
0.0
 20
0.0
 30
0.0
  0
VERTEX
  5
A7
330
A6
100
AcDbEntity
  8
_U+30EC_U+30A4_U+30E4_U+30FC 1
 62
   179
420
  2234388
370
     9
100
AcDbVertex
100
AcDb2dVertex
 10
102.2366554472812
 20
-140.2022849649496
 30
0.0
  0
VERTEX
  5
A8
330
A6
100
AcDbEntity
  8
_U+30EC_U+30A4_U+30E4_U+30FC 1
 62
   179
420
  2234388
370
     9
100
AcDbVertex
100
AcDb2dVertex
 10
103.3432134746061
 20
-140.2022849649496
 30
0.0
  0
SEQEND
  5
A9
330
A6
100
AcDbEntity
  8
_U+30EC_U+30A4_U+30E4_U+30FC 1
 62
   179
420
  2234388
370
     9
  0
POLYLINE
  5
AA
330
1F
100
AcDbEntity
  8
_U+30EC_U+30A4_U+30E4_U+30FC 1
 62
   179
420
  2234388
370
     9
100
AcDb2dPolyline
 66
     1
 10
0.0
 20
0.0
 30
0.0
  0
VERTEX
  5
AB
330
AA
100
AcDbEntity
  8
_U+30EC_U+30A4_U+30E4_U+30FC 1
 62
   179
420
  2234388
370
     9
100
AcDbVertex
100
AcDb2dVertex
 10
102.2366554472812
 20
-138.8518163541759
 30
0.0
  0
VERTEX
  5
AC
330
AA
100
AcDbEntity
  8
_U+30EC_U+30A4_U+30E4_U+30FC 1
 62
   179
420
  2234388
370
     9
100
AcDbVertex
100
AcDb2dVertex
 10
103.3432134746061
 20
-138.8518163541759
 30
0.0
  0
SEQEND
  5
AD
330
AA
100
AcDbEntity
  8
_U+30EC_U+30A4_U+30E4_U+30FC 1
 62
   179
420
  2234388
370
     9
  0
INSERT
  5
AF
330
1F
100
AcDbEntity
  8
_U+30EC_U+30A4_U+30E4_U+30FC 1
100
AcDbBlockReference
  2
block 2
 10
0.0
 20
0.0
 30
0.0
  0
POLYLINE
  5
B4
330
1F
100
AcDbEntity
  8
_U+30EC_U+30A4_U+30E4_U+30FC 1
 62
   179
420
  2234388
370
     9
100
AcDb2dPolyline
 66
     1
 10
0.0
 20
0.0
 30
0.0
  0
VERTEX
  5
B5
330
B4
100
AcDbEntity
  8
_U+30EC_U+30A4_U+30E4_U+30FC 1
 62
   179
420
  2234388
370
     9
100
AcDbVertex
100
AcDb2dVertex
 10
84.45238728988454
 20
-128.951989967762
 30
0.0
  0
VERTEX
  5
B6
330
B4
100
AcDbEntity
  8
_U+30EC_U+30A4_U+30E4_U+30FC 1
 62
   179
420
  2234388
370
     9
100
AcDbVertex
100
AcDb2dVertex
 10
84.45238728988454
 20
-140.2022849649496
 30
0.0
  0
SEQEND
  5
B7
330
B4
100
AcDbEntity
  8
_U+30EC_U+30A4_U+30E4_U+30FC 1
 62
   179
420
  2234388
370
     9
  0
POLYLINE
  5
B8
330
1F
100
AcDbEntity
  8
_U+30EC_U+30A4_U+30E4_U+30FC 1
 62
   179
420
  2234388
370
     9
100
AcDb2dPolyline
 66
     1
 10
0.0
 20
0.0
 30
0.0
  0
VERTEX
  5
B9
330
B8
100
AcDbEntity
  8
_U+30EC_U+30A4_U+30E4_U+30FC 1
 62
   179
420
  2234388
370
     9
100
AcDbVertex
100
AcDb2dVertex
 10
85.10971810644797
 20
-128.951989967762
 30
0.0
  0
VERTEX
  5
BA
330
B8
100
AcDbEntity
  8
_U+30EC_U+30A4_U+30E4_U+30FC 1
 62
   179
420
  2234388
370
     9
100
AcDbVertex
100
AcDb2dVertex
 10
84.00245452358551
 20
-128.951989967762
 30
0.0
  0
SEQEND
  5
BB
330
B8
100
AcDbEntity
  8
_U+30EC_U+30A4_U+30E4_U+30FC 1
 62
   179
420
  2234388
370
     9
  0
POLYLINE
  5
BC
330
1F
100
AcDbEntity
  8
_U+30EC_U+30A4_U+30E4_U+30FC 1
 62
   179
420
  2234388
370
     9
100
AcDb2dPolyline
 66
     1
 10
0.0
 20
0.0
 30
0.0
  0
VERTEX
  5
BD
330
BC
100
AcDbEntity
  8
_U+30EC_U+30A4_U+30E4_U+30FC 1
 62
   179
420
  2234388
370
     9
100
AcDbVertex
100
AcDb2dVertex
 10
85.10971810644797
 20
-140.2022849649496
 30
0.0
  0
VERTEX
  5
BE
330
BC
100
AcDbEntity
  8
_U+30EC_U+30A4_U+30E4_U+30FC 1
 62
   179
420
  2234388
370
     9
100
AcDbVertex
100
AcDb2dVertex
 10
84.00245452358551
 20
-140.2022849649496
 30
0.0
  0
SEQEND
  5
BF
330
BC
100
AcDbEntity
  8
_U+30EC_U+30A4_U+30E4_U+30FC 1
 62
   179
420
  2234388
370
     9
  0
INSERT
  5
C1
330
1F
100
AcDbEntity
  8
_U+30EC_U+30A4_U+30E4_U+30FC 1
100
AcDbBlockReference
  2
block 3
 10
0.0
 20
0.0
 30
0.0
  0
POLYLINE
  5
C8
330
1F
100
AcDbEntity
  8
_U+30EC_U+30A4_U+30E4_U+30FC 1
 62
   179
420
  2234388
370
     9
100
AcDb2dPolyline
 66
     1
 10
0.0
 20
0.0
 30
0.0
  0
VERTEX
  5
C9
330
C8
100
AcDbEntity
  8
_U+30EC_U+30A4_U+30E4_U+30FC 1
 62
   179
420
  2234388
370
     9
100
AcDbVertex
100
AcDb2dVertex
 10
84.45238728988454
 20
-128.951989967762
 30
0.0
  0
VERTEX
  5
CA
330
C8
100
AcDbEntity
  8
_U+30EC_U+30A4_U+30E4_U+30FC 1
 62
   179
420
  2234388
370
     9
100
AcDbVertex
100
AcDb2dVertex
 10
84.45238728988454
 20
-128.5022335789857
 30
0.0
  0
SEQEND
  5
CB
330
C8
100
AcDbEntity
  8
_U+30EC_U+30A4_U+30E4_U+30FC 1
 62
   179
420
  2234388
370
     9
  0
POLYLINE
  5
CC
330
1F
100
AcDbEntity
  8
_U+30EC_U+30A4_U+30E4_U+30FC 1
 62
   179
420
  2234388
370
     9
100
AcDb2dPolyline
 66
     1
 10
0.0
 20
0.0
 30
0.0
  0
VERTEX
  5
CD
330
CC
100
AcDbEntity
  8
_U+30EC_U+30A4_U+30E4_U+30FC 1
 62
   179
420
  2234388
370
     9
100
AcDbVertex
100
AcDb2dVertex
 10
98.02466527696022
 20
-128.5022335789857
 30
0.0
  0
VERTEX
  5
CE
330
CC
100
AcDbEntity
  8
_U+30EC_U+30A4_U+30E4_U+30FC 1
 62
   179
420
  2234388
370
     9
100
AcDbVertex
100
AcDb2dVertex
 10
84.00245452358551
 20
-128.5022335789857
 30
0.0
  0
SEQEND
  5
CF
330
CC
100
AcDbEntity
  8
_U+30EC_U+30A4_U+30E4_U+30FC 1
 62
   179
420
  2234388
370
     9
  0
INSERT
  5
D1
330
1F
100
AcDbEntity
  8
_U+30EC_U+30A4_U+30E4_U+30FC 1
100
AcDbBlockReference
  2
block 4
 10
0.0
 20
0.0
 30
0.0
  0
POLYLINE
  5
D6
330
1F
100
AcDbEntity
  8
_U+30EC_U+30A4_U+30E4_U+30FC 1
 62
   179
420
  2234388
370
     9
100
AcDb2dPolyline
 66
     1
 10
0.0
 20
0.0
 30
0.0
  0
VERTEX
  5
D7
330
D6
100
AcDbEntity
  8
_U+30EC_U+30A4_U+30E4_U+30FC 1
 62
   179
420
  2234388
370
     9
100
AcDbVertex
100
AcDb2dVertex
 10
84.45238728988454
 20
-110.502311916819
 30
0.0
  0
VERTEX
  5
D8
330
D6
100
AcDbEntity
  8
_U+30EC_U+30A4_U+30E4_U+30FC 1
 62
   179
420
  2234388
370
     9
100
AcDbVertex
100
AcDb2dVertex
 10
84.45238728988454
 20
-128.5022335789857
 30
0.0
  0
SEQEND
  5
D9
330
D6
100
AcDbEntity
  8
_U+30EC_U+30A4_U+30E4_U+30FC 1
 62
   179
420
  2234388
370
     9
  0
POLYLINE
  5
DA
330
1F
100
AcDbEntity
  8
_U+30EC_U+30A4_U+30E4_U+30FC 1
 62
   179
420
  2234388
370
     9
100
AcDb2dPolyline
 66
     1
 10
0.0
 20
0.0
 30
0.0
  0
VERTEX
  5
DB
330
DA
100
AcDbEntity
  8
_U+30EC_U+30A4_U+30E4_U+30FC 1
 62
   179
420
  2234388
370
     9
100
AcDbVertex
100
AcDb2dVertex
 10
98.02466527696022
 20
-110.502311916819
 30
0.0
  0
VERTEX
  5
DC
330
DA
100
AcDbEntity
  8
_U+30EC_U+30A4_U+30E4_U+30FC 1
 62
   179
420
  2234388
370
     9
100
AcDbVertex
100
AcDb2dVertex
 10
84.00245452358551
 20
-110.502311916819
 30
0.0
  0
SEQEND
  5
DD
330
DA
100
AcDbEntity
  8
_U+30EC_U+30A4_U+30E4_U+30FC 1
 62
   179
420
  2234388
370
     9
  0
POLYLINE
  5
DE
330
1F
100
AcDbEntity
  8
_U+30EC_U+30A4_U+30E4_U+30FC 1
 62
   179
420
  2234388
370
     9
100
AcDb2dPolyline
 66
     1
 10
0.0
 20
0.0
 30
0.0
  0
VERTEX
  5
DF
330
DE
100
AcDbEntity
  8
_U+30EC_U+30A4_U+30E4_U+30FC 1
 62
   179
420
  2234388
370
     9
100
AcDbVertex
100
AcDb2dVertex
 10
98.02466527696022
 20
-128.5022335789857
 30
0.0
  0
VERTEX
  5
E0
330
DE
100
AcDbEntity
  8
_U+30EC_U+30A4_U+30E4_U+30FC 1
 62
   179
420
  2234388
370
     9
100
AcDbVertex
100
AcDb2dVertex
 10
81.72661664623507
 20
-128.5022335789857
 30
0.0
  0
SEQEND
  5
E1
330
DE
100
AcDbEntity
  8
_U+30EC_U+30A4_U+30E4_U+30FC 1
 62
   179
420
  2234388
370
     9
  0
INSERT
  5
E3
330
1F
100
AcDbEntity
  8
_U+30EC_U+30A4_U+30E4_U+30FC 1
100
AcDbBlockReference
  2
block 5
 10
0.0
 20
0.0
 30
0.0
  0
POLYLINE
  5
FE
330
1F
100
AcDbEntity
  8
_U+30EC_U+30A4_U+30E4_U+30FC 1
 62
   179
420
  2234388
370
     9
100
AcDb2dPolyline
 66
     1
 10
0.0
 20
0.0
 30
0.0
  0
VERTEX
  5
FF
330
FE
100
AcDbEntity
  8
_U+30EC_U+30A4_U+30E4_U+30FC 1
 62
   179
420
  2234388
370
     9
100
AcDbVertex
100
AcDb2dVertex
 10
99.75274717731763
 20
-142.4133549643966
 30
0.0
  0
VERTEX
  5
100
330
FE
100
AcDbEntity
  8
_U+30EC_U+30A4_U+30E4_U+30FC 1
 62
   179
420
  2234388
370
     9
100
AcDbVertex
100
AcDb2dVertex
 10
93.00241512731073
 20
-142.4133549643966
 30
0.0
  0
SEQEND
  5
101
330
FE
100
AcDbEntity
  8
_U+30EC_U+30A4_U+30E4_U+30FC 1
 62
   179
420
  2234388
370
     9
  0
POLYLINE
  5
102
330
1F
100
AcDbEntity
  8
_U+30EC_U+30A4_U+30E4_U+30FC 1
 62
   179
420
  2234388
370
     9
100
AcDb2dPolyline
 66
     1
 10
0.0
 20
0.0
 30
0.0
  0
VERTEX
  5
103
330
102
100
AcDbEntity
  8
_U+30EC_U+30A4_U+30E4_U+30FC 1
 62
   179
420
  2234388
370
     9
100
AcDbVertex
100
AcDb2dVertex
 10
99.75274717731763
 20
-141.7567296867828
 30
0.0
  0
VERTEX
  5
104
330
102
100
AcDbEntity
  8
_U+30EC_U+30A4_U+30E4_U+30FC 1
 62
   179
420
  2234388
370
     9
100
AcDbVertex
100
AcDb2dVertex
 10
99.75274717731763
 20
-142.863287742062
 30
0.0
  0
SEQEND
  5
105
330
102
100
AcDbEntity
  8
_U+30EC_U+30A4_U+30E4_U+30FC 1
 62
   179
420
  2234388
370
     9
  0
POLYLINE
  5
106
330
1F
100
AcDbEntity
  8
_U+30EC_U+30A4_U+30E4_U+30FC 1
 62
   179
420
  2234388
370
     9
100
AcDb2dPolyline
 66
     1
 10
0.0
 20
0.0
 30
0.0
  0
VERTEX
  5
107
330
106
100
AcDbEntity
  8
_U+30EC_U+30A4_U+30E4_U+30FC 1
 62
   179
420
  2234388
370
     9
100
AcDbVertex
100
AcDb2dVertex
 10
93.00241512731073
 20
-140.7604146870322
 30
0.0
  0
VERTEX
  5
108
330
106
100
AcDbEntity
  8
_U+30EC_U+30A4_U+30E4_U+30FC 1
 62
   179
420
  2234388
370
     9
100
AcDbVertex
100
AcDb2dVertex
 10
93.00241512731073
 20
-142.863287742062
 30
0.0
  0
SEQEND
  5
109
330
106
100
AcDbEntity
  8
_U+30EC_U+30A4_U+30E4_U+30FC 1
 62
   179
420
  2234388
370
     9
  0
INSERT
  5
10B
330
1F
100
AcDbEntity
  8
_U+30EC_U+30A4_U+30E4_U+30FC 1
100
AcDbBlockReference
  2
block 6
 10
0.0
 20
0.0
 30
0.0
  0
POLYLINE
  5
112
330
1F
100
AcDbEntity
  8
_U+30EC_U+30A4_U+30E4_U+30FC 1
 62
   179
420
  2234388
370
     9
100
AcDb2dPolyline
 66
     1
 10
0.0
 20
0.0
 30
0.0
  0
VERTEX
  5
113
330
112
100
AcDbEntity
  8
_U+30EC_U+30A4_U+30E4_U+30FC 1
 62
   179
420
  2234388
370
     9
100
AcDbVertex
100
AcDb2dVertex
 10
86.25278863284137
 20
-144.2137563528357
 30
0.0
  0
VERTEX
  5
114
330
112
100
AcDbEntity
  8
_U+30EC_U+30A4_U+30E4_U+30FC 1
 62
   179
420
  2234388
370
     9
100
AcDbVertex
100
AcDb2dVertex
 10
99.75274717731763
 20
-144.2137563528357
 30
0.0
  0
SEQEND
  5
115
330
112
100
AcDbEntity
  8
_U+30EC_U+30A4_U+30E4_U+30FC 1
 62
   179
420
  2234388
370
     9
  0
POLYLINE
  5
116
330
1F
100
AcDbEntity
  8
_U+30EC_U+30A4_U+30E4_U+30FC 1
 62
   179
420
  2234388
370
     9
100
AcDb2dPolyline
 66
     1
 10
0.0
 20
0.0
 30
0.0
  0
VERTEX
  5
117
330
116
100
AcDbEntity
  8
_U+30EC_U+30A4_U+30E4_U+30FC 1
 62
   179
420
  2234388
370
     9
100
AcDbVertex
100
AcDb2dVertex
 10
86.25278863284137
 20
-141.7567296867828
 30
0.0
  0
VERTEX
  5
118
330
116
100
AcDbEntity
  8
_U+30EC_U+30A4_U+30E4_U+30FC 1
 62
   179
420
  2234388
370
     9
100
AcDbVertex
100
AcDb2dVertex
 10
86.25278863284137
 20
-144.6636891305005
 30
0.0
  0
SEQEND
  5
119
330
116
100
AcDbEntity
  8
_U+30EC_U+30A4_U+30E4_U+30FC 1
 62
   179
420
  2234388
370
     9
  0
POLYLINE
  5
11A
330
1F
100
AcDbEntity
  8
_U+30EC_U+30A4_U+30E4_U+30FC 1
 62
   179
420
  2234388
370
     9
100
AcDb2dPolyline
 66
     1
 10
0.0
 20
0.0
 30
0.0
  0
VERTEX
  5
11B
330
11A
100
AcDbEntity
  8
_U+30EC_U+30A4_U+30E4_U+30FC 1
 62
   179
420
  2234388
370
     9
100
AcDbVertex
100
AcDb2dVertex
 10
99.75274717731763
 20
-141.7567296867828
 30
0.0
  0
VERTEX
  5
11C
330
11A
100
AcDbEntity
  8
_U+30EC_U+30A4_U+30E4_U+30FC 1
 62
   179
420
  2234388
370
     9
100
AcDbVertex
100
AcDb2dVertex
 10
99.75274717731763
 20
-144.6636891305005
 30
0.0
  0
SEQEND
  5
11D
330
11A
100
AcDbEntity
  8
_U+30EC_U+30A4_U+30E4_U+30FC 1
 62
   179
420
  2234388
370
     9
  0
INSERT
  5
11F
330
1F
100
AcDbEntity
  8
_U+30EC_U+30A4_U+30E4_U+30FC 1
100
AcDbBlockReference
  2
block 7
 10
0.0
 20
0.0
 30
0.0
  0
SPLINE
  5
127
330
1F
100
AcDbEntity
  8
_U+30EC_U+30A4_U+30E4_U+30FC 1
 62
   179
420
  2234388
370
     9
100
AcDbSpline
210
0.0
220
0.0
230
1.0
 70
     8
 71
     3
 72
     8
 73
     4
 74
     0
 42
0.0000000001
 43
0.0000000001
 12
1.0
 22
0.0
 32
0.0
 13
1.0
 23
0.0
 33
0.0
 40
0.0
 40
0.0
 40
0.0
 40
0.0
 40
1.0
 40
1.0
 40
1.0
 40
1.0
 10
98.97346108608775
 20
-138.8518163541759
 30
0.0
 10
98.97346108608775
 20
-137.4717144100766
 30
0.0
 10
98.42499997539376
 20
-136.1474219104078
 30
0.0
 10
97.44864973610005
 20
-135.1710741328737
 30
0.0
  0
POLYLINE
  5
128
330
1F
100
AcDbEntity
  8
_U+30EC_U+30A4_U+30E4_U+30FC 1
 62
   179
420
  2234388
370
     9
100
AcDb2dPolyline
 66
     1
 10
0.0
 20
0.0
 30
0.0
  0
VERTEX
  5
129
330
128
100
AcDbEntity
  8
_U+30EC_U+30A4_U+30E4_U+30FC 1
 62
   179
420
  2234388
370
     9
100
AcDbVertex
100
AcDb2dVertex
 10
94.57612147605101
 20
-138.0442727432667
 30
0.0
  0
VERTEX
  5
12A
330
128
100
AcDbEntity
  8
_U+30EC_U+30A4_U+30E4_U+30FC 1
 62
   179
420
  2234388
370
     9
100
AcDbVertex
100
AcDb2dVertex
 10
97.76699639464502
 20
-134.8527627440645
 30
0.0
  0
SEQEND
  5
12B
330
128
100
AcDbEntity
  8
_U+30EC_U+30A4_U+30E4_U+30FC 1
 62
   179
420
  2234388
370
     9
  0
INSERT
  5
12D
330
1F
100
AcDbEntity
  8
_U+30EC_U+30A4_U+30E4_U+30FC 1
100
AcDbBlockReference
  2
block 8
 10
0.0
 20
0.0
 30
0.0
  0
POLYLINE
  5
14A
330
1F
100
AcDbEntity
  8
_U+30EC_U+30A4_U+30E4_U+30FC 1
 62
   179
420
  2234388
370
     9
100
AcDb2dPolyline
 66
     1
 10
0.0
 20
0.0
 30
0.0
  0
VERTEX
  5
14B
330
14A
100
AcDbEntity
  8
_U+30EC_U+30A4_U+30E4_U+30FC 1
 62
   179
420
  2234388
370
     9
100
AcDbVertex
100
AcDb2dVertex
 10
81.71144720179421
 20
-110.502311916819
 30
0.0
  0
VERTEX
  5
14C
330
14A
100
AcDbEntity
  8
_U+30EC_U+30A4_U+30E4_U+30FC 1
 62
   179
420
  2234388
370
     9
100
AcDbVertex
100
AcDb2dVertex
 10
81.71144720179421
 20
-140.2022849649496
 30
0.0
  0
SEQEND
  5
14D
330
14A
100
AcDbEntity
  8
_U+30EC_U+30A4_U+30E4_U+30FC 1
 62
   179
420
  2234388
370
     9
  0
POLYLINE
  5
14E
330
1F
100
AcDbEntity
  8
_U+30EC_U+30A4_U+30E4_U+30FC 1
 62
   179
420
  2234388
370
     9
100
AcDb2dPolyline
 66
     1
 10
0.0
 20
0.0
 30
0.0
  0
VERTEX
  5
14F
330
14E
100
AcDbEntity
  8
_U+30EC_U+30A4_U+30E4_U+30FC 1
 62
   179
420
  2234388
370
     9
100
AcDbVertex
100
AcDb2dVertex
 10
98.02466527696022
 20
-110.502311916819
 30
0.0
  0
VERTEX
  5
150
330
14E
100
AcDbEntity
  8
_U+30EC_U+30A4_U+30E4_U+30FC 1
 62
   179
420
  2234388
370
     9
100
AcDbVertex
100
AcDb2dVertex
 10
81.43793653345625
 20
-110.502311916819
 30
0.0
  0
SEQEND
  5
151
330
14E
100
AcDbEntity
  8
_U+30EC_U+30A4_U+30E4_U+30FC 1
 62
   179
420
  2234388
370
     9
  0
POLYLINE
  5
152
330
1F
100
AcDbEntity
  8
_U+30EC_U+30A4_U+30E4_U+30FC 1
 62
   179
420
  2234388
370
     9
100
AcDb2dPolyline
 66
     1
 10
0.0
 20
0.0
 30
0.0
  0
VERTEX
  5
153
330
152
100
AcDbEntity
  8
_U+30EC_U+30A4_U+30E4_U+30FC 1
 62
   179
420
  2234388
370
     9
100
AcDbVertex
100
AcDb2dVertex
 10
84.48544256681902
 20
-140.2022849649496
 30
0.0
  0
VERTEX
  5
154
330
152
100
AcDbEntity
  8
_U+30EC_U+30A4_U+30E4_U+30FC 1
 62
   179
420
  2234388
370
     9
100
AcDbVertex
100
AcDb2dVertex
 10
81.43793653345625
 20
-140.2022849649496
 30
0.0
  0
SEQEND
  5
155
330
152
100
AcDbEntity
  8
_U+30EC_U+30A4_U+30E4_U+30FC 1
 62
   179
420
  2234388
370
     9
  0
INSERT
  5
157
330
1F
100
AcDbEntity
  8
_U+30EC_U+30A4_U+30E4_U+30FC 1
100
AcDbBlockReference
  2
block 9
 10
0.0
 20
0.0
 30
0.0
  0
ENDSEC
  0
SECTION
  2
OBJECTS
  0
DICTIONARY
  5
C
330
0
100
AcDbDictionary
281
     1
  3
ACAD_GROUP
350
D
  3
ACAD_LAYOUT
350
1A
  3
ACAD_MATERIAL
350
3B
  3
ACAD_MLEADERSTYLE
350
161
  3
ACAD_MLINESTYLE
350
17
  3
ACAD_PLOTSETTINGS
350
19
  3
ACAD_PLOTSTYLENAME
350
E
  3
ACAD_TABLESTYLE
350
160
  3
ACAD_VISUALSTYLE
350
2A
  0
SUN
  5
3F
330
29
100
AcDbSun
 90
        1
290
     0
 63
     7
421
 16777215
 40
1.0
291
     1
 91
  2455826
 92
 54000000
292
     0
 70
     2
 71
   256
280
     1
  0
DICTIONARY
  5
D
102
{ACAD_REACTORS
330
C
102
}
330
C
100
AcDbDictionary
281
     1
  0
DICTIONARY
  5
1A
102
{ACAD_REACTORS
330
C
102
}
330
C
100
AcDbDictionary
281
     1
  3
Layout1
350
1E
  3
Layout2
350
26
  3
Model
350
22
  0
DICTIONARY
  5
3B
102
{ACAD_REACTORS
330
C
102
}
330
C
100
AcDbDictionary
281
     1
  3
ByBlock
350
3D
  3
ByLayer
350
3C
  3
Global
350
3E
  0
DICTIONARY
  5
161
102
{ACAD_REACTORS
330
C
102
}
330
C
100
AcDbDictionary
281
     1
  0
DICTIONARY
  5
17
102
{ACAD_REACTORS
330
C
102
}
330
C
100
AcDbDictionary
281
     1
  3
Standard
350
18
  0
DICTIONARY
  5
19
102
{ACAD_REACTORS
330
C
102
}
330
C
100
AcDbDictionary
281
     1
  0
ACDBDICTIONARYWDFLT
  5
E
102
{ACAD_REACTORS
330
C
102
}
330
C
100
AcDbDictionary
281
     1
  3
Normal
350
F
100
AcDbDictionaryWithDefault
340
F
  0
DICTIONARY
  5
160
102
{ACAD_REACTORS
330
C
102
}
330
C
100
AcDbDictionary
281
     1
  0
DICTIONARY
  5
2A
102
{ACAD_REACTORS
330
C
102
}
330
C
100
AcDbDictionary
281
     1
  3
2dWireframe
350
2F
  3
3D Hidden
350
31
  3
3dWireframe
350
30
  3
Basic
350
32
  3
Brighten
350
36
  3
ColorChange
350
3A
  3
Conceptual
350
34
  3
Dim
350
35
  3
Facepattern
350
39
  3
Flat
350
2B
  3
FlatWithEdges
350
2C
  3
Gouraud
350
2D
  3
GouraudWithEdges
350
2E
  3
Linepattern
350
38
  3
Realistic
350
33
  3
Thicken
350
37
  0
LAYOUT
  5
1E
102
{ACAD_REACTORS
330
1A
102
}
330
1A
100
AcDbPlotSettings
  1

  2
none_device
  4

  6

 40
0.0
 41
0.0
 42
0.0
 43
0.0
 44
0.0
 45
0.0
 46
0.0
 47
0.0
 48
0.0
 49
0.0
140
0.0
141
0.0
142
1.0
143
1.0
 70
   688
 72
     0
 73
     0
 74
     5
  7

 75
    16
 76
     0
 77
     2
 78
   300
147
1.0
148
0.0
149
0.0
100
AcDbLayout
  1
Layout1
 70
     1
 71
     1
 10
0.0
 20
0.0
 11
12.0
 21
9.0
 12
0.0
 22
0.0
 32
0.0
 14
1.000000000000000E+20
 24
1.000000000000000E+20
 34
1.000000000000000E+20
 15
-1.000000000000000E+20
 25
-1.000000000000000E+20
 35
-1.000000000000000E+20
146
0.0
 13
0.0
 23
0.0
 33
0.0
 16
1.0
 26
0.0
 36
0.0
 17
0.0
 27
1.0
 37
0.0
 76
     0
330
1B
  0
LAYOUT
  5
26
102
{ACAD_REACTORS
330
1A
102
}
330
1A
100
AcDbPlotSettings
  1

  2
none_device
  4

  6

 40
0.0
 41
0.0
 42
0.0
 43
0.0
 44
0.0
 45
0.0
 46
0.0
 47
0.0
 48
0.0
 49
0.0
140
0.0
141
0.0
142
1.0
143
1.0
 70
   688
 72
     0
 73
     0
 74
     5
  7

 75
    16
 76
     0
 77
     2
 78
   300
147
1.0
148
0.0
149
0.0
100
AcDbLayout
  1
Layout2
 70
     1
 71
     2
 10
0.0
 20
0.0
 11
0.0
 21
0.0
 12
0.0
 22
0.0
 32
0.0
 14
0.0
 24
0.0
 34
0.0
 15
0.0
 25
0.0
 35
0.0
146
0.0
 13
0.0
 23
0.0
 33
0.0
 16
1.0
 26
0.0
 36
0.0
 17
0.0
 27
1.0
 37
0.0
 76
     0
330
23
  0
LAYOUT
  5
22
102
{ACAD_REACTORS
330
1A
102
}
330
1A
100
AcDbPlotSettings
  1

  2
none_device
  4

  6

 40
0.0
 41
0.0
 42
0.0
 43
0.0
 44
0.0
 45
0.0
 46
0.0
 47
0.0
 48
0.0
 49
0.0
140
0.0
141
0.0
142
1.0
143
1.0
 70
  1712
 72
     0
 73
     0
 74
     0
  7

 75
     0
 76
     0
 77
     2
 78
   300
147
1.0
148
0.0
149
0.0
100
AcDbLayout
  1
Model
 70
     1
 71
     0
 10
0.0
 20
0.0
 11
12.0
 21
9.0
 12
0.0
 22
0.0
 32
0.0
 14
1.000000000000000E+20
 24
1.000000000000000E+20
 34
1.000000000000000E+20
 15
-1.000000000000000E+20
 25
-1.000000000000000E+20
 35
-1.000000000000000E+20
146
0.0
 13
0.0
 23
0.0
 33
0.0
 16
1.0
 26
0.0
 36
0.0
 17
0.0
 27
1.0
 37
0.0
 76
     0
330
1F
331
29
  0
MATERIAL
  5
3D
102
{ACAD_REACTORS
330
3B
102
}
330
3B
100
AcDbMaterial
  1
ByBlock
 72
     1
 94
      127
  0
MATERIAL
  5
3C
102
{ACAD_REACTORS
330
3B
102
}
330
3B
100
AcDbMaterial
  1
ByLayer
 72
     1
 94
      127
  0
MATERIAL
  5
3E
102
{ACAD_REACTORS
330
3B
102
}
330
3B
100
AcDbMaterial
  1
Global
 72
     1
 94
      127
  0
MLINESTYLE
  5
18
102
{ACAD_REACTORS
330
17
102
}
330
17
100
AcDbMlineStyle
  2
Standard
 70
     0
  3

 62
   256
 51
90.0
 52
90.0
 71
     2
 49
0.5
 62
   256
  6
BYLAYER
 49
-0.5
 62
   256
  6
BYLAYER
  0
ACDBPLACEHOLDER
  5
F
102
{ACAD_REACTORS
330
E
102
}
330
E
  0
VISUALSTYLE
  5
2F
102
{ACAD_REACTORS
330
2A
102
}
330
2A
100
AcDbVisualStyle
  2
2dWireframe
 70
     4
177
     2
291
     0
 71
     0
176
     1
 72
     2
176
     1
 73
     0
176
     1
 90
        0
176
     1
 40
-0.6
176
     1
 41
-30.0
176
     1
 62
     5
 63
     7
421
 16777215
176
     1
 74
     1
176
     1
 91
        4
176
     1
 64
     7
176
     1
 65
   257
176
     1
 75
     1
176
     1
175
     1
176
     1
 42
1.0
176
     1
 92
        0
176
     1
 66
   257
176
     1
 43
1.0
176
     1
 76
     1
176
     1
 77
     6
176
     1
 78
     2
176
     1
 67
     7
176
     1
 79
     5
176
     1
170
     0
176
     1
171
     0
176
     1
290
     0
176
     1
 93
        1
176
     1
 44
0.0
176
     1
173
     0
176
     1
  0
VISUALSTYLE
  5
31
102
{ACAD_REACTORS
330
2A
102
}
330
2A
100
AcDbVisualStyle
  2
3D Hidden
 70
     6
177
     2
291
     0
 71
     1
176
     1
 72
     2
176
     1
 73
     2
176
     1
 90
        0
176
     1
 40
-0.6
176
     1
 41
-30.0
176
     1
 62
     5
 63
     7
421
 16777215
176
     1
 74
     2
176
     1
 91
        2
176
     1
 64
     7
176
     1
 65
   257
176
     1
 75
     2
176
     1
175
     1
176
     1
 42
40.0
176
     1
 92
        0
176
     1
 66
   257
176
     1
 43
1.0
176
     1
 76
     1
176
     1
 77
     6
176
     1
 78
     2
176
     1
 67
     7
176
     1
 79
     3
176
     1
170
     0
176
     1
171
     0
176
     1
290
     0
176
     1
 93
        1
176
     1
 44
0.0
176
     1
173
     0
176
     1
  0
VISUALSTYLE
  5
30
102
{ACAD_REACTORS
330
2A
102
}
330
2A
100
AcDbVisualStyle
  2
3dWireframe
 70
     5
177
     2
291
     0
 71
     0
176
     1
 72
     2
176
     1
 73
     0
176
     1
 90
        0
176
     1
 40
-0.6
176
     1
 41
-30.0
176
     1
 62
     5
 63
     7
421
 16777215
176
     1
 74
     1
176
     1
 91
        4
176
     1
 64
     7
176
     1
 65
   257
176
     1
 75
     1
176
     1
175
     1
176
     1
 42
1.0
176
     1
 92
        0
176
     1
 66
   257
176
     1
 43
1.0
176
     1
 76
     1
176
     1
 77
     6
176
     1
 78
     2
176
     1
 67
     7
176
     1
 79
     5
176
     1
170
     0
176
     1
171
     0
176
     1
290
     0
176
     1
 93
        1
176
     1
 44
0.0
176
     1
173
     0
176
     1
  0
VISUALSTYLE
  5
32
102
{ACAD_REACTORS
330
2A
102
}
330
2A
100
AcDbVisualStyle
  2
Basic
 70
     7
177
     2
291
     1
 71
     1
176
     1
 72
     0
176
     1
 73
     1
176
     1
 90
        0
176
     1
 40
-0.6
176
     1
 41
-30.0
176
     1
 62
     5
 63
     7
421
 16777215
176
     1
 74
     0
176
     1
 91
        4
176
     1
 64
     7
176
     1
 65
   257
176
     1
 75
     1
176
     1
175
     1
176
     1
 42
1.0
176
     1
 92
        8
176
     1
 66
     7
176
     1
 43
1.0
176
     1
 76
     1
176
     1
 77
     6
176
     1
 78
     2
176
     1
 67
     7
176
     1
 79
     5
176
     1
170
     0
176
     1
171
     0
176
     1
290
     0
176
     1
 93
        1
176
     1
 44
0.0
176
     1
173
     0
176
     1
  0
VISUALSTYLE
  5
36
102
{ACAD_REACTORS
330
2A
102
}
330
2A
100
AcDbVisualStyle
  2
Brighten
 70
    12
177
     2
291
     1
 71
     2
176
     1
 72
     2
176
     1
 73
     0
176
     1
 90
        0
176
     1
 40
-0.6
176
     1
 41
-30.0
176
     1
 62
     5
 63
     7
421
 16777215
176
     1
 74
     1
176
     1
 91
        4
176
     1
 64
     7
176
     1
 65
   257
176
     1
 75
     1
176
     1
175
     1
176
     1
 42
1.0
176
     1
 92
        8
176
     1
 66
     7
176
     1
 43
1.0
176
     1
 76
     1
176
     1
 77
     6
176
     1
 78
     2
176
     1
 67
     7
176
     1
 79
     5
176
     1
170
     0
176
     1
171
     0
176
     1
290
     0
176
     1
 93
        1
176
     1
 44
50.0
176
     1
173
     0
176
     1
  0
VISUALSTYLE
  5
3A
102
{ACAD_REACTORS
330
2A
102
}
330
2A
100
AcDbVisualStyle
  2
ColorChange
 70
    16
177
     2
291
     1
 71
     2
176
     1
 72
     2
176
     1
 73
     3
176
     1
 90
        0
176
     1
 40
-0.6
176
     1
 41
-30.0
176
     1
 62
     5
 63
     8
421
  8421504
176
     1
 74
     1
176
     1
 91
        4
176
     1
 64
     7
176
     1
 65
   257
176
     1
 75
     1
176
     1
175
     1
176
     1
 42
1.0
176
     1
 92
        8
176
     1
 66
     8
424
  8421504
176
     1
 43
1.0
176
     1
 76
     1
176
     1
 77
     6
176
     1
 78
     2
176
     1
 67
     7
176
     1
 79
     5
176
     1
170
     0
176
     1
171
     0
176
     1
290
     0
176
     1
 93
        1
176
     1
 44
0.0
176
     1
173
     0
176
     1
  0
VISUALSTYLE
  5
34
102
{ACAD_REACTORS
330
2A
102
}
330
2A
100
AcDbVisualStyle
  2
Conceptual
 70
     9
177
     2
291
     0
 71
     3
176
     1
 72
     2
176
     1
 73
     0
176
     1
 90
        0
176
     1
 40
-0.6
176
     1
 41
-30.0
176
     1
 62
     5
 63
     7
421
 16777215
176
     1
 74
     2
176
     1
 91
        2
176
     1
 64
     7
176
     1
 65
   257
176
     1
 75
     1
176
     1
175
     1
176
     1
 42
40.0
176
     1
 92
        8
176
     1
 66
     7
176
     1
 43
1.0
176
     1
 76
     1
176
     1
 77
     6
176
     1
 78
     2
176
     1
 67
     7
176
     1
 79
     3
176
     1
170
     0
176
     1
171
     0
176
     1
290
     0
176
     1
 93
        1
176
     1
 44
0.0
176
     1
173
     0
176
     1
  0
VISUALSTYLE
  5
35
102
{ACAD_REACTORS
330
2A
102
}
330
2A
100
AcDbVisualStyle
  2
Dim
 70
    11
177
     2
291
     1
 71
     2
176
     1
 72
     2
176
     1
 73
     0
176
     1
 90
        0
176
     1
 40
-0.6
176
     1
 41
-30.0
176
     1
 62
     5
 63
     7
421
 16777215
176
     1
 74
     1
176
     1
 91
        4
176
     1
 64
     7
176
     1
 65
   257
176
     1
 75
     1
176
     1
175
     1
176
     1
 42
1.0
176
     1
 92
        8
176
     1
 66
     7
176
     1
 43
1.0
176
     1
 76
     1
176
     1
 77
     6
176
     1
 78
     2
176
     1
 67
     7
176
     1
 79
     5
176
     1
170
     0
176
     1
171
     0
176
     1
290
     0
176
     1
 93
        1
176
     1
 44
-50.0
176
     1
173
     0
176
     1
  0
VISUALSTYLE
  5
39
102
{ACAD_REACTORS
330
2A
102
}
330
2A
100
AcDbVisualStyle
  2
Facepattern
 70
    15
177
     2
291
     1
 71
     2
176
     1
 72
     2
176
     1
 73
     0
176
     1
 90
        0
176
     1
 40
-0.6
176
     1
 41
-30.0
176
     1
 62
     5
 63
     7
421
 16777215
176
     1
 74
     1
176
     1
 91
        4
176
     1
 64
     7
176
     1
 65
   257
176
     1
 75
     1
176
     1
175
     1
176
     1
 42
1.0
176
     1
 92
        8
176
     1
 66
     7
176
     1
 43
1.0
176
     1
 76
     1
176
     1
 77
     6
176
     1
 78
     2
176
     1
 67
     7
176
     1
 79
     5
176
     1
170
     0
176
     1
171
     0
176
     1
290
     0
176
     1
 93
        1
176
     1
 44
0.0
176
     1
173
     0
176
     1
  0
VISUALSTYLE
  5
2B
102
{ACAD_REACTORS
330
2A
102
}
330
2A
100
AcDbVisualStyle
  2
Flat
 70
     0
177
     2
291
     1
 71
     2
176
     1
 72
     1
176
     1
 73
     1
176
     1
 90
        2
176
     1
 40
-0.6
176
     1
 41
30.0
176
     1
 62
     5
 63
     7
421
 16777215
176
     1
 74
     0
176
     1
 91
        4
176
     1
 64
     7
176
     1
 65
   257
176
     1
 75
     1
176
     1
175
     1
176
     1
 42
1.0
176
     1
 92
        8
176
     1
 66
     7
176
     1
 43
1.0
176
     1
 76
     1
176
     1
 77
     6
176
     1
 78
     2
176
     1
 67
     7
176
     1
 79
     5
176
     1
170
     0
176
     1
171
     0
176
     1
290
     0
176
     1
 93
       13
176
     1
 44
0.0
176
     1
173
     0
176
     1
  0
VISUALSTYLE
  5
2C
102
{ACAD_REACTORS
330
2A
102
}
330
2A
100
AcDbVisualStyle
  2
FlatWithEdges
 70
     1
177
     2
291
     1
 71
     2
176
     1
 72
     1
176
     1
 73
     1
176
     1
 90
        2
176
     1
 40
-0.6
176
     1
 41
30.0
176
     1
 62
     5
 63
     7
421
 16777215
176
     1
 74
     1
176
     1
 91
        4
176
     1
 64
     7
176
     1
 65
   257
176
     1
 75
     1
176
     1
175
     1
176
     1
 42
1.0
176
     1
 92
        0
176
     1
 66
   257
176
     1
 43
1.0
176
     1
 76
     1
176
     1
 77
     6
176
     1
 78
     2
176
     1
 67
     7
176
     1
 79
     5
176
     1
170
     0
176
     1
171
     0
176
     1
290
     0
176
     1
 93
       13
176
     1
 44
0.0
176
     1
173
     0
176
     1
  0
VISUALSTYLE
  5
2D
102
{ACAD_REACTORS
330
2A
102
}
330
2A
100
AcDbVisualStyle
  2
Gouraud
 70
     2
177
     2
291
     1
 71
     2
176
     1
 72
     2
176
     1
 73
     1
176
     1
 90
        2
176
     1
 40
-0.6
176
     1
 41
30.0
176
     1
 62
     5
 63
     7
421
 16777215
176
     1
 74
     0
176
     1
 91
        4
176
     1
 64
     7
176
     1
 65
   257
176
     1
 75
     1
176
     1
175
     1
176
     1
 42
1.0
176
     1
 92
        0
176
     1
 66
     7
176
     1
 43
1.0
176
     1
 76
     1
176
     1
 77
     6
176
     1
 78
     2
176
     1
 67
     7
176
     1
 79
     5
176
     1
170
     0
176
     1
171
     0
176
     1
290
     0
176
     1
 93
       13
176
     1
 44
0.0
176
     1
173
     0
176
     1
  0
VISUALSTYLE
  5
2E
102
{ACAD_REACTORS
330
2A
102
}
330
2A
100
AcDbVisualStyle
  2
GouraudWithEdges
 70
     3
177
     2
291
     1
 71
     2
176
     1
 72
     2
176
     1
 73
     1
176
     1
 90
        2
176
     1
 40
-0.6
176
     1
 41
30.0
176
     1
 62
     5
 63
     7
421
 16777215
176
     1
 74
     1
176
     1
 91
        4
176
     1
 64
     7
176
     1
 65
   257
176
     1
 75
     1
176
     1
175
     1
176
     1
 42
1.0
176
     1
 92
        0
176
     1
 66
   257
176
     1
 43
1.0
176
     1
 76
     1
176
     1
 77
     6
176
     1
 78
     2
176
     1
 67
     7
176
     1
 79
     5
176
     1
170
     0
176
     1
171
     0
176
     1
290
     0
176
     1
 93
       13
176
     1
 44
0.0
176
     1
173
     0
176
     1
  0
VISUALSTYLE
  5
38
102
{ACAD_REACTORS
330
2A
102
}
330
2A
100
AcDbVisualStyle
  2
Linepattern
 70
    14
177
     2
291
     1
 71
     2
176
     1
 72
     2
176
     1
 73
     0
176
     1
 90
        0
176
     1
 40
-0.6
176
     1
 41
-30.0
176
     1
 62
     5
 63
     7
421
 16777215
176
     1
 74
     1
176
     1
 91
        4
176
     1
 64
     7
176
     1
 65
   257
176
     1
 75
     7
176
     1
175
     7
176
     1
 42
1.0
176
     1
 92
        8
176
     1
 66
     7
176
     1
 43
1.0
176
     1
 76
     1
176
     1
 77
     6
176
     1
 78
     2
176
     1
 67
     7
176
     1
 79
     5
176
     1
170
     0
176
     1
171
     0
176
     1
290
     0
176
     1
 93
        1
176
     1
 44
0.0
176
     1
173
     0
176
     1
  0
VISUALSTYLE
  5
33
102
{ACAD_REACTORS
330
2A
102
}
330
2A
100
AcDbVisualStyle
  2
Realistic
 70
     8
177
     2
291
     0
 71
     2
176
     1
 72
     2
176
     1
 73
     0
176
     1
 90
        0
176
     1
 40
-0.6
176
     1
 41
-30.0
176
     1
 62
     5
 63
     7
421
 16777215
176
     1
 74
     1
176
     1
 91
        0
176
     1
 64
     7
176
     1
 65
   257
176
     1
 75
     1
176
     1
175
     1
176
     1
 42
1.0
176
     1
 92
        8
176
     1
 66
     8
424
  7895160
176
     1
 43
1.0
176
     1
 76
     1
176
     1
 77
     6
176
     1
 78
     2
176
     1
 67
     7
176
     1
 79
     5
176
     1
170
     0
176
     1
171
     0
176
     1
290
     0
176
     1
 93
       13
176
     1
 44
0.0
176
     1
173
     0
176
     1
  0
VISUALSTYLE
  5
37
102
{ACAD_REACTORS
330
2A
102
}
330
2A
100
AcDbVisualStyle
  2
Thicken
 70
    13
177
     2
291
     1
 71
     2
176
     1
 72
     2
176
     1
 73
     0
176
     1
 90
        0
176
     1
 40
-0.6
176
     1
 41
-30.0
176
     1
 62
     5
 63
     7
421
 16777215
176
     1
 74
     1
176
     1
 91
        4
176
     1
 64
     7
176
     1
 65
   257
176
     1
 75
     1
176
     1
175
     1
176
     1
 42
1.0
176
     1
 92
       12
176
     1
 66
     7
176
     1
 43
1.0
176
     1
 76
     1
176
     1
 77
     6
176
     1
 78
     2
176
     1
 67
     7
176
     1
 79
     5
176
     1
170
     0
176
     1
171
     0
176
     1
290
     0
176
     1
 93
        1
176
     1
 44
0.0
176
     1
173
     0
176
     1
  0
ENDSEC
  0
EOF
