  0
SECTION
  2
HEADER
  9
$ACADVER
  1
AC1024
  9
$ACADMAINTVER
 70
     6
  9
$DWGCODEPAGE
  3
UNDEFINED
  9
$INSBASE
 10
0.0
 20
0.0
 30
0.0
  9
$EXTMIN
 10
1.000000000000000E+20
 20
1.000000000000000E+20
 30
1.000000000000000E+20
  9
$EXTMAX
 10
-1.000000000000000E+20
 20
-1.000000000000000E+20
 30
-1.000000000000000E+20
  9
$LIMMIN
 10
0.0
 20
0.0
  9
$LIMMAX
 10
12.0
 20
9.0
  9
$ORTHOMODE
 70
     0
  9
$REGENMODE
 70
     1
  9
$FILLMODE
 70
     1
  9
$QTEXTMODE
 70
     0
  9
$MIRRTEXT
 70
     1
  9
$LTSCALE
 40
1.0
  9
$ATTMODE
 70
     1
  9
$TEXTSIZE
 40
0.2
  9
$TRACEWID
 40
0.05
  9
$TEXTSTYLE
  7
Standard
  9
$CLAYER
  8
0
  9
$CELTYPE
  6
ByLayer
  9
$CECOLOR
 62
   256
  9
$CELTSCALE
 40
1.0
  9
$DISPSILH
 70
     0
  9
$DIMSCALE
 40
1.0
  9
$DIMASZ
 40
0.18
  9
$DIMEXO
 40
0.0625
  9
$DIMDLI
 40
0.38
  9
$DIMRND
 40
0.0
  9
$DIMDLE
 40
0.0
  9
$DIMEXE
 40
0.18
  9
$DIMTP
 40
0.0
  9
$DIMTM
 40
0.0
  9
$DIMTXT
 40
0.18
  9
$DIMCEN
 40
0.09
  9
$DIMTSZ
 40
0.0
  9
$DIMTOL
 70
     0
  9
$DIMLIM
 70
     0
  9
$DIMTIH
 70
     1
  9
$DIMTOH
 70
     1
  9
$DIMSE1
 70
     0
  9
$DIMSE2
 70
     0
  9
$DIMTAD
 70
     0
  9
$DIMZIN
 70
     0
  9
$DIMBLK
  1

  9
$DIMASO
 70
     1
  9
$DIMSHO
 70
     1
  9
$DIMPOST
  1

  9
$DIMAPOST
  1

  9
$DIMALT
 70
     0
  9
$DIMALTD
 70
     2
  9
$DIMALTF
 40
25.4
  9
$DIMLFAC
 40
1.0
  9
$DIMTOFL
 70
     0
  9
$DIMTVP
 40
0.0
  9
$DIMTIX
 70
     0
  9
$DIMSOXD
 70
     0
  9
$DIMSAH
 70
     0
  9
$DIMBLK1
  1

  9
$DIMBLK2
  1

  9
$DIMSTYLE
  2
Standard
  9
$DIMCLRD
 70
     0
  9
$DIMCLRE
 70
     0
  9
$DIMCLRT
 70
     0
  9
$DIMTFAC
 40
1.0
  9
$DIMGAP
 40
0.09
  9
$DIMJUST
 70
     0
  9
$DIMSD1
 70
     0
  9
$DIMSD2
 70
     0
  9
$DIMTOLJ
 70
     1
  9
$DIMTZIN
 70
     0
  9
$DIMALTZ
 70
     0
  9
$DIMALTTZ
 70
     0
  9
$DIMUPT
 70
     0
  9
$DIMDEC
 70
     4
  9
$DIMTDEC
 70
     4
  9
$DIMALTU
 70
     2
  9
$DIMALTTD
 70
     2
  9
$DIMTXSTY
  7
Standard
  9
$DIMAUNIT
 70
     0
  9
$DIMADEC
 70
     0
  9
$DIMALTRND
 40
0.0
  9
$DIMAZIN
 70
     0
  9
$DIMDSEP
 70
    46
  9
$DIMATFIT
 70
     3
  9
$DIMFRAC
 70
     0
  9
$DIMLDRBLK
  1

  9
$DIMLUNIT
 70
     2
  9
$DIMLWD
 70
    -2
  9
$DIMLWE
 70
    -2
  9
$DIMTMOVE
 70
     0
  9
$DIMFXL
 40
1.0
  9
$DIMFXLON
 70
     0
  9
$DIMJOGANG
 40
0.7853981633974483
  9
$DIMTFILL
 70
     0
  9
$DIMTFILLCLR
 70
     0
  9
$DIMARCSYM
 70
     0
  9
$DIMLTYPE
  6

  9
$DIMLTEX1
  6

  9
$DIMLTEX2
  6

  9
$DIMTXTDIRECTION
 70
     0
  9
$LUNITS
 70
     2
  9
$LUPREC
 70
     4
  9
$SKETCHINC
 40
0.1
  9
$FILLETRAD
 40
0.5
  9
$AUNITS
 70
     0
  9
$AUPREC
 70
     0
  9
$MENU
  1
.
  9
$ELEVATION
 40
0.0
  9
$PELEVATION
 40
0.0
  9
$THICKNESS
 40
0.0
  9
$LIMCHECK
 70
     0
  9
$CHAMFERA
 40
0.5
  9
$CHAMFERB
 40
0.5
  9
$CHAMFERC
 40
1.0
  9
$CHAMFERD
 40
0.0
  9
$SKPOLY
 70
     0
  9
$TDCREATE
 40
2457917.626701389
  9
$TDUCREATE
 40
2457917.251701389
  9
$TDUPDATE
 40
2457917.626701389
  9
$TDUUPDATE
 40
2457917.251701389
  9
$TDINDWG
 40
0.0000000116
  9
$TDUSRTIMER
 40
0.0000000116
  9
$USRTIMER
 70
     1
  9
$ANGBASE
 50
0.0
  9
$ANGDIR
 70
     0
  9
$PDMODE
 70
     0
  9
$PDSIZE
 40
0.0
  9
$PLINEWID
 40
0.0
  9
$SPLFRAME
 70
     0
  9
$SPLINETYPE
 70
     6
  9
$SPLINESEGS
 70
     8
  9
$HANDSEED
  5
12D
  9
$SURFTAB1
 70
     6
  9
$SURFTAB2
 70
     6
  9
$SURFTYPE
 70
     6
  9
$SURFU
 70
     6
  9
$SURFV
 70
     6
  9
$UCSBASE
  2

  9
$UCSNAME
  2

  9
$UCSORG
 10
0.0
 20
0.0
 30
0.0
  9
$UCSXDIR
 10
1.0
 20
0.0
 30
0.0
  9
$UCSYDIR
 10
0.0
 20
1.0
 30
0.0
  9
$UCSORTHOREF
  2

  9
$UCSORTHOVIEW
 70
     0
  9
$UCSORGTOP
 10
0.0
 20
0.0
 30
0.0
  9
$UCSORGBOTTOM
 10
0.0
 20
0.0
 30
0.0
  9
$UCSORGLEFT
 10
0.0
 20
0.0
 30
0.0
  9
$UCSORGRIGHT
 10
0.0
 20
0.0
 30
0.0
  9
$UCSORGFRONT
 10
0.0
 20
0.0
 30
0.0
  9
$UCSORGBACK
 10
0.0
 20
0.0
 30
0.0
  9
$PUCSBASE
  2

  9
$PUCSNAME
  2

  9
$PUCSORG
 10
0.0
 20
0.0
 30
0.0
  9
$PUCSXDIR
 10
1.0
 20
0.0
 30
0.0
  9
$PUCSYDIR
 10
0.0
 20
1.0
 30
0.0
  9
$PUCSORTHOREF
  2

  9
$PUCSORTHOVIEW
 70
     0
  9
$PUCSORGTOP
 10
0.0
 20
0.0
 30
0.0
  9
$PUCSORGBOTTOM
 10
0.0
 20
0.0
 30
0.0
  9
$PUCSORGLEFT
 10
0.0
 20
0.0
 30
0.0
  9
$PUCSORGRIGHT
 10
0.0
 20
0.0
 30
0.0
  9
$PUCSORGFRONT
 10
0.0
 20
0.0
 30
0.0
  9
$PUCSORGBACK
 10
0.0
 20
0.0
 30
0.0
  9
$USERI1
 70
     0
  9
$USERI2
 70
     0
  9
$USERI3
 70
     0
  9
$USERI4
 70
     0
  9
$USERI5
 70
     0
  9
$USERR1
 40
0.0
  9
$USERR2
 40
0.0
  9
$USERR3
 40
0.0
  9
$USERR4
 40
0.0
  9
$USERR5
 40
0.0
  9
$WORLDVIEW
 70
     1
  9
$SHADEDGE
 70
     3
  9
$SHADEDIF
 70
    70
  9
$TILEMODE
 70
     1
  9
$MAXACTVP
 70
    64
  9
$PINSBASE
 10
0.0
 20
0.0
 30
0.0
  9
$PLIMCHECK
 70
     0
  9
$PEXTMIN
 10
1.000000000000000E+20
 20
1.000000000000000E+20
 30
1.000000000000000E+20
  9
$PEXTMAX
 10
-1.000000000000000E+20
 20
-1.000000000000000E+20
 30
-1.000000000000000E+20
  9
$PLIMMIN
 10
0.0
 20
0.0
  9
$PLIMMAX
 10
12.0
 20
9.0
  9
$UNITMODE
 70
     0
  9
$VISRETAIN
 70
     1
  9
$PLINEGEN
 70
     0
  9
$PSLTSCALE
 70
     1
  9
$TREEDEPTH
 70
  3020
  9
$CMLSTYLE
  2
Standard
  9
$CMLJUST
 70
     0
  9
$CMLSCALE
 40
1.0
  9
$PROXYGRAPHICS
 70
     1
  9
$MEASUREMENT
 70
     0
  9
$CELWEIGHT
370
    -1
  9
$ENDCAPS
280
     0
  9
$JOINSTYLE
280
     0
  9
$LWDISPLAY
290
     1
  9
$INSUNITS
 70
     1
  9
$HYPERLINKBASE
  1

  9
$STYLESHEET
  1

  9
$XEDIT
290
     1
  9
$CEPSNTYPE
380
     0
  9
$PSTYLEMODE
290
     1
  9
$FINGERPRINTGUID
  2
{32CDAAB7-B93D-4A11-8E9A-2D5A1D4A8EEB}
  9
$VERSIONGUID
  2
{FAEB1C32-E019-11D5-929B-00C0DF256EC4}
  9
$EXTNAMES
290
     1
  9
$PSVPSCALE
 40
0.0
  9
$OLESTARTUP
290
     0
  9
$SORTENTS
280
   127
  9
$INDEXCTL
280
     0
  9
$HIDETEXT
280
     1
  9
$XCLIPFRAME
280
     2
  9
$HALOGAP
280
     0
  9
$OBSCOLOR
 70
   257
  9
$OBSLTYPE
280
     0
  9
$INTERSECTIONDISPLAY
280
     0
  9
$INTERSECTIONCOLOR
 70
   257
  9
$DIMASSOC
280
     2
  9
$PROJECTNAME
  1

  9
$CAMERADISPLAY
290
     0
  9
$LENSLENGTH
 40
50.0
  9
$CAMERAHEIGHT
 40
0.0
  9
$STEPSPERSEC
 40
2.0
  9
$STEPSIZE
 40
6.0
  9
$3DDWFPREC
 40
2.0
  9
$PSOLWIDTH
 40
0.25
  9
$PSOLHEIGHT
 40
4.0
  9
$LOFTANG1
 40
1.570796326794897
  9
$LOFTANG2
 40
1.570796326794897
  9
$LOFTMAG1
 40
0.0
  9
$LOFTMAG2
 40
0.0
  9
$LOFTPARAM
 70
     7
  9
$LOFTNORMALS
280
     1
  9
$LATITUDE
 40
37.795
  9
$LONGITUDE
 40
-122.394
  9
$NORTHDIRECTION
 40
0.0
  9
$TIMEZONE
 70
 -8000
  9
$LIGHTGLYPHDISPLAY
280
     1
  9
$TILEMODELIGHTSYNCH
280
     1
  9
$CMATERIAL
347
3C
  9
$SOLIDHIST
280
     1
  9
$SHOWHIST
280
     1
  9
$DWFFRAME
280
     2
  9
$DGNFRAME
280
     2
  9
$REALWORLDSCALE
290
     1
  9
$INTERFERECOLOR
 62
   256
  9
$CSHADOW
280
     0
  9
$SHADOWPLANELOCATION
 40
0.0
  0
ENDSEC
  0
SECTION
  2
CLASSES
  0
CLASS
  1
ACDBDICTIONARYWDFLT
  2
AcDbDictionaryWithDefault
  3
ObjectDBX Classes
 90
        0
 91
        4
280
     0
281
     0
  0
CLASS
  1
VISUALSTYLE
  2
AcDbVisualStyle
  3
ObjectDBX Classes
 90
     4095
 91
        4
280
     0
281
     0
  0
CLASS
  1
MATERIAL
  2
AcDbMaterial
  3
ObjectDBX Classes
 90
     1153
 91
        4
280
     0
281
     0
  0
CLASS
  1
SUN
  2
AcDbSun
  3
SCENEOE
 90
     1024
 91
        4
280
     0
281
     0
  0
ENDSEC
  0
SECTION
  2
TABLES
  0
TABLE
  2
VPORT
  5
8
330
0
100
AcDbSymbolTable
 70
     1
  0
VPORT
  5
29
330
8
100
AcDbSymbolTableRecord
100
AcDbViewportTableRecord
  2
*Active
 70
     0
 10
0.0
 20
0.0
 11
1.0
 21
1.0
 12
0.0
 22
0.0
 13
0.0
 23
0.0
 14
0.5
 24
0.5
 15
0.5
 25
0.5
 16
0.0
 26
0.0
 36
1.0
 17
91.00082462281999
 27
-128.4993055234307
 37
0.0
 40
256.9986110468615
 41
0.7081814508812795
 42
50.0
 43
0.0
 44
0.0
 50
0.0
 51
0.0
 71
     0
 72
   100
 73
     1
 74
     3
 75
     0
 76
     0
 77
     0
 78
     0
281
     0
 65
     1
110
0.0
120
0.0
130
0.0
111
1.0
121
0.0
131
0.0
112
0.0
122
1.0
132
0.0
 79
     0
146
0.0
 60
     3
 61
     5
292
     1
282
     1
141
0.0
142
0.0
 63
   250
361
3F
  0
ENDTAB
  0
TABLE
  2
LTYPE
  5
5
330
0
100
AcDbSymbolTable
 70
     1
  0
LTYPE
  5
14
330
5
100
AcDbSymbolTableRecord
100
AcDbLinetypeTableRecord
  2
ByBlock
 70
     0
  3

 72
    65
 73
     0
 40
0.0
  0
LTYPE
  5
15
330
5
100
AcDbSymbolTableRecord
100
AcDbLinetypeTableRecord
  2
ByLayer
 70
     0
  3

 72
    65
 73
     0
 40
0.0
  0
LTYPE
  5
16
330
5
100
AcDbSymbolTableRecord
100
AcDbLinetypeTableRecord
  2
Continuous
 70
     0
  3
Solid line
 72
    65
 73
     0
 40
0.0
  0
ENDTAB
  0
TABLE
  2
LAYER
  5
2
330
0
100
AcDbSymbolTable
 70
     2
  0
LAYER
  5
10
330
2
100
AcDbSymbolTableRecord
100
AcDbLayerTableRecord
  2
0
 70
     0
 62
     7
  6
Continuous
370
    -3
390
F
347
3E
  0
LAYER
  5
40
330
2
100
AcDbSymbolTableRecord
100
AcDbLayerTableRecord
  2
_U+30EC_U+30A4_U+30E4_U+30FC 1
 70
     0
 62
     7
  6
Continuous
370
    -3
390
F
347
3E
  0
ENDTAB
  0
TABLE
  2
STYLE
  5
3
330
0
100
AcDbSymbolTable
 70
     1
  0
STYLE
  5
11
330
3
100
AcDbSymbolTableRecord
100
AcDbTextStyleTableRecord
  2
Standard
 70
     0
 40
0.0
 41
1.0
 50
0.0
 71
     0
 42
0.2
  3
txt
  4

  0
ENDTAB
  0
TABLE
  2
VIEW
  5
6
330
0
100
AcDbSymbolTable
 70
     0
  0
ENDTAB
  0
TABLE
  2
UCS
  5
7
330
0
100
AcDbSymbolTable
 70
     0
  0
ENDTAB
  0
TABLE
  2
APPID
  5
9
330
0
100
AcDbSymbolTable
 70
     1
  0
APPID
  5
12
330
9
100
AcDbSymbolTableRecord
100
AcDbRegAppTableRecord
  2
ACAD
 70
     0
  0
ENDTAB
  0
TABLE
  2
DIMSTYLE
  5
A
330
0
100
AcDbSymbolTable
 70
     1
100
AcDbDimStyleTable
  0
DIMSTYLE
105
27
330
A
100
AcDbSymbolTableRecord
100
AcDbDimStyleTableRecord
  2
Standard
 70
     0
178
     0
340
11
  0
ENDTAB
  0
TABLE
  2
BLOCK_RECORD
  5
1
330
0
100
AcDbSymbolTable
 70
     6
  0
BLOCK_RECORD
  5
1F
330
1
100
AcDbSymbolTableRecord
100
AcDbBlockTableRecord
  2
*Model_Space
340
22
 70
     0
280
     1
281
     0
  0
BLOCK_RECORD
  5
1B
330
1
100
AcDbSymbolTableRecord
100
AcDbBlockTableRecord
  2
*Paper_Space
340
1E
 70
     0
280
     1
281
     0
  0
BLOCK_RECORD
  5
23
330
1
100
AcDbSymbolTableRecord
100
AcDbBlockTableRecord
  2
*Paper_Space0
340
26
 70
     0
280
     1
281
     0
  0
BLOCK_RECORD
  5
AA
330
1
100
AcDbSymbolTableRecord
100
AcDbBlockTableRecord
  2
block 2
340
0
102
{BLKREFS
331
AB
102
}
 70
     0
280
     1
281
     0
  0
BLOCK_RECORD
  5
D2
330
1
100
AcDbSymbolTableRecord
100
AcDbBlockTableRecord
  2
block 3
340
0
102
{BLKREFS
331
D3
102
}
 70
     0
280
     1
281
     0
  0
BLOCK_RECORD
  5
E7
330
1
100
AcDbSymbolTableRecord
100
AcDbBlockTableRecord
  2
block 4
340
0
102
{BLKREFS
331
E8
102
}
 70
     0
280
     1
281
     0
  0
BLOCK_RECORD
  5
FD
330
1
100
AcDbSymbolTableRecord
100
AcDbBlockTableRecord
  2
block 5
340
0
102
{BLKREFS
331
FE
102
}
 70
     0
280
     1
281
     0
  0
BLOCK_RECORD
  5
119
330
1
100
AcDbSymbolTableRecord
100
AcDbBlockTableRecord
  2
block 6
340
0
102
{BLKREFS
331
11A
102
}
 70
     0
280
     1
281
     0
  0
ENDTAB
  0
ENDSEC
  0
SECTION
  2
BLOCKS
  0
BLOCK
  5
20
330
1F
100
AcDbEntity
  8
0
100
AcDbBlockBegin
  2
*Model_Space
 70
     0
 10
0.0
 20
0.0
 30
0.0
  3
*Model_Space
  1

  0
ENDBLK
  5
21
330
1F
100
AcDbEntity
  8
0
100
AcDbBlockEnd
  0
BLOCK
  5
1C
330
1B
100
AcDbEntity
 67
     1
  8
0
100
AcDbBlockBegin
  2
*Paper_Space
 70
     0
 10
0.0
 20
0.0
 30
0.0
  3
*Paper_Space
  1

  0
ENDBLK
  5
1D
330
1B
100
AcDbEntity
 67
     1
  8
0
100
AcDbBlockEnd
  0
BLOCK
  5
24
330
23
100
AcDbEntity
  8
0
100
AcDbBlockBegin
  2
*Paper_Space0
 70
     0
 10
0.0
 20
0.0
 30
0.0
  3
*Paper_Space0
  1

  0
ENDBLK
  5
25
330
23
100
AcDbEntity
  8
0
100
AcDbBlockEnd
  0
BLOCK
  5
AC
330
AA
100
AcDbEntity
  8
0
100
AcDbBlockBegin
  2
block 2
 70
     0
 10
0.0
 20
0.0
 30
0.0
  3
block 2
  1

  0
POLYLINE
  5
AE
330
AA
100
AcDbEntity
  8
_U+30EC_U+30A4_U+30E4_U+30FC 1
370
     0
100
AcDb2dPolyline
 66
     1
 10
0.0
 20
0.0
 30
0.0
  0
VERTEX
  5
AF
330
AE
100
AcDbEntity
  8
_U+30EC_U+30A4_U+30E4_U+30FC 1
370
     0
100
AcDbVertex
100
AcDb2dVertex
 10
92.5128716131565
 20
-118.9560465197402
 30
0.0
  0
VERTEX
  5
B0
330
AE
100
AcDbEntity
  8
_U+30EC_U+30A4_U+30E4_U+30FC 1
370
     0
100
AcDbVertex
100
AcDb2dVertex
 10
92.5128716131565
 20
-119.3312174180839
 30
0.0
  0
VERTEX
  5
B1
330
AE
100
AcDbEntity
  8
_U+30EC_U+30A4_U+30E4_U+30FC 1
370
     0
100
AcDbVertex
100
AcDb2dVertex
 10
92.26103513318475
 20
-119.3312174180839
 30
0.0
  0
VERTEX
  5
B2
330
AE
100
AcDbEntity
  8
_U+30EC_U+30A4_U+30E4_U+30FC 1
370
     0
100
AcDbVertex
100
AcDb2dVertex
 10
92.26103513318475
 20
-118.9560465197402
 30
0.0
  0
VERTEX
  5
B3
330
AE
100
AcDbEntity
  8
_U+30EC_U+30A4_U+30E4_U+30FC 1
370
     0
100
AcDbVertex
100
AcDb2dVertex
 10
91.5034586359783
 20
-118.9560465197402
 30
0.0
  0
VERTEX
  5
B4
330
AE
100
AcDbEntity
  8
_U+30EC_U+30A4_U+30E4_U+30FC 1
370
     0
100
AcDbVertex
100
AcDb2dVertex
 10
91.5034586359783
 20
-118.7135117975786
 30
0.0
  0
VERTEX
  5
B5
330
AE
100
AcDbEntity
  8
_U+30EC_U+30A4_U+30E4_U+30FC 1
370
     0
100
AcDbVertex
100
AcDb2dVertex
 10
92.28790687796969
 20
-117.661207381609
 30
0.0
  0
VERTEX
  5
B6
330
AE
100
AcDbEntity
  8
_U+30EC_U+30A4_U+30E4_U+30FC 1
370
     0
100
AcDbVertex
100
AcDb2dVertex
 10
92.5128716131565
 20
-117.661207381609
 30
0.0
  0
VERTEX
  5
B7
330
AE
100
AcDbEntity
  8
_U+30EC_U+30A4_U+30E4_U+30FC 1
370
     0
100
AcDbVertex
100
AcDb2dVertex
 10
92.5128716131565
 20
-118.7409003066863
 30
0.0
  0
VERTEX
  5
B8
330
AE
100
AcDbEntity
  8
_U+30EC_U+30A4_U+30E4_U+30FC 1
370
     0
100
AcDbVertex
100
AcDb2dVertex
 10
92.75230574938138
 20
-118.7409003066863
 30
0.0
  0
VERTEX
  5
B9
330
AE
100
AcDbEntity
  8
_U+30EC_U+30A4_U+30E4_U+30FC 1
370
     0
100
AcDbVertex
100
AcDb2dVertex
 10
92.75230574938138
 20
-118.9560465197402
 30
0.0
  0
VERTEX
  5
BA
330
AE
100
AcDbEntity
  8
_U+30EC_U+30A4_U+30E4_U+30FC 1
370
     0
100
AcDbVertex
100
AcDb2dVertex
 10
92.5128716131565
 20
-118.9560465197402
 30
0.0
  0
SEQEND
  5
BB
330
AE
100
AcDbEntity
  8
_U+30EC_U+30A4_U+30E4_U+30FC 1
370
     0
  0
POLYLINE
  5
BC
330
AA
100
AcDbEntity
  8
_U+30EC_U+30A4_U+30E4_U+30FC 1
370
     0
100
AcDb2dPolyline
 66
     1
 10
0.0
 20
0.0
 30
0.0
  0
VERTEX
  5
BD
330
BC
100
AcDbEntity
  8
_U+30EC_U+30A4_U+30E4_U+30FC 1
370
     0
100
AcDbVertex
100
AcDb2dVertex
 10
92.26103513318475
 20
-118.0317274010476
 30
0.0
  0
VERTEX
  5
BE
330
BC
100
AcDbEntity
  8
_U+30EC_U+30A4_U+30E4_U+30FC 1
370
     0
100
AcDbVertex
100
AcDb2dVertex
 10
91.73324650484447
 20
-118.7409003066863
 30
0.0
  0
VERTEX
  5
BF
330
BC
100
AcDbEntity
  8
_U+30EC_U+30A4_U+30E4_U+30FC 1
370
     0
100
AcDbVertex
100
AcDb2dVertex
 10
92.26103513318475
 20
-118.7409003066863
 30
0.0
  0
VERTEX
  5
C0
330
BC
100
AcDbEntity
  8
_U+30EC_U+30A4_U+30E4_U+30FC 1
370
     0
100
AcDbVertex
100
AcDb2dVertex
 10
92.26103513318475
 20
-118.0317274010476
 30
0.0
  0
SEQEND
  5
C1
330
BC
100
AcDbEntity
  8
_U+30EC_U+30A4_U+30E4_U+30FC 1
370
     0
  0
HATCH
  5
C2
330
AA
100
AcDbEntity
  8
_U+30EC_U+30A4_U+30E4_U+30FC 1
 62
   179
420
  2234388
100
AcDbHatch
 10
0.0
 20
0.0
 30
0.0
210
0.0
220
0.0
230
1.0
  2
SOLID
 70
     1
 71
     0
 91
        2
 92
        1
 93
       11
 72
     1
 10
92.5128716131565
 20
-118.9560465197402
 11
92.5128716131565
 21
-119.3312174180839
 72
     1
 10
92.5128716131565
 20
-119.3312174180839
 11
92.26103513318475
 21
-119.3312174180839
 72
     1
 10
92.26103513318475
 20
-119.3312174180839
 11
92.26103513318475
 21
-118.9560465197402
 72
     1
 10
92.26103513318475
 20
-118.9560465197402
 11
91.5034586359783
 21
-118.9560465197402
 72
     1
 10
91.5034586359783
 20
-118.9560465197402
 11
91.5034586359783
 21
-118.7135117975786
 72
     1
 10
91.5034586359783
 20
-118.7135117975786
 11
92.28790687796969
 21
-117.661207381609
 72
     1
 10
92.28790687796969
 20
-117.661207381609
 11
92.5128716131565
 21
-117.661207381609
 72
     1
 10
92.5128716131565
 20
-117.661207381609
 11
92.5128716131565
 21
-118.7409003066863
 72
     1
 10
92.5128716131565
 20
-118.7409003066863
 11
92.75230574938138
 21
-118.7409003066863
 72
     1
 10
92.75230574938138
 20
-118.7409003066863
 11
92.75230574938138
 21
-118.9560465197402
 72
     1
 10
92.75230574938138
 20
-118.9560465197402
 11
92.5128716131565
 21
-118.9560465197402
 97
        0
 92
        1
 93
        3
 72
     1
 10
92.26103513318475
 20
-118.0317274010476
 11
91.73324650484447
 21
-118.7409003066863
 72
     1
 10
91.73324650484447
 20
-118.7409003066863
 11
92.26103513318475
 21
-118.7409003066863
 72
     1
 10
92.26103513318475
 20
-118.7409003066863
 11
92.26103513318475
 21
-118.0317274010476
 97
        0
 75
     2
 76
     1
 98
        0
  0
SPLINE
  5
C3
330
AA
100
AcDbEntity
  8
_U+30EC_U+30A4_U+30E4_U+30FC 1
370
     0
100
AcDbSpline
210
0.0
220
0.0
230
1.0
 70
    11
 71
     3
 72
    29
 73
    25
 74
     0
 42
0.0000000001
 43
0.0000000001
 12
1.0
 22
0.0
 32
0.0
 13
1.0
 23
0.0
 33
0.0
 40
0.0
 40
0.0
 40
0.0
 40
0.0
 40
1.0
 40
1.0
 40
1.0
 40
2.0
 40
2.0
 40
2.0
 40
3.0
 40
3.0
 40
3.0
 40
4.0
 40
4.0
 40
4.0
 40
5.0
 40
5.0
 40
5.0
 40
6.0
 40
6.0
 40
6.0
 40
7.0
 40
7.0
 40
7.0
 40
8.0
 40
8.0
 40
8.0
 40
8.0
 10
93.94706486366601
 20
-119.1389810900069
 30
0.0
 10
93.82235240709997
 20
-119.3654961181621
 30
0.0
 10
93.62184784985843
 20
-119.3861666910736
 30
0.0
 10
93.48748912593369
 20
-119.3861666910736
 30
0.0
 10
93.30179847927872
 20
-119.3861666910736
 30
0.0
 10
93.13815644372936
 20
-119.3358682969889
 30
0.0
 10
93.02791338820136
 20
-119.1389810900069
 30
0.0
 10
92.90836857486319
 20
-118.9284857558582
 30
0.0
 10
92.88631996375759
 20
-118.6723429065298
 30
0.0
 10
92.88631996375759
 20
-118.4961262724593
 30
0.0
 10
92.88631996375759
 20
-118.3405802113003
 30
0.0
 10
92.90595700802352
 20
-118.0684176679655
 30
0.0
 10
93.02791338820136
 20
-117.8532714549117
 30
0.0
 10
93.1526258447674
 20
-117.633646617727
 30
0.0
 10
93.33831649142238
 20
-117.6084974206847
 30
0.0
 10
93.48748912593369
 20
-117.6084974206847
 30
0.0
 10
93.67076820574898
 20
-117.6084974206847
 30
0.0
 10
93.83682180813803
 20
-117.6565565027039
 30
0.0
 10
93.94706486366601
 20
-117.8532714549117
 30
0.0
 10
94.06178654332483
 20
-118.061527476995
 30
0.0
 10
94.08865828810978
 20
-118.3085408232875
 30
0.0
 10
94.08865828810978
 20
-118.4961262724593
 30
0.0
 10
94.08865828810978
 20
-118.6814724095657
 30
0.0
 10
94.06419811016451
 20
-118.9308973226978
 30
0.0
 10
93.94706486366601
 20
-119.1389810900069
 30
0.0
  0
SPLINE
  5
C4
330
AA
100
AcDbEntity
  8
_U+30EC_U+30A4_U+30E4_U+30FC 1
370
     0
100
AcDbSpline
210
0.0
220
0.0
230
1.0
 70
    11
 71
     3
 72
    17
 73
    13
 74
     0
 42
0.0000000001
 43
0.0000000001
 12
1.0
 22
0.0
 32
0.0
 13
1.0
 23
0.0
 33
0.0
 40
0.0
 40
0.0
 40
0.0
 40
0.0
 40
1.0
 40
1.0
 40
1.0
 40
2.0
 40
2.0
 40
2.0
 40
3.0
 40
3.0
 40
3.0
 40
4.0
 40
4.0
 40
4.0
 40
4.0
 10
93.48748912593369
 20
-117.816753442768
 30
0.0
 10
93.19913463381828
 20
-117.816753442768
 30
0.0
 10
93.14539114424838
 20
-118.1233669409553
 30
0.0
 10
93.14539114424838
 20
-118.4961262724593
 30
0.0
 10
93.14539114424838
 20
-118.8416693496299
 30
0.0
 10
93.1870767996199
 20
-119.1756713569248
 30
0.0
 10
93.48748912593369
 20
-119.1756713569248
 30
0.0
 10
93.77343205120943
 20
-119.1756713569248
 30
0.0
 10
93.82958710761899
 20
-118.871297170803
 30
0.0
 10
93.82958710761899
 20
-118.4961262724593
 30
0.0
 10
93.82958710761899
 20
-118.150755450063
 30
0.0
 10
93.7854898854078
 20
-117.816753442768
 30
0.0
 10
93.48748912593369
 20
-117.816753442768
 30
0.0
  0
HATCH
  5
C5
330
AA
100
AcDbEntity
  8
_U+30EC_U+30A4_U+30E4_U+30FC 1
 62
   179
420
  2234388
100
AcDbHatch
 10
0.0
 20
0.0
 30
0.0
210
0.0
220
0.0
230
1.0
  2
SOLID
 70
     1
 71
     0
 91
        2
 92
        1
 93
        1
 72
     4
 94
        3
 73
     0
 74
     1
 95
       29
 96
       25
 40
0.0
 40
0.0
 40
0.0
 40
0.0
 40
1.0
 40
1.0
 40
1.0
 40
2.0
 40
2.0
 40
2.0
 40
3.0
 40
3.0
 40
3.0
 40
4.0
 40
4.0
 40
4.0
 40
5.0
 40
5.0
 40
5.0
 40
6.0
 40
6.0
 40
6.0
 40
7.0
 40
7.0
 40
7.0
 40
8.0
 40
8.0
 40
8.0
 40
8.0
 10
93.94706486366601
 20
-119.1389810900069
 10
93.82235240709997
 20
-119.3654961181621
 10
93.62184784985843
 20
-119.3861666910736
 10
93.48748912593369
 20
-119.3861666910736
 10
93.30179847927872
 20
-119.3861666910736
 10
93.13815644372936
 20
-119.3358682969889
 10
93.02791338820136
 20
-119.1389810900069
 10
92.90836857486319
 20
-118.9284857558582
 10
92.88631996375759
 20
-118.6723429065298
 10
92.88631996375759
 20
-118.4961262724593
 10
92.88631996375759
 20
-118.3405802113003
 10
92.90595700802352
 20
-118.0684176679655
 10
93.02791338820136
 20
-117.8532714549117
 10
93.1526258447674
 20
-117.633646617727
 10
93.33831649142238
 20
-117.6084974206847
 10
93.48748912593369
 20
-117.6084974206847
 10
93.67076820574898
 20
-117.6084974206847
 10
93.83682180813803
 20
-117.6565565027039
 10
93.94706486366601
 20
-117.8532714549117
 10
94.06178654332483
 20
-118.061527476995
 10
94.08865828810978
 20
-118.3085408232875
 10
94.08865828810978
 20
-118.4961262724593
 10
94.08865828810978
 20
-118.6814724095657
 10
94.06419811016451
 20
-118.9308973226978
 10
93.94706486366601
 20
-119.1389810900069
 97
        0
 97
        0
 92
        1
 93
        1
 72
     4
 94
        3
 73
     0
 74
     1
 95
       17
 96
       13
 40
0.0
 40
0.0
 40
0.0
 40
0.0
 40
1.0
 40
1.0
 40
1.0
 40
2.0
 40
2.0
 40
2.0
 40
3.0
 40
3.0
 40
3.0
 40
4.0
 40
4.0
 40
4.0
 40
4.0
 10
93.48748912593369
 20
-117.816753442768
 10
93.19913463381828
 20
-117.816753442768
 10
93.14539114424838
 20
-118.1233669409553
 10
93.14539114424838
 20
-118.4961262724593
 10
93.14539114424838
 20
-118.8416693496299
 10
93.1870767996199
 20
-119.1756713569248
 10
93.48748912593369
 20
-119.1756713569248
 10
93.77343205120943
 20
-119.1756713569248
 10
93.82958710761899
 20
-118.871297170803
 10
93.82958710761899
 20
-118.4961262724593
 10
93.82958710761899
 20
-118.150755450063
 10
93.7854898854078
 20
-117.816753442768
 10
93.48748912593369
 20
-117.816753442768
 97
        0
 97
        0
 75
     2
 76
     1
 98
        0
  0
ENDBLK
  5
AD
330
AA
100
AcDbEntity
  8
0
100
AcDbBlockEnd
  0
BLOCK
  5
D4
330
D2
100
AcDbEntity
  8
0
100
AcDbBlockBegin
  2
block 3
 70
     0
 10
0.0
 20
0.0
 30
0.0
  3
block 3
  1

  0
SPLINE
  5
D6
330
D2
100
AcDbEntity
  8
_U+30EC_U+30A4_U+30E4_U+30FC 1
370
     0
100
AcDbSpline
210
0.0
220
0.0
230
1.0
 70
    11
 71
     3
 72
    44
 73
    40
 74
     0
 42
0.0000000001
 43
0.0000000001
 12
1.0
 22
0.0
 32
0.0
 13
1.0
 23
0.0
 33
0.0
 40
0.0
 40
0.0
 40
0.0
 40
0.0
 40
1.0
 40
1.0
 40
1.0
 40
2.0
 40
2.0
 40
2.0
 40
3.0
 40
3.0
 40
3.0
 40
4.0
 40
4.0
 40
4.0
 40
5.0
 40
5.0
 40
5.0
 40
6.0
 40
6.0
 40
6.0
 40
7.0
 40
7.0
 40
7.0
 40
8.0
 40
8.0
 40
8.0
 40
9.0
 40
9.0
 40
9.0
 40
10.0
 40
10.0
 40
10.0
 40
11.0
 40
11.0
 40
11.0
 40
12.0
 40
12.0
 40
12.0
 40
13.0
 40
13.0
 40
13.0
 40
13.0
 10
92.23657495523948
 20
-137.3721489456917
 30
0.0
 10
91.98508298481623
 20
-137.5437147008571
 30
0.0
 10
91.87725149612791
 20
-137.6239854256634
 30
0.0
 10
91.82109643971835
 20
-137.7793592320482
 30
0.0
 10
91.82109643971835
 20
-137.7793592320482
 30
0.0
 10
92.72061087091707
 20
-137.7793592320482
 30
0.0
 10
92.72061087091707
 20
-137.7793592320482
 30
0.0
 10
92.72061087091707
 20
-137.7793592320482
 30
0.0
 10
92.72061087091707
 20
-138.0012233812983
 30
0.0
 10
92.72061087091707
 20
-138.0012233812983
 30
0.0
 10
92.72061087091707
 20
-138.0012233812983
 30
0.0
 10
91.53274194760293
 20
-138.0012233812983
 30
0.0
 10
91.53274194760293
 20
-138.0012233812983
 30
0.0
 10
91.5696044692951
 20
-137.6143391583047
 30
0.0
 10
91.6453965699706
 20
-137.5299343189161
 30
0.0
 10
92.09015839711635
 20
-137.2071288719482
 30
0.0
 10
92.38574758975079
 20
-136.9921549136686
 30
0.0
 10
92.46153969042629
 20
-136.9191188893813
 30
0.0
 10
92.46153969042629
 20
-136.7702907644185
 30
0.0
 10
92.46153969042629
 20
-136.6421332123672
 30
0.0
 10
92.37851288923177
 20
-136.5005397879235
 30
0.0
 10
92.15113658720527
 20
-136.5005397879235
 30
0.0
 10
91.85037975134297
 20
-136.5005397879235
 30
0.0
 10
91.84073348398427
 20
-136.749620191507
 30
0.0
 10
91.83591035030491
 20
-136.8757106862672
 30
0.0
 10
91.83591035030491
 20
-136.8757106862672
 30
0.0
 10
91.57683916981412
 20
-136.8757106862672
 30
0.0
 10
91.57683916981412
 20
-136.8757106862672
 30
0.0
 10
91.58648543717283
 20
-136.7385958859543
 30
0.0
 10
91.59888778091972
 20
-136.6173285248734
 30
0.0
 10
91.69156084947295
 20
-136.4891709728222
 30
0.0
 10
91.81868487287866
 20
-136.315193650817
 30
0.0
 10
92.03365883115826
 20
-136.2783311291249
 30
0.0
 10
92.16836206463152
 20
-136.2783311291249
 30
0.0
 10
92.48841143521123
 20
-136.2783311291249
 30
0.0
 10
92.72784557143609
 20
-136.4774576481723
 30
0.0
 10
92.72784557143609
 20
-136.7727023312582
 30
0.0
 10
92.72784557143609
 20
-137.0197156775506
 30
0.0
 10
92.59348684751136
 20
-137.1272026566904
 30
0.0
 10
92.23657495523948
 20
-137.3721489456917
 30
0.0
  0
HATCH
  5
D7
330
D2
100
AcDbEntity
  8
_U+30EC_U+30A4_U+30E4_U+30FC 1
 62
   179
420
  2234388
100
AcDbHatch
 10
0.0
 20
0.0
 30
0.0
210
0.0
220
0.0
230
1.0
  2
SOLID
 70
     1
 71
     0
 91
        1
 92
        1
 93
        1
 72
     4
 94
        3
 73
     0
 74
     1
 95
       44
 96
       40
 40
0.0
 40
0.0
 40
0.0
 40
0.0
 40
1.0
 40
1.0
 40
1.0
 40
2.0
 40
2.0
 40
2.0
 40
3.0
 40
3.0
 40
3.0
 40
4.0
 40
4.0
 40
4.0
 40
5.0
 40
5.0
 40
5.0
 40
6.0
 40
6.0
 40
6.0
 40
7.0
 40
7.0
 40
7.0
 40
8.0
 40
8.0
 40
8.0
 40
9.0
 40
9.0
 40
9.0
 40
10.0
 40
10.0
 40
10.0
 40
11.0
 40
11.0
 40
11.0
 40
12.0
 40
12.0
 40
12.0
 40
13.0
 40
13.0
 40
13.0
 40
13.0
 10
92.23657495523948
 20
-137.3721489456917
 10
91.98508298481623
 20
-137.5437147008571
 10
91.87725149612791
 20
-137.6239854256634
 10
91.82109643971835
 20
-137.7793592320482
 10
91.82109643971835
 20
-137.7793592320482
 10
92.72061087091707
 20
-137.7793592320482
 10
92.72061087091707
 20
-137.7793592320482
 10
92.72061087091707
 20
-137.7793592320482
 10
92.72061087091707
 20
-138.0012233812983
 10
92.72061087091707
 20
-138.0012233812983
 10
92.72061087091707
 20
-138.0012233812983
 10
91.53274194760293
 20
-138.0012233812983
 10
91.53274194760293
 20
-138.0012233812983
 10
91.5696044692951
 20
-137.6143391583047
 10
91.6453965699706
 20
-137.5299343189161
 10
92.09015839711635
 20
-137.2071288719482
 10
92.38574758975079
 20
-136.9921549136686
 10
92.46153969042629
 20
-136.9191188893813
 10
92.46153969042629
 20
-136.7702907644185
 10
92.46153969042629
 20
-136.6421332123672
 10
92.37851288923177
 20
-136.5005397879235
 10
92.15113658720527
 20
-136.5005397879235
 10
91.85037975134297
 20
-136.5005397879235
 10
91.84073348398427
 20
-136.749620191507
 10
91.83591035030491
 20
-136.8757106862672
 10
91.83591035030491
 20
-136.8757106862672
 10
91.57683916981412
 20
-136.8757106862672
 10
91.57683916981412
 20
-136.8757106862672
 10
91.58648543717283
 20
-136.7385958859543
 10
91.59888778091972
 20
-136.6173285248734
 10
91.69156084947295
 20
-136.4891709728222
 10
91.81868487287866
 20
-136.315193650817
 10
92.03365883115826
 20
-136.2783311291249
 10
92.16836206463152
 20
-136.2783311291249
 10
92.48841143521123
 20
-136.2783311291249
 10
92.72784557143609
 20
-136.4774576481723
 10
92.72784557143609
 20
-136.7727023312582
 10
92.72784557143609
 20
-137.0197156775506
 10
92.59348684751136
 20
-137.1272026566904
 10
92.23657495523948
 20
-137.3721489456917
 97
        0
 97
        0
 75
     2
 76
     1
 98
        0
  0
SPLINE
  5
D8
330
D2
100
AcDbEntity
  8
_U+30EC_U+30A4_U+30E4_U+30FC 1
370
     0
100
AcDbSpline
210
0.0
220
0.0
230
1.0
 70
    11
 71
     3
 72
    29
 73
    25
 74
     0
 42
0.0000000001
 43
0.0000000001
 12
1.0
 22
0.0
 32
0.0
 13
1.0
 23
0.0
 33
0.0
 40
0.0
 40
0.0
 40
0.0
 40
0.0
 40
1.0
 40
1.0
 40
1.0
 40
2.0
 40
2.0
 40
2.0
 40
3.0
 40
3.0
 40
3.0
 40
4.0
 40
4.0
 40
4.0
 40
5.0
 40
5.0
 40
5.0
 40
6.0
 40
6.0
 40
6.0
 40
7.0
 40
7.0
 40
7.0
 40
8.0
 40
8.0
 40
8.0
 40
8.0
 10
93.94706486366601
 20
-137.8089870532214
 30
0.0
 10
93.82235240709997
 20
-138.0353298266023
 30
0.0
 10
93.62184784985843
 20
-138.0560003995138
 30
0.0
 10
93.48748912593369
 20
-138.0560003995138
 30
0.0
 10
93.30179847927872
 20
-138.0560003995138
 30
0.0
 10
93.13815644372936
 20
-138.0057020054291
 30
0.0
 10
93.02791338820136
 20
-137.8089870532214
 30
0.0
 10
92.90836857486319
 20
-137.5984917190726
 30
0.0
 10
92.88631996375759
 20
-137.34217661497
 30
0.0
 10
92.88631996375759
 20
-137.1661322356738
 30
0.0
 10
92.88631996375759
 20
-137.010758429289
 30
0.0
 10
92.90595700802352
 20
-136.7385958859543
 30
0.0
 10
93.02791338820136
 20
-136.5232774181261
 30
0.0
 10
93.1526258447674
 20
-136.3038248357157
 30
0.0
 10
93.33831649142238
 20
-136.2783311291249
 30
0.0
 10
93.48748912593369
 20
-136.2783311291249
 30
0.0
 10
93.67076820574898
 20
-136.2783311291249
 30
0.0
 10
93.83682180813803
 20
-136.3265624659184
 30
0.0
 10
93.94706486366601
 20
-136.5232774181261
 30
0.0
 10
94.06178654332483
 20
-136.7317056949838
 30
0.0
 10
94.08865828810978
 20
-136.9783745317276
 30
0.0
 10
94.08865828810978
 20
-137.1661322356738
 30
0.0
 10
94.08865828810978
 20
-137.3514783727802
 30
0.0
 10
94.06419811016451
 20
-137.6009032859123
 30
0.0
 10
93.94706486366601
 20
-137.8089870532214
 30
0.0
  0
SPLINE
  5
D9
330
D2
100
AcDbEntity
  8
_U+30EC_U+30A4_U+30E4_U+30FC 1
370
     0
100
AcDbSpline
210
0.0
220
0.0
230
1.0
 70
    11
 71
     3
 72
    17
 73
    13
 74
     0
 42
0.0000000001
 43
0.0000000001
 12
1.0
 22
0.0
 32
0.0
 13
1.0
 23
0.0
 33
0.0
 40
0.0
 40
0.0
 40
0.0
 40
0.0
 40
1.0
 40
1.0
 40
1.0
 40
2.0
 40
2.0
 40
2.0
 40
3.0
 40
3.0
 40
3.0
 40
4.0
 40
4.0
 40
4.0
 40
4.0
 10
93.48748912593369
 20
-136.4867594059825
 30
0.0
 10
93.19913463381828
 20
-136.4867594059825
 30
0.0
 10
93.14539114424838
 20
-136.7933729041697
 30
0.0
 10
93.14539114424838
 20
-137.1661322356738
 30
0.0
 10
93.14539114424838
 20
-137.5116753128443
 30
0.0
 10
93.1870767996199
 20
-137.8458495749136
 30
0.0
 10
93.48748912593369
 20
-137.8458495749136
 30
0.0
 10
93.77343205120943
 20
-137.8458495749136
 30
0.0
 10
93.82958710761899
 20
-137.5413031340175
 30
0.0
 10
93.82958710761899
 20
-137.1661322356738
 30
0.0
 10
93.82958710761899
 20
-136.8205891585032
 30
0.0
 10
93.7854898854078
 20
-136.4867594059825
 30
0.0
 10
93.48748912593369
 20
-136.4867594059825
 30
0.0
  0
HATCH
  5
DA
330
D2
100
AcDbEntity
  8
_U+30EC_U+30A4_U+30E4_U+30FC 1
 62
   179
420
  2234388
100
AcDbHatch
 10
0.0
 20
0.0
 30
0.0
210
0.0
220
0.0
230
1.0
  2
SOLID
 70
     1
 71
     0
 91
        2
 92
        1
 93
        1
 72
     4
 94
        3
 73
     0
 74
     1
 95
       29
 96
       25
 40
0.0
 40
0.0
 40
0.0
 40
0.0
 40
1.0
 40
1.0
 40
1.0
 40
2.0
 40
2.0
 40
2.0
 40
3.0
 40
3.0
 40
3.0
 40
4.0
 40
4.0
 40
4.0
 40
5.0
 40
5.0
 40
5.0
 40
6.0
 40
6.0
 40
6.0
 40
7.0
 40
7.0
 40
7.0
 40
8.0
 40
8.0
 40
8.0
 40
8.0
 10
93.94706486366601
 20
-137.8089870532214
 10
93.82235240709997
 20
-138.0353298266023
 10
93.62184784985843
 20
-138.0560003995138
 10
93.48748912593369
 20
-138.0560003995138
 10
93.30179847927872
 20
-138.0560003995138
 10
93.13815644372936
 20
-138.0057020054291
 10
93.02791338820136
 20
-137.8089870532214
 10
92.90836857486319
 20
-137.5984917190726
 10
92.88631996375759
 20
-137.34217661497
 10
92.88631996375759
 20
-137.1661322356738
 10
92.88631996375759
 20
-137.010758429289
 10
92.90595700802352
 20
-136.7385958859543
 10
93.02791338820136
 20
-136.5232774181261
 10
93.1526258447674
 20
-136.3038248357157
 10
93.33831649142238
 20
-136.2783311291249
 10
93.48748912593369
 20
-136.2783311291249
 10
93.67076820574898
 20
-136.2783311291249
 10
93.83682180813803
 20
-136.3265624659184
 10
93.94706486366601
 20
-136.5232774181261
 10
94.06178654332483
 20
-136.7317056949838
 10
94.08865828810978
 20
-136.9783745317276
 10
94.08865828810978
 20
-137.1661322356738
 10
94.08865828810978
 20
-137.3514783727802
 10
94.06419811016451
 20
-137.6009032859123
 10
93.94706486366601
 20
-137.8089870532214
 97
        0
 97
        0
 92
        1
 93
        1
 72
     4
 94
        3
 73
     0
 74
     1
 95
       17
 96
       13
 40
0.0
 40
0.0
 40
0.0
 40
0.0
 40
1.0
 40
1.0
 40
1.0
 40
2.0
 40
2.0
 40
2.0
 40
3.0
 40
3.0
 40
3.0
 40
4.0
 40
4.0
 40
4.0
 40
4.0
 10
93.48748912593369
 20
-136.4867594059825
 10
93.19913463381828
 20
-136.4867594059825
 10
93.14539114424838
 20
-136.7933729041697
 10
93.14539114424838
 20
-137.1661322356738
 10
93.14539114424838
 20
-137.5116753128443
 10
93.1870767996199
 20
-137.8458495749136
 10
93.48748912593369
 20
-137.8458495749136
 10
93.77343205120943
 20
-137.8458495749136
 10
93.82958710761899
 20
-137.5413031340175
 10
93.82958710761899
 20
-137.1661322356738
 10
93.82958710761899
 20
-136.8205891585032
 10
93.7854898854078
 20
-136.4867594059825
 10
93.48748912593369
 20
-136.4867594059825
 97
        0
 97
        0
 75
     2
 76
     1
 98
        0
  0
ENDBLK
  5
D5
330
D2
100
AcDbEntity
  8
0
100
AcDbBlockEnd
  0
BLOCK
  5
E9
330
E7
100
AcDbEntity
  8
0
100
AcDbBlockBegin
  2
block 4
 70
     0
 10
0.0
 20
0.0
 30
0.0
  3
block 4
  1

  0
SPLINE
  5
EB
330
E7
100
AcDbEntity
  8
_U+30EC_U+30A4_U+30E4_U+30FC 1
370
     0
100
AcDbSpline
210
0.0
220
0.0
230
1.0
 70
    11
 71
     3
 72
    26
 73
    22
 74
     0
 42
0.0000000001
 43
0.0000000001
 12
1.0
 22
0.0
 32
0.0
 13
1.0
 23
0.0
 33
0.0
 40
0.0
 40
0.0
 40
0.0
 40
0.0
 40
1.0
 40
1.0
 40
1.0
 40
2.0
 40
2.0
 40
2.0
 40
3.0
 40
3.0
 40
3.0
 40
4.0
 40
4.0
 40
4.0
 40
5.0
 40
5.0
 40
5.0
 40
6.0
 40
6.0
 40
6.0
 40
7.0
 40
7.0
 40
7.0
 40
7.0
 10
75.02866751596505
 20
-130.1453721462831
 30
0.0
 10
75.02866751596505
 20
-130.1453721462831
 30
0.0
 10
73.83459742077747
 20
-130.1453721462831
 30
0.0
 10
73.83459742077747
 20
-130.1453721462831
 30
0.0
 10
73.83459742077747
 20
-130.1453721462831
 30
0.0
 10
73.83459742077747
 20
-130.5263997069517
 30
0.0
 10
73.83459742077747
 20
-130.5263997069517
 30
0.0
 10
73.83459742077747
 20
-130.5263997069517
 30
0.0
 10
73.67440048071335
 20
-130.5263997069517
 30
0.0
 10
73.67440048071335
 20
-130.5263997069517
 30
0.0
 10
73.65820853193267
 20
-130.1426160698949
 30
0.0
 10
73.4821641526364
 20
-130.088872580325
 30
0.0
 10
73.35848522471593
 20
-130.054766135021
 30
0.0
 10
73.35848522471593
 20
-130.054766135021
 30
0.0
 10
73.35848522471593
 20
-129.8863009657923
 30
0.0
 10
73.35848522471593
 20
-129.8863009657923
 30
0.0
 10
73.35848522471593
 20
-129.8863009657923
 30
0.0
 10
75.02866751596505
 20
-129.8863009657923
 30
0.0
 10
75.02866751596505
 20
-129.8863009657923
 30
0.0
 10
75.02866751596505
 20
-129.8863009657923
 30
0.0
 10
75.02866751596505
 20
-130.1453721462831
 30
0.0
 10
75.02866751596505
 20
-130.1453721462831
 30
0.0
  0
HATCH
  5
EC
330
E7
100
AcDbEntity
  8
_U+30EC_U+30A4_U+30E4_U+30FC 1
 62
   179
420
  2234388
100
AcDbHatch
 10
0.0
 20
0.0
 30
0.0
210
0.0
220
0.0
230
1.0
  2
SOLID
 70
     1
 71
     0
 91
        1
 92
        1
 93
        1
 72
     4
 94
        3
 73
     0
 74
     1
 95
       26
 96
       22
 40
0.0
 40
0.0
 40
0.0
 40
0.0
 40
1.0
 40
1.0
 40
1.0
 40
2.0
 40
2.0
 40
2.0
 40
3.0
 40
3.0
 40
3.0
 40
4.0
 40
4.0
 40
4.0
 40
5.0
 40
5.0
 40
5.0
 40
6.0
 40
6.0
 40
6.0
 40
7.0
 40
7.0
 40
7.0
 40
7.0
 10
75.02866751596505
 20
-130.1453721462831
 10
75.02866751596505
 20
-130.1453721462831
 10
73.83459742077747
 20
-130.1453721462831
 10
73.83459742077747
 20
-130.1453721462831
 10
73.83459742077747
 20
-130.1453721462831
 10
73.83459742077747
 20
-130.5263997069517
 10
73.83459742077747
 20
-130.5263997069517
 10
73.83459742077747
 20
-130.5263997069517
 10
73.67440048071335
 20
-130.5263997069517
 10
73.67440048071335
 20
-130.5263997069517
 10
73.65820853193267
 20
-130.1426160698949
 10
73.4821641526364
 20
-130.088872580325
 10
73.35848522471593
 20
-130.054766135021
 10
73.35848522471593
 20
-130.054766135021
 10
73.35848522471593
 20
-129.8863009657923
 10
73.35848522471593
 20
-129.8863009657923
 10
73.35848522471593
 20
-129.8863009657923
 10
75.02866751596505
 20
-129.8863009657923
 10
75.02866751596505
 20
-129.8863009657923
 10
75.02866751596505
 20
-129.8863009657923
 10
75.02866751596505
 20
-130.1453721462831
 10
75.02866751596505
 20
-130.1453721462831
 97
        0
 97
        0
 75
     2
 76
     1
 98
        0
  0
SPLINE
  5
ED
330
E7
100
AcDbEntity
  8
_U+30EC_U+30A4_U+30E4_U+30FC 1
370
     0
100
AcDbSpline
210
0.0
220
0.0
230
1.0
 70
    11
 71
     3
 72
    29
 73
    25
 74
     0
 42
0.0000000001
 43
0.0000000001
 12
1.0
 22
0.0
 32
0.0
 13
1.0
 23
0.0
 33
0.0
 40
0.0
 40
0.0
 40
0.0
 40
0.0
 40
1.0
 40
1.0
 40
1.0
 40
2.0
 40
2.0
 40
2.0
 40
3.0
 40
3.0
 40
3.0
 40
4.0
 40
4.0
 40
4.0
 40
5.0
 40
5.0
 40
5.0
 40
6.0
 40
6.0
 40
6.0
 40
7.0
 40
7.0
 40
7.0
 40
8.0
 40
8.0
 40
8.0
 40
8.0
 10
75.08344453418053
 20
-128.7306436852652
 30
0.0
 10
75.08344453418053
 20
-129.0384629668723
 30
0.0
 10
74.93496091876627
 20
-129.3316405926671
 30
0.0
 10
74.55737845358288
 20
-129.3316405926671
 30
0.0
 10
74.28073728611731
 20
-129.3316405926671
 30
0.0
 10
74.17772893110835
 20
-129.1679985571177
 30
0.0
 10
74.11123858824303
 20
-129.0456976673914
 30
0.0
 10
74.04715981221737
 20
-129.1900471682233
 30
0.0
 10
73.92382539384543
 20
-129.2778971030972
 30
0.0
 10
73.74984807184032
 20
-129.2778971030972
 30
0.0
 10
73.45253633146326
 20
-129.2778971030972
 30
0.0
 10
73.30611977334014
 20
-129.0484537437796
 30
0.0
 10
73.30611977334014
 20
-128.7306436852652
 30
0.0
 10
73.30611977334014
 20
-128.4031873593923
 30
0.0
 10
73.4614935797249
 20
-128.1832180126591
 30
0.0
 10
73.74984807184032
 20
-128.1832180126591
 30
0.0
 10
73.92382539384543
 20
-128.1832180126591
 30
0.0
 10
74.04715981221737
 20
-128.2736517691469
 30
0.0
 10
74.11123858824303
 20
-128.4178290152046
 30
0.0
 10
74.1660156064585
 20
-128.3151651697441
 30
0.0
 10
74.26902396146747
 20
-128.1318860899288
 30
0.0
 10
74.55289982945206
 20
-128.1318860899288
 30
0.0
 10
74.9576985489689
 20
-128.1318860899288
 30
0.0
 10
75.08344453418053
 20
-128.4545192821225
 30
0.0
 10
75.08344453418053
 20
-128.7306436852652
 30
0.0
  0
SPLINE
  5
EE
330
E7
100
AcDbEntity
  8
_U+30EC_U+30A4_U+30E4_U+30FC 1
370
     0
100
AcDbSpline
210
0.0
220
0.0
230
1.0
 70
    11
 71
     3
 72
    17
 73
    13
 74
     0
 42
0.0000000001
 43
0.0000000001
 12
1.0
 22
0.0
 32
0.0
 13
1.0
 23
0.0
 33
0.0
 40
0.0
 40
0.0
 40
0.0
 40
0.0
 40
1.0
 40
1.0
 40
1.0
 40
2.0
 40
2.0
 40
2.0
 40
3.0
 40
3.0
 40
3.0
 40
4.0
 40
4.0
 40
4.0
 40
4.0
 10
73.51420354064923
 20
-128.7306436852652
 30
0.0
 10
73.51420354064923
 20
-128.9213297203738
 30
0.0
 10
73.6172118956582
 20
-129.0188259226064
 30
0.0
 10
73.76362845378132
 20
-129.0188259226064
 30
0.0
 10
73.89626462996344
 20
-129.0188259226064
 30
0.0
 10
74.02442218201473
 20
-128.9361436309604
 30
0.0
 10
74.02442218201473
 20
-128.7306436852652
 30
0.0
 10
74.02442218201473
 20
-128.5253159943444
 30
0.0
 10
73.89626462996344
 20
-128.4422891931499
 30
0.0
 10
73.76362845378132
 20
-128.4422891931499
 30
0.0
 10
73.6172118956582
 20
-128.4422891931499
 30
0.0
 10
73.51420354064923
 20
-128.5423692169963
 30
0.0
 10
73.51420354064923
 20
-128.7306436852652
 30
0.0
  0
SPLINE
  5
EF
330
E7
100
AcDbEntity
  8
_U+30EC_U+30A4_U+30E4_U+30FC 1
370
     0
100
AcDbSpline
210
0.0
220
0.0
230
1.0
 70
    11
 71
     3
 72
    17
 73
    13
 74
     0
 42
0.0000000001
 43
0.0000000001
 12
1.0
 22
0.0
 32
0.0
 13
1.0
 23
0.0
 33
0.0
 40
0.0
 40
0.0
 40
0.0
 40
0.0
 40
1.0
 40
1.0
 40
1.0
 40
2.0
 40
2.0
 40
2.0
 40
3.0
 40
3.0
 40
3.0
 40
4.0
 40
4.0
 40
4.0
 40
4.0
 10
74.228027325193
 20
-128.7306436852652
 30
0.0
 10
74.228027325193
 20
-128.8968695424286
 30
0.0
 10
74.32173392239179
 20
-129.0725694121763
 30
0.0
 10
74.54153101435074
 20
-129.0725694121763
 30
0.0
 10
74.76339516360082
 20
-129.0725694121763
 30
0.0
 10
74.87294920003177
 20
-128.9261528540532
 30
0.0
 10
74.87294920003177
 20
-128.7306436852652
 30
0.0
 10
74.87294920003177
 20
-128.5154974722114
 30
0.0
 10
74.74031302384965
 20
-128.38854570358
 30
0.0
 10
74.5480766957727
 20
-128.38854570358
 30
0.0
 10
74.3079535404508
 20
-128.38854570358
 30
0.0
 10
74.228027325193
 20
-128.5766479170746
 30
0.0
 10
74.228027325193
 20
-128.7306436852652
 30
0.0
  0
HATCH
  5
F0
330
E7
100
AcDbEntity
  8
_U+30EC_U+30A4_U+30E4_U+30FC 1
 62
   179
420
  2234388
100
AcDbHatch
 10
0.0
 20
0.0
 30
0.0
210
0.0
220
0.0
230
1.0
  2
SOLID
 70
     1
 71
     0
 91
        3
 92
        1
 93
        1
 72
     4
 94
        3
 73
     0
 74
     1
 95
       29
 96
       25
 40
0.0
 40
0.0
 40
0.0
 40
0.0
 40
1.0
 40
1.0
 40
1.0
 40
2.0
 40
2.0
 40
2.0
 40
3.0
 40
3.0
 40
3.0
 40
4.0
 40
4.0
 40
4.0
 40
5.0
 40
5.0
 40
5.0
 40
6.0
 40
6.0
 40
6.0
 40
7.0
 40
7.0
 40
7.0
 40
8.0
 40
8.0
 40
8.0
 40
8.0
 10
75.08344453418053
 20
-128.7306436852652
 10
75.08344453418053
 20
-129.0384629668723
 10
74.93496091876627
 20
-129.3316405926671
 10
74.55737845358288
 20
-129.3316405926671
 10
74.28073728611731
 20
-129.3316405926671
 10
74.17772893110835
 20
-129.1679985571177
 10
74.11123858824303
 20
-129.0456976673914
 10
74.04715981221737
 20
-129.1900471682233
 10
73.92382539384543
 20
-129.2778971030972
 10
73.74984807184032
 20
-129.2778971030972
 10
73.45253633146326
 20
-129.2778971030972
 10
73.30611977334014
 20
-129.0484537437796
 10
73.30611977334014
 20
-128.7306436852652
 10
73.30611977334014
 20
-128.4031873593923
 10
73.4614935797249
 20
-128.1832180126591
 10
73.74984807184032
 20
-128.1832180126591
 10
73.92382539384543
 20
-128.1832180126591
 10
74.04715981221737
 20
-128.2736517691469
 10
74.11123858824303
 20
-128.4178290152046
 10
74.1660156064585
 20
-128.3151651697441
 10
74.26902396146747
 20
-128.1318860899288
 10
74.55289982945206
 20
-128.1318860899288
 10
74.9576985489689
 20
-128.1318860899288
 10
75.08344453418053
 20
-128.4545192821225
 10
75.08344453418053
 20
-128.7306436852652
 97
        0
 97
        0
 92
        1
 93
        1
 72
     4
 94
        3
 73
     0
 74
     1
 95
       17
 96
       13
 40
0.0
 40
0.0
 40
0.0
 40
0.0
 40
1.0
 40
1.0
 40
1.0
 40
2.0
 40
2.0
 40
2.0
 40
3.0
 40
3.0
 40
3.0
 40
4.0
 40
4.0
 40
4.0
 40
4.0
 10
73.51420354064923
 20
-128.7306436852652
 10
73.51420354064923
 20
-128.9213297203738
 10
73.6172118956582
 20
-129.0188259226064
 10
73.76362845378132
 20
-129.0188259226064
 10
73.89626462996344
 20
-129.0188259226064
 10
74.02442218201473
 20
-128.9361436309604
 10
74.02442218201473
 20
-128.7306436852652
 10
74.02442218201473
 20
-128.5253159943444
 10
73.89626462996344
 20
-128.4422891931499
 10
73.76362845378132
 20
-128.4422891931499
 10
73.6172118956582
 20
-128.4422891931499
 10
73.51420354064923
 20
-128.5423692169963
 10
73.51420354064923
 20
-128.7306436852652
 97
        0
 97
        0
 92
        1
 93
        1
 72
     4
 94
        3
 73
     0
 74
     1
 95
       17
 96
       13
 40
0.0
 40
0.0
 40
0.0
 40
0.0
 40
1.0
 40
1.0
 40
1.0
 40
2.0
 40
2.0
 40
2.0
 40
3.0
 40
3.0
 40
3.0
 40
4.0
 40
4.0
 40
4.0
 40
4.0
 10
74.228027325193
 20
-128.7306436852652
 10
74.228027325193
 20
-128.8968695424286
 10
74.32173392239179
 20
-129.0725694121763
 10
74.54153101435074
 20
-129.0725694121763
 10
74.76339516360082
 20
-129.0725694121763
 10
74.87294920003177
 20
-128.9261528540532
 10
74.87294920003177
 20
-128.7306436852652
 10
74.87294920003177
 20
-128.5154974722114
 10
74.74031302384965
 20
-128.38854570358
 10
74.5480766957727
 20
-128.38854570358
 10
74.3079535404508
 20
-128.38854570358
 10
74.228027325193
 20
-128.5766479170746
 10
74.228027325193
 20
-128.7306436852652
 97
        0
 97
        0
 75
     2
 76
     1
 98
        0
  0
ENDBLK
  5
EA
330
E7
100
AcDbEntity
  8
0
100
AcDbBlockEnd
  0
BLOCK
  5
FF
330
FD
100
AcDbEntity
  8
0
100
AcDbBlockBegin
  2
block 5
 70
     0
 10
0.0
 20
0.0
 30
0.0
  3
block 5
  1

  0
SPLINE
  5
101
330
FD
100
AcDbEntity
  8
_U+30EC_U+30A4_U+30E4_U+30FC 1
370
     0
100
AcDbSpline
210
0.0
220
0.0
230
1.0
 70
    11
 71
     3
 72
    62
 73
    58
 74
     0
 42
0.0000000001
 43
0.0000000001
 12
1.0
 22
0.0
 32
0.0
 13
1.0
 23
0.0
 33
0.0
 40
0.0
 40
0.0
 40
0.0
 40
0.0
 40
1.0
 40
1.0
 40
1.0
 40
2.0
 40
2.0
 40
2.0
 40
3.0
 40
3.0
 40
3.0
 40
4.0
 40
4.0
 40
4.0
 40
5.0
 40
5.0
 40
5.0
 40
6.0
 40
6.0
 40
6.0
 40
7.0
 40
7.0
 40
7.0
 40
8.0
 40
8.0
 40
8.0
 40
9.0
 40
9.0
 40
9.0
 40
10.0
 40
10.0
 40
10.0
 40
11.0
 40
11.0
 40
11.0
 40
12.0
 40
12.0
 40
12.0
 40
13.0
 40
13.0
 40
13.0
 40
14.0
 40
14.0
 40
14.0
 40
15.0
 40
15.0
 40
15.0
 40
16.0
 40
16.0
 40
16.0
 40
17.0
 40
17.0
 40
17.0
 40
18.0
 40
18.0
 40
18.0
 40
19.0
 40
19.0
 40
19.0
 40
19.0
 10
108.6834608018222
 20
-138.7470865538549
 30
0.0
 10
108.6834608018222
 20
-138.8494058897668
 30
0.0
 10
108.6607231716196
 20
-139.0840168923123
 30
0.0
 10
108.459529595281
 20
-139.2183756162371
 30
0.0
 10
108.3382622342002
 20
-139.2979573219463
 30
0.0
 10
108.2307752550604
 20
-139.3024359460772
 30
0.0
 10
108.1391357151527
 20
-139.3072590797565
 30
0.0
 10
108.1391357151527
 20
-139.3072590797565
 30
0.0
 10
108.1391357151527
 20
-139.0702365103713
 30
0.0
 10
108.1391357151527
 20
-139.0702365103713
 30
0.0
 10
108.2190619304105
 20
-139.0681694530802
 30
0.0
 10
108.4729654676734
 20
-139.0564561284303
 30
0.0
 10
108.4729654676734
 20
-138.7515651779857
 30
0.0
 10
108.4729654676734
 20
-138.60342607212
 30
0.0
 10
108.3975178765465
 20
-138.4397840365706
 30
0.0
 10
108.150504530254
 20
-138.4397840365706
 30
0.0
 10
108.0247585450424
 20
-138.4397840365706
 30
0.0
 10
107.9720485841181
 20
-138.4804361632966
 30
0.0
 10
107.9379421388141
 20
-138.5148871181491
 30
0.0
 10
107.8576714140078
 20
-138.5941243143098
 30
0.0
 10
107.8438910320668
 20
-138.7195257899729
 30
0.0
 10
107.8438910320668
 20
-138.7787814323192
 30
0.0
 10
107.8438910320668
 20
-138.7994520052307
 30
0.0
 10
107.8463025989065
 20
-138.8380370746655
 30
0.0
 10
107.8507812230373
 20
-138.8676648958387
 30
0.0
 10
107.8507812230373
 20
-138.8676648958387
 30
0.0
 10
107.6402858888885
 20
-138.8676648958387
 30
0.0
 10
107.6402858888885
 20
-138.8676648958387
 30
0.0
 10
107.6471760798591
 20
-138.8266682595642
 30
0.0
 10
107.6495876466987
 20
-138.7808484896103
 30
0.0
 10
107.6495876466987
 20
-138.7743028081884
 30
0.0
 10
107.6495876466987
 20
-138.7036783507407
 30
0.0
 10
107.6265055069476
 20
-138.4893934115582
 30
0.0
 10
107.3705349123935
 20
-138.4893934115582
 30
0.0
 10
107.1782985843165
 20
-138.4893934115582
 30
0.0
 10
107.1186984324217
 20
-138.6306423264535
 30
0.0
 10
107.1186984324217
 20
-138.7491536111461
 30
0.0
 10
107.1186984324217
 20
-139.0337184982277
 30
0.0
 10
107.3705349123935
 20
-139.0430202560379
 30
0.0
 10
107.4480495608116
 20
-139.0474988801687
 30
0.0
 10
107.4480495608116
 20
-139.0474988801687
 30
0.0
 10
107.4480495608116
 20
-139.2659179339335
 30
0.0
 10
107.4480495608116
 20
-139.2659179339335
 30
0.0
 10
107.3133463273383
 20
-139.2569606856719
 30
0.0
 10
106.9061360409818
 20
-139.2273328644987
 30
0.0
 10
106.9061360409818
 20
-138.735373229205
 30
0.0
 10
106.9061360409818
 20
-138.4942165452375
 30
0.0
 10
107.0432508412947
 20
-138.2344563456497
 30
0.0
 10
107.363644721423
 20
-138.2344563456497
 30
0.0
 10
107.5648382977616
 20
-138.2344563456497
 30
0.0
 10
107.6540662708295
 20
-138.3371201911102
 30
0.0
 10
107.7205566136949
 20
-138.4439181511529
 30
0.0
 10
107.750184434868
 20
-138.3781168273846
 30
0.0
 10
107.8370008410963
 20
-138.1820908942739
 30
0.0
 10
108.136724148313
 20
-138.1820908942739
 30
0.0
 10
108.5029377983951
 20
-138.1820908942739
 30
0.0
 10
108.6834608018222
 20
-138.4487412848323
 30
0.0
 10
108.6834608018222
 20
-138.7470865538549
 30
0.0
  0
HATCH
  5
102
330
FD
100
AcDbEntity
  8
_U+30EC_U+30A4_U+30E4_U+30FC 1
 62
   179
420
  2234388
100
AcDbHatch
 10
0.0
 20
0.0
 30
0.0
210
0.0
220
0.0
230
1.0
  2
SOLID
 70
     1
 71
     0
 91
        1
 92
        1
 93
        1
 72
     4
 94
        3
 73
     0
 74
     1
 95
       62
 96
       58
 40
0.0
 40
0.0
 40
0.0
 40
0.0
 40
1.0
 40
1.0
 40
1.0
 40
2.0
 40
2.0
 40
2.0
 40
3.0
 40
3.0
 40
3.0
 40
4.0
 40
4.0
 40
4.0
 40
5.0
 40
5.0
 40
5.0
 40
6.0
 40
6.0
 40
6.0
 40
7.0
 40
7.0
 40
7.0
 40
8.0
 40
8.0
 40
8.0
 40
9.0
 40
9.0
 40
9.0
 40
10.0
 40
10.0
 40
10.0
 40
11.0
 40
11.0
 40
11.0
 40
12.0
 40
12.0
 40
12.0
 40
13.0
 40
13.0
 40
13.0
 40
14.0
 40
14.0
 40
14.0
 40
15.0
 40
15.0
 40
15.0
 40
16.0
 40
16.0
 40
16.0
 40
17.0
 40
17.0
 40
17.0
 40
18.0
 40
18.0
 40
18.0
 40
19.0
 40
19.0
 40
19.0
 40
19.0
 10
108.6834608018222
 20
-138.7470865538549
 10
108.6834608018222
 20
-138.8494058897668
 10
108.6607231716196
 20
-139.0840168923123
 10
108.459529595281
 20
-139.2183756162371
 10
108.3382622342002
 20
-139.2979573219463
 10
108.2307752550604
 20
-139.3024359460772
 10
108.1391357151527
 20
-139.3072590797565
 10
108.1391357151527
 20
-139.3072590797565
 10
108.1391357151527
 20
-139.0702365103713
 10
108.1391357151527
 20
-139.0702365103713
 10
108.2190619304105
 20
-139.0681694530802
 10
108.4729654676734
 20
-139.0564561284303
 10
108.4729654676734
 20
-138.7515651779857
 10
108.4729654676734
 20
-138.60342607212
 10
108.3975178765465
 20
-138.4397840365706
 10
108.150504530254
 20
-138.4397840365706
 10
108.0247585450424
 20
-138.4397840365706
 10
107.9720485841181
 20
-138.4804361632966
 10
107.9379421388141
 20
-138.5148871181491
 10
107.8576714140078
 20
-138.5941243143098
 10
107.8438910320668
 20
-138.7195257899729
 10
107.8438910320668
 20
-138.7787814323192
 10
107.8438910320668
 20
-138.7994520052307
 10
107.8463025989065
 20
-138.8380370746655
 10
107.8507812230373
 20
-138.8676648958387
 10
107.8507812230373
 20
-138.8676648958387
 10
107.6402858888885
 20
-138.8676648958387
 10
107.6402858888885
 20
-138.8676648958387
 10
107.6471760798591
 20
-138.8266682595642
 10
107.6495876466987
 20
-138.7808484896103
 10
107.6495876466987
 20
-138.7743028081884
 10
107.6495876466987
 20
-138.7036783507407
 10
107.6265055069476
 20
-138.4893934115582
 10
107.3705349123935
 20
-138.4893934115582
 10
107.1782985843165
 20
-138.4893934115582
 10
107.1186984324217
 20
-138.6306423264535
 10
107.1186984324217
 20
-138.7491536111461
 10
107.1186984324217
 20
-139.0337184982277
 10
107.3705349123935
 20
-139.0430202560379
 10
107.4480495608116
 20
-139.0474988801687
 10
107.4480495608116
 20
-139.0474988801687
 10
107.4480495608116
 20
-139.2659179339335
 10
107.4480495608116
 20
-139.2659179339335
 10
107.3133463273383
 20
-139.2569606856719
 10
106.9061360409818
 20
-139.2273328644987
 10
106.9061360409818
 20
-138.735373229205
 10
106.9061360409818
 20
-138.4942165452375
 10
107.0432508412947
 20
-138.2344563456497
 10
107.363644721423
 20
-138.2344563456497
 10
107.5648382977616
 20
-138.2344563456497
 10
107.6540662708295
 20
-138.3371201911102
 10
107.7205566136949
 20
-138.4439181511529
 10
107.750184434868
 20
-138.3781168273846
 10
107.8370008410963
 20
-138.1820908942739
 10
108.136724148313
 20
-138.1820908942739
 10
108.5029377983951
 20
-138.1820908942739
 10
108.6834608018222
 20
-138.4487412848323
 10
108.6834608018222
 20
-138.7470865538549
 97
        0
 97
        0
 75
     2
 76
     1
 98
        0
  0
POLYLINE
  5
103
330
FD
100
AcDbEntity
  8
_U+30EC_U+30A4_U+30E4_U+30FC 1
370
     0
100
AcDb2dPolyline
 66
     1
 10
0.0
 20
0.0
 30
0.0
  0
VERTEX
  5
104
330
103
100
AcDbEntity
  8
_U+30EC_U+30A4_U+30E4_U+30FC 1
370
     0
100
AcDbVertex
100
AcDb2dVertex
 10
108.6286837836067
 20
-137.9454128344373
 30
0.0
  0
VERTEX
  5
105
330
103
100
AcDbEntity
  8
_U+30EC_U+30A4_U+30E4_U+30FC 1
370
     0
100
AcDbVertex
100
AcDb2dVertex
 10
108.356521240272
 20
-137.9454128344373
 30
0.0
  0
VERTEX
  5
106
330
103
100
AcDbEntity
  8
_U+30EC_U+30A4_U+30E4_U+30FC 1
370
     0
100
AcDbVertex
100
AcDb2dVertex
 10
108.356521240272
 20
-137.6742838197481
 30
0.0
  0
VERTEX
  5
107
330
103
100
AcDbEntity
  8
_U+30EC_U+30A4_U+30E4_U+30FC 1
370
     0
100
AcDbVertex
100
AcDb2dVertex
 10
108.6286837836067
 20
-137.6742838197481
 30
0.0
  0
VERTEX
  5
108
330
103
100
AcDbEntity
  8
_U+30EC_U+30A4_U+30E4_U+30FC 1
370
     0
100
AcDbVertex
100
AcDb2dVertex
 10
108.6286837836067
 20
-137.9454128344373
 30
0.0
  0
SEQEND
  5
109
330
103
100
AcDbEntity
  8
_U+30EC_U+30A4_U+30E4_U+30FC 1
370
     0
  0
HATCH
  5
10A
330
FD
100
AcDbEntity
  8
_U+30EC_U+30A4_U+30E4_U+30FC 1
 62
   179
420
  2234388
100
AcDbHatch
 10
0.0
 20
0.0
 30
0.0
210
0.0
220
0.0
230
1.0
  2
SOLID
 70
     1
 71
     0
 91
        1
 92
        1
 93
        4
 72
     1
 10
108.6286837836067
 20
-137.9454128344373
 11
108.356521240272
 21
-137.9454128344373
 72
     1
 10
108.356521240272
 20
-137.9454128344373
 11
108.356521240272
 21
-137.6742838197481
 72
     1
 10
108.356521240272
 20
-137.6742838197481
 11
108.6286837836067
 21
-137.6742838197481
 72
     1
 10
108.6286837836067
 20
-137.6742838197481
 11
108.6286837836067
 21
-137.9454128344373
 97
        0
 75
     2
 76
     1
 98
        0
  0
SPLINE
  5
10B
330
FD
100
AcDbEntity
  8
_U+30EC_U+30A4_U+30E4_U+30FC 1
370
     0
100
AcDbSpline
210
0.0
220
0.0
230
1.0
 70
    11
 71
     3
 72
    62
 73
    58
 74
     0
 42
0.0000000001
 43
0.0000000001
 12
1.0
 22
0.0
 32
0.0
 13
1.0
 23
0.0
 33
0.0
 40
0.0
 40
0.0
 40
0.0
 40
0.0
 40
1.0
 40
1.0
 40
1.0
 40
2.0
 40
2.0
 40
2.0
 40
3.0
 40
3.0
 40
3.0
 40
4.0
 40
4.0
 40
4.0
 40
5.0
 40
5.0
 40
5.0
 40
6.0
 40
6.0
 40
6.0
 40
7.0
 40
7.0
 40
7.0
 40
8.0
 40
8.0
 40
8.0
 40
9.0
 40
9.0
 40
9.0
 40
10.0
 40
10.0
 40
10.0
 40
11.0
 40
11.0
 40
11.0
 40
12.0
 40
12.0
 40
12.0
 40
13.0
 40
13.0
 40
13.0
 40
14.0
 40
14.0
 40
14.0
 40
15.0
 40
15.0
 40
15.0
 40
16.0
 40
16.0
 40
16.0
 40
17.0
 40
17.0
 40
17.0
 40
18.0
 40
18.0
 40
18.0
 40
19.0
 40
19.0
 40
19.0
 40
19.0
 10
108.6834608018222
 20
-136.8908691064023
 30
0.0
 10
108.6834608018222
 20
-136.9935329518627
 30
0.0
 10
108.6607231716196
 20
-137.2277994448597
 30
0.0
 10
108.459529595281
 20
-137.3621581687845
 30
0.0
 10
108.3382622342002
 20
-137.4420843840423
 30
0.0
 10
108.2307752550604
 20
-137.4465630081731
 30
0.0
 10
108.1391357151527
 20
-137.4510416323039
 30
0.0
 10
108.1391357151527
 20
-137.4510416323039
 30
0.0
 10
108.1391357151527
 20
-137.2143635724672
 30
0.0
 10
108.1391357151527
 20
-137.2143635724672
 30
0.0
 10
108.2190619304105
 20
-137.2119520056276
 30
0.0
 10
108.4729654676734
 20
-137.2009277000748
 30
0.0
 10
108.4729654676734
 20
-136.8956922400816
 30
0.0
 10
108.4729654676734
 20
-136.7475531342159
 30
0.0
 10
108.3975178765465
 20
-136.583566589118
 30
0.0
 10
108.150504530254
 20
-136.583566589118
 30
0.0
 10
108.0247585450424
 20
-136.583566589118
 30
0.0
 10
107.9720485841181
 20
-136.6245632253925
 30
0.0
 10
107.9379421388141
 20
-136.6586696706964
 30
0.0
 10
107.8576714140078
 20
-136.7385958859543
 30
0.0
 10
107.8438910320668
 20
-136.8636528520688
 30
0.0
 10
107.8438910320668
 20
-136.9229084944151
 30
0.0
 10
107.8438910320668
 20
-136.9432345577781
 30
0.0
 10
107.8463025989065
 20
-136.9821641367614
 30
0.0
 10
107.8507812230373
 20
-137.0117919579345
 30
0.0
 10
107.8507812230373
 20
-137.0117919579345
 30
0.0
 10
107.6402858888885
 20
-137.0117919579345
 30
0.0
 10
107.6402858888885
 20
-137.0117919579345
 30
0.0
 10
107.6471760798591
 20
-136.9707953216601
 30
0.0
 10
107.6495876466987
 20
-136.9253200612548
 30
0.0
 10
107.6495876466987
 20
-136.9184298702843
 30
0.0
 10
107.6495876466987
 20
-136.8478054128367
 30
0.0
 10
107.6265055069476
 20
-136.6338649832026
 30
0.0
 10
107.3705349123935
 20
-136.6338649832026
 30
0.0
 10
107.1782985843165
 20
-136.6338649832026
 30
0.0
 10
107.1186984324217
 20
-136.7751138980979
 30
0.0
 10
107.1186984324217
 20
-136.893280673242
 30
0.0
 10
107.1186984324217
 20
-137.1781900698721
 30
0.0
 10
107.3705349123935
 20
-137.1871473181338
 30
0.0
 10
107.4480495608116
 20
-137.1916259422646
 30
0.0
 10
107.4480495608116
 20
-137.1916259422646
 30
0.0
 10
107.4480495608116
 20
-137.410389505578
 30
0.0
 10
107.4480495608116
 20
-137.410389505578
 30
0.0
 10
107.3133463273383
 20
-137.4010877477678
 30
0.0
 10
106.9061360409818
 20
-137.3714599265946
 30
0.0
 10
106.9061360409818
 20
-136.8798448008495
 30
0.0
 10
106.9061360409818
 20
-136.6383436073335
 30
0.0
 10
107.0432508412947
 20
-136.3789279172942
 30
0.0
 10
107.363644721423
 20
-136.3789279172942
 30
0.0
 10
107.5648382977616
 20
-136.3789279172942
 30
0.0
 10
107.6540662708295
 20
-136.4812472532061
 30
0.0
 10
107.7205566136949
 20
-136.5883897227974
 30
0.0
 10
107.750184434868
 20
-136.5222438894806
 30
0.0
 10
107.8370008410963
 20
-136.3265624659184
 30
0.0
 10
108.136724148313
 20
-136.3265624659184
 30
0.0
 10
108.5029377983951
 20
-136.3265624659184
 30
0.0
 10
108.6834608018222
 20
-136.5925238373796
 30
0.0
 10
108.6834608018222
 20
-136.8908691064023
 30
0.0
  0
HATCH
  5
10C
330
FD
100
AcDbEntity
  8
_U+30EC_U+30A4_U+30E4_U+30FC 1
 62
   179
420
  2234388
100
AcDbHatch
 10
0.0
 20
0.0
 30
0.0
210
0.0
220
0.0
230
1.0
  2
SOLID
 70
     1
 71
     0
 91
        1
 92
        1
 93
        1
 72
     4
 94
        3
 73
     0
 74
     1
 95
       62
 96
       58
 40
0.0
 40
0.0
 40
0.0
 40
0.0
 40
1.0
 40
1.0
 40
1.0
 40
2.0
 40
2.0
 40
2.0
 40
3.0
 40
3.0
 40
3.0
 40
4.0
 40
4.0
 40
4.0
 40
5.0
 40
5.0
 40
5.0
 40
6.0
 40
6.0
 40
6.0
 40
7.0
 40
7.0
 40
7.0
 40
8.0
 40
8.0
 40
8.0
 40
9.0
 40
9.0
 40
9.0
 40
10.0
 40
10.0
 40
10.0
 40
11.0
 40
11.0
 40
11.0
 40
12.0
 40
12.0
 40
12.0
 40
13.0
 40
13.0
 40
13.0
 40
14.0
 40
14.0
 40
14.0
 40
15.0
 40
15.0
 40
15.0
 40
16.0
 40
16.0
 40
16.0
 40
17.0
 40
17.0
 40
17.0
 40
18.0
 40
18.0
 40
18.0
 40
19.0
 40
19.0
 40
19.0
 40
19.0
 10
108.6834608018222
 20
-136.8908691064023
 10
108.6834608018222
 20
-136.9935329518627
 10
108.6607231716196
 20
-137.2277994448597
 10
108.459529595281
 20
-137.3621581687845
 10
108.3382622342002
 20
-137.4420843840423
 10
108.2307752550604
 20
-137.4465630081731
 10
108.1391357151527
 20
-137.4510416323039
 10
108.1391357151527
 20
-137.4510416323039
 10
108.1391357151527
 20
-137.2143635724672
 10
108.1391357151527
 20
-137.2143635724672
 10
108.2190619304105
 20
-137.2119520056276
 10
108.4729654676734
 20
-137.2009277000748
 10
108.4729654676734
 20
-136.8956922400816
 10
108.4729654676734
 20
-136.7475531342159
 10
108.3975178765465
 20
-136.583566589118
 10
108.150504530254
 20
-136.583566589118
 10
108.0247585450424
 20
-136.583566589118
 10
107.9720485841181
 20
-136.6245632253925
 10
107.9379421388141
 20
-136.6586696706964
 10
107.8576714140078
 20
-136.7385958859543
 10
107.8438910320668
 20
-136.8636528520688
 10
107.8438910320668
 20
-136.9229084944151
 10
107.8438910320668
 20
-136.9432345577781
 10
107.8463025989065
 20
-136.9821641367614
 10
107.8507812230373
 20
-137.0117919579345
 10
107.8507812230373
 20
-137.0117919579345
 10
107.6402858888885
 20
-137.0117919579345
 10
107.6402858888885
 20
-137.0117919579345
 10
107.6471760798591
 20
-136.9707953216601
 10
107.6495876466987
 20
-136.9253200612548
 10
107.6495876466987
 20
-136.9184298702843
 10
107.6495876466987
 20
-136.8478054128367
 10
107.6265055069476
 20
-136.6338649832026
 10
107.3705349123935
 20
-136.6338649832026
 10
107.1782985843165
 20
-136.6338649832026
 10
107.1186984324217
 20
-136.7751138980979
 10
107.1186984324217
 20
-136.893280673242
 10
107.1186984324217
 20
-137.1781900698721
 10
107.3705349123935
 20
-137.1871473181338
 10
107.4480495608116
 20
-137.1916259422646
 10
107.4480495608116
 20
-137.1916259422646
 10
107.4480495608116
 20
-137.410389505578
 10
107.4480495608116
 20
-137.410389505578
 10
107.3133463273383
 20
-137.4010877477678
 10
106.9061360409818
 20
-137.3714599265946
 10
106.9061360409818
 20
-136.8798448008495
 10
106.9061360409818
 20
-136.6383436073335
 10
107.0432508412947
 20
-136.3789279172942
 10
107.363644721423
 20
-136.3789279172942
 10
107.5648382977616
 20
-136.3789279172942
 10
107.6540662708295
 20
-136.4812472532061
 10
107.7205566136949
 20
-136.5883897227974
 10
107.750184434868
 20
-136.5222438894806
 10
107.8370008410963
 20
-136.3265624659184
 10
108.136724148313
 20
-136.3265624659184
 10
108.5029377983951
 20
-136.3265624659184
 10
108.6834608018222
 20
-136.5925238373796
 10
108.6834608018222
 20
-136.8908691064023
 97
        0
 97
        0
 75
     2
 76
     1
 98
        0
  0
ENDBLK
  5
100
330
FD
100
AcDbEntity
  8
0
100
AcDbBlockEnd
  0
BLOCK
  5
11B
330
119
100
AcDbEntity
  8
0
100
AcDbBlockBegin
  2
block 6
 70
     0
 10
0.0
 20
0.0
 30
0.0
  3
block 6
  1

  0
SPLINE
  5
11D
330
119
100
AcDbEntity
  8
_U+30EC_U+30A4_U+30E4_U+30FC 1
370
     0
100
AcDbSpline
210
0.0
220
0.0
230
1.0
 70
    11
 71
     3
 72
    26
 73
    22
 74
     0
 42
0.0000000001
 43
0.0000000001
 12
1.0
 22
0.0
 32
0.0
 13
1.0
 23
0.0
 33
0.0
 40
0.0
 40
0.0
 40
0.0
 40
0.0
 40
1.0
 40
1.0
 40
1.0
 40
2.0
 40
2.0
 40
2.0
 40
3.0
 40
3.0
 40
3.0
 40
4.0
 40
4.0
 40
4.0
 40
5.0
 40
5.0
 40
5.0
 40
6.0
 40
6.0
 40
6.0
 40
7.0
 40
7.0
 40
7.0
 40
7.0
 10
108.6286837836067
 20
-130.2349446288996
 30
0.0
 10
108.6286837836067
 20
-130.2349446288996
 30
0.0
 10
107.4346136884191
 20
-130.2349446288996
 30
0.0
 10
107.4346136884191
 20
-130.2349446288996
 30
0.0
 10
107.4346136884191
 20
-130.2349446288996
 30
0.0
 10
107.4346136884191
 20
-130.578420648779
 30
0.0
 10
107.4346136884191
 20
-130.578420648779
 30
0.0
 10
107.4346136884191
 20
-130.578420648779
 30
0.0
 10
107.274416748355
 20
-130.578420648779
 30
0.0
 10
107.274416748355
 20
-130.578420648779
 30
0.0
 10
107.2582247995743
 20
-130.2328775716084
 30
0.0
 10
107.0821804202781
 20
-130.1843017252664
 30
0.0
 10
106.9585014923576
 20
-130.1536403754477
 30
0.0
 10
106.9585014923576
 20
-130.1536403754477
 30
0.0
 10
106.9585014923576
 20
-130.0013671549997
 30
0.0
 10
106.9585014923576
 20
-130.0013671549997
 30
0.0
 10
106.9585014923576
 20
-130.0013671549997
 30
0.0
 10
108.6286837836067
 20
-130.0013671549997
 30
0.0
 10
108.6286837836067
 20
-130.0013671549997
 30
0.0
 10
108.6286837836067
 20
-130.0013671549997
 30
0.0
 10
108.6286837836067
 20
-130.2349446288996
 30
0.0
 10
108.6286837836067
 20
-130.2349446288996
 30
0.0
  0
HATCH
  5
11E
330
119
100
AcDbEntity
  8
_U+30EC_U+30A4_U+30E4_U+30FC 1
 62
   179
420
  2234388
100
AcDbHatch
 10
0.0
 20
0.0
 30
0.0
210
0.0
220
0.0
230
1.0
  2
SOLID
 70
     1
 71
     0
 91
        1
 92
        1
 93
        1
 72
     4
 94
        3
 73
     0
 74
     1
 95
       26
 96
       22
 40
0.0
 40
0.0
 40
0.0
 40
0.0
 40
1.0
 40
1.0
 40
1.0
 40
2.0
 40
2.0
 40
2.0
 40
3.0
 40
3.0
 40
3.0
 40
4.0
 40
4.0
 40
4.0
 40
5.0
 40
5.0
 40
5.0
 40
6.0
 40
6.0
 40
6.0
 40
7.0
 40
7.0
 40
7.0
 40
7.0
 10
108.6286837836067
 20
-130.2349446288996
 10
108.6286837836067
 20
-130.2349446288996
 10
107.4346136884191
 20
-130.2349446288996
 10
107.4346136884191
 20
-130.2349446288996
 10
107.4346136884191
 20
-130.2349446288996
 10
107.4346136884191
 20
-130.578420648779
 10
107.4346136884191
 20
-130.578420648779
 10
107.4346136884191
 20
-130.578420648779
 10
107.274416748355
 20
-130.578420648779
 10
107.274416748355
 20
-130.578420648779
 10
107.2582247995743
 20
-130.2328775716084
 10
107.0821804202781
 20
-130.1843017252664
 10
106.9585014923576
 20
-130.1536403754477
 10
106.9585014923576
 20
-130.1536403754477
 10
106.9585014923576
 20
-130.0013671549997
 10
106.9585014923576
 20
-130.0013671549997
 10
106.9585014923576
 20
-130.0013671549997
 10
108.6286837836067
 20
-130.0013671549997
 10
108.6286837836067
 20
-130.0013671549997
 10
108.6286837836067
 20
-130.0013671549997
 10
108.6286837836067
 20
-130.2349446288996
 10
108.6286837836067
 20
-130.2349446288996
 97
        0
 97
        0
 75
     2
 76
     1
 98
        0
  0
SPLINE
  5
11F
330
119
100
AcDbEntity
  8
_U+30EC_U+30A4_U+30E4_U+30FC 1
370
     0
100
AcDbSpline
210
0.0
220
0.0
230
1.0
 70
    11
 71
     3
 72
    62
 73
    58
 74
     0
 42
0.0000000001
 43
0.0000000001
 12
1.0
 22
0.0
 32
0.0
 13
1.0
 23
0.0
 33
0.0
 40
0.0
 40
0.0
 40
0.0
 40
0.0
 40
1.0
 40
1.0
 40
1.0
 40
2.0
 40
2.0
 40
2.0
 40
3.0
 40
3.0
 40
3.0
 40
4.0
 40
4.0
 40
4.0
 40
5.0
 40
5.0
 40
5.0
 40
6.0
 40
6.0
 40
6.0
 40
7.0
 40
7.0
 40
7.0
 40
8.0
 40
8.0
 40
8.0
 40
9.0
 40
9.0
 40
9.0
 40
10.0
 40
10.0
 40
10.0
 40
11.0
 40
11.0
 40
11.0
 40
12.0
 40
12.0
 40
12.0
 40
13.0
 40
13.0
 40
13.0
 40
14.0
 40
14.0
 40
14.0
 40
15.0
 40
15.0
 40
15.0
 40
16.0
 40
16.0
 40
16.0
 40
17.0
 40
17.0
 40
17.0
 40
18.0
 40
18.0
 40
18.0
 40
19.0
 40
19.0
 40
19.0
 40
19.0
 10
108.6834608018222
 20
-128.9692165476188
 30
0.0
 10
108.6834608018222
 20
-129.0680907880455
 30
0.0
 10
108.6607231716196
 20
-129.2951225805234
 30
0.0
 10
108.459529595281
 20
-129.4246581707689
 30
0.0
 10
108.3382622342002
 20
-129.5018283096384
 30
0.0
 10
108.2307752550604
 20
-129.5063069337693
 30
0.0
 10
108.1391357151527
 20
-129.5107855579001
 30
0.0
 10
108.1391357151527
 20
-129.5107855579001
 30
0.0
 10
108.1391357151527
 20
-129.281686708131
 30
0.0
 10
108.1391357151527
 20
-129.281686708131
 30
0.0
 10
108.2190619304105
 20
-129.2792751412913
 30
0.0
 10
108.4729654676734
 20
-129.2682508357385
 30
0.0
 10
108.4729654676734
 20
-128.9733506622011
 30
0.0
 10
108.4729654676734
 20
-128.8303791995633
 30
0.0
 10
108.3975178765465
 20
-128.6717325524675
 30
0.0
 10
108.150504530254
 20
-128.6717325524675
 30
0.0
 10
108.0247585450424
 20
-128.6717325524675
 30
0.0
 10
107.9720485841181
 20
-128.7115234053221
 30
0.0
 10
107.9379421388141
 20
-128.7444240672063
 30
0.0
 10
107.8576714140078
 20
-128.8217664608501
 30
0.0
 10
107.8438910320668
 20
-128.9426893123824
 30
0.0
 10
107.8438910320668
 20
-128.9998778974375
 30
0.0
 10
107.8438910320668
 20
-129.0195149417034
 30
0.0
 10
107.8463025989065
 20
-129.0570664824927
 30
0.0
 10
107.8507812230373
 20
-129.0856607750202
 30
0.0
 10
107.8507812230373
 20
-129.0856607750202
 30
0.0
 10
107.6402858888885
 20
-129.0856607750202
 30
0.0
 10
107.6402858888885
 20
-129.0856607750202
 30
0.0
 10
107.6471760798591
 20
-129.0460421769399
 30
0.0
 10
107.6495876466987
 20
-129.0022894642772
 30
0.0
 10
107.6495876466987
 20
-128.9953992733067
 30
0.0
 10
107.6495876466987
 20
-128.9271863826988
 30
0.0
 10
107.6265055069476
 20
-128.7203083988095
 30
0.0
 10
107.3705349123935
 20
-128.7203083988095
 30
0.0
 10
107.1782985843165
 20
-128.7203083988095
 30
0.0
 10
107.1186984324217
 20
-128.8569064347997
 30
0.0
 10
107.1186984324217
 20
-128.97128360491
 30
0.0
 10
107.1186984324217
 20
-129.2462022246329
 30
0.0
 10
107.3705349123935
 20
-129.2551594728945
 30
0.0
 10
107.4480495608116
 20
-129.2596380970254
 30
0.0
 10
107.4480495608116
 20
-129.2596380970254
 30
0.0
 10
107.4480495608116
 20
-129.4708224502712
 30
0.0
 10
107.4480495608116
 20
-129.4708224502712
 30
0.0
 10
107.3133463273383
 20
-129.4622097115581
 30
0.0
 10
106.9061360409818
 20
-129.4336154190305
 30
0.0
 10
106.9061360409818
 20
-128.958192242066
 30
0.0
 10
106.9061360409818
 20
-128.7246147681661
 30
0.0
 10
107.0432508412947
 20
-128.4736395620656
 30
0.0
 10
107.363644721423
 20
-128.4736395620656
 30
0.0
 10
107.5648382977616
 20
-128.4736395620656
 30
0.0
 10
107.6540662708295
 20
-128.5726860572666
 30
0.0
 10
107.7205566136949
 20
-128.6762111765983
 30
0.0
 10
107.750184434868
 20
-128.6123046553469
 30
0.0
 10
107.8370008410963
 20
-128.4229966584325
 30
0.0
 10
108.136724148313
 20
-128.4229966584325
 30
0.0
 10
108.5029377983951
 20
-128.4229966584325
 30
0.0
 10
108.6834608018222
 20
-128.6806898007291
 30
0.0
 10
108.6834608018222
 20
-128.9692165476188
 30
0.0
  0
HATCH
  5
120
330
119
100
AcDbEntity
  8
_U+30EC_U+30A4_U+30E4_U+30FC 1
 62
   179
420
  2234388
100
AcDbHatch
 10
0.0
 20
0.0
 30
0.0
210
0.0
220
0.0
230
1.0
  2
SOLID
 70
     1
 71
     0
 91
        1
 92
        1
 93
        1
 72
     4
 94
        3
 73
     0
 74
     1
 95
       62
 96
       58
 40
0.0
 40
0.0
 40
0.0
 40
0.0
 40
1.0
 40
1.0
 40
1.0
 40
2.0
 40
2.0
 40
2.0
 40
3.0
 40
3.0
 40
3.0
 40
4.0
 40
4.0
 40
4.0
 40
5.0
 40
5.0
 40
5.0
 40
6.0
 40
6.0
 40
6.0
 40
7.0
 40
7.0
 40
7.0
 40
8.0
 40
8.0
 40
8.0
 40
9.0
 40
9.0
 40
9.0
 40
10.0
 40
10.0
 40
10.0
 40
11.0
 40
11.0
 40
11.0
 40
12.0
 40
12.0
 40
12.0
 40
13.0
 40
13.0
 40
13.0
 40
14.0
 40
14.0
 40
14.0
 40
15.0
 40
15.0
 40
15.0
 40
16.0
 40
16.0
 40
16.0
 40
17.0
 40
17.0
 40
17.0
 40
18.0
 40
18.0
 40
18.0
 40
19.0
 40
19.0
 40
19.0
 40
19.0
 10
108.6834608018222
 20
-128.9692165476188
 10
108.6834608018222
 20
-129.0680907880455
 10
108.6607231716196
 20
-129.2951225805234
 10
108.459529595281
 20
-129.4246581707689
 10
108.3382622342002
 20
-129.5018283096384
 10
108.2307752550604
 20
-129.5063069337693
 10
108.1391357151527
 20
-129.5107855579001
 10
108.1391357151527
 20
-129.5107855579001
 10
108.1391357151527
 20
-129.281686708131
 10
108.1391357151527
 20
-129.281686708131
 10
108.2190619304105
 20
-129.2792751412913
 10
108.4729654676734
 20
-129.2682508357385
 10
108.4729654676734
 20
-128.9733506622011
 10
108.4729654676734
 20
-128.8303791995633
 10
108.3975178765465
 20
-128.6717325524675
 10
108.150504530254
 20
-128.6717325524675
 10
108.0247585450424
 20
-128.6717325524675
 10
107.9720485841181
 20
-128.7115234053221
 10
107.9379421388141
 20
-128.7444240672063
 10
107.8576714140078
 20
-128.8217664608501
 10
107.8438910320668
 20
-128.9426893123824
 10
107.8438910320668
 20
-128.9998778974375
 10
107.8438910320668
 20
-129.0195149417034
 10
107.8463025989065
 20
-129.0570664824927
 10
107.8507812230373
 20
-129.0856607750202
 10
107.8507812230373
 20
-129.0856607750202
 10
107.6402858888885
 20
-129.0856607750202
 10
107.6402858888885
 20
-129.0856607750202
 10
107.6471760798591
 20
-129.0460421769399
 10
107.6495876466987
 20
-129.0022894642772
 10
107.6495876466987
 20
-128.9953992733067
 10
107.6495876466987
 20
-128.9271863826988
 10
107.6265055069476
 20
-128.7203083988095
 10
107.3705349123935
 20
-128.7203083988095
 10
107.1782985843165
 20
-128.7203083988095
 10
107.1186984324217
 20
-128.8569064347997
 10
107.1186984324217
 20
-128.97128360491
 10
107.1186984324217
 20
-129.2462022246329
 10
107.3705349123935
 20
-129.2551594728945
 10
107.4480495608116
 20
-129.2596380970254
 10
107.4480495608116
 20
-129.2596380970254
 10
107.4480495608116
 20
-129.4708224502712
 10
107.4480495608116
 20
-129.4708224502712
 10
107.3133463273383
 20
-129.4622097115581
 10
106.9061360409818
 20
-129.4336154190305
 10
106.9061360409818
 20
-128.958192242066
 10
106.9061360409818
 20
-128.7246147681661
 10
107.0432508412947
 20
-128.4736395620656
 10
107.363644721423
 20
-128.4736395620656
 10
107.5648382977616
 20
-128.4736395620656
 10
107.6540662708295
 20
-128.5726860572666
 10
107.7205566136949
 20
-128.6762111765983
 10
107.750184434868
 20
-128.6123046553469
 10
107.8370008410963
 20
-128.4229966584325
 10
108.136724148313
 20
-128.4229966584325
 10
108.5029377983951
 20
-128.4229966584325
 10
108.6834608018222
 20
-128.6806898007291
 10
108.6834608018222
 20
-128.9692165476188
 97
        0
 97
        0
 75
     2
 76
     1
 98
        0
  0
POLYLINE
  5
121
330
119
100
AcDbEntity
  8
_U+30EC_U+30A4_U+30E4_U+30FC 1
370
     0
100
AcDb2dPolyline
 66
     1
 10
0.0
 20
0.0
 30
0.0
  0
VERTEX
  5
122
330
121
100
AcDbEntity
  8
_U+30EC_U+30A4_U+30E4_U+30FC 1
370
     0
100
AcDbVertex
100
AcDb2dVertex
 10
108.6286837836067
 20
-128.1940700634376
 30
0.0
  0
VERTEX
  5
123
330
121
100
AcDbEntity
  8
_U+30EC_U+30A4_U+30E4_U+30FC 1
370
     0
100
AcDbVertex
100
AcDb2dVertex
 10
108.356521240272
 20
-128.1940700634376
 30
0.0
  0
VERTEX
  5
124
330
121
100
AcDbEntity
  8
_U+30EC_U+30A4_U+30E4_U+30FC 1
370
     0
100
AcDbVertex
100
AcDb2dVertex
 10
108.356521240272
 20
-127.9320705517843
 30
0.0
  0
VERTEX
  5
125
330
121
100
AcDbEntity
  8
_U+30EC_U+30A4_U+30E4_U+30FC 1
370
     0
100
AcDbVertex
100
AcDb2dVertex
 10
108.6286837836067
 20
-127.9320705517843
 30
0.0
  0
VERTEX
  5
126
330
121
100
AcDbEntity
  8
_U+30EC_U+30A4_U+30E4_U+30FC 1
370
     0
100
AcDbVertex
100
AcDb2dVertex
 10
108.6286837836067
 20
-128.1940700634376
 30
0.0
  0
SEQEND
  5
127
330
121
100
AcDbEntity
  8
_U+30EC_U+30A4_U+30E4_U+30FC 1
370
     0
  0
HATCH
  5
128
330
119
100
AcDbEntity
  8
_U+30EC_U+30A4_U+30E4_U+30FC 1
 62
   179
420
  2234388
100
AcDbHatch
 10
0.0
 20
0.0
 30
0.0
210
0.0
220
0.0
230
1.0
  2
SOLID
 70
     1
 71
     0
 91
        1
 92
        1
 93
        4
 72
     1
 10
108.6286837836067
 20
-128.1940700634376
 11
108.356521240272
 21
-128.1940700634376
 72
     1
 10
108.356521240272
 20
-128.1940700634376
 11
108.356521240272
 21
-127.9320705517843
 72
     1
 10
108.356521240272
 20
-127.9320705517843
 11
108.6286837836067
 21
-127.9320705517843
 72
     1
 10
108.6286837836067
 20
-127.9320705517843
 11
108.6286837836067
 21
-128.1940700634376
 97
        0
 75
     2
 76
     1
 98
        0
  0
SPLINE
  5
129
330
119
100
AcDbEntity
  8
_U+30EC_U+30A4_U+30E4_U+30FC 1
370
     0
100
AcDbSpline
210
0.0
220
0.0
230
1.0
 70
    11
 71
     3
 72
    53
 73
    49
 74
     0
 42
0.0000000001
 43
0.0000000001
 12
1.0
 22
0.0
 32
0.0
 13
1.0
 23
0.0
 33
0.0
 40
0.0
 40
0.0
 40
0.0
 40
0.0
 40
1.0
 40
1.0
 40
1.0
 40
2.0
 40
2.0
 40
2.0
 40
3.0
 40
3.0
 40
3.0
 40
4.0
 40
4.0
 40
4.0
 40
5.0
 40
5.0
 40
5.0
 40
6.0
 40
6.0
 40
6.0
 40
7.0
 40
7.0
 40
7.0
 40
8.0
 40
8.0
 40
8.0
 40
9.0
 40
9.0
 40
9.0
 40
10.0
 40
10.0
 40
10.0
 40
11.0
 40
11.0
 40
11.0
 40
12.0
 40
12.0
 40
12.0
 40
13.0
 40
13.0
 40
13.0
 40
14.0
 40
14.0
 40
14.0
 40
15.0
 40
15.0
 40
15.0
 40
16.0
 40
16.0
 40
16.0
 40
16.0
 10
108.6834608018222
 20
-127.1858628696792
 30
0.0
 10
108.6834608018222
 20
-127.2673393779054
 30
0.0
 10
108.6652017957504
 20
-127.3729315545283
 30
0.0
 10
108.5966443955939
 20
-127.4786959859255
 30
0.0
 10
108.4777886013528
 20
-127.6592189893526
 30
0.0
 10
108.3358506673605
 20
-127.6812676004582
 30
0.0
 10
108.2190619304105
 20
-127.7010768994983
 30
0.0
 10
108.2190619304105
 20
-127.7010768994983
 30
0.0
 10
108.2190619304105
 20
-127.4699109924381
 30
0.0
 10
108.2190619304105
 20
-127.4699109924381
 30
0.0
 10
108.4343803982386
 20
-127.4125501526087
 30
0.0
 10
108.4664197862514
 20
-127.2804307407493
 30
0.0
 10
108.4664197862514
 20
-127.1836235576138
 30
0.0
 10
108.4664197862514
 20
-127.0382405281363
 30
0.0
 10
108.3585882975631
 20
-126.8797661358148
 30
0.0
 10
108.1070963271399
 20
-126.8797661358148
 30
0.0
 10
107.8301106501258
 20
-126.8797661358148
 30
0.0
 10
107.7546630589988
 20
-127.0670070754381
 30
0.0
 10
107.7546630589988
 20
-127.1924085511012
 30
0.0
 10
107.7546630589988
 20
-127.2254814677596
 30
0.0
 10
107.7546630589988
 20
-127.3729315545283
 30
0.0
 10
107.8941894261515
 20
-127.4654323683073
 30
0.0
 10
107.8941894261515
 20
-127.4654323683073
 30
0.0
 10
107.8738633627885
 20
-127.6481946837998
 30
0.0
 10
107.8738633627885
 20
-127.6481946837998
 30
0.0
 10
107.8738633627885
 20
-127.6481946837998
 30
0.0
 10
106.9585014923576
 20
-127.5226209533624
 30
0.0
 10
106.9585014923576
 20
-127.5226209533624
 30
0.0
 10
106.9585014923576
 20
-127.5226209533624
 30
0.0
 10
106.9585014923576
 20
-126.7125067500059
 30
0.0
 10
106.9585014923576
 20
-126.7125067500059
 30
0.0
 10
106.9585014923576
 20
-126.7125067500059
 30
0.0
 10
107.1689968265064
 20
-126.7125067500059
 30
0.0
 10
107.1689968265064
 20
-126.7125067500059
 30
0.0
 10
107.1689968265064
 20
-126.7125067500059
 30
0.0
 10
107.1689968265064
 20
-127.3531222554881
 30
0.0
 10
107.1689968265064
 20
-127.3531222554881
 30
0.0
 10
107.1689968265064
 20
-127.3531222554881
 30
0.0
 10
107.6265055069476
 20
-127.4213351460961
 30
0.0
 10
107.6265055069476
 20
-127.4213351460961
 30
0.0
 10
107.5899874948039
 20
-127.3576008796189
 30
0.0
 10
107.5465792916898
 20
-127.271645747262
 30
0.0
 10
107.5465792916898
 20
-127.1484835836643
 30
0.0
 10
107.5465792916898
 20
-126.8842447599456
 30
0.0
 10
107.7477728680283
 20
-126.6375759232017
 30
0.0
 10
108.0864257542284
 20
-126.6375759232017
 30
0.0
 10
108.4295572645593
 20
-126.6375759232017
 30
0.0
 10
108.6834608018222
 20
-126.8709811423274
 30
0.0
 10
108.6834608018222
 20
-127.1858628696792
 30
0.0
  0
HATCH
  5
12A
330
119
100
AcDbEntity
  8
_U+30EC_U+30A4_U+30E4_U+30FC 1
 62
   179
420
  2234388
100
AcDbHatch
 10
0.0
 20
0.0
 30
0.0
210
0.0
220
0.0
230
1.0
  2
SOLID
 70
     1
 71
     0
 91
        1
 92
        1
 93
        1
 72
     4
 94
        3
 73
     0
 74
     1
 95
       53
 96
       49
 40
0.0
 40
0.0
 40
0.0
 40
0.0
 40
1.0
 40
1.0
 40
1.0
 40
2.0
 40
2.0
 40
2.0
 40
3.0
 40
3.0
 40
3.0
 40
4.0
 40
4.0
 40
4.0
 40
5.0
 40
5.0
 40
5.0
 40
6.0
 40
6.0
 40
6.0
 40
7.0
 40
7.0
 40
7.0
 40
8.0
 40
8.0
 40
8.0
 40
9.0
 40
9.0
 40
9.0
 40
10.0
 40
10.0
 40
10.0
 40
11.0
 40
11.0
 40
11.0
 40
12.0
 40
12.0
 40
12.0
 40
13.0
 40
13.0
 40
13.0
 40
14.0
 40
14.0
 40
14.0
 40
15.0
 40
15.0
 40
15.0
 40
16.0
 40
16.0
 40
16.0
 40
16.0
 10
108.6834608018222
 20
-127.1858628696792
 10
108.6834608018222
 20
-127.2673393779054
 10
108.6652017957504
 20
-127.3729315545283
 10
108.5966443955939
 20
-127.4786959859255
 10
108.4777886013528
 20
-127.6592189893526
 10
108.3358506673605
 20
-127.6812676004582
 10
108.2190619304105
 20
-127.7010768994983
 10
108.2190619304105
 20
-127.7010768994983
 10
108.2190619304105
 20
-127.4699109924381
 10
108.2190619304105
 20
-127.4699109924381
 10
108.4343803982386
 20
-127.4125501526087
 10
108.4664197862514
 20
-127.2804307407493
 10
108.4664197862514
 20
-127.1836235576138
 10
108.4664197862514
 20
-127.0382405281363
 10
108.3585882975631
 20
-126.8797661358148
 10
108.1070963271399
 20
-126.8797661358148
 10
107.8301106501258
 20
-126.8797661358148
 10
107.7546630589988
 20
-127.0670070754381
 10
107.7546630589988
 20
-127.1924085511012
 10
107.7546630589988
 20
-127.2254814677596
 10
107.7546630589988
 20
-127.3729315545283
 10
107.8941894261515
 20
-127.4654323683073
 10
107.8941894261515
 20
-127.4654323683073
 10
107.8738633627885
 20
-127.6481946837998
 10
107.8738633627885
 20
-127.6481946837998
 10
107.8738633627885
 20
-127.6481946837998
 10
106.9585014923576
 20
-127.5226209533624
 10
106.9585014923576
 20
-127.5226209533624
 10
106.9585014923576
 20
-127.5226209533624
 10
106.9585014923576
 20
-126.7125067500059
 10
106.9585014923576
 20
-126.7125067500059
 10
106.9585014923576
 20
-126.7125067500059
 10
107.1689968265064
 20
-126.7125067500059
 10
107.1689968265064
 20
-126.7125067500059
 10
107.1689968265064
 20
-126.7125067500059
 10
107.1689968265064
 20
-127.3531222554881
 10
107.1689968265064
 20
-127.3531222554881
 10
107.1689968265064
 20
-127.3531222554881
 10
107.6265055069476
 20
-127.4213351460961
 10
107.6265055069476
 20
-127.4213351460961
 10
107.5899874948039
 20
-127.3576008796189
 10
107.5465792916898
 20
-127.271645747262
 10
107.5465792916898
 20
-127.1484835836643
 10
107.5465792916898
 20
-126.8842447599456
 10
107.7477728680283
 20
-126.6375759232017
 10
108.0864257542284
 20
-126.6375759232017
 10
108.4295572645593
 20
-126.6375759232017
 10
108.6834608018222
 20
-126.8709811423274
 10
108.6834608018222
 20
-127.1858628696792
 97
        0
 97
        0
 75
     2
 76
     1
 98
        0
  0
ENDBLK
  5
11C
330
119
100
AcDbEntity
  8
0
100
AcDbBlockEnd
  0
ENDSEC
  0
SECTION
  2
ENTITIES
  0
POLYLINE
  5
41
330
1F
100
AcDbEntity
  8
_U+30EC_U+30A4_U+30E4_U+30FC 1
370
     0
100
AcDb2dPolyline
 66
     1
 10
0.0
 20
0.0
 30
0.0
  0
VERTEX
  5
42
330
41
100
AcDbEntity
  8
_U+30EC_U+30A4_U+30E4_U+30FC 1
370
     0
100
AcDbVertex
100
AcDb2dVertex
 10
78.79312632315322
 20
-123.0987716358919
 30
0.0
  0
VERTEX
  5
43
330
41
100
AcDbEntity
  8
_U+30EC_U+30A4_U+30E4_U+30FC 1
370
     0
100
AcDbVertex
100
AcDb2dVertex
 10
78.79312632315322
 20
-123.9807160801158
 30
0.0
  0
VERTEX
  5
44
330
41
100
AcDbEntity
  8
_U+30EC_U+30A4_U+30E4_U+30FC 1
370
     0
100
AcDbVertex
100
AcDb2dVertex
 10
92.31615653370753
 20
-123.9807160801158
 30
0.0
  0
VERTEX
  5
45
330
41
100
AcDbEntity
  8
_U+30EC_U+30A4_U+30E4_U+30FC 1
370
     0
100
AcDbVertex
100
AcDb2dVertex
 10
92.31615653370753
 20
-134.9168271884929
 30
0.0
  0
VERTEX
  5
46
330
41
100
AcDbEntity
  8
_U+30EC_U+30A4_U+30E4_U+30FC 1
370
     0
100
AcDbVertex
100
AcDb2dVertex
 10
86.67188862214924
 20
-134.9168271884929
 30
0.0
  0
VERTEX
  5
47
330
41
100
AcDbEntity
  8
_U+30EC_U+30A4_U+30E4_U+30FC 1
370
     0
100
AcDbVertex
100
AcDb2dVertex
 10
86.67188862214924
 20
-133.3878882999867
 30
0.0
  0
VERTEX
  5
48
330
41
100
AcDbEntity
  8
_U+30EC_U+30A4_U+30E4_U+30FC 1
370
     0
100
AcDbVertex
100
AcDb2dVertex
 10
85.7310303128192
 20
-133.3878882999867
 30
0.0
  0
VERTEX
  5
49
330
41
100
AcDbEntity
  8
_U+30EC_U+30A4_U+30E4_U+30FC 1
370
     0
100
AcDbVertex
100
AcDb2dVertex
 10
85.7310303128192
 20
-135.6809438549689
 30
0.0
  0
VERTEX
  5
4A
330
41
100
AcDbEntity
  8
_U+30EC_U+30A4_U+30E4_U+30FC 1
370
     0
100
AcDbVertex
100
AcDb2dVertex
 10
99.78340356542441
 20
-135.6809438549689
 30
0.0
  0
VERTEX
  5
4B
330
41
100
AcDbEntity
  8
_U+30EC_U+30A4_U+30E4_U+30FC 1
370
     0
100
AcDbVertex
100
AcDb2dVertex
 10
99.78340356542441
 20
-133.5057160777346
 30
0.0
  0
VERTEX
  5
4C
330
41
100
AcDbEntity
  8
_U+30EC_U+30A4_U+30E4_U+30FC 1
370
     0
100
AcDbVertex
100
AcDb2dVertex
 10
99.0189341404832
 20
-133.5057160777346
 30
0.0
  0
VERTEX
  5
4D
330
41
100
AcDbEntity
  8
_U+30EC_U+30A4_U+30E4_U+30FC 1
370
     0
100
AcDbVertex
100
AcDb2dVertex
 10
99.0189341404832
 20
-134.8582660773967
 30
0.0
  0
VERTEX
  5
4E
330
41
100
AcDbEntity
  8
_U+30EC_U+30A4_U+30E4_U+30FC 1
370
     0
100
AcDbVertex
100
AcDb2dVertex
 10
93.31557595265465
 20
-134.8582660773967
 30
0.0
  0
VERTEX
  5
4F
330
41
100
AcDbEntity
  8
_U+30EC_U+30A4_U+30E4_U+30FC 1
370
     0
100
AcDbVertex
100
AcDb2dVertex
 10
93.31557595265465
 20
-123.9807160801158
 30
0.0
  0
VERTEX
  5
50
330
41
100
AcDbEntity
  8
_U+30EC_U+30A4_U+30E4_U+30FC 1
370
     0
100
AcDbVertex
100
AcDb2dVertex
 10
106.8389589409777
 20
-123.9807160801158
 30
0.0
  0
VERTEX
  5
51
330
41
100
AcDbEntity
  8
_U+30EC_U+30A4_U+30E4_U+30FC 1
370
     0
100
AcDbVertex
100
AcDb2dVertex
 10
106.8389589409777
 20
-123.2165994136405
 30
0.0
  0
VERTEX
  5
52
330
41
100
AcDbEntity
  8
_U+30EC_U+30A4_U+30E4_U+30FC 1
370
     0
100
AcDbVertex
100
AcDb2dVertex
 10
78.79312632315322
 20
-123.0987716358919
 30
0.0
  0
SEQEND
  5
54
330
41
100
AcDbEntity
  8
_U+30EC_U+30A4_U+30E4_U+30FC 1
370
     0
  0
HATCH
  5
53
330
1F
100
AcDbEntity
  8
_U+30EC_U+30A4_U+30E4_U+30FC 1
 62
   253
420
 10066329
100
AcDbHatch
 10
0.0
 20
0.0
 30
0.0
210
0.0
220
0.0
230
1.0
  2
SOLID
 70
     1
 71
     0
 91
        1
 92
        1
 93
       16
 72
     1
 10
78.79312632315322
 20
-123.0987716358919
 11
78.79312632315322
 21
-123.9807160801158
 72
     1
 10
78.79312632315322
 20
-123.9807160801158
 11
92.31615653370753
 21
-123.9807160801158
 72
     1
 10
92.31615653370753
 20
-123.9807160801158
 11
92.31615653370753
 21
-134.9168271884929
 72
     1
 10
92.31615653370753
 20
-134.9168271884929
 11
86.67188862214924
 21
-134.9168271884929
 72
     1
 10
86.67188862214924
 20
-134.9168271884929
 11
86.67188862214924
 21
-133.3878882999867
 72
     1
 10
86.67188862214924
 20
-133.3878882999867
 11
85.7310303128192
 21
-133.3878882999867
 72
     1
 10
85.7310303128192
 20
-133.3878882999867
 11
85.7310303128192
 21
-135.6809438549689
 72
     1
 10
85.7310303128192
 20
-135.6809438549689
 11
99.78340356542441
 21
-135.6809438549689
 72
     1
 10
99.78340356542441
 20
-135.6809438549689
 11
99.78340356542441
 21
-133.5057160777346
 72
     1
 10
99.78340356542441
 20
-133.5057160777346
 11
99.0189341404832
 21
-133.5057160777346
 72
     1
 10
99.0189341404832
 20
-133.5057160777346
 11
99.0189341404832
 21
-134.8582660773967
 72
     1
 10
99.0189341404832
 20
-134.8582660773967
 11
93.31557595265465
 21
-134.8582660773967
 72
     1
 10
93.31557595265465
 20
-134.8582660773967
 11
93.31557595265465
 21
-123.9807160801158
 72
     1
 10
93.31557595265465
 20
-123.9807160801158
 11
106.8389589409777
 21
-123.9807160801158
 72
     1
 10
106.8389589409777
 20
-123.9807160801158
 11
106.8389589409777
 21
-123.2165994136405
 72
     1
 10
106.8389589409777
 20
-123.2165994136405
 11
78.79312632315322
 21
-123.0987716358919
 97
        0
 75
     2
 76
     1
 98
        0
  0
POLYLINE
  5
55
330
1F
100
AcDbEntity
  8
_U+30EC_U+30A4_U+30E4_U+30FC 1
 62
   179
420
  2234388
370
    25
100
AcDb2dPolyline
 66
     1
 10
0.0
 20
0.0
 30
0.0
  0
VERTEX
  5
56
330
55
100
AcDbEntity
  8
_U+30EC_U+30A4_U+30E4_U+30FC 1
 62
   179
420
  2234388
370
    25
100
AcDbVertex
100
AcDb2dVertex
 10
78.80794298944187
 20
-123.1098135803337
 30
0.0
  0
VERTEX
  5
57
330
55
100
AcDbEntity
  8
_U+30EC_U+30A4_U+30E4_U+30FC 1
 62
   179
420
  2234388
370
    25
100
AcDbVertex
100
AcDb2dVertex
 10
106.8079497751022
 20
-123.1098135803337
 30
0.0
  0
SEQEND
  5
58
330
55
100
AcDbEntity
  8
_U+30EC_U+30A4_U+30E4_U+30FC 1
 62
   179
420
  2234388
370
    25
  0
POLYLINE
  5
59
330
1F
100
AcDbEntity
  8
_U+30EC_U+30A4_U+30E4_U+30FC 1
 62
   179
420
  2234388
370
    25
100
AcDb2dPolyline
 66
     1
 10
0.0
 20
0.0
 30
0.0
  0
VERTEX
  5
5A
330
59
100
AcDbEntity
  8
_U+30EC_U+30A4_U+30E4_U+30FC 1
 62
   179
420
  2234388
370
    25
100
AcDbVertex
100
AcDb2dVertex
 10
93.2280870659978
 20
-123.9497069134571
 30
0.0
  0
VERTEX
  5
5B
330
59
100
AcDbEntity
  8
_U+30EC_U+30A4_U+30E4_U+30FC 1
 62
   179
420
  2234388
370
    25
100
AcDbVertex
100
AcDb2dVertex
 10
106.8079497751022
 20
-123.9497069134571
 30
0.0
  0
SEQEND
  5
5C
330
59
100
AcDbEntity
  8
_U+30EC_U+30A4_U+30E4_U+30FC 1
 62
   179
420
  2234388
370
    25
  0
POLYLINE
  5
5D
330
1F
100
AcDbEntity
  8
_U+30EC_U+30A4_U+30E4_U+30FC 1
 62
   179
420
  2234388
370
    25
100
AcDb2dPolyline
 66
     1
 10
0.0
 20
0.0
 30
0.0
  0
VERTEX
  5
5E
330
5D
100
AcDbEntity
  8
_U+30EC_U+30A4_U+30E4_U+30FC 1
 62
   179
420
  2234388
370
    25
100
AcDbVertex
100
AcDb2dVertex
 10
85.80804169974337
 20
-135.7099069105171
 30
0.0
  0
VERTEX
  5
5F
330
5D
100
AcDbEntity
  8
_U+30EC_U+30A4_U+30E4_U+30FC 1
 62
   179
420
  2234388
370
    25
100
AcDbVertex
100
AcDb2dVertex
 10
99.80749828703192
 20
-135.7099069105171
 30
0.0
  0
SEQEND
  5
60
330
5D
100
AcDbEntity
  8
_U+30EC_U+30A4_U+30E4_U+30FC 1
 62
   179
420
  2234388
370
    25
  0
POLYLINE
  5
61
330
1F
100
AcDbEntity
  8
_U+30EC_U+30A4_U+30E4_U+30FC 1
 62
   179
420
  2234388
370
    25
100
AcDb2dPolyline
 66
     1
 10
0.0
 20
0.0
 30
0.0
  0
VERTEX
  5
62
330
61
100
AcDbEntity
  8
_U+30EC_U+30A4_U+30E4_U+30FC 1
 62
   179
420
  2234388
370
    25
100
AcDbVertex
100
AcDb2dVertex
 10
99.80749828703192
 20
-133.3996005222059
 30
0.0
  0
VERTEX
  5
63
330
61
100
AcDbEntity
  8
_U+30EC_U+30A4_U+30E4_U+30FC 1
 62
   179
420
  2234388
370
    25
100
AcDbVertex
100
AcDb2dVertex
 10
99.80749828703192
 20
-135.7099069105171
 30
0.0
  0
SEQEND
  5
64
330
61
100
AcDbEntity
  8
_U+30EC_U+30A4_U+30E4_U+30FC 1
 62
   179
420
  2234388
370
    25
  0
POLYLINE
  5
65
330
1F
100
AcDbEntity
  8
_U+30EC_U+30A4_U+30E4_U+30FC 1
 62
   179
420
  2234388
370
    25
100
AcDb2dPolyline
 66
     1
 10
0.0
 20
0.0
 30
0.0
  0
VERTEX
  5
66
330
65
100
AcDbEntity
  8
_U+30EC_U+30A4_U+30E4_U+30FC 1
 62
   179
420
  2234388
370
    25
100
AcDbVertex
100
AcDb2dVertex
 10
98.96760497512605
 20
-133.3996005222059
 30
0.0
  0
VERTEX
  5
67
330
65
100
AcDbEntity
  8
_U+30EC_U+30A4_U+30E4_U+30FC 1
 62
   179
420
  2234388
370
    25
100
AcDbVertex
100
AcDb2dVertex
 10
99.80749828703192
 20
-133.3996005222059
 30
0.0
  0
SEQEND
  5
68
330
65
100
AcDbEntity
  8
_U+30EC_U+30A4_U+30E4_U+30FC 1
 62
   179
420
  2234388
370
    25
  0
POLYLINE
  5
69
330
1F
100
AcDbEntity
  8
_U+30EC_U+30A4_U+30E4_U+30FC 1
 62
   179
420
  2234388
370
    25
100
AcDb2dPolyline
 66
     1
 10
0.0
 20
0.0
 30
0.0
  0
VERTEX
  5
6A
330
69
100
AcDbEntity
  8
_U+30EC_U+30A4_U+30E4_U+30FC 1
 62
   179
420
  2234388
370
    25
100
AcDbVertex
100
AcDb2dVertex
 10
98.96760497512605
 20
-133.3996005222059
 30
0.0
  0
VERTEX
  5
6B
330
69
100
AcDbEntity
  8
_U+30EC_U+30A4_U+30E4_U+30FC 1
 62
   179
420
  2234388
370
    25
100
AcDbVertex
100
AcDb2dVertex
 10
98.96760497512605
 20
-134.869978299616
 30
0.0
  0
SEQEND
  5
6C
330
69
100
AcDbEntity
  8
_U+30EC_U+30A4_U+30E4_U+30FC 1
 62
   179
420
  2234388
370
    25
  0
POLYLINE
  5
6D
330
1F
100
AcDbEntity
  8
_U+30EC_U+30A4_U+30E4_U+30FC 1
 62
   179
420
  2234388
370
    25
100
AcDb2dPolyline
 66
     1
 10
0.0
 20
0.0
 30
0.0
  0
VERTEX
  5
6E
330
6D
100
AcDbEntity
  8
_U+30EC_U+30A4_U+30E4_U+30FC 1
 62
   179
420
  2234388
370
    25
100
AcDbVertex
100
AcDb2dVertex
 10
93.2280870659978
 20
-134.869978299616
 30
0.0
  0
VERTEX
  5
6F
330
6D
100
AcDbEntity
  8
_U+30EC_U+30A4_U+30E4_U+30FC 1
 62
   179
420
  2234388
370
    25
100
AcDbVertex
100
AcDb2dVertex
 10
98.96760497512605
 20
-134.869978299616
 30
0.0
  0
SEQEND
  5
70
330
6D
100
AcDbEntity
  8
_U+30EC_U+30A4_U+30E4_U+30FC 1
 62
   179
420
  2234388
370
    25
  0
POLYLINE
  5
71
330
1F
100
AcDbEntity
  8
_U+30EC_U+30A4_U+30E4_U+30FC 1
 62
   179
420
  2234388
370
    25
100
AcDb2dPolyline
 66
     1
 10
0.0
 20
0.0
 30
0.0
  0
VERTEX
  5
72
330
71
100
AcDbEntity
  8
_U+30EC_U+30A4_U+30E4_U+30FC 1
 62
   179
420
  2234388
370
    25
100
AcDbVertex
100
AcDb2dVertex
 10
106.8079497751022
 20
-123.1098135803337
 30
0.0
  0
VERTEX
  5
73
330
71
100
AcDbEntity
  8
_U+30EC_U+30A4_U+30E4_U+30FC 1
 62
   179
420
  2234388
370
    25
100
AcDbVertex
100
AcDb2dVertex
 10
106.8079497751022
 20
-123.9497069134571
 30
0.0
  0
SEQEND
  5
74
330
71
100
AcDbEntity
  8
_U+30EC_U+30A4_U+30E4_U+30FC 1
 62
   179
420
  2234388
370
    25
  0
POLYLINE
  5
75
330
1F
100
AcDbEntity
  8
_U+30EC_U+30A4_U+30E4_U+30FC 1
 62
   179
420
  2234388
370
    25
100
AcDb2dPolyline
 66
     1
 10
0.0
 20
0.0
 30
0.0
  0
VERTEX
  5
76
330
75
100
AcDbEntity
  8
_U+30EC_U+30A4_U+30E4_U+30FC 1
 62
   179
420
  2234388
370
    25
100
AcDbVertex
100
AcDb2dVertex
 10
93.2280870659978
 20
-123.9497069134571
 30
0.0
  0
VERTEX
  5
77
330
75
100
AcDbEntity
  8
_U+30EC_U+30A4_U+30E4_U+30FC 1
 62
   179
420
  2234388
370
    25
100
AcDbVertex
100
AcDb2dVertex
 10
93.2280870659978
 20
-134.869978299616
 30
0.0
  0
SEQEND
  5
78
330
75
100
AcDbEntity
  8
_U+30EC_U+30A4_U+30E4_U+30FC 1
 62
   179
420
  2234388
370
    25
  0
POLYLINE
  5
79
330
1F
100
AcDbEntity
  8
_U+30EC_U+30A4_U+30E4_U+30FC 1
 62
   179
420
  2234388
370
    25
100
AcDb2dPolyline
 66
     1
 10
0.0
 20
0.0
 30
0.0
  0
VERTEX
  5
7A
330
79
100
AcDbEntity
  8
_U+30EC_U+30A4_U+30E4_U+30FC 1
 62
   179
420
  2234388
370
    25
100
AcDbVertex
100
AcDb2dVertex
 10
92.38780569854627
 20
-134.869978299616
 30
0.0
  0
VERTEX
  5
7B
330
79
100
AcDbEntity
  8
_U+30EC_U+30A4_U+30E4_U+30FC 1
 62
   179
420
  2234388
370
    25
100
AcDbVertex
100
AcDb2dVertex
 10
86.64793501164924
 20
-134.869978299616
 30
0.0
  0
SEQEND
  5
7C
330
79
100
AcDbEntity
  8
_U+30EC_U+30A4_U+30E4_U+30FC 1
 62
   179
420
  2234388
370
    25
  0
POLYLINE
  5
7D
330
1F
100
AcDbEntity
  8
_U+30EC_U+30A4_U+30E4_U+30FC 1
 62
   179
420
  2234388
370
    25
100
AcDb2dPolyline
 66
     1
 10
0.0
 20
0.0
 30
0.0
  0
VERTEX
  5
7E
330
7D
100
AcDbEntity
  8
_U+30EC_U+30A4_U+30E4_U+30FC 1
 62
   179
420
  2234388
370
    25
100
AcDbVertex
100
AcDb2dVertex
 10
86.64793501164924
 20
-133.3996005222059
 30
0.0
  0
VERTEX
  5
7F
330
7D
100
AcDbEntity
  8
_U+30EC_U+30A4_U+30E4_U+30FC 1
 62
   179
420
  2234388
370
    25
100
AcDbVertex
100
AcDb2dVertex
 10
86.64793501164924
 20
-134.869978299616
 30
0.0
  0
SEQEND
  5
80
330
7D
100
AcDbEntity
  8
_U+30EC_U+30A4_U+30E4_U+30FC 1
 62
   179
420
  2234388
370
    25
  0
POLYLINE
  5
81
330
1F
100
AcDbEntity
  8
_U+30EC_U+30A4_U+30E4_U+30FC 1
 62
   179
420
  2234388
370
    25
100
AcDb2dPolyline
 66
     1
 10
0.0
 20
0.0
 30
0.0
  0
VERTEX
  5
82
330
81
100
AcDbEntity
  8
_U+30EC_U+30A4_U+30E4_U+30FC 1
 62
   179
420
  2234388
370
    25
100
AcDbVertex
100
AcDb2dVertex
 10
86.64793501164924
 20
-133.3996005222059
 30
0.0
  0
VERTEX
  5
83
330
81
100
AcDbEntity
  8
_U+30EC_U+30A4_U+30E4_U+30FC 1
 62
   179
420
  2234388
370
    25
100
AcDbVertex
100
AcDb2dVertex
 10
85.80804169974337
 20
-133.3996005222059
 30
0.0
  0
SEQEND
  5
84
330
81
100
AcDbEntity
  8
_U+30EC_U+30A4_U+30E4_U+30FC 1
 62
   179
420
  2234388
370
    25
  0
POLYLINE
  5
85
330
1F
100
AcDbEntity
  8
_U+30EC_U+30A4_U+30E4_U+30FC 1
 62
   179
420
  2234388
370
    25
100
AcDb2dPolyline
 66
     1
 10
0.0
 20
0.0
 30
0.0
  0
VERTEX
  5
86
330
85
100
AcDbEntity
  8
_U+30EC_U+30A4_U+30E4_U+30FC 1
 62
   179
420
  2234388
370
    25
100
AcDbVertex
100
AcDb2dVertex
 10
85.80804169974337
 20
-133.3996005222059
 30
0.0
  0
VERTEX
  5
87
330
85
100
AcDbEntity
  8
_U+30EC_U+30A4_U+30E4_U+30FC 1
 62
   179
420
  2234388
370
    25
100
AcDbVertex
100
AcDb2dVertex
 10
85.80804169974337
 20
-135.7099069105171
 30
0.0
  0
SEQEND
  5
88
330
85
100
AcDbEntity
  8
_U+30EC_U+30A4_U+30E4_U+30FC 1
 62
   179
420
  2234388
370
    25
  0
POLYLINE
  5
89
330
1F
100
AcDbEntity
  8
_U+30EC_U+30A4_U+30E4_U+30FC 1
 62
   179
420
  2234388
370
    25
100
AcDb2dPolyline
 66
     1
 10
0.0
 20
0.0
 30
0.0
  0
VERTEX
  5
8A
330
89
100
AcDbEntity
  8
_U+30EC_U+30A4_U+30E4_U+30FC 1
 62
   179
420
  2234388
370
    25
100
AcDbVertex
100
AcDb2dVertex
 10
92.38780569854627
 20
-123.9497069134571
 30
0.0
  0
VERTEX
  5
8B
330
89
100
AcDbEntity
  8
_U+30EC_U+30A4_U+30E4_U+30FC 1
 62
   179
420
  2234388
370
    25
100
AcDbVertex
100
AcDb2dVertex
 10
78.80794298944187
 20
-123.9497069134571
 30
0.0
  0
SEQEND
  5
8C
330
89
100
AcDbEntity
  8
_U+30EC_U+30A4_U+30E4_U+30FC 1
 62
   179
420
  2234388
370
    25
  0
POLYLINE
  5
8D
330
1F
100
AcDbEntity
  8
_U+30EC_U+30A4_U+30E4_U+30FC 1
 62
   179
420
  2234388
370
    25
100
AcDb2dPolyline
 66
     1
 10
0.0
 20
0.0
 30
0.0
  0
VERTEX
  5
8E
330
8D
100
AcDbEntity
  8
_U+30EC_U+30A4_U+30E4_U+30FC 1
 62
   179
420
  2234388
370
    25
100
AcDbVertex
100
AcDb2dVertex
 10
92.38780569854627
 20
-123.9497069134571
 30
0.0
  0
VERTEX
  5
8F
330
8D
100
AcDbEntity
  8
_U+30EC_U+30A4_U+30E4_U+30FC 1
 62
   179
420
  2234388
370
    25
100
AcDbVertex
100
AcDb2dVertex
 10
92.38780569854627
 20
-134.869978299616
 30
0.0
  0
SEQEND
  5
90
330
8D
100
AcDbEntity
  8
_U+30EC_U+30A4_U+30E4_U+30FC 1
 62
   179
420
  2234388
370
    25
  0
POLYLINE
  5
91
330
1F
100
AcDbEntity
  8
_U+30EC_U+30A4_U+30E4_U+30FC 1
 62
   179
420
  2234388
370
    25
100
AcDb2dPolyline
 66
     1
 10
0.0
 20
0.0
 30
0.0
  0
VERTEX
  5
92
330
91
100
AcDbEntity
  8
_U+30EC_U+30A4_U+30E4_U+30FC 1
 62
   179
420
  2234388
370
    25
100
AcDbVertex
100
AcDb2dVertex
 10
78.80794298944187
 20
-123.1098135803337
 30
0.0
  0
VERTEX
  5
93
330
91
100
AcDbEntity
  8
_U+30EC_U+30A4_U+30E4_U+30FC 1
 62
   179
420
  2234388
370
    25
100
AcDbVertex
100
AcDb2dVertex
 10
78.80794298944187
 20
-123.9497069134571
 30
0.0
  0
SEQEND
  5
94
330
91
100
AcDbEntity
  8
_U+30EC_U+30A4_U+30E4_U+30FC 1
 62
   179
420
  2234388
370
    25
  0
SPLINE
  5
95
330
1F
100
AcDbEntity
  8
_U+30EC_U+30A4_U+30E4_U+30FC 1
 62
   179
420
  2234388
370
     9
100
AcDbSpline
210
0.0
220
0.0
230
1.0
 70
    11
 71
     3
 72
    17
 73
    13
 74
     0
 42
0.0000000001
 43
0.0000000001
 12
1.0
 22
0.0
 32
0.0
 13
1.0
 23
0.0
 33
0.0
 40
0.0
 40
0.0
 40
0.0
 40
0.0
 40
1.0
 40
1.0
 40
1.0
 40
2.0
 40
2.0
 40
2.0
 40
3.0
 40
3.0
 40
3.0
 40
4.0
 40
4.0
 40
4.0
 40
4.0
 10
85.87760947574633
 20
-138.5100805209282
 30
0.0
 10
85.87760947574633
 20
-138.4714866320485
 30
0.0
 10
85.84660030987077
 20
-138.4397719098346
 30
0.0
 10
85.80804169974337
 20
-138.4397719098346
 30
0.0
 10
85.76944997855772
 20
-138.4397719098346
 30
0.0
 10
85.73773309042598
 20
-138.4714866320485
 30
0.0
 10
85.73773309042598
 20
-138.5100805209282
 30
0.0
 10
85.73773309042598
 20
-138.5486391320297
 30
0.0
 10
85.76944997855772
 20
-138.5796482986881
 30
0.0
 10
85.80804169974337
 20
-138.5796482986881
 30
0.0
 10
85.84660030987077
 20
-138.5796482986881
 30
0.0
 10
85.87760947574633
 20
-138.5486391320297
 30
0.0
 10
85.87760947574633
 20
-138.5100805209282
 30
0.0
  0
SPLINE
  5
96
330
1F
100
AcDbEntity
  8
_U+30EC_U+30A4_U+30E4_U+30FC 1
 62
   179
420
  2234388
370
     9
100
AcDbSpline
210
0.0
220
0.0
230
1.0
 70
    11
 71
     3
 72
    17
 73
    13
 74
     0
 42
0.0000000001
 43
0.0000000001
 12
1.0
 22
0.0
 32
0.0
 13
1.0
 23
0.0
 33
0.0
 40
0.0
 40
0.0
 40
0.0
 40
0.0
 40
1.0
 40
1.0
 40
1.0
 40
2.0
 40
2.0
 40
2.0
 40
3.0
 40
3.0
 40
3.0
 40
4.0
 40
4.0
 40
4.0
 40
4.0
 10
99.87780689634931
 20
-138.5100805209282
 30
0.0
 10
99.87780689634931
 20
-138.4714866320485
 30
0.0
 10
99.84609217493619
 20
-138.4397719098346
 30
0.0
 10
99.80749828703192
 20
-138.4397719098346
 30
0.0
 10
99.76893967690452
 20
-138.4397719098346
 30
0.0
 10
99.73793051102896
 20
-138.4714866320485
 30
0.0
 10
99.73793051102896
 20
-138.5100805209282
 30
0.0
 10
99.73793051102896
 20
-138.5486391320297
 30
0.0
 10
99.76893967690452
 20
-138.5796482986881
 30
0.0
 10
99.80749828703192
 20
-138.5796482986881
 30
0.0
 10
99.84609217493619
 20
-138.5796482986881
 30
0.0
 10
99.87780689634931
 20
-138.5486391320297
 30
0.0
 10
99.87780689634931
 20
-138.5100805209282
 30
0.0
  0
SPLINE
  5
97
330
1F
100
AcDbEntity
  8
_U+30EC_U+30A4_U+30E4_U+30FC 1
 62
   179
420
  2234388
370
     9
100
AcDbSpline
210
0.0
220
0.0
230
1.0
 70
    11
 71
     3
 72
    17
 73
    13
 74
     0
 42
0.0000000001
 43
0.0000000001
 12
1.0
 22
0.0
 32
0.0
 13
1.0
 23
0.0
 33
0.0
 40
0.0
 40
0.0
 40
0.0
 40
0.0
 40
1.0
 40
1.0
 40
1.0
 40
2.0
 40
2.0
 40
2.0
 40
3.0
 40
3.0
 40
3.0
 40
4.0
 40
4.0
 40
4.0
 40
4.0
 10
76.07769000354088
 20
-135.7099069105171
 30
0.0
 10
76.07769000354088
 20
-135.6713130216374
 30
0.0
 10
76.04668083766532
 20
-135.6395982994235
 30
0.0
 10
76.00776944976914
 20
-135.6395982994235
 30
0.0
 10
75.96917556186486
 20
-135.6395982994235
 30
0.0
 10
75.93781361822053
 20
-135.6713130216374
 30
0.0
 10
75.93781361822053
 20
-135.7099069105171
 30
0.0
 10
75.93781361822053
 20
-135.7484655216186
 30
0.0
 10
75.96917556186486
 20
-135.779474688277
 30
0.0
 10
76.00776944976914
 20
-135.779474688277
 30
0.0
 10
76.04668083766532
 20
-135.779474688277
 30
0.0
 10
76.07769000354088
 20
-135.7484655216186
 30
0.0
 10
76.07769000354088
 20
-135.7099069105171
 30
0.0
  0
SPLINE
  5
98
330
1F
100
AcDbEntity
  8
_U+30EC_U+30A4_U+30E4_U+30FC 1
 62
   179
420
  2234388
370
     9
100
AcDbSpline
210
0.0
220
0.0
230
1.0
 70
    11
 71
     3
 72
    17
 73
    13
 74
     0
 42
0.0000000001
 43
0.0000000001
 12
1.0
 22
0.0
 32
0.0
 13
1.0
 23
0.0
 33
0.0
 40
0.0
 40
0.0
 40
0.0
 40
0.0
 40
1.0
 40
1.0
 40
1.0
 40
2.0
 40
2.0
 40
2.0
 40
3.0
 40
3.0
 40
3.0
 40
4.0
 40
4.0
 40
4.0
 40
4.0
 10
76.07769000354088
 20
-123.1098135803337
 30
0.0
 10
76.07769000354088
 20
-123.0712196914544
 30
0.0
 10
76.04668083766532
 20
-123.0395049692401
 30
0.0
 10
76.00776944976914
 20
-123.0395049692401
 30
0.0
 10
75.96917556186486
 20
-123.0395049692401
 30
0.0
 10
75.93781361822053
 20
-123.0712196914544
 30
0.0
 10
75.93781361822053
 20
-123.1098135803337
 30
0.0
 10
75.93781361822053
 20
-123.1483721914353
 30
0.0
 10
75.96917556186486
 20
-123.1800869136495
 30
0.0
 10
76.00776944976914
 20
-123.1800869136495
 30
0.0
 10
76.04668083766532
 20
-123.1800869136495
 30
0.0
 10
76.07769000354088
 20
-123.1483721914353
 30
0.0
 10
76.07769000354088
 20
-123.1098135803337
 30
0.0
  0
SPLINE
  5
99
330
1F
100
AcDbEntity
  8
_U+30EC_U+30A4_U+30E4_U+30FC 1
 62
   179
420
  2234388
370
     9
100
AcDbSpline
210
0.0
220
0.0
230
1.0
 70
    11
 71
     3
 72
    17
 73
    13
 74
     0
 42
0.0000000001
 43
0.0000000001
 12
1.0
 22
0.0
 32
0.0
 13
1.0
 23
0.0
 33
0.0
 40
0.0
 40
0.0
 40
0.0
 40
0.0
 40
1.0
 40
1.0
 40
1.0
 40
2.0
 40
2.0
 40
2.0
 40
3.0
 40
3.0
 40
3.0
 40
4.0
 40
4.0
 40
4.0
 40
4.0
 10
78.8778635432136
 20
-120.3096399699227
 30
0.0
 10
78.8778635432136
 20
-120.2710460810434
 30
0.0
 10
78.84653886917741
 20
-120.2400369143846
 30
0.0
 10
78.80794298944187
 20
-120.2400369143846
 30
0.0
 10
78.76899632376882
 20
-120.2400369143846
 30
0.0
 10
78.73798715789326
 20
-120.2710460810434
 30
0.0
 10
78.73798715789326
 20
-120.3096399699227
 30
0.0
 10
78.73798715789326
 20
-120.3481985810242
 30
0.0
 10
78.76899632376882
 20
-120.3799133032385
 30
0.0
 10
78.80794298944187
 20
-120.3799133032385
 30
0.0
 10
78.84653886917741
 20
-120.3799133032385
 30
0.0
 10
78.8778635432136
 20
-120.3481985810242
 30
0.0
 10
78.8778635432136
 20
-120.3096399699227
 30
0.0
  0
SPLINE
  5
9A
330
1F
100
AcDbEntity
  8
_U+30EC_U+30A4_U+30E4_U+30FC 1
 62
   179
420
  2234388
370
     9
100
AcDbSpline
210
0.0
220
0.0
230
1.0
 70
    11
 71
     3
 72
    17
 73
    13
 74
     0
 42
0.0000000001
 43
0.0000000001
 12
1.0
 22
0.0
 32
0.0
 13
1.0
 23
0.0
 33
0.0
 40
0.0
 40
0.0
 40
0.0
 40
0.0
 40
1.0
 40
1.0
 40
1.0
 40
2.0
 40
2.0
 40
2.0
 40
3.0
 40
3.0
 40
3.0
 40
4.0
 40
4.0
 40
4.0
 40
4.0
 10
106.8775555288359
 20
-120.3096399699227
 30
0.0
 10
106.8775555288359
 20
-120.2710460810434
 30
0.0
 10
106.8465436630065
 20
-120.2400369143846
 30
0.0
 10
106.8079497751022
 20
-120.2400369143846
 30
0.0
 10
106.7693558871979
 20
-120.2400369143846
 30
0.0
 10
106.7376764435617
 20
-120.2710460810434
 30
0.0
 10
106.7376764435617
 20
-120.3096399699227
 30
0.0
 10
106.7376764435617
 20
-120.3481985810242
 30
0.0
 10
106.7693558871979
 20
-120.3799133032385
 30
0.0
 10
106.8079497751022
 20
-120.3799133032385
 30
0.0
 10
106.8465436630065
 20
-120.3799133032385
 30
0.0
 10
106.8775555288359
 20
-120.3481985810242
 30
0.0
 10
106.8775555288359
 20
-120.3096399699227
 30
0.0
  0
SPLINE
  5
9B
330
1F
100
AcDbEntity
  8
_U+30EC_U+30A4_U+30E4_U+30FC 1
 62
   179
420
  2234388
370
     9
100
AcDbSpline
210
0.0
220
0.0
230
1.0
 70
    11
 71
     3
 72
    17
 73
    13
 74
     0
 42
0.0000000001
 43
0.0000000001
 12
1.0
 22
0.0
 32
0.0
 13
1.0
 23
0.0
 33
0.0
 40
0.0
 40
0.0
 40
0.0
 40
0.0
 40
1.0
 40
1.0
 40
1.0
 40
2.0
 40
2.0
 40
2.0
 40
3.0
 40
3.0
 40
3.0
 40
4.0
 40
4.0
 40
4.0
 40
4.0
 10
109.6777263685548
 20
-123.9497069134571
 30
0.0
 10
109.6777263685548
 20
-123.9111130245777
 30
0.0
 10
109.6467172026792
 20
-123.8801391356965
 30
0.0
 10
109.6074177592374
 20
-123.8801391356965
 30
0.0
 10
109.56885914911
 20
-123.8801391356965
 30
0.0
 10
109.5378527503934
 20
-123.9111130245777
 30
0.0
 10
109.5378527503934
 20
-123.9497069134571
 30
0.0
 10
109.5378527503934
 20
-123.9883008023364
 30
0.0
 10
109.56885914911
 20
-124.0199802467729
 30
0.0
 10
109.6074177592374
 20
-124.0199802467729
 30
0.0
 10
109.6467172026792
 20
-124.0199802467729
 30
0.0
 10
109.6777263685548
 20
-123.9883008023364
 30
0.0
 10
109.6777263685548
 20
-123.9497069134571
 30
0.0
  0
SPLINE
  5
9C
330
1F
100
AcDbEntity
  8
_U+30EC_U+30A4_U+30E4_U+30FC 1
 62
   179
420
  2234388
370
     9
100
AcDbSpline
210
0.0
220
0.0
230
1.0
 70
    11
 71
     3
 72
    17
 73
    13
 74
     0
 42
0.0000000001
 43
0.0000000001
 12
1.0
 22
0.0
 32
0.0
 13
1.0
 23
0.0
 33
0.0
 40
0.0
 40
0.0
 40
0.0
 40
0.0
 40
1.0
 40
1.0
 40
1.0
 40
2.0
 40
2.0
 40
2.0
 40
3.0
 40
3.0
 40
3.0
 40
4.0
 40
4.0
 40
4.0
 40
4.0
 10
109.6777263685548
 20
-133.3996005222059
 30
0.0
 10
109.6777263685548
 20
-133.3610419111044
 30
0.0
 10
109.6467172026792
 20
-133.3300327444453
 30
0.0
 10
109.6074177592374
 20
-133.3300327444453
 30
0.0
 10
109.56885914911
 20
-133.3300327444453
 30
0.0
 10
109.5378527503934
 20
-133.3610419111044
 30
0.0
 10
109.5378527503934
 20
-133.3996005222059
 30
0.0
 10
109.5378527503934
 20
-133.4388999666404
 30
0.0
 10
109.56885914911
 20
-133.4698738555213
 30
0.0
 10
109.6074177592374
 20
-133.4698738555213
 30
0.0
 10
109.6467172026792
 20
-133.4698738555213
 30
0.0
 10
109.6777263685548
 20
-133.4388999666404
 30
0.0
 10
109.6777263685548
 20
-133.3996005222059
 30
0.0
  0
SPLINE
  5
9D
330
1F
100
AcDbEntity
  8
_U+30EC_U+30A4_U+30E4_U+30FC 1
 62
   179
420
  2234388
370
     9
100
AcDbSpline
210
0.0
220
0.0
230
1.0
 70
    11
 71
     3
 72
    17
 73
    13
 74
     0
 42
0.0000000001
 43
0.0000000001
 12
1.0
 22
0.0
 32
0.0
 13
1.0
 23
0.0
 33
0.0
 40
0.0
 40
0.0
 40
0.0
 40
0.0
 40
1.0
 40
1.0
 40
1.0
 40
2.0
 40
2.0
 40
2.0
 40
3.0
 40
3.0
 40
3.0
 40
4.0
 40
4.0
 40
4.0
 40
4.0
 10
109.6777263685548
 20
-135.7099069105171
 30
0.0
 10
109.6777263685548
 20
-135.6713130216374
 30
0.0
 10
109.6467172026792
 20
-135.6395982994235
 30
0.0
 10
109.6074177592374
 20
-135.6395982994235
 30
0.0
 10
109.56885914911
 20
-135.6395982994235
 30
0.0
 10
109.5378527503934
 20
-135.6713130216374
 30
0.0
 10
109.5378527503934
 20
-135.7099069105171
 30
0.0
 10
109.5378527503934
 20
-135.7484655216186
 30
0.0
 10
109.56885914911
 20
-135.779474688277
 30
0.0
 10
109.6074177592374
 20
-135.779474688277
 30
0.0
 10
109.6467172026792
 20
-135.779474688277
 30
0.0
 10
109.6777263685548
 20
-135.7484655216186
 30
0.0
 10
109.6777263685548
 20
-135.7099069105171
 30
0.0
  0
POLYLINE
  5
9E
330
1F
100
AcDbEntity
  8
_U+30EC_U+30A4_U+30E4_U+30FC 1
 62
   179
420
  2234388
370
     9
100
AcDb2dPolyline
 66
     1
 10
0.0
 20
0.0
 30
0.0
  0
VERTEX
  5
9F
330
9E
100
AcDbEntity
  8
_U+30EC_U+30A4_U+30E4_U+30FC 1
 62
   179
420
  2234388
370
     9
100
AcDbVertex
100
AcDb2dVertex
 10
78.80794298944187
 20
-120.3096399699227
 30
0.0
  0
VERTEX
  5
A0
330
9E
100
AcDbEntity
  8
_U+30EC_U+30A4_U+30E4_U+30FC 1
 62
   179
420
  2234388
370
     9
100
AcDbVertex
100
AcDb2dVertex
 10
106.8079497751022
 20
-120.3096399699227
 30
0.0
  0
SEQEND
  5
A1
330
9E
100
AcDbEntity
  8
_U+30EC_U+30A4_U+30E4_U+30FC 1
 62
   179
420
  2234388
370
     9
  0
POLYLINE
  5
A2
330
1F
100
AcDbEntity
  8
_U+30EC_U+30A4_U+30E4_U+30FC 1
 62
   179
420
  2234388
370
     9
100
AcDb2dPolyline
 66
     1
 10
0.0
 20
0.0
 30
0.0
  0
VERTEX
  5
A3
330
A2
100
AcDbEntity
  8
_U+30EC_U+30A4_U+30E4_U+30FC 1
 62
   179
420
  2234388
370
     9
100
AcDbVertex
100
AcDb2dVertex
 10
78.80794298944187
 20
-121.3314255252227
 30
0.0
  0
VERTEX
  5
A4
330
A2
100
AcDbEntity
  8
_U+30EC_U+30A4_U+30E4_U+30FC 1
 62
   179
420
  2234388
370
     9
100
AcDbVertex
100
AcDb2dVertex
 10
78.80794298944187
 20
-119.6095877478754
 30
0.0
  0
SEQEND
  5
A5
330
A2
100
AcDbEntity
  8
_U+30EC_U+30A4_U+30E4_U+30FC 1
 62
   179
420
  2234388
370
     9
  0
POLYLINE
  5
A6
330
1F
100
AcDbEntity
  8
_U+30EC_U+30A4_U+30E4_U+30FC 1
 62
   179
420
  2234388
370
     9
100
AcDb2dPolyline
 66
     1
 10
0.0
 20
0.0
 30
0.0
  0
VERTEX
  5
A7
330
A6
100
AcDbEntity
  8
_U+30EC_U+30A4_U+30E4_U+30FC 1
 62
   179
420
  2234388
370
     9
100
AcDbVertex
100
AcDb2dVertex
 10
106.8079497751022
 20
-121.3314255252227
 30
0.0
  0
VERTEX
  5
A8
330
A6
100
AcDbEntity
  8
_U+30EC_U+30A4_U+30E4_U+30FC 1
 62
   179
420
  2234388
370
     9
100
AcDbVertex
100
AcDb2dVertex
 10
106.8079497751022
 20
-119.6095877478754
 30
0.0
  0
SEQEND
  5
A9
330
A6
100
AcDbEntity
  8
_U+30EC_U+30A4_U+30E4_U+30FC 1
 62
   179
420
  2234388
370
     9
  0
INSERT
  5
AB
330
1F
100
AcDbEntity
  8
_U+30EC_U+30A4_U+30E4_U+30FC 1
100
AcDbBlockReference
  2
block 2
 10
0.0
 20
0.0
 30
0.0
  0
POLYLINE
  5
C6
330
1F
100
AcDbEntity
  8
_U+30EC_U+30A4_U+30E4_U+30FC 1
 62
   179
420
  2234388
370
     9
100
AcDb2dPolyline
 66
     1
 10
0.0
 20
0.0
 30
0.0
  0
VERTEX
  5
C7
330
C6
100
AcDbEntity
  8
_U+30EC_U+30A4_U+30E4_U+30FC 1
 62
   179
420
  2234388
370
     9
100
AcDbVertex
100
AcDb2dVertex
 10
85.80804169974337
 20
-138.5100805209282
 30
0.0
  0
VERTEX
  5
C8
330
C6
100
AcDbEntity
  8
_U+30EC_U+30A4_U+30E4_U+30FC 1
 62
   179
420
  2234388
370
     9
100
AcDbVertex
100
AcDb2dVertex
 10
99.80749828703192
 20
-138.5100805209282
 30
0.0
  0
SEQEND
  5
C9
330
C6
100
AcDbEntity
  8
_U+30EC_U+30A4_U+30E4_U+30FC 1
 62
   179
420
  2234388
370
     9
  0
POLYLINE
  5
CA
330
1F
100
AcDbEntity
  8
_U+30EC_U+30A4_U+30E4_U+30FC 1
 62
   179
420
  2234388
370
     9
100
AcDb2dPolyline
 66
     1
 10
0.0
 20
0.0
 30
0.0
  0
VERTEX
  5
CB
330
CA
100
AcDbEntity
  8
_U+30EC_U+30A4_U+30E4_U+30FC 1
 62
   179
420
  2234388
370
     9
100
AcDbVertex
100
AcDb2dVertex
 10
85.80804169974337
 20
-137.4875541322945
 30
0.0
  0
VERTEX
  5
CC
330
CA
100
AcDbEntity
  8
_U+30EC_U+30A4_U+30E4_U+30FC 1
 62
   179
420
  2234388
370
     9
100
AcDbVertex
100
AcDb2dVertex
 10
85.80804169974337
 20
-139.2094271874196
 30
0.0
  0
SEQEND
  5
CD
330
CA
100
AcDbEntity
  8
_U+30EC_U+30A4_U+30E4_U+30FC 1
 62
   179
420
  2234388
370
     9
  0
POLYLINE
  5
CE
330
1F
100
AcDbEntity
  8
_U+30EC_U+30A4_U+30E4_U+30FC 1
 62
   179
420
  2234388
370
     9
100
AcDb2dPolyline
 66
     1
 10
0.0
 20
0.0
 30
0.0
  0
VERTEX
  5
CF
330
CE
100
AcDbEntity
  8
_U+30EC_U+30A4_U+30E4_U+30FC 1
 62
   179
420
  2234388
370
     9
100
AcDbVertex
100
AcDb2dVertex
 10
99.80749828703192
 20
-137.4875541322945
 30
0.0
  0
VERTEX
  5
D0
330
CE
100
AcDbEntity
  8
_U+30EC_U+30A4_U+30E4_U+30FC 1
 62
   179
420
  2234388
370
     9
100
AcDbVertex
100
AcDb2dVertex
 10
99.80749828703192
 20
-139.2094271874196
 30
0.0
  0
SEQEND
  5
D1
330
CE
100
AcDbEntity
  8
_U+30EC_U+30A4_U+30E4_U+30FC 1
 62
   179
420
  2234388
370
     9
  0
INSERT
  5
D3
330
1F
100
AcDbEntity
  8
_U+30EC_U+30A4_U+30E4_U+30FC 1
100
AcDbBlockReference
  2
block 3
 10
0.0
 20
0.0
 30
0.0
  0
POLYLINE
  5
DB
330
1F
100
AcDbEntity
  8
_U+30EC_U+30A4_U+30E4_U+30FC 1
 62
   179
420
  2234388
370
     9
100
AcDb2dPolyline
 66
     1
 10
0.0
 20
0.0
 30
0.0
  0
VERTEX
  5
DC
330
DB
100
AcDbEntity
  8
_U+30EC_U+30A4_U+30E4_U+30FC 1
 62
   179
420
  2234388
370
     9
100
AcDbVertex
100
AcDb2dVertex
 10
76.00776944976914
 20
-123.1098135803337
 30
0.0
  0
VERTEX
  5
DD
330
DB
100
AcDbEntity
  8
_U+30EC_U+30A4_U+30E4_U+30FC 1
 62
   179
420
  2234388
370
     9
100
AcDbVertex
100
AcDb2dVertex
 10
76.00776944976914
 20
-135.7099069105171
 30
0.0
  0
SEQEND
  5
DE
330
DB
100
AcDbEntity
  8
_U+30EC_U+30A4_U+30E4_U+30FC 1
 62
   179
420
  2234388
370
     9
  0
POLYLINE
  5
DF
330
1F
100
AcDbEntity
  8
_U+30EC_U+30A4_U+30E4_U+30FC 1
 62
   179
420
  2234388
370
     9
100
AcDb2dPolyline
 66
     1
 10
0.0
 20
0.0
 30
0.0
  0
VERTEX
  5
E0
330
DF
100
AcDbEntity
  8
_U+30EC_U+30A4_U+30E4_U+30FC 1
 62
   179
420
  2234388
370
     9
100
AcDbVertex
100
AcDb2dVertex
 10
77.02990775702555
 20
-123.1098135803337
 30
0.0
  0
VERTEX
  5
E1
330
DF
100
AcDbEntity
  8
_U+30EC_U+30A4_U+30E4_U+30FC 1
 62
   179
420
  2234388
370
     9
100
AcDbVertex
100
AcDb2dVertex
 10
75.30807002317552
 20
-123.1098135803337
 30
0.0
  0
SEQEND
  5
E2
330
DF
100
AcDbEntity
  8
_U+30EC_U+30A4_U+30E4_U+30FC 1
 62
   179
420
  2234388
370
     9
  0
POLYLINE
  5
E3
330
1F
100
AcDbEntity
  8
_U+30EC_U+30A4_U+30E4_U+30FC 1
 62
   179
420
  2234388
370
     9
100
AcDb2dPolyline
 66
     1
 10
0.0
 20
0.0
 30
0.0
  0
VERTEX
  5
E4
330
E3
100
AcDbEntity
  8
_U+30EC_U+30A4_U+30E4_U+30FC 1
 62
   179
420
  2234388
370
     9
100
AcDbVertex
100
AcDb2dVertex
 10
84.03000646732704
 20
-135.7099069105171
 30
0.0
  0
VERTEX
  5
E5
330
E3
100
AcDbEntity
  8
_U+30EC_U+30A4_U+30E4_U+30FC 1
 62
   179
420
  2234388
370
     9
100
AcDbVertex
100
AcDb2dVertex
 10
75.30807002317552
 20
-135.7099069105171
 30
0.0
  0
SEQEND
  5
E6
330
E3
100
AcDbEntity
  8
_U+30EC_U+30A4_U+30E4_U+30FC 1
 62
   179
420
  2234388
370
     9
  0
INSERT
  5
E8
330
1F
100
AcDbEntity
  8
_U+30EC_U+30A4_U+30E4_U+30FC 1
100
AcDbBlockReference
  2
block 4
 10
0.0
 20
0.0
 30
0.0
  0
POLYLINE
  5
F1
330
1F
100
AcDbEntity
  8
_U+30EC_U+30A4_U+30E4_U+30FC 1
 62
   179
420
  2234388
370
     9
100
AcDb2dPolyline
 66
     1
 10
0.0
 20
0.0
 30
0.0
  0
VERTEX
  5
F2
330
F1
100
AcDbEntity
  8
_U+30EC_U+30A4_U+30E4_U+30FC 1
 62
   179
420
  2234388
370
     9
100
AcDbVertex
100
AcDb2dVertex
 10
109.6074177592374
 20
-135.7099069105171
 30
0.0
  0
VERTEX
  5
F3
330
F1
100
AcDbEntity
  8
_U+30EC_U+30A4_U+30E4_U+30FC 1
 62
   179
420
  2234388
370
     9
100
AcDbVertex
100
AcDb2dVertex
 10
109.6074177592374
 20
-139.3906138540411
 30
0.0
  0
SEQEND
  5
F4
330
F1
100
AcDbEntity
  8
_U+30EC_U+30A4_U+30E4_U+30FC 1
 62
   179
420
  2234388
370
     9
  0
POLYLINE
  5
F5
330
1F
100
AcDbEntity
  8
_U+30EC_U+30A4_U+30E4_U+30FC 1
 62
   179
420
  2234388
370
     9
100
AcDb2dPolyline
 66
     1
 10
0.0
 20
0.0
 30
0.0
  0
VERTEX
  5
F6
330
F5
100
AcDbEntity
  8
_U+30EC_U+30A4_U+30E4_U+30FC 1
 62
   179
420
  2234388
370
     9
100
AcDbVertex
100
AcDb2dVertex
 10
109.6074177592374
 20
-133.3996005222059
 30
0.0
  0
VERTEX
  5
F7
330
F5
100
AcDbEntity
  8
_U+30EC_U+30A4_U+30E4_U+30FC 1
 62
   179
420
  2234388
370
     9
100
AcDbVertex
100
AcDb2dVertex
 10
109.6074177592374
 20
-135.7099069105171
 30
0.0
  0
SEQEND
  5
F8
330
F5
100
AcDbEntity
  8
_U+30EC_U+30A4_U+30E4_U+30FC 1
 62
   179
420
  2234388
370
     9
  0
POLYLINE
  5
F9
330
1F
100
AcDbEntity
  8
_U+30EC_U+30A4_U+30E4_U+30FC 1
 62
   179
420
  2234388
370
     9
100
AcDb2dPolyline
 66
     1
 10
0.0
 20
0.0
 30
0.0
  0
VERTEX
  5
FA
330
F9
100
AcDbEntity
  8
_U+30EC_U+30A4_U+30E4_U+30FC 1
 62
   179
420
  2234388
370
     9
100
AcDbVertex
100
AcDb2dVertex
 10
101.5858888634921
 20
-135.7099069105171
 30
0.0
  0
VERTEX
  5
FB
330
F9
100
AcDbEntity
  8
_U+30EC_U+30A4_U+30E4_U+30FC 1
 62
   179
420
  2234388
370
     9
100
AcDbVertex
100
AcDb2dVertex
 10
110.3074699635998
 20
-135.7099069105171
 30
0.0
  0
SEQEND
  5
FC
330
F9
100
AcDbEntity
  8
_U+30EC_U+30A4_U+30E4_U+30FC 1
 62
   179
420
  2234388
370
     9
  0
INSERT
  5
FE
330
1F
100
AcDbEntity
  8
_U+30EC_U+30A4_U+30E4_U+30FC 1
100
AcDbBlockReference
  2
block 5
 10
0.0
 20
0.0
 30
0.0
  0
POLYLINE
  5
10D
330
1F
100
AcDbEntity
  8
_U+30EC_U+30A4_U+30E4_U+30FC 1
 62
   179
420
  2234388
370
     9
100
AcDb2dPolyline
 66
     1
 10
0.0
 20
0.0
 30
0.0
  0
VERTEX
  5
10E
330
10D
100
AcDbEntity
  8
_U+30EC_U+30A4_U+30E4_U+30FC 1
 62
   179
420
  2234388
370
     9
100
AcDbVertex
100
AcDb2dVertex
 10
109.6074177592374
 20
-123.9497069134571
 30
0.0
  0
VERTEX
  5
10F
330
10D
100
AcDbEntity
  8
_U+30EC_U+30A4_U+30E4_U+30FC 1
 62
   179
420
  2234388
370
     9
100
AcDbVertex
100
AcDb2dVertex
 10
109.6074177592374
 20
-133.3996005222059
 30
0.0
  0
SEQEND
  5
110
330
10D
100
AcDbEntity
  8
_U+30EC_U+30A4_U+30E4_U+30FC 1
 62
   179
420
  2234388
370
     9
  0
POLYLINE
  5
111
330
1F
100
AcDbEntity
  8
_U+30EC_U+30A4_U+30E4_U+30FC 1
 62
   179
420
  2234388
370
     9
100
AcDb2dPolyline
 66
     1
 10
0.0
 20
0.0
 30
0.0
  0
VERTEX
  5
112
330
111
100
AcDbEntity
  8
_U+30EC_U+30A4_U+30E4_U+30FC 1
 62
   179
420
  2234388
370
     9
100
AcDbVertex
100
AcDb2dVertex
 10
108.5856322297497
 20
-123.9497069134571
 30
0.0
  0
VERTEX
  5
113
330
111
100
AcDbEntity
  8
_U+30EC_U+30A4_U+30E4_U+30FC 1
 62
   179
420
  2234388
370
     9
100
AcDbVertex
100
AcDb2dVertex
 10
110.3074699635998
 20
-123.9497069134571
 30
0.0
  0
SEQEND
  5
114
330
111
100
AcDbEntity
  8
_U+30EC_U+30A4_U+30E4_U+30FC 1
 62
   179
420
  2234388
370
     9
  0
POLYLINE
  5
115
330
1F
100
AcDbEntity
  8
_U+30EC_U+30A4_U+30E4_U+30FC 1
 62
   179
420
  2234388
370
     9
100
AcDb2dPolyline
 66
     1
 10
0.0
 20
0.0
 30
0.0
  0
VERTEX
  5
116
330
115
100
AcDbEntity
  8
_U+30EC_U+30A4_U+30E4_U+30FC 1
 62
   179
420
  2234388
370
     9
100
AcDbVertex
100
AcDb2dVertex
 10
101.5858888634921
 20
-133.3996005222059
 30
0.0
  0
VERTEX
  5
117
330
115
100
AcDbEntity
  8
_U+30EC_U+30A4_U+30E4_U+30FC 1
 62
   179
420
  2234388
370
     9
100
AcDbVertex
100
AcDb2dVertex
 10
110.3074699635998
 20
-133.3996005222059
 30
0.0
  0
SEQEND
  5
118
330
115
100
AcDbEntity
  8
_U+30EC_U+30A4_U+30E4_U+30FC 1
 62
   179
420
  2234388
370
     9
  0
INSERT
  5
11A
330
1F
100
AcDbEntity
  8
_U+30EC_U+30A4_U+30E4_U+30FC 1
100
AcDbBlockReference
  2
block 6
 10
0.0
 20
0.0
 30
0.0
  0
ENDSEC
  0
SECTION
  2
OBJECTS
  0
DICTIONARY
  5
C
330
0
100
AcDbDictionary
281
     1
  3
ACAD_GROUP
350
D
  3
ACAD_LAYOUT
350
1A
  3
ACAD_MATERIAL
350
3B
  3
ACAD_MLEADERSTYLE
350
12C
  3
ACAD_MLINESTYLE
350
17
  3
ACAD_PLOTSETTINGS
350
19
  3
ACAD_PLOTSTYLENAME
350
E
  3
ACAD_TABLESTYLE
350
12B
  3
ACAD_VISUALSTYLE
350
2A
  0
SUN
  5
3F
330
29
100
AcDbSun
 90
        1
290
     0
 63
     7
421
 16777215
 40
1.0
291
     1
 91
  2455826
 92
 54000000
292
     0
 70
     2
 71
   256
280
     1
  0
DICTIONARY
  5
D
102
{ACAD_REACTORS
330
C
102
}
330
C
100
AcDbDictionary
281
     1
  0
DICTIONARY
  5
1A
102
{ACAD_REACTORS
330
C
102
}
330
C
100
AcDbDictionary
281
     1
  3
Layout1
350
1E
  3
Layout2
350
26
  3
Model
350
22
  0
DICTIONARY
  5
3B
102
{ACAD_REACTORS
330
C
102
}
330
C
100
AcDbDictionary
281
     1
  3
ByBlock
350
3D
  3
ByLayer
350
3C
  3
Global
350
3E
  0
DICTIONARY
  5
12C
102
{ACAD_REACTORS
330
C
102
}
330
C
100
AcDbDictionary
281
     1
  0
DICTIONARY
  5
17
102
{ACAD_REACTORS
330
C
102
}
330
C
100
AcDbDictionary
281
     1
  3
Standard
350
18
  0
DICTIONARY
  5
19
102
{ACAD_REACTORS
330
C
102
}
330
C
100
AcDbDictionary
281
     1
  0
ACDBDICTIONARYWDFLT
  5
E
102
{ACAD_REACTORS
330
C
102
}
330
C
100
AcDbDictionary
281
     1
  3
Normal
350
F
100
AcDbDictionaryWithDefault
340
F
  0
DICTIONARY
  5
12B
102
{ACAD_REACTORS
330
C
102
}
330
C
100
AcDbDictionary
281
     1
  0
DICTIONARY
  5
2A
102
{ACAD_REACTORS
330
C
102
}
330
C
100
AcDbDictionary
281
     1
  3
2dWireframe
350
2F
  3
3D Hidden
350
31
  3
3dWireframe
350
30
  3
Basic
350
32
  3
Brighten
350
36
  3
ColorChange
350
3A
  3
Conceptual
350
34
  3
Dim
350
35
  3
Facepattern
350
39
  3
Flat
350
2B
  3
FlatWithEdges
350
2C
  3
Gouraud
350
2D
  3
GouraudWithEdges
350
2E
  3
Linepattern
350
38
  3
Realistic
350
33
  3
Thicken
350
37
  0
LAYOUT
  5
1E
102
{ACAD_REACTORS
330
1A
102
}
330
1A
100
AcDbPlotSettings
  1

  2
none_device
  4

  6

 40
0.0
 41
0.0
 42
0.0
 43
0.0
 44
0.0
 45
0.0
 46
0.0
 47
0.0
 48
0.0
 49
0.0
140
0.0
141
0.0
142
1.0
143
1.0
 70
   688
 72
     0
 73
     0
 74
     5
  7

 75
    16
 76
     0
 77
     2
 78
   300
147
1.0
148
0.0
149
0.0
100
AcDbLayout
  1
Layout1
 70
     1
 71
     1
 10
0.0
 20
0.0
 11
12.0
 21
9.0
 12
0.0
 22
0.0
 32
0.0
 14
1.000000000000000E+20
 24
1.000000000000000E+20
 34
1.000000000000000E+20
 15
-1.000000000000000E+20
 25
-1.000000000000000E+20
 35
-1.000000000000000E+20
146
0.0
 13
0.0
 23
0.0
 33
0.0
 16
1.0
 26
0.0
 36
0.0
 17
0.0
 27
1.0
 37
0.0
 76
     0
330
1B
  0
LAYOUT
  5
26
102
{ACAD_REACTORS
330
1A
102
}
330
1A
100
AcDbPlotSettings
  1

  2
none_device
  4

  6

 40
0.0
 41
0.0
 42
0.0
 43
0.0
 44
0.0
 45
0.0
 46
0.0
 47
0.0
 48
0.0
 49
0.0
140
0.0
141
0.0
142
1.0
143
1.0
 70
   688
 72
     0
 73
     0
 74
     5
  7

 75
    16
 76
     0
 77
     2
 78
   300
147
1.0
148
0.0
149
0.0
100
AcDbLayout
  1
Layout2
 70
     1
 71
     2
 10
0.0
 20
0.0
 11
0.0
 21
0.0
 12
0.0
 22
0.0
 32
0.0
 14
0.0
 24
0.0
 34
0.0
 15
0.0
 25
0.0
 35
0.0
146
0.0
 13
0.0
 23
0.0
 33
0.0
 16
1.0
 26
0.0
 36
0.0
 17
0.0
 27
1.0
 37
0.0
 76
     0
330
23
  0
LAYOUT
  5
22
102
{ACAD_REACTORS
330
1A
102
}
330
1A
100
AcDbPlotSettings
  1

  2
none_device
  4

  6

 40
0.0
 41
0.0
 42
0.0
 43
0.0
 44
0.0
 45
0.0
 46
0.0
 47
0.0
 48
0.0
 49
0.0
140
0.0
141
0.0
142
1.0
143
1.0
 70
  1712
 72
     0
 73
     0
 74
     0
  7

 75
     0
 76
     0
 77
     2
 78
   300
147
1.0
148
0.0
149
0.0
100
AcDbLayout
  1
Model
 70
     1
 71
     0
 10
0.0
 20
0.0
 11
12.0
 21
9.0
 12
0.0
 22
0.0
 32
0.0
 14
1.000000000000000E+20
 24
1.000000000000000E+20
 34
1.000000000000000E+20
 15
-1.000000000000000E+20
 25
-1.000000000000000E+20
 35
-1.000000000000000E+20
146
0.0
 13
0.0
 23
0.0
 33
0.0
 16
1.0
 26
0.0
 36
0.0
 17
0.0
 27
1.0
 37
0.0
 76
     0
330
1F
331
29
  0
MATERIAL
  5
3D
102
{ACAD_REACTORS
330
3B
102
}
330
3B
100
AcDbMaterial
  1
ByBlock
 72
     1
 94
      127
  0
MATERIAL
  5
3C
102
{ACAD_REACTORS
330
3B
102
}
330
3B
100
AcDbMaterial
  1
ByLayer
 72
     1
 94
      127
  0
MATERIAL
  5
3E
102
{ACAD_REACTORS
330
3B
102
}
330
3B
100
AcDbMaterial
  1
Global
 72
     1
 94
      127
  0
MLINESTYLE
  5
18
102
{ACAD_REACTORS
330
17
102
}
330
17
100
AcDbMlineStyle
  2
Standard
 70
     0
  3

 62
   256
 51
90.0
 52
90.0
 71
     2
 49
0.5
 62
   256
  6
BYLAYER
 49
-0.5
 62
   256
  6
BYLAYER
  0
ACDBPLACEHOLDER
  5
F
102
{ACAD_REACTORS
330
E
102
}
330
E
  0
VISUALSTYLE
  5
2F
102
{ACAD_REACTORS
330
2A
102
}
330
2A
100
AcDbVisualStyle
  2
2dWireframe
 70
     4
177
     2
291
     0
 71
     0
176
     1
 72
     2
176
     1
 73
     0
176
     1
 90
        0
176
     1
 40
-0.6
176
     1
 41
-30.0
176
     1
 62
     5
 63
     7
421
 16777215
176
     1
 74
     1
176
     1
 91
        4
176
     1
 64
     7
176
     1
 65
   257
176
     1
 75
     1
176
     1
175
     1
176
     1
 42
1.0
176
     1
 92
        0
176
     1
 66
   257
176
     1
 43
1.0
176
     1
 76
     1
176
     1
 77
     6
176
     1
 78
     2
176
     1
 67
     7
176
     1
 79
     5
176
     1
170
     0
176
     1
171
     0
176
     1
290
     0
176
     1
 93
        1
176
     1
 44
0.0
176
     1
173
     0
176
     1
  0
VISUALSTYLE
  5
31
102
{ACAD_REACTORS
330
2A
102
}
330
2A
100
AcDbVisualStyle
  2
3D Hidden
 70
     6
177
     2
291
     0
 71
     1
176
     1
 72
     2
176
     1
 73
     2
176
     1
 90
        0
176
     1
 40
-0.6
176
     1
 41
-30.0
176
     1
 62
     5
 63
     7
421
 16777215
176
     1
 74
     2
176
     1
 91
        2
176
     1
 64
     7
176
     1
 65
   257
176
     1
 75
     2
176
     1
175
     1
176
     1
 42
40.0
176
     1
 92
        0
176
     1
 66
   257
176
     1
 43
1.0
176
     1
 76
     1
176
     1
 77
     6
176
     1
 78
     2
176
     1
 67
     7
176
     1
 79
     3
176
     1
170
     0
176
     1
171
     0
176
     1
290
     0
176
     1
 93
        1
176
     1
 44
0.0
176
     1
173
     0
176
     1
  0
VISUALSTYLE
  5
30
102
{ACAD_REACTORS
330
2A
102
}
330
2A
100
AcDbVisualStyle
  2
3dWireframe
 70
     5
177
     2
291
     0
 71
     0
176
     1
 72
     2
176
     1
 73
     0
176
     1
 90
        0
176
     1
 40
-0.6
176
     1
 41
-30.0
176
     1
 62
     5
 63
     7
421
 16777215
176
     1
 74
     1
176
     1
 91
        4
176
     1
 64
     7
176
     1
 65
   257
176
     1
 75
     1
176
     1
175
     1
176
     1
 42
1.0
176
     1
 92
        0
176
     1
 66
   257
176
     1
 43
1.0
176
     1
 76
     1
176
     1
 77
     6
176
     1
 78
     2
176
     1
 67
     7
176
     1
 79
     5
176
     1
170
     0
176
     1
171
     0
176
     1
290
     0
176
     1
 93
        1
176
     1
 44
0.0
176
     1
173
     0
176
     1
  0
VISUALSTYLE
  5
32
102
{ACAD_REACTORS
330
2A
102
}
330
2A
100
AcDbVisualStyle
  2
Basic
 70
     7
177
     2
291
     1
 71
     1
176
     1
 72
     0
176
     1
 73
     1
176
     1
 90
        0
176
     1
 40
-0.6
176
     1
 41
-30.0
176
     1
 62
     5
 63
     7
421
 16777215
176
     1
 74
     0
176
     1
 91
        4
176
     1
 64
     7
176
     1
 65
   257
176
     1
 75
     1
176
     1
175
     1
176
     1
 42
1.0
176
     1
 92
        8
176
     1
 66
     7
176
     1
 43
1.0
176
     1
 76
     1
176
     1
 77
     6
176
     1
 78
     2
176
     1
 67
     7
176
     1
 79
     5
176
     1
170
     0
176
     1
171
     0
176
     1
290
     0
176
     1
 93
        1
176
     1
 44
0.0
176
     1
173
     0
176
     1
  0
VISUALSTYLE
  5
36
102
{ACAD_REACTORS
330
2A
102
}
330
2A
100
AcDbVisualStyle
  2
Brighten
 70
    12
177
     2
291
     1
 71
     2
176
     1
 72
     2
176
     1
 73
     0
176
     1
 90
        0
176
     1
 40
-0.6
176
     1
 41
-30.0
176
     1
 62
     5
 63
     7
421
 16777215
176
     1
 74
     1
176
     1
 91
        4
176
     1
 64
     7
176
     1
 65
   257
176
     1
 75
     1
176
     1
175
     1
176
     1
 42
1.0
176
     1
 92
        8
176
     1
 66
     7
176
     1
 43
1.0
176
     1
 76
     1
176
     1
 77
     6
176
     1
 78
     2
176
     1
 67
     7
176
     1
 79
     5
176
     1
170
     0
176
     1
171
     0
176
     1
290
     0
176
     1
 93
        1
176
     1
 44
50.0
176
     1
173
     0
176
     1
  0
VISUALSTYLE
  5
3A
102
{ACAD_REACTORS
330
2A
102
}
330
2A
100
AcDbVisualStyle
  2
ColorChange
 70
    16
177
     2
291
     1
 71
     2
176
     1
 72
     2
176
     1
 73
     3
176
     1
 90
        0
176
     1
 40
-0.6
176
     1
 41
-30.0
176
     1
 62
     5
 63
     8
421
  8421504
176
     1
 74
     1
176
     1
 91
        4
176
     1
 64
     7
176
     1
 65
   257
176
     1
 75
     1
176
     1
175
     1
176
     1
 42
1.0
176
     1
 92
        8
176
     1
 66
     8
424
  8421504
176
     1
 43
1.0
176
     1
 76
     1
176
     1
 77
     6
176
     1
 78
     2
176
     1
 67
     7
176
     1
 79
     5
176
     1
170
     0
176
     1
171
     0
176
     1
290
     0
176
     1
 93
        1
176
     1
 44
0.0
176
     1
173
     0
176
     1
  0
VISUALSTYLE
  5
34
102
{ACAD_REACTORS
330
2A
102
}
330
2A
100
AcDbVisualStyle
  2
Conceptual
 70
     9
177
     2
291
     0
 71
     3
176
     1
 72
     2
176
     1
 73
     0
176
     1
 90
        0
176
     1
 40
-0.6
176
     1
 41
-30.0
176
     1
 62
     5
 63
     7
421
 16777215
176
     1
 74
     2
176
     1
 91
        2
176
     1
 64
     7
176
     1
 65
   257
176
     1
 75
     1
176
     1
175
     1
176
     1
 42
40.0
176
     1
 92
        8
176
     1
 66
     7
176
     1
 43
1.0
176
     1
 76
     1
176
     1
 77
     6
176
     1
 78
     2
176
     1
 67
     7
176
     1
 79
     3
176
     1
170
     0
176
     1
171
     0
176
     1
290
     0
176
     1
 93
        1
176
     1
 44
0.0
176
     1
173
     0
176
     1
  0
VISUALSTYLE
  5
35
102
{ACAD_REACTORS
330
2A
102
}
330
2A
100
AcDbVisualStyle
  2
Dim
 70
    11
177
     2
291
     1
 71
     2
176
     1
 72
     2
176
     1
 73
     0
176
     1
 90
        0
176
     1
 40
-0.6
176
     1
 41
-30.0
176
     1
 62
     5
 63
     7
421
 16777215
176
     1
 74
     1
176
     1
 91
        4
176
     1
 64
     7
176
     1
 65
   257
176
     1
 75
     1
176
     1
175
     1
176
     1
 42
1.0
176
     1
 92
        8
176
     1
 66
     7
176
     1
 43
1.0
176
     1
 76
     1
176
     1
 77
     6
176
     1
 78
     2
176
     1
 67
     7
176
     1
 79
     5
176
     1
170
     0
176
     1
171
     0
176
     1
290
     0
176
     1
 93
        1
176
     1
 44
-50.0
176
     1
173
     0
176
     1
  0
VISUALSTYLE
  5
39
102
{ACAD_REACTORS
330
2A
102
}
330
2A
100
AcDbVisualStyle
  2
Facepattern
 70
    15
177
     2
291
     1
 71
     2
176
     1
 72
     2
176
     1
 73
     0
176
     1
 90
        0
176
     1
 40
-0.6
176
     1
 41
-30.0
176
     1
 62
     5
 63
     7
421
 16777215
176
     1
 74
     1
176
     1
 91
        4
176
     1
 64
     7
176
     1
 65
   257
176
     1
 75
     1
176
     1
175
     1
176
     1
 42
1.0
176
     1
 92
        8
176
     1
 66
     7
176
     1
 43
1.0
176
     1
 76
     1
176
     1
 77
     6
176
     1
 78
     2
176
     1
 67
     7
176
     1
 79
     5
176
     1
170
     0
176
     1
171
     0
176
     1
290
     0
176
     1
 93
        1
176
     1
 44
0.0
176
     1
173
     0
176
     1
  0
VISUALSTYLE
  5
2B
102
{ACAD_REACTORS
330
2A
102
}
330
2A
100
AcDbVisualStyle
  2
Flat
 70
     0
177
     2
291
     1
 71
     2
176
     1
 72
     1
176
     1
 73
     1
176
     1
 90
        2
176
     1
 40
-0.6
176
     1
 41
30.0
176
     1
 62
     5
 63
     7
421
 16777215
176
     1
 74
     0
176
     1
 91
        4
176
     1
 64
     7
176
     1
 65
   257
176
     1
 75
     1
176
     1
175
     1
176
     1
 42
1.0
176
     1
 92
        8
176
     1
 66
     7
176
     1
 43
1.0
176
     1
 76
     1
176
     1
 77
     6
176
     1
 78
     2
176
     1
 67
     7
176
     1
 79
     5
176
     1
170
     0
176
     1
171
     0
176
     1
290
     0
176
     1
 93
       13
176
     1
 44
0.0
176
     1
173
     0
176
     1
  0
VISUALSTYLE
  5
2C
102
{ACAD_REACTORS
330
2A
102
}
330
2A
100
AcDbVisualStyle
  2
FlatWithEdges
 70
     1
177
     2
291
     1
 71
     2
176
     1
 72
     1
176
     1
 73
     1
176
     1
 90
        2
176
     1
 40
-0.6
176
     1
 41
30.0
176
     1
 62
     5
 63
     7
421
 16777215
176
     1
 74
     1
176
     1
 91
        4
176
     1
 64
     7
176
     1
 65
   257
176
     1
 75
     1
176
     1
175
     1
176
     1
 42
1.0
176
     1
 92
        0
176
     1
 66
   257
176
     1
 43
1.0
176
     1
 76
     1
176
     1
 77
     6
176
     1
 78
     2
176
     1
 67
     7
176
     1
 79
     5
176
     1
170
     0
176
     1
171
     0
176
     1
290
     0
176
     1
 93
       13
176
     1
 44
0.0
176
     1
173
     0
176
     1
  0
VISUALSTYLE
  5
2D
102
{ACAD_REACTORS
330
2A
102
}
330
2A
100
AcDbVisualStyle
  2
Gouraud
 70
     2
177
     2
291
     1
 71
     2
176
     1
 72
     2
176
     1
 73
     1
176
     1
 90
        2
176
     1
 40
-0.6
176
     1
 41
30.0
176
     1
 62
     5
 63
     7
421
 16777215
176
     1
 74
     0
176
     1
 91
        4
176
     1
 64
     7
176
     1
 65
   257
176
     1
 75
     1
176
     1
175
     1
176
     1
 42
1.0
176
     1
 92
        0
176
     1
 66
     7
176
     1
 43
1.0
176
     1
 76
     1
176
     1
 77
     6
176
     1
 78
     2
176
     1
 67
     7
176
     1
 79
     5
176
     1
170
     0
176
     1
171
     0
176
     1
290
     0
176
     1
 93
       13
176
     1
 44
0.0
176
     1
173
     0
176
     1
  0
VISUALSTYLE
  5
2E
102
{ACAD_REACTORS
330
2A
102
}
330
2A
100
AcDbVisualStyle
  2
GouraudWithEdges
 70
     3
177
     2
291
     1
 71
     2
176
     1
 72
     2
176
     1
 73
     1
176
     1
 90
        2
176
     1
 40
-0.6
176
     1
 41
30.0
176
     1
 62
     5
 63
     7
421
 16777215
176
     1
 74
     1
176
     1
 91
        4
176
     1
 64
     7
176
     1
 65
   257
176
     1
 75
     1
176
     1
175
     1
176
     1
 42
1.0
176
     1
 92
        0
176
     1
 66
   257
176
     1
 43
1.0
176
     1
 76
     1
176
     1
 77
     6
176
     1
 78
     2
176
     1
 67
     7
176
     1
 79
     5
176
     1
170
     0
176
     1
171
     0
176
     1
290
     0
176
     1
 93
       13
176
     1
 44
0.0
176
     1
173
     0
176
     1
  0
VISUALSTYLE
  5
38
102
{ACAD_REACTORS
330
2A
102
}
330
2A
100
AcDbVisualStyle
  2
Linepattern
 70
    14
177
     2
291
     1
 71
     2
176
     1
 72
     2
176
     1
 73
     0
176
     1
 90
        0
176
     1
 40
-0.6
176
     1
 41
-30.0
176
     1
 62
     5
 63
     7
421
 16777215
176
     1
 74
     1
176
     1
 91
        4
176
     1
 64
     7
176
     1
 65
   257
176
     1
 75
     7
176
     1
175
     7
176
     1
 42
1.0
176
     1
 92
        8
176
     1
 66
     7
176
     1
 43
1.0
176
     1
 76
     1
176
     1
 77
     6
176
     1
 78
     2
176
     1
 67
     7
176
     1
 79
     5
176
     1
170
     0
176
     1
171
     0
176
     1
290
     0
176
     1
 93
        1
176
     1
 44
0.0
176
     1
173
     0
176
     1
  0
VISUALSTYLE
  5
33
102
{ACAD_REACTORS
330
2A
102
}
330
2A
100
AcDbVisualStyle
  2
Realistic
 70
     8
177
     2
291
     0
 71
     2
176
     1
 72
     2
176
     1
 73
     0
176
     1
 90
        0
176
     1
 40
-0.6
176
     1
 41
-30.0
176
     1
 62
     5
 63
     7
421
 16777215
176
     1
 74
     1
176
     1
 91
        0
176
     1
 64
     7
176
     1
 65
   257
176
     1
 75
     1
176
     1
175
     1
176
     1
 42
1.0
176
     1
 92
        8
176
     1
 66
     8
424
  7895160
176
     1
 43
1.0
176
     1
 76
     1
176
     1
 77
     6
176
     1
 78
     2
176
     1
 67
     7
176
     1
 79
     5
176
     1
170
     0
176
     1
171
     0
176
     1
290
     0
176
     1
 93
       13
176
     1
 44
0.0
176
     1
173
     0
176
     1
  0
VISUALSTYLE
  5
37
102
{ACAD_REACTORS
330
2A
102
}
330
2A
100
AcDbVisualStyle
  2
Thicken
 70
    13
177
     2
291
     1
 71
     2
176
     1
 72
     2
176
     1
 73
     0
176
     1
 90
        0
176
     1
 40
-0.6
176
     1
 41
-30.0
176
     1
 62
     5
 63
     7
421
 16777215
176
     1
 74
     1
176
     1
 91
        4
176
     1
 64
     7
176
     1
 65
   257
176
     1
 75
     1
176
     1
175
     1
176
     1
 42
1.0
176
     1
 92
       12
176
     1
 66
     7
176
     1
 43
1.0
176
     1
 76
     1
176
     1
 77
     6
176
     1
 78
     2
176
     1
 67
     7
176
     1
 79
     5
176
     1
170
     0
176
     1
171
     0
176
     1
290
     0
176
     1
 93
        1
176
     1
 44
0.0
176
     1
173
     0
176
     1
  0
ENDSEC
  0
EOF
