  0
SECTION
  2
HEADER
  9
$ACADVER
  1
AC1024
  9
$ACADMAINTVER
 70
     6
  9
$DWGCODEPAGE
  3
UNDEFINED
  9
$INSBASE
 10
0.0
 20
0.0
 30
0.0
  9
$EXTMIN
 10
1.000000000000000E+20
 20
1.000000000000000E+20
 30
1.000000000000000E+20
  9
$EXTMAX
 10
-1.000000000000000E+20
 20
-1.000000000000000E+20
 30
-1.000000000000000E+20
  9
$LIMMIN
 10
0.0
 20
0.0
  9
$LIMMAX
 10
12.0
 20
9.0
  9
$ORTHOMODE
 70
     0
  9
$REGENMODE
 70
     1
  9
$FILLMODE
 70
     1
  9
$QTEXTMODE
 70
     0
  9
$MIRRTEXT
 70
     1
  9
$LTSCALE
 40
1.0
  9
$ATTMODE
 70
     1
  9
$TEXTSIZE
 40
0.2
  9
$TRACEWID
 40
0.05
  9
$TEXTSTYLE
  7
Standard
  9
$CLAYER
  8
0
  9
$CELTYPE
  6
ByLayer
  9
$CECOLOR
 62
   256
  9
$CELTSCALE
 40
1.0
  9
$DISPSILH
 70
     0
  9
$DIMSCALE
 40
1.0
  9
$DIMASZ
 40
0.18
  9
$DIMEXO
 40
0.0625
  9
$DIMDLI
 40
0.38
  9
$DIMRND
 40
0.0
  9
$DIMDLE
 40
0.0
  9
$DIMEXE
 40
0.18
  9
$DIMTP
 40
0.0
  9
$DIMTM
 40
0.0
  9
$DIMTXT
 40
0.18
  9
$DIMCEN
 40
0.09
  9
$DIMTSZ
 40
0.0
  9
$DIMTOL
 70
     0
  9
$DIMLIM
 70
     0
  9
$DIMTIH
 70
     1
  9
$DIMTOH
 70
     1
  9
$DIMSE1
 70
     0
  9
$DIMSE2
 70
     0
  9
$DIMTAD
 70
     0
  9
$DIMZIN
 70
     0
  9
$DIMBLK
  1

  9
$DIMASO
 70
     1
  9
$DIMSHO
 70
     1
  9
$DIMPOST
  1

  9
$DIMAPOST
  1

  9
$DIMALT
 70
     0
  9
$DIMALTD
 70
     2
  9
$DIMALTF
 40
25.4
  9
$DIMLFAC
 40
1.0
  9
$DIMTOFL
 70
     0
  9
$DIMTVP
 40
0.0
  9
$DIMTIX
 70
     0
  9
$DIMSOXD
 70
     0
  9
$DIMSAH
 70
     0
  9
$DIMBLK1
  1

  9
$DIMBLK2
  1

  9
$DIMSTYLE
  2
Standard
  9
$DIMCLRD
 70
     0
  9
$DIMCLRE
 70
     0
  9
$DIMCLRT
 70
     0
  9
$DIMTFAC
 40
1.0
  9
$DIMGAP
 40
0.09
  9
$DIMJUST
 70
     0
  9
$DIMSD1
 70
     0
  9
$DIMSD2
 70
     0
  9
$DIMTOLJ
 70
     1
  9
$DIMTZIN
 70
     0
  9
$DIMALTZ
 70
     0
  9
$DIMALTTZ
 70
     0
  9
$DIMUPT
 70
     0
  9
$DIMDEC
 70
     4
  9
$DIMTDEC
 70
     4
  9
$DIMALTU
 70
     2
  9
$DIMALTTD
 70
     2
  9
$DIMTXSTY
  7
Standard
  9
$DIMAUNIT
 70
     0
  9
$DIMADEC
 70
     0
  9
$DIMALTRND
 40
0.0
  9
$DIMAZIN
 70
     0
  9
$DIMDSEP
 70
    46
  9
$DIMATFIT
 70
     3
  9
$DIMFRAC
 70
     0
  9
$DIMLDRBLK
  1

  9
$DIMLUNIT
 70
     2
  9
$DIMLWD
 70
    -2
  9
$DIMLWE
 70
    -2
  9
$DIMTMOVE
 70
     0
  9
$DIMFXL
 40
1.0
  9
$DIMFXLON
 70
     0
  9
$DIMJOGANG
 40
0.7853981633974483
  9
$DIMTFILL
 70
     0
  9
$DIMTFILLCLR
 70
     0
  9
$DIMARCSYM
 70
     0
  9
$DIMLTYPE
  6

  9
$DIMLTEX1
  6

  9
$DIMLTEX2
  6

  9
$DIMTXTDIRECTION
 70
     0
  9
$LUNITS
 70
     2
  9
$LUPREC
 70
     4
  9
$SKETCHINC
 40
0.1
  9
$FILLETRAD
 40
0.5
  9
$AUNITS
 70
     0
  9
$AUPREC
 70
     0
  9
$MENU
  1
.
  9
$ELEVATION
 40
0.0
  9
$PELEVATION
 40
0.0
  9
$THICKNESS
 40
0.0
  9
$LIMCHECK
 70
     0
  9
$CHAMFERA
 40
0.5
  9
$CHAMFERB
 40
0.5
  9
$CHAMFERC
 40
1.0
  9
$CHAMFERD
 40
0.0
  9
$SKPOLY
 70
     0
  9
$TDCREATE
 40
2457917.626678241
  9
$TDUCREATE
 40
2457917.251678241
  9
$TDUPDATE
 40
2457917.626678241
  9
$TDUUPDATE
 40
2457917.251678241
  9
$TDINDWG
 40
0.0000000116
  9
$TDUSRTIMER
 40
0.0000000116
  9
$USRTIMER
 70
     1
  9
$ANGBASE
 50
0.0
  9
$ANGDIR
 70
     0
  9
$PDMODE
 70
     0
  9
$PDSIZE
 40
0.0
  9
$PLINEWID
 40
0.0
  9
$SPLFRAME
 70
     0
  9
$SPLINETYPE
 70
     6
  9
$SPLINESEGS
 70
     8
  9
$HANDSEED
  5
F7
  9
$SURFTAB1
 70
     6
  9
$SURFTAB2
 70
     6
  9
$SURFTYPE
 70
     6
  9
$SURFU
 70
     6
  9
$SURFV
 70
     6
  9
$UCSBASE
  2

  9
$UCSNAME
  2

  9
$UCSORG
 10
0.0
 20
0.0
 30
0.0
  9
$UCSXDIR
 10
1.0
 20
0.0
 30
0.0
  9
$UCSYDIR
 10
0.0
 20
1.0
 30
0.0
  9
$UCSORTHOREF
  2

  9
$UCSORTHOVIEW
 70
     0
  9
$UCSORGTOP
 10
0.0
 20
0.0
 30
0.0
  9
$UCSORGBOTTOM
 10
0.0
 20
0.0
 30
0.0
  9
$UCSORGLEFT
 10
0.0
 20
0.0
 30
0.0
  9
$UCSORGRIGHT
 10
0.0
 20
0.0
 30
0.0
  9
$UCSORGFRONT
 10
0.0
 20
0.0
 30
0.0
  9
$UCSORGBACK
 10
0.0
 20
0.0
 30
0.0
  9
$PUCSBASE
  2

  9
$PUCSNAME
  2

  9
$PUCSORG
 10
0.0
 20
0.0
 30
0.0
  9
$PUCSXDIR
 10
1.0
 20
0.0
 30
0.0
  9
$PUCSYDIR
 10
0.0
 20
1.0
 30
0.0
  9
$PUCSORTHOREF
  2

  9
$PUCSORTHOVIEW
 70
     0
  9
$PUCSORGTOP
 10
0.0
 20
0.0
 30
0.0
  9
$PUCSORGBOTTOM
 10
0.0
 20
0.0
 30
0.0
  9
$PUCSORGLEFT
 10
0.0
 20
0.0
 30
0.0
  9
$PUCSORGRIGHT
 10
0.0
 20
0.0
 30
0.0
  9
$PUCSORGFRONT
 10
0.0
 20
0.0
 30
0.0
  9
$PUCSORGBACK
 10
0.0
 20
0.0
 30
0.0
  9
$USERI1
 70
     0
  9
$USERI2
 70
     0
  9
$USERI3
 70
     0
  9
$USERI4
 70
     0
  9
$USERI5
 70
     0
  9
$USERR1
 40
0.0
  9
$USERR2
 40
0.0
  9
$USERR3
 40
0.0
  9
$USERR4
 40
0.0
  9
$USERR5
 40
0.0
  9
$WORLDVIEW
 70
     1
  9
$SHADEDGE
 70
     3
  9
$SHADEDIF
 70
    70
  9
$TILEMODE
 70
     1
  9
$MAXACTVP
 70
    64
  9
$PINSBASE
 10
0.0
 20
0.0
 30
0.0
  9
$PLIMCHECK
 70
     0
  9
$PEXTMIN
 10
1.000000000000000E+20
 20
1.000000000000000E+20
 30
1.000000000000000E+20
  9
$PEXTMAX
 10
-1.000000000000000E+20
 20
-1.000000000000000E+20
 30
-1.000000000000000E+20
  9
$PLIMMIN
 10
0.0
 20
0.0
  9
$PLIMMAX
 10
12.0
 20
9.0
  9
$UNITMODE
 70
     0
  9
$VISRETAIN
 70
     1
  9
$PLINEGEN
 70
     0
  9
$PSLTSCALE
 70
     1
  9
$TREEDEPTH
 70
  3020
  9
$CMLSTYLE
  2
Standard
  9
$CMLJUST
 70
     0
  9
$CMLSCALE
 40
1.0
  9
$PROXYGRAPHICS
 70
     1
  9
$MEASUREMENT
 70
     0
  9
$CELWEIGHT
370
    -1
  9
$ENDCAPS
280
     0
  9
$JOINSTYLE
280
     0
  9
$LWDISPLAY
290
     1
  9
$INSUNITS
 70
     1
  9
$HYPERLINKBASE
  1

  9
$STYLESHEET
  1

  9
$XEDIT
290
     1
  9
$CEPSNTYPE
380
     0
  9
$PSTYLEMODE
290
     1
  9
$FINGERPRINTGUID
  2
{C9D896FC-EA73-B0BA-4B50-DBF27D9CD0E8}
  9
$VERSIONGUID
  2
{FAEB1C32-E019-11D5-929B-00C0DF256EC4}
  9
$EXTNAMES
290
     1
  9
$PSVPSCALE
 40
0.0
  9
$OLESTARTUP
290
     0
  9
$SORTENTS
280
   127
  9
$INDEXCTL
280
     0
  9
$HIDETEXT
280
     1
  9
$XCLIPFRAME
280
     2
  9
$HALOGAP
280
     0
  9
$OBSCOLOR
 70
   257
  9
$OBSLTYPE
280
     0
  9
$INTERSECTIONDISPLAY
280
     0
  9
$INTERSECTIONCOLOR
 70
   257
  9
$DIMASSOC
280
     2
  9
$PROJECTNAME
  1

  9
$CAMERADISPLAY
290
     0
  9
$LENSLENGTH
 40
50.0
  9
$CAMERAHEIGHT
 40
0.0
  9
$STEPSPERSEC
 40
2.0
  9
$STEPSIZE
 40
6.0
  9
$3DDWFPREC
 40
2.0
  9
$PSOLWIDTH
 40
0.25
  9
$PSOLHEIGHT
 40
4.0
  9
$LOFTANG1
 40
1.570796326794897
  9
$LOFTANG2
 40
1.570796326794897
  9
$LOFTMAG1
 40
0.0
  9
$LOFTMAG2
 40
0.0
  9
$LOFTPARAM
 70
     7
  9
$LOFTNORMALS
280
     1
  9
$LATITUDE
 40
37.795
  9
$LONGITUDE
 40
-122.394
  9
$NORTHDIRECTION
 40
0.0
  9
$TIMEZONE
 70
 -8000
  9
$LIGHTGLYPHDISPLAY
280
     1
  9
$TILEMODELIGHTSYNCH
280
     1
  9
$CMATERIAL
347
3C
  9
$SOLIDHIST
280
     1
  9
$SHOWHIST
280
     1
  9
$DWFFRAME
280
     2
  9
$DGNFRAME
280
     2
  9
$REALWORLDSCALE
290
     1
  9
$INTERFERECOLOR
 62
   256
  9
$CSHADOW
280
     0
  9
$SHADOWPLANELOCATION
 40
0.0
  0
ENDSEC
  0
SECTION
  2
CLASSES
  0
CLASS
  1
ACDBDICTIONARYWDFLT
  2
AcDbDictionaryWithDefault
  3
ObjectDBX Classes
 90
        0
 91
        4
280
     0
281
     0
  0
CLASS
  1
VISUALSTYLE
  2
AcDbVisualStyle
  3
ObjectDBX Classes
 90
     4095
 91
        4
280
     0
281
     0
  0
CLASS
  1
MATERIAL
  2
AcDbMaterial
  3
ObjectDBX Classes
 90
     1153
 91
        4
280
     0
281
     0
  0
CLASS
  1
SUN
  2
AcDbSun
  3
SCENEOE
 90
     1024
 91
        4
280
     0
281
     0
  0
ENDSEC
  0
SECTION
  2
TABLES
  0
TABLE
  2
VPORT
  5
8
330
0
100
AcDbSymbolTable
 70
     1
  0
VPORT
  5
29
330
8
100
AcDbSymbolTableRecord
100
AcDbViewportTableRecord
  2
*Active
 70
     0
 10
0.0
 20
0.0
 11
1.0
 21
1.0
 12
0.0
 22
0.0
 13
0.0
 23
0.0
 14
0.5
 24
0.5
 15
0.5
 25
0.5
 16
0.0
 26
0.0
 36
1.0
 17
91.00082462281999
 27
-128.4993055234307
 37
0.0
 40
256.9986110468615
 41
0.7081814508812795
 42
50.0
 43
0.0
 44
0.0
 50
0.0
 51
0.0
 71
     0
 72
   100
 73
     1
 74
     3
 75
     0
 76
     0
 77
     0
 78
     0
281
     0
 65
     1
110
0.0
120
0.0
130
0.0
111
1.0
121
0.0
131
0.0
112
0.0
122
1.0
132
0.0
 79
     0
146
0.0
 60
     3
 61
     5
292
     1
282
     1
141
0.0
142
0.0
 63
   250
361
3F
  0
ENDTAB
  0
TABLE
  2
LTYPE
  5
5
330
0
100
AcDbSymbolTable
 70
     1
  0
LTYPE
  5
14
330
5
100
AcDbSymbolTableRecord
100
AcDbLinetypeTableRecord
  2
ByBlock
 70
     0
  3

 72
    65
 73
     0
 40
0.0
  0
LTYPE
  5
15
330
5
100
AcDbSymbolTableRecord
100
AcDbLinetypeTableRecord
  2
ByLayer
 70
     0
  3

 72
    65
 73
     0
 40
0.0
  0
LTYPE
  5
16
330
5
100
AcDbSymbolTableRecord
100
AcDbLinetypeTableRecord
  2
Continuous
 70
     0
  3
Solid line
 72
    65
 73
     0
 40
0.0
  0
ENDTAB
  0
TABLE
  2
LAYER
  5
2
330
0
100
AcDbSymbolTable
 70
     2
  0
LAYER
  5
10
330
2
100
AcDbSymbolTableRecord
100
AcDbLayerTableRecord
  2
0
 70
     0
 62
     7
  6
Continuous
370
    -3
390
F
347
3E
  0
LAYER
  5
40
330
2
100
AcDbSymbolTableRecord
100
AcDbLayerTableRecord
  2
_U+30EC_U+30A4_U+30E4_U+30FC 1
 70
     0
 62
     7
  6
Continuous
370
    -3
390
F
347
3E
  0
ENDTAB
  0
TABLE
  2
STYLE
  5
3
330
0
100
AcDbSymbolTable
 70
     1
  0
STYLE
  5
11
330
3
100
AcDbSymbolTableRecord
100
AcDbTextStyleTableRecord
  2
Standard
 70
     0
 40
0.0
 41
1.0
 50
0.0
 71
     0
 42
0.2
  3
txt
  4

  0
ENDTAB
  0
TABLE
  2
VIEW
  5
6
330
0
100
AcDbSymbolTable
 70
     0
  0
ENDTAB
  0
TABLE
  2
UCS
  5
7
330
0
100
AcDbSymbolTable
 70
     0
  0
ENDTAB
  0
TABLE
  2
APPID
  5
9
330
0
100
AcDbSymbolTable
 70
     1
  0
APPID
  5
12
330
9
100
AcDbSymbolTableRecord
100
AcDbRegAppTableRecord
  2
ACAD
 70
     0
  0
ENDTAB
  0
TABLE
  2
DIMSTYLE
  5
A
330
0
100
AcDbSymbolTable
 70
     1
100
AcDbDimStyleTable
  0
DIMSTYLE
105
27
330
A
100
AcDbSymbolTableRecord
100
AcDbDimStyleTableRecord
  2
Standard
 70
     0
178
     0
340
11
  0
ENDTAB
  0
TABLE
  2
BLOCK_RECORD
  5
1
330
0
100
AcDbSymbolTable
 70
     6
  0
BLOCK_RECORD
  5
1F
330
1
100
AcDbSymbolTableRecord
100
AcDbBlockTableRecord
  2
*Model_Space
340
22
 70
     0
280
     1
281
     0
  0
BLOCK_RECORD
  5
1B
330
1
100
AcDbSymbolTableRecord
100
AcDbBlockTableRecord
  2
*Paper_Space
340
1E
 70
     0
280
     1
281
     0
  0
BLOCK_RECORD
  5
23
330
1
100
AcDbSymbolTableRecord
100
AcDbBlockTableRecord
  2
*Paper_Space0
340
26
 70
     0
280
     1
281
     0
  0
BLOCK_RECORD
  5
8C
330
1
100
AcDbSymbolTableRecord
100
AcDbBlockTableRecord
  2
block 2
340
0
102
{BLKREFS
331
8D
102
}
 70
     0
280
     1
281
     0
  0
BLOCK_RECORD
  5
A0
330
1
100
AcDbSymbolTableRecord
100
AcDbBlockTableRecord
  2
block 3
340
0
102
{BLKREFS
331
A1
102
}
 70
     0
280
     1
281
     0
  0
BLOCK_RECORD
  5
B5
330
1
100
AcDbSymbolTableRecord
100
AcDbBlockTableRecord
  2
block 4
340
0
102
{BLKREFS
331
B6
102
}
 70
     0
280
     1
281
     0
  0
BLOCK_RECORD
  5
CB
330
1
100
AcDbSymbolTableRecord
100
AcDbBlockTableRecord
  2
block 5
340
0
102
{BLKREFS
331
CC
102
}
 70
     0
280
     1
281
     0
  0
BLOCK_RECORD
  5
E3
330
1
100
AcDbSymbolTableRecord
100
AcDbBlockTableRecord
  2
block 6
340
0
102
{BLKREFS
331
E4
102
}
 70
     0
280
     1
281
     0
  0
ENDTAB
  0
ENDSEC
  0
SECTION
  2
BLOCKS
  0
BLOCK
  5
20
330
1F
100
AcDbEntity
  8
0
100
AcDbBlockBegin
  2
*Model_Space
 70
     0
 10
0.0
 20
0.0
 30
0.0
  3
*Model_Space
  1

  0
ENDBLK
  5
21
330
1F
100
AcDbEntity
  8
0
100
AcDbBlockEnd
  0
BLOCK
  5
1C
330
1B
100
AcDbEntity
 67
     1
  8
0
100
AcDbBlockBegin
  2
*Paper_Space
 70
     0
 10
0.0
 20
0.0
 30
0.0
  3
*Paper_Space
  1

  0
ENDBLK
  5
1D
330
1B
100
AcDbEntity
 67
     1
  8
0
100
AcDbBlockEnd
  0
BLOCK
  5
24
330
23
100
AcDbEntity
  8
0
100
AcDbBlockBegin
  2
*Paper_Space0
 70
     0
 10
0.0
 20
0.0
 30
0.0
  3
*Paper_Space0
  1

  0
ENDBLK
  5
25
330
23
100
AcDbEntity
  8
0
100
AcDbBlockEnd
  0
BLOCK
  5
8E
330
8C
100
AcDbEntity
  8
0
100
AcDbBlockBegin
  2
block 2
 70
     0
 10
0.0
 20
0.0
 30
0.0
  3
block 2
  1

  0
SPLINE
  5
90
330
8C
100
AcDbEntity
  8
_U+30EC_U+30A4_U+30E4_U+30FC 1
370
     0
100
AcDbSpline
210
0.0
220
0.0
230
1.0
 70
    11
 71
     3
 72
    26
 73
    22
 74
     0
 42
0.0000000001
 43
0.0000000001
 12
1.0
 22
0.0
 32
0.0
 13
1.0
 23
0.0
 33
0.0
 40
0.0
 40
0.0
 40
0.0
 40
0.0
 40
1.0
 40
1.0
 40
1.0
 40
2.0
 40
2.0
 40
2.0
 40
3.0
 40
3.0
 40
3.0
 40
4.0
 40
4.0
 40
4.0
 40
5.0
 40
5.0
 40
5.0
 40
6.0
 40
6.0
 40
6.0
 40
7.0
 40
7.0
 40
7.0
 40
7.0
 10
86.27983260646825
 20
-138.0060465149777
 30
0.0
 10
86.27983260646825
 20
-138.0060465149777
 30
0.0
 10
86.27983260646825
 20
-136.8116319102415
 30
0.0
 10
86.27983260646825
 20
-136.8116319102415
 30
0.0
 10
86.27983260646825
 20
-136.8116319102415
 30
0.0
 10
85.89863279102535
 20
-136.8116319102415
 30
0.0
 10
85.89863279102535
 20
-136.8116319102415
 30
0.0
 10
85.89863279102535
 20
-136.8116319102415
 30
0.0
 10
85.89863279102535
 20
-136.6517794797259
 30
0.0
 10
85.89863279102535
 20
-136.6517794797259
 30
0.0
 10
86.28224417330792
 20
-136.6359320404938
 30
0.0
 10
86.33598766287781
 20
-136.459543151649
 30
0.0
 10
86.37026636295604
 20
-136.3362087332771
 30
0.0
 10
86.37026636295604
 20
-136.3362087332771
 30
0.0
 10
86.53890378695903
 20
-136.3362087332771
 30
0.0
 10
86.53890378695903
 20
-136.3362087332771
 30
0.0
 10
86.53890378695903
 20
-136.3362087332771
 30
0.0
 10
86.53890378695903
 20
-138.0060465149777
 30
0.0
 10
86.53890378695903
 20
-138.0060465149777
 30
0.0
 10
86.53890378695903
 20
-138.0060465149777
 30
0.0
 10
86.27983260646825
 20
-138.0060465149777
 30
0.0
 10
86.27983260646825
 20
-138.0060465149777
 30
0.0
  0
HATCH
  5
91
330
8C
100
AcDbEntity
  8
_U+30EC_U+30A4_U+30E4_U+30FC 1
 62
   179
420
  2234388
100
AcDbHatch
 10
0.0
 20
0.0
 30
0.0
210
0.0
220
0.0
230
1.0
  2
SOLID
 70
     1
 71
     0
 91
        1
 92
        1
 93
        1
 72
     4
 94
        3
 73
     0
 74
     1
 95
       26
 96
       22
 40
0.0
 40
0.0
 40
0.0
 40
0.0
 40
1.0
 40
1.0
 40
1.0
 40
2.0
 40
2.0
 40
2.0
 40
3.0
 40
3.0
 40
3.0
 40
4.0
 40
4.0
 40
4.0
 40
5.0
 40
5.0
 40
5.0
 40
6.0
 40
6.0
 40
6.0
 40
7.0
 40
7.0
 40
7.0
 40
7.0
 10
86.27983260646825
 20
-138.0060465149777
 10
86.27983260646825
 20
-138.0060465149777
 10
86.27983260646825
 20
-136.8116319102415
 10
86.27983260646825
 20
-136.8116319102415
 10
86.27983260646825
 20
-136.8116319102415
 10
85.89863279102535
 20
-136.8116319102415
 10
85.89863279102535
 20
-136.8116319102415
 10
85.89863279102535
 20
-136.8116319102415
 10
85.89863279102535
 20
-136.6517794797259
 10
85.89863279102535
 20
-136.6517794797259
 10
86.28224417330792
 20
-136.6359320404938
 10
86.33598766287781
 20
-136.459543151649
 10
86.37026636295604
 20
-136.3362087332771
 10
86.37026636295604
 20
-136.3362087332771
 10
86.53890378695903
 20
-136.3362087332771
 10
86.53890378695903
 20
-136.3362087332771
 10
86.53890378695903
 20
-136.3362087332771
 10
86.53890378695903
 20
-138.0060465149777
 10
86.53890378695903
 20
-138.0060465149777
 10
86.53890378695903
 20
-138.0060465149777
 10
86.27983260646825
 20
-138.0060465149777
 10
86.27983260646825
 20
-138.0060465149777
 97
        0
 97
        0
 75
     2
 76
     1
 98
        0
  0
SPLINE
  5
92
330
8C
100
AcDbEntity
  8
_U+30EC_U+30A4_U+30E4_U+30FC 1
370
     0
100
AcDbSpline
210
0.0
220
0.0
230
1.0
 70
    11
 71
     3
 72
    53
 73
    49
 74
     0
 42
0.0000000001
 43
0.0000000001
 12
1.0
 22
0.0
 32
0.0
 13
1.0
 23
0.0
 33
0.0
 40
0.0
 40
0.0
 40
0.0
 40
0.0
 40
1.0
 40
1.0
 40
1.0
 40
2.0
 40
2.0
 40
2.0
 40
3.0
 40
3.0
 40
3.0
 40
4.0
 40
4.0
 40
4.0
 40
5.0
 40
5.0
 40
5.0
 40
6.0
 40
6.0
 40
6.0
 40
7.0
 40
7.0
 40
7.0
 40
8.0
 40
8.0
 40
8.0
 40
9.0
 40
9.0
 40
9.0
 40
10.0
 40
10.0
 40
10.0
 40
11.0
 40
11.0
 40
11.0
 40
12.0
 40
12.0
 40
12.0
 40
13.0
 40
13.0
 40
13.0
 40
14.0
 40
14.0
 40
14.0
 40
15.0
 40
15.0
 40
15.0
 40
16.0
 40
16.0
 40
16.0
 40
16.0
 10
87.67234020160622
 20
-138.0608235331931
 30
0.0
 10
87.58190644511842
 20
-138.0608235331931
 30
0.0
 10
87.46477319861992
 20
-138.0425645271213
 30
0.0
 10
87.3472954425729
 20
-137.9740071269648
 30
0.0
 10
87.14696314010563
 20
-137.8548068231752
 30
0.0
 10
87.12250296216035
 20
-137.7132133987314
 30
0.0
 10
87.10062660582902
 20
-137.5964246617815
 30
0.0
 10
87.10062660582902
 20
-137.5964246617815
 30
0.0
 10
87.35711396470586
 20
-137.5964246617815
 30
0.0
 10
87.35711396470586
 20
-137.5964246617815
 30
0.0
 10
87.42067597640873
 20
-137.8113986200611
 30
0.0
 10
87.56726478930611
 20
-137.8437825176224
 30
0.0
 10
87.67492402322016
 20
-137.8437825176224
 30
0.0
 10
87.83615449192986
 20
-137.8437825176224
 30
0.0
 10
88.01219887122612
 20
-137.7362955384826
 30
0.0
 10
88.01219887122612
 20
-137.4844590585108
 30
0.0
 10
88.01219887122612
 20
-137.2078178910453
 30
0.0
 10
87.80445961346555
 20
-137.1320257903698
 30
0.0
 10
87.6651055010872
 20
-137.1320257903698
 30
0.0
 10
87.6284152341693
 20
-137.1320257903698
 30
0.0
 10
87.46477319861992
 20
-137.1320257903698
 30
0.0
 10
87.36210935315948
 20
-137.2718966670709
 30
0.0
 10
87.36210935315948
 20
-137.2718966670709
 30
0.0
 10
87.15919322907826
 20
-137.2512260941594
 30
0.0
 10
87.15919322907826
 20
-137.2512260941594
 30
0.0
 10
87.15919322907826
 20
-137.2512260941594
 30
0.0
 10
87.29854734145661
 20
-136.3362087332771
 30
0.0
 10
87.29854734145661
 20
-136.3362087332771
 30
0.0
 10
87.29854734145661
 20
-136.3362087332771
 30
0.0
 10
88.19788951788108
 20
-136.3362087332771
 30
0.0
 10
88.19788951788108
 20
-136.3362087332771
 30
0.0
 10
88.19788951788108
 20
-136.3362087332771
 30
0.0
 10
88.19788951788108
 20
-136.5463595578773
 30
0.0
 10
88.19788951788108
 20
-136.5463595578773
 30
0.0
 10
88.19788951788108
 20
-136.5463595578773
 30
0.0
 10
87.48664955495126
 20
-136.5463595578773
 30
0.0
 10
87.48664955495126
 20
-136.5463595578773
 30
0.0
 10
87.48664955495126
 20
-136.5463595578773
 30
0.0
 10
87.41085745427576
 20
-137.0038682383185
 30
0.0
 10
87.41085745427576
 20
-137.0038682383185
 30
0.0
 10
87.4818264212719
 20
-136.9673502261748
 30
0.0
 10
87.57708331143907
 20
-136.9239420230607
 30
0.0
 10
87.71402585697774
 20
-136.9239420230607
 30
0.0
 10
88.00720348277251
 20
-136.9239420230607
 30
0.0
 10
88.28091631907562
 20
-137.1251355993993
 30
0.0
 10
88.28091631907562
 20
-137.4637884855993
 30
0.0
 10
88.28091631907562
 20
-137.8072645054787
 30
0.0
 10
88.02184513858482
 20
-138.0608235331931
 30
0.0
 10
87.67234020160622
 20
-138.0608235331931
 30
0.0
  0
HATCH
  5
93
330
8C
100
AcDbEntity
  8
_U+30EC_U+30A4_U+30E4_U+30FC 1
 62
   179
420
  2234388
100
AcDbHatch
 10
0.0
 20
0.0
 30
0.0
210
0.0
220
0.0
230
1.0
  2
SOLID
 70
     1
 71
     0
 91
        1
 92
        1
 93
        1
 72
     4
 94
        3
 73
     0
 74
     1
 95
       53
 96
       49
 40
0.0
 40
0.0
 40
0.0
 40
0.0
 40
1.0
 40
1.0
 40
1.0
 40
2.0
 40
2.0
 40
2.0
 40
3.0
 40
3.0
 40
3.0
 40
4.0
 40
4.0
 40
4.0
 40
5.0
 40
5.0
 40
5.0
 40
6.0
 40
6.0
 40
6.0
 40
7.0
 40
7.0
 40
7.0
 40
8.0
 40
8.0
 40
8.0
 40
9.0
 40
9.0
 40
9.0
 40
10.0
 40
10.0
 40
10.0
 40
11.0
 40
11.0
 40
11.0
 40
12.0
 40
12.0
 40
12.0
 40
13.0
 40
13.0
 40
13.0
 40
14.0
 40
14.0
 40
14.0
 40
15.0
 40
15.0
 40
15.0
 40
16.0
 40
16.0
 40
16.0
 40
16.0
 10
87.67234020160622
 20
-138.0608235331931
 10
87.58190644511842
 20
-138.0608235331931
 10
87.46477319861992
 20
-138.0425645271213
 10
87.3472954425729
 20
-137.9740071269648
 10
87.14696314010563
 20
-137.8548068231752
 10
87.12250296216035
 20
-137.7132133987314
 10
87.10062660582902
 20
-137.5964246617815
 10
87.10062660582902
 20
-137.5964246617815
 10
87.35711396470586
 20
-137.5964246617815
 10
87.35711396470586
 20
-137.5964246617815
 10
87.42067597640873
 20
-137.8113986200611
 10
87.56726478930611
 20
-137.8437825176224
 10
87.67492402322016
 20
-137.8437825176224
 10
87.83615449192986
 20
-137.8437825176224
 10
88.01219887122612
 20
-137.7362955384826
 10
88.01219887122612
 20
-137.4844590585108
 10
88.01219887122612
 20
-137.2078178910453
 10
87.80445961346555
 20
-137.1320257903698
 10
87.6651055010872
 20
-137.1320257903698
 10
87.6284152341693
 20
-137.1320257903698
 10
87.46477319861992
 20
-137.1320257903698
 10
87.36210935315948
 20
-137.2718966670709
 10
87.36210935315948
 20
-137.2718966670709
 10
87.15919322907826
 20
-137.2512260941594
 10
87.15919322907826
 20
-137.2512260941594
 10
87.15919322907826
 20
-137.2512260941594
 10
87.29854734145661
 20
-136.3362087332771
 10
87.29854734145661
 20
-136.3362087332771
 10
87.29854734145661
 20
-136.3362087332771
 10
88.19788951788108
 20
-136.3362087332771
 10
88.19788951788108
 20
-136.3362087332771
 10
88.19788951788108
 20
-136.3362087332771
 10
88.19788951788108
 20
-136.5463595578773
 10
88.19788951788108
 20
-136.5463595578773
 10
88.19788951788108
 20
-136.5463595578773
 10
87.48664955495126
 20
-136.5463595578773
 10
87.48664955495126
 20
-136.5463595578773
 10
87.48664955495126
 20
-136.5463595578773
 10
87.41085745427576
 20
-137.0038682383185
 10
87.41085745427576
 20
-137.0038682383185
 10
87.4818264212719
 20
-136.9673502261748
 10
87.57708331143907
 20
-136.9239420230607
 10
87.71402585697774
 20
-136.9239420230607
 10
88.00720348277251
 20
-136.9239420230607
 10
88.28091631907562
 20
-137.1251355993993
 10
88.28091631907562
 20
-137.4637884855993
 10
88.28091631907562
 20
-137.8072645054787
 10
88.02184513858482
 20
-138.0608235331931
 10
87.67234020160622
 20
-138.0608235331931
 97
        0
 97
        0
 75
     2
 76
     1
 98
        0
  0
ENDBLK
  5
8F
330
8C
100
AcDbEntity
  8
0
100
AcDbBlockEnd
  0
BLOCK
  5
A2
330
A0
100
AcDbEntity
  8
0
100
AcDbBlockBegin
  2
block 3
 70
     0
 10
0.0
 20
0.0
 30
0.0
  3
block 3
  1

  0
SPLINE
  5
A4
330
A0
100
AcDbEntity
  8
_U+30EC_U+30A4_U+30E4_U+30FC 1
370
     0
100
AcDbSpline
210
0.0
220
0.0
230
1.0
 70
    11
 71
     3
 72
    62
 73
    58
 74
     0
 42
0.0000000001
 43
0.0000000001
 12
1.0
 22
0.0
 32
0.0
 13
1.0
 23
0.0
 33
0.0
 40
0.0
 40
0.0
 40
0.0
 40
0.0
 40
1.0
 40
1.0
 40
1.0
 40
2.0
 40
2.0
 40
2.0
 40
3.0
 40
3.0
 40
3.0
 40
4.0
 40
4.0
 40
4.0
 40
5.0
 40
5.0
 40
5.0
 40
6.0
 40
6.0
 40
6.0
 40
7.0
 40
7.0
 40
7.0
 40
8.0
 40
8.0
 40
8.0
 40
9.0
 40
9.0
 40
9.0
 40
10.0
 40
10.0
 40
10.0
 40
11.0
 40
11.0
 40
11.0
 40
12.0
 40
12.0
 40
12.0
 40
13.0
 40
13.0
 40
13.0
 40
14.0
 40
14.0
 40
14.0
 40
15.0
 40
15.0
 40
15.0
 40
16.0
 40
16.0
 40
16.0
 40
17.0
 40
17.0
 40
17.0
 40
18.0
 40
18.0
 40
18.0
 40
19.0
 40
19.0
 40
19.0
 40
19.0
 10
91.57615015071708
 20
-119.1553452935619
 30
0.0
 10
91.46625160473761
 20
-119.1553452935619
 30
0.0
 10
91.2145873795401
 20
-119.132435408585
 30
0.0
 10
91.0704101334824
 20
-118.9310695774721
 30
0.0
 10
90.98479951067394
 20
-118.8098022163913
 30
0.0
 10
90.9799763769946
 20
-118.7023152372515
 30
0.0
 10
90.97498098854098
 20
-118.6108479521181
 30
0.0
 10
90.97498098854098
 20
-118.6108479521181
 30
0.0
 10
91.22922903535242
 20
-118.6108479521181
 30
0.0
 10
91.22922903535242
 20
-118.6108479521181
 30
0.0
 10
91.23164060219209
 20
-118.6909464221502
 30
0.0
 10
91.24387069116473
 20
-118.9448499594131
 30
0.0
 10
91.57132701703773
 20
-118.9448499594131
 30
0.0
 10
91.73014591890775
 20
-118.9448499594131
 30
0.0
 10
91.90619029820401
 20
-118.8694023682861
 30
0.0
 10
91.90619029820401
 20
-118.6222167672195
 30
0.0
 10
91.90619029820401
 20
-118.4964707820078
 30
0.0
 10
91.86209307599282
 20
-118.4437608210835
 30
0.0
 10
91.82557506384917
 20
-118.4094821210053
 30
0.0
 10
91.74013669581497
 20
-118.3293836509732
 30
0.0
 10
91.60577797189022
 20
-118.3157755238065
 30
0.0
 10
91.5420437054131
 20
-118.3157755238065
 30
0.0
 10
91.5199950943075
 20
-118.3157755238065
 30
0.0
 10
91.47830943893598
 20
-118.3180148358719
 30
0.0
 10
91.44661456047169
 20
-118.3224934600027
 30
0.0
 10
91.44661456047169
 20
-118.3224934600027
 30
0.0
 10
91.44661456047169
 20
-118.1119981258539
 30
0.0
 10
91.44661456047169
 20
-118.1119981258539
 30
0.0
 10
91.49071178268288
 20
-118.1188883168245
 30
0.0
 10
91.53963213857342
 20
-118.1212998836641
 30
0.0
 10
91.54686683909246
 20
-118.1212998836641
 30
0.0
 10
91.62265893976794
 20
-118.1212998836641
 30
0.0
 10
91.85244680863411
 20
-118.0983899986872
 30
0.0
 10
91.85244680863411
 20
-117.8420748945846
 30
0.0
 10
91.85244680863411
 20
-117.650010821282
 30
0.0
 10
91.70086260728313
 20
-117.5904106693871
 30
0.0
 10
91.5737385838774
 20
-117.5904106693871
 30
0.0
 10
91.26833086911
 20
-117.5904106693871
 30
0.0
 10
91.25851234697704
 20
-117.8420748945846
 30
0.0
 10
91.25368921329769
 20
-117.9199340525513
 30
0.0
 10
91.25368921329769
 20
-117.9199340525513
 30
0.0
 10
91.01907821075218
 20
-117.9199340525513
 30
0.0
 10
91.01907821075218
 20
-117.9199340525513
 30
0.0
 10
91.02872447811087
 20
-117.7848863095295
 30
0.0
 10
91.06059161134944
 20
-117.377676023173
 30
0.0
 10
91.58855249446398
 20
-117.377676023173
 30
0.0
 10
91.84762367495476
 20
-117.377676023173
 30
0.0
 10
92.12598739016295
 20
-117.5149630782602
 30
0.0
 10
92.12598739016295
 20
-117.8351847036141
 30
0.0
 10
92.12598739016295
 20
-118.036550534727
 30
0.0
 10
92.01608884418349
 20
-118.1257785077949
 30
0.0
 10
91.90136716452466
 20
-118.192096595886
 30
0.0
 10
91.9723361315208
 20
-118.2218966718334
 30
0.0
 10
92.18248695612105
 20
-118.308885332836
 30
0.0
 10
92.18248695612105
 20
-118.6086086400527
 30
0.0
 10
92.18248695612105
 20
-118.9746500353605
 30
0.0
 10
91.89654403084532
 20
-119.1553452935619
 30
0.0
 10
91.57615015071708
 20
-119.1553452935619
 30
0.0
  0
HATCH
  5
A5
330
A0
100
AcDbEntity
  8
_U+30EC_U+30A4_U+30E4_U+30FC 1
 62
   179
420
  2234388
100
AcDbHatch
 10
0.0
 20
0.0
 30
0.0
210
0.0
220
0.0
230
1.0
  2
SOLID
 70
     1
 71
     0
 91
        1
 92
        1
 93
        1
 72
     4
 94
        3
 73
     0
 74
     1
 95
       62
 96
       58
 40
0.0
 40
0.0
 40
0.0
 40
0.0
 40
1.0
 40
1.0
 40
1.0
 40
2.0
 40
2.0
 40
2.0
 40
3.0
 40
3.0
 40
3.0
 40
4.0
 40
4.0
 40
4.0
 40
5.0
 40
5.0
 40
5.0
 40
6.0
 40
6.0
 40
6.0
 40
7.0
 40
7.0
 40
7.0
 40
8.0
 40
8.0
 40
8.0
 40
9.0
 40
9.0
 40
9.0
 40
10.0
 40
10.0
 40
10.0
 40
11.0
 40
11.0
 40
11.0
 40
12.0
 40
12.0
 40
12.0
 40
13.0
 40
13.0
 40
13.0
 40
14.0
 40
14.0
 40
14.0
 40
15.0
 40
15.0
 40
15.0
 40
16.0
 40
16.0
 40
16.0
 40
17.0
 40
17.0
 40
17.0
 40
18.0
 40
18.0
 40
18.0
 40
19.0
 40
19.0
 40
19.0
 40
19.0
 10
91.57615015071708
 20
-119.1553452935619
 10
91.46625160473761
 20
-119.1553452935619
 10
91.2145873795401
 20
-119.132435408585
 10
91.0704101334824
 20
-118.9310695774721
 10
90.98479951067394
 20
-118.8098022163913
 10
90.9799763769946
 20
-118.7023152372515
 10
90.97498098854098
 20
-118.6108479521181
 10
90.97498098854098
 20
-118.6108479521181
 10
91.22922903535242
 20
-118.6108479521181
 10
91.22922903535242
 20
-118.6108479521181
 10
91.23164060219209
 20
-118.6909464221502
 10
91.24387069116473
 20
-118.9448499594131
 10
91.57132701703773
 20
-118.9448499594131
 10
91.73014591890775
 20
-118.9448499594131
 10
91.90619029820401
 20
-118.8694023682861
 10
91.90619029820401
 20
-118.6222167672195
 10
91.90619029820401
 20
-118.4964707820078
 10
91.86209307599282
 20
-118.4437608210835
 10
91.82557506384917
 20
-118.4094821210053
 10
91.74013669581497
 20
-118.3293836509732
 10
91.60577797189022
 20
-118.3157755238065
 10
91.5420437054131
 20
-118.3157755238065
 10
91.5199950943075
 20
-118.3157755238065
 10
91.47830943893598
 20
-118.3180148358719
 10
91.44661456047169
 20
-118.3224934600027
 10
91.44661456047169
 20
-118.3224934600027
 10
91.44661456047169
 20
-118.1119981258539
 10
91.44661456047169
 20
-118.1119981258539
 10
91.49071178268288
 20
-118.1188883168245
 10
91.53963213857342
 20
-118.1212998836641
 10
91.54686683909246
 20
-118.1212998836641
 10
91.62265893976794
 20
-118.1212998836641
 10
91.85244680863411
 20
-118.0983899986872
 10
91.85244680863411
 20
-117.8420748945846
 10
91.85244680863411
 20
-117.650010821282
 10
91.70086260728313
 20
-117.5904106693871
 10
91.5737385838774
 20
-117.5904106693871
 10
91.26833086911
 20
-117.5904106693871
 10
91.25851234697704
 20
-117.8420748945846
 10
91.25368921329769
 20
-117.9199340525513
 10
91.25368921329769
 20
-117.9199340525513
 10
91.01907821075218
 20
-117.9199340525513
 10
91.01907821075218
 20
-117.9199340525513
 10
91.02872447811087
 20
-117.7848863095295
 10
91.06059161134944
 20
-117.377676023173
 10
91.58855249446398
 20
-117.377676023173
 10
91.84762367495476
 20
-117.377676023173
 10
92.12598739016295
 20
-117.5149630782602
 10
92.12598739016295
 20
-117.8351847036141
 10
92.12598739016295
 20
-118.036550534727
 10
92.01608884418349
 20
-118.1257785077949
 10
91.90136716452466
 20
-118.192096595886
 10
91.9723361315208
 20
-118.2218966718334
 10
92.18248695612105
 20
-118.308885332836
 10
92.18248695612105
 20
-118.6086086400527
 10
92.18248695612105
 20
-118.9746500353605
 10
91.89654403084532
 20
-119.1553452935619
 10
91.57615015071708
 20
-119.1553452935619
 97
        0
 97
        0
 75
     2
 76
     1
 98
        0
  0
SPLINE
  5
A6
330
A0
100
AcDbEntity
  8
_U+30EC_U+30A4_U+30E4_U+30FC 1
370
     0
100
AcDbSpline
210
0.0
220
0.0
230
1.0
 70
    11
 71
     3
 72
    29
 73
    25
 74
     0
 42
0.0000000001
 43
0.0000000001
 12
1.0
 22
0.0
 32
0.0
 13
1.0
 23
0.0
 33
0.0
 40
0.0
 40
0.0
 40
0.0
 40
0.0
 40
1.0
 40
1.0
 40
1.0
 40
2.0
 40
2.0
 40
2.0
 40
3.0
 40
3.0
 40
3.0
 40
4.0
 40
4.0
 40
4.0
 40
5.0
 40
5.0
 40
5.0
 40
6.0
 40
6.0
 40
6.0
 40
7.0
 40
7.0
 40
7.0
 40
8.0
 40
8.0
 40
8.0
 40
8.0
 10
93.40377330564212
 20
-118.9081596924952
 30
0.0
 10
93.2794053586246
 20
-119.1346747206504
 30
0.0
 10
93.07890080138306
 20
-119.1553452935619
 30
0.0
 10
92.94454207745831
 20
-119.1553452935619
 30
0.0
 10
92.75850692125482
 20
-119.1553452935619
 30
0.0
 10
92.59486488570545
 20
-119.1050468994772
 30
0.0
 10
92.48496633972599
 20
-118.9081596924952
 30
0.0
 10
92.3650770168393
 20
-118.6976643583464
 30
0.0
 10
92.34302840573369
 20
-118.4415215090181
 30
0.0
 10
92.34302840573369
 20
-118.2653048749476
 30
0.0
 10
92.34302840573369
 20
-118.1097588137885
 30
0.0
 10
92.36266544999961
 20
-117.8375962704538
 30
0.0
 10
92.48496633972599
 20
-117.6224500573999
 30
0.0
 10
92.60967879629203
 20
-117.4028252202153
 30
0.0
 10
92.79536944294699
 20
-117.377676023173
 30
0.0
 10
92.94454207745831
 20
-117.377676023173
 30
0.0
 10
93.1278211572736
 20
-117.377676023173
 30
0.0
 10
93.29387475966264
 20
-117.4257351051922
 30
0.0
 10
93.40377330564212
 20
-117.6224500573999
 30
0.0
 10
93.51849498530093
 20
-117.8307060794833
 30
0.0
 10
93.54536673008589
 20
-118.0777194257757
 30
0.0
 10
93.54536673008589
 20
-118.2653048749476
 30
0.0
 10
93.54536673008589
 20
-118.450651012054
 30
0.0
 10
93.52125106168914
 20
-118.7000759251861
 30
0.0
 10
93.40377330564212
 20
-118.9081596924952
 30
0.0
  0
SPLINE
  5
A7
330
A0
100
AcDbEntity
  8
_U+30EC_U+30A4_U+30E4_U+30FC 1
370
     0
100
AcDbSpline
210
0.0
220
0.0
230
1.0
 70
    11
 71
     3
 72
    17
 73
    13
 74
     0
 42
0.0000000001
 43
0.0000000001
 12
1.0
 22
0.0
 32
0.0
 13
1.0
 23
0.0
 33
0.0
 40
0.0
 40
0.0
 40
0.0
 40
0.0
 40
1.0
 40
1.0
 40
1.0
 40
2.0
 40
2.0
 40
2.0
 40
3.0
 40
3.0
 40
3.0
 40
4.0
 40
4.0
 40
4.0
 40
4.0
 10
92.94454207745831
 20
-117.5859320452563
 30
0.0
 10
92.65584307579438
 20
-117.5859320452563
 30
0.0
 10
92.60209958622448
 20
-117.8925455434435
 30
0.0
 10
92.60209958622448
 20
-118.2653048749476
 30
0.0
 10
92.60209958622448
 20
-118.6108479521181
 30
0.0
 10
92.643785241596
 20
-118.9448499594131
 30
0.0
 10
92.94454207745831
 20
-118.9448499594131
 30
0.0
 10
93.23048500273406
 20
-118.9448499594131
 30
0.0
 10
93.2862955495951
 20
-118.6404757732913
 30
0.0
 10
93.2862955495951
 20
-118.2653048749476
 30
0.0
 10
93.2862955495951
 20
-117.9199340525513
 30
0.0
 10
93.24254283693243
 20
-117.5859320452563
 30
0.0
 10
92.94454207745831
 20
-117.5859320452563
 30
0.0
  0
HATCH
  5
A8
330
A0
100
AcDbEntity
  8
_U+30EC_U+30A4_U+30E4_U+30FC 1
 62
   179
420
  2234388
100
AcDbHatch
 10
0.0
 20
0.0
 30
0.0
210
0.0
220
0.0
230
1.0
  2
SOLID
 70
     1
 71
     0
 91
        2
 92
        1
 93
        1
 72
     4
 94
        3
 73
     0
 74
     1
 95
       29
 96
       25
 40
0.0
 40
0.0
 40
0.0
 40
0.0
 40
1.0
 40
1.0
 40
1.0
 40
2.0
 40
2.0
 40
2.0
 40
3.0
 40
3.0
 40
3.0
 40
4.0
 40
4.0
 40
4.0
 40
5.0
 40
5.0
 40
5.0
 40
6.0
 40
6.0
 40
6.0
 40
7.0
 40
7.0
 40
7.0
 40
8.0
 40
8.0
 40
8.0
 40
8.0
 10
93.40377330564212
 20
-118.9081596924952
 10
93.2794053586246
 20
-119.1346747206504
 10
93.07890080138306
 20
-119.1553452935619
 10
92.94454207745831
 20
-119.1553452935619
 10
92.75850692125482
 20
-119.1553452935619
 10
92.59486488570545
 20
-119.1050468994772
 10
92.48496633972599
 20
-118.9081596924952
 10
92.3650770168393
 20
-118.6976643583464
 10
92.34302840573369
 20
-118.4415215090181
 10
92.34302840573369
 20
-118.2653048749476
 10
92.34302840573369
 20
-118.1097588137885
 10
92.36266544999961
 20
-117.8375962704538
 10
92.48496633972599
 20
-117.6224500573999
 10
92.60967879629203
 20
-117.4028252202153
 10
92.79536944294699
 20
-117.377676023173
 10
92.94454207745831
 20
-117.377676023173
 10
93.1278211572736
 20
-117.377676023173
 10
93.29387475966264
 20
-117.4257351051922
 10
93.40377330564212
 20
-117.6224500573999
 10
93.51849498530093
 20
-117.8307060794833
 10
93.54536673008589
 20
-118.0777194257757
 10
93.54536673008589
 20
-118.2653048749476
 10
93.54536673008589
 20
-118.450651012054
 10
93.52125106168914
 20
-118.7000759251861
 10
93.40377330564212
 20
-118.9081596924952
 97
        0
 97
        0
 92
        1
 93
        1
 72
     4
 94
        3
 73
     0
 74
     1
 95
       17
 96
       13
 40
0.0
 40
0.0
 40
0.0
 40
0.0
 40
1.0
 40
1.0
 40
1.0
 40
2.0
 40
2.0
 40
2.0
 40
3.0
 40
3.0
 40
3.0
 40
4.0
 40
4.0
 40
4.0
 40
4.0
 10
92.94454207745831
 20
-117.5859320452563
 10
92.65584307579438
 20
-117.5859320452563
 10
92.60209958622448
 20
-117.8925455434435
 10
92.60209958622448
 20
-118.2653048749476
 10
92.60209958622448
 20
-118.6108479521181
 10
92.643785241596
 20
-118.9448499594131
 10
92.94454207745831
 20
-118.9448499594131
 10
93.23048500273406
 20
-118.9448499594131
 10
93.2862955495951
 20
-118.6404757732913
 10
93.2862955495951
 20
-118.2653048749476
 10
93.2862955495951
 20
-117.9199340525513
 10
93.24254283693243
 20
-117.5859320452563
 10
92.94454207745831
 20
-117.5859320452563
 97
        0
 97
        0
 75
     2
 76
     1
 98
        0
  0
ENDBLK
  5
A3
330
A0
100
AcDbEntity
  8
0
100
AcDbBlockEnd
  0
BLOCK
  5
B7
330
B5
100
AcDbEntity
  8
0
100
AcDbBlockBegin
  2
block 4
 70
     0
 10
0.0
 20
0.0
 30
0.0
  3
block 4
  1

  0
SPLINE
  5
B9
330
B5
100
AcDbEntity
  8
_U+30EC_U+30A4_U+30E4_U+30FC 1
370
     0
100
AcDbSpline
210
0.0
220
0.0
230
1.0
 70
    11
 71
     3
 72
    26
 73
    22
 74
     0
 42
0.0000000001
 43
0.0000000001
 12
1.0
 22
0.0
 32
0.0
 13
1.0
 23
0.0
 33
0.0
 40
0.0
 40
0.0
 40
0.0
 40
0.0
 40
1.0
 40
1.0
 40
1.0
 40
2.0
 40
2.0
 40
2.0
 40
3.0
 40
3.0
 40
3.0
 40
4.0
 40
4.0
 40
4.0
 40
5.0
 40
5.0
 40
5.0
 40
6.0
 40
6.0
 40
6.0
 40
7.0
 40
7.0
 40
7.0
 40
7.0
 10
78.69149303588269
 20
-129.9145507487714
 30
0.0
 10
78.69149303588269
 20
-129.9145507487714
 30
0.0
 10
77.49725068592083
 20
-129.9145507487714
 30
0.0
 10
77.49725068592083
 20
-129.9145507487714
 30
0.0
 10
77.49725068592083
 20
-129.9145507487714
 30
0.0
 10
77.49725068592083
 20
-130.2959228189885
 30
0.0
 10
77.49725068592083
 20
-130.2959228189885
 30
0.0
 10
77.49725068592083
 20
-130.2959228189885
 30
0.0
 10
77.33722600063098
 20
-130.2959228189885
 30
0.0
 10
77.33722600063098
 20
-130.2959228189885
 30
0.0
 10
77.32120630662456
 20
-129.9124836914802
 30
0.0
 10
77.14498967255403
 20
-129.8587402019103
 30
0.0
 10
77.02148299940782
 20
-129.8242892470578
 30
0.0
 10
77.02148299940782
 20
-129.8242892470578
 30
0.0
 10
77.02148299940782
 20
-129.6554795682806
 30
0.0
 10
77.02148299940782
 20
-129.6554795682806
 30
0.0
 10
77.02148299940782
 20
-129.6554795682806
 30
0.0
 10
78.69149303588269
 20
-129.6554795682806
 30
0.0
 10
78.69149303588269
 20
-129.6554795682806
 30
0.0
 10
78.69149303588269
 20
-129.6554795682806
 30
0.0
 10
78.69149303588269
 20
-129.9145507487714
 30
0.0
 10
78.69149303588269
 20
-129.9145507487714
 30
0.0
  0
HATCH
  5
BA
330
B5
100
AcDbEntity
  8
_U+30EC_U+30A4_U+30E4_U+30FC 1
 62
   179
420
  2234388
100
AcDbHatch
 10
0.0
 20
0.0
 30
0.0
210
0.0
220
0.0
230
1.0
  2
SOLID
 70
     1
 71
     0
 91
        1
 92
        1
 93
        1
 72
     4
 94
        3
 73
     0
 74
     1
 95
       26
 96
       22
 40
0.0
 40
0.0
 40
0.0
 40
0.0
 40
1.0
 40
1.0
 40
1.0
 40
2.0
 40
2.0
 40
2.0
 40
3.0
 40
3.0
 40
3.0
 40
4.0
 40
4.0
 40
4.0
 40
5.0
 40
5.0
 40
5.0
 40
6.0
 40
6.0
 40
6.0
 40
7.0
 40
7.0
 40
7.0
 40
7.0
 10
78.69149303588269
 20
-129.9145507487714
 10
78.69149303588269
 20
-129.9145507487714
 10
77.49725068592083
 20
-129.9145507487714
 10
77.49725068592083
 20
-129.9145507487714
 10
77.49725068592083
 20
-129.9145507487714
 10
77.49725068592083
 20
-130.2959228189885
 10
77.49725068592083
 20
-130.2959228189885
 10
77.49725068592083
 20
-130.2959228189885
 10
77.33722600063098
 20
-130.2959228189885
 10
77.33722600063098
 20
-130.2959228189885
 10
77.32120630662456
 20
-129.9124836914802
 10
77.14498967255403
 20
-129.8587402019103
 10
77.02148299940782
 20
-129.8242892470578
 10
77.02148299940782
 20
-129.8242892470578
 10
77.02148299940782
 20
-129.6554795682806
 10
77.02148299940782
 20
-129.6554795682806
 10
77.02148299940782
 20
-129.6554795682806
 10
78.69149303588269
 20
-129.6554795682806
 10
78.69149303588269
 20
-129.6554795682806
 10
78.69149303588269
 20
-129.6554795682806
 10
78.69149303588269
 20
-129.9145507487714
 10
78.69149303588269
 20
-129.9145507487714
 97
        0
 97
        0
 75
     2
 76
     1
 98
        0
  0
SPLINE
  5
BB
330
B5
100
AcDbEntity
  8
_U+30EC_U+30A4_U+30E4_U+30FC 1
370
     0
100
AcDbSpline
210
0.0
220
0.0
230
1.0
 70
    11
 71
     3
 72
    29
 73
    25
 74
     0
 42
0.0000000001
 43
0.0000000001
 12
1.0
 22
0.0
 32
0.0
 13
1.0
 23
0.0
 33
0.0
 40
0.0
 40
0.0
 40
0.0
 40
0.0
 40
1.0
 40
1.0
 40
1.0
 40
2.0
 40
2.0
 40
2.0
 40
3.0
 40
3.0
 40
3.0
 40
4.0
 40
4.0
 40
4.0
 40
5.0
 40
5.0
 40
5.0
 40
6.0
 40
6.0
 40
6.0
 40
7.0
 40
7.0
 40
7.0
 40
8.0
 40
8.0
 40
8.0
 40
8.0
 10
78.74644230887242
 20
-128.5001667973021
 30
0.0
 10
78.74644230887242
 20
-128.8079860789091
 30
0.0
 10
78.59761418390963
 20
-129.1015082142524
 30
0.0
 10
78.2202039735005
 20
-129.1015082142524
 30
0.0
 10
77.94339055126068
 20
-129.1015082142524
 30
0.0
 10
77.84038219625171
 20
-128.9375216691545
 30
0.0
 10
77.77406410816066
 20
-128.8155652889767
 30
0.0
 10
77.709985332135
 20
-128.9595702802601
 30
0.0
 10
77.5864786589888
 20
-129.0477647246825
 30
0.0
 10
77.41267359175795
 20
-129.0477647246825
 30
0.0
 10
77.11518959660663
 20
-129.0477647246825
 30
0.0
 10
76.9687730384835
 20
-128.8176323462678
 30
0.0
 10
76.9687730384835
 20
-128.5001667973021
 30
0.0
 10
76.9687730384835
 20
-128.172710471429
 30
0.0
 10
77.12431909964253
 20
-127.9527411246958
 30
0.0
 10
77.41267359175795
 20
-127.9527411246958
 30
0.0
 10
77.5864786589888
 20
-127.9527411246958
 30
0.0
 10
77.709985332135
 20
-128.0431748811837
 30
0.0
 10
77.77406410816066
 20
-128.1873521272414
 30
0.0
 10
77.82901338115039
 20
-128.0846882817809
 30
0.0
 10
77.93202173615936
 20
-127.9014092019656
 30
0.0
 10
78.21572534936968
 20
-127.9014092019656
 30
0.0
 10
78.62052406888654
 20
-127.9014092019656
 30
0.0
 10
78.74644230887242
 20
-128.2240423941593
 30
0.0
 10
78.74644230887242
 20
-128.5001667973021
 30
0.0
  0
SPLINE
  5
BC
330
B5
100
AcDbEntity
  8
_U+30EC_U+30A4_U+30E4_U+30FC 1
370
     0
100
AcDbSpline
210
0.0
220
0.0
230
1.0
 70
    11
 71
     3
 72
    17
 73
    13
 74
     0
 42
0.0000000001
 43
0.0000000001
 12
1.0
 22
0.0
 32
0.0
 13
1.0
 23
0.0
 33
0.0
 40
0.0
 40
0.0
 40
0.0
 40
0.0
 40
1.0
 40
1.0
 40
1.0
 40
2.0
 40
2.0
 40
2.0
 40
3.0
 40
3.0
 40
3.0
 40
4.0
 40
4.0
 40
4.0
 40
4.0
 10
77.17702906056685
 20
-128.5001667973021
 30
0.0
 10
77.17702906056685
 20
-128.6908528324106
 30
0.0
 10
77.27986516080156
 20
-128.7886935441917
 30
0.0
 10
77.42628171892468
 20
-128.7886935441917
 30
0.0
 10
77.55909014988106
 20
-128.7886935441917
 30
0.0
 10
77.68724770193236
 20
-128.7054944882229
 30
0.0
 10
77.68724770193236
 20
-128.5001667973021
 30
0.0
 10
77.68724770193236
 20
-128.2948391063811
 30
0.0
 10
77.55909014988106
 20
-128.2118123051866
 30
0.0
 10
77.42628171892468
 20
-128.2118123051866
 30
0.0
 10
77.27986516080156
 20
-128.2118123051866
 30
0.0
 10
77.17702906056685
 20
-128.3118923290332
 30
0.0
 10
77.17702906056685
 20
-128.5001667973021
 30
0.0
  0
SPLINE
  5
BD
330
B5
100
AcDbEntity
  8
_U+30EC_U+30A4_U+30E4_U+30FC 1
370
     0
100
AcDbSpline
210
0.0
220
0.0
230
1.0
 70
    11
 71
     3
 72
    17
 73
    13
 74
     0
 42
0.0000000001
 43
0.0000000001
 12
1.0
 22
0.0
 32
0.0
 13
1.0
 23
0.0
 33
0.0
 40
0.0
 40
0.0
 40
0.0
 40
0.0
 40
1.0
 40
1.0
 40
1.0
 40
2.0
 40
2.0
 40
2.0
 40
3.0
 40
3.0
 40
3.0
 40
4.0
 40
4.0
 40
4.0
 40
4.0
 10
77.89085284511063
 20
-128.5001667973021
 30
0.0
 10
77.89085284511063
 20
-128.6663926544653
 30
0.0
 10
77.98455944230942
 20
-128.8424370337616
 30
0.0
 10
78.2041842794941
 20
-128.8424370337616
 30
0.0
 10
78.42604842874418
 20
-128.8424370337616
 30
0.0
 10
78.53594697472366
 20
-128.69567596609
 30
0.0
 10
78.53594697472366
 20
-128.5001667973021
 30
0.0
 10
78.53594697472366
 20
-128.2850205842482
 30
0.0
 10
78.40331079854154
 20
-128.1580688156167
 30
0.0
 10
78.2110744704646
 20
-128.1580688156167
 30
0.0
 10
77.97077906036841
 20
-128.1580688156167
 30
0.0
 10
77.89085284511063
 20
-128.3461710291114
 30
0.0
 10
77.89085284511063
 20
-128.5001667973021
 30
0.0
  0
HATCH
  5
BE
330
B5
100
AcDbEntity
  8
_U+30EC_U+30A4_U+30E4_U+30FC 1
 62
   179
420
  2234388
100
AcDbHatch
 10
0.0
 20
0.0
 30
0.0
210
0.0
220
0.0
230
1.0
  2
SOLID
 70
     1
 71
     0
 91
        3
 92
        1
 93
        1
 72
     4
 94
        3
 73
     0
 74
     1
 95
       29
 96
       25
 40
0.0
 40
0.0
 40
0.0
 40
0.0
 40
1.0
 40
1.0
 40
1.0
 40
2.0
 40
2.0
 40
2.0
 40
3.0
 40
3.0
 40
3.0
 40
4.0
 40
4.0
 40
4.0
 40
5.0
 40
5.0
 40
5.0
 40
6.0
 40
6.0
 40
6.0
 40
7.0
 40
7.0
 40
7.0
 40
8.0
 40
8.0
 40
8.0
 40
8.0
 10
78.74644230887242
 20
-128.5001667973021
 10
78.74644230887242
 20
-128.8079860789091
 10
78.59761418390963
 20
-129.1015082142524
 10
78.2202039735005
 20
-129.1015082142524
 10
77.94339055126068
 20
-129.1015082142524
 10
77.84038219625171
 20
-128.9375216691545
 10
77.77406410816066
 20
-128.8155652889767
 10
77.709985332135
 20
-128.9595702802601
 10
77.5864786589888
 20
-129.0477647246825
 10
77.41267359175795
 20
-129.0477647246825
 10
77.11518959660663
 20
-129.0477647246825
 10
76.9687730384835
 20
-128.8176323462678
 10
76.9687730384835
 20
-128.5001667973021
 10
76.9687730384835
 20
-128.172710471429
 10
77.12431909964253
 20
-127.9527411246958
 10
77.41267359175795
 20
-127.9527411246958
 10
77.5864786589888
 20
-127.9527411246958
 10
77.709985332135
 20
-128.0431748811837
 10
77.77406410816066
 20
-128.1873521272414
 10
77.82901338115039
 20
-128.0846882817809
 10
77.93202173615936
 20
-127.9014092019656
 10
78.21572534936968
 20
-127.9014092019656
 10
78.62052406888654
 20
-127.9014092019656
 10
78.74644230887242
 20
-128.2240423941593
 10
78.74644230887242
 20
-128.5001667973021
 97
        0
 97
        0
 92
        1
 93
        1
 72
     4
 94
        3
 73
     0
 74
     1
 95
       17
 96
       13
 40
0.0
 40
0.0
 40
0.0
 40
0.0
 40
1.0
 40
1.0
 40
1.0
 40
2.0
 40
2.0
 40
2.0
 40
3.0
 40
3.0
 40
3.0
 40
4.0
 40
4.0
 40
4.0
 40
4.0
 10
77.17702906056685
 20
-128.5001667973021
 10
77.17702906056685
 20
-128.6908528324106
 10
77.27986516080156
 20
-128.7886935441917
 10
77.42628171892468
 20
-128.7886935441917
 10
77.55909014988106
 20
-128.7886935441917
 10
77.68724770193236
 20
-128.7054944882229
 10
77.68724770193236
 20
-128.5001667973021
 10
77.68724770193236
 20
-128.2948391063811
 10
77.55909014988106
 20
-128.2118123051866
 10
77.42628171892468
 20
-128.2118123051866
 10
77.27986516080156
 20
-128.2118123051866
 10
77.17702906056685
 20
-128.3118923290332
 10
77.17702906056685
 20
-128.5001667973021
 97
        0
 97
        0
 92
        1
 93
        1
 72
     4
 94
        3
 73
     0
 74
     1
 95
       17
 96
       13
 40
0.0
 40
0.0
 40
0.0
 40
0.0
 40
1.0
 40
1.0
 40
1.0
 40
2.0
 40
2.0
 40
2.0
 40
3.0
 40
3.0
 40
3.0
 40
4.0
 40
4.0
 40
4.0
 40
4.0
 10
77.89085284511063
 20
-128.5001667973021
 10
77.89085284511063
 20
-128.6663926544653
 10
77.98455944230942
 20
-128.8424370337616
 10
78.2041842794941
 20
-128.8424370337616
 10
78.42604842874418
 20
-128.8424370337616
 10
78.53594697472366
 20
-128.69567596609
 10
78.53594697472366
 20
-128.5001667973021
 10
78.53594697472366
 20
-128.2850205842482
 10
78.40331079854154
 20
-128.1580688156167
 10
78.2110744704646
 20
-128.1580688156167
 10
77.97077906036841
 20
-128.1580688156167
 10
77.89085284511063
 20
-128.3461710291114
 10
77.89085284511063
 20
-128.5001667973021
 97
        0
 97
        0
 75
     2
 76
     1
 98
        0
  0
ENDBLK
  5
B8
330
B5
100
AcDbEntity
  8
0
100
AcDbBlockEnd
  0
BLOCK
  5
CD
330
CB
100
AcDbEntity
  8
0
100
AcDbBlockBegin
  2
block 5
 70
     0
 10
0.0
 20
0.0
 30
0.0
  3
block 5
  1

  0
SPLINE
  5
CF
330
CB
100
AcDbEntity
  8
_U+30EC_U+30A4_U+30E4_U+30FC 1
370
     0
100
AcDbSpline
210
0.0
220
0.0
230
1.0
 70
    11
 71
     3
 72
    62
 73
    58
 74
     0
 42
0.0000000001
 43
0.0000000001
 12
1.0
 22
0.0
 32
0.0
 13
1.0
 23
0.0
 33
0.0
 40
0.0
 40
0.0
 40
0.0
 40
0.0
 40
1.0
 40
1.0
 40
1.0
 40
2.0
 40
2.0
 40
2.0
 40
3.0
 40
3.0
 40
3.0
 40
4.0
 40
4.0
 40
4.0
 40
5.0
 40
5.0
 40
5.0
 40
6.0
 40
6.0
 40
6.0
 40
7.0
 40
7.0
 40
7.0
 40
8.0
 40
8.0
 40
8.0
 40
9.0
 40
9.0
 40
9.0
 40
10.0
 40
10.0
 40
10.0
 40
11.0
 40
11.0
 40
11.0
 40
12.0
 40
12.0
 40
12.0
 40
13.0
 40
13.0
 40
13.0
 40
14.0
 40
14.0
 40
14.0
 40
15.0
 40
15.0
 40
15.0
 40
16.0
 40
16.0
 40
16.0
 40
17.0
 40
17.0
 40
17.0
 40
18.0
 40
18.0
 40
18.0
 40
19.0
 40
19.0
 40
19.0
 40
19.0
 10
104.6406412498815
 20
-139.203217196102
 30
0.0
 10
104.6406412498815
 20
-139.3062255511109
 30
0.0
 10
104.6179036196789
 20
-139.541870082302
 30
0.0
 10
104.4163655337917
 20
-139.6765733157753
 30
0.0
 10
104.295098172711
 20
-139.7568440405816
 30
0.0
 10
104.1876111935712
 20
-139.7613226647125
 30
0.0
 10
104.096316163212
 20
-139.7661457983918
 30
0.0
 10
104.096316163212
 20
-139.7661457983918
 30
0.0
 10
104.096316163212
 20
-139.5280897003611
 30
0.0
 10
104.096316163212
 20
-139.5280897003611
 30
0.0
 10
104.1762423784698
 20
-139.5256781335214
 30
0.0
 10
104.4301459157328
 20
-139.51430931842
 30
0.0
 10
104.4301459157328
 20
-139.2076958202328
 30
0.0
 10
104.4301459157328
 20
-139.0592122048186
 30
0.0
 10
104.3546983246058
 20
-138.8945366406236
 30
0.0
 10
104.1073404687648
 20
-138.8945366406236
 30
0.0
 10
103.9819389931017
 20
-138.8945366406236
 30
0.0
 10
103.9288845226289
 20
-138.9355332768981
 30
0.0
 10
103.8947780773249
 20
-138.969639722202
 30
0.0
 10
103.8145073525186
 20
-139.0499104470084
 30
0.0
 10
103.8010714801261
 20
-139.17565643222
 30
0.0
 10
103.8010714801261
 20
-139.2352565841148
 30
0.0
 10
103.8010714801261
 20
-139.2555826474778
 30
0.0
 10
103.8034830469658
 20
-139.2948567360096
 30
0.0
 10
103.8076171615481
 20
-139.3244845571828
 30
0.0
 10
103.8076171615481
 20
-139.3244845571828
 30
0.0
 10
103.5974663369479
 20
-139.3244845571828
 30
0.0
 10
103.5974663369479
 20
-139.3244845571828
 30
0.0
 10
103.6043565279184
 20
-139.2831434113598
 30
0.0
 10
103.6064235852095
 20
-139.2376681509545
 30
0.0
 10
103.6064235852095
 20
-139.230777959984
 30
0.0
 10
103.6064235852095
 20
-139.1598089929878
 30
0.0
 10
103.5836859550069
 20
-138.9448350347082
 30
0.0
 10
103.3273708509043
 20
-138.9448350347082
 30
0.0
 10
103.1351345228273
 20
-138.9448350347082
 30
0.0
 10
103.075878880481
 20
-139.0867729687005
 30
0.0
 10
103.075878880481
 20
-139.2052842533931
 30
0.0
 10
103.075878880481
 20
-139.4912271786689
 30
0.0
 10
103.3273708509043
 20
-139.500528936479
 30
0.0
 10
103.4052300088709
 20
-139.5050075606099
 30
0.0
 10
103.4052300088709
 20
-139.5050075606099
 30
0.0
 10
103.4052300088709
 20
-139.7248046525688
 30
0.0
 10
103.4052300088709
 20
-139.7248046525688
 30
0.0
 10
103.2701822658491
 20
-139.7158474043072
 30
0.0
 10
102.8629719794926
 20
-139.6858750735855
 30
0.0
 10
102.8629719794926
 20
-139.1918483810007
 30
0.0
 10
102.8629719794926
 20
-138.9493136588391
 30
0.0
 10
103.0000867798055
 20
-138.6885199306057
 30
0.0
 10
103.3204806599338
 20
-138.6885199306057
 30
0.0
 10
103.5216742362724
 20
-138.6885199306057
 30
0.0
 10
103.6112467188889
 20
-138.7911837760661
 30
0.0
 10
103.6773925522057
 20
-138.8990152647544
 30
0.0
 10
103.7070203733788
 20
-138.8325249218891
 30
0.0
 10
103.7941812891556
 20
-138.6358099696813
 30
0.0
 10
104.0939045963724
 20
-138.6358099696813
 30
0.0
 10
104.4601182464544
 20
-138.6358099696813
 30
0.0
 10
104.6406412498815
 20
-138.9034938888852
 30
0.0
 10
104.6406412498815
 20
-139.203217196102
 30
0.0
  0
HATCH
  5
D0
330
CB
100
AcDbEntity
  8
_U+30EC_U+30A4_U+30E4_U+30FC 1
 62
   179
420
  2234388
100
AcDbHatch
 10
0.0
 20
0.0
 30
0.0
210
0.0
220
0.0
230
1.0
  2
SOLID
 70
     1
 71
     0
 91
        1
 92
        1
 93
        1
 72
     4
 94
        3
 73
     0
 74
     1
 95
       62
 96
       58
 40
0.0
 40
0.0
 40
0.0
 40
0.0
 40
1.0
 40
1.0
 40
1.0
 40
2.0
 40
2.0
 40
2.0
 40
3.0
 40
3.0
 40
3.0
 40
4.0
 40
4.0
 40
4.0
 40
5.0
 40
5.0
 40
5.0
 40
6.0
 40
6.0
 40
6.0
 40
7.0
 40
7.0
 40
7.0
 40
8.0
 40
8.0
 40
8.0
 40
9.0
 40
9.0
 40
9.0
 40
10.0
 40
10.0
 40
10.0
 40
11.0
 40
11.0
 40
11.0
 40
12.0
 40
12.0
 40
12.0
 40
13.0
 40
13.0
 40
13.0
 40
14.0
 40
14.0
 40
14.0
 40
15.0
 40
15.0
 40
15.0
 40
16.0
 40
16.0
 40
16.0
 40
17.0
 40
17.0
 40
17.0
 40
18.0
 40
18.0
 40
18.0
 40
19.0
 40
19.0
 40
19.0
 40
19.0
 10
104.6406412498815
 20
-139.203217196102
 10
104.6406412498815
 20
-139.3062255511109
 10
104.6179036196789
 20
-139.541870082302
 10
104.4163655337917
 20
-139.6765733157753
 10
104.295098172711
 20
-139.7568440405816
 10
104.1876111935712
 20
-139.7613226647125
 10
104.096316163212
 20
-139.7661457983918
 10
104.096316163212
 20
-139.7661457983918
 10
104.096316163212
 20
-139.5280897003611
 10
104.096316163212
 20
-139.5280897003611
 10
104.1762423784698
 20
-139.5256781335214
 10
104.4301459157328
 20
-139.51430931842
 10
104.4301459157328
 20
-139.2076958202328
 10
104.4301459157328
 20
-139.0592122048186
 10
104.3546983246058
 20
-138.8945366406236
 10
104.1073404687648
 20
-138.8945366406236
 10
103.9819389931017
 20
-138.8945366406236
 10
103.9288845226289
 20
-138.9355332768981
 10
103.8947780773249
 20
-138.969639722202
 10
103.8145073525186
 20
-139.0499104470084
 10
103.8010714801261
 20
-139.17565643222
 10
103.8010714801261
 20
-139.2352565841148
 10
103.8010714801261
 20
-139.2555826474778
 10
103.8034830469658
 20
-139.2948567360096
 10
103.8076171615481
 20
-139.3244845571828
 10
103.8076171615481
 20
-139.3244845571828
 10
103.5974663369479
 20
-139.3244845571828
 10
103.5974663369479
 20
-139.3244845571828
 10
103.6043565279184
 20
-139.2831434113598
 10
103.6064235852095
 20
-139.2376681509545
 10
103.6064235852095
 20
-139.230777959984
 10
103.6064235852095
 20
-139.1598089929878
 10
103.5836859550069
 20
-138.9448350347082
 10
103.3273708509043
 20
-138.9448350347082
 10
103.1351345228273
 20
-138.9448350347082
 10
103.075878880481
 20
-139.0867729687005
 10
103.075878880481
 20
-139.2052842533931
 10
103.075878880481
 20
-139.4912271786689
 10
103.3273708509043
 20
-139.500528936479
 10
103.4052300088709
 20
-139.5050075606099
 10
103.4052300088709
 20
-139.5050075606099
 10
103.4052300088709
 20
-139.7248046525688
 10
103.4052300088709
 20
-139.7248046525688
 10
103.2701822658491
 20
-139.7158474043072
 10
102.8629719794926
 20
-139.6858750735855
 10
102.8629719794926
 20
-139.1918483810007
 10
102.8629719794926
 20
-138.9493136588391
 10
103.0000867798055
 20
-138.6885199306057
 10
103.3204806599338
 20
-138.6885199306057
 10
103.5216742362724
 20
-138.6885199306057
 10
103.6112467188889
 20
-138.7911837760661
 10
103.6773925522057
 20
-138.8990152647544
 10
103.7070203733788
 20
-138.8325249218891
 10
103.7941812891556
 20
-138.6358099696813
 10
104.0939045963724
 20
-138.6358099696813
 10
104.4601182464544
 20
-138.6358099696813
 10
104.6406412498815
 20
-138.9034938888852
 10
104.6406412498815
 20
-139.203217196102
 97
        0
 97
        0
 75
     2
 76
     1
 98
        0
  0
POLYLINE
  5
D1
330
CB
100
AcDbEntity
  8
_U+30EC_U+30A4_U+30E4_U+30FC 1
370
     0
100
AcDb2dPolyline
 66
     1
 10
0.0
 20
0.0
 30
0.0
  0
VERTEX
  5
D2
330
D1
100
AcDbEntity
  8
_U+30EC_U+30A4_U+30E4_U+30FC 1
370
     0
100
AcDbVertex
100
AcDb2dVertex
 10
104.5855197221175
 20
-138.3987874002961
 30
0.0
  0
VERTEX
  5
D3
330
D1
100
AcDbEntity
  8
_U+30EC_U+30A4_U+30E4_U+30FC 1
370
     0
100
AcDbVertex
100
AcDb2dVertex
 10
104.3133571787828
 20
-138.3987874002961
 30
0.0
  0
VERTEX
  5
D4
330
D1
100
AcDbEntity
  8
_U+30EC_U+30A4_U+30E4_U+30FC 1
370
     0
100
AcDbVertex
100
AcDb2dVertex
 10
104.3133571787828
 20
-138.1266248569614
 30
0.0
  0
VERTEX
  5
D5
330
D1
100
AcDbEntity
  8
_U+30EC_U+30A4_U+30E4_U+30FC 1
370
     0
100
AcDbVertex
100
AcDb2dVertex
 10
104.5855197221175
 20
-138.1266248569614
 30
0.0
  0
VERTEX
  5
D6
330
D1
100
AcDbEntity
  8
_U+30EC_U+30A4_U+30E4_U+30FC 1
370
     0
100
AcDbVertex
100
AcDb2dVertex
 10
104.5855197221175
 20
-138.3987874002961
 30
0.0
  0
SEQEND
  5
D7
330
D1
100
AcDbEntity
  8
_U+30EC_U+30A4_U+30E4_U+30FC 1
370
     0
  0
HATCH
  5
D8
330
CB
100
AcDbEntity
  8
_U+30EC_U+30A4_U+30E4_U+30FC 1
 62
   179
420
  2234388
100
AcDbHatch
 10
0.0
 20
0.0
 30
0.0
210
0.0
220
0.0
230
1.0
  2
SOLID
 70
     1
 71
     0
 91
        1
 92
        1
 93
        4
 72
     1
 10
104.5855197221175
 20
-138.3987874002961
 11
104.3133571787828
 21
-138.3987874002961
 72
     1
 10
104.3133571787828
 20
-138.3987874002961
 11
104.3133571787828
 21
-138.1266248569614
 72
     1
 10
104.3133571787828
 20
-138.1266248569614
 11
104.5855197221175
 21
-138.1266248569614
 72
     1
 10
104.5855197221175
 20
-138.1266248569614
 11
104.5855197221175
 21
-138.3987874002961
 97
        0
 75
     2
 76
     1
 98
        0
  0
SPLINE
  5
D9
330
CB
100
AcDbEntity
  8
_U+30EC_U+30A4_U+30E4_U+30FC 1
370
     0
100
AcDbSpline
210
0.0
220
0.0
230
1.0
 70
    11
 71
     3
 72
    62
 73
    58
 74
     0
 42
0.0000000001
 43
0.0000000001
 12
1.0
 22
0.0
 32
0.0
 13
1.0
 23
0.0
 33
0.0
 40
0.0
 40
0.0
 40
0.0
 40
0.0
 40
1.0
 40
1.0
 40
1.0
 40
2.0
 40
2.0
 40
2.0
 40
3.0
 40
3.0
 40
3.0
 40
4.0
 40
4.0
 40
4.0
 40
5.0
 40
5.0
 40
5.0
 40
6.0
 40
6.0
 40
6.0
 40
7.0
 40
7.0
 40
7.0
 40
8.0
 40
8.0
 40
8.0
 40
9.0
 40
9.0
 40
9.0
 40
10.0
 40
10.0
 40
10.0
 40
11.0
 40
11.0
 40
11.0
 40
12.0
 40
12.0
 40
12.0
 40
13.0
 40
13.0
 40
13.0
 40
14.0
 40
14.0
 40
14.0
 40
15.0
 40
15.0
 40
15.0
 40
16.0
 40
16.0
 40
16.0
 40
17.0
 40
17.0
 40
17.0
 40
18.0
 40
18.0
 40
18.0
 40
19.0
 40
19.0
 40
19.0
 40
19.0
 10
104.6406412498815
 20
-137.3401095576789
 30
0.0
 10
104.6406412498815
 20
-137.4431179126878
 30
0.0
 10
104.6179036196789
 20
-137.6787624438789
 30
0.0
 10
104.4163655337917
 20
-137.8134656773522
 30
0.0
 10
104.295098172711
 20
-137.8937364021585
 30
0.0
 10
104.1876111935712
 20
-137.8982150262893
 30
0.0
 10
104.096316163212
 20
-137.9030381599687
 30
0.0
 10
104.096316163212
 20
-137.9030381599687
 30
0.0
 10
104.096316163212
 20
-137.6649820619379
 30
0.0
 10
104.096316163212
 20
-137.6649820619379
 30
0.0
 10
104.1762423784698
 20
-137.6625704950983
 30
0.0
 10
104.4301459157328
 20
-137.6512016799969
 30
0.0
 10
104.4301459157328
 20
-137.3445881818097
 30
0.0
 10
104.4301459157328
 20
-137.1961045663954
 30
0.0
 10
104.3546983246058
 20
-137.0314290022005
 30
0.0
 10
104.1073404687648
 20
-137.0314290022005
 30
0.0
 10
103.9819389931017
 20
-137.0314290022005
 30
0.0
 10
103.9288845226289
 20
-137.072425638475
 30
0.0
 10
103.8947780773249
 20
-137.1065320837789
 30
0.0
 10
103.8145073525186
 20
-137.1868028085852
 30
0.0
 10
103.8010714801261
 20
-137.3125487937969
 30
0.0
 10
103.8010714801261
 20
-137.3721489456917
 30
0.0
 10
103.8010714801261
 20
-137.3924750090547
 30
0.0
 10
103.8034830469658
 20
-137.4317490975865
 30
0.0
 10
103.8076171615481
 20
-137.4613769187597
 30
0.0
 10
103.8076171615481
 20
-137.4613769187597
 30
0.0
 10
103.5974663369479
 20
-137.4613769187597
 30
0.0
 10
103.5974663369479
 20
-137.4613769187597
 30
0.0
 10
103.6043565279184
 20
-137.4200357729367
 30
0.0
 10
103.6064235852095
 20
-137.3745605125314
 30
0.0
 10
103.6064235852095
 20
-137.3676703215609
 30
0.0
 10
103.6064235852095
 20
-137.2967013545647
 30
0.0
 10
103.5836859550069
 20
-137.0817273962851
 30
0.0
 10
103.3273708509043
 20
-137.0817273962851
 30
0.0
 10
103.1351345228273
 20
-137.0817273962851
 30
0.0
 10
103.075878880481
 20
-137.2236653302774
 30
0.0
 10
103.075878880481
 20
-137.34217661497
 30
0.0
 10
103.075878880481
 20
-137.6281195402458
 30
0.0
 10
103.3273708509043
 20
-137.6374212980559
 30
0.0
 10
103.4052300088709
 20
-137.6418999221868
 30
0.0
 10
103.4052300088709
 20
-137.6418999221868
 30
0.0
 10
103.4052300088709
 20
-137.8616970141457
 30
0.0
 10
103.4052300088709
 20
-137.8616970141457
 30
0.0
 10
103.2701822658491
 20
-137.8527397658841
 30
0.0
 10
102.8629719794926
 20
-137.8227674351624
 30
0.0
 10
102.8629719794926
 20
-137.3287407425775
 30
0.0
 10
102.8629719794926
 20
-137.0862060204159
 30
0.0
 10
103.0000867798055
 20
-136.8254122921825
 30
0.0
 10
103.3204806599338
 20
-136.8254122921825
 30
0.0
 10
103.5216742362724
 20
-136.8254122921825
 30
0.0
 10
103.6112467188889
 20
-136.928076137643
 30
0.0
 10
103.6773925522057
 20
-137.0359076263313
 30
0.0
 10
103.7070203733788
 20
-136.969417283466
 30
0.0
 10
103.7941812891556
 20
-136.7727023312582
 30
0.0
 10
104.0939045963724
 20
-136.7727023312582
 30
0.0
 10
104.4601182464544
 20
-136.7727023312582
 30
0.0
 10
104.6406412498815
 20
-137.0403862504621
 30
0.0
 10
104.6406412498815
 20
-137.3401095576789
 30
0.0
  0
HATCH
  5
DA
330
CB
100
AcDbEntity
  8
_U+30EC_U+30A4_U+30E4_U+30FC 1
 62
   179
420
  2234388
100
AcDbHatch
 10
0.0
 20
0.0
 30
0.0
210
0.0
220
0.0
230
1.0
  2
SOLID
 70
     1
 71
     0
 91
        1
 92
        1
 93
        1
 72
     4
 94
        3
 73
     0
 74
     1
 95
       62
 96
       58
 40
0.0
 40
0.0
 40
0.0
 40
0.0
 40
1.0
 40
1.0
 40
1.0
 40
2.0
 40
2.0
 40
2.0
 40
3.0
 40
3.0
 40
3.0
 40
4.0
 40
4.0
 40
4.0
 40
5.0
 40
5.0
 40
5.0
 40
6.0
 40
6.0
 40
6.0
 40
7.0
 40
7.0
 40
7.0
 40
8.0
 40
8.0
 40
8.0
 40
9.0
 40
9.0
 40
9.0
 40
10.0
 40
10.0
 40
10.0
 40
11.0
 40
11.0
 40
11.0
 40
12.0
 40
12.0
 40
12.0
 40
13.0
 40
13.0
 40
13.0
 40
14.0
 40
14.0
 40
14.0
 40
15.0
 40
15.0
 40
15.0
 40
16.0
 40
16.0
 40
16.0
 40
17.0
 40
17.0
 40
17.0
 40
18.0
 40
18.0
 40
18.0
 40
19.0
 40
19.0
 40
19.0
 40
19.0
 10
104.6406412498815
 20
-137.3401095576789
 10
104.6406412498815
 20
-137.4431179126878
 10
104.6179036196789
 20
-137.6787624438789
 10
104.4163655337917
 20
-137.8134656773522
 10
104.295098172711
 20
-137.8937364021585
 10
104.1876111935712
 20
-137.8982150262893
 10
104.096316163212
 20
-137.9030381599687
 10
104.096316163212
 20
-137.9030381599687
 10
104.096316163212
 20
-137.6649820619379
 10
104.096316163212
 20
-137.6649820619379
 10
104.1762423784698
 20
-137.6625704950983
 10
104.4301459157328
 20
-137.6512016799969
 10
104.4301459157328
 20
-137.3445881818097
 10
104.4301459157328
 20
-137.1961045663954
 10
104.3546983246058
 20
-137.0314290022005
 10
104.1073404687648
 20
-137.0314290022005
 10
103.9819389931017
 20
-137.0314290022005
 10
103.9288845226289
 20
-137.072425638475
 10
103.8947780773249
 20
-137.1065320837789
 10
103.8145073525186
 20
-137.1868028085852
 10
103.8010714801261
 20
-137.3125487937969
 10
103.8010714801261
 20
-137.3721489456917
 10
103.8010714801261
 20
-137.3924750090547
 10
103.8034830469658
 20
-137.4317490975865
 10
103.8076171615481
 20
-137.4613769187597
 10
103.8076171615481
 20
-137.4613769187597
 10
103.5974663369479
 20
-137.4613769187597
 10
103.5974663369479
 20
-137.4613769187597
 10
103.6043565279184
 20
-137.4200357729367
 10
103.6064235852095
 20
-137.3745605125314
 10
103.6064235852095
 20
-137.3676703215609
 10
103.6064235852095
 20
-137.2967013545647
 10
103.5836859550069
 20
-137.0817273962851
 10
103.3273708509043
 20
-137.0817273962851
 10
103.1351345228273
 20
-137.0817273962851
 10
103.075878880481
 20
-137.2236653302774
 10
103.075878880481
 20
-137.34217661497
 10
103.075878880481
 20
-137.6281195402458
 10
103.3273708509043
 20
-137.6374212980559
 10
103.4052300088709
 20
-137.6418999221868
 10
103.4052300088709
 20
-137.6418999221868
 10
103.4052300088709
 20
-137.8616970141457
 10
103.4052300088709
 20
-137.8616970141457
 10
103.2701822658491
 20
-137.8527397658841
 10
102.8629719794926
 20
-137.8227674351624
 10
102.8629719794926
 20
-137.3287407425775
 10
102.8629719794926
 20
-137.0862060204159
 10
103.0000867798055
 20
-136.8254122921825
 10
103.3204806599338
 20
-136.8254122921825
 10
103.5216742362724
 20
-136.8254122921825
 10
103.6112467188889
 20
-136.928076137643
 10
103.6773925522057
 20
-137.0359076263313
 10
103.7070203733788
 20
-136.969417283466
 10
103.7941812891556
 20
-136.7727023312582
 10
104.0939045963724
 20
-136.7727023312582
 10
104.4601182464544
 20
-136.7727023312582
 10
104.6406412498815
 20
-137.0403862504621
 10
104.6406412498815
 20
-137.3401095576789
 97
        0
 97
        0
 75
     2
 76
     1
 98
        0
  0
ENDBLK
  5
CE
330
CB
100
AcDbEntity
  8
0
100
AcDbBlockEnd
  0
BLOCK
  5
E5
330
E3
100
AcDbEntity
  8
0
100
AcDbBlockBegin
  2
block 6
 70
     0
 10
0.0
 20
0.0
 30
0.0
  3
block 6
  1

  0
SPLINE
  5
E7
330
E3
100
AcDbEntity
  8
_U+30EC_U+30A4_U+30E4_U+30FC 1
370
     0
100
AcDbSpline
210
0.0
220
0.0
230
1.0
 70
    11
 71
     3
 72
    26
 73
    22
 74
     0
 42
0.0000000001
 43
0.0000000001
 12
1.0
 22
0.0
 32
0.0
 13
1.0
 23
0.0
 33
0.0
 40
0.0
 40
0.0
 40
0.0
 40
0.0
 40
1.0
 40
1.0
 40
1.0
 40
2.0
 40
2.0
 40
2.0
 40
3.0
 40
3.0
 40
3.0
 40
4.0
 40
4.0
 40
4.0
 40
5.0
 40
5.0
 40
5.0
 40
6.0
 40
6.0
 40
6.0
 40
7.0
 40
7.0
 40
7.0
 40
7.0
 10
104.585864231666
 20
-130.0048122504849
 30
0.0
 10
104.585864231666
 20
-130.0048122504849
 30
0.0
 10
103.3914496269299
 20
-130.0048122504849
 30
0.0
 10
103.3914496269299
 20
-130.0048122504849
 30
0.0
 10
103.3914496269299
 20
-130.0048122504849
 30
0.0
 10
103.3914496269299
 20
-130.3479437608158
 30
0.0
 10
103.3914496269299
 20
-130.3479437608158
 30
0.0
 10
103.3914496269299
 20
-130.3479437608158
 30
0.0
 10
103.2315971964143
 20
-130.3479437608158
 30
0.0
 10
103.2315971964143
 20
-130.3479437608158
 30
0.0
 10
103.2157497571822
 20
-130.0024006836452
 30
0.0
 10
103.0393608683374
 20
-129.9538248373032
 30
0.0
 10
102.9160264499654
 20
-129.9231634874845
 30
0.0
 10
102.9160264499654
 20
-129.9231634874845
 30
0.0
 10
102.9160264499654
 20
-129.771234776585
 30
0.0
 10
102.9160264499654
 20
-129.771234776585
 30
0.0
 10
102.9160264499654
 20
-129.771234776585
 30
0.0
 10
104.585864231666
 20
-129.771234776585
 30
0.0
 10
104.585864231666
 20
-129.771234776585
 30
0.0
 10
104.585864231666
 20
-129.771234776585
 30
0.0
 10
104.585864231666
 20
-130.0048122504849
 30
0.0
 10
104.585864231666
 20
-130.0048122504849
 30
0.0
  0
HATCH
  5
E8
330
E3
100
AcDbEntity
  8
_U+30EC_U+30A4_U+30E4_U+30FC 1
 62
   179
420
  2234388
100
AcDbHatch
 10
0.0
 20
0.0
 30
0.0
210
0.0
220
0.0
230
1.0
  2
SOLID
 70
     1
 71
     0
 91
        1
 92
        1
 93
        1
 72
     4
 94
        3
 73
     0
 74
     1
 95
       26
 96
       22
 40
0.0
 40
0.0
 40
0.0
 40
0.0
 40
1.0
 40
1.0
 40
1.0
 40
2.0
 40
2.0
 40
2.0
 40
3.0
 40
3.0
 40
3.0
 40
4.0
 40
4.0
 40
4.0
 40
5.0
 40
5.0
 40
5.0
 40
6.0
 40
6.0
 40
6.0
 40
7.0
 40
7.0
 40
7.0
 40
7.0
 10
104.585864231666
 20
-130.0048122504849
 10
104.585864231666
 20
-130.0048122504849
 10
103.3914496269299
 20
-130.0048122504849
 10
103.3914496269299
 20
-130.0048122504849
 10
103.3914496269299
 20
-130.0048122504849
 10
103.3914496269299
 20
-130.3479437608158
 10
103.3914496269299
 20
-130.3479437608158
 10
103.3914496269299
 20
-130.3479437608158
 10
103.2315971964143
 20
-130.3479437608158
 10
103.2315971964143
 20
-130.3479437608158
 10
103.2157497571822
 20
-130.0024006836452
 10
103.0393608683374
 20
-129.9538248373032
 10
102.9160264499654
 20
-129.9231634874845
 10
102.9160264499654
 20
-129.9231634874845
 10
102.9160264499654
 20
-129.771234776585
 10
102.9160264499654
 20
-129.771234776585
 10
102.9160264499654
 20
-129.771234776585
 10
104.585864231666
 20
-129.771234776585
 10
104.585864231666
 20
-129.771234776585
 10
104.585864231666
 20
-129.771234776585
 10
104.585864231666
 20
-130.0048122504849
 10
104.585864231666
 20
-130.0048122504849
 97
        0
 97
        0
 75
     2
 76
     1
 98
        0
  0
SPLINE
  5
E9
330
E3
100
AcDbEntity
  8
_U+30EC_U+30A4_U+30E4_U+30FC 1
370
     0
100
AcDbSpline
210
0.0
220
0.0
230
1.0
 70
    11
 71
     3
 72
    62
 73
    58
 74
     0
 42
0.0000000001
 43
0.0000000001
 12
1.0
 22
0.0
 32
0.0
 13
1.0
 23
0.0
 33
0.0
 40
0.0
 40
0.0
 40
0.0
 40
0.0
 40
1.0
 40
1.0
 40
1.0
 40
2.0
 40
2.0
 40
2.0
 40
3.0
 40
3.0
 40
3.0
 40
4.0
 40
4.0
 40
4.0
 40
5.0
 40
5.0
 40
5.0
 40
6.0
 40
6.0
 40
6.0
 40
7.0
 40
7.0
 40
7.0
 40
8.0
 40
8.0
 40
8.0
 40
9.0
 40
9.0
 40
9.0
 40
10.0
 40
10.0
 40
10.0
 40
11.0
 40
11.0
 40
11.0
 40
12.0
 40
12.0
 40
12.0
 40
13.0
 40
13.0
 40
13.0
 40
14.0
 40
14.0
 40
14.0
 40
15.0
 40
15.0
 40
15.0
 40
16.0
 40
16.0
 40
16.0
 40
17.0
 40
17.0
 40
17.0
 40
18.0
 40
18.0
 40
18.0
 40
19.0
 40
19.0
 40
19.0
 40
19.0
 10
104.6406412498815
 20
-128.7387396596556
 30
0.0
 10
104.6406412498815
 20
-128.8376139000823
 30
0.0
 10
104.6179036196789
 20
-129.0646456925602
 30
0.0
 10
104.4167100433403
 20
-129.1945257923541
 30
0.0
 10
104.2954426822595
 20
-129.2716959312237
 30
0.0
 10
104.1879557031197
 20
-129.2758300458061
 30
0.0
 10
104.096316163212
 20
-129.2803086699369
 30
0.0
 10
104.096316163212
 20
-129.2803086699369
 30
0.0
 10
104.096316163212
 20
-129.0512098201678
 30
0.0
 10
104.096316163212
 20
-129.0512098201678
 30
0.0
 10
104.1762423784698
 20
-129.0491427628766
 30
0.0
 10
104.4304904252813
 20
-129.0381184573238
 30
0.0
 10
104.4304904252813
 20
-128.7432182837864
 30
0.0
 10
104.4304904252813
 20
-128.6000745663743
 30
0.0
 10
104.3546983246058
 20
-128.4414279192785
 30
0.0
 10
104.1076849783134
 20
-128.4414279192785
 30
0.0
 10
103.9819389931017
 20
-128.4414279192785
 30
0.0
 10
103.9292290321774
 20
-128.4812187721332
 30
0.0
 10
103.8951225868734
 20
-128.5141194340173
 30
0.0
 10
103.8148518620671
 20
-128.5912895728869
 30
0.0
 10
103.8014159896747
 20
-128.7123846791934
 30
0.0
 10
103.8014159896747
 20
-128.7694010094743
 30
0.0
 10
103.8014159896747
 20
-128.7893825632888
 30
0.0
 10
103.8034830469658
 20
-128.8265895945295
 30
0.0
 10
103.8079616710966
 20
-128.8555283966056
 30
0.0
 10
103.8079616710966
 20
-128.8555283966056
 30
0.0
 10
103.5974663369479
 20
-128.8555283966056
 30
0.0
 10
103.5974663369479
 20
-128.8555283966056
 30
0.0
 10
103.6043565279184
 20
-128.8155652889767
 30
0.0
 10
103.606768094758
 20
-128.771812576314
 30
0.0
 10
103.606768094758
 20
-128.765266894892
 30
0.0
 10
103.606768094758
 20
-128.6968817495098
 30
0.0
 10
103.5836859550069
 20
-128.4900037656206
 30
0.0
 10
103.3273708509043
 20
-128.4900037656206
 30
0.0
 10
103.1354790323759
 20
-128.4900037656206
 30
0.0
 10
103.075878880481
 20
-128.6264295468364
 30
0.0
 10
103.075878880481
 20
-128.740978971721
 30
0.0
 10
103.075878880481
 20
-129.0160698462182
 30
0.0
 10
103.3273708509043
 20
-129.0250270944799
 30
0.0
 10
103.4052300088709
 20
-129.0291612090622
 30
0.0
 10
103.4052300088709
 20
-129.0291612090622
 30
0.0
 10
103.4052300088709
 20
-129.2406900718565
 30
0.0
 10
103.4052300088709
 20
-129.2406900718565
 30
0.0
 10
103.2701822658491
 20
-129.2317328235949
 30
0.0
 10
102.8629719794926
 20
-129.2034830406158
 30
0.0
 10
102.8629719794926
 20
-128.7277153541028
 30
0.0
 10
102.8629719794926
 20
-128.4943101349771
 30
0.0
 10
103.0004312893541
 20
-128.2433349288767
 30
0.0
 10
103.3204806599338
 20
-128.2433349288767
 30
0.0
 10
103.5220187458209
 20
-128.2433349288767
 30
0.0
 10
103.6112467188889
 20
-128.3423814240776
 30
0.0
 10
103.6773925522057
 20
-128.4459065434094
 30
0.0
 10
103.7073648829273
 20
-128.382000022158
 30
0.0
 10
103.7945257987042
 20
-128.1926920252435
 30
0.0
 10
104.0942491059209
 20
-128.1926920252435
 30
0.0
 10
104.4601182464544
 20
-128.1926920252435
 30
0.0
 10
104.6406412498815
 20
-128.4503851675402
 30
0.0
 10
104.6406412498815
 20
-128.7387396596556
 30
0.0
  0
HATCH
  5
EA
330
E3
100
AcDbEntity
  8
_U+30EC_U+30A4_U+30E4_U+30FC 1
 62
   179
420
  2234388
100
AcDbHatch
 10
0.0
 20
0.0
 30
0.0
210
0.0
220
0.0
230
1.0
  2
SOLID
 70
     1
 71
     0
 91
        1
 92
        1
 93
        1
 72
     4
 94
        3
 73
     0
 74
     1
 95
       62
 96
       58
 40
0.0
 40
0.0
 40
0.0
 40
0.0
 40
1.0
 40
1.0
 40
1.0
 40
2.0
 40
2.0
 40
2.0
 40
3.0
 40
3.0
 40
3.0
 40
4.0
 40
4.0
 40
4.0
 40
5.0
 40
5.0
 40
5.0
 40
6.0
 40
6.0
 40
6.0
 40
7.0
 40
7.0
 40
7.0
 40
8.0
 40
8.0
 40
8.0
 40
9.0
 40
9.0
 40
9.0
 40
10.0
 40
10.0
 40
10.0
 40
11.0
 40
11.0
 40
11.0
 40
12.0
 40
12.0
 40
12.0
 40
13.0
 40
13.0
 40
13.0
 40
14.0
 40
14.0
 40
14.0
 40
15.0
 40
15.0
 40
15.0
 40
16.0
 40
16.0
 40
16.0
 40
17.0
 40
17.0
 40
17.0
 40
18.0
 40
18.0
 40
18.0
 40
19.0
 40
19.0
 40
19.0
 40
19.0
 10
104.6406412498815
 20
-128.7387396596556
 10
104.6406412498815
 20
-128.8376139000823
 10
104.6179036196789
 20
-129.0646456925602
 10
104.4167100433403
 20
-129.1945257923541
 10
104.2954426822595
 20
-129.2716959312237
 10
104.1879557031197
 20
-129.2758300458061
 10
104.096316163212
 20
-129.2803086699369
 10
104.096316163212
 20
-129.2803086699369
 10
104.096316163212
 20
-129.0512098201678
 10
104.096316163212
 20
-129.0512098201678
 10
104.1762423784698
 20
-129.0491427628766
 10
104.4304904252813
 20
-129.0381184573238
 10
104.4304904252813
 20
-128.7432182837864
 10
104.4304904252813
 20
-128.6000745663743
 10
104.3546983246058
 20
-128.4414279192785
 10
104.1076849783134
 20
-128.4414279192785
 10
103.9819389931017
 20
-128.4414279192785
 10
103.9292290321774
 20
-128.4812187721332
 10
103.8951225868734
 20
-128.5141194340173
 10
103.8148518620671
 20
-128.5912895728869
 10
103.8014159896747
 20
-128.7123846791934
 10
103.8014159896747
 20
-128.7694010094743
 10
103.8014159896747
 20
-128.7893825632888
 10
103.8034830469658
 20
-128.8265895945295
 10
103.8079616710966
 20
-128.8555283966056
 10
103.8079616710966
 20
-128.8555283966056
 10
103.5974663369479
 20
-128.8555283966056
 10
103.5974663369479
 20
-128.8555283966056
 10
103.6043565279184
 20
-128.8155652889767
 10
103.606768094758
 20
-128.771812576314
 10
103.606768094758
 20
-128.765266894892
 10
103.606768094758
 20
-128.6968817495098
 10
103.5836859550069
 20
-128.4900037656206
 10
103.3273708509043
 20
-128.4900037656206
 10
103.1354790323759
 20
-128.4900037656206
 10
103.075878880481
 20
-128.6264295468364
 10
103.075878880481
 20
-128.740978971721
 10
103.075878880481
 20
-129.0160698462182
 10
103.3273708509043
 20
-129.0250270944799
 10
103.4052300088709
 20
-129.0291612090622
 10
103.4052300088709
 20
-129.0291612090622
 10
103.4052300088709
 20
-129.2406900718565
 10
103.4052300088709
 20
-129.2406900718565
 10
103.2701822658491
 20
-129.2317328235949
 10
102.8629719794926
 20
-129.2034830406158
 10
102.8629719794926
 20
-128.7277153541028
 10
102.8629719794926
 20
-128.4943101349771
 10
103.0004312893541
 20
-128.2433349288767
 10
103.3204806599338
 20
-128.2433349288767
 10
103.5220187458209
 20
-128.2433349288767
 10
103.6112467188889
 20
-128.3423814240776
 10
103.6773925522057
 20
-128.4459065434094
 10
103.7073648829273
 20
-128.382000022158
 10
103.7945257987042
 20
-128.1926920252435
 10
104.0942491059209
 20
-128.1926920252435
 10
104.4601182464544
 20
-128.1926920252435
 10
104.6406412498815
 20
-128.4503851675402
 10
104.6406412498815
 20
-128.7387396596556
 97
        0
 97
        0
 75
     2
 76
     1
 98
        0
  0
POLYLINE
  5
EB
330
E3
100
AcDbEntity
  8
_U+30EC_U+30A4_U+30E4_U+30FC 1
370
     0
100
AcDb2dPolyline
 66
     1
 10
0.0
 20
0.0
 30
0.0
  0
VERTEX
  5
EC
330
EB
100
AcDbEntity
  8
_U+30EC_U+30A4_U+30E4_U+30FC 1
370
     0
100
AcDbVertex
100
AcDb2dVertex
 10
104.585864231666
 20
-127.9637654302486
 30
0.0
  0
VERTEX
  5
ED
330
EB
100
AcDbEntity
  8
_U+30EC_U+30A4_U+30E4_U+30FC 1
370
     0
100
AcDbVertex
100
AcDb2dVertex
 10
104.3137016883313
 20
-127.9637654302486
 30
0.0
  0
VERTEX
  5
EE
330
EB
100
AcDbEntity
  8
_U+30EC_U+30A4_U+30E4_U+30FC 1
370
     0
100
AcDbVertex
100
AcDb2dVertex
 10
104.3137016883313
 20
-127.7017659185954
 30
0.0
  0
VERTEX
  5
EF
330
EB
100
AcDbEntity
  8
_U+30EC_U+30A4_U+30E4_U+30FC 1
370
     0
100
AcDbVertex
100
AcDb2dVertex
 10
104.585864231666
 20
-127.7017659185954
 30
0.0
  0
VERTEX
  5
F0
330
EB
100
AcDbEntity
  8
_U+30EC_U+30A4_U+30E4_U+30FC 1
370
     0
100
AcDbVertex
100
AcDb2dVertex
 10
104.585864231666
 20
-127.9637654302486
 30
0.0
  0
SEQEND
  5
F1
330
EB
100
AcDbEntity
  8
_U+30EC_U+30A4_U+30E4_U+30FC 1
370
     0
  0
HATCH
  5
F2
330
E3
100
AcDbEntity
  8
_U+30EC_U+30A4_U+30E4_U+30FC 1
 62
   179
420
  2234388
100
AcDbHatch
 10
0.0
 20
0.0
 30
0.0
210
0.0
220
0.0
230
1.0
  2
SOLID
 70
     1
 71
     0
 91
        1
 92
        1
 93
        4
 72
     1
 10
104.585864231666
 20
-127.9637654302486
 11
104.3137016883313
 21
-127.9637654302486
 72
     1
 10
104.3137016883313
 20
-127.9637654302486
 11
104.3137016883313
 21
-127.7017659185954
 72
     1
 10
104.3137016883313
 20
-127.7017659185954
 11
104.585864231666
 21
-127.7017659185954
 72
     1
 10
104.585864231666
 20
-127.7017659185954
 11
104.585864231666
 21
-127.9637654302486
 97
        0
 75
     2
 76
     1
 98
        0
  0
SPLINE
  5
F3
330
E3
100
AcDbEntity
  8
_U+30EC_U+30A4_U+30E4_U+30FC 1
370
     0
100
AcDbSpline
210
0.0
220
0.0
230
1.0
 70
    11
 71
     3
 72
    53
 73
    49
 74
     0
 42
0.0000000001
 43
0.0000000001
 12
1.0
 22
0.0
 32
0.0
 13
1.0
 23
0.0
 33
0.0
 40
0.0
 40
0.0
 40
0.0
 40
0.0
 40
1.0
 40
1.0
 40
1.0
 40
2.0
 40
2.0
 40
2.0
 40
3.0
 40
3.0
 40
3.0
 40
4.0
 40
4.0
 40
4.0
 40
5.0
 40
5.0
 40
5.0
 40
6.0
 40
6.0
 40
6.0
 40
7.0
 40
7.0
 40
7.0
 40
8.0
 40
8.0
 40
8.0
 40
9.0
 40
9.0
 40
9.0
 40
10.0
 40
10.0
 40
10.0
 40
11.0
 40
11.0
 40
11.0
 40
12.0
 40
12.0
 40
12.0
 40
13.0
 40
13.0
 40
13.0
 40
14.0
 40
14.0
 40
14.0
 40
15.0
 40
15.0
 40
15.0
 40
16.0
 40
16.0
 40
16.0
 40
16.0
 10
104.6406412498815
 20
-126.9555582364903
 30
0.0
 10
104.6406412498815
 20
-127.0370347447164
 30
0.0
 10
104.6223822438097
 20
-127.1426269213393
 30
0.0
 10
104.5538248436532
 20
-127.2483913527365
 30
0.0
 10
104.4346245398636
 20
-127.4289143561636
 30
0.0
 10
104.2930311154198
 20
-127.4509629672692
 30
0.0
 10
104.1762423784698
 20
-127.4707722663094
 30
0.0
 10
104.1762423784698
 20
-127.4707722663094
 30
0.0
 10
104.1762423784698
 20
-127.2396063592491
 30
0.0
 10
104.1762423784698
 20
-127.2396063592491
 30
0.0
 10
104.3912163367494
 20
-127.1822455194197
 30
0.0
 10
104.4236002343108
 20
-127.0501261075604
 30
0.0
 10
104.4236002343108
 20
-126.9533189244249
 30
0.0
 10
104.4236002343108
 20
-126.8081081497216
 30
0.0
 10
104.316113255171
 20
-126.6494615026258
 30
0.0
 10
104.0642767751992
 20
-126.6494615026258
 30
0.0
 10
103.7876356077336
 20
-126.6494615026258
 30
0.0
 10
103.7118435070581
 20
-126.8367024422492
 30
0.0
 10
103.7118435070581
 20
-126.9621039179123
 30
0.0
 10
103.7118435070581
 20
-126.9951768345707
 30
0.0
 10
103.7118435070581
 20
-127.1426269213393
 30
0.0
 10
103.8517143837593
 20
-127.2351277351183
 30
0.0
 10
103.8517143837593
 20
-127.2351277351183
 30
0.0
 10
103.8310438108478
 20
-127.4178900506108
 30
0.0
 10
103.8310438108478
 20
-127.4178900506108
 30
0.0
 10
103.8310438108478
 20
-127.4178900506108
 30
0.0
 10
102.9160264499654
 20
-127.2923163201735
 30
0.0
 10
102.9160264499654
 20
-127.2923163201735
 30
0.0
 10
102.9160264499654
 20
-127.2923163201735
 30
0.0
 10
102.9160264499654
 20
-126.4822021168169
 30
0.0
 10
102.9160264499654
 20
-126.4822021168169
 30
0.0
 10
102.9160264499654
 20
-126.4822021168169
 30
0.0
 10
103.1261772745657
 20
-126.4822021168169
 30
0.0
 10
103.1261772745657
 20
-126.4822021168169
 30
0.0
 10
103.1261772745657
 20
-126.4822021168169
 30
0.0
 10
103.1261772745657
 20
-127.1228176222992
 30
0.0
 10
103.1261772745657
 20
-127.1228176222992
 30
0.0
 10
103.1261772745657
 20
-127.1228176222992
 30
0.0
 10
103.5836859550069
 20
-127.1910305129071
 30
0.0
 10
103.5836859550069
 20
-127.1910305129071
 30
0.0
 10
103.5471679428632
 20
-127.12729624643
 30
0.0
 10
103.5037597397491
 20
-127.041341114073
 30
0.0
 10
103.5037597397491
 20
-126.9181789504753
 30
0.0
 10
103.5037597397491
 20
-126.6539401267567
 30
0.0
 10
103.7049533160877
 20
-126.4072712900128
 30
0.0
 10
104.0436062022877
 20
-126.4072712900128
 30
0.0
 10
104.3870822221671
 20
-126.4072712900128
 30
0.0
 10
104.6406412498815
 20
-126.6406765091384
 30
0.0
 10
104.6406412498815
 20
-126.9555582364903
 30
0.0
  0
HATCH
  5
F4
330
E3
100
AcDbEntity
  8
_U+30EC_U+30A4_U+30E4_U+30FC 1
 62
   179
420
  2234388
100
AcDbHatch
 10
0.0
 20
0.0
 30
0.0
210
0.0
220
0.0
230
1.0
  2
SOLID
 70
     1
 71
     0
 91
        1
 92
        1
 93
        1
 72
     4
 94
        3
 73
     0
 74
     1
 95
       53
 96
       49
 40
0.0
 40
0.0
 40
0.0
 40
0.0
 40
1.0
 40
1.0
 40
1.0
 40
2.0
 40
2.0
 40
2.0
 40
3.0
 40
3.0
 40
3.0
 40
4.0
 40
4.0
 40
4.0
 40
5.0
 40
5.0
 40
5.0
 40
6.0
 40
6.0
 40
6.0
 40
7.0
 40
7.0
 40
7.0
 40
8.0
 40
8.0
 40
8.0
 40
9.0
 40
9.0
 40
9.0
 40
10.0
 40
10.0
 40
10.0
 40
11.0
 40
11.0
 40
11.0
 40
12.0
 40
12.0
 40
12.0
 40
13.0
 40
13.0
 40
13.0
 40
14.0
 40
14.0
 40
14.0
 40
15.0
 40
15.0
 40
15.0
 40
16.0
 40
16.0
 40
16.0
 40
16.0
 10
104.6406412498815
 20
-126.9555582364903
 10
104.6406412498815
 20
-127.0370347447164
 10
104.6223822438097
 20
-127.1426269213393
 10
104.5538248436532
 20
-127.2483913527365
 10
104.4346245398636
 20
-127.4289143561636
 10
104.2930311154198
 20
-127.4509629672692
 10
104.1762423784698
 20
-127.4707722663094
 10
104.1762423784698
 20
-127.4707722663094
 10
104.1762423784698
 20
-127.2396063592491
 10
104.1762423784698
 20
-127.2396063592491
 10
104.3912163367494
 20
-127.1822455194197
 10
104.4236002343108
 20
-127.0501261075604
 10
104.4236002343108
 20
-126.9533189244249
 10
104.4236002343108
 20
-126.8081081497216
 10
104.316113255171
 20
-126.6494615026258
 10
104.0642767751992
 20
-126.6494615026258
 10
103.7876356077336
 20
-126.6494615026258
 10
103.7118435070581
 20
-126.8367024422492
 10
103.7118435070581
 20
-126.9621039179123
 10
103.7118435070581
 20
-126.9951768345707
 10
103.7118435070581
 20
-127.1426269213393
 10
103.8517143837593
 20
-127.2351277351183
 10
103.8517143837593
 20
-127.2351277351183
 10
103.8310438108478
 20
-127.4178900506108
 10
103.8310438108478
 20
-127.4178900506108
 10
103.8310438108478
 20
-127.4178900506108
 10
102.9160264499654
 20
-127.2923163201735
 10
102.9160264499654
 20
-127.2923163201735
 10
102.9160264499654
 20
-127.2923163201735
 10
102.9160264499654
 20
-126.4822021168169
 10
102.9160264499654
 20
-126.4822021168169
 10
102.9160264499654
 20
-126.4822021168169
 10
103.1261772745657
 20
-126.4822021168169
 10
103.1261772745657
 20
-126.4822021168169
 10
103.1261772745657
 20
-126.4822021168169
 10
103.1261772745657
 20
-127.1228176222992
 10
103.1261772745657
 20
-127.1228176222992
 10
103.1261772745657
 20
-127.1228176222992
 10
103.5836859550069
 20
-127.1910305129071
 10
103.5836859550069
 20
-127.1910305129071
 10
103.5471679428632
 20
-127.12729624643
 10
103.5037597397491
 20
-127.041341114073
 10
103.5037597397491
 20
-126.9181789504753
 10
103.5037597397491
 20
-126.6539401267567
 10
103.7049533160877
 20
-126.4072712900128
 10
104.0436062022877
 20
-126.4072712900128
 10
104.3870822221671
 20
-126.4072712900128
 10
104.6406412498815
 20
-126.6406765091384
 10
104.6406412498815
 20
-126.9555582364903
 97
        0
 97
        0
 75
     2
 76
     1
 98
        0
  0
ENDBLK
  5
E6
330
E3
100
AcDbEntity
  8
0
100
AcDbBlockEnd
  0
ENDSEC
  0
SECTION
  2
ENTITIES
  0
POLYLINE
  5
41
330
1F
100
AcDbEntity
  8
_U+30EC_U+30A4_U+30E4_U+30FC 1
370
     0
100
AcDb2dPolyline
 66
     1
 10
0.0
 20
0.0
 30
0.0
  0
VERTEX
  5
42
330
41
100
AcDbEntity
  8
_U+30EC_U+30A4_U+30E4_U+30FC 1
370
     0
100
AcDbVertex
100
AcDb2dVertex
 10
81.84444442398333
 20
-122.8236755248498
 30
0.0
  0
VERTEX
  5
43
330
41
100
AcDbEntity
  8
_U+30EC_U+30A4_U+30E4_U+30FC 1
370
     0
100
AcDbVertex
100
AcDb2dVertex
 10
102.6583333076688
 20
-122.8236755248498
 30
0.0
  0
VERTEX
  5
44
330
41
100
AcDbEntity
  8
_U+30EC_U+30A4_U+30E4_U+30FC 1
370
     0
100
AcDbVertex
100
AcDb2dVertex
 10
102.6583333076688
 20
-123.7938144134961
 30
0.0
  0
VERTEX
  5
45
330
41
100
AcDbEntity
  8
_U+30EC_U+30A4_U+30E4_U+30FC 1
370
     0
100
AcDbVertex
100
AcDb2dVertex
 10
82.6381944237849
 20
-123.7056199690737
 30
0.0
  0
VERTEX
  5
46
330
41
100
AcDbEntity
  8
_U+30EC_U+30A4_U+30E4_U+30FC 1
370
     0
100
AcDbVertex
100
AcDb2dVertex
 10
82.54999997936251
 20
-134.6419074663394
 30
0.0
  0
VERTEX
  5
47
330
41
100
AcDbEntity
  8
_U+30EC_U+30A4_U+30E4_U+30FC 1
370
     0
100
AcDbVertex
100
AcDb2dVertex
 10
91.45763886602448
 20
-134.6419074663394
 30
0.0
  0
VERTEX
  5
48
330
41
100
AcDbEntity
  8
_U+30EC_U+30A4_U+30E4_U+30FC 1
370
     0
100
AcDbVertex
100
AcDb2dVertex
 10
91.45763886602448
 20
-133.3189908000034
 30
0.0
  0
VERTEX
  5
49
330
41
100
AcDbEntity
  8
_U+30EC_U+30A4_U+30E4_U+30FC 1
370
     0
100
AcDbVertex
100
AcDb2dVertex
 10
92.25138886582604
 20
-133.3189908000034
 30
0.0
  0
VERTEX
  5
4A
330
41
100
AcDbEntity
  8
_U+30EC_U+30A4_U+30E4_U+30FC 1
370
     0
100
AcDbVertex
100
AcDb2dVertex
 10
92.25138886582604
 20
-135.4356574661409
 30
0.0
  0
VERTEX
  5
4B
330
41
100
AcDbEntity
  8
_U+30EC_U+30A4_U+30E4_U+30FC 1
370
     0
100
AcDbVertex
100
AcDb2dVertex
 10
81.75624997956095
 20
-135.4356574661409
 30
0.0
  0
VERTEX
  5
4C
330
41
100
AcDbEntity
  8
_U+30EC_U+30A4_U+30E4_U+30FC 1
370
     0
100
AcDbVertex
100
AcDb2dVertex
 10
81.84444442398333
 20
-122.8236755248498
 30
0.0
  0
SEQEND
  5
4E
330
41
100
AcDbEntity
  8
_U+30EC_U+30A4_U+30E4_U+30FC 1
370
     0
  0
HATCH
  5
4D
330
1F
100
AcDbEntity
  8
_U+30EC_U+30A4_U+30E4_U+30FC 1
 62
   253
420
 10066329
100
AcDbHatch
 10
0.0
 20
0.0
 30
0.0
210
0.0
220
0.0
230
1.0
  2
SOLID
 70
     1
 71
     0
 91
        1
 92
        1
 93
       10
 72
     1
 10
81.84444442398333
 20
-122.8236755248498
 11
102.6583333076688
 21
-122.8236755248498
 72
     1
 10
102.6583333076688
 20
-122.8236755248498
 11
102.6583333076688
 21
-123.7938144134961
 72
     1
 10
102.6583333076688
 20
-123.7938144134961
 11
82.6381944237849
 21
-123.7056199690737
 72
     1
 10
82.6381944237849
 20
-123.7056199690737
 11
82.54999997936251
 21
-134.6419074663394
 72
     1
 10
82.54999997936251
 20
-134.6419074663394
 11
91.45763886602448
 21
-134.6419074663394
 72
     1
 10
91.45763886602448
 20
-134.6419074663394
 11
91.45763886602448
 21
-133.3189908000034
 72
     1
 10
91.45763886602448
 20
-133.3189908000034
 11
92.25138886582604
 21
-133.3189908000034
 72
     1
 10
92.25138886582604
 20
-133.3189908000034
 11
92.25138886582604
 21
-135.4356574661409
 72
     1
 10
92.25138886582604
 20
-135.4356574661409
 11
81.75624997956095
 21
-135.4356574661409
 72
     1
 10
81.75624997956095
 20
-135.4356574661409
 11
81.84444442398333
 21
-122.8236755248498
 97
        0
 75
     2
 76
     1
 98
        0
  0
POLYLINE
  5
4F
330
1F
100
AcDbEntity
  8
_U+30EC_U+30A4_U+30E4_U+30FC 1
 62
   179
420
  2234388
370
    25
100
AcDb2dPolyline
 66
     1
 10
0.0
 20
0.0
 30
0.0
  0
VERTEX
  5
50
330
4F
100
AcDbEntity
  8
_U+30EC_U+30A4_U+30E4_U+30FC 1
 62
   179
420
  2234388
370
    25
100
AcDbVertex
100
AcDb2dVertex
 10
81.76467930289813
 20
-122.8788146915025
 30
0.0
  0
VERTEX
  5
51
330
4F
100
AcDbEntity
  8
_U+30EC_U+30A4_U+30E4_U+30FC 1
 62
   179
420
  2234388
370
    25
100
AcDbVertex
100
AcDb2dVertex
 10
102.7647990449182
 20
-122.8788146915025
 30
0.0
  0
SEQEND
  5
52
330
4F
100
AcDbEntity
  8
_U+30EC_U+30A4_U+30E4_U+30FC 1
 62
   179
420
  2234388
370
    25
  0
POLYLINE
  5
53
330
1F
100
AcDbEntity
  8
_U+30EC_U+30A4_U+30E4_U+30FC 1
 62
   179
420
  2234388
370
    25
100
AcDb2dPolyline
 66
     1
 10
0.0
 20
0.0
 30
0.0
  0
VERTEX
  5
54
330
53
100
AcDbEntity
  8
_U+30EC_U+30A4_U+30E4_U+30FC 1
 62
   179
420
  2234388
370
    25
100
AcDbVertex
100
AcDb2dVertex
 10
81.76467930289813
 20
-122.8788146915025
 30
0.0
  0
VERTEX
  5
55
330
53
100
AcDbEntity
  8
_U+30EC_U+30A4_U+30E4_U+30FC 1
 62
   179
420
  2234388
370
    25
100
AcDbVertex
100
AcDb2dVertex
 10
81.76467930289813
 20
-135.4790844105748
 30
0.0
  0
SEQEND
  5
56
330
53
100
AcDbEntity
  8
_U+30EC_U+30A4_U+30E4_U+30FC 1
 62
   179
420
  2234388
370
    25
  0
POLYLINE
  5
57
330
1F
100
AcDbEntity
  8
_U+30EC_U+30A4_U+30E4_U+30FC 1
 62
   179
420
  2234388
370
    25
100
AcDb2dPolyline
 66
     1
 10
0.0
 20
0.0
 30
0.0
  0
VERTEX
  5
58
330
57
100
AcDbEntity
  8
_U+30EC_U+30A4_U+30E4_U+30FC 1
 62
   179
420
  2234388
370
    25
100
AcDbVertex
100
AcDb2dVertex
 10
82.60478428146527
 20
-123.7190608024036
 30
0.0
  0
VERTEX
  5
59
330
57
100
AcDbEntity
  8
_U+30EC_U+30A4_U+30E4_U+30FC 1
 62
   179
420
  2234388
370
    25
100
AcDbVertex
100
AcDb2dVertex
 10
82.60478428146527
 20
-134.6391557996736
 30
0.0
  0
SEQEND
  5
5A
330
57
100
AcDbEntity
  8
_U+30EC_U+30A4_U+30E4_U+30FC 1
 62
   179
420
  2234388
370
    25
  0
POLYLINE
  5
5B
330
1F
100
AcDbEntity
  8
_U+30EC_U+30A4_U+30E4_U+30FC 1
 62
   179
420
  2234388
370
    25
100
AcDb2dPolyline
 66
     1
 10
0.0
 20
0.0
 30
0.0
  0
VERTEX
  5
5C
330
5B
100
AcDbEntity
  8
_U+30EC_U+30A4_U+30E4_U+30FC 1
 62
   179
420
  2234388
370
    25
100
AcDbVertex
100
AcDb2dVertex
 10
82.60478428146527
 20
-123.7190608024036
 30
0.0
  0
VERTEX
  5
5D
330
5B
100
AcDbEntity
  8
_U+30EC_U+30A4_U+30E4_U+30FC 1
 62
   179
420
  2234388
370
    25
100
AcDbVertex
100
AcDb2dVertex
 10
102.7647990449182
 20
-123.7190608024036
 30
0.0
  0
SEQEND
  5
5E
330
5B
100
AcDbEntity
  8
_U+30EC_U+30A4_U+30E4_U+30FC 1
 62
   179
420
  2234388
370
    25
  0
POLYLINE
  5
5F
330
1F
100
AcDbEntity
  8
_U+30EC_U+30A4_U+30E4_U+30FC 1
 62
   179
420
  2234388
370
    25
100
AcDb2dPolyline
 66
     1
 10
0.0
 20
0.0
 30
0.0
  0
VERTEX
  5
60
330
5F
100
AcDbEntity
  8
_U+30EC_U+30A4_U+30E4_U+30FC 1
 62
   179
420
  2234388
370
    25
100
AcDbVertex
100
AcDb2dVertex
 10
102.7647990449182
 20
-122.8788146915025
 30
0.0
  0
VERTEX
  5
61
330
5F
100
AcDbEntity
  8
_U+30EC_U+30A4_U+30E4_U+30FC 1
 62
   179
420
  2234388
370
    25
100
AcDbVertex
100
AcDb2dVertex
 10
102.7647990449182
 20
-123.7190608024036
 30
0.0
  0
SEQEND
  5
62
330
5F
100
AcDbEntity
  8
_U+30EC_U+30A4_U+30E4_U+30FC 1
 62
   179
420
  2234388
370
    25
  0
POLYLINE
  5
63
330
1F
100
AcDbEntity
  8
_U+30EC_U+30A4_U+30E4_U+30FC 1
 62
   179
420
  2234388
370
    25
100
AcDb2dPolyline
 66
     1
 10
0.0
 20
0.0
 30
0.0
  0
VERTEX
  5
64
330
63
100
AcDbEntity
  8
_U+30EC_U+30A4_U+30E4_U+30FC 1
 62
   179
420
  2234388
370
    25
100
AcDbVertex
100
AcDb2dVertex
 10
81.76467930289813
 20
-135.4790844105748
 30
0.0
  0
VERTEX
  5
65
330
63
100
AcDbEntity
  8
_U+30EC_U+30A4_U+30E4_U+30FC 1
 62
   179
420
  2234388
370
    25
100
AcDbVertex
100
AcDb2dVertex
 10
92.26482736835037
 20
-135.4790844105748
 30
0.0
  0
SEQEND
  5
66
330
63
100
AcDbEntity
  8
_U+30EC_U+30A4_U+30E4_U+30FC 1
 62
   179
420
  2234388
370
    25
  0
POLYLINE
  5
67
330
1F
100
AcDbEntity
  8
_U+30EC_U+30A4_U+30E4_U+30FC 1
 62
   179
420
  2234388
370
    25
100
AcDb2dPolyline
 66
     1
 10
0.0
 20
0.0
 30
0.0
  0
VERTEX
  5
68
330
67
100
AcDbEntity
  8
_U+30EC_U+30A4_U+30E4_U+30FC 1
 62
   179
420
  2234388
370
    25
100
AcDbVertex
100
AcDb2dVertex
 10
92.26482736835037
 20
-133.1687780222635
 30
0.0
  0
VERTEX
  5
69
330
67
100
AcDbEntity
  8
_U+30EC_U+30A4_U+30E4_U+30FC 1
 62
   179
420
  2234388
370
    25
100
AcDbVertex
100
AcDb2dVertex
 10
92.26482736835037
 20
-135.4790844105748
 30
0.0
  0
SEQEND
  5
6A
330
67
100
AcDbEntity
  8
_U+30EC_U+30A4_U+30E4_U+30FC 1
 62
   179
420
  2234388
370
    25
  0
POLYLINE
  5
6B
330
1F
100
AcDbEntity
  8
_U+30EC_U+30A4_U+30E4_U+30FC 1
 62
   179
420
  2234388
370
    25
100
AcDb2dPolyline
 66
     1
 10
0.0
 20
0.0
 30
0.0
  0
VERTEX
  5
6C
330
6B
100
AcDbEntity
  8
_U+30EC_U+30A4_U+30E4_U+30FC 1
 62
   179
420
  2234388
370
    25
100
AcDbVertex
100
AcDb2dVertex
 10
91.42489877866763
 20
-133.1687780222635
 30
0.0
  0
VERTEX
  5
6D
330
6B
100
AcDbEntity
  8
_U+30EC_U+30A4_U+30E4_U+30FC 1
 62
   179
420
  2234388
370
    25
100
AcDbVertex
100
AcDb2dVertex
 10
92.26482736835037
 20
-133.1687780222635
 30
0.0
  0
SEQEND
  5
6E
330
6B
100
AcDbEntity
  8
_U+30EC_U+30A4_U+30E4_U+30FC 1
 62
   179
420
  2234388
370
    25
  0
POLYLINE
  5
6F
330
1F
100
AcDbEntity
  8
_U+30EC_U+30A4_U+30E4_U+30FC 1
 62
   179
420
  2234388
370
    25
100
AcDb2dPolyline
 66
     1
 10
0.0
 20
0.0
 30
0.0
  0
VERTEX
  5
70
330
6F
100
AcDbEntity
  8
_U+30EC_U+30A4_U+30E4_U+30FC 1
 62
   179
420
  2234388
370
    25
100
AcDbVertex
100
AcDb2dVertex
 10
91.42489877866763
 20
-133.1687780222635
 30
0.0
  0
VERTEX
  5
71
330
6F
100
AcDbEntity
  8
_U+30EC_U+30A4_U+30E4_U+30FC 1
 62
   179
420
  2234388
370
    25
100
AcDbVertex
100
AcDb2dVertex
 10
91.42489877866763
 20
-134.6391557996736
 30
0.0
  0
SEQEND
  5
72
330
6F
100
AcDbEntity
  8
_U+30EC_U+30A4_U+30E4_U+30FC 1
 62
   179
420
  2234388
370
    25
  0
POLYLINE
  5
73
330
1F
100
AcDbEntity
  8
_U+30EC_U+30A4_U+30E4_U+30FC 1
 62
   179
420
  2234388
370
    25
100
AcDb2dPolyline
 66
     1
 10
0.0
 20
0.0
 30
0.0
  0
VERTEX
  5
74
330
73
100
AcDbEntity
  8
_U+30EC_U+30A4_U+30E4_U+30FC 1
 62
   179
420
  2234388
370
    25
100
AcDbVertex
100
AcDb2dVertex
 10
82.60478428146527
 20
-134.6391557996736
 30
0.0
  0
VERTEX
  5
75
330
73
100
AcDbEntity
  8
_U+30EC_U+30A4_U+30E4_U+30FC 1
 62
   179
420
  2234388
370
    25
100
AcDbVertex
100
AcDb2dVertex
 10
91.42489877866763
 20
-134.6391557996736
 30
0.0
  0
SEQEND
  5
76
330
73
100
AcDbEntity
  8
_U+30EC_U+30A4_U+30E4_U+30FC 1
 62
   179
420
  2234388
370
    25
  0
SPLINE
  5
77
330
1F
100
AcDbEntity
  8
_U+30EC_U+30A4_U+30E4_U+30FC 1
 62
   179
420
  2234388
370
     9
100
AcDbSpline
210
0.0
220
0.0
230
1.0
 70
    11
 71
     3
 72
    17
 73
    13
 74
     0
 42
0.0000000001
 43
0.0000000001
 12
1.0
 22
0.0
 32
0.0
 13
1.0
 23
0.0
 33
0.0
 40
0.0
 40
0.0
 40
0.0
 40
0.0
 40
1.0
 40
1.0
 40
1.0
 40
2.0
 40
2.0
 40
2.0
 40
3.0
 40
3.0
 40
3.0
 40
4.0
 40
4.0
 40
4.0
 40
4.0
 10
79.0346379836584
 20
-122.8788146915025
 30
0.0
 10
79.0346379836584
 20
-122.8402208026232
 30
0.0
 10
79.00327604001407
 20
-122.8092116359644
 30
0.0
 10
78.96468215210979
 20
-122.8092116359644
 30
0.0
 10
78.92608826420552
 20
-122.8092116359644
 30
0.0
 10
78.89476159833805
 20
-122.8402208026232
 30
0.0
 10
78.89476159833805
 20
-122.8788146915025
 30
0.0
 10
78.89476159833805
 20
-122.917373302604
 30
0.0
 10
78.92608826420552
 20
-122.9490880248183
 30
0.0
 10
78.96468215210979
 20
-122.9490880248183
 30
0.0
 10
79.00327604001407
 20
-122.9490880248183
 30
0.0
 10
79.0346379836584
 20
-122.917373302604
 30
0.0
 10
79.0346379836584
 20
-122.8788146915025
 30
0.0
  0
SPLINE
  5
78
330
1F
100
AcDbEntity
  8
_U+30EC_U+30A4_U+30E4_U+30FC 1
 62
   179
420
  2234388
370
     9
100
AcDbSpline
210
0.0
220
0.0
230
1.0
 70
    11
 71
     3
 72
    17
 73
    13
 74
     0
 42
0.0000000001
 43
0.0000000001
 12
1.0
 22
0.0
 32
0.0
 13
1.0
 23
0.0
 33
0.0
 40
0.0
 40
0.0
 40
0.0
 40
0.0
 40
1.0
 40
1.0
 40
1.0
 40
2.0
 40
2.0
 40
2.0
 40
3.0
 40
3.0
 40
3.0
 40
4.0
 40
4.0
 40
4.0
 40
4.0
 10
79.0346379836584
 20
-135.4790844105748
 30
0.0
 10
79.0346379836584
 20
-135.4404905216958
 30
0.0
 10
79.00327604001407
 20
-135.4094813550367
 30
0.0
 10
78.96468215210979
 20
-135.4094813550367
 30
0.0
 10
78.92608826420552
 20
-135.4094813550367
 30
0.0
 10
78.89476159833805
 20
-135.4404905216958
 30
0.0
 10
78.89476159833805
 20
-135.4790844105748
 30
0.0
 10
78.89476159833805
 20
-135.5176430216763
 30
0.0
 10
78.92608826420552
 20
-135.5493577438902
 30
0.0
 10
78.96468215210979
 20
-135.5493577438902
 30
0.0
 10
79.00327604001407
 20
-135.5493577438902
 30
0.0
 10
79.0346379836584
 20
-135.5176430216763
 30
0.0
 10
79.0346379836584
 20
-135.4790844105748
 30
0.0
  0
SPLINE
  5
79
330
1F
100
AcDbEntity
  8
_U+30EC_U+30A4_U+30E4_U+30FC 1
 62
   179
420
  2234388
370
     9
100
AcDbSpline
210
0.0
220
0.0
230
1.0
 70
    11
 71
     3
 72
    17
 73
    13
 74
     0
 42
0.0000000001
 43
0.0000000001
 12
1.0
 22
0.0
 32
0.0
 13
1.0
 23
0.0
 33
0.0
 40
0.0
 40
0.0
 40
0.0
 40
0.0
 40
1.0
 40
1.0
 40
1.0
 40
2.0
 40
2.0
 40
2.0
 40
3.0
 40
3.0
 40
3.0
 40
4.0
 40
4.0
 40
4.0
 40
4.0
 10
81.83481152333114
 20
-138.2792580209858
 30
0.0
 10
81.83481152333114
 20
-138.2406641321068
 30
0.0
 10
81.8034495796868
 20
-138.2089494098922
 30
0.0
 10
81.76467930289813
 20
-138.2089494098922
 30
0.0
 10
81.72612069277073
 20
-138.2089494098922
 30
0.0
 10
81.69475874912641
 20
-138.2406641321068
 30
0.0
 10
81.69475874912641
 20
-138.2792580209858
 30
0.0
 10
81.69475874912641
 20
-138.3178166320873
 30
0.0
 10
81.72612069277073
 20
-138.3488257987464
 30
0.0
 10
81.76467930289813
 20
-138.3488257987464
 30
0.0
 10
81.8034495796868
 20
-138.3488257987464
 30
0.0
 10
81.83481152333114
 20
-138.3178166320873
 30
0.0
 10
81.83481152333114
 20
-138.2792580209858
 30
0.0
  0
SPLINE
  5
7A
330
1F
100
AcDbEntity
  8
_U+30EC_U+30A4_U+30E4_U+30FC 1
 62
   179
420
  2234388
370
     9
100
AcDbSpline
210
0.0
220
0.0
230
1.0
 70
    11
 71
     3
 72
    17
 73
    13
 74
     0
 42
0.0000000001
 43
0.0000000001
 12
1.0
 22
0.0
 32
0.0
 13
1.0
 23
0.0
 33
0.0
 40
0.0
 40
0.0
 40
0.0
 40
0.0
 40
1.0
 40
1.0
 40
1.0
 40
2.0
 40
2.0
 40
2.0
 40
3.0
 40
3.0
 40
3.0
 40
4.0
 40
4.0
 40
4.0
 40
4.0
 10
92.3347479221221
 20
-138.2792580209858
 30
0.0
 10
92.3347479221221
 20
-138.2406641321068
 30
0.0
 10
92.30342125625465
 20
-138.2089494098922
 30
0.0
 10
92.26482736835037
 20
-138.2089494098922
 30
0.0
 10
92.22588070267732
 20
-138.2089494098922
 30
0.0
 10
92.19455403680986
 20
-138.2406641321068
 30
0.0
 10
92.19455403680986
 20
-138.2792580209858
 30
0.0
 10
92.19455403680986
 20
-138.3178166320873
 30
0.0
 10
92.22588070267732
 20
-138.3488257987464
 30
0.0
 10
92.26482736835037
 20
-138.3488257987464
 30
0.0
 10
92.30342125625465
 20
-138.3488257987464
 30
0.0
 10
92.3347479221221
 20
-138.3178166320873
 30
0.0
 10
92.3347479221221
 20
-138.2792580209858
 30
0.0
  0
SPLINE
  5
7B
330
1F
100
AcDbEntity
  8
_U+30EC_U+30A4_U+30E4_U+30FC 1
 62
   179
420
  2234388
370
     9
100
AcDbSpline
210
0.0
220
0.0
230
1.0
 70
    11
 71
     3
 72
    17
 73
    13
 74
     0
 42
0.0000000001
 43
0.0000000001
 12
1.0
 22
0.0
 32
0.0
 13
1.0
 23
0.0
 33
0.0
 40
0.0
 40
0.0
 40
0.0
 40
0.0
 40
1.0
 40
1.0
 40
1.0
 40
2.0
 40
2.0
 40
2.0
 40
3.0
 40
3.0
 40
3.0
 40
4.0
 40
4.0
 40
4.0
 40
4.0
 10
81.83481152333114
 20
-120.0789585810914
 30
0.0
 10
81.83481152333114
 20
-120.0403999699899
 30
0.0
 10
81.8034495796868
 20
-120.0090380255534
 30
0.0
 10
81.76467930289813
 20
-120.0090380255534
 30
0.0
 10
81.72612069277073
 20
-120.0090380255534
 30
0.0
 10
81.69475874912641
 20
-120.0403999699899
 30
0.0
 10
81.69475874912641
 20
-120.0789585810914
 30
0.0
 10
81.69475874912641
 20
-120.1179052477485
 30
0.0
 10
81.72612069277073
 20
-120.1489144144072
 30
0.0
 10
81.76467930289813
 20
-120.1489144144072
 30
0.0
 10
81.8034495796868
 20
-120.1489144144072
 30
0.0
 10
81.83481152333114
 20
-120.1179052477485
 30
0.0
 10
81.83481152333114
 20
-120.0789585810914
 30
0.0
  0
SPLINE
  5
7C
330
1F
100
AcDbEntity
  8
_U+30EC_U+30A4_U+30E4_U+30FC 1
 62
   179
420
  2234388
370
     9
100
AcDbSpline
210
0.0
220
0.0
230
1.0
 70
    11
 71
     3
 72
    17
 73
    13
 74
     0
 42
0.0000000001
 43
0.0000000001
 12
1.0
 22
0.0
 32
0.0
 13
1.0
 23
0.0
 33
0.0
 40
0.0
 40
0.0
 40
0.0
 40
0.0
 40
1.0
 40
1.0
 40
1.0
 40
2.0
 40
2.0
 40
2.0
 40
3.0
 40
3.0
 40
3.0
 40
4.0
 40
4.0
 40
4.0
 40
4.0
 10
102.8347221965136
 20
-120.0789585810914
 30
0.0
 10
102.8347221965136
 20
-120.0403999699899
 30
0.0
 10
102.8033576550456
 20
-120.0090380255534
 30
0.0
 10
102.7647990449182
 20
-120.0090380255534
 30
0.0
 10
102.726205157014
 20
-120.0090380255534
 30
0.0
 10
102.6948432133696
 20
-120.0403999699899
 30
0.0
 10
102.6948432133696
 20
-120.0789585810914
 30
0.0
 10
102.6948432133696
 20
-120.1179052477485
 30
0.0
 10
102.726205157014
 20
-120.1489144144072
 30
0.0
 10
102.7647990449182
 20
-120.1489144144072
 30
0.0
 10
102.8033576550456
 20
-120.1489144144072
 30
0.0
 10
102.8347221965136
 20
-120.1179052477485
 30
0.0
 10
102.8347221965136
 20
-120.0789585810914
 30
0.0
  0
SPLINE
  5
7D
330
1F
100
AcDbEntity
  8
_U+30EC_U+30A4_U+30E4_U+30FC 1
 62
   179
420
  2234388
370
     9
100
AcDbSpline
210
0.0
220
0.0
230
1.0
 70
    11
 71
     3
 72
    17
 73
    13
 74
     0
 42
0.0000000001
 43
0.0000000001
 12
1.0
 22
0.0
 32
0.0
 13
1.0
 23
0.0
 33
0.0
 40
0.0
 40
0.0
 40
0.0
 40
0.0
 40
1.0
 40
1.0
 40
1.0
 40
2.0
 40
2.0
 40
2.0
 40
3.0
 40
3.0
 40
3.0
 40
4.0
 40
4.0
 40
4.0
 40
4.0
 10
105.6348931383627
 20
-123.7190608024036
 30
0.0
 10
105.6348931383627
 20
-123.6804669135243
 30
0.0
 10
105.6032136947264
 20
-123.6491402468656
 30
0.0
 10
105.5646198068222
 20
-123.6491402468656
 30
0.0
 10
105.5260259189179
 20
-123.6491402468656
 30
0.0
 10
105.4946666402933
 20
-123.6804669135243
 30
0.0
 10
105.4946666402933
 20
-123.7190608024036
 30
0.0
 10
105.4946666402933
 20
-123.757654691283
 30
0.0
 10
105.5260259189179
 20
-123.7889813579416
 30
0.0
 10
105.5646198068222
 20
-123.7889813579416
 30
0.0
 10
105.6032136947264
 20
-123.7889813579416
 30
0.0
 10
105.6348931383627
 20
-123.757654691283
 30
0.0
 10
105.6348931383627
 20
-123.7190608024036
 30
0.0
  0
SPLINE
  5
7E
330
1F
100
AcDbEntity
  8
_U+30EC_U+30A4_U+30E4_U+30FC 1
 62
   179
420
  2234388
370
     9
100
AcDbSpline
210
0.0
220
0.0
230
1.0
 70
    11
 71
     3
 72
    17
 73
    13
 74
     0
 42
0.0000000001
 43
0.0000000001
 12
1.0
 22
0.0
 32
0.0
 13
1.0
 23
0.0
 33
0.0
 40
0.0
 40
0.0
 40
0.0
 40
0.0
 40
1.0
 40
1.0
 40
1.0
 40
2.0
 40
2.0
 40
2.0
 40
3.0
 40
3.0
 40
3.0
 40
4.0
 40
4.0
 40
4.0
 40
4.0
 10
105.6348931383627
 20
-133.1687780222635
 30
0.0
 10
105.6348931383627
 20
-133.130219411162
 30
0.0
 10
105.6032136947264
 20
-133.099210244503
 30
0.0
 10
105.5646198068222
 20
-133.099210244503
 30
0.0
 10
105.5260259189179
 20
-133.099210244503
 30
0.0
 10
105.4946666402933
 20
-133.130219411162
 30
0.0
 10
105.4946666402933
 20
-133.1687780222635
 30
0.0
 10
105.4946666402933
 20
-133.2080774666981
 30
0.0
 10
105.5260259189179
 20
-133.239051355579
 30
0.0
 10
105.5646198068222
 20
-133.239051355579
 30
0.0
 10
105.6032136947264
 20
-133.239051355579
 30
0.0
 10
105.6348931383627
 20
-133.2080774666981
 30
0.0
 10
105.6348931383627
 20
-133.1687780222635
 30
0.0
  0
SPLINE
  5
7F
330
1F
100
AcDbEntity
  8
_U+30EC_U+30A4_U+30E4_U+30FC 1
 62
   179
420
  2234388
370
     9
100
AcDbSpline
210
0.0
220
0.0
230
1.0
 70
    11
 71
     3
 72
    17
 73
    13
 74
     0
 42
0.0000000001
 43
0.0000000001
 12
1.0
 22
0.0
 32
0.0
 13
1.0
 23
0.0
 33
0.0
 40
0.0
 40
0.0
 40
0.0
 40
0.0
 40
1.0
 40
1.0
 40
1.0
 40
2.0
 40
2.0
 40
2.0
 40
3.0
 40
3.0
 40
3.0
 40
4.0
 40
4.0
 40
4.0
 40
4.0
 10
105.6348931383627
 20
-135.4790844105748
 30
0.0
 10
105.6348931383627
 20
-135.4404905216958
 30
0.0
 10
105.6032136947264
 20
-135.4094813550367
 30
0.0
 10
105.5646198068222
 20
-135.4094813550367
 30
0.0
 10
105.5260259189179
 20
-135.4094813550367
 30
0.0
 10
105.4946666402933
 20
-135.4404905216958
 30
0.0
 10
105.4946666402933
 20
-135.4790844105748
 30
0.0
 10
105.4946666402933
 20
-135.5176430216763
 30
0.0
 10
105.5260259189179
 20
-135.5493577438902
 30
0.0
 10
105.5646198068222
 20
-135.5493577438902
 30
0.0
 10
105.6032136947264
 20
-135.5493577438902
 30
0.0
 10
105.6348931383627
 20
-135.5176430216763
 30
0.0
 10
105.6348931383627
 20
-135.4790844105748
 30
0.0
  0
POLYLINE
  5
80
330
1F
100
AcDbEntity
  8
_U+30EC_U+30A4_U+30E4_U+30FC 1
 62
   179
420
  2234388
370
     9
100
AcDb2dPolyline
 66
     1
 10
0.0
 20
0.0
 30
0.0
  0
VERTEX
  5
81
330
80
100
AcDbEntity
  8
_U+30EC_U+30A4_U+30E4_U+30FC 1
 62
   179
420
  2234388
370
     9
100
AcDbVertex
100
AcDb2dVertex
 10
81.76467930289813
 20
-138.2792580209858
 30
0.0
  0
VERTEX
  5
82
330
80
100
AcDbEntity
  8
_U+30EC_U+30A4_U+30E4_U+30FC 1
 62
   179
420
  2234388
370
     9
100
AcDbVertex
100
AcDb2dVertex
 10
92.26482736835037
 20
-138.2792580209858
 30
0.0
  0
SEQEND
  5
83
330
80
100
AcDbEntity
  8
_U+30EC_U+30A4_U+30E4_U+30FC 1
 62
   179
420
  2234388
370
     9
  0
POLYLINE
  5
84
330
1F
100
AcDbEntity
  8
_U+30EC_U+30A4_U+30E4_U+30FC 1
 62
   179
420
  2234388
370
     9
100
AcDb2dPolyline
 66
     1
 10
0.0
 20
0.0
 30
0.0
  0
VERTEX
  5
85
330
84
100
AcDbEntity
  8
_U+30EC_U+30A4_U+30E4_U+30FC 1
 62
   179
420
  2234388
370
     9
100
AcDbVertex
100
AcDb2dVertex
 10
81.76467930289813
 20
-137.2574371879077
 30
0.0
  0
VERTEX
  5
86
330
84
100
AcDbEntity
  8
_U+30EC_U+30A4_U+30E4_U+30FC 1
 62
   179
420
  2234388
370
     9
100
AcDbVertex
100
AcDb2dVertex
 10
81.76467930289813
 20
-138.9792749652553
 30
0.0
  0
SEQEND
  5
87
330
84
100
AcDbEntity
  8
_U+30EC_U+30A4_U+30E4_U+30FC 1
 62
   179
420
  2234388
370
     9
  0
POLYLINE
  5
88
330
1F
100
AcDbEntity
  8
_U+30EC_U+30A4_U+30E4_U+30FC 1
 62
   179
420
  2234388
370
     9
100
AcDb2dPolyline
 66
     1
 10
0.0
 20
0.0
 30
0.0
  0
VERTEX
  5
89
330
88
100
AcDbEntity
  8
_U+30EC_U+30A4_U+30E4_U+30FC 1
 62
   179
420
  2234388
370
     9
100
AcDbVertex
100
AcDb2dVertex
 10
92.26482736835037
 20
-137.2574371879077
 30
0.0
  0
VERTEX
  5
8A
330
88
100
AcDbEntity
  8
_U+30EC_U+30A4_U+30E4_U+30FC 1
 62
   179
420
  2234388
370
     9
100
AcDbVertex
100
AcDb2dVertex
 10
92.26482736835037
 20
-138.9792749652553
 30
0.0
  0
SEQEND
  5
8B
330
88
100
AcDbEntity
  8
_U+30EC_U+30A4_U+30E4_U+30FC 1
 62
   179
420
  2234388
370
     9
  0
INSERT
  5
8D
330
1F
100
AcDbEntity
  8
_U+30EC_U+30A4_U+30E4_U+30FC 1
100
AcDbBlockReference
  2
block 2
 10
0.0
 20
0.0
 30
0.0
  0
POLYLINE
  5
94
330
1F
100
AcDbEntity
  8
_U+30EC_U+30A4_U+30E4_U+30FC 1
 62
   179
420
  2234388
370
     9
100
AcDb2dPolyline
 66
     1
 10
0.0
 20
0.0
 30
0.0
  0
VERTEX
  5
95
330
94
100
AcDbEntity
  8
_U+30EC_U+30A4_U+30E4_U+30FC 1
 62
   179
420
  2234388
370
     9
100
AcDbVertex
100
AcDb2dVertex
 10
81.76467930289813
 20
-120.0789585810914
 30
0.0
  0
VERTEX
  5
96
330
94
100
AcDbEntity
  8
_U+30EC_U+30A4_U+30E4_U+30FC 1
 62
   179
420
  2234388
370
     9
100
AcDbVertex
100
AcDb2dVertex
 10
102.7647990449182
 20
-120.0789585810914
 30
0.0
  0
SEQEND
  5
97
330
94
100
AcDbEntity
  8
_U+30EC_U+30A4_U+30E4_U+30FC 1
 62
   179
420
  2234388
370
     9
  0
POLYLINE
  5
98
330
1F
100
AcDbEntity
  8
_U+30EC_U+30A4_U+30E4_U+30FC 1
 62
   179
420
  2234388
370
     9
100
AcDb2dPolyline
 66
     1
 10
0.0
 20
0.0
 30
0.0
  0
VERTEX
  5
99
330
98
100
AcDbEntity
  8
_U+30EC_U+30A4_U+30E4_U+30FC 1
 62
   179
420
  2234388
370
     9
100
AcDbVertex
100
AcDb2dVertex
 10
81.76467930289813
 20
-121.101132191947
 30
0.0
  0
VERTEX
  5
9A
330
98
100
AcDbEntity
  8
_U+30EC_U+30A4_U+30E4_U+30FC 1
 62
   179
420
  2234388
370
     9
100
AcDbVertex
100
AcDb2dVertex
 10
81.76467930289813
 20
-119.3789416368219
 30
0.0
  0
SEQEND
  5
9B
330
98
100
AcDbEntity
  8
_U+30EC_U+30A4_U+30E4_U+30FC 1
 62
   179
420
  2234388
370
     9
  0
POLYLINE
  5
9C
330
1F
100
AcDbEntity
  8
_U+30EC_U+30A4_U+30E4_U+30FC 1
 62
   179
420
  2234388
370
     9
100
AcDb2dPolyline
 66
     1
 10
0.0
 20
0.0
 30
0.0
  0
VERTEX
  5
9D
330
9C
100
AcDbEntity
  8
_U+30EC_U+30A4_U+30E4_U+30FC 1
 62
   179
420
  2234388
370
     9
100
AcDbVertex
100
AcDb2dVertex
 10
102.7647990449182
 20
-121.101132191947
 30
0.0
  0
VERTEX
  5
9E
330
9C
100
AcDbEntity
  8
_U+30EC_U+30A4_U+30E4_U+30FC 1
 62
   179
420
  2234388
370
     9
100
AcDbVertex
100
AcDb2dVertex
 10
102.7647990449182
 20
-119.3789416368219
 30
0.0
  0
SEQEND
  5
9F
330
9C
100
AcDbEntity
  8
_U+30EC_U+30A4_U+30E4_U+30FC 1
 62
   179
420
  2234388
370
     9
  0
INSERT
  5
A1
330
1F
100
AcDbEntity
  8
_U+30EC_U+30A4_U+30E4_U+30FC 1
100
AcDbBlockReference
  2
block 3
 10
0.0
 20
0.0
 30
0.0
  0
POLYLINE
  5
A9
330
1F
100
AcDbEntity
  8
_U+30EC_U+30A4_U+30E4_U+30FC 1
 62
   179
420
  2234388
370
     9
100
AcDb2dPolyline
 66
     1
 10
0.0
 20
0.0
 30
0.0
  0
VERTEX
  5
AA
330
A9
100
AcDbEntity
  8
_U+30EC_U+30A4_U+30E4_U+30FC 1
 62
   179
420
  2234388
370
     9
100
AcDbVertex
100
AcDb2dVertex
 10
78.96468215210979
 20
-122.8788146915025
 30
0.0
  0
VERTEX
  5
AB
330
A9
100
AcDbEntity
  8
_U+30EC_U+30A4_U+30E4_U+30FC 1
 62
   179
420
  2234388
370
     9
100
AcDbVertex
100
AcDb2dVertex
 10
78.96468215210979
 20
-135.4790844105748
 30
0.0
  0
SEQEND
  5
AC
330
A9
100
AcDbEntity
  8
_U+30EC_U+30A4_U+30E4_U+30FC 1
 62
   179
420
  2234388
370
     9
  0
POLYLINE
  5
AD
330
1F
100
AcDbEntity
  8
_U+30EC_U+30A4_U+30E4_U+30FC 1
 62
   179
420
  2234388
370
     9
100
AcDb2dPolyline
 66
     1
 10
0.0
 20
0.0
 30
0.0
  0
VERTEX
  5
AE
330
AD
100
AcDbEntity
  8
_U+30EC_U+30A4_U+30E4_U+30FC 1
 62
   179
420
  2234388
370
     9
100
AcDbVertex
100
AcDb2dVertex
 10
79.98685573714307
 20
-122.8788146915025
 30
0.0
  0
VERTEX
  5
AF
330
AD
100
AcDbEntity
  8
_U+30EC_U+30A4_U+30E4_U+30FC 1
 62
   179
420
  2234388
370
     9
100
AcDbVertex
100
AcDb2dVertex
 10
78.2646299477474
 20
-122.8788146915025
 30
0.0
  0
SEQEND
  5
B0
330
AD
100
AcDbEntity
  8
_U+30EC_U+30A4_U+30E4_U+30FC 1
 62
   179
420
  2234388
370
     9
  0
POLYLINE
  5
B1
330
1F
100
AcDbEntity
  8
_U+30EC_U+30A4_U+30E4_U+30FC 1
 62
   179
420
  2234388
370
     9
100
AcDb2dPolyline
 66
     1
 10
0.0
 20
0.0
 30
0.0
  0
VERTEX
  5
B2
330
B1
100
AcDbEntity
  8
_U+30EC_U+30A4_U+30E4_U+30FC 1
 62
   179
420
  2234388
370
     9
100
AcDbVertex
100
AcDb2dVertex
 10
79.98685573714307
 20
-135.4790844105748
 30
0.0
  0
VERTEX
  5
B3
330
B1
100
AcDbEntity
  8
_U+30EC_U+30A4_U+30E4_U+30FC 1
 62
   179
420
  2234388
370
     9
100
AcDbVertex
100
AcDb2dVertex
 10
78.2646299477474
 20
-135.4790844105748
 30
0.0
  0
SEQEND
  5
B4
330
B1
100
AcDbEntity
  8
_U+30EC_U+30A4_U+30E4_U+30FC 1
 62
   179
420
  2234388
370
     9
  0
INSERT
  5
B6
330
1F
100
AcDbEntity
  8
_U+30EC_U+30A4_U+30E4_U+30FC 1
100
AcDbBlockReference
  2
block 4
 10
0.0
 20
0.0
 30
0.0
  0
POLYLINE
  5
BF
330
1F
100
AcDbEntity
  8
_U+30EC_U+30A4_U+30E4_U+30FC 1
 62
   179
420
  2234388
370
     9
100
AcDb2dPolyline
 66
     1
 10
0.0
 20
0.0
 30
0.0
  0
VERTEX
  5
C0
330
BF
100
AcDbEntity
  8
_U+30EC_U+30A4_U+30E4_U+30FC 1
 62
   179
420
  2234388
370
     9
100
AcDbVertex
100
AcDb2dVertex
 10
105.5646198068222
 20
-133.1687780222635
 30
0.0
  0
VERTEX
  5
C1
330
BF
100
AcDbEntity
  8
_U+30EC_U+30A4_U+30E4_U+30FC 1
 62
   179
420
  2234388
370
     9
100
AcDbVertex
100
AcDb2dVertex
 10
105.5646198068222
 20
-139.6689907984159
 30
0.0
  0
SEQEND
  5
C2
330
BF
100
AcDbEntity
  8
_U+30EC_U+30A4_U+30E4_U+30FC 1
 62
   179
420
  2234388
370
     9
  0
POLYLINE
  5
C3
330
1F
100
AcDbEntity
  8
_U+30EC_U+30A4_U+30E4_U+30FC 1
 62
   179
420
  2234388
370
     9
100
AcDb2dPolyline
 66
     1
 10
0.0
 20
0.0
 30
0.0
  0
VERTEX
  5
C4
330
C3
100
AcDbEntity
  8
_U+30EC_U+30A4_U+30E4_U+30FC 1
 62
   179
420
  2234388
370
     9
100
AcDbVertex
100
AcDb2dVertex
 10
94.04282732298981
 20
-133.1687780222635
 30
0.0
  0
VERTEX
  5
C5
330
C3
100
AcDbEntity
  8
_U+30EC_U+30A4_U+30E4_U+30FC 1
 62
   179
420
  2234388
370
     9
100
AcDbVertex
100
AcDb2dVertex
 10
106.2646720111846
 20
-133.1687780222635
 30
0.0
  0
SEQEND
  5
C6
330
C3
100
AcDbEntity
  8
_U+30EC_U+30A4_U+30E4_U+30FC 1
 62
   179
420
  2234388
370
     9
  0
POLYLINE
  5
C7
330
1F
100
AcDbEntity
  8
_U+30EC_U+30A4_U+30E4_U+30FC 1
 62
   179
420
  2234388
370
     9
100
AcDb2dPolyline
 66
     1
 10
0.0
 20
0.0
 30
0.0
  0
VERTEX
  5
C8
330
C7
100
AcDbEntity
  8
_U+30EC_U+30A4_U+30E4_U+30FC 1
 62
   179
420
  2234388
370
     9
100
AcDbVertex
100
AcDb2dVertex
 10
94.04282732298981
 20
-135.4790844105748
 30
0.0
  0
VERTEX
  5
C9
330
C7
100
AcDbEntity
  8
_U+30EC_U+30A4_U+30E4_U+30FC 1
 62
   179
420
  2234388
370
     9
100
AcDbVertex
100
AcDb2dVertex
 10
106.2646720111846
 20
-135.4790844105748
 30
0.0
  0
SEQEND
  5
CA
330
C7
100
AcDbEntity
  8
_U+30EC_U+30A4_U+30E4_U+30FC 1
 62
   179
420
  2234388
370
     9
  0
INSERT
  5
CC
330
1F
100
AcDbEntity
  8
_U+30EC_U+30A4_U+30E4_U+30FC 1
100
AcDbBlockReference
  2
block 5
 10
0.0
 20
0.0
 30
0.0
  0
POLYLINE
  5
DB
330
1F
100
AcDbEntity
  8
_U+30EC_U+30A4_U+30E4_U+30FC 1
 62
   179
420
  2234388
370
     9
100
AcDb2dPolyline
 66
     1
 10
0.0
 20
0.0
 30
0.0
  0
VERTEX
  5
DC
330
DB
100
AcDbEntity
  8
_U+30EC_U+30A4_U+30E4_U+30FC 1
 62
   179
420
  2234388
370
     9
100
AcDbVertex
100
AcDb2dVertex
 10
105.5646198068222
 20
-123.7190608024036
 30
0.0
  0
VERTEX
  5
DD
330
DB
100
AcDbEntity
  8
_U+30EC_U+30A4_U+30E4_U+30FC 1
 62
   179
420
  2234388
370
     9
100
AcDbVertex
100
AcDb2dVertex
 10
105.5646198068222
 20
-133.1687780222635
 30
0.0
  0
SEQEND
  5
DE
330
DB
100
AcDbEntity
  8
_U+30EC_U+30A4_U+30E4_U+30FC 1
 62
   179
420
  2234388
370
     9
  0
POLYLINE
  5
DF
330
1F
100
AcDbEntity
  8
_U+30EC_U+30A4_U+30E4_U+30FC 1
 62
   179
420
  2234388
370
     9
100
AcDb2dPolyline
 66
     1
 10
0.0
 20
0.0
 30
0.0
  0
VERTEX
  5
E0
330
DF
100
AcDbEntity
  8
_U+30EC_U+30A4_U+30E4_U+30FC 1
 62
   179
420
  2234388
370
     9
100
AcDbVertex
100
AcDb2dVertex
 10
104.5427989995577
 20
-123.7190608024036
 30
0.0
  0
VERTEX
  5
E1
330
DF
100
AcDbEntity
  8
_U+30EC_U+30A4_U+30E4_U+30FC 1
 62
   179
420
  2234388
370
     9
100
AcDbVertex
100
AcDb2dVertex
 10
106.2646720111846
 20
-123.7190608024036
 30
0.0
  0
SEQEND
  5
E2
330
DF
100
AcDbEntity
  8
_U+30EC_U+30A4_U+30E4_U+30FC 1
 62
   179
420
  2234388
370
     9
  0
INSERT
  5
E4
330
1F
100
AcDbEntity
  8
_U+30EC_U+30A4_U+30E4_U+30FC 1
100
AcDbBlockReference
  2
block 6
 10
0.0
 20
0.0
 30
0.0
  0
ENDSEC
  0
SECTION
  2
OBJECTS
  0
DICTIONARY
  5
C
330
0
100
AcDbDictionary
281
     1
  3
ACAD_GROUP
350
D
  3
ACAD_LAYOUT
350
1A
  3
ACAD_MATERIAL
350
3B
  3
ACAD_MLEADERSTYLE
350
F6
  3
ACAD_MLINESTYLE
350
17
  3
ACAD_PLOTSETTINGS
350
19
  3
ACAD_PLOTSTYLENAME
350
E
  3
ACAD_TABLESTYLE
350
F5
  3
ACAD_VISUALSTYLE
350
2A
  0
SUN
  5
3F
330
29
100
AcDbSun
 90
        1
290
     0
 63
     7
421
 16777215
 40
1.0
291
     1
 91
  2455826
 92
 54000000
292
     0
 70
     2
 71
   256
280
     1
  0
DICTIONARY
  5
D
102
{ACAD_REACTORS
330
C
102
}
330
C
100
AcDbDictionary
281
     1
  0
DICTIONARY
  5
1A
102
{ACAD_REACTORS
330
C
102
}
330
C
100
AcDbDictionary
281
     1
  3
Layout1
350
1E
  3
Layout2
350
26
  3
Model
350
22
  0
DICTIONARY
  5
3B
102
{ACAD_REACTORS
330
C
102
}
330
C
100
AcDbDictionary
281
     1
  3
ByBlock
350
3D
  3
ByLayer
350
3C
  3
Global
350
3E
  0
DICTIONARY
  5
F6
102
{ACAD_REACTORS
330
C
102
}
330
C
100
AcDbDictionary
281
     1
  0
DICTIONARY
  5
17
102
{ACAD_REACTORS
330
C
102
}
330
C
100
AcDbDictionary
281
     1
  3
Standard
350
18
  0
DICTIONARY
  5
19
102
{ACAD_REACTORS
330
C
102
}
330
C
100
AcDbDictionary
281
     1
  0
ACDBDICTIONARYWDFLT
  5
E
102
{ACAD_REACTORS
330
C
102
}
330
C
100
AcDbDictionary
281
     1
  3
Normal
350
F
100
AcDbDictionaryWithDefault
340
F
  0
DICTIONARY
  5
F5
102
{ACAD_REACTORS
330
C
102
}
330
C
100
AcDbDictionary
281
     1
  0
DICTIONARY
  5
2A
102
{ACAD_REACTORS
330
C
102
}
330
C
100
AcDbDictionary
281
     1
  3
2dWireframe
350
2F
  3
3D Hidden
350
31
  3
3dWireframe
350
30
  3
Basic
350
32
  3
Brighten
350
36
  3
ColorChange
350
3A
  3
Conceptual
350
34
  3
Dim
350
35
  3
Facepattern
350
39
  3
Flat
350
2B
  3
FlatWithEdges
350
2C
  3
Gouraud
350
2D
  3
GouraudWithEdges
350
2E
  3
Linepattern
350
38
  3
Realistic
350
33
  3
Thicken
350
37
  0
LAYOUT
  5
1E
102
{ACAD_REACTORS
330
1A
102
}
330
1A
100
AcDbPlotSettings
  1

  2
none_device
  4

  6

 40
0.0
 41
0.0
 42
0.0
 43
0.0
 44
0.0
 45
0.0
 46
0.0
 47
0.0
 48
0.0
 49
0.0
140
0.0
141
0.0
142
1.0
143
1.0
 70
   688
 72
     0
 73
     0
 74
     5
  7

 75
    16
 76
     0
 77
     2
 78
   300
147
1.0
148
0.0
149
0.0
100
AcDbLayout
  1
Layout1
 70
     1
 71
     1
 10
0.0
 20
0.0
 11
12.0
 21
9.0
 12
0.0
 22
0.0
 32
0.0
 14
1.000000000000000E+20
 24
1.000000000000000E+20
 34
1.000000000000000E+20
 15
-1.000000000000000E+20
 25
-1.000000000000000E+20
 35
-1.000000000000000E+20
146
0.0
 13
0.0
 23
0.0
 33
0.0
 16
1.0
 26
0.0
 36
0.0
 17
0.0
 27
1.0
 37
0.0
 76
     0
330
1B
  0
LAYOUT
  5
26
102
{ACAD_REACTORS
330
1A
102
}
330
1A
100
AcDbPlotSettings
  1

  2
none_device
  4

  6

 40
0.0
 41
0.0
 42
0.0
 43
0.0
 44
0.0
 45
0.0
 46
0.0
 47
0.0
 48
0.0
 49
0.0
140
0.0
141
0.0
142
1.0
143
1.0
 70
   688
 72
     0
 73
     0
 74
     5
  7

 75
    16
 76
     0
 77
     2
 78
   300
147
1.0
148
0.0
149
0.0
100
AcDbLayout
  1
Layout2
 70
     1
 71
     2
 10
0.0
 20
0.0
 11
0.0
 21
0.0
 12
0.0
 22
0.0
 32
0.0
 14
0.0
 24
0.0
 34
0.0
 15
0.0
 25
0.0
 35
0.0
146
0.0
 13
0.0
 23
0.0
 33
0.0
 16
1.0
 26
0.0
 36
0.0
 17
0.0
 27
1.0
 37
0.0
 76
     0
330
23
  0
LAYOUT
  5
22
102
{ACAD_REACTORS
330
1A
102
}
330
1A
100
AcDbPlotSettings
  1

  2
none_device
  4

  6

 40
0.0
 41
0.0
 42
0.0
 43
0.0
 44
0.0
 45
0.0
 46
0.0
 47
0.0
 48
0.0
 49
0.0
140
0.0
141
0.0
142
1.0
143
1.0
 70
  1712
 72
     0
 73
     0
 74
     0
  7

 75
     0
 76
     0
 77
     2
 78
   300
147
1.0
148
0.0
149
0.0
100
AcDbLayout
  1
Model
 70
     1
 71
     0
 10
0.0
 20
0.0
 11
12.0
 21
9.0
 12
0.0
 22
0.0
 32
0.0
 14
1.000000000000000E+20
 24
1.000000000000000E+20
 34
1.000000000000000E+20
 15
-1.000000000000000E+20
 25
-1.000000000000000E+20
 35
-1.000000000000000E+20
146
0.0
 13
0.0
 23
0.0
 33
0.0
 16
1.0
 26
0.0
 36
0.0
 17
0.0
 27
1.0
 37
0.0
 76
     0
330
1F
331
29
  0
MATERIAL
  5
3D
102
{ACAD_REACTORS
330
3B
102
}
330
3B
100
AcDbMaterial
  1
ByBlock
 72
     1
 94
      127
  0
MATERIAL
  5
3C
102
{ACAD_REACTORS
330
3B
102
}
330
3B
100
AcDbMaterial
  1
ByLayer
 72
     1
 94
      127
  0
MATERIAL
  5
3E
102
{ACAD_REACTORS
330
3B
102
}
330
3B
100
AcDbMaterial
  1
Global
 72
     1
 94
      127
  0
MLINESTYLE
  5
18
102
{ACAD_REACTORS
330
17
102
}
330
17
100
AcDbMlineStyle
  2
Standard
 70
     0
  3

 62
   256
 51
90.0
 52
90.0
 71
     2
 49
0.5
 62
   256
  6
BYLAYER
 49
-0.5
 62
   256
  6
BYLAYER
  0
ACDBPLACEHOLDER
  5
F
102
{ACAD_REACTORS
330
E
102
}
330
E
  0
VISUALSTYLE
  5
2F
102
{ACAD_REACTORS
330
2A
102
}
330
2A
100
AcDbVisualStyle
  2
2dWireframe
 70
     4
177
     2
291
     0
 71
     0
176
     1
 72
     2
176
     1
 73
     0
176
     1
 90
        0
176
     1
 40
-0.6
176
     1
 41
-30.0
176
     1
 62
     5
 63
     7
421
 16777215
176
     1
 74
     1
176
     1
 91
        4
176
     1
 64
     7
176
     1
 65
   257
176
     1
 75
     1
176
     1
175
     1
176
     1
 42
1.0
176
     1
 92
        0
176
     1
 66
   257
176
     1
 43
1.0
176
     1
 76
     1
176
     1
 77
     6
176
     1
 78
     2
176
     1
 67
     7
176
     1
 79
     5
176
     1
170
     0
176
     1
171
     0
176
     1
290
     0
176
     1
 93
        1
176
     1
 44
0.0
176
     1
173
     0
176
     1
  0
VISUALSTYLE
  5
31
102
{ACAD_REACTORS
330
2A
102
}
330
2A
100
AcDbVisualStyle
  2
3D Hidden
 70
     6
177
     2
291
     0
 71
     1
176
     1
 72
     2
176
     1
 73
     2
176
     1
 90
        0
176
     1
 40
-0.6
176
     1
 41
-30.0
176
     1
 62
     5
 63
     7
421
 16777215
176
     1
 74
     2
176
     1
 91
        2
176
     1
 64
     7
176
     1
 65
   257
176
     1
 75
     2
176
     1
175
     1
176
     1
 42
40.0
176
     1
 92
        0
176
     1
 66
   257
176
     1
 43
1.0
176
     1
 76
     1
176
     1
 77
     6
176
     1
 78
     2
176
     1
 67
     7
176
     1
 79
     3
176
     1
170
     0
176
     1
171
     0
176
     1
290
     0
176
     1
 93
        1
176
     1
 44
0.0
176
     1
173
     0
176
     1
  0
VISUALSTYLE
  5
30
102
{ACAD_REACTORS
330
2A
102
}
330
2A
100
AcDbVisualStyle
  2
3dWireframe
 70
     5
177
     2
291
     0
 71
     0
176
     1
 72
     2
176
     1
 73
     0
176
     1
 90
        0
176
     1
 40
-0.6
176
     1
 41
-30.0
176
     1
 62
     5
 63
     7
421
 16777215
176
     1
 74
     1
176
     1
 91
        4
176
     1
 64
     7
176
     1
 65
   257
176
     1
 75
     1
176
     1
175
     1
176
     1
 42
1.0
176
     1
 92
        0
176
     1
 66
   257
176
     1
 43
1.0
176
     1
 76
     1
176
     1
 77
     6
176
     1
 78
     2
176
     1
 67
     7
176
     1
 79
     5
176
     1
170
     0
176
     1
171
     0
176
     1
290
     0
176
     1
 93
        1
176
     1
 44
0.0
176
     1
173
     0
176
     1
  0
VISUALSTYLE
  5
32
102
{ACAD_REACTORS
330
2A
102
}
330
2A
100
AcDbVisualStyle
  2
Basic
 70
     7
177
     2
291
     1
 71
     1
176
     1
 72
     0
176
     1
 73
     1
176
     1
 90
        0
176
     1
 40
-0.6
176
     1
 41
-30.0
176
     1
 62
     5
 63
     7
421
 16777215
176
     1
 74
     0
176
     1
 91
        4
176
     1
 64
     7
176
     1
 65
   257
176
     1
 75
     1
176
     1
175
     1
176
     1
 42
1.0
176
     1
 92
        8
176
     1
 66
     7
176
     1
 43
1.0
176
     1
 76
     1
176
     1
 77
     6
176
     1
 78
     2
176
     1
 67
     7
176
     1
 79
     5
176
     1
170
     0
176
     1
171
     0
176
     1
290
     0
176
     1
 93
        1
176
     1
 44
0.0
176
     1
173
     0
176
     1
  0
VISUALSTYLE
  5
36
102
{ACAD_REACTORS
330
2A
102
}
330
2A
100
AcDbVisualStyle
  2
Brighten
 70
    12
177
     2
291
     1
 71
     2
176
     1
 72
     2
176
     1
 73
     0
176
     1
 90
        0
176
     1
 40
-0.6
176
     1
 41
-30.0
176
     1
 62
     5
 63
     7
421
 16777215
176
     1
 74
     1
176
     1
 91
        4
176
     1
 64
     7
176
     1
 65
   257
176
     1
 75
     1
176
     1
175
     1
176
     1
 42
1.0
176
     1
 92
        8
176
     1
 66
     7
176
     1
 43
1.0
176
     1
 76
     1
176
     1
 77
     6
176
     1
 78
     2
176
     1
 67
     7
176
     1
 79
     5
176
     1
170
     0
176
     1
171
     0
176
     1
290
     0
176
     1
 93
        1
176
     1
 44
50.0
176
     1
173
     0
176
     1
  0
VISUALSTYLE
  5
3A
102
{ACAD_REACTORS
330
2A
102
}
330
2A
100
AcDbVisualStyle
  2
ColorChange
 70
    16
177
     2
291
     1
 71
     2
176
     1
 72
     2
176
     1
 73
     3
176
     1
 90
        0
176
     1
 40
-0.6
176
     1
 41
-30.0
176
     1
 62
     5
 63
     8
421
  8421504
176
     1
 74
     1
176
     1
 91
        4
176
     1
 64
     7
176
     1
 65
   257
176
     1
 75
     1
176
     1
175
     1
176
     1
 42
1.0
176
     1
 92
        8
176
     1
 66
     8
424
  8421504
176
     1
 43
1.0
176
     1
 76
     1
176
     1
 77
     6
176
     1
 78
     2
176
     1
 67
     7
176
     1
 79
     5
176
     1
170
     0
176
     1
171
     0
176
     1
290
     0
176
     1
 93
        1
176
     1
 44
0.0
176
     1
173
     0
176
     1
  0
VISUALSTYLE
  5
34
102
{ACAD_REACTORS
330
2A
102
}
330
2A
100
AcDbVisualStyle
  2
Conceptual
 70
     9
177
     2
291
     0
 71
     3
176
     1
 72
     2
176
     1
 73
     0
176
     1
 90
        0
176
     1
 40
-0.6
176
     1
 41
-30.0
176
     1
 62
     5
 63
     7
421
 16777215
176
     1
 74
     2
176
     1
 91
        2
176
     1
 64
     7
176
     1
 65
   257
176
     1
 75
     1
176
     1
175
     1
176
     1
 42
40.0
176
     1
 92
        8
176
     1
 66
     7
176
     1
 43
1.0
176
     1
 76
     1
176
     1
 77
     6
176
     1
 78
     2
176
     1
 67
     7
176
     1
 79
     3
176
     1
170
     0
176
     1
171
     0
176
     1
290
     0
176
     1
 93
        1
176
     1
 44
0.0
176
     1
173
     0
176
     1
  0
VISUALSTYLE
  5
35
102
{ACAD_REACTORS
330
2A
102
}
330
2A
100
AcDbVisualStyle
  2
Dim
 70
    11
177
     2
291
     1
 71
     2
176
     1
 72
     2
176
     1
 73
     0
176
     1
 90
        0
176
     1
 40
-0.6
176
     1
 41
-30.0
176
     1
 62
     5
 63
     7
421
 16777215
176
     1
 74
     1
176
     1
 91
        4
176
     1
 64
     7
176
     1
 65
   257
176
     1
 75
     1
176
     1
175
     1
176
     1
 42
1.0
176
     1
 92
        8
176
     1
 66
     7
176
     1
 43
1.0
176
     1
 76
     1
176
     1
 77
     6
176
     1
 78
     2
176
     1
 67
     7
176
     1
 79
     5
176
     1
170
     0
176
     1
171
     0
176
     1
290
     0
176
     1
 93
        1
176
     1
 44
-50.0
176
     1
173
     0
176
     1
  0
VISUALSTYLE
  5
39
102
{ACAD_REACTORS
330
2A
102
}
330
2A
100
AcDbVisualStyle
  2
Facepattern
 70
    15
177
     2
291
     1
 71
     2
176
     1
 72
     2
176
     1
 73
     0
176
     1
 90
        0
176
     1
 40
-0.6
176
     1
 41
-30.0
176
     1
 62
     5
 63
     7
421
 16777215
176
     1
 74
     1
176
     1
 91
        4
176
     1
 64
     7
176
     1
 65
   257
176
     1
 75
     1
176
     1
175
     1
176
     1
 42
1.0
176
     1
 92
        8
176
     1
 66
     7
176
     1
 43
1.0
176
     1
 76
     1
176
     1
 77
     6
176
     1
 78
     2
176
     1
 67
     7
176
     1
 79
     5
176
     1
170
     0
176
     1
171
     0
176
     1
290
     0
176
     1
 93
        1
176
     1
 44
0.0
176
     1
173
     0
176
     1
  0
VISUALSTYLE
  5
2B
102
{ACAD_REACTORS
330
2A
102
}
330
2A
100
AcDbVisualStyle
  2
Flat
 70
     0
177
     2
291
     1
 71
     2
176
     1
 72
     1
176
     1
 73
     1
176
     1
 90
        2
176
     1
 40
-0.6
176
     1
 41
30.0
176
     1
 62
     5
 63
     7
421
 16777215
176
     1
 74
     0
176
     1
 91
        4
176
     1
 64
     7
176
     1
 65
   257
176
     1
 75
     1
176
     1
175
     1
176
     1
 42
1.0
176
     1
 92
        8
176
     1
 66
     7
176
     1
 43
1.0
176
     1
 76
     1
176
     1
 77
     6
176
     1
 78
     2
176
     1
 67
     7
176
     1
 79
     5
176
     1
170
     0
176
     1
171
     0
176
     1
290
     0
176
     1
 93
       13
176
     1
 44
0.0
176
     1
173
     0
176
     1
  0
VISUALSTYLE
  5
2C
102
{ACAD_REACTORS
330
2A
102
}
330
2A
100
AcDbVisualStyle
  2
FlatWithEdges
 70
     1
177
     2
291
     1
 71
     2
176
     1
 72
     1
176
     1
 73
     1
176
     1
 90
        2
176
     1
 40
-0.6
176
     1
 41
30.0
176
     1
 62
     5
 63
     7
421
 16777215
176
     1
 74
     1
176
     1
 91
        4
176
     1
 64
     7
176
     1
 65
   257
176
     1
 75
     1
176
     1
175
     1
176
     1
 42
1.0
176
     1
 92
        0
176
     1
 66
   257
176
     1
 43
1.0
176
     1
 76
     1
176
     1
 77
     6
176
     1
 78
     2
176
     1
 67
     7
176
     1
 79
     5
176
     1
170
     0
176
     1
171
     0
176
     1
290
     0
176
     1
 93
       13
176
     1
 44
0.0
176
     1
173
     0
176
     1
  0
VISUALSTYLE
  5
2D
102
{ACAD_REACTORS
330
2A
102
}
330
2A
100
AcDbVisualStyle
  2
Gouraud
 70
     2
177
     2
291
     1
 71
     2
176
     1
 72
     2
176
     1
 73
     1
176
     1
 90
        2
176
     1
 40
-0.6
176
     1
 41
30.0
176
     1
 62
     5
 63
     7
421
 16777215
176
     1
 74
     0
176
     1
 91
        4
176
     1
 64
     7
176
     1
 65
   257
176
     1
 75
     1
176
     1
175
     1
176
     1
 42
1.0
176
     1
 92
        0
176
     1
 66
     7
176
     1
 43
1.0
176
     1
 76
     1
176
     1
 77
     6
176
     1
 78
     2
176
     1
 67
     7
176
     1
 79
     5
176
     1
170
     0
176
     1
171
     0
176
     1
290
     0
176
     1
 93
       13
176
     1
 44
0.0
176
     1
173
     0
176
     1
  0
VISUALSTYLE
  5
2E
102
{ACAD_REACTORS
330
2A
102
}
330
2A
100
AcDbVisualStyle
  2
GouraudWithEdges
 70
     3
177
     2
291
     1
 71
     2
176
     1
 72
     2
176
     1
 73
     1
176
     1
 90
        2
176
     1
 40
-0.6
176
     1
 41
30.0
176
     1
 62
     5
 63
     7
421
 16777215
176
     1
 74
     1
176
     1
 91
        4
176
     1
 64
     7
176
     1
 65
   257
176
     1
 75
     1
176
     1
175
     1
176
     1
 42
1.0
176
     1
 92
        0
176
     1
 66
   257
176
     1
 43
1.0
176
     1
 76
     1
176
     1
 77
     6
176
     1
 78
     2
176
     1
 67
     7
176
     1
 79
     5
176
     1
170
     0
176
     1
171
     0
176
     1
290
     0
176
     1
 93
       13
176
     1
 44
0.0
176
     1
173
     0
176
     1
  0
VISUALSTYLE
  5
38
102
{ACAD_REACTORS
330
2A
102
}
330
2A
100
AcDbVisualStyle
  2
Linepattern
 70
    14
177
     2
291
     1
 71
     2
176
     1
 72
     2
176
     1
 73
     0
176
     1
 90
        0
176
     1
 40
-0.6
176
     1
 41
-30.0
176
     1
 62
     5
 63
     7
421
 16777215
176
     1
 74
     1
176
     1
 91
        4
176
     1
 64
     7
176
     1
 65
   257
176
     1
 75
     7
176
     1
175
     7
176
     1
 42
1.0
176
     1
 92
        8
176
     1
 66
     7
176
     1
 43
1.0
176
     1
 76
     1
176
     1
 77
     6
176
     1
 78
     2
176
     1
 67
     7
176
     1
 79
     5
176
     1
170
     0
176
     1
171
     0
176
     1
290
     0
176
     1
 93
        1
176
     1
 44
0.0
176
     1
173
     0
176
     1
  0
VISUALSTYLE
  5
33
102
{ACAD_REACTORS
330
2A
102
}
330
2A
100
AcDbVisualStyle
  2
Realistic
 70
     8
177
     2
291
     0
 71
     2
176
     1
 72
     2
176
     1
 73
     0
176
     1
 90
        0
176
     1
 40
-0.6
176
     1
 41
-30.0
176
     1
 62
     5
 63
     7
421
 16777215
176
     1
 74
     1
176
     1
 91
        0
176
     1
 64
     7
176
     1
 65
   257
176
     1
 75
     1
176
     1
175
     1
176
     1
 42
1.0
176
     1
 92
        8
176
     1
 66
     8
424
  7895160
176
     1
 43
1.0
176
     1
 76
     1
176
     1
 77
     6
176
     1
 78
     2
176
     1
 67
     7
176
     1
 79
     5
176
     1
170
     0
176
     1
171
     0
176
     1
290
     0
176
     1
 93
       13
176
     1
 44
0.0
176
     1
173
     0
176
     1
  0
VISUALSTYLE
  5
37
102
{ACAD_REACTORS
330
2A
102
}
330
2A
100
AcDbVisualStyle
  2
Thicken
 70
    13
177
     2
291
     1
 71
     2
176
     1
 72
     2
176
     1
 73
     0
176
     1
 90
        0
176
     1
 40
-0.6
176
     1
 41
-30.0
176
     1
 62
     5
 63
     7
421
 16777215
176
     1
 74
     1
176
     1
 91
        4
176
     1
 64
     7
176
     1
 65
   257
176
     1
 75
     1
176
     1
175
     1
176
     1
 42
1.0
176
     1
 92
       12
176
     1
 66
     7
176
     1
 43
1.0
176
     1
 76
     1
176
     1
 77
     6
176
     1
 78
     2
176
     1
 67
     7
176
     1
 79
     5
176
     1
170
     0
176
     1
171
     0
176
     1
290
     0
176
     1
 93
        1
176
     1
 44
0.0
176
     1
173
     0
176
     1
  0
ENDSEC
  0
EOF
