  0
SECTION
  2
HEADER
  9
$ACADVER
  1
AC1024
  9
$ACADMAINTVER
 70
     6
  9
$DWGCODEPAGE
  3
UNDEFINED
  9
$INSBASE
 10
0.0
 20
0.0
 30
0.0
  9
$EXTMIN
 10
1.000000000000000E+20
 20
1.000000000000000E+20
 30
1.000000000000000E+20
  9
$EXTMAX
 10
-1.000000000000000E+20
 20
-1.000000000000000E+20
 30
-1.000000000000000E+20
  9
$LIMMIN
 10
0.0
 20
0.0
  9
$LIMMAX
 10
12.0
 20
9.0
  9
$ORTHOMODE
 70
     0
  9
$REGENMODE
 70
     1
  9
$FILLMODE
 70
     1
  9
$QTEXTMODE
 70
     0
  9
$MIRRTEXT
 70
     1
  9
$LTSCALE
 40
1.0
  9
$ATTMODE
 70
     1
  9
$TEXTSIZE
 40
0.2
  9
$TRACEWID
 40
0.05
  9
$TEXTSTYLE
  7
Standard
  9
$CLAYER
  8
0
  9
$CELTYPE
  6
ByLayer
  9
$CECOLOR
 62
   256
  9
$CELTSCALE
 40
1.0
  9
$DISPSILH
 70
     0
  9
$DIMSCALE
 40
1.0
  9
$DIMASZ
 40
0.18
  9
$DIMEXO
 40
0.0625
  9
$DIMDLI
 40
0.38
  9
$DIMRND
 40
0.0
  9
$DIMDLE
 40
0.0
  9
$DIMEXE
 40
0.18
  9
$DIMTP
 40
0.0
  9
$DIMTM
 40
0.0
  9
$DIMTXT
 40
0.18
  9
$DIMCEN
 40
0.09
  9
$DIMTSZ
 40
0.0
  9
$DIMTOL
 70
     0
  9
$DIMLIM
 70
     0
  9
$DIMTIH
 70
     1
  9
$DIMTOH
 70
     1
  9
$DIMSE1
 70
     0
  9
$DIMSE2
 70
     0
  9
$DIMTAD
 70
     0
  9
$DIMZIN
 70
     0
  9
$DIMBLK
  1

  9
$DIMASO
 70
     1
  9
$DIMSHO
 70
     1
  9
$DIMPOST
  1

  9
$DIMAPOST
  1

  9
$DIMALT
 70
     0
  9
$DIMALTD
 70
     2
  9
$DIMALTF
 40
25.4
  9
$DIMLFAC
 40
1.0
  9
$DIMTOFL
 70
     0
  9
$DIMTVP
 40
0.0
  9
$DIMTIX
 70
     0
  9
$DIMSOXD
 70
     0
  9
$DIMSAH
 70
     0
  9
$DIMBLK1
  1

  9
$DIMBLK2
  1

  9
$DIMSTYLE
  2
Standard
  9
$DIMCLRD
 70
     0
  9
$DIMCLRE
 70
     0
  9
$DIMCLRT
 70
     0
  9
$DIMTFAC
 40
1.0
  9
$DIMGAP
 40
0.09
  9
$DIMJUST
 70
     0
  9
$DIMSD1
 70
     0
  9
$DIMSD2
 70
     0
  9
$DIMTOLJ
 70
     1
  9
$DIMTZIN
 70
     0
  9
$DIMALTZ
 70
     0
  9
$DIMALTTZ
 70
     0
  9
$DIMUPT
 70
     0
  9
$DIMDEC
 70
     4
  9
$DIMTDEC
 70
     4
  9
$DIMALTU
 70
     2
  9
$DIMALTTD
 70
     2
  9
$DIMTXSTY
  7
Standard
  9
$DIMAUNIT
 70
     0
  9
$DIMADEC
 70
     0
  9
$DIMALTRND
 40
0.0
  9
$DIMAZIN
 70
     0
  9
$DIMDSEP
 70
    46
  9
$DIMATFIT
 70
     3
  9
$DIMFRAC
 70
     0
  9
$DIMLDRBLK
  1

  9
$DIMLUNIT
 70
     2
  9
$DIMLWD
 70
    -2
  9
$DIMLWE
 70
    -2
  9
$DIMTMOVE
 70
     0
  9
$DIMFXL
 40
1.0
  9
$DIMFXLON
 70
     0
  9
$DIMJOGANG
 40
0.7853981633974483
  9
$DIMTFILL
 70
     0
  9
$DIMTFILLCLR
 70
     0
  9
$DIMARCSYM
 70
     0
  9
$DIMLTYPE
  6

  9
$DIMLTEX1
  6

  9
$DIMLTEX2
  6

  9
$DIMTXTDIRECTION
 70
     0
  9
$LUNITS
 70
     2
  9
$LUPREC
 70
     4
  9
$SKETCHINC
 40
0.1
  9
$FILLETRAD
 40
0.5
  9
$AUNITS
 70
     0
  9
$AUPREC
 70
     0
  9
$MENU
  1
.
  9
$ELEVATION
 40
0.0
  9
$PELEVATION
 40
0.0
  9
$THICKNESS
 40
0.0
  9
$LIMCHECK
 70
     0
  9
$CHAMFERA
 40
0.5
  9
$CHAMFERB
 40
0.5
  9
$CHAMFERC
 40
1.0
  9
$CHAMFERD
 40
0.0
  9
$SKPOLY
 70
     0
  9
$TDCREATE
 40
2457917.626655081
  9
$TDUCREATE
 40
2457917.251655092
  9
$TDUPDATE
 40
2457917.626655081
  9
$TDUUPDATE
 40
2457917.251655092
  9
$TDINDWG
 40
0.0000000116
  9
$TDUSRTIMER
 40
0.0000000116
  9
$USRTIMER
 70
     1
  9
$ANGBASE
 50
0.0
  9
$ANGDIR
 70
     0
  9
$PDMODE
 70
     0
  9
$PDSIZE
 40
0.0
  9
$PLINEWID
 40
0.0
  9
$SPLFRAME
 70
     0
  9
$SPLINETYPE
 70
     6
  9
$SPLINESEGS
 70
     8
  9
$HANDSEED
  5
167
  9
$SURFTAB1
 70
     6
  9
$SURFTAB2
 70
     6
  9
$SURFTYPE
 70
     6
  9
$SURFU
 70
     6
  9
$SURFV
 70
     6
  9
$UCSBASE
  2

  9
$UCSNAME
  2

  9
$UCSORG
 10
0.0
 20
0.0
 30
0.0
  9
$UCSXDIR
 10
1.0
 20
0.0
 30
0.0
  9
$UCSYDIR
 10
0.0
 20
1.0
 30
0.0
  9
$UCSORTHOREF
  2

  9
$UCSORTHOVIEW
 70
     0
  9
$UCSORGTOP
 10
0.0
 20
0.0
 30
0.0
  9
$UCSORGBOTTOM
 10
0.0
 20
0.0
 30
0.0
  9
$UCSORGLEFT
 10
0.0
 20
0.0
 30
0.0
  9
$UCSORGRIGHT
 10
0.0
 20
0.0
 30
0.0
  9
$UCSORGFRONT
 10
0.0
 20
0.0
 30
0.0
  9
$UCSORGBACK
 10
0.0
 20
0.0
 30
0.0
  9
$PUCSBASE
  2

  9
$PUCSNAME
  2

  9
$PUCSORG
 10
0.0
 20
0.0
 30
0.0
  9
$PUCSXDIR
 10
1.0
 20
0.0
 30
0.0
  9
$PUCSYDIR
 10
0.0
 20
1.0
 30
0.0
  9
$PUCSORTHOREF
  2

  9
$PUCSORTHOVIEW
 70
     0
  9
$PUCSORGTOP
 10
0.0
 20
0.0
 30
0.0
  9
$PUCSORGBOTTOM
 10
0.0
 20
0.0
 30
0.0
  9
$PUCSORGLEFT
 10
0.0
 20
0.0
 30
0.0
  9
$PUCSORGRIGHT
 10
0.0
 20
0.0
 30
0.0
  9
$PUCSORGFRONT
 10
0.0
 20
0.0
 30
0.0
  9
$PUCSORGBACK
 10
0.0
 20
0.0
 30
0.0
  9
$USERI1
 70
     0
  9
$USERI2
 70
     0
  9
$USERI3
 70
     0
  9
$USERI4
 70
     0
  9
$USERI5
 70
     0
  9
$USERR1
 40
0.0
  9
$USERR2
 40
0.0
  9
$USERR3
 40
0.0
  9
$USERR4
 40
0.0
  9
$USERR5
 40
0.0
  9
$WORLDVIEW
 70
     1
  9
$SHADEDGE
 70
     3
  9
$SHADEDIF
 70
    70
  9
$TILEMODE
 70
     1
  9
$MAXACTVP
 70
    64
  9
$PINSBASE
 10
0.0
 20
0.0
 30
0.0
  9
$PLIMCHECK
 70
     0
  9
$PEXTMIN
 10
1.000000000000000E+20
 20
1.000000000000000E+20
 30
1.000000000000000E+20
  9
$PEXTMAX
 10
-1.000000000000000E+20
 20
-1.000000000000000E+20
 30
-1.000000000000000E+20
  9
$PLIMMIN
 10
0.0
 20
0.0
  9
$PLIMMAX
 10
12.0
 20
9.0
  9
$UNITMODE
 70
     0
  9
$VISRETAIN
 70
     1
  9
$PLINEGEN
 70
     0
  9
$PSLTSCALE
 70
     1
  9
$TREEDEPTH
 70
  3020
  9
$CMLSTYLE
  2
Standard
  9
$CMLJUST
 70
     0
  9
$CMLSCALE
 40
1.0
  9
$PROXYGRAPHICS
 70
     1
  9
$MEASUREMENT
 70
     0
  9
$CELWEIGHT
370
    -1
  9
$ENDCAPS
280
     0
  9
$JOINSTYLE
280
     0
  9
$LWDISPLAY
290
     1
  9
$INSUNITS
 70
     1
  9
$HYPERLINKBASE
  1

  9
$STYLESHEET
  1

  9
$XEDIT
290
     1
  9
$CEPSNTYPE
380
     0
  9
$PSTYLEMODE
290
     1
  9
$FINGERPRINTGUID
  2
{7F81A06D-8680-2C9F-77D8-70AC581364B7}
  9
$VERSIONGUID
  2
{FAEB1C32-E019-11D5-929B-00C0DF256EC4}
  9
$EXTNAMES
290
     1
  9
$PSVPSCALE
 40
0.0
  9
$OLESTARTUP
290
     0
  9
$SORTENTS
280
   127
  9
$INDEXCTL
280
     0
  9
$HIDETEXT
280
     1
  9
$XCLIPFRAME
280
     2
  9
$HALOGAP
280
     0
  9
$OBSCOLOR
 70
   257
  9
$OBSLTYPE
280
     0
  9
$INTERSECTIONDISPLAY
280
     0
  9
$INTERSECTIONCOLOR
 70
   257
  9
$DIMASSOC
280
     2
  9
$PROJECTNAME
  1

  9
$CAMERADISPLAY
290
     0
  9
$LENSLENGTH
 40
50.0
  9
$CAMERAHEIGHT
 40
0.0
  9
$STEPSPERSEC
 40
2.0
  9
$STEPSIZE
 40
6.0
  9
$3DDWFPREC
 40
2.0
  9
$PSOLWIDTH
 40
0.25
  9
$PSOLHEIGHT
 40
4.0
  9
$LOFTANG1
 40
1.570796326794897
  9
$LOFTANG2
 40
1.570796326794897
  9
$LOFTMAG1
 40
0.0
  9
$LOFTMAG2
 40
0.0
  9
$LOFTPARAM
 70
     7
  9
$LOFTNORMALS
280
     1
  9
$LATITUDE
 40
37.795
  9
$LONGITUDE
 40
-122.394
  9
$NORTHDIRECTION
 40
0.0
  9
$TIMEZONE
 70
 -8000
  9
$LIGHTGLYPHDISPLAY
280
     1
  9
$TILEMODELIGHTSYNCH
280
     1
  9
$CMATERIAL
347
3C
  9
$SOLIDHIST
280
     1
  9
$SHOWHIST
280
     1
  9
$DWFFRAME
280
     2
  9
$DGNFRAME
280
     2
  9
$REALWORLDSCALE
290
     1
  9
$INTERFERECOLOR
 62
   256
  9
$CSHADOW
280
     0
  9
$SHADOWPLANELOCATION
 40
0.0
  0
ENDSEC
  0
SECTION
  2
CLASSES
  0
CLASS
  1
ACDBDICTIONARYWDFLT
  2
AcDbDictionaryWithDefault
  3
ObjectDBX Classes
 90
        0
 91
        4
280
     0
281
     0
  0
CLASS
  1
VISUALSTYLE
  2
AcDbVisualStyle
  3
ObjectDBX Classes
 90
     4095
 91
        4
280
     0
281
     0
  0
CLASS
  1
MATERIAL
  2
AcDbMaterial
  3
ObjectDBX Classes
 90
     1153
 91
        4
280
     0
281
     0
  0
CLASS
  1
SUN
  2
AcDbSun
  3
SCENEOE
 90
     1024
 91
        4
280
     0
281
     0
  0
ENDSEC
  0
SECTION
  2
TABLES
  0
TABLE
  2
VPORT
  5
8
330
0
100
AcDbSymbolTable
 70
     1
  0
VPORT
  5
29
330
8
100
AcDbSymbolTableRecord
100
AcDbViewportTableRecord
  2
*Active
 70
     0
 10
0.0
 20
0.0
 11
1.0
 21
1.0
 12
0.0
 22
0.0
 13
0.0
 23
0.0
 14
0.5
 24
0.5
 15
0.5
 25
0.5
 16
0.0
 26
0.0
 36
1.0
 17
91.00082462281999
 27
-128.4993055234307
 37
0.0
 40
256.9986110468615
 41
0.7081814508812795
 42
50.0
 43
0.0
 44
0.0
 50
0.0
 51
0.0
 71
     0
 72
   100
 73
     1
 74
     3
 75
     0
 76
     0
 77
     0
 78
     0
281
     0
 65
     1
110
0.0
120
0.0
130
0.0
111
1.0
121
0.0
131
0.0
112
0.0
122
1.0
132
0.0
 79
     0
146
0.0
 60
     3
 61
     5
292
     1
282
     1
141
0.0
142
0.0
 63
   250
361
3F
  0
ENDTAB
  0
TABLE
  2
LTYPE
  5
5
330
0
100
AcDbSymbolTable
 70
     1
  0
LTYPE
  5
14
330
5
100
AcDbSymbolTableRecord
100
AcDbLinetypeTableRecord
  2
ByBlock
 70
     0
  3

 72
    65
 73
     0
 40
0.0
  0
LTYPE
  5
15
330
5
100
AcDbSymbolTableRecord
100
AcDbLinetypeTableRecord
  2
ByLayer
 70
     0
  3

 72
    65
 73
     0
 40
0.0
  0
LTYPE
  5
16
330
5
100
AcDbSymbolTableRecord
100
AcDbLinetypeTableRecord
  2
Continuous
 70
     0
  3
Solid line
 72
    65
 73
     0
 40
0.0
  0
ENDTAB
  0
TABLE
  2
LAYER
  5
2
330
0
100
AcDbSymbolTable
 70
     2
  0
LAYER
  5
10
330
2
100
AcDbSymbolTableRecord
100
AcDbLayerTableRecord
  2
0
 70
     0
 62
     7
  6
Continuous
370
    -3
390
F
347
3E
  0
LAYER
  5
40
330
2
100
AcDbSymbolTableRecord
100
AcDbLayerTableRecord
  2
_U+30EC_U+30A4_U+30E4_U+30FC 1
 70
     0
 62
     7
  6
Continuous
370
    -3
390
F
347
3E
  0
ENDTAB
  0
TABLE
  2
STYLE
  5
3
330
0
100
AcDbSymbolTable
 70
     1
  0
STYLE
  5
11
330
3
100
AcDbSymbolTableRecord
100
AcDbTextStyleTableRecord
  2
Standard
 70
     0
 40
0.0
 41
1.0
 50
0.0
 71
     0
 42
0.2
  3
txt
  4

  0
ENDTAB
  0
TABLE
  2
VIEW
  5
6
330
0
100
AcDbSymbolTable
 70
     0
  0
ENDTAB
  0
TABLE
  2
UCS
  5
7
330
0
100
AcDbSymbolTable
 70
     0
  0
ENDTAB
  0
TABLE
  2
APPID
  5
9
330
0
100
AcDbSymbolTable
 70
     1
  0
APPID
  5
12
330
9
100
AcDbSymbolTableRecord
100
AcDbRegAppTableRecord
  2
ACAD
 70
     0
  0
ENDTAB
  0
TABLE
  2
DIMSTYLE
  5
A
330
0
100
AcDbSymbolTable
 70
     1
100
AcDbDimStyleTable
  0
DIMSTYLE
105
27
330
A
100
AcDbSymbolTableRecord
100
AcDbDimStyleTableRecord
  2
Standard
 70
     0
178
     0
340
11
  0
ENDTAB
  0
TABLE
  2
BLOCK_RECORD
  5
1
330
0
100
AcDbSymbolTable
 70
     8
  0
BLOCK_RECORD
  5
1F
330
1
100
AcDbSymbolTableRecord
100
AcDbBlockTableRecord
  2
*Model_Space
340
22
 70
     0
280
     1
281
     0
  0
BLOCK_RECORD
  5
1B
330
1
100
AcDbSymbolTableRecord
100
AcDbBlockTableRecord
  2
*Paper_Space
340
1E
 70
     0
280
     1
281
     0
  0
BLOCK_RECORD
  5
23
330
1
100
AcDbSymbolTableRecord
100
AcDbBlockTableRecord
  2
*Paper_Space0
340
26
 70
     0
280
     1
281
     0
  0
BLOCK_RECORD
  5
CF
330
1
100
AcDbSymbolTableRecord
100
AcDbBlockTableRecord
  2
block 2
340
0
102
{BLKREFS
331
D0
102
}
 70
     0
280
     1
281
     0
  0
BLOCK_RECORD
  5
EB
330
1
100
AcDbSymbolTableRecord
100
AcDbBlockTableRecord
  2
block 3
340
0
102
{BLKREFS
331
EC
102
}
 70
     0
280
     1
281
     0
  0
BLOCK_RECORD
  5
FD
330
1
100
AcDbSymbolTableRecord
100
AcDbBlockTableRecord
  2
block 4
340
0
102
{BLKREFS
331
FE
102
}
 70
     0
280
     1
281
     0
  0
BLOCK_RECORD
  5
112
330
1
100
AcDbSymbolTableRecord
100
AcDbBlockTableRecord
  2
block 5
340
0
102
{BLKREFS
331
113
102
}
 70
     0
280
     1
281
     0
  0
BLOCK_RECORD
  5
11A
330
1
100
AcDbSymbolTableRecord
100
AcDbBlockTableRecord
  2
block 6
340
0
102
{BLKREFS
331
11B
102
}
 70
     0
280
     1
281
     0
  0
BLOCK_RECORD
  5
12C
330
1
100
AcDbSymbolTableRecord
100
AcDbBlockTableRecord
  2
block 7
340
0
102
{BLKREFS
331
12D
102
}
 70
     0
280
     1
281
     0
  0
BLOCK_RECORD
  5
13F
330
1
100
AcDbSymbolTableRecord
100
AcDbBlockTableRecord
  2
block 8
340
0
102
{BLKREFS
331
140
102
}
 70
     0
280
     1
281
     0
  0
ENDTAB
  0
ENDSEC
  0
SECTION
  2
BLOCKS
  0
BLOCK
  5
20
330
1F
100
AcDbEntity
  8
0
100
AcDbBlockBegin
  2
*Model_Space
 70
     0
 10
0.0
 20
0.0
 30
0.0
  3
*Model_Space
  1

  0
ENDBLK
  5
21
330
1F
100
AcDbEntity
  8
0
100
AcDbBlockEnd
  0
BLOCK
  5
1C
330
1B
100
AcDbEntity
 67
     1
  8
0
100
AcDbBlockBegin
  2
*Paper_Space
 70
     0
 10
0.0
 20
0.0
 30
0.0
  3
*Paper_Space
  1

  0
ENDBLK
  5
1D
330
1B
100
AcDbEntity
 67
     1
  8
0
100
AcDbBlockEnd
  0
BLOCK
  5
24
330
23
100
AcDbEntity
  8
0
100
AcDbBlockBegin
  2
*Paper_Space0
 70
     0
 10
0.0
 20
0.0
 30
0.0
  3
*Paper_Space0
  1

  0
ENDBLK
  5
25
330
23
100
AcDbEntity
  8
0
100
AcDbBlockEnd
  0
BLOCK
  5
D1
330
CF
100
AcDbEntity
  8
0
100
AcDbBlockBegin
  2
block 2
 70
     0
 10
0.0
 20
0.0
 30
0.0
  3
block 2
  1

  0
POLYLINE
  5
D3
330
CF
100
AcDbEntity
  8
_U+30EC_U+30A4_U+30E4_U+30FC 1
370
     0
100
AcDb2dPolyline
 66
     1
 10
0.0
 20
0.0
 30
0.0
  0
VERTEX
  5
D4
330
D3
100
AcDbEntity
  8
_U+30EC_U+30A4_U+30E4_U+30FC 1
370
     0
100
AcDbVertex
100
AcDb2dVertex
 10
91.06110837567223
 20
-116.9890692524368
 30
0.0
  0
VERTEX
  5
D5
330
D3
100
AcDbEntity
  8
_U+30EC_U+30A4_U+30E4_U+30FC 1
370
     0
100
AcDbVertex
100
AcDb2dVertex
 10
91.06110837567223
 20
-117.3359903678014
 30
0.0
  0
VERTEX
  5
D6
330
D3
100
AcDbEntity
  8
_U+30EC_U+30A4_U+30E4_U+30FC 1
370
     0
100
AcDbVertex
100
AcDb2dVertex
 10
90.84337834100444
 20
-117.3359903678014
 30
0.0
  0
VERTEX
  5
D7
330
D3
100
AcDbEntity
  8
_U+30EC_U+30A4_U+30E4_U+30FC 1
370
     0
100
AcDbVertex
100
AcDb2dVertex
 10
90.84337834100444
 20
-116.9890692524368
 30
0.0
  0
VERTEX
  5
D8
330
D3
100
AcDbEntity
  8
_U+30EC_U+30A4_U+30E4_U+30FC 1
370
     0
100
AcDbVertex
100
AcDb2dVertex
 10
90.18743216061287
 20
-116.9890692524368
 30
0.0
  0
VERTEX
  5
D9
330
D3
100
AcDbEntity
  8
_U+30EC_U+30A4_U+30E4_U+30FC 1
370
     0
100
AcDbVertex
100
AcDb2dVertex
 10
90.18743216061287
 20
-116.764793536347
 30
0.0
  0
VERTEX
  5
DA
330
D3
100
AcDbEntity
  8
_U+30EC_U+30A4_U+30E4_U+30FC 1
370
     0
100
AcDbVertex
100
AcDb2dVertex
 10
90.8664604807556
 20
-115.7917263165382
 30
0.0
  0
VERTEX
  5
DB
330
D3
100
AcDbEntity
  8
_U+30EC_U+30A4_U+30E4_U+30FC 1
370
     0
100
AcDbVertex
100
AcDb2dVertex
 10
91.06110837567223
 20
-115.7917263165382
 30
0.0
  0
VERTEX
  5
DC
330
D3
100
AcDbEntity
  8
_U+30EC_U+30A4_U+30E4_U+30FC 1
370
     0
100
AcDbVertex
100
AcDb2dVertex
 10
91.06110837567223
 20
-116.7901149881636
 30
0.0
  0
VERTEX
  5
DD
330
D3
100
AcDbEntity
  8
_U+30EC_U+30A4_U+30E4_U+30FC 1
370
     0
100
AcDbVertex
100
AcDb2dVertex
 10
91.26850312388427
 20
-116.7901149881636
 30
0.0
  0
VERTEX
  5
DE
330
D3
100
AcDbEntity
  8
_U+30EC_U+30A4_U+30E4_U+30FC 1
370
     0
100
AcDbVertex
100
AcDb2dVertex
 10
91.26850312388427
 20
-116.9890692524368
 30
0.0
  0
VERTEX
  5
DF
330
D3
100
AcDbEntity
  8
_U+30EC_U+30A4_U+30E4_U+30FC 1
370
     0
100
AcDbVertex
100
AcDb2dVertex
 10
91.06110837567223
 20
-116.9890692524368
 30
0.0
  0
SEQEND
  5
E0
330
D3
100
AcDbEntity
  8
_U+30EC_U+30A4_U+30E4_U+30FC 1
370
     0
  0
POLYLINE
  5
E1
330
CF
100
AcDbEntity
  8
_U+30EC_U+30A4_U+30E4_U+30FC 1
370
     0
100
AcDb2dPolyline
 66
     1
 10
0.0
 20
0.0
 30
0.0
  0
VERTEX
  5
E2
330
E1
100
AcDbEntity
  8
_U+30EC_U+30A4_U+30E4_U+30FC 1
370
     0
100
AcDbVertex
100
AcDb2dVertex
 10
90.84337834100444
 20
-116.1343410625463
 30
0.0
  0
VERTEX
  5
E3
330
E1
100
AcDbEntity
  8
_U+30EC_U+30A4_U+30E4_U+30FC 1
370
     0
100
AcDbVertex
100
AcDb2dVertex
 10
90.38621417011178
 20
-116.7901149881636
 30
0.0
  0
VERTEX
  5
E4
330
E1
100
AcDbEntity
  8
_U+30EC_U+30A4_U+30E4_U+30FC 1
370
     0
100
AcDbVertex
100
AcDb2dVertex
 10
90.84337834100444
 20
-116.7901149881636
 30
0.0
  0
VERTEX
  5
E5
330
E1
100
AcDbEntity
  8
_U+30EC_U+30A4_U+30E4_U+30FC 1
370
     0
100
AcDbVertex
100
AcDb2dVertex
 10
90.84337834100444
 20
-116.1343410625463
 30
0.0
  0
SEQEND
  5
E6
330
E1
100
AcDbEntity
  8
_U+30EC_U+30A4_U+30E4_U+30FC 1
370
     0
  0
HATCH
  5
E7
330
CF
100
AcDbEntity
  8
_U+30EC_U+30A4_U+30E4_U+30FC 1
 62
   179
420
  2234388
100
AcDbHatch
 10
0.0
 20
0.0
 30
0.0
210
0.0
220
0.0
230
1.0
  2
SOLID
 70
     1
 71
     0
 91
        2
 92
        1
 93
       11
 72
     1
 10
91.06110837567223
 20
-116.9890692524368
 11
91.06110837567223
 21
-117.3359903678014
 72
     1
 10
91.06110837567223
 20
-117.3359903678014
 11
90.84337834100444
 21
-117.3359903678014
 72
     1
 10
90.84337834100444
 20
-117.3359903678014
 11
90.84337834100444
 21
-116.9890692524368
 72
     1
 10
90.84337834100444
 20
-116.9890692524368
 11
90.18743216061287
 21
-116.9890692524368
 72
     1
 10
90.18743216061287
 20
-116.9890692524368
 11
90.18743216061287
 21
-116.764793536347
 72
     1
 10
90.18743216061287
 20
-116.764793536347
 11
90.8664604807556
 21
-115.7917263165382
 72
     1
 10
90.8664604807556
 20
-115.7917263165382
 11
91.06110837567223
 21
-115.7917263165382
 72
     1
 10
91.06110837567223
 20
-115.7917263165382
 11
91.06110837567223
 21
-116.7901149881636
 72
     1
 10
91.06110837567223
 20
-116.7901149881636
 11
91.26850312388427
 21
-116.7901149881636
 72
     1
 10
91.26850312388427
 20
-116.7901149881636
 11
91.26850312388427
 21
-116.9890692524368
 72
     1
 10
91.26850312388427
 20
-116.9890692524368
 11
91.06110837567223
 21
-116.9890692524368
 97
        0
 92
        1
 93
        3
 72
     1
 10
90.84337834100444
 20
-116.1343410625463
 11
90.38621417011178
 21
-116.7901149881636
 72
     1
 10
90.38621417011178
 20
-116.7901149881636
 11
90.84337834100444
 21
-116.7901149881636
 72
     1
 10
90.84337834100444
 20
-116.7901149881636
 11
90.84337834100444
 21
-116.1343410625463
 97
        0
 75
     2
 76
     1
 98
        0
  0
SPLINE
  5
E8
330
CF
100
AcDbEntity
  8
_U+30EC_U+30A4_U+30E4_U+30FC 1
370
     0
100
AcDbSpline
210
0.0
220
0.0
230
1.0
 70
    11
 71
     3
 72
    29
 73
    25
 74
     0
 42
0.0000000001
 43
0.0000000001
 12
1.0
 22
0.0
 32
0.0
 13
1.0
 23
0.0
 33
0.0
 40
0.0
 40
0.0
 40
0.0
 40
0.0
 40
1.0
 40
1.0
 40
1.0
 40
2.0
 40
2.0
 40
2.0
 40
3.0
 40
3.0
 40
3.0
 40
4.0
 40
4.0
 40
4.0
 40
5.0
 40
5.0
 40
5.0
 40
6.0
 40
6.0
 40
6.0
 40
7.0
 40
7.0
 40
7.0
 40
8.0
 40
8.0
 40
8.0
 40
8.0
 10
92.30375431720185
 20
-117.1582234407625
 30
0.0
 10
92.195578318965
 20
-117.3676852462657
 30
0.0
 10
92.02229001605693
 20
-117.3868055262089
 30
0.0
 10
91.90584578865548
 20
-117.3868055262089
 30
0.0
 10
91.74495982949432
 20
-117.3868055262089
 30
0.0
 10
91.60336640505055
 20
-117.340296737158
 30
0.0
 10
91.50828176965766
 20
-117.1582234407625
 30
0.0
 10
91.40458439555164
 20
-116.9637478006202
 30
0.0
 10
91.38563637038276
 20
-116.726725231235
 30
0.0
 10
91.38563637038276
 20
-116.5637722147827
 30
0.0
 10
91.38563637038276
 20
-116.4199394782735
 30
0.0
 10
91.40251733826048
 20
-116.168275253076
 30
0.0
 10
91.50828176965766
 20
-115.9693209888028
 30
0.0
 10
91.61611325834598
 20
-115.7662326099473
 30
0.0
 10
91.77699921750714
 20
-115.7429782154219
 30
0.0
 10
91.90584578865548
 20
-115.7429782154219
 30
0.0
 10
92.0646646905255
 20
-115.7429782154219
 30
0.0
 10
92.20832517226042
 20
-115.7874199471816
 30
0.0
 10
92.30375431720185
 20
-115.9693209888028
 30
0.0
 10
92.40297306717704
 20
-116.1619018264283
 30
0.0
 10
92.42639971647674
 20
-116.3903116571003
 30
0.0
 10
92.42639971647674
 20
-116.5637722147827
 30
0.0
 10
92.42639971647674
 20
-116.7351657151738
 30
0.0
 10
92.40504012446819
 20
-116.9658148579113
 30
0.0
 10
92.30375431720185
 20
-117.1582234407625
 30
0.0
  0
SPLINE
  5
E9
330
CF
100
AcDbEntity
  8
_U+30EC_U+30A4_U+30E4_U+30FC 1
370
     0
100
AcDbSpline
210
0.0
220
0.0
230
1.0
 70
    11
 71
     3
 72
    17
 73
    13
 74
     0
 42
0.0000000001
 43
0.0000000001
 12
1.0
 22
0.0
 32
0.0
 13
1.0
 23
0.0
 33
0.0
 40
0.0
 40
0.0
 40
0.0
 40
0.0
 40
1.0
 40
1.0
 40
1.0
 40
2.0
 40
2.0
 40
2.0
 40
3.0
 40
3.0
 40
3.0
 40
4.0
 40
4.0
 40
4.0
 40
4.0
 10
91.90584578865548
 20
-115.9355590530474
 30
0.0
 10
91.6564208755234
 20
-115.9355590530474
 30
0.0
 10
91.60956757692401
 20
-116.2189181567092
 30
0.0
 10
91.60956757692401
 20
-116.5637722147827
 30
0.0
 10
91.60956757692401
 20
-116.8833048210396
 30
0.0
 10
91.64574107951913
 20
-117.1921576312922
 30
0.0
 10
91.90584578865548
 20
-117.1921576312922
 30
0.0
 10
92.15354815404496
 20
-117.1921576312922
 30
0.0
 10
92.20212400038697
 20
-116.9106933301473
 30
0.0
 10
92.20212400038697
 20
-116.5637722147827
 30
0.0
 10
92.20212400038697
 20
-116.2444118633
 30
0.0
 10
92.1638834405007
 20
-115.9355590530474
 30
0.0
 10
91.90584578865548
 20
-115.9355590530474
 30
0.0
  0
HATCH
  5
EA
330
CF
100
AcDbEntity
  8
_U+30EC_U+30A4_U+30E4_U+30FC 1
 62
   179
420
  2234388
100
AcDbHatch
 10
0.0
 20
0.0
 30
0.0
210
0.0
220
0.0
230
1.0
  2
SOLID
 70
     1
 71
     0
 91
        2
 92
        1
 93
        1
 72
     4
 94
        3
 73
     0
 74
     1
 95
       29
 96
       25
 40
0.0
 40
0.0
 40
0.0
 40
0.0
 40
1.0
 40
1.0
 40
1.0
 40
2.0
 40
2.0
 40
2.0
 40
3.0
 40
3.0
 40
3.0
 40
4.0
 40
4.0
 40
4.0
 40
5.0
 40
5.0
 40
5.0
 40
6.0
 40
6.0
 40
6.0
 40
7.0
 40
7.0
 40
7.0
 40
8.0
 40
8.0
 40
8.0
 40
8.0
 10
92.30375431720185
 20
-117.1582234407625
 10
92.195578318965
 20
-117.3676852462657
 10
92.02229001605693
 20
-117.3868055262089
 10
91.90584578865548
 20
-117.3868055262089
 10
91.74495982949432
 20
-117.3868055262089
 10
91.60336640505055
 20
-117.340296737158
 10
91.50828176965766
 20
-117.1582234407625
 10
91.40458439555164
 20
-116.9637478006202
 10
91.38563637038276
 20
-116.726725231235
 10
91.38563637038276
 20
-116.5637722147827
 10
91.38563637038276
 20
-116.4199394782735
 10
91.40251733826048
 20
-116.168275253076
 10
91.50828176965766
 20
-115.9693209888028
 10
91.61611325834598
 20
-115.7662326099473
 10
91.77699921750714
 20
-115.7429782154219
 10
91.90584578865548
 20
-115.7429782154219
 10
92.0646646905255
 20
-115.7429782154219
 10
92.20832517226042
 20
-115.7874199471816
 10
92.30375431720185
 20
-115.9693209888028
 10
92.40297306717704
 20
-116.1619018264283
 10
92.42639971647674
 20
-116.3903116571003
 10
92.42639971647674
 20
-116.5637722147827
 10
92.42639971647674
 20
-116.7351657151738
 10
92.40504012446819
 20
-116.9658148579113
 10
92.30375431720185
 20
-117.1582234407625
 97
        0
 97
        0
 92
        1
 93
        1
 72
     4
 94
        3
 73
     0
 74
     1
 95
       17
 96
       13
 40
0.0
 40
0.0
 40
0.0
 40
0.0
 40
1.0
 40
1.0
 40
1.0
 40
2.0
 40
2.0
 40
2.0
 40
3.0
 40
3.0
 40
3.0
 40
4.0
 40
4.0
 40
4.0
 40
4.0
 10
91.90584578865548
 20
-115.9355590530474
 10
91.6564208755234
 20
-115.9355590530474
 10
91.60956757692401
 20
-116.2189181567092
 10
91.60956757692401
 20
-116.5637722147827
 10
91.60956757692401
 20
-116.8833048210396
 10
91.64574107951913
 20
-117.1921576312922
 10
91.90584578865548
 20
-117.1921576312922
 10
92.15354815404496
 20
-117.1921576312922
 10
92.20212400038697
 20
-116.9106933301473
 10
92.20212400038697
 20
-116.5637722147827
 10
92.20212400038697
 20
-116.2444118633
 10
92.1638834405007
 20
-115.9355590530474
 10
91.90584578865548
 20
-115.9355590530474
 97
        0
 97
        0
 75
     2
 76
     1
 98
        0
  0
ENDBLK
  5
D2
330
CF
100
AcDbEntity
  8
0
100
AcDbBlockEnd
  0
BLOCK
  5
ED
330
EB
100
AcDbEntity
  8
0
100
AcDbBlockBegin
  2
block 3
 70
     0
 10
0.0
 20
0.0
 30
0.0
  3
block 3
  1

  0
SPLINE
  5
EF
330
EB
100
AcDbEntity
  8
_U+30EC_U+30A4_U+30E4_U+30FC 1
370
     0
100
AcDbSpline
210
0.0
220
0.0
230
1.0
 70
    11
 71
     3
 72
    62
 73
    58
 74
     0
 42
0.0000000001
 43
0.0000000001
 12
1.0
 22
0.0
 32
0.0
 13
1.0
 23
0.0
 33
0.0
 40
0.0
 40
0.0
 40
0.0
 40
0.0
 40
1.0
 40
1.0
 40
1.0
 40
2.0
 40
2.0
 40
2.0
 40
3.0
 40
3.0
 40
3.0
 40
4.0
 40
4.0
 40
4.0
 40
5.0
 40
5.0
 40
5.0
 40
6.0
 40
6.0
 40
6.0
 40
7.0
 40
7.0
 40
7.0
 40
8.0
 40
8.0
 40
8.0
 40
9.0
 40
9.0
 40
9.0
 40
10.0
 40
10.0
 40
10.0
 40
11.0
 40
11.0
 40
11.0
 40
12.0
 40
12.0
 40
12.0
 40
13.0
 40
13.0
 40
13.0
 40
14.0
 40
14.0
 40
14.0
 40
15.0
 40
15.0
 40
15.0
 40
16.0
 40
16.0
 40
16.0
 40
17.0
 40
17.0
 40
17.0
 40
18.0
 40
18.0
 40
18.0
 40
19.0
 40
19.0
 40
19.0
 40
19.0
 10
84.89989960985142
 20
-120.6803168101077
 30
0.0
 10
84.80447046491
 20
-120.6803168101077
 30
0.0
 10
84.5867404302422
 20
-120.6591294728734
 30
0.0
 10
84.46168346412765
 20
-120.4729220618957
 30
0.0
 10
84.38795842074329
 20
-120.3607842038508
 30
0.0
 10
84.38347979661246
 20
-120.2613931991013
 30
0.0
 10
84.37934568203016
 20
-120.1768161049384
 30
0.0
 10
84.37934568203016
 20
-120.1768161049384
 30
0.0
 10
84.59948728353763
 20
-120.1768161049384
 30
0.0
 10
84.59948728353763
 20
-120.1768161049384
 30
0.0
 10
84.60155434082878
 20
-120.2508856578713
 30
0.0
 10
84.61188962728453
 20
-120.4856689151911
 30
0.0
 10
84.89542098572059
 20
-120.4856689151911
 30
0.0
 10
85.03288029558206
 20
-120.4856689151911
 30
0.0
 10
85.18549802557862
 20
-120.4159057316148
 30
0.0
 10
85.18549802557862
 20
-120.1873236461685
 30
0.0
 10
85.18549802557862
 20
-120.0710516735413
 30
0.0
 10
85.14725746569236
 20
-120.022303572425
 30
0.0
 10
85.11556258722806
 20
-119.9906086939607
 30
0.0
 10
85.04149303429519
 20
-119.9165391410278
 30
0.0
 10
84.92504880689374
 20
-119.9039645425067
 30
0.0
 10
84.87027178867827
 20
-119.9039645425067
 30
0.0
 10
84.85097925396087
 20
-119.9039645425067
 30
0.0
 10
84.81515026091427
 20
-119.9060315997978
 30
0.0
 10
84.78758949703227
 20
-119.9101657143801
 30
0.0
 10
84.78758949703227
 20
-119.9101657143801
 30
0.0
 10
84.78758949703227
 20
-119.7156900742378
 30
0.0
 10
84.78758949703227
 20
-119.7156900742378
 30
0.0
 10
84.82583005691855
 20
-119.7218912461112
 30
0.0
 10
84.8678602218386
 20
-119.7241305581766
 30
0.0
 10
84.87440590326057
 20
-119.7241305581766
 30
0.0
 10
84.93986271748031
 20
-119.7241305581766
 30
0.0
 10
85.13864472697924
 20
-119.7029432209423
 30
0.0
 10
85.13864472697924
 20
-119.4659206515571
 30
0.0
 10
85.13864472697924
 20
-119.2883259792925
 30
0.0
 10
85.00773109853974
 20
-119.2332044515285
 30
0.0
 10
84.89748804301175
 20
-119.2332044515285
 30
0.0
 10
84.63324921929308
 20
-119.2332044515285
 30
0.0
 10
84.62463648057995
 20
-119.4659206515571
 30
0.0
 10
84.62050236599765
 20
-119.5379231471989
 30
0.0
 10
84.62050236599765
 20
-119.5379231471989
 30
0.0
 10
84.41724173236791
 20
-119.5379231471989
 30
0.0
 10
84.41724173236791
 20
-119.5379231471989
 30
0.0
 10
84.42585447108104
 20
-119.4130384358586
 30
0.0
 10
84.45341523496305
 20
-119.0364894993207
 30
0.0
 10
84.91023489630717
 20
-119.0364894993207
 30
0.0
 10
85.13451061239694
 20
-119.0364894993207
 30
0.0
 10
85.37566729636443
 20
-119.1634412679522
 30
0.0
 10
85.37566729636443
 20
-119.4595472249094
 30
0.0
 10
85.37566729636443
 20
-119.6457546358872
 30
0.0
 10
85.28058266097152
 20
-119.7282646727589
 30
0.0
 10
85.1810194014478
 20
-119.7895873723964
 30
0.0
 10
85.24234210108526
 20
-119.8171481362784
 30
0.0
 10
85.42424314270644
 20
-119.8975911158589
 30
0.0
 10
85.42424314270644
 20
-120.1747490476473
 30
0.0
 10
85.42424314270644
 20
-120.5132296790731
 30
0.0
 10
85.1768852868655
 20
-120.6803168101077
 30
0.0
 10
84.89989960985142
 20
-120.6803168101077
 30
0.0
  0
HATCH
  5
F0
330
EB
100
AcDbEntity
  8
_U+30EC_U+30A4_U+30E4_U+30FC 1
 62
   179
420
  2234388
100
AcDbHatch
 10
0.0
 20
0.0
 30
0.0
210
0.0
220
0.0
230
1.0
  2
SOLID
 70
     1
 71
     0
 91
        1
 92
        1
 93
        1
 72
     4
 94
        3
 73
     0
 74
     1
 95
       62
 96
       58
 40
0.0
 40
0.0
 40
0.0
 40
0.0
 40
1.0
 40
1.0
 40
1.0
 40
2.0
 40
2.0
 40
2.0
 40
3.0
 40
3.0
 40
3.0
 40
4.0
 40
4.0
 40
4.0
 40
5.0
 40
5.0
 40
5.0
 40
6.0
 40
6.0
 40
6.0
 40
7.0
 40
7.0
 40
7.0
 40
8.0
 40
8.0
 40
8.0
 40
9.0
 40
9.0
 40
9.0
 40
10.0
 40
10.0
 40
10.0
 40
11.0
 40
11.0
 40
11.0
 40
12.0
 40
12.0
 40
12.0
 40
13.0
 40
13.0
 40
13.0
 40
14.0
 40
14.0
 40
14.0
 40
15.0
 40
15.0
 40
15.0
 40
16.0
 40
16.0
 40
16.0
 40
17.0
 40
17.0
 40
17.0
 40
18.0
 40
18.0
 40
18.0
 40
19.0
 40
19.0
 40
19.0
 40
19.0
 10
84.89989960985142
 20
-120.6803168101077
 10
84.80447046491
 20
-120.6803168101077
 10
84.5867404302422
 20
-120.6591294728734
 10
84.46168346412765
 20
-120.4729220618957
 10
84.38795842074329
 20
-120.3607842038508
 10
84.38347979661246
 20
-120.2613931991013
 10
84.37934568203016
 20
-120.1768161049384
 10
84.37934568203016
 20
-120.1768161049384
 10
84.59948728353763
 20
-120.1768161049384
 10
84.59948728353763
 20
-120.1768161049384
 10
84.60155434082878
 20
-120.2508856578713
 10
84.61188962728453
 20
-120.4856689151911
 10
84.89542098572059
 20
-120.4856689151911
 10
85.03288029558206
 20
-120.4856689151911
 10
85.18549802557862
 20
-120.4159057316148
 10
85.18549802557862
 20
-120.1873236461685
 10
85.18549802557862
 20
-120.0710516735413
 10
85.14725746569236
 20
-120.022303572425
 10
85.11556258722806
 20
-119.9906086939607
 10
85.04149303429519
 20
-119.9165391410278
 10
84.92504880689374
 20
-119.9039645425067
 10
84.87027178867827
 20
-119.9039645425067
 10
84.85097925396087
 20
-119.9039645425067
 10
84.81515026091427
 20
-119.9060315997978
 10
84.78758949703227
 20
-119.9101657143801
 10
84.78758949703227
 20
-119.9101657143801
 10
84.78758949703227
 20
-119.7156900742378
 10
84.78758949703227
 20
-119.7156900742378
 10
84.82583005691855
 20
-119.7218912461112
 10
84.8678602218386
 20
-119.7241305581766
 10
84.87440590326057
 20
-119.7241305581766
 10
84.93986271748031
 20
-119.7241305581766
 10
85.13864472697924
 20
-119.7029432209423
 10
85.13864472697924
 20
-119.4659206515571
 10
85.13864472697924
 20
-119.2883259792925
 10
85.00773109853974
 20
-119.2332044515285
 10
84.89748804301175
 20
-119.2332044515285
 10
84.63324921929308
 20
-119.2332044515285
 10
84.62463648057995
 20
-119.4659206515571
 10
84.62050236599765
 20
-119.5379231471989
 10
84.62050236599765
 20
-119.5379231471989
 10
84.41724173236791
 20
-119.5379231471989
 10
84.41724173236791
 20
-119.5379231471989
 10
84.42585447108104
 20
-119.4130384358586
 10
84.45341523496305
 20
-119.0364894993207
 10
84.91023489630717
 20
-119.0364894993207
 10
85.13451061239694
 20
-119.0364894993207
 10
85.37566729636443
 20
-119.1634412679522
 10
85.37566729636443
 20
-119.4595472249094
 10
85.37566729636443
 20
-119.6457546358872
 10
85.28058266097152
 20
-119.7282646727589
 10
85.1810194014478
 20
-119.7895873723964
 10
85.24234210108526
 20
-119.8171481362784
 10
85.42424314270644
 20
-119.8975911158589
 10
85.42424314270644
 20
-120.1747490476473
 10
85.42424314270644
 20
-120.5132296790731
 10
85.1768852868655
 20
-120.6803168101077
 10
84.89989960985142
 20
-120.6803168101077
 97
        0
 97
        0
 75
     2
 76
     1
 98
        0
  0
POLYLINE
  5
F1
330
EB
100
AcDbEntity
  8
_U+30EC_U+30A4_U+30E4_U+30FC 1
370
     0
100
AcDb2dPolyline
 66
     1
 10
0.0
 20
0.0
 30
0.0
  0
VERTEX
  5
F2
330
F1
100
AcDbEntity
  8
_U+30EC_U+30A4_U+30E4_U+30FC 1
370
     0
100
AcDbVertex
100
AcDb2dVertex
 10
85.64507376331096
 20
-120.6295016517003
 30
0.0
  0
VERTEX
  5
F3
330
F1
100
AcDbEntity
  8
_U+30EC_U+30A4_U+30E4_U+30FC 1
370
     0
100
AcDbVertex
100
AcDb2dVertex
 10
85.64507376331096
 20
-120.3778374265028
 30
0.0
  0
VERTEX
  5
F4
330
F1
100
AcDbEntity
  8
_U+30EC_U+30A4_U+30E4_U+30FC 1
370
     0
100
AcDbVertex
100
AcDb2dVertex
 10
85.89691024328272
 20
-120.3778374265028
 30
0.0
  0
VERTEX
  5
F5
330
F1
100
AcDbEntity
  8
_U+30EC_U+30A4_U+30E4_U+30FC 1
370
     0
100
AcDbVertex
100
AcDb2dVertex
 10
85.89691024328272
 20
-120.6295016517003
 30
0.0
  0
VERTEX
  5
F6
330
F1
100
AcDbEntity
  8
_U+30EC_U+30A4_U+30E4_U+30FC 1
370
     0
100
AcDbVertex
100
AcDb2dVertex
 10
85.64507376331096
 20
-120.6295016517003
 30
0.0
  0
SEQEND
  5
F7
330
F1
100
AcDbEntity
  8
_U+30EC_U+30A4_U+30E4_U+30FC 1
370
     0
  0
HATCH
  5
F8
330
EB
100
AcDbEntity
  8
_U+30EC_U+30A4_U+30E4_U+30FC 1
 62
   179
420
  2234388
100
AcDbHatch
 10
0.0
 20
0.0
 30
0.0
210
0.0
220
0.0
230
1.0
  2
SOLID
 70
     1
 71
     0
 91
        1
 92
        1
 93
        4
 72
     1
 10
85.64507376331096
 20
-120.6295016517003
 11
85.64507376331096
 21
-120.3778374265028
 72
     1
 10
85.64507376331096
 20
-120.3778374265028
 11
85.89691024328272
 21
-120.3778374265028
 72
     1
 10
85.89691024328272
 20
-120.3778374265028
 11
85.89691024328272
 21
-120.6295016517003
 72
     1
 10
85.89691024328272
 20
-120.6295016517003
 11
85.64507376331096
 21
-120.6295016517003
 97
        0
 75
     2
 76
     1
 98
        0
  0
SPLINE
  5
F9
330
EB
100
AcDbEntity
  8
_U+30EC_U+30A4_U+30E4_U+30FC 1
370
     0
100
AcDbSpline
210
0.0
220
0.0
230
1.0
 70
    11
 71
     3
 72
    29
 73
    25
 74
     0
 42
0.0000000001
 43
0.0000000001
 12
1.0
 22
0.0
 32
0.0
 13
1.0
 23
0.0
 33
0.0
 40
0.0
 40
0.0
 40
0.0
 40
0.0
 40
1.0
 40
1.0
 40
1.0
 40
2.0
 40
2.0
 40
2.0
 40
3.0
 40
3.0
 40
3.0
 40
4.0
 40
4.0
 40
4.0
 40
5.0
 40
5.0
 40
5.0
 40
6.0
 40
6.0
 40
6.0
 40
7.0
 40
7.0
 40
7.0
 40
8.0
 40
8.0
 40
8.0
 40
8.0
 10
86.63312714848061
 20
-120.6803168101077
 30
0.0
 10
86.36647675792227
 20
-120.6803168101077
 30
0.0
 10
86.11257322065936
 20
-120.542685245472
 30
0.0
 10
86.11257322065936
 20
-120.1936970728162
 30
0.0
 10
86.11257322065936
 20
-119.9377264782621
 30
0.0
 10
86.25451115465165
 20
-119.8424695880949
 30
0.0
 10
86.36027558604883
 20
-119.7811468884575
 30
0.0
 10
86.23556312948278
 20
-119.7218912461112
 30
0.0
 10
86.15942651925876
 20
-119.6076863307752
 30
0.0
 10
86.15942651925876
 20
-119.4469726263883
 30
0.0
 10
86.15942651925876
 20
-119.1718817518911
 30
0.0
 10
86.35820852875767
 20
-119.0364894993207
 30
0.0
 10
86.63312714848061
 20
-119.0364894993207
 30
0.0
 10
86.91665850691668
 20
-119.0364894993207
 30
0.0
 10
87.10717228725099
 20
-119.1803222358299
 30
0.0
 10
87.10717228725099
 20
-119.4469726263883
 30
0.0
 10
87.10717228725099
 20
-119.6076863307752
 30
0.0
 10
87.0286241101873
 20
-119.7218912461112
 30
0.0
 10
86.90391165362125
 20
-119.7811468884575
 30
0.0
 10
86.99279511714069
 20
-119.8319620468649
 30
0.0
 10
87.15161401901071
 20
-119.9272189370321
 30
0.0
 10
87.15161401901071
 20
-120.1893907034596
 30
0.0
 10
87.15161401901071
 20
-120.5638725827063
 30
0.0
 10
86.87221677515694
 20
-120.6803168101077
 30
0.0
 10
86.63312714848061
 20
-120.6803168101077
 30
0.0
  0
SPLINE
  5
FA
330
EB
100
AcDbEntity
  8
_U+30EC_U+30A4_U+30E4_U+30FC 1
370
     0
100
AcDbSpline
210
0.0
220
0.0
230
1.0
 70
    11
 71
     3
 72
    17
 73
    13
 74
     0
 42
0.0000000001
 43
0.0000000001
 12
1.0
 22
0.0
 32
0.0
 13
1.0
 23
0.0
 33
0.0
 40
0.0
 40
0.0
 40
0.0
 40
0.0
 40
1.0
 40
1.0
 40
1.0
 40
2.0
 40
2.0
 40
2.0
 40
3.0
 40
3.0
 40
3.0
 40
4.0
 40
4.0
 40
4.0
 40
4.0
 10
86.63312714848061
 20
-119.8891506319201
 30
0.0
 10
86.4894666667457
 20
-119.8891506319201
 30
0.0
 10
86.33684893674912
 20
-119.9757947833741
 30
0.0
 10
86.33684893674912
 20
-120.1788831622296
 30
0.0
 10
86.33684893674912
 20
-120.3840385983762
 30
0.0
 10
86.46397296015485
 20
-120.4856689151911
 30
0.0
 10
86.63312714848061
 20
-120.4856689151911
 30
0.0
 10
86.8191623046841
 20
-120.4856689151911
 30
0.0
 10
86.9294053602121
 20
-120.3630235159162
 30
0.0
 10
86.9294053602121
 20
-120.1852565888773
 30
0.0
 10
86.9294053602121
 20
-119.9630479300787
 30
0.0
 10
86.76645234375978
 20
-119.8891506319201
 30
0.0
 10
86.63312714848061
 20
-119.8891506319201
 30
0.0
  0
SPLINE
  5
FB
330
EB
100
AcDbEntity
  8
_U+30EC_U+30A4_U+30E4_U+30FC 1
370
     0
100
AcDbSpline
210
0.0
220
0.0
230
1.0
 70
    11
 71
     3
 72
    17
 73
    13
 74
     0
 42
0.0000000001
 43
0.0000000001
 12
1.0
 22
0.0
 32
0.0
 13
1.0
 23
0.0
 33
0.0
 40
0.0
 40
0.0
 40
0.0
 40
0.0
 40
1.0
 40
1.0
 40
1.0
 40
2.0
 40
2.0
 40
2.0
 40
3.0
 40
3.0
 40
3.0
 40
4.0
 40
4.0
 40
4.0
 40
4.0
 10
86.63312714848061
 20
-119.2290703369462
 30
0.0
 10
86.46810707473715
 20
-119.2290703369462
 30
0.0
 10
86.3833577258
 20
-119.3241549723391
 30
0.0
 10
86.3833577258
 20
-119.4595472249094
 30
0.0
 10
86.3833577258
 20
-119.5823648789586
 30
0.0
 10
86.45536022144172
 20
-119.7008761636512
 30
0.0
 10
86.63312714848061
 20
-119.7008761636512
 30
0.0
 10
86.8108940755195
 20
-119.7008761636512
 30
0.0
 10
86.88289657116123
 20
-119.5823648789586
 30
0.0
 10
86.88289657116123
 20
-119.4595472249094
 30
0.0
 10
86.88289657116123
 20
-119.3241549723391
 30
0.0
 10
86.79608016493293
 20
-119.2290703369462
 30
0.0
 10
86.63312714848061
 20
-119.2290703369462
 30
0.0
  0
HATCH
  5
FC
330
EB
100
AcDbEntity
  8
_U+30EC_U+30A4_U+30E4_U+30FC 1
 62
   179
420
  2234388
100
AcDbHatch
 10
0.0
 20
0.0
 30
0.0
210
0.0
220
0.0
230
1.0
  2
SOLID
 70
     1
 71
     0
 91
        3
 92
        1
 93
        1
 72
     4
 94
        3
 73
     0
 74
     1
 95
       29
 96
       25
 40
0.0
 40
0.0
 40
0.0
 40
0.0
 40
1.0
 40
1.0
 40
1.0
 40
2.0
 40
2.0
 40
2.0
 40
3.0
 40
3.0
 40
3.0
 40
4.0
 40
4.0
 40
4.0
 40
5.0
 40
5.0
 40
5.0
 40
6.0
 40
6.0
 40
6.0
 40
7.0
 40
7.0
 40
7.0
 40
8.0
 40
8.0
 40
8.0
 40
8.0
 10
86.63312714848061
 20
-120.6803168101077
 10
86.36647675792227
 20
-120.6803168101077
 10
86.11257322065936
 20
-120.542685245472
 10
86.11257322065936
 20
-120.1936970728162
 10
86.11257322065936
 20
-119.9377264782621
 10
86.25451115465165
 20
-119.8424695880949
 10
86.36027558604883
 20
-119.7811468884575
 10
86.23556312948278
 20
-119.7218912461112
 10
86.15942651925876
 20
-119.6076863307752
 10
86.15942651925876
 20
-119.4469726263883
 10
86.15942651925876
 20
-119.1718817518911
 10
86.35820852875767
 20
-119.0364894993207
 10
86.63312714848061
 20
-119.0364894993207
 10
86.91665850691668
 20
-119.0364894993207
 10
87.10717228725099
 20
-119.1803222358299
 10
87.10717228725099
 20
-119.4469726263883
 10
87.10717228725099
 20
-119.6076863307752
 10
87.0286241101873
 20
-119.7218912461112
 10
86.90391165362125
 20
-119.7811468884575
 10
86.99279511714069
 20
-119.8319620468649
 10
87.15161401901071
 20
-119.9272189370321
 10
87.15161401901071
 20
-120.1893907034596
 10
87.15161401901071
 20
-120.5638725827063
 10
86.87221677515694
 20
-120.6803168101077
 10
86.63312714848061
 20
-120.6803168101077
 97
        0
 97
        0
 92
        1
 93
        1
 72
     4
 94
        3
 73
     0
 74
     1
 95
       17
 96
       13
 40
0.0
 40
0.0
 40
0.0
 40
0.0
 40
1.0
 40
1.0
 40
1.0
 40
2.0
 40
2.0
 40
2.0
 40
3.0
 40
3.0
 40
3.0
 40
4.0
 40
4.0
 40
4.0
 40
4.0
 10
86.63312714848061
 20
-119.8891506319201
 10
86.4894666667457
 20
-119.8891506319201
 10
86.33684893674912
 20
-119.9757947833741
 10
86.33684893674912
 20
-120.1788831622296
 10
86.33684893674912
 20
-120.3840385983762
 10
86.46397296015485
 20
-120.4856689151911
 10
86.63312714848061
 20
-120.4856689151911
 10
86.8191623046841
 20
-120.4856689151911
 10
86.9294053602121
 20
-120.3630235159162
 10
86.9294053602121
 20
-120.1852565888773
 10
86.9294053602121
 20
-119.9630479300787
 10
86.76645234375978
 20
-119.8891506319201
 10
86.63312714848061
 20
-119.8891506319201
 97
        0
 97
        0
 92
        1
 93
        1
 72
     4
 94
        3
 73
     0
 74
     1
 95
       17
 96
       13
 40
0.0
 40
0.0
 40
0.0
 40
0.0
 40
1.0
 40
1.0
 40
1.0
 40
2.0
 40
2.0
 40
2.0
 40
3.0
 40
3.0
 40
3.0
 40
4.0
 40
4.0
 40
4.0
 40
4.0
 10
86.63312714848061
 20
-119.2290703369462
 10
86.46810707473715
 20
-119.2290703369462
 10
86.3833577258
 20
-119.3241549723391
 10
86.3833577258
 20
-119.4595472249094
 10
86.3833577258
 20
-119.5823648789586
 10
86.45536022144172
 20
-119.7008761636512
 10
86.63312714848061
 20
-119.7008761636512
 10
86.8108940755195
 20
-119.7008761636512
 10
86.88289657116123
 20
-119.5823648789586
 10
86.88289657116123
 20
-119.4595472249094
 10
86.88289657116123
 20
-119.3241549723391
 10
86.79608016493293
 20
-119.2290703369462
 10
86.63312714848061
 20
-119.2290703369462
 97
        0
 97
        0
 75
     2
 76
     1
 98
        0
  0
ENDBLK
  5
EE
330
EB
100
AcDbEntity
  8
0
100
AcDbBlockEnd
  0
BLOCK
  5
FF
330
FD
100
AcDbEntity
  8
0
100
AcDbBlockBegin
  2
block 4
 70
     0
 10
0.0
 20
0.0
 30
0.0
  3
block 4
  1

  0
SPLINE
  5
101
330
FD
100
AcDbEntity
  8
_U+30EC_U+30A4_U+30E4_U+30FC 1
370
     0
100
AcDbSpline
210
0.0
220
0.0
230
1.0
 70
    11
 71
     3
 72
    62
 73
    58
 74
     0
 42
0.0000000001
 43
0.0000000001
 12
1.0
 22
0.0
 32
0.0
 13
1.0
 23
0.0
 33
0.0
 40
0.0
 40
0.0
 40
0.0
 40
0.0
 40
1.0
 40
1.0
 40
1.0
 40
2.0
 40
2.0
 40
2.0
 40
3.0
 40
3.0
 40
3.0
 40
4.0
 40
4.0
 40
4.0
 40
5.0
 40
5.0
 40
5.0
 40
6.0
 40
6.0
 40
6.0
 40
7.0
 40
7.0
 40
7.0
 40
8.0
 40
8.0
 40
8.0
 40
9.0
 40
9.0
 40
9.0
 40
10.0
 40
10.0
 40
10.0
 40
11.0
 40
11.0
 40
11.0
 40
12.0
 40
12.0
 40
12.0
 40
13.0
 40
13.0
 40
13.0
 40
14.0
 40
14.0
 40
14.0
 40
15.0
 40
15.0
 40
15.0
 40
16.0
 40
16.0
 40
16.0
 40
17.0
 40
17.0
 40
17.0
 40
18.0
 40
18.0
 40
18.0
 40
19.0
 40
19.0
 40
19.0
 40
19.0
 10
78.90216062480572
 20
-130.5146863823019
 30
0.0
 10
78.90216062480572
 20
-130.6101155272433
 30
0.0
 10
78.88097328757142
 20
-130.8278455619111
 30
0.0
 10
78.69476587659368
 20
-130.9529025280257
 30
0.0
 10
78.58262801854879
 20
-131.02662757141
 30
0.0
 10
78.48323701379934
 20
-131.0311061955408
 30
0.0
 10
78.39865991963644
 20
-131.0352403101231
 30
0.0
 10
78.39865991963644
 20
-131.0352403101231
 30
0.0
 10
78.39865991963644
 20
-130.8150987086157
 30
0.0
 10
78.39865991963644
 20
-130.8150987086157
 30
0.0
 10
78.47272947256933
 20
-130.8130316513245
 30
0.0
 10
78.7075127298891
 20
-130.8026963648688
 30
0.0
 10
78.7075127298891
 20
-130.5191650064327
 30
0.0
 10
78.7075127298891
 20
-130.3817056965713
 30
0.0
 10
78.63774954631279
 20
-130.2290879665747
 30
0.0
 10
78.40916746086646
 20
-130.2290879665747
 30
0.0
 10
78.29289548823928
 20
-130.2290879665747
 30
0.0
 10
78.244147387123
 20
-130.2673285264609
 30
0.0
 10
78.2124525086587
 20
-130.2990234049252
 30
0.0
 10
78.13838295572583
 20
-130.3730929578581
 30
0.0
 10
78.12580835720466
 20
-130.4895371852596
 30
0.0
 10
78.12580835720466
 20
-130.544314203475
 30
0.0
 10
78.12580835720466
 20
-130.5636067381924
 30
0.0
 10
78.12787541449582
 20
-130.599435731239
 30
0.0
 10
78.13200952907812
 20
-130.626996495121
 30
0.0
 10
78.13200952907812
 20
-130.626996495121
 30
0.0
 10
77.93753388893576
 20
-130.626996495121
 30
0.0
 10
77.93753388893576
 20
-130.626996495121
 30
0.0
 10
77.9437350608092
 20
-130.5887559352348
 30
0.0
 10
77.94597437287462
 20
-130.5467257703147
 30
0.0
 10
77.94597437287462
 20
-130.5401800888927
 30
0.0
 10
77.94597437287462
 20
-130.474723274673
 30
0.0
 10
77.92478703564034
 20
-130.2759412651741
 30
0.0
 10
77.68776446625515
 20
-130.2759412651741
 30
0.0
 10
77.51016979399051
 20
-130.2759412651741
 30
0.0
 10
77.45504826622651
 20
-130.4068548936136
 30
0.0
 10
77.45504826622651
 20
-130.5170979491416
 30
0.0
 10
77.45504826622651
 20
-130.7813367728602
 30
0.0
 10
77.68776446625515
 20
-130.7899495115734
 30
0.0
 10
77.75976696189687
 20
-130.7940836261556
 30
0.0
 10
77.75976696189687
 20
-130.7940836261556
 30
0.0
 10
77.75976696189687
 20
-130.9973442597854
 30
0.0
 10
77.75976696189687
 20
-130.9973442597854
 30
0.0
 10
77.63488225055656
 20
-130.9887315210723
 30
0.0
 10
77.25833331401876
 20
-130.9611707571903
 30
0.0
 10
77.25833331401876
 20
-130.5043510958461
 30
0.0
 10
77.25833331401876
 20
-130.2800753797564
 30
0.0
 10
77.38528508265021
 20
-130.0389186957889
 30
0.0
 10
77.68139103960743
 20
-130.0389186957889
 30
0.0
 10
77.86759845058519
 20
-130.0389186957889
 30
0.0
 10
77.95010848745692
 20
-130.1340033311818
 30
0.0
 10
78.01143118709437
 20
-130.2335665907055
 30
0.0
 10
78.03899195097637
 20
-130.1722438910681
 30
0.0
 10
78.11943493055695
 20
-129.9903428494469
 30
0.0
 10
78.3965928623453
 20
-129.9903428494469
 30
0.0
 10
78.7350734937711
 20
-129.9903428494469
 30
0.0
 10
78.90216062480572
 20
-130.2377007052878
 30
0.0
 10
78.90216062480572
 20
-130.5146863823019
 30
0.0
  0
HATCH
  5
102
330
FD
100
AcDbEntity
  8
_U+30EC_U+30A4_U+30E4_U+30FC 1
 62
   179
420
  2234388
100
AcDbHatch
 10
0.0
 20
0.0
 30
0.0
210
0.0
220
0.0
230
1.0
  2
SOLID
 70
     1
 71
     0
 91
        1
 92
        1
 93
        1
 72
     4
 94
        3
 73
     0
 74
     1
 95
       62
 96
       58
 40
0.0
 40
0.0
 40
0.0
 40
0.0
 40
1.0
 40
1.0
 40
1.0
 40
2.0
 40
2.0
 40
2.0
 40
3.0
 40
3.0
 40
3.0
 40
4.0
 40
4.0
 40
4.0
 40
5.0
 40
5.0
 40
5.0
 40
6.0
 40
6.0
 40
6.0
 40
7.0
 40
7.0
 40
7.0
 40
8.0
 40
8.0
 40
8.0
 40
9.0
 40
9.0
 40
9.0
 40
10.0
 40
10.0
 40
10.0
 40
11.0
 40
11.0
 40
11.0
 40
12.0
 40
12.0
 40
12.0
 40
13.0
 40
13.0
 40
13.0
 40
14.0
 40
14.0
 40
14.0
 40
15.0
 40
15.0
 40
15.0
 40
16.0
 40
16.0
 40
16.0
 40
17.0
 40
17.0
 40
17.0
 40
18.0
 40
18.0
 40
18.0
 40
19.0
 40
19.0
 40
19.0
 40
19.0
 10
78.90216062480572
 20
-130.5146863823019
 10
78.90216062480572
 20
-130.6101155272433
 10
78.88097328757142
 20
-130.8278455619111
 10
78.69476587659368
 20
-130.9529025280257
 10
78.58262801854879
 20
-131.02662757141
 10
78.48323701379934
 20
-131.0311061955408
 10
78.39865991963644
 20
-131.0352403101231
 10
78.39865991963644
 20
-131.0352403101231
 10
78.39865991963644
 20
-130.8150987086157
 10
78.39865991963644
 20
-130.8150987086157
 10
78.47272947256933
 20
-130.8130316513245
 10
78.7075127298891
 20
-130.8026963648688
 10
78.7075127298891
 20
-130.5191650064327
 10
78.7075127298891
 20
-130.3817056965713
 10
78.63774954631279
 20
-130.2290879665747
 10
78.40916746086646
 20
-130.2290879665747
 10
78.29289548823928
 20
-130.2290879665747
 10
78.244147387123
 20
-130.2673285264609
 10
78.2124525086587
 20
-130.2990234049252
 10
78.13838295572583
 20
-130.3730929578581
 10
78.12580835720466
 20
-130.4895371852596
 10
78.12580835720466
 20
-130.544314203475
 10
78.12580835720466
 20
-130.5636067381924
 10
78.12787541449582
 20
-130.599435731239
 10
78.13200952907812
 20
-130.626996495121
 10
78.13200952907812
 20
-130.626996495121
 10
77.93753388893576
 20
-130.626996495121
 10
77.93753388893576
 20
-130.626996495121
 10
77.9437350608092
 20
-130.5887559352348
 10
77.94597437287462
 20
-130.5467257703147
 10
77.94597437287462
 20
-130.5401800888927
 10
77.94597437287462
 20
-130.474723274673
 10
77.92478703564034
 20
-130.2759412651741
 10
77.68776446625515
 20
-130.2759412651741
 10
77.51016979399051
 20
-130.2759412651741
 10
77.45504826622651
 20
-130.4068548936136
 10
77.45504826622651
 20
-130.5170979491416
 10
77.45504826622651
 20
-130.7813367728602
 10
77.68776446625515
 20
-130.7899495115734
 10
77.75976696189687
 20
-130.7940836261556
 10
77.75976696189687
 20
-130.7940836261556
 10
77.75976696189687
 20
-130.9973442597854
 10
77.75976696189687
 20
-130.9973442597854
 10
77.63488225055656
 20
-130.9887315210723
 10
77.25833331401876
 20
-130.9611707571903
 10
77.25833331401876
 20
-130.5043510958461
 10
77.25833331401876
 20
-130.2800753797564
 10
77.38528508265021
 20
-130.0389186957889
 10
77.68139103960743
 20
-130.0389186957889
 10
77.86759845058519
 20
-130.0389186957889
 10
77.95010848745692
 20
-130.1340033311818
 10
78.01143118709437
 20
-130.2335665907055
 10
78.03899195097637
 20
-130.1722438910681
 10
78.11943493055695
 20
-129.9903428494469
 10
78.3965928623453
 20
-129.9903428494469
 10
78.7350734937711
 20
-129.9903428494469
 10
78.90216062480572
 20
-130.2377007052878
 10
78.90216062480572
 20
-130.5146863823019
 97
        0
 97
        0
 75
     2
 76
     1
 98
        0
  0
SPLINE
  5
103
330
FD
100
AcDbEntity
  8
_U+30EC_U+30A4_U+30E4_U+30FC 1
370
     0
100
AcDbSpline
210
0.0
220
0.0
230
1.0
 70
    11
 71
     3
 72
    29
 73
    25
 74
     0
 42
0.0000000001
 43
0.0000000001
 12
1.0
 22
0.0
 32
0.0
 13
1.0
 23
0.0
 33
0.0
 40
0.0
 40
0.0
 40
0.0
 40
0.0
 40
1.0
 40
1.0
 40
1.0
 40
2.0
 40
2.0
 40
2.0
 40
3.0
 40
3.0
 40
3.0
 40
4.0
 40
4.0
 40
4.0
 40
5.0
 40
5.0
 40
5.0
 40
6.0
 40
6.0
 40
6.0
 40
7.0
 40
7.0
 40
7.0
 40
8.0
 40
8.0
 40
8.0
 40
8.0
 10
78.67357853935938
 20
-128.9316650068296
 30
0.0
 10
78.88304034486258
 20
-129.0398410050664
 30
0.0
 10
78.90216062480572
 20
-129.2131293079745
 30
0.0
 10
78.90216062480572
 20
-129.3295735353759
 30
0.0
 10
78.90216062480572
 20
-129.4904594945371
 30
0.0
 10
78.85565183575484
 20
-129.6320529189809
 30
0.0
 10
78.67357853935938
 20
-129.7271375543738
 30
0.0
 10
78.47910289921704
 20
-129.8308349284798
 30
0.0
 10
78.24208032983185
 20
-129.8497829536487
 30
0.0
 10
78.07912731337953
 20
-129.8497829536487
 30
0.0
 10
77.93529457687035
 20
-129.8497829536487
 30
0.0
 10
77.68363035167285
 20
-129.8329019857709
 30
0.0
 10
77.48467608739966
 20
-129.7271375543738
 30
0.0
 10
77.2815877085442
 20
-129.6193060656855
 30
0.0
 10
77.25833331401876
 20
-129.4584201065243
 30
0.0
 10
77.25833331401876
 20
-129.3295735353759
 30
0.0
 10
77.25833331401876
 20
-129.1707546335059
 30
0.0
 10
77.30277504577847
 20
-129.027094151771
 30
0.0
 10
77.48467608739966
 20
-128.9316650068296
 30
0.0
 10
77.67725692502513
 20
-128.8324462568544
 30
0.0
 10
77.9056667556972
 20
-128.8090196075547
 30
0.0
 10
78.07912731337953
 20
-128.8090196075547
 30
0.0
 10
78.2505208137707
 20
-128.8090196075547
 30
0.0
 10
78.48116995650818
 20
-128.8303791995633
 30
0.0
 10
78.67357853935938
 20
-128.9316650068296
 30
0.0
  0
SPLINE
  5
104
330
FD
100
AcDbEntity
  8
_U+30EC_U+30A4_U+30E4_U+30FC 1
370
     0
100
AcDbSpline
210
0.0
220
0.0
230
1.0
 70
    11
 71
     3
 72
    17
 73
    13
 74
     0
 42
0.0000000001
 43
0.0000000001
 12
1.0
 22
0.0
 32
0.0
 13
1.0
 23
0.0
 33
0.0
 40
0.0
 40
0.0
 40
0.0
 40
0.0
 40
1.0
 40
1.0
 40
1.0
 40
2.0
 40
2.0
 40
2.0
 40
3.0
 40
3.0
 40
3.0
 40
4.0
 40
4.0
 40
4.0
 40
4.0
 10
77.45091415164421
 20
-129.3295735353759
 30
0.0
 10
77.45091415164421
 20
-129.578998448508
 30
0.0
 10
77.73427325530602
 20
-129.6258517471074
 30
0.0
 10
78.07912731337953
 20
-129.6258517471074
 30
0.0
 10
78.39865991963644
 20
-129.6258517471074
 30
0.0
 10
78.7075127298891
 20
-129.5896782445123
 30
0.0
 10
78.7075127298891
 20
-129.3295735353759
 30
0.0
 10
78.7075127298891
 20
-129.0818711699865
 30
0.0
 10
78.42604842874418
 20
-129.0332953236445
 30
0.0
 10
78.07912731337953
 20
-129.0332953236445
 30
0.0
 10
77.75976696189687
 20
-129.0332953236445
 30
0.0
 10
77.45091415164421
 20
-129.0715358835307
 30
0.0
 10
77.45091415164421
 20
-129.3295735353759
 30
0.0
  0
HATCH
  5
105
330
FD
100
AcDbEntity
  8
_U+30EC_U+30A4_U+30E4_U+30FC 1
 62
   179
420
  2234388
100
AcDbHatch
 10
0.0
 20
0.0
 30
0.0
210
0.0
220
0.0
230
1.0
  2
SOLID
 70
     1
 71
     0
 91
        2
 92
        1
 93
        1
 72
     4
 94
        3
 73
     0
 74
     1
 95
       29
 96
       25
 40
0.0
 40
0.0
 40
0.0
 40
0.0
 40
1.0
 40
1.0
 40
1.0
 40
2.0
 40
2.0
 40
2.0
 40
3.0
 40
3.0
 40
3.0
 40
4.0
 40
4.0
 40
4.0
 40
5.0
 40
5.0
 40
5.0
 40
6.0
 40
6.0
 40
6.0
 40
7.0
 40
7.0
 40
7.0
 40
8.0
 40
8.0
 40
8.0
 40
8.0
 10
78.67357853935938
 20
-128.9316650068296
 10
78.88304034486258
 20
-129.0398410050664
 10
78.90216062480572
 20
-129.2131293079745
 10
78.90216062480572
 20
-129.3295735353759
 10
78.90216062480572
 20
-129.4904594945371
 10
78.85565183575484
 20
-129.6320529189809
 10
78.67357853935938
 20
-129.7271375543738
 10
78.47910289921704
 20
-129.8308349284798
 10
78.24208032983185
 20
-129.8497829536487
 10
78.07912731337953
 20
-129.8497829536487
 10
77.93529457687035
 20
-129.8497829536487
 10
77.68363035167285
 20
-129.8329019857709
 10
77.48467608739966
 20
-129.7271375543738
 10
77.2815877085442
 20
-129.6193060656855
 10
77.25833331401876
 20
-129.4584201065243
 10
77.25833331401876
 20
-129.3295735353759
 10
77.25833331401876
 20
-129.1707546335059
 10
77.30277504577847
 20
-129.027094151771
 10
77.48467608739966
 20
-128.9316650068296
 10
77.67725692502513
 20
-128.8324462568544
 10
77.9056667556972
 20
-128.8090196075547
 10
78.07912731337953
 20
-128.8090196075547
 10
78.2505208137707
 20
-128.8090196075547
 10
78.48116995650818
 20
-128.8303791995633
 10
78.67357853935938
 20
-128.9316650068296
 97
        0
 97
        0
 92
        1
 93
        1
 72
     4
 94
        3
 73
     0
 74
     1
 95
       17
 96
       13
 40
0.0
 40
0.0
 40
0.0
 40
0.0
 40
1.0
 40
1.0
 40
1.0
 40
2.0
 40
2.0
 40
2.0
 40
3.0
 40
3.0
 40
3.0
 40
4.0
 40
4.0
 40
4.0
 40
4.0
 10
77.45091415164421
 20
-129.3295735353759
 10
77.45091415164421
 20
-129.578998448508
 10
77.73427325530602
 20
-129.6258517471074
 10
78.07912731337953
 20
-129.6258517471074
 10
78.39865991963644
 20
-129.6258517471074
 10
78.7075127298891
 20
-129.5896782445123
 10
78.7075127298891
 20
-129.3295735353759
 10
78.7075127298891
 20
-129.0818711699865
 10
78.42604842874418
 20
-129.0332953236445
 10
78.07912731337953
 20
-129.0332953236445
 10
77.75976696189687
 20
-129.0332953236445
 10
77.45091415164421
 20
-129.0715358835307
 10
77.45091415164421
 20
-129.3295735353759
 97
        0
 97
        0
 75
     2
 76
     1
 98
        0
  0
POLYLINE
  5
106
330
FD
100
AcDbEntity
  8
_U+30EC_U+30A4_U+30E4_U+30FC 1
370
     0
100
AcDb2dPolyline
 66
     1
 10
0.0
 20
0.0
 30
0.0
  0
VERTEX
  5
107
330
106
100
AcDbEntity
  8
_U+30EC_U+30A4_U+30E4_U+30FC 1
370
     0
100
AcDbVertex
100
AcDb2dVertex
 10
78.85134546639827
 20
-128.592667611081
 30
0.0
  0
VERTEX
  5
108
330
106
100
AcDbEntity
  8
_U+30EC_U+30A4_U+30E4_U+30FC 1
370
     0
100
AcDbVertex
100
AcDb2dVertex
 10
78.59968124120078
 20
-128.592667611081
 30
0.0
  0
VERTEX
  5
109
330
106
100
AcDbEntity
  8
_U+30EC_U+30A4_U+30E4_U+30FC 1
370
     0
100
AcDbVertex
100
AcDb2dVertex
 10
78.59968124120078
 20
-128.3408311311092
 30
0.0
  0
VERTEX
  5
10A
330
106
100
AcDbEntity
  8
_U+30EC_U+30A4_U+30E4_U+30FC 1
370
     0
100
AcDbVertex
100
AcDb2dVertex
 10
78.85134546639827
 20
-128.3408311311092
 30
0.0
  0
VERTEX
  5
10B
330
106
100
AcDbEntity
  8
_U+30EC_U+30A4_U+30E4_U+30FC 1
370
     0
100
AcDbVertex
100
AcDb2dVertex
 10
78.85134546639827
 20
-128.592667611081
 30
0.0
  0
SEQEND
  5
10C
330
106
100
AcDbEntity
  8
_U+30EC_U+30A4_U+30E4_U+30FC 1
370
     0
  0
HATCH
  5
10D
330
FD
100
AcDbEntity
  8
_U+30EC_U+30A4_U+30E4_U+30FC 1
 62
   179
420
  2234388
100
AcDbHatch
 10
0.0
 20
0.0
 30
0.0
210
0.0
220
0.0
230
1.0
  2
SOLID
 70
     1
 71
     0
 91
        1
 92
        1
 93
        4
 72
     1
 10
78.85134546639827
 20
-128.592667611081
 11
78.59968124120078
 21
-128.592667611081
 72
     1
 10
78.59968124120078
 20
-128.592667611081
 11
78.59968124120078
 21
-128.3408311311092
 72
     1
 10
78.59968124120078
 20
-128.3408311311092
 11
78.85134546639827
 21
-128.3408311311092
 72
     1
 10
78.85134546639827
 20
-128.3408311311092
 11
78.85134546639827
 21
-128.592667611081
 97
        0
 75
     2
 76
     1
 98
        0
  0
SPLINE
  5
10E
330
FD
100
AcDbEntity
  8
_U+30EC_U+30A4_U+30E4_U+30FC 1
370
     0
100
AcDbSpline
210
0.0
220
0.0
230
1.0
 70
    11
 71
     3
 72
    29
 73
    25
 74
     0
 42
0.0000000001
 43
0.0000000001
 12
1.0
 22
0.0
 32
0.0
 13
1.0
 23
0.0
 33
0.0
 40
0.0
 40
0.0
 40
0.0
 40
0.0
 40
1.0
 40
1.0
 40
1.0
 40
2.0
 40
2.0
 40
2.0
 40
3.0
 40
3.0
 40
3.0
 40
4.0
 40
4.0
 40
4.0
 40
5.0
 40
5.0
 40
5.0
 40
6.0
 40
6.0
 40
6.0
 40
7.0
 40
7.0
 40
7.0
 40
8.0
 40
8.0
 40
8.0
 40
8.0
 10
78.90216062480572
 20
-127.6046142259113
 30
0.0
 10
78.90216062480572
 20
-127.8712646164697
 30
0.0
 10
78.76452906016998
 20
-128.1251681537326
 30
0.0
 10
78.41554088751417
 20
-128.1251681537326
 30
0.0
 10
78.15957029296011
 20
-128.1251681537326
 30
0.0
 10
78.06431340279295
 20
-127.9832302197403
 30
0.0
 10
78.0029907031555
 20
-127.8774657883431
 30
0.0
 10
77.9437350608092
 20
-128.0021782449092
 30
0.0
 10
77.82953014547317
 20
-128.0783148551332
 30
0.0
 10
77.66881644108628
 20
-128.0783148551332
 30
0.0
 10
77.39372556658907
 20
-128.0783148551332
 30
0.0
 10
77.25833331401876
 20
-127.8795328456343
 30
0.0
 10
77.25833331401876
 20
-127.6046142259113
 30
0.0
 10
77.25833331401876
 20
-127.3210828674753
 30
0.0
 10
77.40216605052794
 20
-127.130569087141
 30
0.0
 10
77.66881644108628
 20
-127.130569087141
 30
0.0
 10
77.82953014547317
 20
-127.130569087141
 30
0.0
 10
77.9437350608092
 20
-127.2091172642047
 30
0.0
 10
78.0029907031555
 20
-127.3338297207707
 30
0.0
 10
78.05380586156294
 20
-127.2449462572513
 30
0.0
 10
78.1490627517301
 20
-127.0861273553813
 30
0.0
 10
78.41123451815761
 20
-127.0861273553813
 30
0.0
 10
78.78571639740427
 20
-127.0861273553813
 30
0.0
 10
78.90216062480572
 20
-127.365524599235
 30
0.0
 10
78.90216062480572
 20
-127.6046142259113
 30
0.0
  0
SPLINE
  5
10F
330
FD
100
AcDbEntity
  8
_U+30EC_U+30A4_U+30E4_U+30FC 1
370
     0
100
AcDbSpline
210
0.0
220
0.0
230
1.0
 70
    11
 71
     3
 72
    17
 73
    13
 74
     0
 42
0.0000000001
 43
0.0000000001
 12
1.0
 22
0.0
 32
0.0
 13
1.0
 23
0.0
 33
0.0
 40
0.0
 40
0.0
 40
0.0
 40
0.0
 40
1.0
 40
1.0
 40
1.0
 40
2.0
 40
2.0
 40
2.0
 40
3.0
 40
3.0
 40
3.0
 40
4.0
 40
4.0
 40
4.0
 40
4.0
 10
77.45091415164421
 20
-127.6046142259113
 30
0.0
 10
77.45091415164421
 20
-127.7696342996548
 30
0.0
 10
77.54599878703712
 20
-127.854383648592
 30
0.0
 10
77.68139103960743
 20
-127.854383648592
 30
0.0
 10
77.80420869365659
 20
-127.854383648592
 30
0.0
 10
77.92271997834918
 20
-127.7823811529503
 30
0.0
 10
77.92271997834918
 20
-127.6046142259113
 30
0.0
 10
77.92271997834918
 20
-127.4268472988725
 30
0.0
 10
77.80420869365659
 20
-127.3548448032307
 30
0.0
 10
77.68139103960743
 20
-127.3548448032307
 30
0.0
 10
77.54599878703712
 20
-127.3548448032307
 30
0.0
 10
77.45091415164421
 20
-127.441661209459
 30
0.0
 10
77.45091415164421
 20
-127.6046142259113
 30
0.0
  0
SPLINE
  5
110
330
FD
100
AcDbEntity
  8
_U+30EC_U+30A4_U+30E4_U+30FC 1
370
     0
100
AcDbSpline
210
0.0
220
0.0
230
1.0
 70
    11
 71
     3
 72
    17
 73
    13
 74
     0
 42
0.0000000001
 43
0.0000000001
 12
1.0
 22
0.0
 32
0.0
 13
1.0
 23
0.0
 33
0.0
 40
0.0
 40
0.0
 40
0.0
 40
0.0
 40
1.0
 40
1.0
 40
1.0
 40
2.0
 40
2.0
 40
2.0
 40
3.0
 40
3.0
 40
3.0
 40
4.0
 40
4.0
 40
4.0
 40
4.0
 10
78.1109944466181
 20
-127.6046142259113
 30
0.0
 10
78.1109944466181
 20
-127.7482747076463
 30
0.0
 10
78.19763859807212
 20
-127.9008924376428
 30
0.0
 10
78.4007269769276
 20
-127.9008924376428
 30
0.0
 10
78.60588241307423
 20
-127.9008924376428
 30
0.0
 10
78.7075127298891
 20
-127.7737684142371
 30
0.0
 10
78.7075127298891
 20
-127.6046142259113
 30
0.0
 10
78.7075127298891
 20
-127.4185790697079
 30
0.0
 10
78.5848673306142
 20
-127.3083360141799
 30
0.0
 10
78.40710040357531
 20
-127.3083360141799
 30
0.0
 10
78.18489174477669
 20
-127.3083360141799
 30
0.0
 10
78.1109944466181
 20
-127.4712890306322
 30
0.0
 10
78.1109944466181
 20
-127.6046142259113
 30
0.0
  0
HATCH
  5
111
330
FD
100
AcDbEntity
  8
_U+30EC_U+30A4_U+30E4_U+30FC 1
 62
   179
420
  2234388
100
AcDbHatch
 10
0.0
 20
0.0
 30
0.0
210
0.0
220
0.0
230
1.0
  2
SOLID
 70
     1
 71
     0
 91
        3
 92
        1
 93
        1
 72
     4
 94
        3
 73
     0
 74
     1
 95
       29
 96
       25
 40
0.0
 40
0.0
 40
0.0
 40
0.0
 40
1.0
 40
1.0
 40
1.0
 40
2.0
 40
2.0
 40
2.0
 40
3.0
 40
3.0
 40
3.0
 40
4.0
 40
4.0
 40
4.0
 40
5.0
 40
5.0
 40
5.0
 40
6.0
 40
6.0
 40
6.0
 40
7.0
 40
7.0
 40
7.0
 40
8.0
 40
8.0
 40
8.0
 40
8.0
 10
78.90216062480572
 20
-127.6046142259113
 10
78.90216062480572
 20
-127.8712646164697
 10
78.76452906016998
 20
-128.1251681537326
 10
78.41554088751417
 20
-128.1251681537326
 10
78.15957029296011
 20
-128.1251681537326
 10
78.06431340279295
 20
-127.9832302197403
 10
78.0029907031555
 20
-127.8774657883431
 10
77.9437350608092
 20
-128.0021782449092
 10
77.82953014547317
 20
-128.0783148551332
 10
77.66881644108628
 20
-128.0783148551332
 10
77.39372556658907
 20
-128.0783148551332
 10
77.25833331401876
 20
-127.8795328456343
 10
77.25833331401876
 20
-127.6046142259113
 10
77.25833331401876
 20
-127.3210828674753
 10
77.40216605052794
 20
-127.130569087141
 10
77.66881644108628
 20
-127.130569087141
 10
77.82953014547317
 20
-127.130569087141
 10
77.9437350608092
 20
-127.2091172642047
 10
78.0029907031555
 20
-127.3338297207707
 10
78.05380586156294
 20
-127.2449462572513
 10
78.1490627517301
 20
-127.0861273553813
 10
78.41123451815761
 20
-127.0861273553813
 10
78.78571639740427
 20
-127.0861273553813
 10
78.90216062480572
 20
-127.365524599235
 10
78.90216062480572
 20
-127.6046142259113
 97
        0
 97
        0
 92
        1
 93
        1
 72
     4
 94
        3
 73
     0
 74
     1
 95
       17
 96
       13
 40
0.0
 40
0.0
 40
0.0
 40
0.0
 40
1.0
 40
1.0
 40
1.0
 40
2.0
 40
2.0
 40
2.0
 40
3.0
 40
3.0
 40
3.0
 40
4.0
 40
4.0
 40
4.0
 40
4.0
 10
77.45091415164421
 20
-127.6046142259113
 10
77.45091415164421
 20
-127.7696342996548
 10
77.54599878703712
 20
-127.854383648592
 10
77.68139103960743
 20
-127.854383648592
 10
77.80420869365659
 20
-127.854383648592
 10
77.92271997834918
 20
-127.7823811529503
 10
77.92271997834918
 20
-127.6046142259113
 10
77.92271997834918
 20
-127.4268472988725
 10
77.80420869365659
 20
-127.3548448032307
 10
77.68139103960743
 20
-127.3548448032307
 10
77.54599878703712
 20
-127.3548448032307
 10
77.45091415164421
 20
-127.441661209459
 10
77.45091415164421
 20
-127.6046142259113
 97
        0
 97
        0
 92
        1
 93
        1
 72
     4
 94
        3
 73
     0
 74
     1
 95
       17
 96
       13
 40
0.0
 40
0.0
 40
0.0
 40
0.0
 40
1.0
 40
1.0
 40
1.0
 40
2.0
 40
2.0
 40
2.0
 40
3.0
 40
3.0
 40
3.0
 40
4.0
 40
4.0
 40
4.0
 40
4.0
 10
78.1109944466181
 20
-127.6046142259113
 10
78.1109944466181
 20
-127.7482747076463
 10
78.19763859807212
 20
-127.9008924376428
 10
78.4007269769276
 20
-127.9008924376428
 10
78.60588241307423
 20
-127.9008924376428
 10
78.7075127298891
 20
-127.7737684142371
 10
78.7075127298891
 20
-127.6046142259113
 10
78.7075127298891
 20
-127.4185790697079
 10
78.5848673306142
 20
-127.3083360141799
 10
78.40710040357531
 20
-127.3083360141799
 10
78.18489174477669
 20
-127.3083360141799
 10
78.1109944466181
 20
-127.4712890306322
 10
78.1109944466181
 20
-127.6046142259113
 97
        0
 97
        0
 75
     2
 76
     1
 98
        0
  0
ENDBLK
  5
100
330
FD
100
AcDbEntity
  8
0
100
AcDbBlockEnd
  0
BLOCK
  5
114
330
112
100
AcDbEntity
  8
0
100
AcDbBlockBegin
  2
block 5
 70
     0
 10
0.0
 20
0.0
 30
0.0
  3
block 5
  1

  0
SPLINE
  5
116
330
112
100
AcDbEntity
  8
_U+30EC_U+30A4_U+30E4_U+30FC 1
370
     0
100
AcDbSpline
210
0.0
220
0.0
230
1.0
 70
    11
 71
     3
 72
    26
 73
    22
 74
     0
 42
0.0000000001
 43
0.0000000001
 12
1.0
 22
0.0
 32
0.0
 13
1.0
 23
0.0
 33
0.0
 40
0.0
 40
0.0
 40
0.0
 40
0.0
 40
1.0
 40
1.0
 40
1.0
 40
2.0
 40
2.0
 40
2.0
 40
3.0
 40
3.0
 40
3.0
 40
4.0
 40
4.0
 40
4.0
 40
5.0
 40
5.0
 40
5.0
 40
6.0
 40
6.0
 40
6.0
 40
7.0
 40
7.0
 40
7.0
 40
7.0
 10
84.2129475700926
 20
-141.3253960150159
 30
0.0
 10
84.2129475700926
 20
-141.3253960150159
 30
0.0
 10
84.2129475700926
 20
-140.2208984024448
 30
0.0
 10
84.2129475700926
 20
-140.2208984024448
 30
0.0
 10
84.2129475700926
 20
-140.2208984024448
 30
0.0
 10
83.88290742260567
 20
-140.2208984024448
 30
0.0
 10
83.88290742260567
 20
-140.2208984024448
 30
0.0
 10
83.88290742260567
 20
-140.2208984024448
 30
0.0
 10
83.88290742260567
 20
-140.0727592965791
 30
0.0
 10
83.88290742260567
 20
-140.0727592965791
 30
0.0
 10
84.21501462738375
 20
-140.058289895541
 30
0.0
 10
84.26152341643463
 20
-139.8949923695401
 30
0.0
 10
84.29115123760778
 20
-139.7809597089784
 30
0.0
 10
84.29115123760778
 20
-139.7809597089784
 30
0.0
 10
84.43722328618236
 20
-139.7809597089784
 30
0.0
 10
84.43722328618236
 20
-139.7809597089784
 30
0.0
 10
84.43722328618236
 20
-139.7809597089784
 30
0.0
 10
84.43722328618236
 20
-141.3253960150159
 30
0.0
 10
84.43722328618236
 20
-141.3253960150159
 30
0.0
 10
84.43722328618236
 20
-141.3253960150159
 30
0.0
 10
84.2129475700926
 20
-141.3253960150159
 30
0.0
 10
84.2129475700926
 20
-141.3253960150159
 30
0.0
  0
HATCH
  5
117
330
112
100
AcDbEntity
  8
_U+30EC_U+30A4_U+30E4_U+30FC 1
 62
   179
420
  2234388
100
AcDbHatch
 10
0.0
 20
0.0
 30
0.0
210
0.0
220
0.0
230
1.0
  2
SOLID
 70
     1
 71
     0
 91
        1
 92
        1
 93
        1
 72
     4
 94
        3
 73
     0
 74
     1
 95
       26
 96
       22
 40
0.0
 40
0.0
 40
0.0
 40
0.0
 40
1.0
 40
1.0
 40
1.0
 40
2.0
 40
2.0
 40
2.0
 40
3.0
 40
3.0
 40
3.0
 40
4.0
 40
4.0
 40
4.0
 40
5.0
 40
5.0
 40
5.0
 40
6.0
 40
6.0
 40
6.0
 40
7.0
 40
7.0
 40
7.0
 40
7.0
 10
84.2129475700926
 20
-141.3253960150159
 10
84.2129475700926
 20
-141.3253960150159
 10
84.2129475700926
 20
-140.2208984024448
 10
84.2129475700926
 20
-140.2208984024448
 10
84.2129475700926
 20
-140.2208984024448
 10
83.88290742260567
 20
-140.2208984024448
 10
83.88290742260567
 20
-140.2208984024448
 10
83.88290742260567
 20
-140.2208984024448
 10
83.88290742260567
 20
-140.0727592965791
 10
83.88290742260567
 20
-140.0727592965791
 10
84.21501462738375
 20
-140.058289895541
 10
84.26152341643463
 20
-139.8949923695401
 10
84.29115123760778
 20
-139.7809597089784
 10
84.29115123760778
 20
-139.7809597089784
 10
84.43722328618236
 20
-139.7809597089784
 10
84.43722328618236
 20
-139.7809597089784
 10
84.43722328618236
 20
-139.7809597089784
 10
84.43722328618236
 20
-141.3253960150159
 10
84.43722328618236
 20
-141.3253960150159
 10
84.43722328618236
 20
-141.3253960150159
 10
84.2129475700926
 20
-141.3253960150159
 10
84.2129475700926
 20
-141.3253960150159
 97
        0
 97
        0
 75
     2
 76
     1
 98
        0
  0
SPLINE
  5
118
330
112
100
AcDbEntity
  8
_U+30EC_U+30A4_U+30E4_U+30FC 1
370
     0
100
AcDbSpline
210
0.0
220
0.0
230
1.0
 70
    11
 71
     3
 72
    53
 73
    49
 74
     0
 42
0.0000000001
 43
0.0000000001
 12
1.0
 22
0.0
 32
0.0
 13
1.0
 23
0.0
 33
0.0
 40
0.0
 40
0.0
 40
0.0
 40
0.0
 40
1.0
 40
1.0
 40
1.0
 40
2.0
 40
2.0
 40
2.0
 40
3.0
 40
3.0
 40
3.0
 40
4.0
 40
4.0
 40
4.0
 40
5.0
 40
5.0
 40
5.0
 40
6.0
 40
6.0
 40
6.0
 40
7.0
 40
7.0
 40
7.0
 40
8.0
 40
8.0
 40
8.0
 40
9.0
 40
9.0
 40
9.0
 40
10.0
 40
10.0
 40
10.0
 40
11.0
 40
11.0
 40
11.0
 40
12.0
 40
12.0
 40
12.0
 40
13.0
 40
13.0
 40
13.0
 40
14.0
 40
14.0
 40
14.0
 40
15.0
 40
15.0
 40
15.0
 40
16.0
 40
16.0
 40
16.0
 40
16.0
 10
85.41942000902709
 20
-141.376038918649
 30
0.0
 10
85.34121634151192
 20
-141.376038918649
 30
0.0
 10
85.23958602469705
 20
-141.3591579507713
 30
0.0
 10
85.13795570788218
 20
-141.2957681938427
 30
0.0
 10
84.96466740497411
 20
-141.1855251383147
 30
0.0
 10
84.94330781296557
 20
-141.0546115098752
 30
0.0
 10
84.92435978779669
 20
-140.9464355116384
 30
0.0
 10
84.92435978779669
 20
-140.9464355116384
 30
0.0
 10
85.14656844659531
 20
-140.9464355116384
 30
0.0
 10
85.14656844659531
 20
-140.9464355116384
 30
0.0
 10
85.20134546481079
 20
-141.1455620306859
 30
0.0
 10
85.3284694882165
 20
-141.175189851859
 30
0.0
 10
85.42148706631825
 20
-141.175189851859
 30
0.0
 10
85.56101343347086
 20
-141.175189851859
 30
0.0
 10
85.7132866539189
 20
-141.0756265923353
 30
0.0
 10
85.7132866539189
 20
-140.8430826470809
 30
0.0
 10
85.7132866539189
 20
-140.5867675429783
 30
0.0
 10
85.53345266958887
 20
-140.5171766141763
 30
0.0
 10
85.41287432760512
 20
-140.5171766141763
 30
0.0
 10
85.38117944914082
 20
-140.5171766141763
 30
0.0
 10
85.23958602469705
 20
-140.5171766141763
 30
0.0
 10
85.15070256117761
 20
-140.6460231853246
 30
0.0
 10
85.15070256117761
 20
-140.6460231853246
 30
0.0
 10
84.97500269142986
 20
-140.6270751601557
 30
0.0
 10
84.97500269142986
 20
-140.6270751601557
 30
0.0
 10
84.97500269142986
 20
-140.6270751601557
 30
0.0
 10
85.09558103341361
 20
-139.7809597089784
 30
0.0
 10
85.09558103341361
 20
-139.7809597089784
 30
0.0
 10
85.09558103341361
 20
-139.7809597089784
 30
0.0
 10
85.87417261308008
 20
-139.7809597089784
 30
0.0
 10
85.87417261308008
 20
-139.7809597089784
 30
0.0
 10
85.87417261308008
 20
-139.7809597089784
 30
0.0
 10
85.87417261308008
 20
-139.975607603895
 30
0.0
 10
85.87417261308008
 20
-139.975607603895
 30
0.0
 10
85.87417261308008
 20
-139.975607603895
 30
0.0
 10
85.25853404986593
 20
-139.975607603895
 30
0.0
 10
85.25853404986593
 20
-139.975607603895
 30
0.0
 10
85.25853404986593
 20
-139.975607603895
 30
0.0
 10
85.19307723564619
 20
-140.3986653294837
 30
0.0
 10
85.19307723564619
 20
-140.3986653294837
 30
0.0
 10
85.25439993528363
 20
-140.3649033937282
 30
0.0
 10
85.3367377173811
 20
-140.3245957765508
 30
0.0
 10
85.45524900207369
 20
-140.3245957765508
 30
0.0
 10
85.7091525393366
 20
-140.3245957765508
 30
0.0
 10
85.94617510872179
 20
-140.5109754423028
 30
0.0
 10
85.94617510872179
 20
-140.8237901123635
 30
0.0
 10
85.94617510872179
 20
-141.1414279161035
 30
0.0
 10
85.72189939263203
 20
-141.376038918649
 30
0.0
 10
85.41942000902709
 20
-141.376038918649
 30
0.0
  0
HATCH
  5
119
330
112
100
AcDbEntity
  8
_U+30EC_U+30A4_U+30E4_U+30FC 1
 62
   179
420
  2234388
100
AcDbHatch
 10
0.0
 20
0.0
 30
0.0
210
0.0
220
0.0
230
1.0
  2
SOLID
 70
     1
 71
     0
 91
        1
 92
        1
 93
        1
 72
     4
 94
        3
 73
     0
 74
     1
 95
       53
 96
       49
 40
0.0
 40
0.0
 40
0.0
 40
0.0
 40
1.0
 40
1.0
 40
1.0
 40
2.0
 40
2.0
 40
2.0
 40
3.0
 40
3.0
 40
3.0
 40
4.0
 40
4.0
 40
4.0
 40
5.0
 40
5.0
 40
5.0
 40
6.0
 40
6.0
 40
6.0
 40
7.0
 40
7.0
 40
7.0
 40
8.0
 40
8.0
 40
8.0
 40
9.0
 40
9.0
 40
9.0
 40
10.0
 40
10.0
 40
10.0
 40
11.0
 40
11.0
 40
11.0
 40
12.0
 40
12.0
 40
12.0
 40
13.0
 40
13.0
 40
13.0
 40
14.0
 40
14.0
 40
14.0
 40
15.0
 40
15.0
 40
15.0
 40
16.0
 40
16.0
 40
16.0
 40
16.0
 10
85.41942000902709
 20
-141.376038918649
 10
85.34121634151192
 20
-141.376038918649
 10
85.23958602469705
 20
-141.3591579507713
 10
85.13795570788218
 20
-141.2957681938427
 10
84.96466740497411
 20
-141.1855251383147
 10
84.94330781296557
 20
-141.0546115098752
 10
84.92435978779669
 20
-140.9464355116384
 10
84.92435978779669
 20
-140.9464355116384
 10
85.14656844659531
 20
-140.9464355116384
 10
85.14656844659531
 20
-140.9464355116384
 10
85.20134546481079
 20
-141.1455620306859
 10
85.3284694882165
 20
-141.175189851859
 10
85.42148706631825
 20
-141.175189851859
 10
85.56101343347086
 20
-141.175189851859
 10
85.7132866539189
 20
-141.0756265923353
 10
85.7132866539189
 20
-140.8430826470809
 10
85.7132866539189
 20
-140.5867675429783
 10
85.53345266958887
 20
-140.5171766141763
 10
85.41287432760512
 20
-140.5171766141763
 10
85.38117944914082
 20
-140.5171766141763
 10
85.23958602469705
 20
-140.5171766141763
 10
85.15070256117761
 20
-140.6460231853246
 10
85.15070256117761
 20
-140.6460231853246
 10
84.97500269142986
 20
-140.6270751601557
 10
84.97500269142986
 20
-140.6270751601557
 10
84.97500269142986
 20
-140.6270751601557
 10
85.09558103341361
 20
-139.7809597089784
 10
85.09558103341361
 20
-139.7809597089784
 10
85.09558103341361
 20
-139.7809597089784
 10
85.87417261308008
 20
-139.7809597089784
 10
85.87417261308008
 20
-139.7809597089784
 10
85.87417261308008
 20
-139.7809597089784
 10
85.87417261308008
 20
-139.975607603895
 10
85.87417261308008
 20
-139.975607603895
 10
85.87417261308008
 20
-139.975607603895
 10
85.25853404986593
 20
-139.975607603895
 10
85.25853404986593
 20
-139.975607603895
 10
85.25853404986593
 20
-139.975607603895
 10
85.19307723564619
 20
-140.3986653294837
 10
85.19307723564619
 20
-140.3986653294837
 10
85.25439993528363
 20
-140.3649033937282
 10
85.3367377173811
 20
-140.3245957765508
 10
85.45524900207369
 20
-140.3245957765508
 10
85.7091525393366
 20
-140.3245957765508
 10
85.94617510872179
 20
-140.5109754423028
 10
85.94617510872179
 20
-140.8237901123635
 10
85.94617510872179
 20
-141.1414279161035
 10
85.72189939263203
 20
-141.376038918649
 10
85.41942000902709
 20
-141.376038918649
 97
        0
 97
        0
 75
     2
 76
     1
 98
        0
  0
ENDBLK
  5
115
330
112
100
AcDbEntity
  8
0
100
AcDbBlockEnd
  0
BLOCK
  5
11C
330
11A
100
AcDbEntity
  8
0
100
AcDbBlockBegin
  2
block 6
 70
     0
 10
0.0
 20
0.0
 30
0.0
  3
block 6
  1

  0
SPLINE
  5
11E
330
11A
100
AcDbEntity
  8
_U+30EC_U+30A4_U+30E4_U+30FC 1
370
     0
100
AcDbSpline
210
0.0
220
0.0
230
1.0
 70
    11
 71
     3
 72
    62
 73
    58
 74
     0
 42
0.0000000001
 43
0.0000000001
 12
1.0
 22
0.0
 32
0.0
 13
1.0
 23
0.0
 33
0.0
 40
0.0
 40
0.0
 40
0.0
 40
0.0
 40
1.0
 40
1.0
 40
1.0
 40
2.0
 40
2.0
 40
2.0
 40
3.0
 40
3.0
 40
3.0
 40
4.0
 40
4.0
 40
4.0
 40
5.0
 40
5.0
 40
5.0
 40
6.0
 40
6.0
 40
6.0
 40
7.0
 40
7.0
 40
7.0
 40
8.0
 40
8.0
 40
8.0
 40
9.0
 40
9.0
 40
9.0
 40
10.0
 40
10.0
 40
10.0
 40
11.0
 40
11.0
 40
11.0
 40
12.0
 40
12.0
 40
12.0
 40
13.0
 40
13.0
 40
13.0
 40
14.0
 40
14.0
 40
14.0
 40
15.0
 40
15.0
 40
15.0
 40
16.0
 40
16.0
 40
16.0
 40
17.0
 40
17.0
 40
17.0
 40
18.0
 40
18.0
 40
18.0
 40
19.0
 40
19.0
 40
19.0
 40
19.0
 10
93.6600884097447
 20
-137.6129611201107
 30
0.0
 10
93.56465926480328
 20
-137.6129611201107
 30
0.0
 10
93.3469292301355
 20
-137.5916015281021
 30
0.0
 10
93.22187226402093
 20
-137.4055663718986
 30
0.0
 10
93.14814722063657
 20
-137.2932562590795
 30
0.0
 10
93.14366859650575
 20
-137.1940375091043
 30
0.0
 10
93.13953448192345
 20
-137.1092881601671
 30
0.0
 10
93.13953448192345
 20
-137.1092881601671
 30
0.0
 10
93.35967608343091
 20
-137.1092881601671
 30
0.0
 10
93.35967608343091
 20
-137.1092881601671
 30
0.0
 10
93.36174314072207
 20
-137.1833577131
 30
0.0
 10
93.37207842717781
 20
-137.4179687156455
 30
0.0
 10
93.65560978561388
 20
-137.4179687156455
 30
0.0
 10
93.79306909547535
 20
-137.4179687156455
 30
0.0
 10
93.94568682547191
 20
-137.3483777868435
 30
0.0
 10
93.94568682547191
 20
-137.1196234466229
 30
0.0
 10
93.94568682547191
 20
-137.0035237287699
 30
0.0
 10
93.90744626558565
 20
-136.9549478824279
 30
0.0
 10
93.87575138712134
 20
-136.9232530039637
 30
0.0
 10
93.80168183418847
 20
-136.8488389414822
 30
0.0
 10
93.68523760678703
 20
-136.8364365977353
 30
0.0
 10
93.63046058857155
 20
-136.8364365977353
 30
0.0
 10
93.61116805385416
 20
-136.8364365977353
 30
0.0
 10
93.57533906080756
 20
-136.8385036550265
 30
0.0
 10
93.54777829692556
 20
-136.8426377696088
 30
0.0
 10
93.54777829692556
 20
-136.8426377696088
 30
0.0
 10
93.54777829692556
 20
-136.6479898746922
 30
0.0
 10
93.54777829692556
 20
-136.6479898746922
 30
0.0
 10
93.58601885681183
 20
-136.6545355561142
 30
0.0
 10
93.62804902173188
 20
-136.6566026134053
 30
0.0
 10
93.63459470315385
 20
-136.6566026134053
 30
0.0
 10
93.70005151737361
 20
-136.6566026134053
 30
0.0
 10
93.89883352687252
 20
-136.6352430213967
 30
0.0
 10
93.89883352687252
 20
-136.3982204520116
 30
0.0
 10
93.89883352687252
 20
-136.2207980345212
 30
0.0
 10
93.76791989843302
 20
-136.1656765067572
 30
0.0
 10
93.65767684290503
 20
-136.1656765067572
 30
0.0
 10
93.39343801918636
 20
-136.1656765067572
 30
0.0
 10
93.38482528047324
 20
-136.3982204520116
 30
0.0
 10
93.38069116589094
 20
-136.4705674572018
 30
0.0
 10
93.38069116589094
 20
-136.4705674572018
 30
0.0
 10
93.1774305322612
 20
-136.4705674572018
 30
0.0
 10
93.1774305322612
 20
-136.4705674572018
 30
0.0
 10
93.18604327097432
 20
-136.3455104910873
 30
0.0
 10
93.21360403485633
 20
-135.9689615545494
 30
0.0
 10
93.67042369620046
 20
-135.9689615545494
 30
0.0
 10
93.89469941229022
 20
-135.9689615545494
 30
0.0
 10
94.13585609625771
 20
-136.0957410684066
 30
0.0
 10
94.13585609625771
 20
-136.3920192801381
 30
0.0
 10
94.13585609625771
 20
-136.5780544363416
 30
0.0
 10
94.04077146086482
 20
-136.6607367279876
 30
0.0
 10
93.9412082013411
 20
-136.7220594276251
 30
0.0
 10
94.00253090097854
 20
-136.749620191507
 30
0.0
 10
94.18443194259973
 20
-136.8302354258619
 30
0.0
 10
94.18443194259973
 20
-137.107221102876
 30
0.0
 10
94.18443194259973
 20
-137.4455294795275
 30
0.0
 10
93.9370740867588
 20
-137.6129611201107
 30
0.0
 10
93.6600884097447
 20
-137.6129611201107
 30
0.0
  0
HATCH
  5
11F
330
11A
100
AcDbEntity
  8
_U+30EC_U+30A4_U+30E4_U+30FC 1
 62
   179
420
  2234388
100
AcDbHatch
 10
0.0
 20
0.0
 30
0.0
210
0.0
220
0.0
230
1.0
  2
SOLID
 70
     1
 71
     0
 91
        1
 92
        1
 93
        1
 72
     4
 94
        3
 73
     0
 74
     1
 95
       62
 96
       58
 40
0.0
 40
0.0
 40
0.0
 40
0.0
 40
1.0
 40
1.0
 40
1.0
 40
2.0
 40
2.0
 40
2.0
 40
3.0
 40
3.0
 40
3.0
 40
4.0
 40
4.0
 40
4.0
 40
5.0
 40
5.0
 40
5.0
 40
6.0
 40
6.0
 40
6.0
 40
7.0
 40
7.0
 40
7.0
 40
8.0
 40
8.0
 40
8.0
 40
9.0
 40
9.0
 40
9.0
 40
10.0
 40
10.0
 40
10.0
 40
11.0
 40
11.0
 40
11.0
 40
12.0
 40
12.0
 40
12.0
 40
13.0
 40
13.0
 40
13.0
 40
14.0
 40
14.0
 40
14.0
 40
15.0
 40
15.0
 40
15.0
 40
16.0
 40
16.0
 40
16.0
 40
17.0
 40
17.0
 40
17.0
 40
18.0
 40
18.0
 40
18.0
 40
19.0
 40
19.0
 40
19.0
 40
19.0
 10
93.6600884097447
 20
-137.6129611201107
 10
93.56465926480328
 20
-137.6129611201107
 10
93.3469292301355
 20
-137.5916015281021
 10
93.22187226402093
 20
-137.4055663718986
 10
93.14814722063657
 20
-137.2932562590795
 10
93.14366859650575
 20
-137.1940375091043
 10
93.13953448192345
 20
-137.1092881601671
 10
93.13953448192345
 20
-137.1092881601671
 10
93.35967608343091
 20
-137.1092881601671
 10
93.35967608343091
 20
-137.1092881601671
 10
93.36174314072207
 20
-137.1833577131
 10
93.37207842717781
 20
-137.4179687156455
 10
93.65560978561388
 20
-137.4179687156455
 10
93.79306909547535
 20
-137.4179687156455
 10
93.94568682547191
 20
-137.3483777868435
 10
93.94568682547191
 20
-137.1196234466229
 10
93.94568682547191
 20
-137.0035237287699
 10
93.90744626558565
 20
-136.9549478824279
 10
93.87575138712134
 20
-136.9232530039637
 10
93.80168183418847
 20
-136.8488389414822
 10
93.68523760678703
 20
-136.8364365977353
 10
93.63046058857155
 20
-136.8364365977353
 10
93.61116805385416
 20
-136.8364365977353
 10
93.57533906080756
 20
-136.8385036550265
 10
93.54777829692556
 20
-136.8426377696088
 10
93.54777829692556
 20
-136.8426377696088
 10
93.54777829692556
 20
-136.6479898746922
 10
93.54777829692556
 20
-136.6479898746922
 10
93.58601885681183
 20
-136.6545355561142
 10
93.62804902173188
 20
-136.6566026134053
 10
93.63459470315385
 20
-136.6566026134053
 10
93.70005151737361
 20
-136.6566026134053
 10
93.89883352687252
 20
-136.6352430213967
 10
93.89883352687252
 20
-136.3982204520116
 10
93.89883352687252
 20
-136.2207980345212
 10
93.76791989843302
 20
-136.1656765067572
 10
93.65767684290503
 20
-136.1656765067572
 10
93.39343801918636
 20
-136.1656765067572
 10
93.38482528047324
 20
-136.3982204520116
 10
93.38069116589094
 20
-136.4705674572018
 10
93.38069116589094
 20
-136.4705674572018
 10
93.1774305322612
 20
-136.4705674572018
 10
93.1774305322612
 20
-136.4705674572018
 10
93.18604327097432
 20
-136.3455104910873
 10
93.21360403485633
 20
-135.9689615545494
 10
93.67042369620046
 20
-135.9689615545494
 10
93.89469941229022
 20
-135.9689615545494
 10
94.13585609625771
 20
-136.0957410684066
 10
94.13585609625771
 20
-136.3920192801381
 10
94.13585609625771
 20
-136.5780544363416
 10
94.04077146086482
 20
-136.6607367279876
 10
93.9412082013411
 20
-136.7220594276251
 10
94.00253090097854
 20
-136.749620191507
 10
94.18443194259973
 20
-136.8302354258619
 10
94.18443194259973
 20
-137.107221102876
 10
94.18443194259973
 20
-137.4455294795275
 10
93.9370740867588
 20
-137.6129611201107
 10
93.6600884097447
 20
-137.6129611201107
 97
        0
 97
        0
 75
     2
 76
     1
 98
        0
  0
POLYLINE
  5
120
330
11A
100
AcDbEntity
  8
_U+30EC_U+30A4_U+30E4_U+30FC 1
370
     0
100
AcDb2dPolyline
 66
     1
 10
0.0
 20
0.0
 30
0.0
  0
VERTEX
  5
121
330
120
100
AcDbEntity
  8
_U+30EC_U+30A4_U+30E4_U+30FC 1
370
     0
100
AcDbVertex
100
AcDb2dVertex
 10
94.40526256320425
 20
-137.561973706929
 30
0.0
  0
VERTEX
  5
122
330
120
100
AcDbEntity
  8
_U+30EC_U+30A4_U+30E4_U+30FC 1
370
     0
100
AcDbVertex
100
AcDb2dVertex
 10
94.40526256320425
 20
-137.3104817365057
 30
0.0
  0
VERTEX
  5
123
330
120
100
AcDbEntity
  8
_U+30EC_U+30A4_U+30E4_U+30FC 1
370
     0
100
AcDbVertex
100
AcDb2dVertex
 10
94.657099043176
 20
-137.3104817365057
 30
0.0
  0
VERTEX
  5
124
330
120
100
AcDbEntity
  8
_U+30EC_U+30A4_U+30E4_U+30FC 1
370
     0
100
AcDbVertex
100
AcDb2dVertex
 10
94.657099043176
 20
-137.561973706929
 30
0.0
  0
VERTEX
  5
125
330
120
100
AcDbEntity
  8
_U+30EC_U+30A4_U+30E4_U+30FC 1
370
     0
100
AcDbVertex
100
AcDb2dVertex
 10
94.40526256320425
 20
-137.561973706929
 30
0.0
  0
SEQEND
  5
126
330
120
100
AcDbEntity
  8
_U+30EC_U+30A4_U+30E4_U+30FC 1
370
     0
  0
HATCH
  5
127
330
11A
100
AcDbEntity
  8
_U+30EC_U+30A4_U+30E4_U+30FC 1
 62
   179
420
  2234388
100
AcDbHatch
 10
0.0
 20
0.0
 30
0.0
210
0.0
220
0.0
230
1.0
  2
SOLID
 70
     1
 71
     0
 91
        1
 92
        1
 93
        4
 72
     1
 10
94.40526256320425
 20
-137.561973706929
 11
94.40526256320425
 21
-137.3104817365057
 72
     1
 10
94.40526256320425
 20
-137.3104817365057
 11
94.657099043176
 21
-137.3104817365057
 72
     1
 10
94.657099043176
 20
-137.3104817365057
 11
94.657099043176
 21
-137.561973706929
 72
     1
 10
94.657099043176
 20
-137.561973706929
 11
94.40526256320425
 21
-137.561973706929
 97
        0
 75
     2
 76
     1
 98
        0
  0
SPLINE
  5
128
330
11A
100
AcDbEntity
  8
_U+30EC_U+30A4_U+30E4_U+30FC 1
370
     0
100
AcDbSpline
210
0.0
220
0.0
230
1.0
 70
    11
 71
     3
 72
    29
 73
    25
 74
     0
 42
0.0000000001
 43
0.0000000001
 12
1.0
 22
0.0
 32
0.0
 13
1.0
 23
0.0
 33
0.0
 40
0.0
 40
0.0
 40
0.0
 40
0.0
 40
1.0
 40
1.0
 40
1.0
 40
2.0
 40
2.0
 40
2.0
 40
3.0
 40
3.0
 40
3.0
 40
4.0
 40
4.0
 40
4.0
 40
5.0
 40
5.0
 40
5.0
 40
6.0
 40
6.0
 40
6.0
 40
7.0
 40
7.0
 40
7.0
 40
8.0
 40
8.0
 40
8.0
 40
8.0
 10
95.3933159483739
 20
-137.6129611201107
 30
0.0
 10
95.12666555781556
 20
-137.6129611201107
 30
0.0
 10
94.87276202055264
 20
-137.4751573007007
 30
0.0
 10
94.87276202055264
 20
-137.1261691280449
 30
0.0
 10
94.87276202055264
 20
-136.8701985334908
 30
0.0
 10
95.01469995454494
 20
-136.7751138980979
 30
0.0
 10
95.12046438594211
 20
-136.7137911984605
 30
0.0
 10
94.99575192937607
 20
-136.6545355561142
 30
0.0
 10
94.91961531915204
 20
-136.5401583860039
 30
0.0
 10
94.91961531915204
 20
-136.3796169363912
 30
0.0
 10
94.91961531915204
 20
-136.1043538071198
 30
0.0
 10
95.11839732865096
 20
-135.9689615545494
 30
0.0
 10
95.3933159483739
 20
-135.9689615545494
 30
0.0
 10
95.67684730680996
 20
-135.9689615545494
 30
0.0
 10
95.86736108714427
 20
-136.1129665458329
 30
0.0
 10
95.86736108714427
 20
-136.3796169363912
 30
0.0
 10
95.86736108714427
 20
-136.5401583860039
 30
0.0
 10
95.78881291008058
 20
-136.6545355561142
 30
0.0
 10
95.66410045351454
 20
-136.7137911984605
 30
0.0
 10
95.75298391703399
 20
-136.7644341020936
 30
0.0
 10
95.911802818904
 20
-136.859863247035
 30
0.0
 10
95.911802818904
 20
-137.1220350134626
 30
0.0
 10
95.911802818904
 20
-137.4965168927092
 30
0.0
 10
95.63240557505024
 20
-137.6129611201107
 30
0.0
 10
95.3933159483739
 20
-137.6129611201107
 30
0.0
  0
SPLINE
  5
129
330
11A
100
AcDbEntity
  8
_U+30EC_U+30A4_U+30E4_U+30FC 1
370
     0
100
AcDbSpline
210
0.0
220
0.0
230
1.0
 70
    11
 71
     3
 72
    17
 73
    13
 74
     0
 42
0.0000000001
 43
0.0000000001
 12
1.0
 22
0.0
 32
0.0
 13
1.0
 23
0.0
 33
0.0
 40
0.0
 40
0.0
 40
0.0
 40
0.0
 40
1.0
 40
1.0
 40
1.0
 40
2.0
 40
2.0
 40
2.0
 40
3.0
 40
3.0
 40
3.0
 40
4.0
 40
4.0
 40
4.0
 40
4.0
 10
95.3933159483739
 20
-136.8216226871488
 30
0.0
 10
95.24965546663898
 20
-136.8216226871488
 30
0.0
 10
95.0970377366424
 20
-136.9080945838285
 30
0.0
 10
95.0970377366424
 20
-137.1113552174583
 30
0.0
 10
95.0970377366424
 20
-137.3166829083792
 30
0.0
 10
95.22416176004813
 20
-137.4179687156455
 30
0.0
 10
95.3933159483739
 20
-137.4179687156455
 30
0.0
 10
95.57935110457738
 20
-137.4179687156455
 30
0.0
 10
95.68959416010539
 20
-137.2953233163706
 30
0.0
 10
95.68959416010539
 20
-137.1175563893317
 30
0.0
 10
95.68959416010539
 20
-136.8956922400816
 30
0.0
 10
95.52664114365307
 20
-136.8216226871488
 30
0.0
 10
95.3933159483739
 20
-136.8216226871488
 30
0.0
  0
SPLINE
  5
12A
330
11A
100
AcDbEntity
  8
_U+30EC_U+30A4_U+30E4_U+30FC 1
370
     0
100
AcDbSpline
210
0.0
220
0.0
230
1.0
 70
    11
 71
     3
 72
    17
 73
    13
 74
     0
 42
0.0000000001
 43
0.0000000001
 12
1.0
 22
0.0
 32
0.0
 13
1.0
 23
0.0
 33
0.0
 40
0.0
 40
0.0
 40
0.0
 40
0.0
 40
1.0
 40
1.0
 40
1.0
 40
2.0
 40
2.0
 40
2.0
 40
3.0
 40
3.0
 40
3.0
 40
4.0
 40
4.0
 40
4.0
 40
4.0
 10
95.3933159483739
 20
-136.1615423921749
 30
0.0
 10
95.22829587463043
 20
-136.1615423921749
 30
0.0
 10
95.14354652569328
 20
-136.2566270275678
 30
0.0
 10
95.14354652569328
 20
-136.3920192801381
 30
0.0
 10
95.14354652569328
 20
-136.514664679413
 30
0.0
 10
95.21554902133501
 20
-136.6331759641056
 30
0.0
 10
95.3933159483739
 20
-136.6331759641056
 30
0.0
 10
95.57108287541278
 20
-136.6331759641056
 30
0.0
 10
95.64308537105451
 20
-136.514664679413
 30
0.0
 10
95.64308537105451
 20
-136.3920192801381
 30
0.0
 10
95.64308537105451
 20
-136.2566270275678
 30
0.0
 10
95.55626896482622
 20
-136.1615423921749
 30
0.0
 10
95.3933159483739
 20
-136.1615423921749
 30
0.0
  0
HATCH
  5
12B
330
11A
100
AcDbEntity
  8
_U+30EC_U+30A4_U+30E4_U+30FC 1
 62
   179
420
  2234388
100
AcDbHatch
 10
0.0
 20
0.0
 30
0.0
210
0.0
220
0.0
230
1.0
  2
SOLID
 70
     1
 71
     0
 91
        3
 92
        1
 93
        1
 72
     4
 94
        3
 73
     0
 74
     1
 95
       29
 96
       25
 40
0.0
 40
0.0
 40
0.0
 40
0.0
 40
1.0
 40
1.0
 40
1.0
 40
2.0
 40
2.0
 40
2.0
 40
3.0
 40
3.0
 40
3.0
 40
4.0
 40
4.0
 40
4.0
 40
5.0
 40
5.0
 40
5.0
 40
6.0
 40
6.0
 40
6.0
 40
7.0
 40
7.0
 40
7.0
 40
8.0
 40
8.0
 40
8.0
 40
8.0
 10
95.3933159483739
 20
-137.6129611201107
 10
95.12666555781556
 20
-137.6129611201107
 10
94.87276202055264
 20
-137.4751573007007
 10
94.87276202055264
 20
-137.1261691280449
 10
94.87276202055264
 20
-136.8701985334908
 10
95.01469995454494
 20
-136.7751138980979
 10
95.12046438594211
 20
-136.7137911984605
 10
94.99575192937607
 20
-136.6545355561142
 10
94.91961531915204
 20
-136.5401583860039
 10
94.91961531915204
 20
-136.3796169363912
 10
94.91961531915204
 20
-136.1043538071198
 10
95.11839732865096
 20
-135.9689615545494
 10
95.3933159483739
 20
-135.9689615545494
 10
95.67684730680996
 20
-135.9689615545494
 10
95.86736108714427
 20
-136.1129665458329
 10
95.86736108714427
 20
-136.3796169363912
 10
95.86736108714427
 20
-136.5401583860039
 10
95.78881291008058
 20
-136.6545355561142
 10
95.66410045351454
 20
-136.7137911984605
 10
95.75298391703399
 20
-136.7644341020936
 10
95.911802818904
 20
-136.859863247035
 10
95.911802818904
 20
-137.1220350134626
 10
95.911802818904
 20
-137.4965168927092
 10
95.63240557505024
 20
-137.6129611201107
 10
95.3933159483739
 20
-137.6129611201107
 97
        0
 97
        0
 92
        1
 93
        1
 72
     4
 94
        3
 73
     0
 74
     1
 95
       17
 96
       13
 40
0.0
 40
0.0
 40
0.0
 40
0.0
 40
1.0
 40
1.0
 40
1.0
 40
2.0
 40
2.0
 40
2.0
 40
3.0
 40
3.0
 40
3.0
 40
4.0
 40
4.0
 40
4.0
 40
4.0
 10
95.3933159483739
 20
-136.8216226871488
 10
95.24965546663898
 20
-136.8216226871488
 10
95.0970377366424
 20
-136.9080945838285
 10
95.0970377366424
 20
-137.1113552174583
 10
95.0970377366424
 20
-137.3166829083792
 10
95.22416176004813
 20
-137.4179687156455
 10
95.3933159483739
 20
-137.4179687156455
 10
95.57935110457738
 20
-137.4179687156455
 10
95.68959416010539
 20
-137.2953233163706
 10
95.68959416010539
 20
-137.1175563893317
 10
95.68959416010539
 20
-136.8956922400816
 10
95.52664114365307
 20
-136.8216226871488
 10
95.3933159483739
 20
-136.8216226871488
 97
        0
 97
        0
 92
        1
 93
        1
 72
     4
 94
        3
 73
     0
 74
     1
 95
       17
 96
       13
 40
0.0
 40
0.0
 40
0.0
 40
0.0
 40
1.0
 40
1.0
 40
1.0
 40
2.0
 40
2.0
 40
2.0
 40
3.0
 40
3.0
 40
3.0
 40
4.0
 40
4.0
 40
4.0
 40
4.0
 10
95.3933159483739
 20
-136.1615423921749
 10
95.22829587463043
 20
-136.1615423921749
 10
95.14354652569328
 20
-136.2566270275678
 10
95.14354652569328
 20
-136.3920192801381
 10
95.14354652569328
 20
-136.514664679413
 10
95.21554902133501
 20
-136.6331759641056
 10
95.3933159483739
 20
-136.6331759641056
 10
95.57108287541278
 20
-136.6331759641056
 10
95.64308537105451
 20
-136.514664679413
 10
95.64308537105451
 20
-136.3920192801381
 10
95.64308537105451
 20
-136.2566270275678
 10
95.55626896482622
 20
-136.1615423921749
 10
95.3933159483739
 20
-136.1615423921749
 97
        0
 97
        0
 75
     2
 76
     1
 98
        0
  0
ENDBLK
  5
11D
330
11A
100
AcDbEntity
  8
0
100
AcDbBlockEnd
  0
BLOCK
  5
12E
330
12C
100
AcDbEntity
  8
0
100
AcDbBlockBegin
  2
block 7
 70
     0
 10
0.0
 20
0.0
 30
0.0
  3
block 7
  1

  0
SPLINE
  5
130
330
12C
100
AcDbEntity
  8
_U+30EC_U+30A4_U+30E4_U+30FC 1
370
     0
100
AcDbSpline
210
0.0
220
0.0
230
1.0
 70
    11
 71
     3
 72
    32
 73
    28
 74
     0
 42
0.0000000001
 43
0.0000000001
 12
1.0
 22
0.0
 32
0.0
 13
1.0
 23
0.0
 33
0.0
 40
0.0
 40
0.0
 40
0.0
 40
0.0
 40
1.0
 40
1.0
 40
1.0
 40
2.0
 40
2.0
 40
2.0
 40
3.0
 40
3.0
 40
3.0
 40
4.0
 40
4.0
 40
4.0
 40
5.0
 40
5.0
 40
5.0
 40
6.0
 40
6.0
 40
6.0
 40
7.0
 40
7.0
 40
7.0
 40
8.0
 40
8.0
 40
8.0
 40
9.0
 40
9.0
 40
9.0
 40
9.0
 10
104.4787217620748
 20
-125.3156927855114
 30
0.0
 10
104.4787217620748
 20
-125.4889810884194
 30
0.0
 10
104.4091308332727
 20
-125.7346163965177
 30
0.0
 10
104.0770236284946
 20
-125.7725124468555
 30
0.0
 10
104.0770236284946
 20
-125.7725124468555
 30
0.0
 10
104.0770236284946
 20
-125.55891652677
 30
0.0
 10
104.0770236284946
 20
-125.55891652677
 30
0.0
 10
104.1362792708409
 20
-125.5482367307657
 30
0.0
 10
104.2844183767067
 20
-125.5165418523014
 30
0.0
 10
104.2844183767067
 20
-125.3136257282202
 30
0.0
 10
104.2844183767067
 20
-125.021481631071
 30
0.0
 10
103.9543782292197
 20
-124.9835855807333
 30
0.0
 10
103.7490505382989
 20
-124.9708387274379
 30
0.0
 10
103.8293212631052
 20
-125.0617892482484
 30
0.0
 10
103.8865098481603
 20
-125.1293131197593
 30
0.0
 10
103.8865098481603
 20
-125.3112141613805
 30
0.0
 10
103.8865098481603
 20
-125.4910481457106
 30
0.0
 10
103.7807454167632
 20
-125.7935275293155
 30
0.0
 10
103.3745686590522
 20
-125.7935275293155
 30
0.0
 10
103.0552083075695
 20
-125.7935275293155
 30
0.0
 10
102.8350667060621
 20
-125.5947455198166
 30
0.0
 10
102.8350667060621
 20
-125.2774522256251
 30
0.0
 10
102.8350667060621
 20
-124.7634439792258
 30
0.0
 10
103.3893825696388
 20
-124.7527641832215
 30
0.0
 10
103.6029784897243
 20
-124.7527641832215
 30
0.0
 10
103.833799887236
 20
-124.7527641832215
 30
0.0
 10
104.4787217620748
 20
-124.7720567179389
 30
0.0
 10
104.4787217620748
 20
-125.3156927855114
 30
0.0
  0
SPLINE
  5
131
330
12C
100
AcDbEntity
  8
_U+30EC_U+30A4_U+30E4_U+30FC 1
370
     0
100
AcDbSpline
210
0.0
220
0.0
230
1.0
 70
    11
 71
     3
 72
    17
 73
    13
 74
     0
 42
0.0000000001
 43
0.0000000001
 12
1.0
 22
0.0
 32
0.0
 13
1.0
 23
0.0
 33
0.0
 40
0.0
 40
0.0
 40
0.0
 40
0.0
 40
1.0
 40
1.0
 40
1.0
 40
2.0
 40
2.0
 40
2.0
 40
3.0
 40
3.0
 40
3.0
 40
4.0
 40
4.0
 40
4.0
 40
4.0
 10
103.0276475436875
 20
-125.2753851683339
 30
0.0
 10
103.0276475436875
 20
-125.3938964530265
 30
0.0
 10
103.0848361287427
 20
-125.5695963227743
 30
0.0
 10
103.3700900349214
 20
-125.5695963227743
 30
0.0
 10
103.5967773178508
 20
-125.5695963227743
 30
0.0
 10
103.6918619532437
 20
-125.4297254460731
 30
0.0
 10
103.6918619532437
 20
-125.2943331935028
 30
0.0
 10
103.6918619532437
 20
-125.0321614270753
 30
0.0
 10
103.4824001477405
 20
-124.993920867189
 30
0.0
 10
103.3659559203391
 20
-124.993920867189
 30
0.0
 10
103.1902560505913
 20
-124.993920867189
 30
0.0
 10
103.0276475436875
 20
-125.0893500121305
 30
0.0
 10
103.0276475436875
 20
-125.2753851683339
 30
0.0
  0
HATCH
  5
132
330
12C
100
AcDbEntity
  8
_U+30EC_U+30A4_U+30E4_U+30FC 1
 62
   179
420
  2234388
100
AcDbHatch
 10
0.0
 20
0.0
 30
0.0
210
0.0
220
0.0
230
1.0
  2
SOLID
 70
     1
 71
     0
 91
        2
 92
        1
 93
        1
 72
     4
 94
        3
 73
     0
 74
     1
 95
       32
 96
       28
 40
0.0
 40
0.0
 40
0.0
 40
0.0
 40
1.0
 40
1.0
 40
1.0
 40
2.0
 40
2.0
 40
2.0
 40
3.0
 40
3.0
 40
3.0
 40
4.0
 40
4.0
 40
4.0
 40
5.0
 40
5.0
 40
5.0
 40
6.0
 40
6.0
 40
6.0
 40
7.0
 40
7.0
 40
7.0
 40
8.0
 40
8.0
 40
8.0
 40
9.0
 40
9.0
 40
9.0
 40
9.0
 10
104.4787217620748
 20
-125.3156927855114
 10
104.4787217620748
 20
-125.4889810884194
 10
104.4091308332727
 20
-125.7346163965177
 10
104.0770236284946
 20
-125.7725124468555
 10
104.0770236284946
 20
-125.7725124468555
 10
104.0770236284946
 20
-125.55891652677
 10
104.0770236284946
 20
-125.55891652677
 10
104.1362792708409
 20
-125.5482367307657
 10
104.2844183767067
 20
-125.5165418523014
 10
104.2844183767067
 20
-125.3136257282202
 10
104.2844183767067
 20
-125.021481631071
 10
103.9543782292197
 20
-124.9835855807333
 10
103.7490505382989
 20
-124.9708387274379
 10
103.8293212631052
 20
-125.0617892482484
 10
103.8865098481603
 20
-125.1293131197593
 10
103.8865098481603
 20
-125.3112141613805
 10
103.8865098481603
 20
-125.4910481457106
 10
103.7807454167632
 20
-125.7935275293155
 10
103.3745686590522
 20
-125.7935275293155
 10
103.0552083075695
 20
-125.7935275293155
 10
102.8350667060621
 20
-125.5947455198166
 10
102.8350667060621
 20
-125.2774522256251
 10
102.8350667060621
 20
-124.7634439792258
 10
103.3893825696388
 20
-124.7527641832215
 10
103.6029784897243
 20
-124.7527641832215
 10
103.833799887236
 20
-124.7527641832215
 10
104.4787217620748
 20
-124.7720567179389
 10
104.4787217620748
 20
-125.3156927855114
 97
        0
 97
        0
 92
        1
 93
        1
 72
     4
 94
        3
 73
     0
 74
     1
 95
       17
 96
       13
 40
0.0
 40
0.0
 40
0.0
 40
0.0
 40
1.0
 40
1.0
 40
1.0
 40
2.0
 40
2.0
 40
2.0
 40
3.0
 40
3.0
 40
3.0
 40
4.0
 40
4.0
 40
4.0
 40
4.0
 10
103.0276475436875
 20
-125.2753851683339
 10
103.0276475436875
 20
-125.3938964530265
 10
103.0848361287427
 20
-125.5695963227743
 10
103.3700900349214
 20
-125.5695963227743
 10
103.5967773178508
 20
-125.5695963227743
 10
103.6918619532437
 20
-125.4297254460731
 10
103.6918619532437
 20
-125.2943331935028
 10
103.6918619532437
 20
-125.0321614270753
 10
103.4824001477405
 20
-124.993920867189
 10
103.3659559203391
 20
-124.993920867189
 10
103.1902560505913
 20
-124.993920867189
 10
103.0276475436875
 20
-125.0893500121305
 10
103.0276475436875
 20
-125.2753851683339
 97
        0
 97
        0
 75
     2
 76
     1
 98
        0
  0
POLYLINE
  5
133
330
12C
100
AcDbEntity
  8
_U+30EC_U+30A4_U+30E4_U+30FC 1
370
     0
100
AcDb2dPolyline
 66
     1
 10
0.0
 20
0.0
 30
0.0
  0
VERTEX
  5
134
330
133
100
AcDbEntity
  8
_U+30EC_U+30A4_U+30E4_U+30FC 1
370
     0
100
AcDbVertex
100
AcDb2dVertex
 10
104.4280788584416
 20
-124.5364121867479
 30
0.0
  0
VERTEX
  5
135
330
133
100
AcDbEntity
  8
_U+30EC_U+30A4_U+30E4_U+30FC 1
370
     0
100
AcDbVertex
100
AcDb2dVertex
 10
104.1762423784698
 20
-124.5364121867479
 30
0.0
  0
VERTEX
  5
136
330
133
100
AcDbEntity
  8
_U+30EC_U+30A4_U+30E4_U+30FC 1
370
     0
100
AcDbVertex
100
AcDb2dVertex
 10
104.1762423784698
 20
-124.2845757067761
 30
0.0
  0
VERTEX
  5
137
330
133
100
AcDbEntity
  8
_U+30EC_U+30A4_U+30E4_U+30FC 1
370
     0
100
AcDbVertex
100
AcDb2dVertex
 10
104.4280788584416
 20
-124.2845757067761
 30
0.0
  0
VERTEX
  5
138
330
133
100
AcDbEntity
  8
_U+30EC_U+30A4_U+30E4_U+30FC 1
370
     0
100
AcDbVertex
100
AcDb2dVertex
 10
104.4280788584416
 20
-124.5364121867479
 30
0.0
  0
SEQEND
  5
139
330
133
100
AcDbEntity
  8
_U+30EC_U+30A4_U+30E4_U+30FC 1
370
     0
  0
HATCH
  5
13A
330
12C
100
AcDbEntity
  8
_U+30EC_U+30A4_U+30E4_U+30FC 1
 62
   179
420
  2234388
100
AcDbHatch
 10
0.0
 20
0.0
 30
0.0
210
0.0
220
0.0
230
1.0
  2
SOLID
 70
     1
 71
     0
 91
        1
 92
        1
 93
        4
 72
     1
 10
104.4280788584416
 20
-124.5364121867479
 11
104.1762423784698
 21
-124.5364121867479
 72
     1
 10
104.1762423784698
 20
-124.5364121867479
 11
104.1762423784698
 21
-124.2845757067761
 72
     1
 10
104.1762423784698
 20
-124.2845757067761
 11
104.4280788584416
 21
-124.2845757067761
 72
     1
 10
104.4280788584416
 20
-124.2845757067761
 11
104.4280788584416
 21
-124.5364121867479
 97
        0
 75
     2
 76
     1
 98
        0
  0
SPLINE
  5
13B
330
12C
100
AcDbEntity
  8
_U+30EC_U+30A4_U+30E4_U+30FC 1
370
     0
100
AcDbSpline
210
0.0
220
0.0
230
1.0
 70
    11
 71
     3
 72
    29
 73
    25
 74
     0
 42
0.0000000001
 43
0.0000000001
 12
1.0
 22
0.0
 32
0.0
 13
1.0
 23
0.0
 33
0.0
 40
0.0
 40
0.0
 40
0.0
 40
0.0
 40
1.0
 40
1.0
 40
1.0
 40
2.0
 40
2.0
 40
2.0
 40
3.0
 40
3.0
 40
3.0
 40
4.0
 40
4.0
 40
4.0
 40
5.0
 40
5.0
 40
5.0
 40
6.0
 40
6.0
 40
6.0
 40
7.0
 40
7.0
 40
7.0
 40
8.0
 40
8.0
 40
8.0
 40
8.0
 10
104.4787217620748
 20
-123.5483588015782
 30
0.0
 10
104.4787217620748
 20
-123.8150091921365
 30
0.0
 10
104.3412624522133
 20
-124.0689127293994
 30
0.0
 10
103.9922742795575
 20
-124.0689127293994
 30
0.0
 10
103.7363036850034
 20
-124.0689127293994
 30
0.0
 10
103.640874540062
 20
-123.9269747954071
 30
0.0
 10
103.5795518404246
 20
-123.82121036401
 30
0.0
 10
103.5202961980783
 20
-123.945922820576
 30
0.0
 10
103.4062635375165
 20
-124.0220594308
 30
0.0
 10
103.2453775783553
 20
-124.0220594308
 30
0.0
 10
102.9704589586324
 20
-124.0220594308
 30
0.0
 10
102.8350667060621
 20
-123.8232774213011
 30
0.0
 10
102.8350667060621
 20
-123.5483588015782
 30
0.0
 10
102.8350667060621
 20
-123.2648274431421
 30
0.0
 10
102.978727187797
 20
-123.0743136628078
 30
0.0
 10
103.2453775783553
 20
-123.0743136628078
 30
0.0
 10
103.4062635375165
 20
-123.0743136628078
 30
0.0
 10
103.5202961980783
 20
-123.1528618398715
 30
0.0
 10
103.5795518404246
 20
-123.2775742964375
 30
0.0
 10
103.6305392536063
 20
-123.1886908329181
 30
0.0
 10
103.7256238889992
 20
-123.0298719310481
 30
0.0
 10
103.9881401649752
 20
-123.0298719310481
 30
0.0
 10
104.3622775346733
 20
-123.0298719310481
 30
0.0
 10
104.4787217620748
 20
-123.3092691749019
 30
0.0
 10
104.4787217620748
 20
-123.5483588015782
 30
0.0
  0
SPLINE
  5
13C
330
12C
100
AcDbEntity
  8
_U+30EC_U+30A4_U+30E4_U+30FC 1
370
     0
100
AcDbSpline
210
0.0
220
0.0
230
1.0
 70
    11
 71
     3
 72
    17
 73
    13
 74
     0
 42
0.0000000001
 43
0.0000000001
 12
1.0
 22
0.0
 32
0.0
 13
1.0
 23
0.0
 33
0.0
 40
0.0
 40
0.0
 40
0.0
 40
0.0
 40
1.0
 40
1.0
 40
1.0
 40
2.0
 40
2.0
 40
2.0
 40
3.0
 40
3.0
 40
3.0
 40
4.0
 40
4.0
 40
4.0
 40
4.0
 10
103.0276475436875
 20
-123.5483588015782
 30
0.0
 10
103.0276475436875
 20
-123.7133788753217
 30
0.0
 10
103.1227321790804
 20
-123.7981282242588
 30
0.0
 10
103.2581244316508
 20
-123.7981282242588
 30
0.0
 10
103.3811143404742
 20
-123.7981282242588
 30
0.0
 10
103.4996256251668
 20
-123.7261257286171
 30
0.0
 10
103.4996256251668
 20
-123.5483588015782
 30
0.0
 10
103.4996256251668
 20
-123.3705918745393
 30
0.0
 10
103.3811143404742
 20
-123.2985893788976
 30
0.0
 10
103.2581244316508
 20
-123.2985893788976
 30
0.0
 10
103.1227321790804
 20
-123.2985893788976
 30
0.0
 10
103.0276475436875
 20
-123.3854057851259
 30
0.0
 10
103.0276475436875
 20
-123.5483588015782
 30
0.0
  0
SPLINE
  5
13D
330
12C
100
AcDbEntity
  8
_U+30EC_U+30A4_U+30E4_U+30FC 1
370
     0
100
AcDbSpline
210
0.0
220
0.0
230
1.0
 70
    11
 71
     3
 72
    17
 73
    13
 74
     0
 42
0.0000000001
 43
0.0000000001
 12
1.0
 22
0.0
 32
0.0
 13
1.0
 23
0.0
 33
0.0
 40
0.0
 40
0.0
 40
0.0
 40
0.0
 40
1.0
 40
1.0
 40
1.0
 40
2.0
 40
2.0
 40
2.0
 40
3.0
 40
3.0
 40
3.0
 40
4.0
 40
4.0
 40
4.0
 40
4.0
 10
103.6877278386614
 20
-123.5483588015782
 30
0.0
 10
103.6877278386614
 20
-123.6920192833131
 30
0.0
 10
103.7745442448897
 20
-123.8446370133097
 30
0.0
 10
103.9774603689709
 20
-123.8446370133097
 30
0.0
 10
104.1824435503433
 20
-123.8446370133097
 30
0.0
 10
104.2844183767067
 20
-123.717512989904
 30
0.0
 10
104.2844183767067
 20
-123.5483588015782
 30
0.0
 10
104.2844183767067
 20
-123.3623236453747
 30
0.0
 10
104.1617729774318
 20
-123.2520805898467
 30
0.0
 10
103.9840060503929
 20
-123.2520805898467
 30
0.0
 10
103.7614528820458
 20
-123.2520805898467
 30
0.0
 10
103.6877278386614
 20
-123.415033606299
 30
0.0
 10
103.6877278386614
 20
-123.5483588015782
 30
0.0
  0
HATCH
  5
13E
330
12C
100
AcDbEntity
  8
_U+30EC_U+30A4_U+30E4_U+30FC 1
 62
   179
420
  2234388
100
AcDbHatch
 10
0.0
 20
0.0
 30
0.0
210
0.0
220
0.0
230
1.0
  2
SOLID
 70
     1
 71
     0
 91
        3
 92
        1
 93
        1
 72
     4
 94
        3
 73
     0
 74
     1
 95
       29
 96
       25
 40
0.0
 40
0.0
 40
0.0
 40
0.0
 40
1.0
 40
1.0
 40
1.0
 40
2.0
 40
2.0
 40
2.0
 40
3.0
 40
3.0
 40
3.0
 40
4.0
 40
4.0
 40
4.0
 40
5.0
 40
5.0
 40
5.0
 40
6.0
 40
6.0
 40
6.0
 40
7.0
 40
7.0
 40
7.0
 40
8.0
 40
8.0
 40
8.0
 40
8.0
 10
104.4787217620748
 20
-123.5483588015782
 10
104.4787217620748
 20
-123.8150091921365
 10
104.3412624522133
 20
-124.0689127293994
 10
103.9922742795575
 20
-124.0689127293994
 10
103.7363036850034
 20
-124.0689127293994
 10
103.640874540062
 20
-123.9269747954071
 10
103.5795518404246
 20
-123.82121036401
 10
103.5202961980783
 20
-123.945922820576
 10
103.4062635375165
 20
-124.0220594308
 10
103.2453775783553
 20
-124.0220594308
 10
102.9704589586324
 20
-124.0220594308
 10
102.8350667060621
 20
-123.8232774213011
 10
102.8350667060621
 20
-123.5483588015782
 10
102.8350667060621
 20
-123.2648274431421
 10
102.978727187797
 20
-123.0743136628078
 10
103.2453775783553
 20
-123.0743136628078
 10
103.4062635375165
 20
-123.0743136628078
 10
103.5202961980783
 20
-123.1528618398715
 10
103.5795518404246
 20
-123.2775742964375
 10
103.6305392536063
 20
-123.1886908329181
 10
103.7256238889992
 20
-123.0298719310481
 10
103.9881401649752
 20
-123.0298719310481
 10
104.3622775346733
 20
-123.0298719310481
 10
104.4787217620748
 20
-123.3092691749019
 10
104.4787217620748
 20
-123.5483588015782
 97
        0
 97
        0
 92
        1
 93
        1
 72
     4
 94
        3
 73
     0
 74
     1
 95
       17
 96
       13
 40
0.0
 40
0.0
 40
0.0
 40
0.0
 40
1.0
 40
1.0
 40
1.0
 40
2.0
 40
2.0
 40
2.0
 40
3.0
 40
3.0
 40
3.0
 40
4.0
 40
4.0
 40
4.0
 40
4.0
 10
103.0276475436875
 20
-123.5483588015782
 10
103.0276475436875
 20
-123.7133788753217
 10
103.1227321790804
 20
-123.7981282242588
 10
103.2581244316508
 20
-123.7981282242588
 10
103.3811143404742
 20
-123.7981282242588
 10
103.4996256251668
 20
-123.7261257286171
 10
103.4996256251668
 20
-123.5483588015782
 10
103.4996256251668
 20
-123.3705918745393
 10
103.3811143404742
 20
-123.2985893788976
 10
103.2581244316508
 20
-123.2985893788976
 10
103.1227321790804
 20
-123.2985893788976
 10
103.0276475436875
 20
-123.3854057851259
 10
103.0276475436875
 20
-123.5483588015782
 97
        0
 97
        0
 92
        1
 93
        1
 72
     4
 94
        3
 73
     0
 74
     1
 95
       17
 96
       13
 40
0.0
 40
0.0
 40
0.0
 40
0.0
 40
1.0
 40
1.0
 40
1.0
 40
2.0
 40
2.0
 40
2.0
 40
3.0
 40
3.0
 40
3.0
 40
4.0
 40
4.0
 40
4.0
 40
4.0
 10
103.6877278386614
 20
-123.5483588015782
 10
103.6877278386614
 20
-123.6920192833131
 10
103.7745442448897
 20
-123.8446370133097
 10
103.9774603689709
 20
-123.8446370133097
 10
104.1824435503433
 20
-123.8446370133097
 10
104.2844183767067
 20
-123.717512989904
 10
104.2844183767067
 20
-123.5483588015782
 10
104.2844183767067
 20
-123.3623236453747
 10
104.1617729774318
 20
-123.2520805898467
 10
103.9840060503929
 20
-123.2520805898467
 10
103.7614528820458
 20
-123.2520805898467
 10
103.6877278386614
 20
-123.415033606299
 10
103.6877278386614
 20
-123.5483588015782
 97
        0
 97
        0
 75
     2
 76
     1
 98
        0
  0
ENDBLK
  5
12F
330
12C
100
AcDbEntity
  8
0
100
AcDbBlockEnd
  0
BLOCK
  5
141
330
13F
100
AcDbEntity
  8
0
100
AcDbBlockBegin
  2
block 8
 70
     0
 10
0.0
 20
0.0
 30
0.0
  3
block 8
  1

  0
SPLINE
  5
143
330
13F
100
AcDbEntity
  8
_U+30EC_U+30A4_U+30E4_U+30FC 1
370
     0
100
AcDbSpline
210
0.0
220
0.0
230
1.0
 70
    11
 71
     3
 72
    26
 73
    22
 74
     0
 42
0.0000000001
 43
0.0000000001
 12
1.0
 22
0.0
 32
0.0
 13
1.0
 23
0.0
 33
0.0
 40
0.0
 40
0.0
 40
0.0
 40
0.0
 40
1.0
 40
1.0
 40
1.0
 40
2.0
 40
2.0
 40
2.0
 40
3.0
 40
3.0
 40
3.0
 40
4.0
 40
4.0
 40
4.0
 40
5.0
 40
5.0
 40
5.0
 40
6.0
 40
6.0
 40
6.0
 40
7.0
 40
7.0
 40
7.0
 40
7.0
 10
104.1345567230983
 20
-133.0237494242093
 30
0.0
 10
104.1345567230983
 20
-133.0237494242093
 30
0.0
 10
103.0304036200757
 20
-133.0237494242093
 30
0.0
 10
103.0304036200757
 20
-133.0237494242093
 30
0.0
 10
103.0304036200757
 20
-133.0237494242093
 30
0.0
 10
103.0304036200757
 20
-133.3537895716963
 30
0.0
 10
103.0304036200757
 20
-133.3537895716963
 30
0.0
 10
103.0304036200757
 20
-133.3537895716963
 30
0.0
 10
102.88226451421
 20
-133.3537895716963
 30
0.0
 10
102.88226451421
 20
-133.3537895716963
 30
0.0
 10
102.8674506036234
 20
-133.0216823669182
 30
0.0
 10
102.7044975871711
 20
-132.9751735778673
 30
0.0
 10
102.5901204170608
 20
-132.9455457566942
 30
0.0
 10
102.5901204170608
 20
-132.9455457566942
 30
0.0
 10
102.5901204170608
 20
-132.7994737081196
 30
0.0
 10
102.5901204170608
 20
-132.7994737081196
 30
0.0
 10
102.5901204170608
 20
-132.7994737081196
 30
0.0
 10
104.1345567230983
 20
-132.7994737081196
 30
0.0
 10
104.1345567230983
 20
-132.7994737081196
 30
0.0
 10
104.1345567230983
 20
-132.7994737081196
 30
0.0
 10
104.1345567230983
 20
-133.0237494242093
 30
0.0
 10
104.1345567230983
 20
-133.0237494242093
 30
0.0
  0
HATCH
  5
144
330
13F
100
AcDbEntity
  8
_U+30EC_U+30A4_U+30E4_U+30FC 1
 62
   179
420
  2234388
100
AcDbHatch
 10
0.0
 20
0.0
 30
0.0
210
0.0
220
0.0
230
1.0
  2
SOLID
 70
     1
 71
     0
 91
        1
 92
        1
 93
        1
 72
     4
 94
        3
 73
     0
 74
     1
 95
       26
 96
       22
 40
0.0
 40
0.0
 40
0.0
 40
0.0
 40
1.0
 40
1.0
 40
1.0
 40
2.0
 40
2.0
 40
2.0
 40
3.0
 40
3.0
 40
3.0
 40
4.0
 40
4.0
 40
4.0
 40
5.0
 40
5.0
 40
5.0
 40
6.0
 40
6.0
 40
6.0
 40
7.0
 40
7.0
 40
7.0
 40
7.0
 10
104.1345567230983
 20
-133.0237494242093
 10
104.1345567230983
 20
-133.0237494242093
 10
103.0304036200757
 20
-133.0237494242093
 10
103.0304036200757
 20
-133.0237494242093
 10
103.0304036200757
 20
-133.0237494242093
 10
103.0304036200757
 20
-133.3537895716963
 10
103.0304036200757
 20
-133.3537895716963
 10
103.0304036200757
 20
-133.3537895716963
 10
102.88226451421
 20
-133.3537895716963
 10
102.88226451421
 20
-133.3537895716963
 10
102.8674506036234
 20
-133.0216823669182
 10
102.7044975871711
 20
-132.9751735778673
 10
102.5901204170608
 20
-132.9455457566942
 10
102.5901204170608
 20
-132.9455457566942
 10
102.5901204170608
 20
-132.7994737081196
 10
102.5901204170608
 20
-132.7994737081196
 10
102.5901204170608
 20
-132.7994737081196
 10
104.1345567230983
 20
-132.7994737081196
 10
104.1345567230983
 20
-132.7994737081196
 10
104.1345567230983
 20
-132.7994737081196
 10
104.1345567230983
 20
-133.0237494242093
 10
104.1345567230983
 20
-133.0237494242093
 97
        0
 97
        0
 75
     2
 76
     1
 98
        0
  0
POLYLINE
  5
145
330
13F
100
AcDbEntity
  8
_U+30EC_U+30A4_U+30E4_U+30FC 1
370
     0
100
AcDb2dPolyline
 66
     1
 10
0.0
 20
0.0
 30
0.0
  0
VERTEX
  5
146
330
145
100
AcDbEntity
  8
_U+30EC_U+30A4_U+30E4_U+30FC 1
370
     0
100
AcDbVertex
100
AcDb2dVertex
 10
103.7876356077336
 20
-131.4662217553279
 30
0.0
  0
VERTEX
  5
147
330
145
100
AcDbEntity
  8
_U+30EC_U+30A4_U+30E4_U+30FC 1
370
     0
100
AcDbVertex
100
AcDb2dVertex
 10
104.1345567230983
 20
-131.4662217553279
 30
0.0
  0
VERTEX
  5
148
330
145
100
AcDbEntity
  8
_U+30EC_U+30A4_U+30E4_U+30FC 1
370
     0
100
AcDbVertex
100
AcDb2dVertex
 10
104.1345567230983
 20
-131.6839517899957
 30
0.0
  0
VERTEX
  5
149
330
145
100
AcDbEntity
  8
_U+30EC_U+30A4_U+30E4_U+30FC 1
370
     0
100
AcDbVertex
100
AcDb2dVertex
 10
103.7876356077336
 20
-131.6839517899957
 30
0.0
  0
VERTEX
  5
14A
330
145
100
AcDbEntity
  8
_U+30EC_U+30A4_U+30E4_U+30FC 1
370
     0
100
AcDbVertex
100
AcDb2dVertex
 10
103.7876356077336
 20
-132.3398979703873
 30
0.0
  0
VERTEX
  5
14B
330
145
100
AcDbEntity
  8
_U+30EC_U+30A4_U+30E4_U+30FC 1
370
     0
100
AcDbVertex
100
AcDb2dVertex
 10
103.5633598916439
 20
-132.3398979703873
 30
0.0
  0
VERTEX
  5
14C
330
145
100
AcDbEntity
  8
_U+30EC_U+30A4_U+30E4_U+30FC 1
370
     0
100
AcDbVertex
100
AcDb2dVertex
 10
102.5901204170608
 20
-131.6608696502445
 30
0.0
  0
VERTEX
  5
14D
330
145
100
AcDbEntity
  8
_U+30EC_U+30A4_U+30E4_U+30FC 1
370
     0
100
AcDbVertex
100
AcDb2dVertex
 10
102.5901204170608
 20
-131.4662217553279
 30
0.0
  0
VERTEX
  5
14E
330
145
100
AcDbEntity
  8
_U+30EC_U+30A4_U+30E4_U+30FC 1
370
     0
100
AcDbVertex
100
AcDb2dVertex
 10
103.5885090886862
 20
-131.4662217553279
 30
0.0
  0
VERTEX
  5
14F
330
145
100
AcDbEntity
  8
_U+30EC_U+30A4_U+30E4_U+30FC 1
370
     0
100
AcDbVertex
100
AcDb2dVertex
 10
103.5885090886862
 20
-131.2588270071159
 30
0.0
  0
VERTEX
  5
150
330
145
100
AcDbEntity
  8
_U+30EC_U+30A4_U+30E4_U+30FC 1
370
     0
100
AcDbVertex
100
AcDb2dVertex
 10
103.7876356077336
 20
-131.2588270071159
 30
0.0
  0
VERTEX
  5
151
330
145
100
AcDbEntity
  8
_U+30EC_U+30A4_U+30E4_U+30FC 1
370
     0
100
AcDbVertex
100
AcDb2dVertex
 10
103.7876356077336
 20
-131.4662217553279
 30
0.0
  0
SEQEND
  5
152
330
145
100
AcDbEntity
  8
_U+30EC_U+30A4_U+30E4_U+30FC 1
370
     0
  0
POLYLINE
  5
153
330
13F
100
AcDbEntity
  8
_U+30EC_U+30A4_U+30E4_U+30FC 1
370
     0
100
AcDb2dPolyline
 66
     1
 10
0.0
 20
0.0
 30
0.0
  0
VERTEX
  5
154
330
153
100
AcDbEntity
  8
_U+30EC_U+30A4_U+30E4_U+30FC 1
370
     0
100
AcDbVertex
100
AcDb2dVertex
 10
102.9329074178432
 20
-131.6839517899957
 30
0.0
  0
VERTEX
  5
155
330
153
100
AcDbEntity
  8
_U+30EC_U+30A4_U+30E4_U+30FC 1
370
     0
100
AcDbVertex
100
AcDb2dVertex
 10
103.5885090886862
 20
-132.1411159608883
 30
0.0
  0
VERTEX
  5
156
330
153
100
AcDbEntity
  8
_U+30EC_U+30A4_U+30E4_U+30FC 1
370
     0
100
AcDbVertex
100
AcDb2dVertex
 10
103.5885090886862
 20
-131.6839517899957
 30
0.0
  0
VERTEX
  5
157
330
153
100
AcDbEntity
  8
_U+30EC_U+30A4_U+30E4_U+30FC 1
370
     0
100
AcDbVertex
100
AcDb2dVertex
 10
102.9329074178432
 20
-131.6839517899957
 30
0.0
  0
SEQEND
  5
158
330
153
100
AcDbEntity
  8
_U+30EC_U+30A4_U+30E4_U+30FC 1
370
     0
  0
HATCH
  5
159
330
13F
100
AcDbEntity
  8
_U+30EC_U+30A4_U+30E4_U+30FC 1
 62
   179
420
  2234388
100
AcDbHatch
 10
0.0
 20
0.0
 30
0.0
210
0.0
220
0.0
230
1.0
  2
SOLID
 70
     1
 71
     0
 91
        2
 92
        1
 93
       11
 72
     1
 10
103.7876356077336
 20
-131.4662217553279
 11
104.1345567230983
 21
-131.4662217553279
 72
     1
 10
104.1345567230983
 20
-131.4662217553279
 11
104.1345567230983
 21
-131.6839517899957
 72
     1
 10
104.1345567230983
 20
-131.6839517899957
 11
103.7876356077336
 21
-131.6839517899957
 72
     1
 10
103.7876356077336
 20
-131.6839517899957
 11
103.7876356077336
 21
-132.3398979703873
 72
     1
 10
103.7876356077336
 20
-132.3398979703873
 11
103.5633598916439
 21
-132.3398979703873
 72
     1
 10
103.5633598916439
 20
-132.3398979703873
 11
102.5901204170608
 21
-131.6608696502445
 72
     1
 10
102.5901204170608
 20
-131.6608696502445
 11
102.5901204170608
 21
-131.4662217553279
 72
     1
 10
102.5901204170608
 20
-131.4662217553279
 11
103.5885090886862
 21
-131.4662217553279
 72
     1
 10
103.5885090886862
 20
-131.4662217553279
 11
103.5885090886862
 21
-131.2588270071159
 72
     1
 10
103.5885090886862
 20
-131.2588270071159
 11
103.7876356077336
 21
-131.2588270071159
 72
     1
 10
103.7876356077336
 20
-131.2588270071159
 11
103.7876356077336
 21
-131.4662217553279
 97
        0
 92
        1
 93
        3
 72
     1
 10
102.9329074178432
 20
-131.6839517899957
 11
103.5885090886862
 21
-132.1411159608883
 72
     1
 10
103.5885090886862
 20
-132.1411159608883
 11
103.5885090886862
 21
-131.6839517899957
 72
     1
 10
103.5885090886862
 20
-131.6839517899957
 11
102.9329074178432
 21
-131.6839517899957
 97
        0
 75
     2
 76
     1
 98
        0
  0
POLYLINE
  5
15A
330
13F
100
AcDbEntity
  8
_U+30EC_U+30A4_U+30E4_U+30FC 1
370
     0
100
AcDb2dPolyline
 66
     1
 10
0.0
 20
0.0
 30
0.0
  0
VERTEX
  5
15B
330
15A
100
AcDbEntity
  8
_U+30EC_U+30A4_U+30E4_U+30FC 1
370
     0
100
AcDbVertex
100
AcDb2dVertex
 10
104.1345567230983
 20
-131.061423035811
 30
0.0
  0
VERTEX
  5
15C
330
15A
100
AcDbEntity
  8
_U+30EC_U+30A4_U+30E4_U+30FC 1
370
     0
100
AcDbVertex
100
AcDb2dVertex
 10
103.8827202431265
 20
-131.061423035811
 30
0.0
  0
VERTEX
  5
15D
330
15A
100
AcDbEntity
  8
_U+30EC_U+30A4_U+30E4_U+30FC 1
370
     0
100
AcDbVertex
100
AcDb2dVertex
 10
103.8827202431265
 20
-130.8095865558393
 30
0.0
  0
VERTEX
  5
15E
330
15A
100
AcDbEntity
  8
_U+30EC_U+30A4_U+30E4_U+30FC 1
370
     0
100
AcDbVertex
100
AcDb2dVertex
 10
104.1345567230983
 20
-130.8095865558393
 30
0.0
  0
VERTEX
  5
15F
330
15A
100
AcDbEntity
  8
_U+30EC_U+30A4_U+30E4_U+30FC 1
370
     0
100
AcDbVertex
100
AcDb2dVertex
 10
104.1345567230983
 20
-131.061423035811
 30
0.0
  0
SEQEND
  5
160
330
15A
100
AcDbEntity
  8
_U+30EC_U+30A4_U+30E4_U+30FC 1
370
     0
  0
HATCH
  5
161
330
13F
100
AcDbEntity
  8
_U+30EC_U+30A4_U+30E4_U+30FC 1
 62
   179
420
  2234388
100
AcDbHatch
 10
0.0
 20
0.0
 30
0.0
210
0.0
220
0.0
230
1.0
  2
SOLID
 70
     1
 71
     0
 91
        1
 92
        1
 93
        4
 72
     1
 10
104.1345567230983
 20
-131.061423035811
 11
103.8827202431265
 21
-131.061423035811
 72
     1
 10
103.8827202431265
 20
-131.061423035811
 11
103.8827202431265
 21
-130.8095865558393
 72
     1
 10
103.8827202431265
 20
-130.8095865558393
 11
104.1345567230983
 21
-130.8095865558393
 72
     1
 10
104.1345567230983
 20
-130.8095865558393
 11
104.1345567230983
 21
-131.061423035811
 97
        0
 75
     2
 76
     1
 98
        0
  0
SPLINE
  5
162
330
13F
100
AcDbEntity
  8
_U+30EC_U+30A4_U+30E4_U+30FC 1
370
     0
100
AcDbSpline
210
0.0
220
0.0
230
1.0
 70
    11
 71
     3
 72
    32
 73
    28
 74
     0
 42
0.0000000001
 43
0.0000000001
 12
1.0
 22
0.0
 32
0.0
 13
1.0
 23
0.0
 33
0.0
 40
0.0
 40
0.0
 40
0.0
 40
0.0
 40
1.0
 40
1.0
 40
1.0
 40
2.0
 40
2.0
 40
2.0
 40
3.0
 40
3.0
 40
3.0
 40
4.0
 40
4.0
 40
4.0
 40
5.0
 40
5.0
 40
5.0
 40
6.0
 40
6.0
 40
6.0
 40
7.0
 40
7.0
 40
7.0
 40
8.0
 40
8.0
 40
8.0
 40
9.0
 40
9.0
 40
9.0
 40
9.0
 10
104.1851996267315
 20
-130.0692355360591
 30
0.0
 10
104.1851996267315
 20
-130.5853108397495
 30
0.0
 10
103.6312282727033
 20
-130.5939235784626
 30
0.0
 10
103.4176323526178
 20
-130.5939235784626
 30
0.0
 10
103.1868109551061
 20
-130.5939235784626
 30
0.0
 10
102.5394775134276
 20
-130.5746310437452
 30
0.0
 10
102.5394775134276
 20
-130.0309949761728
 30
0.0
 10
102.5394775134276
 20
-129.8577066732647
 30
0.0
 10
102.6094129517782
 20
-129.6120713651664
 30
0.0
 10
102.9415201565563
 20
-129.5741753148287
 30
0.0
 10
102.9415201565563
 20
-129.5741753148287
 30
0.0
 10
102.9415201565563
 20
-129.7877712349142
 30
0.0
 10
102.9415201565563
 20
-129.7877712349142
 30
0.0
 10
102.8843315715011
 20
-129.7984510309184
 30
0.0
 10
102.7361924656354
 20
-129.8301459093827
 30
0.0
 10
102.7361924656354
 20
-130.0330620334639
 30
0.0
 10
102.7361924656354
 20
-130.3252061306131
 30
0.0
 10
103.0641655558312
 20
-130.3651692382421
 30
0.0
 10
103.2694932467521
 20
-130.3779160915375
 30
0.0
 10
103.1909450696884
 20
-130.2848985134357
 30
0.0
 10
103.1316894273421
 20
-130.2170301323763
 30
0.0
 10
103.1316894273421
 20
-130.0351290907551
 30
0.0
 10
103.1316894273421
 20
-129.8552951064251
 30
0.0
 10
103.2398654255789
 20
-129.5528157228201
 30
0.0
 10
103.6456976737414
 20
-129.5528157228201
 30
0.0
 10
103.9654025347725
 20
-129.5528157228201
 30
0.0
 10
104.1851996267315
 20
-129.7519422418676
 30
0.0
 10
104.1851996267315
 20
-130.0692355360591
 30
0.0
  0
SPLINE
  5
163
330
13F
100
AcDbEntity
  8
_U+30EC_U+30A4_U+30E4_U+30FC 1
370
     0
100
AcDbSpline
210
0.0
220
0.0
230
1.0
 70
    11
 71
     3
 72
    17
 73
    13
 74
     0
 42
0.0000000001
 43
0.0000000001
 12
1.0
 22
0.0
 32
0.0
 13
1.0
 23
0.0
 33
0.0
 40
0.0
 40
0.0
 40
0.0
 40
0.0
 40
1.0
 40
1.0
 40
1.0
 40
2.0
 40
2.0
 40
2.0
 40
3.0
 40
3.0
 40
3.0
 40
4.0
 40
4.0
 40
4.0
 40
4.0
 10
103.3266818318072
 20
-130.0523545681814
 30
0.0
 10
103.3266818318072
 20
-130.3145263346089
 30
0.0
 10
103.5382106946016
 20
-130.3524223849466
 30
0.0
 10
103.6543104124545
 20
-130.3524223849466
 30
0.0
 10
103.8296657726537
 20
-130.3524223849466
 30
0.0
 10
103.9929632986545
 20
-130.2573377495537
 30
0.0
 10
103.9929632986545
 20
-130.0733696506414
 30
0.0
 10
103.9929632986545
 20
-129.9527913086577
 30
0.0
 10
103.9337076563082
 20
-129.7770914389099
 30
0.0
 10
103.6477647310325
 20
-129.7770914389099
 30
0.0
 10
103.4238335244913
 20
-129.7770914389099
 30
0.0
 10
103.3266818318072
 20
-129.9166178060625
 30
0.0
 10
103.3266818318072
 20
-130.0523545681814
 30
0.0
  0
HATCH
  5
164
330
13F
100
AcDbEntity
  8
_U+30EC_U+30A4_U+30E4_U+30FC 1
 62
   179
420
  2234388
100
AcDbHatch
 10
0.0
 20
0.0
 30
0.0
210
0.0
220
0.0
230
1.0
  2
SOLID
 70
     1
 71
     0
 91
        2
 92
        1
 93
        1
 72
     4
 94
        3
 73
     0
 74
     1
 95
       32
 96
       28
 40
0.0
 40
0.0
 40
0.0
 40
0.0
 40
1.0
 40
1.0
 40
1.0
 40
2.0
 40
2.0
 40
2.0
 40
3.0
 40
3.0
 40
3.0
 40
4.0
 40
4.0
 40
4.0
 40
5.0
 40
5.0
 40
5.0
 40
6.0
 40
6.0
 40
6.0
 40
7.0
 40
7.0
 40
7.0
 40
8.0
 40
8.0
 40
8.0
 40
9.0
 40
9.0
 40
9.0
 40
9.0
 10
104.1851996267315
 20
-130.0692355360591
 10
104.1851996267315
 20
-130.5853108397495
 10
103.6312282727033
 20
-130.5939235784626
 10
103.4176323526178
 20
-130.5939235784626
 10
103.1868109551061
 20
-130.5939235784626
 10
102.5394775134276
 20
-130.5746310437452
 10
102.5394775134276
 20
-130.0309949761728
 10
102.5394775134276
 20
-129.8577066732647
 10
102.6094129517782
 20
-129.6120713651664
 10
102.9415201565563
 20
-129.5741753148287
 10
102.9415201565563
 20
-129.5741753148287
 10
102.9415201565563
 20
-129.7877712349142
 10
102.9415201565563
 20
-129.7877712349142
 10
102.8843315715011
 20
-129.7984510309184
 10
102.7361924656354
 20
-129.8301459093827
 10
102.7361924656354
 20
-130.0330620334639
 10
102.7361924656354
 20
-130.3252061306131
 10
103.0641655558312
 20
-130.3651692382421
 10
103.2694932467521
 20
-130.3779160915375
 10
103.1909450696884
 20
-130.2848985134357
 10
103.1316894273421
 20
-130.2170301323763
 10
103.1316894273421
 20
-130.0351290907551
 10
103.1316894273421
 20
-129.8552951064251
 10
103.2398654255789
 20
-129.5528157228201
 10
103.6456976737414
 20
-129.5528157228201
 10
103.9654025347725
 20
-129.5528157228201
 10
104.1851996267315
 20
-129.7519422418676
 10
104.1851996267315
 20
-130.0692355360591
 97
        0
 97
        0
 92
        1
 93
        1
 72
     4
 94
        3
 73
     0
 74
     1
 95
       17
 96
       13
 40
0.0
 40
0.0
 40
0.0
 40
0.0
 40
1.0
 40
1.0
 40
1.0
 40
2.0
 40
2.0
 40
2.0
 40
3.0
 40
3.0
 40
3.0
 40
4.0
 40
4.0
 40
4.0
 40
4.0
 10
103.3266818318072
 20
-130.0523545681814
 10
103.3266818318072
 20
-130.3145263346089
 10
103.5382106946016
 20
-130.3524223849466
 10
103.6543104124545
 20
-130.3524223849466
 10
103.8296657726537
 20
-130.3524223849466
 10
103.9929632986545
 20
-130.2573377495537
 10
103.9929632986545
 20
-130.0733696506414
 10
103.9929632986545
 20
-129.9527913086577
 10
103.9337076563082
 20
-129.7770914389099
 10
103.6477647310325
 20
-129.7770914389099
 10
103.4238335244913
 20
-129.7770914389099
 10
103.3266818318072
 20
-129.9166178060625
 10
103.3266818318072
 20
-130.0523545681814
 97
        0
 97
        0
 75
     2
 76
     1
 98
        0
  0
ENDBLK
  5
142
330
13F
100
AcDbEntity
  8
0
100
AcDbBlockEnd
  0
ENDSEC
  0
SECTION
  2
ENTITIES
  0
POLYLINE
  5
41
330
1F
100
AcDbEntity
  8
_U+30EC_U+30A4_U+30E4_U+30FC 1
 62
   179
420
  2234388
370
    25
100
AcDb2dPolyline
 66
     1
 10
0.0
 20
0.0
 30
0.0
  0
VERTEX
  5
42
330
41
100
AcDbEntity
  8
_U+30EC_U+30A4_U+30E4_U+30FC 1
 62
   179
420
  2234388
370
    25
100
AcDbVertex
100
AcDb2dVertex
 10
80.85070265954896
 20
-121.9226105250749
 30
0.0
  0
VERTEX
  5
43
330
41
100
AcDbEntity
  8
_U+30EC_U+30A4_U+30E4_U+30FC 1
 62
   179
420
  2234388
370
    25
100
AcDbVertex
100
AcDb2dVertex
 10
82.849894275212
 20
-121.9226105250749
 30
0.0
  0
VERTEX
  5
44
330
41
100
AcDbEntity
  8
_U+30EC_U+30A4_U+30E4_U+30FC 1
 62
   179
420
  2234388
370
    25
100
AcDbVertex
100
AcDb2dVertex
 10
82.849894275212
 20
-122.628166080454
 30
0.0
  0
VERTEX
  5
45
330
41
100
AcDbEntity
  8
_U+30EC_U+30A4_U+30E4_U+30FC 1
 62
   179
420
  2234388
370
    25
100
AcDbVertex
100
AcDb2dVertex
 10
81.49734430971841
 20
-122.628166080454
 30
0.0
  0
VERTEX
  5
46
330
41
100
AcDbEntity
  8
_U+30EC_U+30A4_U+30E4_U+30FC 1
 62
   179
420
  2234388
370
    25
100
AcDbVertex
100
AcDb2dVertex
 10
81.49734430971841
 20
-126.861499412729
 30
0.0
  0
VERTEX
  5
47
330
41
100
AcDbEntity
  8
_U+30EC_U+30A4_U+30E4_U+30FC 1
 62
   179
420
  2234388
370
    25
100
AcDbVertex
100
AcDb2dVertex
 10
100.8999452036057
 20
-126.861499412729
 30
0.0
  0
VERTEX
  5
48
330
41
100
AcDbEntity
  8
_U+30EC_U+30A4_U+30E4_U+30FC 1
 62
   179
420
  2234388
370
    25
100
AcDbVertex
100
AcDb2dVertex
 10
100.8999452036057
 20
-127.6256160792047
 30
0.0
  0
VERTEX
  5
49
330
41
100
AcDbEntity
  8
_U+30EC_U+30A4_U+30E4_U+30FC 1
 62
   179
420
  2234388
370
    25
100
AcDbVertex
100
AcDb2dVertex
 10
81.43878320010133
 20
-127.6256160792047
 30
0.0
  0
VERTEX
  5
4A
330
41
100
AcDbEntity
  8
_U+30EC_U+30A4_U+30E4_U+30FC 1
 62
   179
420
  2234388
370
    25
100
AcDbVertex
100
AcDb2dVertex
 10
81.43878320010133
 20
-136.7978382991339
 30
0.0
  0
VERTEX
  5
4B
330
41
100
AcDbEntity
  8
_U+30EC_U+30A4_U+30E4_U+30FC 1
 62
   179
420
  2234388
370
    25
100
AcDbVertex
100
AcDb2dVertex
 10
87.6709552633276
 20
-136.7978382991339
 30
0.0
  0
VERTEX
  5
4C
330
41
100
AcDbEntity
  8
_U+30EC_U+30A4_U+30E4_U+30FC 1
 62
   179
420
  2234388
370
    25
100
AcDbVertex
100
AcDb2dVertex
 10
87.6709552633276
 20
-135.5631160772203
 30
0.0
  0
VERTEX
  5
4D
330
41
100
AcDbEntity
  8
_U+30EC_U+30A4_U+30E4_U+30FC 1
 62
   179
420
  2234388
370
    25
100
AcDbVertex
100
AcDb2dVertex
 10
88.31794969126584
 20
-135.5631160772203
 30
0.0
  0
VERTEX
  5
4E
330
41
100
AcDbEntity
  8
_U+30EC_U+30A4_U+30E4_U+30FC 1
 62
   179
420
  2234388
370
    25
100
AcDbVertex
100
AcDb2dVertex
 10
88.31794969126584
 20
-137.3856013545426
 30
0.0
  0
VERTEX
  5
4F
330
41
100
AcDbEntity
  8
_U+30EC_U+30A4_U+30E4_U+30FC 1
 62
   179
420
  2234388
370
    25
100
AcDbVertex
100
AcDb2dVertex
 10
80.79178877216309
 20
-137.3856013545426
 30
0.0
  0
VERTEX
  5
50
330
41
100
AcDbEntity
  8
_U+30EC_U+30A4_U+30E4_U+30FC 1
 62
   179
420
  2234388
370
    25
100
AcDbVertex
100
AcDb2dVertex
 10
80.85070265954896
 20
-121.9226105250749
 30
0.0
  0
SEQEND
  5
52
330
41
100
AcDbEntity
  8
_U+30EC_U+30A4_U+30E4_U+30FC 1
 62
   179
420
  2234388
370
    25
  0
HATCH
  5
51
330
1F
100
AcDbEntity
  8
_U+30EC_U+30A4_U+30E4_U+30FC 1
 62
   253
420
 10066329
100
AcDbHatch
 10
0.0
 20
0.0
 30
0.0
210
0.0
220
0.0
230
1.0
  2
SOLID
 70
     1
 71
     0
 91
        1
 92
        1
 93
       14
 72
     1
 10
80.85070265954896
 20
-121.9226105250749
 11
82.849894275212
 21
-121.9226105250749
 72
     1
 10
82.849894275212
 20
-121.9226105250749
 11
82.849894275212
 21
-122.628166080454
 72
     1
 10
82.849894275212
 20
-122.628166080454
 11
81.49734430971841
 21
-122.628166080454
 72
     1
 10
81.49734430971841
 20
-122.628166080454
 11
81.49734430971841
 21
-126.861499412729
 72
     1
 10
81.49734430971841
 20
-126.861499412729
 11
100.8999452036057
 21
-126.861499412729
 72
     1
 10
100.8999452036057
 20
-126.861499412729
 11
100.8999452036057
 21
-127.6256160792047
 72
     1
 10
100.8999452036057
 20
-127.6256160792047
 11
81.43878320010133
 21
-127.6256160792047
 72
     1
 10
81.43878320010133
 20
-127.6256160792047
 11
81.43878320010133
 21
-136.7978382991339
 72
     1
 10
81.43878320010133
 20
-136.7978382991339
 11
87.6709552633276
 21
-136.7978382991339
 72
     1
 10
87.6709552633276
 20
-136.7978382991339
 11
87.6709552633276
 21
-135.5631160772203
 72
     1
 10
87.6709552633276
 20
-135.5631160772203
 11
88.31794969126584
 21
-135.5631160772203
 72
     1
 10
88.31794969126584
 20
-135.5631160772203
 11
88.31794969126584
 21
-137.3856013545426
 72
     1
 10
88.31794969126584
 20
-137.3856013545426
 11
80.79178877216309
 21
-137.3856013545426
 72
     1
 10
80.79178877216309
 20
-137.3856013545426
 11
80.85070265954896
 21
-121.9226105250749
 97
        0
 75
     2
 76
     1
 98
        0
  0
POLYLINE
  5
53
330
1F
100
AcDbEntity
  8
_U+30EC_U+30A4_U+30E4_U+30FC 1
 62
   179
420
  2234388
370
     9
100
AcDb2dPolyline
 66
     1
 10
0.0
 20
0.0
 30
0.0
  0
VERTEX
  5
54
330
53
100
AcDbEntity
  8
_U+30EC_U+30A4_U+30E4_U+30FC 1
 62
   179
420
  2234388
370
     9
100
AcDbVertex
100
AcDb2dVertex
 10
80.96817765655192
 20
-115.7489994155072
 30
0.0
  0
VERTEX
  5
55
330
53
100
AcDbEntity
  8
_U+30EC_U+30A4_U+30E4_U+30FC 1
 62
   179
420
  2234388
370
     9
100
AcDbVertex
100
AcDb2dVertex
 10
80.96817765655192
 20
-120.8642771920061
 30
0.0
  0
SEQEND
  5
56
330
53
100
AcDbEntity
  8
_U+30EC_U+30A4_U+30E4_U+30FC 1
 62
   179
420
  2234388
370
     9
  0
POLYLINE
  5
57
330
1F
100
AcDbEntity
  8
_U+30EC_U+30A4_U+30E4_U+30FC 1
 62
   179
420
  2234388
370
     9
100
AcDb2dPolyline
 66
     1
 10
0.0
 20
0.0
 30
0.0
  0
VERTEX
  5
58
330
57
100
AcDbEntity
  8
_U+30EC_U+30A4_U+30E4_U+30FC 1
 62
   179
420
  2234388
370
     9
100
AcDbVertex
100
AcDb2dVertex
 10
79.85128324060183
 20
-118.7476105258686
 30
0.0
  0
VERTEX
  5
59
330
57
100
AcDbEntity
  8
_U+30EC_U+30A4_U+30E4_U+30FC 1
 62
   179
420
  2234388
370
     9
100
AcDbVertex
100
AcDb2dVertex
 10
83.79039980677325
 20
-118.7476105258686
 30
0.0
  0
SEQEND
  5
5A
330
57
100
AcDbEntity
  8
_U+30EC_U+30A4_U+30E4_U+30FC 1
 62
   179
420
  2234388
370
     9
  0
POLYLINE
  5
5B
330
1F
100
AcDbEntity
  8
_U+30EC_U+30A4_U+30E4_U+30FC 1
 62
   179
420
  2234388
370
     9
100
AcDb2dPolyline
 66
     1
 10
0.0
 20
0.0
 30
0.0
  0
VERTEX
  5
5C
330
5B
100
AcDbEntity
  8
_U+30EC_U+30A4_U+30E4_U+30FC 1
 62
   179
420
  2234388
370
     9
100
AcDbVertex
100
AcDb2dVertex
 10
82.79098038782612
 20
-117.8064346927708
 30
0.0
  0
VERTEX
  5
5D
330
5B
100
AcDbEntity
  8
_U+30EC_U+30A4_U+30E4_U+30FC 1
 62
   179
420
  2234388
370
     9
100
AcDbVertex
100
AcDb2dVertex
 10
82.79098038782612
 20
-120.8050458031322
 30
0.0
  0
SEQEND
  5
5E
330
5B
100
AcDbEntity
  8
_U+30EC_U+30A4_U+30E4_U+30FC 1
 62
   179
420
  2234388
370
     9
  0
POLYLINE
  5
5F
330
1F
100
AcDbEntity
  8
_U+30EC_U+30A4_U+30E4_U+30FC 1
 62
   179
420
  2234388
370
     9
100
AcDb2dPolyline
 66
     1
 10
0.0
 20
0.0
 30
0.0
  0
VERTEX
  5
60
330
5F
100
AcDbEntity
  8
_U+30EC_U+30A4_U+30E4_U+30FC 1
 62
   179
420
  2234388
370
     9
100
AcDbVertex
100
AcDb2dVertex
 10
80.90961654693483
 20
-116.8073327485759
 30
0.0
  0
VERTEX
  5
61
330
5F
100
AcDbEntity
  8
_U+30EC_U+30A4_U+30E4_U+30FC 1
 62
   179
420
  2234388
370
     9
100
AcDbVertex
100
AcDb2dVertex
 10
89.61123299160477
 20
-116.8073327485759
 30
0.0
  0
SEQEND
  5
62
330
5F
100
AcDbEntity
  8
_U+30EC_U+30A4_U+30E4_U+30FC 1
 62
   179
420
  2234388
370
     9
  0
POLYLINE
  5
63
330
1F
100
AcDbEntity
  8
_U+30EC_U+30A4_U+30E4_U+30FC 1
 62
   179
420
  2234388
370
     9
100
AcDb2dPolyline
 66
     1
 10
0.0
 20
0.0
 30
0.0
  0
VERTEX
  5
64
330
63
100
AcDbEntity
  8
_U+30EC_U+30A4_U+30E4_U+30FC 1
 62
   179
420
  2234388
370
     9
100
AcDbVertex
100
AcDb2dVertex
 10
93.78582871843528
 20
-116.9244902485468
 30
0.0
  0
VERTEX
  5
65
330
63
100
AcDbEntity
  8
_U+30EC_U+30A4_U+30E4_U+30FC 1
 62
   179
420
  2234388
370
     9
100
AcDbVertex
100
AcDb2dVertex
 10
101.0177729783775
 20
-116.9244902485468
 30
0.0
  0
SEQEND
  5
66
330
63
100
AcDbEntity
  8
_U+30EC_U+30A4_U+30E4_U+30FC 1
 62
   179
420
  2234388
370
     9
  0
POLYLINE
  5
67
330
1F
100
AcDbEntity
  8
_U+30EC_U+30A4_U+30E4_U+30FC 1
 62
   179
420
  2234388
370
     9
100
AcDb2dPolyline
 66
     1
 10
0.0
 20
0.0
 30
0.0
  0
VERTEX
  5
68
330
67
100
AcDbEntity
  8
_U+30EC_U+30A4_U+30E4_U+30FC 1
 62
   179
420
  2234388
370
     9
100
AcDbVertex
100
AcDb2dVertex
 10
101.0763340879946
 20
-115.8661569154781
 30
0.0
  0
VERTEX
  5
69
330
67
100
AcDbEntity
  8
_U+30EC_U+30A4_U+30E4_U+30FC 1
 62
   179
420
  2234388
370
     9
100
AcDbVertex
100
AcDb2dVertex
 10
101.0763340879946
 20
-120.8050458031322
 30
0.0
  0
SEQEND
  5
6A
330
67
100
AcDbEntity
  8
_U+30EC_U+30A4_U+30E4_U+30FC 1
 62
   179
420
  2234388
370
     9
  0
POLYLINE
  5
6B
330
1F
100
AcDbEntity
  8
_U+30EC_U+30A4_U+30E4_U+30FC 1
 62
   179
420
  2234388
370
     9
100
AcDb2dPolyline
 66
     1
 10
0.0
 20
0.0
 30
0.0
  0
VERTEX
  5
6C
330
6B
100
AcDbEntity
  8
_U+30EC_U+30A4_U+30E4_U+30FC 1
 62
   179
420
  2234388
370
     9
100
AcDbVertex
100
AcDb2dVertex
 10
101.4291118567722
 20
-122.0989994139197
 30
0.0
  0
VERTEX
  5
6D
330
6B
100
AcDbEntity
  8
_U+30EC_U+30A4_U+30E4_U+30FC 1
 62
   179
420
  2234388
370
     9
100
AcDbVertex
100
AcDb2dVertex
 10
104.3691617817653
 20
-122.0989994139197
 30
0.0
  0
SEQEND
  5
6E
330
6B
100
AcDbEntity
  8
_U+30EC_U+30A4_U+30E4_U+30FC 1
 62
   179
420
  2234388
370
     9
  0
POLYLINE
  5
6F
330
1F
100
AcDbEntity
  8
_U+30EC_U+30A4_U+30E4_U+30FC 1
 62
   179
420
  2234388
370
     9
100
AcDb2dPolyline
 66
     1
 10
0.0
 20
0.0
 30
0.0
  0
VERTEX
  5
70
330
6F
100
AcDbEntity
  8
_U+30EC_U+30A4_U+30E4_U+30FC 1
 62
   179
420
  2234388
370
     9
100
AcDbVertex
100
AcDb2dVertex
 10
103.3693895850494
 20
-122.0989994139197
 30
0.0
  0
VERTEX
  5
71
330
6F
100
AcDbEntity
  8
_U+30EC_U+30A4_U+30E4_U+30FC 1
 62
   179
420
  2234388
370
     9
100
AcDbVertex
100
AcDb2dVertex
 10
103.3693895850494
 20
-122.6867271915506
 30
0.0
  0
SEQEND
  5
72
330
6F
100
AcDbEntity
  8
_U+30EC_U+30A4_U+30E4_U+30FC 1
 62
   179
420
  2234388
370
     9
  0
POLYLINE
  5
73
330
1F
100
AcDbEntity
  8
_U+30EC_U+30A4_U+30E4_U+30FC 1
 62
   179
420
  2234388
370
     9
100
AcDb2dPolyline
 66
     1
 10
0.0
 20
0.0
 30
0.0
  0
VERTEX
  5
74
330
73
100
AcDbEntity
  8
_U+30EC_U+30A4_U+30E4_U+30FC 1
 62
   179
420
  2234388
370
     9
100
AcDbVertex
100
AcDb2dVertex
 10
101.4291118567722
 20
-126.9200605238256
 30
0.0
  0
VERTEX
  5
75
330
73
100
AcDbEntity
  8
_U+30EC_U+30A4_U+30E4_U+30FC 1
 62
   179
420
  2234388
370
     9
100
AcDbVertex
100
AcDb2dVertex
 10
104.3106006721482
 20
-126.9200605238256
 30
0.0
  0
SEQEND
  5
76
330
73
100
AcDbEntity
  8
_U+30EC_U+30A4_U+30E4_U+30FC 1
 62
   179
420
  2234388
370
     9
  0
POLYLINE
  5
77
330
1F
100
AcDbEntity
  8
_U+30EC_U+30A4_U+30E4_U+30FC 1
 62
   179
420
  2234388
370
     9
100
AcDb2dPolyline
 66
     1
 10
0.0
 20
0.0
 30
0.0
  0
VERTEX
  5
78
330
77
100
AcDbEntity
  8
_U+30EC_U+30A4_U+30E4_U+30FC 1
 62
   179
420
  2234388
370
     9
100
AcDbVertex
100
AcDb2dVertex
 10
103.428656250204
 20
-126.861499412729
 30
0.0
  0
VERTEX
  5
79
330
77
100
AcDbEntity
  8
_U+30EC_U+30A4_U+30E4_U+30FC 1
 62
   179
420
  2234388
370
     9
100
AcDbVertex
100
AcDb2dVertex
 10
103.428656250204
 20
-126.3908938572912
 30
0.0
  0
SEQEND
  5
7A
330
77
100
AcDbEntity
  8
_U+30EC_U+30A4_U+30E4_U+30FC 1
 62
   179
420
  2234388
370
     9
  0
POLYLINE
  5
7B
330
1F
100
AcDbEntity
  8
_U+30EC_U+30A4_U+30E4_U+30FC 1
 62
   179
420
  2234388
370
     9
100
AcDb2dPolyline
 66
     1
 10
0.0
 20
0.0
 30
0.0
  0
VERTEX
  5
7C
330
7B
100
AcDbEntity
  8
_U+30EC_U+30A4_U+30E4_U+30FC 1
 62
   179
420
  2234388
370
     9
100
AcDbVertex
100
AcDb2dVertex
 10
101.4291118567722
 20
-127.5670549681082
 30
0.0
  0
VERTEX
  5
7D
330
7B
100
AcDbEntity
  8
_U+30EC_U+30A4_U+30E4_U+30FC 1
 62
   179
420
  2234388
370
     9
100
AcDbVertex
100
AcDb2dVertex
 10
104.3691617817653
 20
-127.5670549681082
 30
0.0
  0
SEQEND
  5
7E
330
7B
100
AcDbEntity
  8
_U+30EC_U+30A4_U+30E4_U+30FC 1
 62
   179
420
  2234388
370
     9
  0
POLYLINE
  5
7F
330
1F
100
AcDbEntity
  8
_U+30EC_U+30A4_U+30E4_U+30FC 1
 62
   179
420
  2234388
370
     9
100
AcDb2dPolyline
 66
     1
 10
0.0
 20
0.0
 30
0.0
  0
VERTEX
  5
80
330
7F
100
AcDbEntity
  8
_U+30EC_U+30A4_U+30E4_U+30FC 1
 62
   179
420
  2234388
370
     9
100
AcDbVertex
100
AcDb2dVertex
 10
103.3693895850494
 20
-127.5670549681082
 30
0.0
  0
VERTEX
  5
81
330
7F
100
AcDbEntity
  8
_U+30EC_U+30A4_U+30E4_U+30FC 1
 62
   179
420
  2234388
370
     9
100
AcDbVertex
100
AcDb2dVertex
 10
103.3693895850494
 20
-128.9189346899926
 30
0.0
  0
SEQEND
  5
82
330
7F
100
AcDbEntity
  8
_U+30EC_U+30A4_U+30E4_U+30FC 1
 62
   179
420
  2234388
370
     9
  0
POLYLINE
  5
83
330
1F
100
AcDbEntity
  8
_U+30EC_U+30A4_U+30E4_U+30FC 1
 62
   179
420
  2234388
370
     9
100
AcDb2dPolyline
 66
     1
 10
0.0
 20
0.0
 30
0.0
  0
VERTEX
  5
84
330
83
100
AcDbEntity
  8
_U+30EC_U+30A4_U+30E4_U+30FC 1
 62
   179
420
  2234388
370
     9
100
AcDbVertex
100
AcDb2dVertex
 10
89.31736911021297
 20
-135.5631160772203
 30
0.0
  0
VERTEX
  5
85
330
83
100
AcDbEntity
  8
_U+30EC_U+30A4_U+30E4_U+30FC 1
 62
   179
420
  2234388
370
     9
100
AcDbVertex
100
AcDb2dVertex
 10
104.3106006721482
 20
-135.5631160772203
 30
0.0
  0
SEQEND
  5
86
330
83
100
AcDbEntity
  8
_U+30EC_U+30A4_U+30E4_U+30FC 1
 62
   179
420
  2234388
370
     9
  0
POLYLINE
  5
87
330
1F
100
AcDbEntity
  8
_U+30EC_U+30A4_U+30E4_U+30FC 1
 62
   179
420
  2234388
370
     9
100
AcDb2dPolyline
 66
     1
 10
0.0
 20
0.0
 30
0.0
  0
VERTEX
  5
88
330
87
100
AcDbEntity
  8
_U+30EC_U+30A4_U+30E4_U+30FC 1
 62
   179
420
  2234388
370
     9
100
AcDbVertex
100
AcDb2dVertex
 10
103.3693895850494
 20
-135.4453235772499
 30
0.0
  0
VERTEX
  5
89
330
87
100
AcDbEntity
  8
_U+30EC_U+30A4_U+30E4_U+30FC 1
 62
   179
420
  2234388
370
     9
100
AcDbVertex
100
AcDb2dVertex
 10
103.3693895850494
 20
-133.9756160776172
 30
0.0
  0
SEQEND
  5
8A
330
87
100
AcDbEntity
  8
_U+30EC_U+30A4_U+30E4_U+30FC 1
 62
   179
420
  2234388
370
     9
  0
POLYLINE
  5
8B
330
1F
100
AcDbEntity
  8
_U+30EC_U+30A4_U+30E4_U+30FC 1
 62
   179
420
  2234388
370
     9
100
AcDb2dPolyline
 66
     1
 10
0.0
 20
0.0
 30
0.0
  0
VERTEX
  5
8C
330
8B
100
AcDbEntity
  8
_U+30EC_U+30A4_U+30E4_U+30FC 1
 62
   179
420
  2234388
370
     9
100
AcDbVertex
100
AcDb2dVertex
 10
89.31736911021297
 20
-137.4448327434168
 30
0.0
  0
VERTEX
  5
8D
330
8B
100
AcDbEntity
  8
_U+30EC_U+30A4_U+30E4_U+30FC 1
 62
   179
420
  2234388
370
     9
100
AcDbVertex
100
AcDb2dVertex
 10
92.25688986855288
 20
-137.4448327434168
 30
0.0
  0
SEQEND
  5
8E
330
8B
100
AcDbEntity
  8
_U+30EC_U+30A4_U+30E4_U+30FC 1
 62
   179
420
  2234388
370
     9
  0
POLYLINE
  5
8F
330
1F
100
AcDbEntity
  8
_U+30EC_U+30A4_U+30E4_U+30FC 1
 62
   179
420
  2234388
370
     9
100
AcDb2dPolyline
 66
     1
 10
0.0
 20
0.0
 30
0.0
  0
VERTEX
  5
90
330
8F
100
AcDbEntity
  8
_U+30EC_U+30A4_U+30E4_U+30FC 1
 62
   179
420
  2234388
370
     9
100
AcDbVertex
100
AcDb2dVertex
 10
91.316560725876
 20
-137.3856013545426
 30
0.0
  0
VERTEX
  5
91
330
8F
100
AcDbEntity
  8
_U+30EC_U+30A4_U+30E4_U+30FC 1
 62
   179
420
  2234388
370
     9
100
AcDbVertex
100
AcDb2dVertex
 10
91.316560725876
 20
-135.5045549661241
 30
0.0
  0
SEQEND
  5
92
330
8F
100
AcDbEntity
  8
_U+30EC_U+30A4_U+30E4_U+30FC 1
 62
   179
420
  2234388
370
     9
  0
POLYLINE
  5
93
330
1F
100
AcDbEntity
  8
_U+30EC_U+30A4_U+30E4_U+30FC 1
 62
   179
420
  2234388
370
     9
100
AcDb2dPolyline
 66
     1
 10
0.0
 20
0.0
 30
0.0
  0
VERTEX
  5
94
330
93
100
AcDbEntity
  8
_U+30EC_U+30A4_U+30E4_U+30FC 1
 62
   179
420
  2234388
370
     9
100
AcDbVertex
100
AcDb2dVertex
 10
80.79178877216309
 20
-138.4439346876114
 30
0.0
  0
VERTEX
  5
95
330
93
100
AcDbEntity
  8
_U+30EC_U+30A4_U+30E4_U+30FC 1
 62
   179
420
  2234388
370
     9
100
AcDbVertex
100
AcDb2dVertex
 10
80.79178877216309
 20
-141.3839494090985
 30
0.0
  0
SEQEND
  5
96
330
93
100
AcDbEntity
  8
_U+30EC_U+30A4_U+30E4_U+30FC 1
 62
   179
420
  2234388
370
     9
  0
POLYLINE
  5
97
330
1F
100
AcDbEntity
  8
_U+30EC_U+30A4_U+30E4_U+30FC 1
 62
   179
420
  2234388
370
     9
100
AcDb2dPolyline
 66
     1
 10
0.0
 20
0.0
 30
0.0
  0
VERTEX
  5
98
330
97
100
AcDbEntity
  8
_U+30EC_U+30A4_U+30E4_U+30FC 1
 62
   179
420
  2234388
370
     9
100
AcDbVertex
100
AcDb2dVertex
 10
80.79178877216309
 20
-140.3842124649041
 30
0.0
  0
VERTEX
  5
99
330
97
100
AcDbEntity
  8
_U+30EC_U+30A4_U+30E4_U+30FC 1
 62
   179
420
  2234388
370
     9
100
AcDbVertex
100
AcDb2dVertex
 10
83.26123315360675
 20
-140.3842124649041
 30
0.0
  0
SEQEND
  5
9A
330
97
100
AcDbEntity
  8
_U+30EC_U+30A4_U+30E4_U+30FC 1
 62
   179
420
  2234388
370
     9
  0
POLYLINE
  5
9B
330
1F
100
AcDbEntity
  8
_U+30EC_U+30A4_U+30E4_U+30FC 1
 62
   179
420
  2234388
370
     9
100
AcDb2dPolyline
 66
     1
 10
0.0
 20
0.0
 30
0.0
  0
VERTEX
  5
9C
330
9B
100
AcDbEntity
  8
_U+30EC_U+30A4_U+30E4_U+30FC 1
 62
   179
420
  2234388
370
     9
100
AcDbVertex
100
AcDb2dVertex
 10
86.43623307260576
 20
-140.4434438537783
 30
0.0
  0
VERTEX
  5
9D
330
9B
100
AcDbEntity
  8
_U+30EC_U+30A4_U+30E4_U+30FC 1
 62
   179
420
  2234388
370
     9
100
AcDbVertex
100
AcDb2dVertex
 10
88.31794969126584
 20
-140.4434438537783
 30
0.0
  0
SEQEND
  5
9E
330
9B
100
AcDbEntity
  8
_U+30EC_U+30A4_U+30E4_U+30FC 1
 62
   179
420
  2234388
370
     9
  0
POLYLINE
  5
9F
330
1F
100
AcDbEntity
  8
_U+30EC_U+30A4_U+30E4_U+30FC 1
 62
   179
420
  2234388
370
     9
100
AcDb2dPolyline
 66
     1
 10
0.0
 20
0.0
 30
0.0
  0
VERTEX
  5
A0
330
9F
100
AcDbEntity
  8
_U+30EC_U+30A4_U+30E4_U+30FC 1
 62
   179
420
  2234388
370
     9
100
AcDbVertex
100
AcDb2dVertex
 10
88.37651080088293
 20
-138.5031660764856
 30
0.0
  0
VERTEX
  5
A1
330
9F
100
AcDbEntity
  8
_U+30EC_U+30A4_U+30E4_U+30FC 1
 62
   179
420
  2234388
370
     9
100
AcDbVertex
100
AcDb2dVertex
 10
88.37651080088293
 20
-141.3253882980023
 30
0.0
  0
SEQEND
  5
A2
330
9F
100
AcDbEntity
  8
_U+30EC_U+30A4_U+30E4_U+30FC 1
 62
   179
420
  2234388
370
     9
  0
POLYLINE
  5
A3
330
1F
100
AcDbEntity
  8
_U+30EC_U+30A4_U+30E4_U+30FC 1
 62
   179
420
  2234388
370
     9
100
AcDb2dPolyline
 66
     1
 10
0.0
 20
0.0
 30
0.0
  0
VERTEX
  5
A4
330
A3
100
AcDbEntity
  8
_U+30EC_U+30A4_U+30E4_U+30FC 1
 62
   179
420
  2234388
370
     9
100
AcDbVertex
100
AcDb2dVertex
 10
76.91123331560874
 20
-137.3270049656683
 30
0.0
  0
VERTEX
  5
A5
330
A3
100
AcDbEntity
  8
_U+30EC_U+30A4_U+30E4_U+30FC 1
 62
   179
420
  2234388
370
     9
100
AcDbVertex
100
AcDb2dVertex
 10
79.79236935321595
 20
-137.3270049656683
 30
0.0
  0
SEQEND
  5
A6
330
A3
100
AcDbEntity
  8
_U+30EC_U+30A4_U+30E4_U+30FC 1
 62
   179
420
  2234388
370
     9
  0
POLYLINE
  5
A7
330
1F
100
AcDbEntity
  8
_U+30EC_U+30A4_U+30E4_U+30FC 1
 62
   179
420
  2234388
370
     9
100
AcDb2dPolyline
 66
     1
 10
0.0
 20
0.0
 30
0.0
  0
VERTEX
  5
A8
330
A7
100
AcDbEntity
  8
_U+30EC_U+30A4_U+30E4_U+30FC 1
 62
   179
420
  2234388
370
     9
100
AcDbVertex
100
AcDb2dVertex
 10
77.85209162493878
 20
-137.3270049656683
 30
0.0
  0
VERTEX
  5
A9
330
A7
100
AcDbEntity
  8
_U+30EC_U+30A4_U+30E4_U+30FC 1
 62
   179
420
  2234388
370
     9
100
AcDbVertex
100
AcDb2dVertex
 10
77.85209162493878
 20
-131.6239994115387
 30
0.0
  0
SEQEND
  5
AA
330
A7
100
AcDbEntity
  8
_U+30EC_U+30A4_U+30E4_U+30FC 1
 62
   179
420
  2234388
370
     9
  0
POLYLINE
  5
AB
330
1F
100
AcDbEntity
  8
_U+30EC_U+30A4_U+30E4_U+30FC 1
 62
   179
420
  2234388
370
     9
100
AcDb2dPolyline
 66
     1
 10
0.0
 20
0.0
 30
0.0
  0
VERTEX
  5
AC
330
AB
100
AcDbEntity
  8
_U+30EC_U+30A4_U+30E4_U+30FC 1
 62
   179
420
  2234388
370
     9
100
AcDbVertex
100
AcDb2dVertex
 10
76.91123331560874
 20
-121.9226105250749
 30
0.0
  0
VERTEX
  5
AD
330
AB
100
AcDbEntity
  8
_U+30EC_U+30A4_U+30E4_U+30FC 1
 62
   179
420
  2234388
370
     9
100
AcDbVertex
100
AcDb2dVertex
 10
79.96875823760479
 20
-121.9226105250749
 30
0.0
  0
SEQEND
  5
AE
330
AB
100
AcDbEntity
  8
_U+30EC_U+30A4_U+30E4_U+30FC 1
 62
   179
420
  2234388
370
     9
  0
POLYLINE
  5
AF
330
1F
100
AcDbEntity
  8
_U+30EC_U+30A4_U+30E4_U+30FC 1
 62
   179
420
  2234388
370
     9
100
AcDb2dPolyline
 66
     1
 10
0.0
 20
0.0
 30
0.0
  0
VERTEX
  5
B0
330
AF
100
AcDbEntity
  8
_U+30EC_U+30A4_U+30E4_U+30FC 1
 62
   179
420
  2234388
370
     9
100
AcDbVertex
100
AcDb2dVertex
 10
77.85209162493878
 20
-121.9811716361714
 30
0.0
  0
VERTEX
  5
B1
330
AF
100
AcDbEntity
  8
_U+30EC_U+30A4_U+30E4_U+30FC 1
 62
   179
420
  2234388
370
     9
100
AcDbVertex
100
AcDb2dVertex
 10
77.85209162493878
 20
-126.3908938572912
 30
0.0
  0
SEQEND
  5
B2
330
AF
100
AcDbEntity
  8
_U+30EC_U+30A4_U+30E4_U+30FC 1
 62
   179
420
  2234388
370
     9
  0
SPLINE
  5
B3
330
1F
100
AcDbEntity
  8
_U+30EC_U+30A4_U+30E4_U+30FC 1
370
     0
100
AcDbSpline
210
0.0
220
0.0
230
1.0
 70
    11
 71
     3
 72
    17
 73
    13
 74
     0
 42
0.0000000001
 43
0.0000000001
 12
1.0
 22
0.0
 32
0.0
 13
1.0
 23
0.0
 33
0.0
 40
0.0
 40
0.0
 40
0.0
 40
0.0
 40
1.0
 40
1.0
 40
1.0
 40
2.0
 40
2.0
 40
2.0
 40
3.0
 40
3.0
 40
3.0
 40
4.0
 40
4.0
 40
4.0
 40
4.0
 10
78.0429443978475
 20
-121.9811716361714
 30
0.0
 10
78.0429443978475
 20
-122.0501044139318
 30
0.0
 10
77.98713495482687
 20
-122.1065841361399
 30
0.0
 10
77.91823745658459
 20
-122.1065841361399
 30
0.0
 10
77.84933995834231
 20
-122.1065841361399
 30
0.0
 10
77.79317773755291
 20
-122.0501044139318
 30
0.0
 10
77.79317773755291
 20
-121.9811716361714
 30
0.0
 10
77.79317773755291
 20
-121.9122741361885
 30
0.0
 10
77.84933995834231
 20
-121.8564646917581
 30
0.0
 10
77.91823745658459
 20
-121.8564646917581
 30
0.0
 10
77.98713495482687
 20
-121.8564646917581
 30
0.0
 10
78.0429443978475
 20
-121.9122741361885
 30
0.0
 10
78.0429443978475
 20
-121.9811716361714
 30
0.0
  0
HATCH
  5
B4
330
1F
100
AcDbEntity
  8
_U+30EC_U+30A4_U+30E4_U+30FC 1
 62
   179
420
  1646110
100
AcDbHatch
 10
0.0
 20
0.0
 30
0.0
210
0.0
220
0.0
230
1.0
  2
SOLID
 70
     1
 71
     0
 91
        1
 92
        1
 93
        1
 72
     4
 94
        3
 73
     0
 74
     1
 95
       17
 96
       13
 40
0.0
 40
0.0
 40
0.0
 40
0.0
 40
1.0
 40
1.0
 40
1.0
 40
2.0
 40
2.0
 40
2.0
 40
3.0
 40
3.0
 40
3.0
 40
4.0
 40
4.0
 40
4.0
 40
4.0
 10
78.0429443978475
 20
-121.9811716361714
 10
78.0429443978475
 20
-122.0501044139318
 10
77.98713495482687
 20
-122.1065841361399
 10
77.91823745658459
 20
-122.1065841361399
 10
77.84933995834231
 20
-122.1065841361399
 10
77.79317773755291
 20
-122.0501044139318
 10
77.79317773755291
 20
-121.9811716361714
 10
77.79317773755291
 20
-121.9122741361885
 10
77.84933995834231
 20
-121.8564646917581
 10
77.91823745658459
 20
-121.8564646917581
 10
77.98713495482687
 20
-121.8564646917581
 10
78.0429443978475
 20
-121.9122741361885
 10
78.0429443978475
 20
-121.9811716361714
 97
        0
 97
        0
 75
     2
 76
     1
 98
        0
  0
SPLINE
  5
B5
330
1F
100
AcDbEntity
  8
_U+30EC_U+30A4_U+30E4_U+30FC 1
370
     0
100
AcDbSpline
210
0.0
220
0.0
230
1.0
 70
    11
 71
     3
 72
    17
 73
    13
 74
     0
 42
0.0000000001
 43
0.0000000001
 12
1.0
 22
0.0
 32
0.0
 13
1.0
 23
0.0
 33
0.0
 40
0.0
 40
0.0
 40
0.0
 40
0.0
 40
1.0
 40
1.0
 40
1.0
 40
2.0
 40
2.0
 40
2.0
 40
3.0
 40
3.0
 40
3.0
 40
4.0
 40
4.0
 40
4.0
 40
4.0
 10
82.90845538482908
 20
-118.7476105258686
 30
0.0
 10
82.90845538482908
 20
-118.8165080258515
 30
0.0
 10
82.85264594180846
 20
-118.8723174702819
 30
0.0
 10
82.78374844356618
 20
-118.8723174702819
 30
0.0
 10
82.7148509453239
 20
-118.8723174702819
 30
0.0
 10
82.6586887245345
 20
-118.8165080258515
 30
0.0
 10
82.6586887245345
 20
-118.7476105258686
 30
0.0
 10
82.6586887245345
 20
-118.6787130258857
 30
0.0
 10
82.7148509453239
 20
-118.6222333036779
 30
0.0
 10
82.78374844356618
 20
-118.6222333036779
 30
0.0
 10
82.85264594180846
 20
-118.6222333036779
 30
0.0
 10
82.90845538482908
 20
-118.6787130258857
 30
0.0
 10
82.90845538482908
 20
-118.7476105258686
 30
0.0
  0
HATCH
  5
B6
330
1F
100
AcDbEntity
  8
_U+30EC_U+30A4_U+30E4_U+30FC 1
 62
   179
420
  1646110
100
AcDbHatch
 10
0.0
 20
0.0
 30
0.0
210
0.0
220
0.0
230
1.0
  2
SOLID
 70
     1
 71
     0
 91
        1
 92
        1
 93
        1
 72
     4
 94
        3
 73
     0
 74
     1
 95
       17
 96
       13
 40
0.0
 40
0.0
 40
0.0
 40
0.0
 40
1.0
 40
1.0
 40
1.0
 40
2.0
 40
2.0
 40
2.0
 40
3.0
 40
3.0
 40
3.0
 40
4.0
 40
4.0
 40
4.0
 40
4.0
 10
82.90845538482908
 20
-118.7476105258686
 10
82.90845538482908
 20
-118.8165080258515
 10
82.85264594180846
 20
-118.8723174702819
 10
82.78374844356618
 20
-118.8723174702819
 10
82.7148509453239
 20
-118.8723174702819
 10
82.6586887245345
 20
-118.8165080258515
 10
82.6586887245345
 20
-118.7476105258686
 10
82.6586887245345
 20
-118.6787130258857
 10
82.7148509453239
 20
-118.6222333036779
 10
82.78374844356618
 20
-118.6222333036779
 10
82.85264594180846
 20
-118.6222333036779
 10
82.90845538482908
 20
-118.6787130258857
 10
82.90845538482908
 20
-118.7476105258686
 97
        0
 97
        0
 75
     2
 76
     1
 98
        0
  0
SPLINE
  5
B7
330
1F
100
AcDbEntity
  8
_U+30EC_U+30A4_U+30E4_U+30FC 1
370
     0
100
AcDbSpline
210
0.0
220
0.0
230
1.0
 70
    11
 71
     3
 72
    17
 73
    13
 74
     0
 42
0.0000000001
 43
0.0000000001
 12
1.0
 22
0.0
 32
0.0
 13
1.0
 23
0.0
 33
0.0
 40
0.0
 40
0.0
 40
0.0
 40
0.0
 40
1.0
 40
1.0
 40
1.0
 40
2.0
 40
2.0
 40
2.0
 40
3.0
 40
3.0
 40
3.0
 40
4.0
 40
4.0
 40
4.0
 40
4.0
 10
81.10046931984354
 20
-118.8061716369651
 30
0.0
 10
81.10046931984354
 20
-118.8751044147256
 30
0.0
 10
81.04465987682292
 20
-118.9315841369337
 30
0.0
 10
80.97576237858064
 20
-118.9315841369337
 30
0.0
 10
80.90686488033836
 20
-118.9315841369337
 30
0.0
 10
80.85070265954896
 20
-118.8751044147256
 30
0.0
 10
80.85070265954896
 20
-118.8061716369651
 30
0.0
 10
80.85070265954896
 20
-118.7372741369823
 30
0.0
 10
80.90686488033836
 20
-118.6814646925518
 30
0.0
 10
80.97576237858064
 20
-118.6814646925518
 30
0.0
 10
81.04465987682292
 20
-118.6814646925518
 30
0.0
 10
81.10046931984354
 20
-118.7372741369823
 30
0.0
 10
81.10046931984354
 20
-118.8061716369651
 30
0.0
  0
HATCH
  5
B8
330
1F
100
AcDbEntity
  8
_U+30EC_U+30A4_U+30E4_U+30FC 1
 62
   179
420
  1646110
100
AcDbHatch
 10
0.0
 20
0.0
 30
0.0
210
0.0
220
0.0
230
1.0
  2
SOLID
 70
     1
 71
     0
 91
        1
 92
        1
 93
        1
 72
     4
 94
        3
 73
     0
 74
     1
 95
       17
 96
       13
 40
0.0
 40
0.0
 40
0.0
 40
0.0
 40
1.0
 40
1.0
 40
1.0
 40
2.0
 40
2.0
 40
2.0
 40
3.0
 40
3.0
 40
3.0
 40
4.0
 40
4.0
 40
4.0
 40
4.0
 10
81.10046931984354
 20
-118.8061716369651
 10
81.10046931984354
 20
-118.8751044147256
 10
81.04465987682292
 20
-118.9315841369337
 10
80.97576237858064
 20
-118.9315841369337
 10
80.90686488033836
 20
-118.9315841369337
 10
80.85070265954896
 20
-118.8751044147256
 10
80.85070265954896
 20
-118.8061716369651
 10
80.85070265954896
 20
-118.7372741369823
 10
80.90686488033836
 20
-118.6814646925518
 10
80.97576237858064
 20
-118.6814646925518
 10
81.04465987682292
 20
-118.6814646925518
 10
81.10046931984354
 20
-118.7372741369823
 10
81.10046931984354
 20
-118.8061716369651
 97
        0
 97
        0
 75
     2
 76
     1
 98
        0
  0
SPLINE
  5
B9
330
1F
100
AcDbEntity
  8
_U+30EC_U+30A4_U+30E4_U+30FC 1
370
     0
100
AcDbSpline
210
0.0
220
0.0
230
1.0
 70
    11
 71
     3
 72
    17
 73
    13
 74
     0
 42
0.0000000001
 43
0.0000000001
 12
1.0
 22
0.0
 32
0.0
 13
1.0
 23
0.0
 33
0.0
 40
0.0
 40
0.0
 40
0.0
 40
0.0
 40
1.0
 40
1.0
 40
1.0
 40
2.0
 40
2.0
 40
2.0
 40
3.0
 40
3.0
 40
3.0
 40
4.0
 40
4.0
 40
4.0
 40
4.0
 10
81.14456654094076
 20
-116.8073327485759
 30
0.0
 10
81.14456654094076
 20
-116.8762302485588
 30
0.0
 10
81.08875709792012
 20
-116.9320396929892
 30
0.0
 10
81.01985959967784
 20
-116.9320396929892
 30
0.0
 10
80.95096210143556
 20
-116.9320396929892
 30
0.0
 10
80.89479988064616
 20
-116.8762302485588
 30
0.0
 10
80.89479988064616
 20
-116.8073327485759
 30
0.0
 10
80.89479988064616
 20
-116.738435248593
 30
0.0
 10
80.95096210143556
 20
-116.6819555263852
 30
0.0
 10
81.01985959967784
 20
-116.6819555263852
 30
0.0
 10
81.08875709792012
 20
-116.6819555263852
 30
0.0
 10
81.14456654094076
 20
-116.738435248593
 30
0.0
 10
81.14456654094076
 20
-116.8073327485759
 30
0.0
  0
HATCH
  5
BA
330
1F
100
AcDbEntity
  8
_U+30EC_U+30A4_U+30E4_U+30FC 1
 62
   179
420
  1646110
100
AcDbHatch
 10
0.0
 20
0.0
 30
0.0
210
0.0
220
0.0
230
1.0
  2
SOLID
 70
     1
 71
     0
 91
        1
 92
        1
 93
        1
 72
     4
 94
        3
 73
     0
 74
     1
 95
       17
 96
       13
 40
0.0
 40
0.0
 40
0.0
 40
0.0
 40
1.0
 40
1.0
 40
1.0
 40
2.0
 40
2.0
 40
2.0
 40
3.0
 40
3.0
 40
3.0
 40
4.0
 40
4.0
 40
4.0
 40
4.0
 10
81.14456654094076
 20
-116.8073327485759
 10
81.14456654094076
 20
-116.8762302485588
 10
81.08875709792012
 20
-116.9320396929892
 10
81.01985959967784
 20
-116.9320396929892
 10
80.95096210143556
 20
-116.9320396929892
 10
80.89479988064616
 20
-116.8762302485588
 10
80.89479988064616
 20
-116.8073327485759
 10
80.89479988064616
 20
-116.738435248593
 10
80.95096210143556
 20
-116.6819555263852
 10
81.01985959967784
 20
-116.6819555263852
 10
81.08875709792012
 20
-116.6819555263852
 10
81.14456654094076
 20
-116.738435248593
 10
81.14456654094076
 20
-116.8073327485759
 97
        0
 97
        0
 75
     2
 76
     1
 98
        0
  0
SPLINE
  5
BB
330
1F
100
AcDbEntity
  8
_U+30EC_U+30A4_U+30E4_U+30FC 1
370
     0
100
AcDbSpline
210
0.0
220
0.0
230
1.0
 70
    11
 71
     3
 72
    17
 73
    13
 74
     0
 42
0.0000000001
 43
0.0000000001
 12
1.0
 22
0.0
 32
0.0
 13
1.0
 23
0.0
 33
0.0
 40
0.0
 40
0.0
 40
0.0
 40
0.0
 40
1.0
 40
1.0
 40
1.0
 40
2.0
 40
2.0
 40
2.0
 40
3.0
 40
3.0
 40
3.0
 40
4.0
 40
4.0
 40
4.0
 40
4.0
 10
101.1356007531492
 20
-116.9244902485468
 30
0.0
 10
101.1356007531492
 20
-116.9940580263071
 30
0.0
 10
101.0797913101286
 20
-117.0498674707375
 30
0.0
 10
101.0108938118863
 20
-117.0498674707375
 30
0.0
 10
100.941996313644
 20
-117.0498674707375
 30
0.0
 10
100.8854813150858
 20
-116.9940580263071
 30
0.0
 10
100.8854813150858
 20
-116.9244902485468
 30
0.0
 10
100.8854813150858
 20
-116.8555574707861
 30
0.0
 10
100.941996313644
 20
-116.7997480263556
 30
0.0
 10
101.0108938118863
 20
-116.7997480263556
 30
0.0
 10
101.0797913101286
 20
-116.7997480263556
 30
0.0
 10
101.1356007531492
 20
-116.8555574707861
 30
0.0
 10
101.1356007531492
 20
-116.9244902485468
 30
0.0
  0
HATCH
  5
BC
330
1F
100
AcDbEntity
  8
_U+30EC_U+30A4_U+30E4_U+30FC 1
 62
   179
420
  1646110
100
AcDbHatch
 10
0.0
 20
0.0
 30
0.0
210
0.0
220
0.0
230
1.0
  2
SOLID
 70
     1
 71
     0
 91
        1
 92
        1
 93
        1
 72
     4
 94
        3
 73
     0
 74
     1
 95
       17
 96
       13
 40
0.0
 40
0.0
 40
0.0
 40
0.0
 40
1.0
 40
1.0
 40
1.0
 40
2.0
 40
2.0
 40
2.0
 40
3.0
 40
3.0
 40
3.0
 40
4.0
 40
4.0
 40
4.0
 40
4.0
 10
101.1356007531492
 20
-116.9244902485468
 10
101.1356007531492
 20
-116.9940580263071
 10
101.0797913101286
 20
-117.0498674707375
 10
101.0108938118863
 20
-117.0498674707375
 10
100.941996313644
 20
-117.0498674707375
 10
100.8854813150858
 20
-116.9940580263071
 10
100.8854813150858
 20
-116.9244902485468
 10
100.8854813150858
 20
-116.8555574707861
 10
100.941996313644
 20
-116.7997480263556
 10
101.0108938118863
 20
-116.7997480263556
 10
101.0797913101286
 20
-116.7997480263556
 10
101.1356007531492
 20
-116.8555574707861
 10
101.1356007531492
 20
-116.9244902485468
 97
        0
 97
        0
 75
     2
 76
     1
 98
        0
  0
SPLINE
  5
BD
330
1F
100
AcDbEntity
  8
_U+30EC_U+30A4_U+30E4_U+30FC 1
370
     0
100
AcDbSpline
210
0.0
220
0.0
230
1.0
 70
    11
 71
     3
 72
    17
 73
    13
 74
     0
 42
0.0000000001
 43
0.0000000001
 12
1.0
 22
0.0
 32
0.0
 13
1.0
 23
0.0
 33
0.0
 40
0.0
 40
0.0
 40
0.0
 40
0.0
 40
1.0
 40
1.0
 40
1.0
 40
2.0
 40
2.0
 40
2.0
 40
3.0
 40
3.0
 40
3.0
 40
4.0
 40
4.0
 40
4.0
 40
4.0
 10
103.4872173598211
 20
-122.1575605250162
 30
0.0
 10
103.4872173598211
 20
-122.2264933027766
 30
0.0
 10
103.4314079168005
 20
-122.2829730249847
 30
0.0
 10
103.3625104185582
 20
-122.2829730249847
 30
0.0
 10
103.293612920316
 20
-122.2829730249847
 30
0.0
 10
103.2378034772953
 20
-122.2264933027766
 30
0.0
 10
103.2378034772953
 20
-122.1575605250162
 30
0.0
 10
103.2378034772953
 20
-122.0886630250333
 30
0.0
 10
103.293612920316
 20
-122.0328535806029
 30
0.0
 10
103.3625104185582
 20
-122.0328535806029
 30
0.0
 10
103.4314079168005
 20
-122.0328535806029
 30
0.0
 10
103.4872173598211
 20
-122.0886630250333
 30
0.0
 10
103.4872173598211
 20
-122.1575605250162
 30
0.0
  0
HATCH
  5
BE
330
1F
100
AcDbEntity
  8
_U+30EC_U+30A4_U+30E4_U+30FC 1
 62
   179
420
  1646110
100
AcDbHatch
 10
0.0
 20
0.0
 30
0.0
210
0.0
220
0.0
230
1.0
  2
SOLID
 70
     1
 71
     0
 91
        1
 92
        1
 93
        1
 72
     4
 94
        3
 73
     0
 74
     1
 95
       17
 96
       13
 40
0.0
 40
0.0
 40
0.0
 40
0.0
 40
1.0
 40
1.0
 40
1.0
 40
2.0
 40
2.0
 40
2.0
 40
3.0
 40
3.0
 40
3.0
 40
4.0
 40
4.0
 40
4.0
 40
4.0
 10
103.4872173598211
 20
-122.1575605250162
 10
103.4872173598211
 20
-122.2264933027766
 10
103.4314079168005
 20
-122.2829730249847
 10
103.3625104185582
 20
-122.2829730249847
 10
103.293612920316
 20
-122.2829730249847
 10
103.2378034772953
 20
-122.2264933027766
 10
103.2378034772953
 20
-122.1575605250162
 10
103.2378034772953
 20
-122.0886630250333
 10
103.293612920316
 20
-122.0328535806029
 10
103.3625104185582
 20
-122.0328535806029
 10
103.4314079168005
 20
-122.0328535806029
 10
103.4872173598211
 20
-122.0886630250333
 10
103.4872173598211
 20
-122.1575605250162
 97
        0
 97
        0
 75
     2
 76
     1
 98
        0
  0
SPLINE
  5
BF
330
1F
100
AcDbEntity
  8
_U+30EC_U+30A4_U+30E4_U+30FC 1
370
     0
100
AcDbSpline
210
0.0
220
0.0
230
1.0
 70
    11
 71
     3
 72
    17
 73
    13
 74
     0
 42
0.0000000001
 43
0.0000000001
 12
1.0
 22
0.0
 32
0.0
 13
1.0
 23
0.0
 33
0.0
 40
0.0
 40
0.0
 40
0.0
 40
0.0
 40
1.0
 40
1.0
 40
1.0
 40
2.0
 40
2.0
 40
2.0
 40
3.0
 40
3.0
 40
3.0
 40
4.0
 40
4.0
 40
4.0
 40
4.0
 10
103.5457784694382
 20
-126.9200605238256
 30
0.0
 10
103.5457784694382
 20
-126.988993301586
 30
0.0
 10
103.4899690264176
 20
-127.0454730237941
 30
0.0
 10
103.4210715281753
 20
-127.0454730237941
 30
0.0
 10
103.352174029933
 20
-127.0454730237941
 30
0.0
 10
103.2963645869124
 20
-126.988993301586
 30
0.0
 10
103.2963645869124
 20
-126.9200605238256
 30
0.0
 10
103.2963645869124
 20
-126.8511630238427
 30
0.0
 10
103.352174029933
 20
-126.7953535794122
 30
0.0
 10
103.4210715281753
 20
-126.7953535794122
 30
0.0
 10
103.4899690264176
 20
-126.7953535794122
 30
0.0
 10
103.5457784694382
 20
-126.8511630238427
 30
0.0
 10
103.5457784694382
 20
-126.9200605238256
 30
0.0
  0
HATCH
  5
C0
330
1F
100
AcDbEntity
  8
_U+30EC_U+30A4_U+30E4_U+30FC 1
 62
   179
420
  1646110
100
AcDbHatch
 10
0.0
 20
0.0
 30
0.0
210
0.0
220
0.0
230
1.0
  2
SOLID
 70
     1
 71
     0
 91
        1
 92
        1
 93
        1
 72
     4
 94
        3
 73
     0
 74
     1
 95
       17
 96
       13
 40
0.0
 40
0.0
 40
0.0
 40
0.0
 40
1.0
 40
1.0
 40
1.0
 40
2.0
 40
2.0
 40
2.0
 40
3.0
 40
3.0
 40
3.0
 40
4.0
 40
4.0
 40
4.0
 40
4.0
 10
103.5457784694382
 20
-126.9200605238256
 10
103.5457784694382
 20
-126.988993301586
 10
103.4899690264176
 20
-127.0454730237941
 10
103.4210715281753
 20
-127.0454730237941
 10
103.352174029933
 20
-127.0454730237941
 10
103.2963645869124
 20
-126.988993301586
 10
103.2963645869124
 20
-126.9200605238256
 10
103.2963645869124
 20
-126.8511630238427
 10
103.352174029933
 20
-126.7953535794122
 10
103.4210715281753
 20
-126.7953535794122
 10
103.4899690264176
 20
-126.7953535794122
 10
103.5457784694382
 20
-126.8511630238427
 10
103.5457784694382
 20
-126.9200605238256
 97
        0
 97
        0
 75
     2
 76
     1
 98
        0
  0
SPLINE
  5
C1
330
1F
100
AcDbEntity
  8
_U+30EC_U+30A4_U+30E4_U+30FC 1
370
     0
100
AcDbSpline
210
0.0
220
0.0
230
1.0
 70
    11
 71
     3
 72
    17
 73
    13
 74
     0
 42
0.0000000001
 43
0.0000000001
 12
1.0
 22
0.0
 32
0.0
 13
1.0
 23
0.0
 33
0.0
 40
0.0
 40
0.0
 40
0.0
 40
0.0
 40
1.0
 40
1.0
 40
1.0
 40
2.0
 40
2.0
 40
2.0
 40
3.0
 40
3.0
 40
3.0
 40
4.0
 40
4.0
 40
4.0
 40
4.0
 10
103.5457784694382
 20
-127.6256160792047
 30
0.0
 10
103.5457784694382
 20
-127.6945488569651
 30
0.0
 10
103.4899690264176
 20
-127.7510285791733
 30
0.0
 10
103.4210715281753
 20
-127.7510285791733
 30
0.0
 10
103.352174029933
 20
-127.7510285791733
 30
0.0
 10
103.2963645869124
 20
-127.6945488569651
 30
0.0
 10
103.2963645869124
 20
-127.6256160792047
 30
0.0
 10
103.2963645869124
 20
-127.5567185792218
 30
0.0
 10
103.352174029933
 20
-127.5009091347914
 30
0.0
 10
103.4210715281753
 20
-127.5009091347914
 30
0.0
 10
103.4899690264176
 20
-127.5009091347914
 30
0.0
 10
103.5457784694382
 20
-127.5567185792218
 30
0.0
 10
103.5457784694382
 20
-127.6256160792047
 30
0.0
  0
HATCH
  5
C2
330
1F
100
AcDbEntity
  8
_U+30EC_U+30A4_U+30E4_U+30FC 1
 62
   179
420
  1646110
100
AcDbHatch
 10
0.0
 20
0.0
 30
0.0
210
0.0
220
0.0
230
1.0
  2
SOLID
 70
     1
 71
     0
 91
        1
 92
        1
 93
        1
 72
     4
 94
        3
 73
     0
 74
     1
 95
       17
 96
       13
 40
0.0
 40
0.0
 40
0.0
 40
0.0
 40
1.0
 40
1.0
 40
1.0
 40
2.0
 40
2.0
 40
2.0
 40
3.0
 40
3.0
 40
3.0
 40
4.0
 40
4.0
 40
4.0
 40
4.0
 10
103.5457784694382
 20
-127.6256160792047
 10
103.5457784694382
 20
-127.6945488569651
 10
103.4899690264176
 20
-127.7510285791733
 10
103.4210715281753
 20
-127.7510285791733
 10
103.352174029933
 20
-127.7510285791733
 10
103.2963645869124
 20
-127.6945488569651
 10
103.2963645869124
 20
-127.6256160792047
 10
103.2963645869124
 20
-127.5567185792218
 10
103.352174029933
 20
-127.5009091347914
 10
103.4210715281753
 20
-127.5009091347914
 10
103.4899690264176
 20
-127.5009091347914
 10
103.5457784694382
 20
-127.5567185792218
 10
103.5457784694382
 20
-127.6256160792047
 97
        0
 97
        0
 75
     2
 76
     1
 98
        0
  0
SPLINE
  5
C3
330
1F
100
AcDbEntity
  8
_U+30EC_U+30A4_U+30E4_U+30FC 1
370
     0
100
AcDbSpline
210
0.0
220
0.0
230
1.0
 70
    11
 71
     3
 72
    17
 73
    13
 74
     0
 42
0.0000000001
 43
0.0000000001
 12
1.0
 22
0.0
 32
0.0
 13
1.0
 23
0.0
 33
0.0
 40
0.0
 40
0.0
 40
0.0
 40
0.0
 40
1.0
 40
1.0
 40
1.0
 40
2.0
 40
2.0
 40
2.0
 40
3.0
 40
3.0
 40
3.0
 40
4.0
 40
4.0
 40
4.0
 40
4.0
 10
103.4940965263123
 20
-135.5555666327779
 30
0.0
 10
103.4940965263123
 20
-135.6244641327605
 30
0.0
 10
103.4382870832917
 20
-135.6809438549689
 30
0.0
 10
103.3693895850494
 20
-135.6809438549689
 30
0.0
 10
103.3004920868071
 20
-135.6809438549689
 30
0.0
 10
103.2446826437865
 20
-135.6244641327605
 30
0.0
 10
103.2446826437865
 20
-135.5555666327779
 30
0.0
 10
103.2446826437865
 20
-135.4866338550172
 30
0.0
 10
103.3004920868071
 20
-135.4308244105868
 30
0.0
 10
103.3693895850494
 20
-135.4308244105868
 30
0.0
 10
103.4382870832917
 20
-135.4308244105868
 30
0.0
 10
103.4940965263123
 20
-135.4866338550172
 30
0.0
 10
103.4940965263123
 20
-135.5555666327779
 30
0.0
  0
HATCH
  5
C4
330
1F
100
AcDbEntity
  8
_U+30EC_U+30A4_U+30E4_U+30FC 1
 62
   179
420
  1646110
100
AcDbHatch
 10
0.0
 20
0.0
 30
0.0
210
0.0
220
0.0
230
1.0
  2
SOLID
 70
     1
 71
     0
 91
        1
 92
        1
 93
        1
 72
     4
 94
        3
 73
     0
 74
     1
 95
       17
 96
       13
 40
0.0
 40
0.0
 40
0.0
 40
0.0
 40
1.0
 40
1.0
 40
1.0
 40
2.0
 40
2.0
 40
2.0
 40
3.0
 40
3.0
 40
3.0
 40
4.0
 40
4.0
 40
4.0
 40
4.0
 10
103.4940965263123
 20
-135.5555666327779
 10
103.4940965263123
 20
-135.6244641327605
 10
103.4382870832917
 20
-135.6809438549689
 10
103.3693895850494
 20
-135.6809438549689
 10
103.3004920868071
 20
-135.6809438549689
 10
103.2446826437865
 20
-135.6244641327605
 10
103.2446826437865
 20
-135.5555666327779
 10
103.2446826437865
 20
-135.4866338550172
 10
103.3004920868071
 20
-135.4308244105868
 10
103.3693895850494
 20
-135.4308244105868
 10
103.4382870832917
 20
-135.4308244105868
 10
103.4940965263123
 20
-135.4866338550172
 10
103.4940965263123
 20
-135.5555666327779
 97
        0
 97
        0
 75
     2
 76
     1
 98
        0
  0
SPLINE
  5
C5
330
1F
100
AcDbEntity
  8
_U+30EC_U+30A4_U+30E4_U+30FC 1
370
     0
100
AcDbSpline
210
0.0
220
0.0
230
1.0
 70
    11
 71
     3
 72
    17
 73
    13
 74
     0
 42
0.0000000001
 43
0.0000000001
 12
1.0
 22
0.0
 32
0.0
 13
1.0
 23
0.0
 33
0.0
 40
0.0
 40
0.0
 40
0.0
 40
0.0
 40
1.0
 40
1.0
 40
1.0
 40
2.0
 40
2.0
 40
2.0
 40
3.0
 40
3.0
 40
3.0
 40
4.0
 40
4.0
 40
4.0
 40
4.0
 10
91.44109127825452
 20
-135.6147980216521
 30
0.0
 10
91.44109127825452
 20
-135.6836955216347
 30
0.0
 10
91.3852818352339
 20
-135.7395049660651
 30
0.0
 10
91.316560725876
 20
-135.7395049660651
 30
0.0
 10
91.24766322763372
 20
-135.7395049660651
 30
0.0
 10
91.19150100684432
 20
-135.6836955216347
 30
0.0
 10
91.19150100684432
 20
-135.6147980216521
 30
0.0
 10
91.19150100684432
 20
-135.5459005216689
 30
0.0
 10
91.24766322763372
 20
-135.4894207994611
 30
0.0
 10
91.316560725876
 20
-135.4894207994611
 30
0.0
 10
91.3852818352339
 20
-135.4894207994611
 30
0.0
 10
91.44109127825452
 20
-135.5459005216689
 30
0.0
 10
91.44109127825452
 20
-135.6147980216521
 30
0.0
  0
HATCH
  5
C6
330
1F
100
AcDbEntity
  8
_U+30EC_U+30A4_U+30E4_U+30FC 1
 62
   179
420
  1646110
100
AcDbHatch
 10
0.0
 20
0.0
 30
0.0
210
0.0
220
0.0
230
1.0
  2
SOLID
 70
     1
 71
     0
 91
        1
 92
        1
 93
        1
 72
     4
 94
        3
 73
     0
 74
     1
 95
       17
 96
       13
 40
0.0
 40
0.0
 40
0.0
 40
0.0
 40
1.0
 40
1.0
 40
1.0
 40
2.0
 40
2.0
 40
2.0
 40
3.0
 40
3.0
 40
3.0
 40
4.0
 40
4.0
 40
4.0
 40
4.0
 10
91.44109127825452
 20
-135.6147980216521
 10
91.44109127825452
 20
-135.6836955216347
 10
91.3852818352339
 20
-135.7395049660651
 10
91.316560725876
 20
-135.7395049660651
 10
91.24766322763372
 20
-135.7395049660651
 10
91.19150100684432
 20
-135.6836955216347
 10
91.19150100684432
 20
-135.6147980216521
 10
91.19150100684432
 20
-135.5459005216689
 10
91.24766322763372
 20
-135.4894207994611
 10
91.316560725876
 20
-135.4894207994611
 10
91.3852818352339
 20
-135.4894207994611
 10
91.44109127825452
 20
-135.5459005216689
 10
91.44109127825452
 20
-135.6147980216521
 97
        0
 97
        0
 75
     2
 76
     1
 98
        0
  0
SPLINE
  5
C7
330
1F
100
AcDbEntity
  8
_U+30EC_U+30A4_U+30E4_U+30FC 1
370
     0
100
AcDbSpline
210
0.0
220
0.0
230
1.0
 70
    11
 71
     3
 72
    17
 73
    13
 74
     0
 42
0.0000000001
 43
0.0000000001
 12
1.0
 22
0.0
 32
0.0
 13
1.0
 23
0.0
 33
0.0
 40
0.0
 40
0.0
 40
0.0
 40
0.0
 40
1.0
 40
1.0
 40
1.0
 40
2.0
 40
2.0
 40
2.0
 40
3.0
 40
3.0
 40
3.0
 40
4.0
 40
4.0
 40
4.0
 40
4.0
 10
91.44109127825452
 20
-137.4958444100706
 30
0.0
 10
91.44109127825452
 20
-137.5647419100532
 30
0.0
 10
91.3852818352339
 20
-137.6212216322616
 30
0.0
 10
91.316560725876
 20
-137.6212216322616
 30
0.0
 10
91.24766322763372
 20
-137.6212216322616
 30
0.0
 10
91.19150100684432
 20
-137.5647419100532
 30
0.0
 10
91.19150100684432
 20
-137.4958444100706
 30
0.0
 10
91.19150100684432
 20
-137.4269116323099
 30
0.0
 10
91.24766322763372
 20
-137.3711021878795
 30
0.0
 10
91.316560725876
 20
-137.3711021878795
 30
0.0
 10
91.3852818352339
 20
-137.3711021878795
 30
0.0
 10
91.44109127825452
 20
-137.4269116323099
 30
0.0
 10
91.44109127825452
 20
-137.4958444100706
 30
0.0
  0
HATCH
  5
C8
330
1F
100
AcDbEntity
  8
_U+30EC_U+30A4_U+30E4_U+30FC 1
 62
   179
420
  1646110
100
AcDbHatch
 10
0.0
 20
0.0
 30
0.0
210
0.0
220
0.0
230
1.0
  2
SOLID
 70
     1
 71
     0
 91
        1
 92
        1
 93
        1
 72
     4
 94
        3
 73
     0
 74
     1
 95
       17
 96
       13
 40
0.0
 40
0.0
 40
0.0
 40
0.0
 40
1.0
 40
1.0
 40
1.0
 40
2.0
 40
2.0
 40
2.0
 40
3.0
 40
3.0
 40
3.0
 40
4.0
 40
4.0
 40
4.0
 40
4.0
 10
91.44109127825452
 20
-137.4958444100706
 10
91.44109127825452
 20
-137.5647419100532
 10
91.3852818352339
 20
-137.6212216322616
 10
91.316560725876
 20
-137.6212216322616
 10
91.24766322763372
 20
-137.6212216322616
 10
91.19150100684432
 20
-137.5647419100532
 10
91.19150100684432
 20
-137.4958444100706
 10
91.19150100684432
 20
-137.4269116323099
 10
91.24766322763372
 20
-137.3711021878795
 10
91.316560725876
 20
-137.3711021878795
 10
91.3852818352339
 20
-137.3711021878795
 10
91.44109127825452
 20
-137.4269116323099
 10
91.44109127825452
 20
-137.4958444100706
 97
        0
 97
        0
 75
     2
 76
     1
 98
        0
  0
SPLINE
  5
C9
330
1F
100
AcDbEntity
  8
_U+30EC_U+30A4_U+30E4_U+30FC 1
370
     0
100
AcDbSpline
210
0.0
220
0.0
230
1.0
 70
    11
 71
     3
 72
    17
 73
    13
 74
     0
 42
0.0000000001
 43
0.0000000001
 12
1.0
 22
0.0
 32
0.0
 13
1.0
 23
0.0
 33
0.0
 40
0.0
 40
0.0
 40
0.0
 40
0.0
 40
1.0
 40
1.0
 40
1.0
 40
2.0
 40
2.0
 40
2.0
 40
3.0
 40
3.0
 40
3.0
 40
4.0
 40
4.0
 40
4.0
 40
4.0
 10
88.44988857678868
 20
-140.4434438537783
 30
0.0
 10
88.44988857678868
 20
-140.5123413537609
 30
0.0
 10
88.39407913376806
 20
-140.5681507981913
 30
0.0
 10
88.32518163552578
 20
-140.5681507981913
 30
0.0
 10
88.2562841372835
 20
-140.5681507981913
 30
0.0
 10
88.2001219164941
 20
-140.5123413537609
 30
0.0
 10
88.2001219164941
 20
-140.4434438537783
 30
0.0
 10
88.2001219164941
 20
-140.3745463537951
 30
0.0
 10
88.2562841372835
 20
-140.3180666315873
 30
0.0
 10
88.32518163552578
 20
-140.3180666315873
 30
0.0
 10
88.39407913376806
 20
-140.3180666315873
 30
0.0
 10
88.44988857678868
 20
-140.3745463537951
 30
0.0
 10
88.44988857678868
 20
-140.4434438537783
 30
0.0
  0
HATCH
  5
CA
330
1F
100
AcDbEntity
  8
_U+30EC_U+30A4_U+30E4_U+30FC 1
 62
   179
420
  1646110
100
AcDbHatch
 10
0.0
 20
0.0
 30
0.0
210
0.0
220
0.0
230
1.0
  2
SOLID
 70
     1
 71
     0
 91
        1
 92
        1
 93
        1
 72
     4
 94
        3
 73
     0
 74
     1
 95
       17
 96
       13
 40
0.0
 40
0.0
 40
0.0
 40
0.0
 40
1.0
 40
1.0
 40
1.0
 40
2.0
 40
2.0
 40
2.0
 40
3.0
 40
3.0
 40
3.0
 40
4.0
 40
4.0
 40
4.0
 40
4.0
 10
88.44988857678868
 20
-140.4434438537783
 10
88.44988857678868
 20
-140.5123413537609
 10
88.39407913376806
 20
-140.5681507981913
 10
88.32518163552578
 20
-140.5681507981913
 10
88.2562841372835
 20
-140.5681507981913
 10
88.2001219164941
 20
-140.5123413537609
 10
88.2001219164941
 20
-140.4434438537783
 10
88.2001219164941
 20
-140.3745463537951
 10
88.2562841372835
 20
-140.3180666315873
 10
88.32518163552578
 20
-140.3180666315873
 10
88.39407913376806
 20
-140.3180666315873
 10
88.44988857678868
 20
-140.3745463537951
 10
88.44988857678868
 20
-140.4434438537783
 97
        0
 97
        0
 75
     2
 76
     1
 98
        0
  0
SPLINE
  5
CB
330
1F
100
AcDbEntity
  8
_U+30EC_U+30A4_U+30E4_U+30FC 1
370
     0
100
AcDbSpline
210
0.0
220
0.0
230
1.0
 70
    11
 71
     3
 72
    17
 73
    13
 74
     0
 42
0.0000000001
 43
0.0000000001
 12
1.0
 22
0.0
 32
0.0
 13
1.0
 23
0.0
 33
0.0
 40
0.0
 40
0.0
 40
0.0
 40
0.0
 40
1.0
 40
1.0
 40
1.0
 40
2.0
 40
2.0
 40
2.0
 40
3.0
 40
3.0
 40
3.0
 40
4.0
 40
4.0
 40
4.0
 40
4.0
 10
80.91649571342599
 20
-140.4434438537783
 30
0.0
 10
80.91649571342599
 20
-140.5123413537609
 30
0.0
 10
80.86068627040537
 20
-140.5681507981913
 30
0.0
 10
80.79178877216309
 20
-140.5681507981913
 30
0.0
 10
80.72289127392081
 20
-140.5681507981913
 30
0.0
 10
80.6667290531314
 20
-140.5123413537609
 30
0.0
 10
80.6667290531314
 20
-140.4434438537783
 30
0.0
 10
80.6667290531314
 20
-140.3745463537951
 30
0.0
 10
80.72289127392081
 20
-140.3180666315873
 30
0.0
 10
80.79178877216309
 20
-140.3180666315873
 30
0.0
 10
80.86068627040537
 20
-140.3180666315873
 30
0.0
 10
80.91649571342599
 20
-140.3745463537951
 30
0.0
 10
80.91649571342599
 20
-140.4434438537783
 30
0.0
  0
HATCH
  5
CC
330
1F
100
AcDbEntity
  8
_U+30EC_U+30A4_U+30E4_U+30FC 1
 62
   179
420
  1646110
100
AcDbHatch
 10
0.0
 20
0.0
 30
0.0
210
0.0
220
0.0
230
1.0
  2
SOLID
 70
     1
 71
     0
 91
        1
 92
        1
 93
        1
 72
     4
 94
        3
 73
     0
 74
     1
 95
       17
 96
       13
 40
0.0
 40
0.0
 40
0.0
 40
0.0
 40
1.0
 40
1.0
 40
1.0
 40
2.0
 40
2.0
 40
2.0
 40
3.0
 40
3.0
 40
3.0
 40
4.0
 40
4.0
 40
4.0
 40
4.0
 10
80.91649571342599
 20
-140.4434438537783
 10
80.91649571342599
 20
-140.5123413537609
 10
80.86068627040537
 20
-140.5681507981913
 10
80.79178877216309
 20
-140.5681507981913
 10
80.72289127392081
 20
-140.5681507981913
 10
80.6667290531314
 20
-140.5123413537609
 10
80.6667290531314
 20
-140.4434438537783
 10
80.6667290531314
 20
-140.3745463537951
 10
80.72289127392081
 20
-140.3180666315873
 10
80.79178877216309
 20
-140.3180666315873
 10
80.86068627040537
 20
-140.3180666315873
 10
80.91649571342599
 20
-140.3745463537951
 10
80.91649571342599
 20
-140.4434438537783
 97
        0
 97
        0
 75
     2
 76
     1
 98
        0
  0
SPLINE
  5
CD
330
1F
100
AcDbEntity
  8
_U+30EC_U+30A4_U+30E4_U+30FC 1
370
     0
100
AcDbSpline
210
0.0
220
0.0
230
1.0
 70
    11
 71
     3
 72
    17
 73
    13
 74
     0
 42
0.0000000001
 43
0.0000000001
 12
1.0
 22
0.0
 32
0.0
 13
1.0
 23
0.0
 33
0.0
 40
0.0
 40
0.0
 40
0.0
 40
0.0
 40
1.0
 40
1.0
 40
1.0
 40
2.0
 40
2.0
 40
2.0
 40
3.0
 40
3.0
 40
3.0
 40
4.0
 40
4.0
 40
4.0
 40
4.0
 10
77.96956662194175
 20
-137.3270049656683
 30
0.0
 10
77.96956662194175
 20
-137.395937743429
 30
0.0
 10
77.91375717892112
 20
-137.4524174656368
 30
0.0
 10
77.84485968067884
 20
-137.4524174656368
 30
0.0
 10
77.77596218243656
 20
-137.4524174656368
 30
0.0
 10
77.71979996164715
 20
-137.395937743429
 30
0.0
 10
77.71979996164715
 20
-137.3270049656683
 30
0.0
 10
77.71979996164715
 20
-137.2581074656857
 30
0.0
 10
77.77596218243656
 20
-137.2022980212553
 30
0.0
 10
77.84485968067884
 20
-137.2022980212553
 30
0.0
 10
77.91375717892112
 20
-137.2022980212553
 30
0.0
 10
77.96956662194175
 20
-137.2581074656857
 30
0.0
 10
77.96956662194175
 20
-137.3270049656683
 30
0.0
  0
HATCH
  5
CE
330
1F
100
AcDbEntity
  8
_U+30EC_U+30A4_U+30E4_U+30FC 1
 62
   179
420
  1646110
100
AcDbHatch
 10
0.0
 20
0.0
 30
0.0
210
0.0
220
0.0
230
1.0
  2
SOLID
 70
     1
 71
     0
 91
        1
 92
        1
 93
        1
 72
     4
 94
        3
 73
     0
 74
     1
 95
       17
 96
       13
 40
0.0
 40
0.0
 40
0.0
 40
0.0
 40
1.0
 40
1.0
 40
1.0
 40
2.0
 40
2.0
 40
2.0
 40
3.0
 40
3.0
 40
3.0
 40
4.0
 40
4.0
 40
4.0
 40
4.0
 10
77.96956662194175
 20
-137.3270049656683
 10
77.96956662194175
 20
-137.395937743429
 10
77.91375717892112
 20
-137.4524174656368
 10
77.84485968067884
 20
-137.4524174656368
 10
77.77596218243656
 20
-137.4524174656368
 10
77.71979996164715
 20
-137.395937743429
 10
77.71979996164715
 20
-137.3270049656683
 10
77.71979996164715
 20
-137.2581074656857
 10
77.77596218243656
 20
-137.2022980212553
 10
77.84485968067884
 20
-137.2022980212553
 10
77.91375717892112
 20
-137.2022980212553
 10
77.96956662194175
 20
-137.2581074656857
 10
77.96956662194175
 20
-137.3270049656683
 97
        0
 97
        0
 75
     2
 76
     1
 98
        0
  0
INSERT
  5
D0
330
1F
100
AcDbEntity
  8
_U+30EC_U+30A4_U+30E4_U+30FC 1
100
AcDbBlockReference
  2
block 2
 10
0.0
 20
0.0
 30
0.0
  0
INSERT
  5
EC
330
1F
100
AcDbEntity
  8
_U+30EC_U+30A4_U+30E4_U+30FC 1
100
AcDbBlockReference
  2
block 3
 10
0.0
 20
0.0
 30
0.0
  0
INSERT
  5
FE
330
1F
100
AcDbEntity
  8
_U+30EC_U+30A4_U+30E4_U+30FC 1
100
AcDbBlockReference
  2
block 4
 10
0.0
 20
0.0
 30
0.0
  0
INSERT
  5
113
330
1F
100
AcDbEntity
  8
_U+30EC_U+30A4_U+30E4_U+30FC 1
100
AcDbBlockReference
  2
block 5
 10
0.0
 20
0.0
 30
0.0
  0
INSERT
  5
11B
330
1F
100
AcDbEntity
  8
_U+30EC_U+30A4_U+30E4_U+30FC 1
100
AcDbBlockReference
  2
block 6
 10
0.0
 20
0.0
 30
0.0
  0
INSERT
  5
12D
330
1F
100
AcDbEntity
  8
_U+30EC_U+30A4_U+30E4_U+30FC 1
100
AcDbBlockReference
  2
block 7
 10
0.0
 20
0.0
 30
0.0
  0
INSERT
  5
140
330
1F
100
AcDbEntity
  8
_U+30EC_U+30A4_U+30E4_U+30FC 1
100
AcDbBlockReference
  2
block 8
 10
0.0
 20
0.0
 30
0.0
  0
ENDSEC
  0
SECTION
  2
OBJECTS
  0
DICTIONARY
  5
C
330
0
100
AcDbDictionary
281
     1
  3
ACAD_GROUP
350
D
  3
ACAD_LAYOUT
350
1A
  3
ACAD_MATERIAL
350
3B
  3
ACAD_MLEADERSTYLE
350
166
  3
ACAD_MLINESTYLE
350
17
  3
ACAD_PLOTSETTINGS
350
19
  3
ACAD_PLOTSTYLENAME
350
E
  3
ACAD_TABLESTYLE
350
165
  3
ACAD_VISUALSTYLE
350
2A
  0
SUN
  5
3F
330
29
100
AcDbSun
 90
        1
290
     0
 63
     7
421
 16777215
 40
1.0
291
     1
 91
  2455826
 92
 54000000
292
     0
 70
     2
 71
   256
280
     1
  0
DICTIONARY
  5
D
102
{ACAD_REACTORS
330
C
102
}
330
C
100
AcDbDictionary
281
     1
  0
DICTIONARY
  5
1A
102
{ACAD_REACTORS
330
C
102
}
330
C
100
AcDbDictionary
281
     1
  3
Layout1
350
1E
  3
Layout2
350
26
  3
Model
350
22
  0
DICTIONARY
  5
3B
102
{ACAD_REACTORS
330
C
102
}
330
C
100
AcDbDictionary
281
     1
  3
ByBlock
350
3D
  3
ByLayer
350
3C
  3
Global
350
3E
  0
DICTIONARY
  5
166
102
{ACAD_REACTORS
330
C
102
}
330
C
100
AcDbDictionary
281
     1
  0
DICTIONARY
  5
17
102
{ACAD_REACTORS
330
C
102
}
330
C
100
AcDbDictionary
281
     1
  3
Standard
350
18
  0
DICTIONARY
  5
19
102
{ACAD_REACTORS
330
C
102
}
330
C
100
AcDbDictionary
281
     1
  0
ACDBDICTIONARYWDFLT
  5
E
102
{ACAD_REACTORS
330
C
102
}
330
C
100
AcDbDictionary
281
     1
  3
Normal
350
F
100
AcDbDictionaryWithDefault
340
F
  0
DICTIONARY
  5
165
102
{ACAD_REACTORS
330
C
102
}
330
C
100
AcDbDictionary
281
     1
  0
DICTIONARY
  5
2A
102
{ACAD_REACTORS
330
C
102
}
330
C
100
AcDbDictionary
281
     1
  3
2dWireframe
350
2F
  3
3D Hidden
350
31
  3
3dWireframe
350
30
  3
Basic
350
32
  3
Brighten
350
36
  3
ColorChange
350
3A
  3
Conceptual
350
34
  3
Dim
350
35
  3
Facepattern
350
39
  3
Flat
350
2B
  3
FlatWithEdges
350
2C
  3
Gouraud
350
2D
  3
GouraudWithEdges
350
2E
  3
Linepattern
350
38
  3
Realistic
350
33
  3
Thicken
350
37
  0
LAYOUT
  5
1E
102
{ACAD_REACTORS
330
1A
102
}
330
1A
100
AcDbPlotSettings
  1

  2
none_device
  4

  6

 40
0.0
 41
0.0
 42
0.0
 43
0.0
 44
0.0
 45
0.0
 46
0.0
 47
0.0
 48
0.0
 49
0.0
140
0.0
141
0.0
142
1.0
143
1.0
 70
   688
 72
     0
 73
     0
 74
     5
  7

 75
    16
 76
     0
 77
     2
 78
   300
147
1.0
148
0.0
149
0.0
100
AcDbLayout
  1
Layout1
 70
     1
 71
     1
 10
0.0
 20
0.0
 11
12.0
 21
9.0
 12
0.0
 22
0.0
 32
0.0
 14
1.000000000000000E+20
 24
1.000000000000000E+20
 34
1.000000000000000E+20
 15
-1.000000000000000E+20
 25
-1.000000000000000E+20
 35
-1.000000000000000E+20
146
0.0
 13
0.0
 23
0.0
 33
0.0
 16
1.0
 26
0.0
 36
0.0
 17
0.0
 27
1.0
 37
0.0
 76
     0
330
1B
  0
LAYOUT
  5
26
102
{ACAD_REACTORS
330
1A
102
}
330
1A
100
AcDbPlotSettings
  1

  2
none_device
  4

  6

 40
0.0
 41
0.0
 42
0.0
 43
0.0
 44
0.0
 45
0.0
 46
0.0
 47
0.0
 48
0.0
 49
0.0
140
0.0
141
0.0
142
1.0
143
1.0
 70
   688
 72
     0
 73
     0
 74
     5
  7

 75
    16
 76
     0
 77
     2
 78
   300
147
1.0
148
0.0
149
0.0
100
AcDbLayout
  1
Layout2
 70
     1
 71
     2
 10
0.0
 20
0.0
 11
0.0
 21
0.0
 12
0.0
 22
0.0
 32
0.0
 14
0.0
 24
0.0
 34
0.0
 15
0.0
 25
0.0
 35
0.0
146
0.0
 13
0.0
 23
0.0
 33
0.0
 16
1.0
 26
0.0
 36
0.0
 17
0.0
 27
1.0
 37
0.0
 76
     0
330
23
  0
LAYOUT
  5
22
102
{ACAD_REACTORS
330
1A
102
}
330
1A
100
AcDbPlotSettings
  1

  2
none_device
  4

  6

 40
0.0
 41
0.0
 42
0.0
 43
0.0
 44
0.0
 45
0.0
 46
0.0
 47
0.0
 48
0.0
 49
0.0
140
0.0
141
0.0
142
1.0
143
1.0
 70
  1712
 72
     0
 73
     0
 74
     0
  7

 75
     0
 76
     0
 77
     2
 78
   300
147
1.0
148
0.0
149
0.0
100
AcDbLayout
  1
Model
 70
     1
 71
     0
 10
0.0
 20
0.0
 11
12.0
 21
9.0
 12
0.0
 22
0.0
 32
0.0
 14
1.000000000000000E+20
 24
1.000000000000000E+20
 34
1.000000000000000E+20
 15
-1.000000000000000E+20
 25
-1.000000000000000E+20
 35
-1.000000000000000E+20
146
0.0
 13
0.0
 23
0.0
 33
0.0
 16
1.0
 26
0.0
 36
0.0
 17
0.0
 27
1.0
 37
0.0
 76
     0
330
1F
331
29
  0
MATERIAL
  5
3D
102
{ACAD_REACTORS
330
3B
102
}
330
3B
100
AcDbMaterial
  1
ByBlock
 72
     1
 94
      127
  0
MATERIAL
  5
3C
102
{ACAD_REACTORS
330
3B
102
}
330
3B
100
AcDbMaterial
  1
ByLayer
 72
     1
 94
      127
  0
MATERIAL
  5
3E
102
{ACAD_REACTORS
330
3B
102
}
330
3B
100
AcDbMaterial
  1
Global
 72
     1
 94
      127
  0
MLINESTYLE
  5
18
102
{ACAD_REACTORS
330
17
102
}
330
17
100
AcDbMlineStyle
  2
Standard
 70
     0
  3

 62
   256
 51
90.0
 52
90.0
 71
     2
 49
0.5
 62
   256
  6
BYLAYER
 49
-0.5
 62
   256
  6
BYLAYER
  0
ACDBPLACEHOLDER
  5
F
102
{ACAD_REACTORS
330
E
102
}
330
E
  0
VISUALSTYLE
  5
2F
102
{ACAD_REACTORS
330
2A
102
}
330
2A
100
AcDbVisualStyle
  2
2dWireframe
 70
     4
177
     2
291
     0
 71
     0
176
     1
 72
     2
176
     1
 73
     0
176
     1
 90
        0
176
     1
 40
-0.6
176
     1
 41
-30.0
176
     1
 62
     5
 63
     7
421
 16777215
176
     1
 74
     1
176
     1
 91
        4
176
     1
 64
     7
176
     1
 65
   257
176
     1
 75
     1
176
     1
175
     1
176
     1
 42
1.0
176
     1
 92
        0
176
     1
 66
   257
176
     1
 43
1.0
176
     1
 76
     1
176
     1
 77
     6
176
     1
 78
     2
176
     1
 67
     7
176
     1
 79
     5
176
     1
170
     0
176
     1
171
     0
176
     1
290
     0
176
     1
 93
        1
176
     1
 44
0.0
176
     1
173
     0
176
     1
  0
VISUALSTYLE
  5
31
102
{ACAD_REACTORS
330
2A
102
}
330
2A
100
AcDbVisualStyle
  2
3D Hidden
 70
     6
177
     2
291
     0
 71
     1
176
     1
 72
     2
176
     1
 73
     2
176
     1
 90
        0
176
     1
 40
-0.6
176
     1
 41
-30.0
176
     1
 62
     5
 63
     7
421
 16777215
176
     1
 74
     2
176
     1
 91
        2
176
     1
 64
     7
176
     1
 65
   257
176
     1
 75
     2
176
     1
175
     1
176
     1
 42
40.0
176
     1
 92
        0
176
     1
 66
   257
176
     1
 43
1.0
176
     1
 76
     1
176
     1
 77
     6
176
     1
 78
     2
176
     1
 67
     7
176
     1
 79
     3
176
     1
170
     0
176
     1
171
     0
176
     1
290
     0
176
     1
 93
        1
176
     1
 44
0.0
176
     1
173
     0
176
     1
  0
VISUALSTYLE
  5
30
102
{ACAD_REACTORS
330
2A
102
}
330
2A
100
AcDbVisualStyle
  2
3dWireframe
 70
     5
177
     2
291
     0
 71
     0
176
     1
 72
     2
176
     1
 73
     0
176
     1
 90
        0
176
     1
 40
-0.6
176
     1
 41
-30.0
176
     1
 62
     5
 63
     7
421
 16777215
176
     1
 74
     1
176
     1
 91
        4
176
     1
 64
     7
176
     1
 65
   257
176
     1
 75
     1
176
     1
175
     1
176
     1
 42
1.0
176
     1
 92
        0
176
     1
 66
   257
176
     1
 43
1.0
176
     1
 76
     1
176
     1
 77
     6
176
     1
 78
     2
176
     1
 67
     7
176
     1
 79
     5
176
     1
170
     0
176
     1
171
     0
176
     1
290
     0
176
     1
 93
        1
176
     1
 44
0.0
176
     1
173
     0
176
     1
  0
VISUALSTYLE
  5
32
102
{ACAD_REACTORS
330
2A
102
}
330
2A
100
AcDbVisualStyle
  2
Basic
 70
     7
177
     2
291
     1
 71
     1
176
     1
 72
     0
176
     1
 73
     1
176
     1
 90
        0
176
     1
 40
-0.6
176
     1
 41
-30.0
176
     1
 62
     5
 63
     7
421
 16777215
176
     1
 74
     0
176
     1
 91
        4
176
     1
 64
     7
176
     1
 65
   257
176
     1
 75
     1
176
     1
175
     1
176
     1
 42
1.0
176
     1
 92
        8
176
     1
 66
     7
176
     1
 43
1.0
176
     1
 76
     1
176
     1
 77
     6
176
     1
 78
     2
176
     1
 67
     7
176
     1
 79
     5
176
     1
170
     0
176
     1
171
     0
176
     1
290
     0
176
     1
 93
        1
176
     1
 44
0.0
176
     1
173
     0
176
     1
  0
VISUALSTYLE
  5
36
102
{ACAD_REACTORS
330
2A
102
}
330
2A
100
AcDbVisualStyle
  2
Brighten
 70
    12
177
     2
291
     1
 71
     2
176
     1
 72
     2
176
     1
 73
     0
176
     1
 90
        0
176
     1
 40
-0.6
176
     1
 41
-30.0
176
     1
 62
     5
 63
     7
421
 16777215
176
     1
 74
     1
176
     1
 91
        4
176
     1
 64
     7
176
     1
 65
   257
176
     1
 75
     1
176
     1
175
     1
176
     1
 42
1.0
176
     1
 92
        8
176
     1
 66
     7
176
     1
 43
1.0
176
     1
 76
     1
176
     1
 77
     6
176
     1
 78
     2
176
     1
 67
     7
176
     1
 79
     5
176
     1
170
     0
176
     1
171
     0
176
     1
290
     0
176
     1
 93
        1
176
     1
 44
50.0
176
     1
173
     0
176
     1
  0
VISUALSTYLE
  5
3A
102
{ACAD_REACTORS
330
2A
102
}
330
2A
100
AcDbVisualStyle
  2
ColorChange
 70
    16
177
     2
291
     1
 71
     2
176
     1
 72
     2
176
     1
 73
     3
176
     1
 90
        0
176
     1
 40
-0.6
176
     1
 41
-30.0
176
     1
 62
     5
 63
     8
421
  8421504
176
     1
 74
     1
176
     1
 91
        4
176
     1
 64
     7
176
     1
 65
   257
176
     1
 75
     1
176
     1
175
     1
176
     1
 42
1.0
176
     1
 92
        8
176
     1
 66
     8
424
  8421504
176
     1
 43
1.0
176
     1
 76
     1
176
     1
 77
     6
176
     1
 78
     2
176
     1
 67
     7
176
     1
 79
     5
176
     1
170
     0
176
     1
171
     0
176
     1
290
     0
176
     1
 93
        1
176
     1
 44
0.0
176
     1
173
     0
176
     1
  0
VISUALSTYLE
  5
34
102
{ACAD_REACTORS
330
2A
102
}
330
2A
100
AcDbVisualStyle
  2
Conceptual
 70
     9
177
     2
291
     0
 71
     3
176
     1
 72
     2
176
     1
 73
     0
176
     1
 90
        0
176
     1
 40
-0.6
176
     1
 41
-30.0
176
     1
 62
     5
 63
     7
421
 16777215
176
     1
 74
     2
176
     1
 91
        2
176
     1
 64
     7
176
     1
 65
   257
176
     1
 75
     1
176
     1
175
     1
176
     1
 42
40.0
176
     1
 92
        8
176
     1
 66
     7
176
     1
 43
1.0
176
     1
 76
     1
176
     1
 77
     6
176
     1
 78
     2
176
     1
 67
     7
176
     1
 79
     3
176
     1
170
     0
176
     1
171
     0
176
     1
290
     0
176
     1
 93
        1
176
     1
 44
0.0
176
     1
173
     0
176
     1
  0
VISUALSTYLE
  5
35
102
{ACAD_REACTORS
330
2A
102
}
330
2A
100
AcDbVisualStyle
  2
Dim
 70
    11
177
     2
291
     1
 71
     2
176
     1
 72
     2
176
     1
 73
     0
176
     1
 90
        0
176
     1
 40
-0.6
176
     1
 41
-30.0
176
     1
 62
     5
 63
     7
421
 16777215
176
     1
 74
     1
176
     1
 91
        4
176
     1
 64
     7
176
     1
 65
   257
176
     1
 75
     1
176
     1
175
     1
176
     1
 42
1.0
176
     1
 92
        8
176
     1
 66
     7
176
     1
 43
1.0
176
     1
 76
     1
176
     1
 77
     6
176
     1
 78
     2
176
     1
 67
     7
176
     1
 79
     5
176
     1
170
     0
176
     1
171
     0
176
     1
290
     0
176
     1
 93
        1
176
     1
 44
-50.0
176
     1
173
     0
176
     1
  0
VISUALSTYLE
  5
39
102
{ACAD_REACTORS
330
2A
102
}
330
2A
100
AcDbVisualStyle
  2
Facepattern
 70
    15
177
     2
291
     1
 71
     2
176
     1
 72
     2
176
     1
 73
     0
176
     1
 90
        0
176
     1
 40
-0.6
176
     1
 41
-30.0
176
     1
 62
     5
 63
     7
421
 16777215
176
     1
 74
     1
176
     1
 91
        4
176
     1
 64
     7
176
     1
 65
   257
176
     1
 75
     1
176
     1
175
     1
176
     1
 42
1.0
176
     1
 92
        8
176
     1
 66
     7
176
     1
 43
1.0
176
     1
 76
     1
176
     1
 77
     6
176
     1
 78
     2
176
     1
 67
     7
176
     1
 79
     5
176
     1
170
     0
176
     1
171
     0
176
     1
290
     0
176
     1
 93
        1
176
     1
 44
0.0
176
     1
173
     0
176
     1
  0
VISUALSTYLE
  5
2B
102
{ACAD_REACTORS
330
2A
102
}
330
2A
100
AcDbVisualStyle
  2
Flat
 70
     0
177
     2
291
     1
 71
     2
176
     1
 72
     1
176
     1
 73
     1
176
     1
 90
        2
176
     1
 40
-0.6
176
     1
 41
30.0
176
     1
 62
     5
 63
     7
421
 16777215
176
     1
 74
     0
176
     1
 91
        4
176
     1
 64
     7
176
     1
 65
   257
176
     1
 75
     1
176
     1
175
     1
176
     1
 42
1.0
176
     1
 92
        8
176
     1
 66
     7
176
     1
 43
1.0
176
     1
 76
     1
176
     1
 77
     6
176
     1
 78
     2
176
     1
 67
     7
176
     1
 79
     5
176
     1
170
     0
176
     1
171
     0
176
     1
290
     0
176
     1
 93
       13
176
     1
 44
0.0
176
     1
173
     0
176
     1
  0
VISUALSTYLE
  5
2C
102
{ACAD_REACTORS
330
2A
102
}
330
2A
100
AcDbVisualStyle
  2
FlatWithEdges
 70
     1
177
     2
291
     1
 71
     2
176
     1
 72
     1
176
     1
 73
     1
176
     1
 90
        2
176
     1
 40
-0.6
176
     1
 41
30.0
176
     1
 62
     5
 63
     7
421
 16777215
176
     1
 74
     1
176
     1
 91
        4
176
     1
 64
     7
176
     1
 65
   257
176
     1
 75
     1
176
     1
175
     1
176
     1
 42
1.0
176
     1
 92
        0
176
     1
 66
   257
176
     1
 43
1.0
176
     1
 76
     1
176
     1
 77
     6
176
     1
 78
     2
176
     1
 67
     7
176
     1
 79
     5
176
     1
170
     0
176
     1
171
     0
176
     1
290
     0
176
     1
 93
       13
176
     1
 44
0.0
176
     1
173
     0
176
     1
  0
VISUALSTYLE
  5
2D
102
{ACAD_REACTORS
330
2A
102
}
330
2A
100
AcDbVisualStyle
  2
Gouraud
 70
     2
177
     2
291
     1
 71
     2
176
     1
 72
     2
176
     1
 73
     1
176
     1
 90
        2
176
     1
 40
-0.6
176
     1
 41
30.0
176
     1
 62
     5
 63
     7
421
 16777215
176
     1
 74
     0
176
     1
 91
        4
176
     1
 64
     7
176
     1
 65
   257
176
     1
 75
     1
176
     1
175
     1
176
     1
 42
1.0
176
     1
 92
        0
176
     1
 66
     7
176
     1
 43
1.0
176
     1
 76
     1
176
     1
 77
     6
176
     1
 78
     2
176
     1
 67
     7
176
     1
 79
     5
176
     1
170
     0
176
     1
171
     0
176
     1
290
     0
176
     1
 93
       13
176
     1
 44
0.0
176
     1
173
     0
176
     1
  0
VISUALSTYLE
  5
2E
102
{ACAD_REACTORS
330
2A
102
}
330
2A
100
AcDbVisualStyle
  2
GouraudWithEdges
 70
     3
177
     2
291
     1
 71
     2
176
     1
 72
     2
176
     1
 73
     1
176
     1
 90
        2
176
     1
 40
-0.6
176
     1
 41
30.0
176
     1
 62
     5
 63
     7
421
 16777215
176
     1
 74
     1
176
     1
 91
        4
176
     1
 64
     7
176
     1
 65
   257
176
     1
 75
     1
176
     1
175
     1
176
     1
 42
1.0
176
     1
 92
        0
176
     1
 66
   257
176
     1
 43
1.0
176
     1
 76
     1
176
     1
 77
     6
176
     1
 78
     2
176
     1
 67
     7
176
     1
 79
     5
176
     1
170
     0
176
     1
171
     0
176
     1
290
     0
176
     1
 93
       13
176
     1
 44
0.0
176
     1
173
     0
176
     1
  0
VISUALSTYLE
  5
38
102
{ACAD_REACTORS
330
2A
102
}
330
2A
100
AcDbVisualStyle
  2
Linepattern
 70
    14
177
     2
291
     1
 71
     2
176
     1
 72
     2
176
     1
 73
     0
176
     1
 90
        0
176
     1
 40
-0.6
176
     1
 41
-30.0
176
     1
 62
     5
 63
     7
421
 16777215
176
     1
 74
     1
176
     1
 91
        4
176
     1
 64
     7
176
     1
 65
   257
176
     1
 75
     7
176
     1
175
     7
176
     1
 42
1.0
176
     1
 92
        8
176
     1
 66
     7
176
     1
 43
1.0
176
     1
 76
     1
176
     1
 77
     6
176
     1
 78
     2
176
     1
 67
     7
176
     1
 79
     5
176
     1
170
     0
176
     1
171
     0
176
     1
290
     0
176
     1
 93
        1
176
     1
 44
0.0
176
     1
173
     0
176
     1
  0
VISUALSTYLE
  5
33
102
{ACAD_REACTORS
330
2A
102
}
330
2A
100
AcDbVisualStyle
  2
Realistic
 70
     8
177
     2
291
     0
 71
     2
176
     1
 72
     2
176
     1
 73
     0
176
     1
 90
        0
176
     1
 40
-0.6
176
     1
 41
-30.0
176
     1
 62
     5
 63
     7
421
 16777215
176
     1
 74
     1
176
     1
 91
        0
176
     1
 64
     7
176
     1
 65
   257
176
     1
 75
     1
176
     1
175
     1
176
     1
 42
1.0
176
     1
 92
        8
176
     1
 66
     8
424
  7895160
176
     1
 43
1.0
176
     1
 76
     1
176
     1
 77
     6
176
     1
 78
     2
176
     1
 67
     7
176
     1
 79
     5
176
     1
170
     0
176
     1
171
     0
176
     1
290
     0
176
     1
 93
       13
176
     1
 44
0.0
176
     1
173
     0
176
     1
  0
VISUALSTYLE
  5
37
102
{ACAD_REACTORS
330
2A
102
}
330
2A
100
AcDbVisualStyle
  2
Thicken
 70
    13
177
     2
291
     1
 71
     2
176
     1
 72
     2
176
     1
 73
     0
176
     1
 90
        0
176
     1
 40
-0.6
176
     1
 41
-30.0
176
     1
 62
     5
 63
     7
421
 16777215
176
     1
 74
     1
176
     1
 91
        4
176
     1
 64
     7
176
     1
 65
   257
176
     1
 75
     1
176
     1
175
     1
176
     1
 42
1.0
176
     1
 92
       12
176
     1
 66
     7
176
     1
 43
1.0
176
     1
 76
     1
176
     1
 77
     6
176
     1
 78
     2
176
     1
 67
     7
176
     1
 79
     5
176
     1
170
     0
176
     1
171
     0
176
     1
290
     0
176
     1
 93
        1
176
     1
 44
0.0
176
     1
173
     0
176
     1
  0
ENDSEC
  0
EOF
