  0
SECTION
  2
HEADER
  9
$ACADVER
  1
AC1024
  9
$ACADMAINTVER
 70
     6
  9
$DWGCODEPAGE
  3
UNDEFINED
  9
$INSBASE
 10
0.0
 20
0.0
 30
0.0
  9
$EXTMIN
 10
1.000000000000000E+20
 20
1.000000000000000E+20
 30
1.000000000000000E+20
  9
$EXTMAX
 10
-1.000000000000000E+20
 20
-1.000000000000000E+20
 30
-1.000000000000000E+20
  9
$LIMMIN
 10
0.0
 20
0.0
  9
$LIMMAX
 10
12.0
 20
9.0
  9
$ORTHOMODE
 70
     0
  9
$REGENMODE
 70
     1
  9
$FILLMODE
 70
     1
  9
$QTEXTMODE
 70
     0
  9
$MIRRTEXT
 70
     1
  9
$LTSCALE
 40
1.0
  9
$ATTMODE
 70
     1
  9
$TEXTSIZE
 40
0.2
  9
$TRACEWID
 40
0.05
  9
$TEXTSTYLE
  7
Standard
  9
$CLAYER
  8
0
  9
$CELTYPE
  6
ByLayer
  9
$CECOLOR
 62
   256
  9
$CELTSCALE
 40
1.0
  9
$DISPSILH
 70
     0
  9
$DIMSCALE
 40
1.0
  9
$DIMASZ
 40
0.18
  9
$DIMEXO
 40
0.0625
  9
$DIMDLI
 40
0.38
  9
$DIMRND
 40
0.0
  9
$DIMDLE
 40
0.0
  9
$DIMEXE
 40
0.18
  9
$DIMTP
 40
0.0
  9
$DIMTM
 40
0.0
  9
$DIMTXT
 40
0.18
  9
$DIMCEN
 40
0.09
  9
$DIMTSZ
 40
0.0
  9
$DIMTOL
 70
     0
  9
$DIMLIM
 70
     0
  9
$DIMTIH
 70
     1
  9
$DIMTOH
 70
     1
  9
$DIMSE1
 70
     0
  9
$DIMSE2
 70
     0
  9
$DIMTAD
 70
     0
  9
$DIMZIN
 70
     0
  9
$DIMBLK
  1

  9
$DIMASO
 70
     1
  9
$DIMSHO
 70
     1
  9
$DIMPOST
  1

  9
$DIMAPOST
  1

  9
$DIMALT
 70
     0
  9
$DIMALTD
 70
     2
  9
$DIMALTF
 40
25.4
  9
$DIMLFAC
 40
1.0
  9
$DIMTOFL
 70
     0
  9
$DIMTVP
 40
0.0
  9
$DIMTIX
 70
     0
  9
$DIMSOXD
 70
     0
  9
$DIMSAH
 70
     0
  9
$DIMBLK1
  1

  9
$DIMBLK2
  1

  9
$DIMSTYLE
  2
Standard
  9
$DIMCLRD
 70
     0
  9
$DIMCLRE
 70
     0
  9
$DIMCLRT
 70
     0
  9
$DIMTFAC
 40
1.0
  9
$DIMGAP
 40
0.09
  9
$DIMJUST
 70
     0
  9
$DIMSD1
 70
     0
  9
$DIMSD2
 70
     0
  9
$DIMTOLJ
 70
     1
  9
$DIMTZIN
 70
     0
  9
$DIMALTZ
 70
     0
  9
$DIMALTTZ
 70
     0
  9
$DIMUPT
 70
     0
  9
$DIMDEC
 70
     4
  9
$DIMTDEC
 70
     4
  9
$DIMALTU
 70
     2
  9
$DIMALTTD
 70
     2
  9
$DIMTXSTY
  7
Standard
  9
$DIMAUNIT
 70
     0
  9
$DIMADEC
 70
     0
  9
$DIMALTRND
 40
0.0
  9
$DIMAZIN
 70
     0
  9
$DIMDSEP
 70
    46
  9
$DIMATFIT
 70
     3
  9
$DIMFRAC
 70
     0
  9
$DIMLDRBLK
  1

  9
$DIMLUNIT
 70
     2
  9
$DIMLWD
 70
    -2
  9
$DIMLWE
 70
    -2
  9
$DIMTMOVE
 70
     0
  9
$DIMFXL
 40
1.0
  9
$DIMFXLON
 70
     0
  9
$DIMJOGANG
 40
0.7853981633974483
  9
$DIMTFILL
 70
     0
  9
$DIMTFILLCLR
 70
     0
  9
$DIMARCSYM
 70
     0
  9
$DIMLTYPE
  6

  9
$DIMLTEX1
  6

  9
$DIMLTEX2
  6

  9
$DIMTXTDIRECTION
 70
     0
  9
$LUNITS
 70
     2
  9
$LUPREC
 70
     4
  9
$SKETCHINC
 40
0.1
  9
$FILLETRAD
 40
0.5
  9
$AUNITS
 70
     0
  9
$AUPREC
 70
     0
  9
$MENU
  1
.
  9
$ELEVATION
 40
0.0
  9
$PELEVATION
 40
0.0
  9
$THICKNESS
 40
0.0
  9
$LIMCHECK
 70
     0
  9
$CHAMFERA
 40
0.5
  9
$CHAMFERB
 40
0.5
  9
$CHAMFERC
 40
1.0
  9
$CHAMFERD
 40
0.0
  9
$SKPOLY
 70
     0
  9
$TDCREATE
 40
2457917.626631933
  9
$TDUCREATE
 40
2457917.251631944
  9
$TDUPDATE
 40
2457917.626631933
  9
$TDUUPDATE
 40
2457917.251631944
  9
$TDINDWG
 40
0.0000000116
  9
$TDUSRTIMER
 40
0.0000000116
  9
$USRTIMER
 70
     1
  9
$ANGBASE
 50
0.0
  9
$ANGDIR
 70
     0
  9
$PDMODE
 70
     0
  9
$PDSIZE
 40
0.0
  9
$PLINEWID
 40
0.0
  9
$SPLFRAME
 70
     0
  9
$SPLINETYPE
 70
     6
  9
$SPLINESEGS
 70
     8
  9
$HANDSEED
  5
172
  9
$SURFTAB1
 70
     6
  9
$SURFTAB2
 70
     6
  9
$SURFTYPE
 70
     6
  9
$SURFU
 70
     6
  9
$SURFV
 70
     6
  9
$UCSBASE
  2

  9
$UCSNAME
  2

  9
$UCSORG
 10
0.0
 20
0.0
 30
0.0
  9
$UCSXDIR
 10
1.0
 20
0.0
 30
0.0
  9
$UCSYDIR
 10
0.0
 20
1.0
 30
0.0
  9
$UCSORTHOREF
  2

  9
$UCSORTHOVIEW
 70
     0
  9
$UCSORGTOP
 10
0.0
 20
0.0
 30
0.0
  9
$UCSORGBOTTOM
 10
0.0
 20
0.0
 30
0.0
  9
$UCSORGLEFT
 10
0.0
 20
0.0
 30
0.0
  9
$UCSORGRIGHT
 10
0.0
 20
0.0
 30
0.0
  9
$UCSORGFRONT
 10
0.0
 20
0.0
 30
0.0
  9
$UCSORGBACK
 10
0.0
 20
0.0
 30
0.0
  9
$PUCSBASE
  2

  9
$PUCSNAME
  2

  9
$PUCSORG
 10
0.0
 20
0.0
 30
0.0
  9
$PUCSXDIR
 10
1.0
 20
0.0
 30
0.0
  9
$PUCSYDIR
 10
0.0
 20
1.0
 30
0.0
  9
$PUCSORTHOREF
  2

  9
$PUCSORTHOVIEW
 70
     0
  9
$PUCSORGTOP
 10
0.0
 20
0.0
 30
0.0
  9
$PUCSORGBOTTOM
 10
0.0
 20
0.0
 30
0.0
  9
$PUCSORGLEFT
 10
0.0
 20
0.0
 30
0.0
  9
$PUCSORGRIGHT
 10
0.0
 20
0.0
 30
0.0
  9
$PUCSORGFRONT
 10
0.0
 20
0.0
 30
0.0
  9
$PUCSORGBACK
 10
0.0
 20
0.0
 30
0.0
  9
$USERI1
 70
     0
  9
$USERI2
 70
     0
  9
$USERI3
 70
     0
  9
$USERI4
 70
     0
  9
$USERI5
 70
     0
  9
$USERR1
 40
0.0
  9
$USERR2
 40
0.0
  9
$USERR3
 40
0.0
  9
$USERR4
 40
0.0
  9
$USERR5
 40
0.0
  9
$WORLDVIEW
 70
     1
  9
$SHADEDGE
 70
     3
  9
$SHADEDIF
 70
    70
  9
$TILEMODE
 70
     1
  9
$MAXACTVP
 70
    64
  9
$PINSBASE
 10
0.0
 20
0.0
 30
0.0
  9
$PLIMCHECK
 70
     0
  9
$PEXTMIN
 10
1.000000000000000E+20
 20
1.000000000000000E+20
 30
1.000000000000000E+20
  9
$PEXTMAX
 10
-1.000000000000000E+20
 20
-1.000000000000000E+20
 30
-1.000000000000000E+20
  9
$PLIMMIN
 10
0.0
 20
0.0
  9
$PLIMMAX
 10
12.0
 20
9.0
  9
$UNITMODE
 70
     0
  9
$VISRETAIN
 70
     1
  9
$PLINEGEN
 70
     0
  9
$PSLTSCALE
 70
     1
  9
$TREEDEPTH
 70
  3020
  9
$CMLSTYLE
  2
Standard
  9
$CMLJUST
 70
     0
  9
$CMLSCALE
 40
1.0
  9
$PROXYGRAPHICS
 70
     1
  9
$MEASUREMENT
 70
     0
  9
$CELWEIGHT
370
    -1
  9
$ENDCAPS
280
     0
  9
$JOINSTYLE
280
     0
  9
$LWDISPLAY
290
     1
  9
$INSUNITS
 70
     1
  9
$HYPERLINKBASE
  1

  9
$STYLESHEET
  1

  9
$XEDIT
290
     1
  9
$CEPSNTYPE
380
     0
  9
$PSTYLEMODE
290
     1
  9
$FINGERPRINTGUID
  2
{ACFE999A-6936-3486-AF78-574D1DD7C417}
  9
$VERSIONGUID
  2
{FAEB1C32-E019-11D5-929B-00C0DF256EC4}
  9
$EXTNAMES
290
     1
  9
$PSVPSCALE
 40
0.0
  9
$OLESTARTUP
290
     0
  9
$SORTENTS
280
   127
  9
$INDEXCTL
280
     0
  9
$HIDETEXT
280
     1
  9
$XCLIPFRAME
280
     2
  9
$HALOGAP
280
     0
  9
$OBSCOLOR
 70
   257
  9
$OBSLTYPE
280
     0
  9
$INTERSECTIONDISPLAY
280
     0
  9
$INTERSECTIONCOLOR
 70
   257
  9
$DIMASSOC
280
     2
  9
$PROJECTNAME
  1

  9
$CAMERADISPLAY
290
     0
  9
$LENSLENGTH
 40
50.0
  9
$CAMERAHEIGHT
 40
0.0
  9
$STEPSPERSEC
 40
2.0
  9
$STEPSIZE
 40
6.0
  9
$3DDWFPREC
 40
2.0
  9
$PSOLWIDTH
 40
0.25
  9
$PSOLHEIGHT
 40
4.0
  9
$LOFTANG1
 40
1.570796326794897
  9
$LOFTANG2
 40
1.570796326794897
  9
$LOFTMAG1
 40
0.0
  9
$LOFTMAG2
 40
0.0
  9
$LOFTPARAM
 70
     7
  9
$LOFTNORMALS
280
     1
  9
$LATITUDE
 40
37.795
  9
$LONGITUDE
 40
-122.394
  9
$NORTHDIRECTION
 40
0.0
  9
$TIMEZONE
 70
 -8000
  9
$LIGHTGLYPHDISPLAY
280
     1
  9
$TILEMODELIGHTSYNCH
280
     1
  9
$CMATERIAL
347
3C
  9
$SOLIDHIST
280
     1
  9
$SHOWHIST
280
     1
  9
$DWFFRAME
280
     2
  9
$DGNFRAME
280
     2
  9
$REALWORLDSCALE
290
     1
  9
$INTERFERECOLOR
 62
   256
  9
$CSHADOW
280
     0
  9
$SHADOWPLANELOCATION
 40
0.0
  0
ENDSEC
  0
SECTION
  2
CLASSES
  0
CLASS
  1
ACDBDICTIONARYWDFLT
  2
AcDbDictionaryWithDefault
  3
ObjectDBX Classes
 90
        0
 91
        4
280
     0
281
     0
  0
CLASS
  1
VISUALSTYLE
  2
AcDbVisualStyle
  3
ObjectDBX Classes
 90
     4095
 91
        4
280
     0
281
     0
  0
CLASS
  1
MATERIAL
  2
AcDbMaterial
  3
ObjectDBX Classes
 90
     1153
 91
        4
280
     0
281
     0
  0
CLASS
  1
SUN
  2
AcDbSun
  3
SCENEOE
 90
     1024
 91
        4
280
     0
281
     0
  0
ENDSEC
  0
SECTION
  2
TABLES
  0
TABLE
  2
VPORT
  5
8
330
0
100
AcDbSymbolTable
 70
     1
  0
VPORT
  5
29
330
8
100
AcDbSymbolTableRecord
100
AcDbViewportTableRecord
  2
*Active
 70
     0
 10
0.0
 20
0.0
 11
1.0
 21
1.0
 12
0.0
 22
0.0
 13
0.0
 23
0.0
 14
0.5
 24
0.5
 15
0.5
 25
0.5
 16
0.0
 26
0.0
 36
1.0
 17
91.00082462281999
 27
-128.4993055234307
 37
0.0
 40
256.9986110468615
 41
0.7081814508812795
 42
50.0
 43
0.0
 44
0.0
 50
0.0
 51
0.0
 71
     0
 72
   100
 73
     1
 74
     3
 75
     0
 76
     0
 77
     0
 78
     0
281
     0
 65
     1
110
0.0
120
0.0
130
0.0
111
1.0
121
0.0
131
0.0
112
0.0
122
1.0
132
0.0
 79
     0
146
0.0
 60
     3
 61
     5
292
     1
282
     1
141
0.0
142
0.0
 63
   250
361
3F
  0
ENDTAB
  0
TABLE
  2
LTYPE
  5
5
330
0
100
AcDbSymbolTable
 70
     1
  0
LTYPE
  5
14
330
5
100
AcDbSymbolTableRecord
100
AcDbLinetypeTableRecord
  2
ByBlock
 70
     0
  3

 72
    65
 73
     0
 40
0.0
  0
LTYPE
  5
15
330
5
100
AcDbSymbolTableRecord
100
AcDbLinetypeTableRecord
  2
ByLayer
 70
     0
  3

 72
    65
 73
     0
 40
0.0
  0
LTYPE
  5
16
330
5
100
AcDbSymbolTableRecord
100
AcDbLinetypeTableRecord
  2
Continuous
 70
     0
  3
Solid line
 72
    65
 73
     0
 40
0.0
  0
ENDTAB
  0
TABLE
  2
LAYER
  5
2
330
0
100
AcDbSymbolTable
 70
     2
  0
LAYER
  5
10
330
2
100
AcDbSymbolTableRecord
100
AcDbLayerTableRecord
  2
0
 70
     0
 62
     7
  6
Continuous
370
    -3
390
F
347
3E
  0
LAYER
  5
40
330
2
100
AcDbSymbolTableRecord
100
AcDbLayerTableRecord
  2
_U+30EC_U+30A4_U+30E4_U+30FC 1
 70
     0
 62
     7
  6
Continuous
370
    -3
390
F
347
3E
  0
ENDTAB
  0
TABLE
  2
STYLE
  5
3
330
0
100
AcDbSymbolTable
 70
     1
  0
STYLE
  5
11
330
3
100
AcDbSymbolTableRecord
100
AcDbTextStyleTableRecord
  2
Standard
 70
     0
 40
0.0
 41
1.0
 50
0.0
 71
     0
 42
0.2
  3
txt
  4

  0
ENDTAB
  0
TABLE
  2
VIEW
  5
6
330
0
100
AcDbSymbolTable
 70
     0
  0
ENDTAB
  0
TABLE
  2
UCS
  5
7
330
0
100
AcDbSymbolTable
 70
     0
  0
ENDTAB
  0
TABLE
  2
APPID
  5
9
330
0
100
AcDbSymbolTable
 70
     1
  0
APPID
  5
12
330
9
100
AcDbSymbolTableRecord
100
AcDbRegAppTableRecord
  2
ACAD
 70
     0
  0
ENDTAB
  0
TABLE
  2
DIMSTYLE
  5
A
330
0
100
AcDbSymbolTable
 70
     1
100
AcDbDimStyleTable
  0
DIMSTYLE
105
27
330
A
100
AcDbSymbolTableRecord
100
AcDbDimStyleTableRecord
  2
Standard
 70
     0
178
     0
340
11
  0
ENDTAB
  0
TABLE
  2
BLOCK_RECORD
  5
1
330
0
100
AcDbSymbolTable
 70
    10
  0
BLOCK_RECORD
  5
1F
330
1
100
AcDbSymbolTableRecord
100
AcDbBlockTableRecord
  2
*Model_Space
340
22
 70
     0
280
     1
281
     0
  0
BLOCK_RECORD
  5
1B
330
1
100
AcDbSymbolTableRecord
100
AcDbBlockTableRecord
  2
*Paper_Space
340
1E
 70
     0
280
     1
281
     0
  0
BLOCK_RECORD
  5
23
330
1
100
AcDbSymbolTableRecord
100
AcDbBlockTableRecord
  2
*Paper_Space0
340
26
 70
     0
280
     1
281
     0
  0
BLOCK_RECORD
  5
C4
330
1
100
AcDbSymbolTableRecord
100
AcDbBlockTableRecord
  2
block 2
340
0
102
{BLKREFS
331
C5
102
}
 70
     0
280
     1
281
     0
  0
BLOCK_RECORD
  5
D8
330
1
100
AcDbSymbolTableRecord
100
AcDbBlockTableRecord
  2
block 3
340
0
102
{BLKREFS
331
D9
102
}
 70
     0
280
     1
281
     0
  0
BLOCK_RECORD
  5
E8
330
1
100
AcDbSymbolTableRecord
100
AcDbBlockTableRecord
  2
block 4
340
0
102
{BLKREFS
331
E9
102
}
 70
     0
280
     1
281
     0
  0
BLOCK_RECORD
  5
101
330
1
100
AcDbSymbolTableRecord
100
AcDbBlockTableRecord
  2
block 5
340
0
102
{BLKREFS
331
102
102
}
 70
     0
280
     1
281
     0
  0
BLOCK_RECORD
  5
11F
330
1
100
AcDbSymbolTableRecord
100
AcDbBlockTableRecord
  2
block 6
340
0
102
{BLKREFS
331
120
102
}
 70
     0
280
     1
281
     0
  0
BLOCK_RECORD
  5
133
330
1
100
AcDbSymbolTableRecord
100
AcDbBlockTableRecord
  2
block 7
340
0
102
{BLKREFS
331
134
102
}
 70
     0
280
     1
281
     0
  0
BLOCK_RECORD
  5
145
330
1
100
AcDbSymbolTableRecord
100
AcDbBlockTableRecord
  2
block 8
340
0
102
{BLKREFS
331
146
102
}
 70
     0
280
     1
281
     0
  0
BLOCK_RECORD
  5
155
330
1
100
AcDbSymbolTableRecord
100
AcDbBlockTableRecord
  2
block 9
340
0
102
{BLKREFS
331
156
102
}
 70
     0
280
     1
281
     0
  0
BLOCK_RECORD
  5
167
330
1
100
AcDbSymbolTableRecord
100
AcDbBlockTableRecord
  2
block 10
340
0
102
{BLKREFS
331
168
102
}
 70
     0
280
     1
281
     0
  0
ENDTAB
  0
ENDSEC
  0
SECTION
  2
BLOCKS
  0
BLOCK
  5
20
330
1F
100
AcDbEntity
  8
0
100
AcDbBlockBegin
  2
*Model_Space
 70
     0
 10
0.0
 20
0.0
 30
0.0
  3
*Model_Space
  1

  0
ENDBLK
  5
21
330
1F
100
AcDbEntity
  8
0
100
AcDbBlockEnd
  0
BLOCK
  5
1C
330
1B
100
AcDbEntity
 67
     1
  8
0
100
AcDbBlockBegin
  2
*Paper_Space
 70
     0
 10
0.0
 20
0.0
 30
0.0
  3
*Paper_Space
  1

  0
ENDBLK
  5
1D
330
1B
100
AcDbEntity
 67
     1
  8
0
100
AcDbBlockEnd
  0
BLOCK
  5
24
330
23
100
AcDbEntity
  8
0
100
AcDbBlockBegin
  2
*Paper_Space0
 70
     0
 10
0.0
 20
0.0
 30
0.0
  3
*Paper_Space0
  1

  0
ENDBLK
  5
25
330
23
100
AcDbEntity
  8
0
100
AcDbBlockEnd
  0
BLOCK
  5
C6
330
C4
100
AcDbEntity
  8
0
100
AcDbBlockBegin
  2
block 2
 70
     0
 10
0.0
 20
0.0
 30
0.0
  3
block 2
  1

  0
SPLINE
  5
C8
330
C4
100
AcDbEntity
  8
_U+30EC_U+30A4_U+30E4_U+30FC 1
370
     0
100
AcDbSpline
210
0.0
220
0.0
230
1.0
 70
    11
 71
     3
 72
    44
 73
    40
 74
     0
 42
0.0000000001
 43
0.0000000001
 12
1.0
 22
0.0
 32
0.0
 13
1.0
 23
0.0
 33
0.0
 40
0.0
 40
0.0
 40
0.0
 40
0.0
 40
1.0
 40
1.0
 40
1.0
 40
2.0
 40
2.0
 40
2.0
 40
3.0
 40
3.0
 40
3.0
 40
4.0
 40
4.0
 40
4.0
 40
5.0
 40
5.0
 40
5.0
 40
6.0
 40
6.0
 40
6.0
 40
7.0
 40
7.0
 40
7.0
 40
8.0
 40
8.0
 40
8.0
 40
9.0
 40
9.0
 40
9.0
 40
10.0
 40
10.0
 40
10.0
 40
11.0
 40
11.0
 40
11.0
 40
12.0
 40
12.0
 40
12.0
 40
13.0
 40
13.0
 40
13.0
 40
13.0
 10
87.04584958761355
 20
-110.2370266108956
 30
0.0
 10
86.7943576171903
 20
-110.4085923660611
 30
0.0
 10
86.68652612850198
 20
-110.4886908360931
 30
0.0
 10
86.63037107209242
 20
-110.6442368972521
 30
0.0
 10
86.63037107209242
 20
-110.6442368972521
 30
0.0
 10
87.52988550329114
 20
-110.6442368972521
 30
0.0
 10
87.52988550329114
 20
-110.6442368972521
 30
0.0
 10
87.52988550329114
 20
-110.6442368972521
 30
0.0
 10
87.52988550329114
 20
-110.8661010465022
 30
0.0
 10
87.52988550329114
 20
-110.8661010465022
 30
0.0
 10
87.52988550329114
 20
-110.8661010465022
 30
0.0
 10
86.342016579977
 20
-110.8661010465022
 30
0.0
 10
86.342016579977
 20
-110.8661010465022
 30
0.0
 10
86.37887910166917
 20
-110.4793890782829
 30
0.0
 10
86.45467120234467
 20
-110.3948119841201
 30
0.0
 10
86.89943302949042
 20
-110.0721787919264
 30
0.0
 10
87.19502222212486
 20
-109.8572048336468
 30
0.0
 10
87.27081432280036
 20
-109.7839965545853
 30
0.0
 10
87.27081432280036
 20
-109.6353406843967
 30
0.0
 10
87.27081432280036
 20
-109.5071831323454
 30
0.0
 10
87.18778752160584
 20
-109.3652451983531
 30
0.0
 10
86.96041121957934
 20
-109.3652451983531
 30
0.0
 10
86.65965438371704
 20
-109.3652451983531
 30
0.0
 10
86.65000811635834
 20
-109.6146701114852
 30
0.0
 10
86.64518498267898
 20
-109.7405883514711
 30
0.0
 10
86.64518498267898
 20
-109.7405883514711
 30
0.0
 10
86.38611380218819
 20
-109.7405883514711
 30
0.0
 10
86.38611380218819
 20
-109.7405883514711
 30
0.0
 10
86.3957600695469
 20
-109.6033012963839
 30
0.0
 10
86.4081624132938
 20
-109.4820339353031
 30
0.0
 10
86.50083548184702
 20
-109.3538763832518
 30
0.0
 10
86.62795950525273
 20
-109.180071316021
 30
0.0
 10
86.84293346353233
 20
-109.1433810491031
 30
0.0
 10
86.9776366970056
 20
-109.1433810491031
 30
0.0
 10
87.2976860675853
 20
-109.1433810491031
 30
0.0
 10
87.53712020381016
 20
-109.3425075681505
 30
0.0
 10
87.53712020381016
 20
-109.6375799964621
 30
0.0
 10
87.53712020381016
 20
-109.8845933427546
 30
0.0
 10
87.40276147988543
 20
-109.9922525766686
 30
0.0
 10
87.04584958761355
 20
-110.2370266108956
 30
0.0
  0
HATCH
  5
C9
330
C4
100
AcDbEntity
  8
_U+30EC_U+30A4_U+30E4_U+30FC 1
 62
   179
420
  2234388
100
AcDbHatch
 10
0.0
 20
0.0
 30
0.0
210
0.0
220
0.0
230
1.0
  2
SOLID
 70
     1
 71
     0
 91
        1
 92
        1
 93
        1
 72
     4
 94
        3
 73
     0
 74
     1
 95
       44
 96
       40
 40
0.0
 40
0.0
 40
0.0
 40
0.0
 40
1.0
 40
1.0
 40
1.0
 40
2.0
 40
2.0
 40
2.0
 40
3.0
 40
3.0
 40
3.0
 40
4.0
 40
4.0
 40
4.0
 40
5.0
 40
5.0
 40
5.0
 40
6.0
 40
6.0
 40
6.0
 40
7.0
 40
7.0
 40
7.0
 40
8.0
 40
8.0
 40
8.0
 40
9.0
 40
9.0
 40
9.0
 40
10.0
 40
10.0
 40
10.0
 40
11.0
 40
11.0
 40
11.0
 40
12.0
 40
12.0
 40
12.0
 40
13.0
 40
13.0
 40
13.0
 40
13.0
 10
87.04584958761355
 20
-110.2370266108956
 10
86.7943576171903
 20
-110.4085923660611
 10
86.68652612850198
 20
-110.4886908360931
 10
86.63037107209242
 20
-110.6442368972521
 10
86.63037107209242
 20
-110.6442368972521
 10
87.52988550329114
 20
-110.6442368972521
 10
87.52988550329114
 20
-110.6442368972521
 10
87.52988550329114
 20
-110.6442368972521
 10
87.52988550329114
 20
-110.8661010465022
 10
87.52988550329114
 20
-110.8661010465022
 10
87.52988550329114
 20
-110.8661010465022
 10
86.342016579977
 20
-110.8661010465022
 10
86.342016579977
 20
-110.8661010465022
 10
86.37887910166917
 20
-110.4793890782829
 10
86.45467120234467
 20
-110.3948119841201
 10
86.89943302949042
 20
-110.0721787919264
 10
87.19502222212486
 20
-109.8572048336468
 10
87.27081432280036
 20
-109.7839965545853
 10
87.27081432280036
 20
-109.6353406843967
 10
87.27081432280036
 20
-109.5071831323454
 10
87.18778752160584
 20
-109.3652451983531
 10
86.96041121957934
 20
-109.3652451983531
 10
86.65965438371704
 20
-109.3652451983531
 10
86.65000811635834
 20
-109.6146701114852
 10
86.64518498267898
 20
-109.7405883514711
 10
86.64518498267898
 20
-109.7405883514711
 10
86.38611380218819
 20
-109.7405883514711
 10
86.38611380218819
 20
-109.7405883514711
 10
86.3957600695469
 20
-109.6033012963839
 10
86.4081624132938
 20
-109.4820339353031
 10
86.50083548184702
 20
-109.3538763832518
 10
86.62795950525273
 20
-109.180071316021
 10
86.84293346353233
 20
-109.1433810491031
 10
86.9776366970056
 20
-109.1433810491031
 10
87.2976860675853
 20
-109.1433810491031
 10
87.53712020381016
 20
-109.3425075681505
 10
87.53712020381016
 20
-109.6375799964621
 10
87.53712020381016
 20
-109.8845933427546
 10
87.40276147988543
 20
-109.9922525766686
 10
87.04584958761355
 20
-110.2370266108956
 97
        0
 97
        0
 75
     2
 76
     1
 98
        0
  0
SPLINE
  5
CA
330
C4
100
AcDbEntity
  8
_U+30EC_U+30A4_U+30E4_U+30FC 1
370
     0
100
AcDbSpline
210
0.0
220
0.0
230
1.0
 70
    11
 71
     3
 72
    53
 73
    49
 74
     0
 42
0.0000000001
 43
0.0000000001
 12
1.0
 22
0.0
 32
0.0
 13
1.0
 23
0.0
 33
0.0
 40
0.0
 40
0.0
 40
0.0
 40
0.0
 40
1.0
 40
1.0
 40
1.0
 40
2.0
 40
2.0
 40
2.0
 40
3.0
 40
3.0
 40
3.0
 40
4.0
 40
4.0
 40
4.0
 40
5.0
 40
5.0
 40
5.0
 40
6.0
 40
6.0
 40
6.0
 40
7.0
 40
7.0
 40
7.0
 40
8.0
 40
8.0
 40
8.0
 40
9.0
 40
9.0
 40
9.0
 40
10.0
 40
10.0
 40
10.0
 40
11.0
 40
11.0
 40
11.0
 40
12.0
 40
12.0
 40
12.0
 40
13.0
 40
13.0
 40
13.0
 40
14.0
 40
14.0
 40
14.0
 40
15.0
 40
15.0
 40
15.0
 40
16.0
 40
16.0
 40
16.0
 40
16.0
 10
88.27471514720216
 20
-110.921050319492
 30
0.0
 10
88.18445364548862
 20
-110.921050319492
 30
0.0
 10
88.0669758894416
 20
-110.9027913134201
 30
0.0
 10
87.9498426429431
 20
-110.8340616584894
 30
0.0
 10
87.74933808570155
 20
-110.715033609474
 30
0.0
 10
87.72487790775628
 20
-110.573267930256
 30
0.0
 10
87.70282929665069
 20
-110.4566514480803
 30
0.0
 10
87.70282929665069
 20
-110.4566514480803
 30
0.0
 10
87.9594889103018
 20
-110.4566514480803
 30
0.0
 10
87.9594889103018
 20
-110.4566514480803
 30
0.0
 10
88.02322317677893
 20
-110.6716254063599
 30
0.0
 10
88.16963973490203
 20
-110.7036647943727
 30
0.0
 10
88.27712671404183
 20
-110.7036647943727
 30
0.0
 10
88.43835718275153
 20
-110.7036647943727
 30
0.0
 10
88.61440156204779
 20
-110.5961778152329
 30
0.0
 10
88.61440156204779
 20
-110.3445135900354
 30
0.0
 10
88.61440156204779
 20
-110.0677001677956
 30
0.0
 10
88.40666230428722
 20
-109.9922525766686
 30
0.0
 10
88.26748044668314
 20
-109.9922525766686
 30
0.0
 10
88.23096243453949
 20
-109.9922525766686
 30
0.0
 10
88.0669758894416
 20
-109.9922525766686
 30
0.0
 10
87.96431204398115
 20
-110.1317789438212
 30
0.0
 10
87.96431204398115
 20
-110.1317789438212
 30
0.0
 10
87.76174042944845
 20
-110.1111083709097
 30
0.0
 10
87.76174042944845
 20
-110.1111083709097
 30
0.0
 10
87.76174042944845
 20
-110.1111083709097
 30
0.0
 10
87.90092228705255
 20
-109.1960910100274
 30
0.0
 10
87.90092228705255
 20
-109.1960910100274
 30
0.0
 10
87.90092228705255
 20
-109.1960910100274
 30
0.0
 10
88.80009220870276
 20
-109.1960910100274
 30
0.0
 10
88.80009220870276
 20
-109.1960910100274
 30
0.0
 10
88.80009220870276
 20
-109.1960910100274
 30
0.0
 10
88.80009220870276
 20
-109.4065863441761
 30
0.0
 10
88.80009220870276
 20
-109.4065863441761
 30
0.0
 10
88.80009220870276
 20
-109.4065863441761
 30
0.0
 10
88.0890245005472
 20
-109.4065863441761
 30
0.0
 10
88.0890245005472
 20
-109.4065863441761
 30
0.0
 10
88.0890245005472
 20
-109.4065863441761
 30
0.0
 10
88.0132323998717
 20
-109.8640950246173
 30
0.0
 10
88.0132323998717
 20
-109.8640950246173
 30
0.0
 10
88.08420136686784
 20
-109.8274047576994
 30
0.0
 10
88.17963051180926
 20
-109.7839965545853
 30
0.0
 10
88.31640080257368
 20
-109.7839965545853
 30
0.0
 10
88.60957842836844
 20
-109.7839965545853
 30
0.0
 10
88.88346351944581
 20
-109.9853623856981
 30
0.0
 10
88.88346351944581
 20
-110.3238430171239
 30
0.0
 10
88.88346351944581
 20
-110.6671467822291
 30
0.0
 10
88.62439233895502
 20
-110.921050319492
 30
0.0
 10
88.27471514720216
 20
-110.921050319492
 30
0.0
  0
HATCH
  5
CB
330
C4
100
AcDbEntity
  8
_U+30EC_U+30A4_U+30E4_U+30FC 1
 62
   179
420
  2234388
100
AcDbHatch
 10
0.0
 20
0.0
 30
0.0
210
0.0
220
0.0
230
1.0
  2
SOLID
 70
     1
 71
     0
 91
        1
 92
        1
 93
        1
 72
     4
 94
        3
 73
     0
 74
     1
 95
       53
 96
       49
 40
0.0
 40
0.0
 40
0.0
 40
0.0
 40
1.0
 40
1.0
 40
1.0
 40
2.0
 40
2.0
 40
2.0
 40
3.0
 40
3.0
 40
3.0
 40
4.0
 40
4.0
 40
4.0
 40
5.0
 40
5.0
 40
5.0
 40
6.0
 40
6.0
 40
6.0
 40
7.0
 40
7.0
 40
7.0
 40
8.0
 40
8.0
 40
8.0
 40
9.0
 40
9.0
 40
9.0
 40
10.0
 40
10.0
 40
10.0
 40
11.0
 40
11.0
 40
11.0
 40
12.0
 40
12.0
 40
12.0
 40
13.0
 40
13.0
 40
13.0
 40
14.0
 40
14.0
 40
14.0
 40
15.0
 40
15.0
 40
15.0
 40
16.0
 40
16.0
 40
16.0
 40
16.0
 10
88.27471514720216
 20
-110.921050319492
 10
88.18445364548862
 20
-110.921050319492
 10
88.0669758894416
 20
-110.9027913134201
 10
87.9498426429431
 20
-110.8340616584894
 10
87.74933808570155
 20
-110.715033609474
 10
87.72487790775628
 20
-110.573267930256
 10
87.70282929665069
 20
-110.4566514480803
 10
87.70282929665069
 20
-110.4566514480803
 10
87.9594889103018
 20
-110.4566514480803
 10
87.9594889103018
 20
-110.4566514480803
 10
88.02322317677893
 20
-110.6716254063599
 10
88.16963973490203
 20
-110.7036647943727
 10
88.27712671404183
 20
-110.7036647943727
 10
88.43835718275153
 20
-110.7036647943727
 10
88.61440156204779
 20
-110.5961778152329
 10
88.61440156204779
 20
-110.3445135900354
 10
88.61440156204779
 20
-110.0677001677956
 10
88.40666230428722
 20
-109.9922525766686
 10
88.26748044668314
 20
-109.9922525766686
 10
88.23096243453949
 20
-109.9922525766686
 10
88.0669758894416
 20
-109.9922525766686
 10
87.96431204398115
 20
-110.1317789438212
 10
87.96431204398115
 20
-110.1317789438212
 10
87.76174042944845
 20
-110.1111083709097
 10
87.76174042944845
 20
-110.1111083709097
 10
87.76174042944845
 20
-110.1111083709097
 10
87.90092228705255
 20
-109.1960910100274
 10
87.90092228705255
 20
-109.1960910100274
 10
87.90092228705255
 20
-109.1960910100274
 10
88.80009220870276
 20
-109.1960910100274
 10
88.80009220870276
 20
-109.1960910100274
 10
88.80009220870276
 20
-109.1960910100274
 10
88.80009220870276
 20
-109.4065863441761
 10
88.80009220870276
 20
-109.4065863441761
 10
88.80009220870276
 20
-109.4065863441761
 10
88.0890245005472
 20
-109.4065863441761
 10
88.0890245005472
 20
-109.4065863441761
 10
88.0890245005472
 20
-109.4065863441761
 10
88.0132323998717
 20
-109.8640950246173
 10
88.0132323998717
 20
-109.8640950246173
 10
88.08420136686784
 20
-109.8274047576994
 10
88.17963051180926
 20
-109.7839965545853
 10
88.31640080257368
 20
-109.7839965545853
 10
88.60957842836844
 20
-109.7839965545853
 10
88.88346351944581
 20
-109.9853623856981
 10
88.88346351944581
 20
-110.3238430171239
 10
88.88346351944581
 20
-110.6671467822291
 10
88.62439233895502
 20
-110.921050319492
 10
88.27471514720216
 20
-110.921050319492
 97
        0
 97
        0
 75
     2
 76
     1
 98
        0
  0
ENDBLK
  5
C7
330
C4
100
AcDbEntity
  8
0
100
AcDbBlockEnd
  0
BLOCK
  5
DA
330
D8
100
AcDbEntity
  8
0
100
AcDbBlockBegin
  2
block 3
 70
     0
 10
0.0
 20
0.0
 30
0.0
  3
block 3
  1

  0
SPLINE
  5
DC
330
D8
100
AcDbEntity
  8
_U+30EC_U+30A4_U+30E4_U+30FC 1
370
     0
100
AcDbSpline
210
0.0
220
0.0
230
1.0
 70
    11
 71
     3
 72
    44
 73
    40
 74
     0
 42
0.0000000001
 43
0.0000000001
 12
1.0
 22
0.0
 32
0.0
 13
1.0
 23
0.0
 33
0.0
 40
0.0
 40
0.0
 40
0.0
 40
0.0
 40
1.0
 40
1.0
 40
1.0
 40
2.0
 40
2.0
 40
2.0
 40
3.0
 40
3.0
 40
3.0
 40
4.0
 40
4.0
 40
4.0
 40
5.0
 40
5.0
 40
5.0
 40
6.0
 40
6.0
 40
6.0
 40
7.0
 40
7.0
 40
7.0
 40
8.0
 40
8.0
 40
8.0
 40
9.0
 40
9.0
 40
9.0
 40
10.0
 40
10.0
 40
10.0
 40
11.0
 40
11.0
 40
11.0
 40
12.0
 40
12.0
 40
12.0
 40
13.0
 40
13.0
 40
13.0
 40
13.0
 10
87.04584958761355
 20
-146.6249863999757
 30
0.0
 10
86.7943576171903
 20
-146.7965521551411
 30
0.0
 10
86.68652612850198
 20
-146.8768228799475
 30
0.0
 10
86.63037107209242
 20
-147.0321966863322
 30
0.0
 10
86.63037107209242
 20
-147.0321966863322
 30
0.0
 10
87.52988550329114
 20
-147.0321966863322
 30
0.0
 10
87.52988550329114
 20
-147.0321966863322
 30
0.0
 10
87.52988550329114
 20
-147.0321966863322
 30
0.0
 10
87.52988550329114
 20
-147.2540608355823
 30
0.0
 10
87.52988550329114
 20
-147.2540608355823
 30
0.0
 10
87.52988550329114
 20
-147.2540608355823
 30
0.0
 10
86.342016579977
 20
-147.2540608355823
 30
0.0
 10
86.342016579977
 20
-147.2540608355823
 30
0.0
 10
86.37887910166917
 20
-146.8675211221373
 30
0.0
 10
86.45467120234467
 20
-146.7827717732002
 30
0.0
 10
86.89943302949042
 20
-146.4603108357808
 30
0.0
 10
87.19502222212486
 20
-146.2453368775012
 30
0.0
 10
87.27081432280036
 20
-146.1719563436654
 30
0.0
 10
87.27081432280036
 20
-146.0234727282511
 30
0.0
 10
87.27081432280036
 20
-145.8953151761998
 30
0.0
 10
87.18778752160584
 20
-145.7533772422075
 30
0.0
 10
86.96041121957934
 20
-145.7533772422075
 30
0.0
 10
86.65965438371704
 20
-145.7533772422075
 30
0.0
 10
86.65000811635834
 20
-146.0028021553396
 30
0.0
 10
86.64518498267898
 20
-146.1285481405512
 30
0.0
 10
86.64518498267898
 20
-146.1285481405512
 30
0.0
 10
86.38611380218819
 20
-146.1285481405512
 30
0.0
 10
86.38611380218819
 20
-146.1285481405512
 30
0.0
 10
86.3957600695469
 20
-145.9914333402382
 30
0.0
 10
86.4081624132938
 20
-145.8701659791575
 30
0.0
 10
86.50083548184702
 20
-145.7420084271062
 30
0.0
 10
86.62795950525273
 20
-145.5680311051011
 30
0.0
 10
86.84293346353233
 20
-145.5315130929574
 30
0.0
 10
86.9776366970056
 20
-145.5315130929574
 30
0.0
 10
87.2976860675853
 20
-145.5315130929574
 30
0.0
 10
87.53712020381016
 20
-145.7306396120048
 30
0.0
 10
87.53712020381016
 20
-146.0255397855422
 30
0.0
 10
87.53712020381016
 20
-146.2725531318347
 30
0.0
 10
87.40276147988543
 20
-146.380384620523
 30
0.0
 10
87.04584958761355
 20
-146.6249863999757
 30
0.0
  0
HATCH
  5
DD
330
D8
100
AcDbEntity
  8
_U+30EC_U+30A4_U+30E4_U+30FC 1
 62
   179
420
  2234388
100
AcDbHatch
 10
0.0
 20
0.0
 30
0.0
210
0.0
220
0.0
230
1.0
  2
SOLID
 70
     1
 71
     0
 91
        1
 92
        1
 93
        1
 72
     4
 94
        3
 73
     0
 74
     1
 95
       44
 96
       40
 40
0.0
 40
0.0
 40
0.0
 40
0.0
 40
1.0
 40
1.0
 40
1.0
 40
2.0
 40
2.0
 40
2.0
 40
3.0
 40
3.0
 40
3.0
 40
4.0
 40
4.0
 40
4.0
 40
5.0
 40
5.0
 40
5.0
 40
6.0
 40
6.0
 40
6.0
 40
7.0
 40
7.0
 40
7.0
 40
8.0
 40
8.0
 40
8.0
 40
9.0
 40
9.0
 40
9.0
 40
10.0
 40
10.0
 40
10.0
 40
11.0
 40
11.0
 40
11.0
 40
12.0
 40
12.0
 40
12.0
 40
13.0
 40
13.0
 40
13.0
 40
13.0
 10
87.04584958761355
 20
-146.6249863999757
 10
86.7943576171903
 20
-146.7965521551411
 10
86.68652612850198
 20
-146.8768228799475
 10
86.63037107209242
 20
-147.0321966863322
 10
86.63037107209242
 20
-147.0321966863322
 10
87.52988550329114
 20
-147.0321966863322
 10
87.52988550329114
 20
-147.0321966863322
 10
87.52988550329114
 20
-147.0321966863322
 10
87.52988550329114
 20
-147.2540608355823
 10
87.52988550329114
 20
-147.2540608355823
 10
87.52988550329114
 20
-147.2540608355823
 10
86.342016579977
 20
-147.2540608355823
 10
86.342016579977
 20
-147.2540608355823
 10
86.37887910166917
 20
-146.8675211221373
 10
86.45467120234467
 20
-146.7827717732002
 10
86.89943302949042
 20
-146.4603108357808
 10
87.19502222212486
 20
-146.2453368775012
 10
87.27081432280036
 20
-146.1719563436654
 10
87.27081432280036
 20
-146.0234727282511
 10
87.27081432280036
 20
-145.8953151761998
 10
87.18778752160584
 20
-145.7533772422075
 10
86.96041121957934
 20
-145.7533772422075
 10
86.65965438371704
 20
-145.7533772422075
 10
86.65000811635834
 20
-146.0028021553396
 10
86.64518498267898
 20
-146.1285481405512
 10
86.64518498267898
 20
-146.1285481405512
 10
86.38611380218819
 20
-146.1285481405512
 10
86.38611380218819
 20
-146.1285481405512
 10
86.3957600695469
 20
-145.9914333402382
 10
86.4081624132938
 20
-145.8701659791575
 10
86.50083548184702
 20
-145.7420084271062
 10
86.62795950525273
 20
-145.5680311051011
 10
86.84293346353233
 20
-145.5315130929574
 10
86.9776366970056
 20
-145.5315130929574
 10
87.2976860675853
 20
-145.5315130929574
 10
87.53712020381016
 20
-145.7306396120048
 10
87.53712020381016
 20
-146.0255397855422
 10
87.53712020381016
 20
-146.2725531318347
 10
87.40276147988543
 20
-146.380384620523
 10
87.04584958761355
 20
-146.6249863999757
 97
        0
 97
        0
 75
     2
 76
     1
 98
        0
  0
SPLINE
  5
DE
330
D8
100
AcDbEntity
  8
_U+30EC_U+30A4_U+30E4_U+30FC 1
370
     0
100
AcDbSpline
210
0.0
220
0.0
230
1.0
 70
    11
 71
     3
 72
    53
 73
    49
 74
     0
 42
0.0000000001
 43
0.0000000001
 12
1.0
 22
0.0
 32
0.0
 13
1.0
 23
0.0
 33
0.0
 40
0.0
 40
0.0
 40
0.0
 40
0.0
 40
1.0
 40
1.0
 40
1.0
 40
2.0
 40
2.0
 40
2.0
 40
3.0
 40
3.0
 40
3.0
 40
4.0
 40
4.0
 40
4.0
 40
5.0
 40
5.0
 40
5.0
 40
6.0
 40
6.0
 40
6.0
 40
7.0
 40
7.0
 40
7.0
 40
8.0
 40
8.0
 40
8.0
 40
9.0
 40
9.0
 40
9.0
 40
10.0
 40
10.0
 40
10.0
 40
11.0
 40
11.0
 40
11.0
 40
12.0
 40
12.0
 40
12.0
 40
13.0
 40
13.0
 40
13.0
 40
14.0
 40
14.0
 40
14.0
 40
15.0
 40
15.0
 40
15.0
 40
16.0
 40
16.0
 40
16.0
 40
16.0
 10
88.27471514720216
 20
-147.3091823633463
 30
0.0
 10
88.18445364548862
 20
-147.3091823633463
 30
0.0
 10
88.0669758894416
 20
-147.2909233572745
 30
0.0
 10
87.9498426429431
 20
-147.2220214475695
 30
0.0
 10
87.74933808570155
 20
-147.1031656533284
 30
0.0
 10
87.72487790775628
 20
-146.9612277193361
 30
0.0
 10
87.70282929665069
 20
-146.8447834919346
 30
0.0
 10
87.70282929665069
 20
-146.8447834919346
 30
0.0
 10
87.9594889103018
 20
-146.8447834919346
 30
0.0
 10
87.9594889103018
 20
-146.8447834919346
 30
0.0
 10
88.02322317677893
 20
-147.0597574502142
 30
0.0
 10
88.16963973490203
 20
-147.0917968382271
 30
0.0
 10
88.27712671404183
 20
-147.0917968382271
 30
0.0
 10
88.43835718275153
 20
-147.0917968382271
 30
0.0
 10
88.61440156204779
 20
-146.9843098590873
 30
0.0
 10
88.61440156204779
 20
-146.7324733791155
 30
0.0
 10
88.61440156204779
 20
-146.4558322116499
 30
0.0
 10
88.40666230428722
 20
-146.380384620523
 30
0.0
 10
88.26748044668314
 20
-146.380384620523
 30
0.0
 10
88.23096243453949
 20
-146.380384620523
 30
0.0
 10
88.0669758894416
 20
-146.380384620523
 30
0.0
 10
87.96431204398115
 20
-146.5199109876756
 30
0.0
 10
87.96431204398115
 20
-146.5199109876756
 30
0.0
 10
87.76174042944845
 20
-146.4992404147641
 30
0.0
 10
87.76174042944845
 20
-146.4992404147641
 30
0.0
 10
87.76174042944845
 20
-146.4992404147641
 30
0.0
 10
87.90092228705255
 20
-145.5842230538817
 30
0.0
 10
87.90092228705255
 20
-145.5842230538817
 30
0.0
 10
87.90092228705255
 20
-145.5842230538817
 30
0.0
 10
88.80009220870276
 20
-145.5842230538817
 30
0.0
 10
88.80009220870276
 20
-145.5842230538817
 30
0.0
 10
88.80009220870276
 20
-145.5842230538817
 30
0.0
 10
88.80009220870276
 20
-145.7947183880305
 30
0.0
 10
88.80009220870276
 20
-145.7947183880305
 30
0.0
 10
88.80009220870276
 20
-145.7947183880305
 30
0.0
 10
88.0890245005472
 20
-145.7947183880305
 30
0.0
 10
88.0890245005472
 20
-145.7947183880305
 30
0.0
 10
88.0890245005472
 20
-145.7947183880305
 30
0.0
 10
88.0132323998717
 20
-146.2522270684717
 30
0.0
 10
88.0132323998717
 20
-146.2522270684717
 30
0.0
 10
88.08420136686784
 20
-146.2153645467795
 30
0.0
 10
88.17963051180926
 20
-146.1719563436654
 30
0.0
 10
88.31640080257368
 20
-146.1719563436654
 30
0.0
 10
88.60957842836844
 20
-146.1719563436654
 30
0.0
 10
88.88346351944581
 20
-146.3734944295525
 30
0.0
 10
88.88346351944581
 20
-146.711802806204
 30
0.0
 10
88.88346351944581
 20
-147.0552788260834
 30
0.0
 10
88.62439233895502
 20
-147.3091823633463
 30
0.0
 10
88.27471514720216
 20
-147.3091823633463
 30
0.0
  0
HATCH
  5
DF
330
D8
100
AcDbEntity
  8
_U+30EC_U+30A4_U+30E4_U+30FC 1
 62
   179
420
  2234388
100
AcDbHatch
 10
0.0
 20
0.0
 30
0.0
210
0.0
220
0.0
230
1.0
  2
SOLID
 70
     1
 71
     0
 91
        1
 92
        1
 93
        1
 72
     4
 94
        3
 73
     0
 74
     1
 95
       53
 96
       49
 40
0.0
 40
0.0
 40
0.0
 40
0.0
 40
1.0
 40
1.0
 40
1.0
 40
2.0
 40
2.0
 40
2.0
 40
3.0
 40
3.0
 40
3.0
 40
4.0
 40
4.0
 40
4.0
 40
5.0
 40
5.0
 40
5.0
 40
6.0
 40
6.0
 40
6.0
 40
7.0
 40
7.0
 40
7.0
 40
8.0
 40
8.0
 40
8.0
 40
9.0
 40
9.0
 40
9.0
 40
10.0
 40
10.0
 40
10.0
 40
11.0
 40
11.0
 40
11.0
 40
12.0
 40
12.0
 40
12.0
 40
13.0
 40
13.0
 40
13.0
 40
14.0
 40
14.0
 40
14.0
 40
15.0
 40
15.0
 40
15.0
 40
16.0
 40
16.0
 40
16.0
 40
16.0
 10
88.27471514720216
 20
-147.3091823633463
 10
88.18445364548862
 20
-147.3091823633463
 10
88.0669758894416
 20
-147.2909233572745
 10
87.9498426429431
 20
-147.2220214475695
 10
87.74933808570155
 20
-147.1031656533284
 10
87.72487790775628
 20
-146.9612277193361
 10
87.70282929665069
 20
-146.8447834919346
 10
87.70282929665069
 20
-146.8447834919346
 10
87.9594889103018
 20
-146.8447834919346
 10
87.9594889103018
 20
-146.8447834919346
 10
88.02322317677893
 20
-147.0597574502142
 10
88.16963973490203
 20
-147.0917968382271
 10
88.27712671404183
 20
-147.0917968382271
 10
88.43835718275153
 20
-147.0917968382271
 10
88.61440156204779
 20
-146.9843098590873
 10
88.61440156204779
 20
-146.7324733791155
 10
88.61440156204779
 20
-146.4558322116499
 10
88.40666230428722
 20
-146.380384620523
 10
88.26748044668314
 20
-146.380384620523
 10
88.23096243453949
 20
-146.380384620523
 10
88.0669758894416
 20
-146.380384620523
 10
87.96431204398115
 20
-146.5199109876756
 10
87.96431204398115
 20
-146.5199109876756
 10
87.76174042944845
 20
-146.4992404147641
 10
87.76174042944845
 20
-146.4992404147641
 10
87.76174042944845
 20
-146.4992404147641
 10
87.90092228705255
 20
-145.5842230538817
 10
87.90092228705255
 20
-145.5842230538817
 10
87.90092228705255
 20
-145.5842230538817
 10
88.80009220870276
 20
-145.5842230538817
 10
88.80009220870276
 20
-145.5842230538817
 10
88.80009220870276
 20
-145.5842230538817
 10
88.80009220870276
 20
-145.7947183880305
 10
88.80009220870276
 20
-145.7947183880305
 10
88.80009220870276
 20
-145.7947183880305
 10
88.0890245005472
 20
-145.7947183880305
 10
88.0890245005472
 20
-145.7947183880305
 10
88.0890245005472
 20
-145.7947183880305
 10
88.0132323998717
 20
-146.2522270684717
 10
88.0132323998717
 20
-146.2522270684717
 10
88.08420136686784
 20
-146.2153645467795
 10
88.17963051180926
 20
-146.1719563436654
 10
88.31640080257368
 20
-146.1719563436654
 10
88.60957842836844
 20
-146.1719563436654
 10
88.88346351944581
 20
-146.3734944295525
 10
88.88346351944581
 20
-146.711802806204
 10
88.88346351944581
 20
-147.0552788260834
 10
88.62439233895502
 20
-147.3091823633463
 10
88.27471514720216
 20
-147.3091823633463
 97
        0
 97
        0
 75
     2
 76
     1
 98
        0
  0
ENDBLK
  5
DB
330
D8
100
AcDbEntity
  8
0
100
AcDbBlockEnd
  0
BLOCK
  5
EA
330
E8
100
AcDbEntity
  8
0
100
AcDbBlockBegin
  2
block 4
 70
     0
 10
0.0
 20
0.0
 30
0.0
  3
block 4
  1

  0
SPLINE
  5
EC
330
E8
100
AcDbEntity
  8
_U+30EC_U+30A4_U+30E4_U+30FC 1
370
     0
100
AcDbSpline
210
0.0
220
0.0
230
1.0
 70
    11
 71
     3
 72
    44
 73
    40
 74
     0
 42
0.0000000001
 43
0.0000000001
 12
1.0
 22
0.0
 32
0.0
 13
1.0
 23
0.0
 33
0.0
 40
0.0
 40
0.0
 40
0.0
 40
0.0
 40
1.0
 40
1.0
 40
1.0
 40
2.0
 40
2.0
 40
2.0
 40
3.0
 40
3.0
 40
3.0
 40
4.0
 40
4.0
 40
4.0
 40
5.0
 40
5.0
 40
5.0
 40
6.0
 40
6.0
 40
6.0
 40
7.0
 40
7.0
 40
7.0
 40
8.0
 40
8.0
 40
8.0
 40
9.0
 40
9.0
 40
9.0
 40
10.0
 40
10.0
 40
10.0
 40
11.0
 40
11.0
 40
11.0
 40
12.0
 40
12.0
 40
12.0
 40
13.0
 40
13.0
 40
13.0
 40
13.0
 10
99.42063257063096
 20
-146.6249863999757
 30
0.0
 10
99.16914060020773
 20
-146.7965521551411
 30
0.0
 10
99.06130911151939
 20
-146.8768228799475
 30
0.0
 10
99.00515405510983
 20
-147.0321966863322
 30
0.0
 10
99.00515405510983
 20
-147.0321966863322
 30
0.0
 10
99.90466848630857
 20
-147.0321966863322
 30
0.0
 10
99.90466848630857
 20
-147.0321966863322
 30
0.0
 10
99.90466848630857
 20
-147.0321966863322
 30
0.0
 10
99.90466848630857
 20
-147.2540608355823
 30
0.0
 10
99.90466848630857
 20
-147.2540608355823
 30
0.0
 10
99.90466848630857
 20
-147.2540608355823
 30
0.0
 10
98.71679956299441
 20
-147.2540608355823
 30
0.0
 10
98.71679956299441
 20
-147.2540608355823
 30
0.0
 10
98.7536620846866
 20
-146.8675211221373
 30
0.0
 10
98.82945418536208
 20
-146.7827717732002
 30
0.0
 10
99.27421601250784
 20
-146.4603108357808
 30
0.0
 10
99.56980520514227
 20
-146.2453368775012
 30
0.0
 10
99.64559730581777
 20
-146.1719563436654
 30
0.0
 10
99.64559730581777
 20
-146.0234727282511
 30
0.0
 10
99.64559730581777
 20
-145.8953151761998
 30
0.0
 10
99.56257050462325
 20
-145.7533772422075
 30
0.0
 10
99.33519420259677
 20
-145.7533772422075
 30
0.0
 10
99.03443736673445
 20
-145.7533772422075
 30
0.0
 10
99.02479109937575
 20
-146.0028021553396
 30
0.0
 10
99.0199679656964
 20
-146.1285481405512
 30
0.0
 10
99.0199679656964
 20
-146.1285481405512
 30
0.0
 10
98.76089678520562
 20
-146.1285481405512
 30
0.0
 10
98.76089678520562
 20
-146.1285481405512
 30
0.0
 10
98.7705430525643
 20
-145.9914333402382
 30
0.0
 10
98.7829453963112
 20
-145.8701659791575
 30
0.0
 10
98.87561846486443
 20
-145.7420084271062
 30
0.0
 10
99.00274248827016
 20
-145.5680311051011
 30
0.0
 10
99.21771644654974
 20
-145.5315130929574
 30
0.0
 10
99.352419680023
 20
-145.5315130929574
 30
0.0
 10
99.67246905060271
 20
-145.5315130929574
 30
0.0
 10
99.91190318682759
 20
-145.7306396120048
 30
0.0
 10
99.91190318682759
 20
-146.0255397855422
 30
0.0
 10
99.91190318682759
 20
-146.2725531318347
 30
0.0
 10
99.77754446290284
 20
-146.380384620523
 30
0.0
 10
99.42063257063096
 20
-146.6249863999757
 30
0.0
  0
HATCH
  5
ED
330
E8
100
AcDbEntity
  8
_U+30EC_U+30A4_U+30E4_U+30FC 1
 62
   179
420
  2234388
100
AcDbHatch
 10
0.0
 20
0.0
 30
0.0
210
0.0
220
0.0
230
1.0
  2
SOLID
 70
     1
 71
     0
 91
        1
 92
        1
 93
        1
 72
     4
 94
        3
 73
     0
 74
     1
 95
       44
 96
       40
 40
0.0
 40
0.0
 40
0.0
 40
0.0
 40
1.0
 40
1.0
 40
1.0
 40
2.0
 40
2.0
 40
2.0
 40
3.0
 40
3.0
 40
3.0
 40
4.0
 40
4.0
 40
4.0
 40
5.0
 40
5.0
 40
5.0
 40
6.0
 40
6.0
 40
6.0
 40
7.0
 40
7.0
 40
7.0
 40
8.0
 40
8.0
 40
8.0
 40
9.0
 40
9.0
 40
9.0
 40
10.0
 40
10.0
 40
10.0
 40
11.0
 40
11.0
 40
11.0
 40
12.0
 40
12.0
 40
12.0
 40
13.0
 40
13.0
 40
13.0
 40
13.0
 10
99.42063257063096
 20
-146.6249863999757
 10
99.16914060020773
 20
-146.7965521551411
 10
99.06130911151939
 20
-146.8768228799475
 10
99.00515405510983
 20
-147.0321966863322
 10
99.00515405510983
 20
-147.0321966863322
 10
99.90466848630857
 20
-147.0321966863322
 10
99.90466848630857
 20
-147.0321966863322
 10
99.90466848630857
 20
-147.0321966863322
 10
99.90466848630857
 20
-147.2540608355823
 10
99.90466848630857
 20
-147.2540608355823
 10
99.90466848630857
 20
-147.2540608355823
 10
98.71679956299441
 20
-147.2540608355823
 10
98.71679956299441
 20
-147.2540608355823
 10
98.7536620846866
 20
-146.8675211221373
 10
98.82945418536208
 20
-146.7827717732002
 10
99.27421601250784
 20
-146.4603108357808
 10
99.56980520514227
 20
-146.2453368775012
 10
99.64559730581777
 20
-146.1719563436654
 10
99.64559730581777
 20
-146.0234727282511
 10
99.64559730581777
 20
-145.8953151761998
 10
99.56257050462325
 20
-145.7533772422075
 10
99.33519420259677
 20
-145.7533772422075
 10
99.03443736673445
 20
-145.7533772422075
 10
99.02479109937575
 20
-146.0028021553396
 10
99.0199679656964
 20
-146.1285481405512
 10
99.0199679656964
 20
-146.1285481405512
 10
98.76089678520562
 20
-146.1285481405512
 10
98.76089678520562
 20
-146.1285481405512
 10
98.7705430525643
 20
-145.9914333402382
 10
98.7829453963112
 20
-145.8701659791575
 10
98.87561846486443
 20
-145.7420084271062
 10
99.00274248827016
 20
-145.5680311051011
 10
99.21771644654974
 20
-145.5315130929574
 10
99.352419680023
 20
-145.5315130929574
 10
99.67246905060271
 20
-145.5315130929574
 10
99.91190318682759
 20
-145.7306396120048
 10
99.91190318682759
 20
-146.0255397855422
 10
99.91190318682759
 20
-146.2725531318347
 10
99.77754446290284
 20
-146.380384620523
 10
99.42063257063096
 20
-146.6249863999757
 97
        0
 97
        0
 75
     2
 76
     1
 98
        0
  0
SPLINE
  5
EE
330
E8
100
AcDbEntity
  8
_U+30EC_U+30A4_U+30E4_U+30FC 1
370
     0
100
AcDbSpline
210
0.0
220
0.0
230
1.0
 70
    11
 71
     3
 72
    29
 73
    25
 74
     0
 42
0.0000000001
 43
0.0000000001
 12
1.0
 22
0.0
 32
0.0
 13
1.0
 23
0.0
 33
0.0
 40
0.0
 40
0.0
 40
0.0
 40
0.0
 40
1.0
 40
1.0
 40
1.0
 40
2.0
 40
2.0
 40
2.0
 40
3.0
 40
3.0
 40
3.0
 40
4.0
 40
4.0
 40
4.0
 40
5.0
 40
5.0
 40
5.0
 40
6.0
 40
6.0
 40
6.0
 40
7.0
 40
7.0
 40
7.0
 40
8.0
 40
8.0
 40
8.0
 40
8.0
 10
101.1311224790575
 20
-147.0618245075054
 30
0.0
 10
101.0064100224915
 20
-147.2885117904348
 30
0.0
 10
100.8059054652499
 20
-147.3091823633463
 30
0.0
 10
100.6715467413252
 20
-147.3091823633463
 30
0.0
 10
100.4858560946702
 20
-147.3091823633463
 30
0.0
 10
100.3222140591208
 20
-147.2588839692617
 30
0.0
 10
100.2119710035929
 20
-147.0618245075054
 30
0.0
 10
100.0924261902547
 20
-146.8516736829051
 30
0.0
 10
100.0703775791491
 20
-146.5953585788025
 30
0.0
 10
100.0703775791491
 20
-146.4189696899578
 30
0.0
 10
100.0703775791491
 20
-146.263595883573
 30
0.0
 10
100.090014623415
 20
-145.9914333402382
 30
0.0
 10
100.2119710035929
 20
-145.7761148724101
 30
0.0
 10
100.3366834601589
 20
-145.5566622899997
 30
0.0
 10
100.5223741068139
 20
-145.5315130929574
 30
0.0
 10
100.6715467413252
 20
-145.5315130929574
 30
0.0
 10
100.8548258211405
 20
-145.5315130929574
 30
0.0
 10
101.0208794235295
 20
-145.5793999202024
 30
0.0
 10
101.1311224790575
 20
-145.7761148724101
 30
0.0
 10
101.2458441587163
 20
-145.9845431492678
 30
0.0
 10
101.2727159035013
 20
-146.2315564955602
 30
0.0
 10
101.2727159035013
 20
-146.4189696899578
 30
0.0
 10
101.2727159035013
 20
-146.6043158270642
 30
0.0
 10
101.248255725556
 20
-146.8537407401963
 30
0.0
 10
101.1311224790575
 20
-147.0618245075054
 30
0.0
  0
SPLINE
  5
EF
330
E8
100
AcDbEntity
  8
_U+30EC_U+30A4_U+30E4_U+30FC 1
370
     0
100
AcDbSpline
210
0.0
220
0.0
230
1.0
 70
    11
 71
     3
 72
    17
 73
    13
 74
     0
 42
0.0000000001
 43
0.0000000001
 12
1.0
 22
0.0
 32
0.0
 13
1.0
 23
0.0
 33
0.0
 40
0.0
 40
0.0
 40
0.0
 40
0.0
 40
1.0
 40
1.0
 40
1.0
 40
2.0
 40
2.0
 40
2.0
 40
3.0
 40
3.0
 40
3.0
 40
4.0
 40
4.0
 40
4.0
 40
4.0
 10
100.6715467413252
 20
-145.7395968602665
 30
0.0
 10
100.3831922492098
 20
-145.7395968602665
 30
0.0
 10
100.3294487596399
 20
-146.0462103584537
 30
0.0
 10
100.3294487596399
 20
-146.4189696899578
 30
0.0
 10
100.3294487596399
 20
-146.7645127671283
 30
0.0
 10
100.3711344150114
 20
-147.0986870291975
 30
0.0
 10
100.6715467413252
 20
-147.0986870291975
 30
0.0
 10
100.9574896666009
 20
-147.0986870291975
 30
0.0
 10
101.0136447230105
 20
-146.7941405883015
 30
0.0
 10
101.0136447230105
 20
-146.4189696899578
 30
0.0
 10
101.0136447230105
 20
-146.0737711223357
 30
0.0
 10
100.9695475007993
 20
-145.7395968602665
 30
0.0
 10
100.6715467413252
 20
-145.7395968602665
 30
0.0
  0
HATCH
  5
F0
330
E8
100
AcDbEntity
  8
_U+30EC_U+30A4_U+30E4_U+30FC 1
 62
   179
420
  2234388
100
AcDbHatch
 10
0.0
 20
0.0
 30
0.0
210
0.0
220
0.0
230
1.0
  2
SOLID
 70
     1
 71
     0
 91
        2
 92
        1
 93
        1
 72
     4
 94
        3
 73
     0
 74
     1
 95
       29
 96
       25
 40
0.0
 40
0.0
 40
0.0
 40
0.0
 40
1.0
 40
1.0
 40
1.0
 40
2.0
 40
2.0
 40
2.0
 40
3.0
 40
3.0
 40
3.0
 40
4.0
 40
4.0
 40
4.0
 40
5.0
 40
5.0
 40
5.0
 40
6.0
 40
6.0
 40
6.0
 40
7.0
 40
7.0
 40
7.0
 40
8.0
 40
8.0
 40
8.0
 40
8.0
 10
101.1311224790575
 20
-147.0618245075054
 10
101.0064100224915
 20
-147.2885117904348
 10
100.8059054652499
 20
-147.3091823633463
 10
100.6715467413252
 20
-147.3091823633463
 10
100.4858560946702
 20
-147.3091823633463
 10
100.3222140591208
 20
-147.2588839692617
 10
100.2119710035929
 20
-147.0618245075054
 10
100.0924261902547
 20
-146.8516736829051
 10
100.0703775791491
 20
-146.5953585788025
 10
100.0703775791491
 20
-146.4189696899578
 10
100.0703775791491
 20
-146.263595883573
 10
100.090014623415
 20
-145.9914333402382
 10
100.2119710035929
 20
-145.7761148724101
 10
100.3366834601589
 20
-145.5566622899997
 10
100.5223741068139
 20
-145.5315130929574
 10
100.6715467413252
 20
-145.5315130929574
 10
100.8548258211405
 20
-145.5315130929574
 10
101.0208794235295
 20
-145.5793999202024
 10
101.1311224790575
 20
-145.7761148724101
 10
101.2458441587163
 20
-145.9845431492678
 10
101.2727159035013
 20
-146.2315564955602
 10
101.2727159035013
 20
-146.4189696899578
 10
101.2727159035013
 20
-146.6043158270642
 10
101.248255725556
 20
-146.8537407401963
 10
101.1311224790575
 20
-147.0618245075054
 97
        0
 97
        0
 92
        1
 93
        1
 72
     4
 94
        3
 73
     0
 74
     1
 95
       17
 96
       13
 40
0.0
 40
0.0
 40
0.0
 40
0.0
 40
1.0
 40
1.0
 40
1.0
 40
2.0
 40
2.0
 40
2.0
 40
3.0
 40
3.0
 40
3.0
 40
4.0
 40
4.0
 40
4.0
 40
4.0
 10
100.6715467413252
 20
-145.7395968602665
 10
100.3831922492098
 20
-145.7395968602665
 10
100.3294487596399
 20
-146.0462103584537
 10
100.3294487596399
 20
-146.4189696899578
 10
100.3294487596399
 20
-146.7645127671283
 10
100.3711344150114
 20
-147.0986870291975
 10
100.6715467413252
 20
-147.0986870291975
 10
100.9574896666009
 20
-147.0986870291975
 10
101.0136447230105
 20
-146.7941405883015
 10
101.0136447230105
 20
-146.4189696899578
 10
101.0136447230105
 20
-146.0737711223357
 10
100.9695475007993
 20
-145.7395968602665
 10
100.6715467413252
 20
-145.7395968602665
 97
        0
 97
        0
 75
     2
 76
     1
 98
        0
  0
ENDBLK
  5
EB
330
E8
100
AcDbEntity
  8
0
100
AcDbBlockEnd
  0
BLOCK
  5
103
330
101
100
AcDbEntity
  8
0
100
AcDbBlockBegin
  2
block 5
 70
     0
 10
0.0
 20
0.0
 30
0.0
  3
block 5
  1

  0
SPLINE
  5
105
330
101
100
AcDbEntity
  8
_U+30EC_U+30A4_U+30E4_U+30FC 1
370
     0
100
AcDbSpline
210
0.0
220
0.0
230
1.0
 70
    11
 71
     3
 72
    62
 73
    58
 74
     0
 42
0.0000000001
 43
0.0000000001
 12
1.0
 22
0.0
 32
0.0
 13
1.0
 23
0.0
 33
0.0
 40
0.0
 40
0.0
 40
0.0
 40
0.0
 40
1.0
 40
1.0
 40
1.0
 40
2.0
 40
2.0
 40
2.0
 40
3.0
 40
3.0
 40
3.0
 40
4.0
 40
4.0
 40
4.0
 40
5.0
 40
5.0
 40
5.0
 40
6.0
 40
6.0
 40
6.0
 40
7.0
 40
7.0
 40
7.0
 40
8.0
 40
8.0
 40
8.0
 40
9.0
 40
9.0
 40
9.0
 40
10.0
 40
10.0
 40
10.0
 40
11.0
 40
11.0
 40
11.0
 40
12.0
 40
12.0
 40
12.0
 40
13.0
 40
13.0
 40
13.0
 40
14.0
 40
14.0
 40
14.0
 40
15.0
 40
15.0
 40
15.0
 40
16.0
 40
16.0
 40
16.0
 40
17.0
 40
17.0
 40
17.0
 40
18.0
 40
18.0
 40
18.0
 40
19.0
 40
19.0
 40
19.0
 40
19.0
 10
100.7473388420007
 20
-138.4211805209503
 30
0.0
 10
100.6370957864727
 20
-138.4211805209503
 30
0.0
 10
100.3856038160494
 20
-138.3980983811991
 30
0.0
 10
100.2412543152175
 20
-138.1969048048605
 30
0.0
 10
100.1558159471833
 20
-138.0756374437797
 30
0.0
 10
100.1509928135039
 20
-137.9681504646399
 30
0.0
 10
100.1461696798246
 20
-137.8765109247323
 30
0.0
 10
100.1461696798246
 20
-137.8765109247323
 30
0.0
 10
100.4000732170875
 20
-137.8765109247323
 30
0.0
 10
100.4000732170875
 20
-137.8765109247323
 30
0.0
 10
100.4024847839272
 20
-137.9567816495386
 30
0.0
 10
100.4148871276741
 20
-138.2106851868015
 30
0.0
 10
100.7421711987728
 20
-138.2106851868015
 30
0.0
 10
100.9013346101913
 20
-138.2106851868015
 30
0.0
 10
101.0770344799391
 20
-138.1352375956745
 30
0.0
 10
101.0770344799391
 20
-137.8878797398336
 30
0.0
 10
101.0770344799391
 20
-137.762133754622
 30
0.0
 10
101.0332817672764
 20
-137.7094237936977
 30
0.0
 10
100.9964192455842
 20
-137.6753173483937
 30
0.0
 10
100.91098087755
 20
-137.5950466235874
 30
0.0
 10
100.7766221536253
 20
-137.5816107511949
 30
0.0
 10
100.7128878871482
 20
-137.5816107511949
 30
0.0
 10
100.6911837855911
 20
-137.5816107511949
 30
0.0
 10
100.6494981302196
 20
-137.583677808486
 30
0.0
 10
100.6178032517553
 20
-137.5881564326169
 30
0.0
 10
100.6178032517553
 20
-137.5881564326169
 30
0.0
 10
100.6178032517553
 20
-137.3780056080166
 30
0.0
 10
100.6178032517553
 20
-137.3780056080166
 30
0.0
 10
100.6615559644179
 20
-137.3845512894386
 30
0.0
 10
100.7104763203085
 20
-137.3869628562783
 30
0.0
 10
100.718055530376
 20
-137.3869628562783
 30
0.0
 10
100.793503121503
 20
-137.3869628562783
 30
0.0
 10
101.0232909903692
 20
-137.3642252260756
 30
0.0
 10
101.0232909903692
 20
-137.107910121973
 30
0.0
 10
101.0232909903692
 20
-136.9156737938961
 30
0.0
 10
100.8717067890182
 20
-136.8560736420013
 30
0.0
 10
100.744927275161
 20
-136.8560736420013
 30
0.0
 10
100.4393473056193
 20
-136.8560736420013
 30
0.0
 10
100.4293565287121
 20
-137.107910121973
 30
0.0
 10
100.4245333950328
 20
-137.1857692799397
 30
0.0
 10
100.4245333950328
 20
-137.1857692799397
 30
0.0
 10
100.1899223924872
 20
-137.1857692799397
 30
0.0
 10
100.1899223924872
 20
-137.1857692799397
 30
0.0
 10
100.1999131693945
 20
-137.0507215369179
 30
0.0
 10
100.2316080478588
 20
-136.6435112505613
 30
0.0
 10
100.759396676199
 20
-136.6435112505613
 30
0.0
 10
101.0184678566898
 20
-136.6435112505613
 30
0.0
 10
101.2971760814465
 20
-136.7806260508743
 30
0.0
 10
101.2971760814465
 20
-137.1010199310025
 30
0.0
 10
101.2971760814465
 20
-137.3022135073411
 30
0.0
 10
101.1872775354671
 20
-137.3914414804091
 30
0.0
 10
101.0722113462597
 20
-137.4579318232744
 30
0.0
 10
101.1431803132559
 20
-137.4875596444476
 30
0.0
 10
101.3533311378561
 20
-137.5747205602244
 30
0.0
 10
101.3533311378561
 20
-137.8744438674411
 30
0.0
 10
101.3533311378561
 20
-138.2403130079747
 30
0.0
 10
101.0673882125804
 20
-138.4211805209503
 30
0.0
 10
100.7473388420007
 20
-138.4211805209503
 30
0.0
  0
HATCH
  5
106
330
101
100
AcDbEntity
  8
_U+30EC_U+30A4_U+30E4_U+30FC 1
 62
   179
420
  2234388
100
AcDbHatch
 10
0.0
 20
0.0
 30
0.0
210
0.0
220
0.0
230
1.0
  2
SOLID
 70
     1
 71
     0
 91
        1
 92
        1
 93
        1
 72
     4
 94
        3
 73
     0
 74
     1
 95
       62
 96
       58
 40
0.0
 40
0.0
 40
0.0
 40
0.0
 40
1.0
 40
1.0
 40
1.0
 40
2.0
 40
2.0
 40
2.0
 40
3.0
 40
3.0
 40
3.0
 40
4.0
 40
4.0
 40
4.0
 40
5.0
 40
5.0
 40
5.0
 40
6.0
 40
6.0
 40
6.0
 40
7.0
 40
7.0
 40
7.0
 40
8.0
 40
8.0
 40
8.0
 40
9.0
 40
9.0
 40
9.0
 40
10.0
 40
10.0
 40
10.0
 40
11.0
 40
11.0
 40
11.0
 40
12.0
 40
12.0
 40
12.0
 40
13.0
 40
13.0
 40
13.0
 40
14.0
 40
14.0
 40
14.0
 40
15.0
 40
15.0
 40
15.0
 40
16.0
 40
16.0
 40
16.0
 40
17.0
 40
17.0
 40
17.0
 40
18.0
 40
18.0
 40
18.0
 40
19.0
 40
19.0
 40
19.0
 40
19.0
 10
100.7473388420007
 20
-138.4211805209503
 10
100.6370957864727
 20
-138.4211805209503
 10
100.3856038160494
 20
-138.3980983811991
 10
100.2412543152175
 20
-138.1969048048605
 10
100.1558159471833
 20
-138.0756374437797
 10
100.1509928135039
 20
-137.9681504646399
 10
100.1461696798246
 20
-137.8765109247323
 10
100.1461696798246
 20
-137.8765109247323
 10
100.4000732170875
 20
-137.8765109247323
 10
100.4000732170875
 20
-137.8765109247323
 10
100.4024847839272
 20
-137.9567816495386
 10
100.4148871276741
 20
-138.2106851868015
 10
100.7421711987728
 20
-138.2106851868015
 10
100.9013346101913
 20
-138.2106851868015
 10
101.0770344799391
 20
-138.1352375956745
 10
101.0770344799391
 20
-137.8878797398336
 10
101.0770344799391
 20
-137.762133754622
 10
101.0332817672764
 20
-137.7094237936977
 10
100.9964192455842
 20
-137.6753173483937
 10
100.91098087755
 20
-137.5950466235874
 10
100.7766221536253
 20
-137.5816107511949
 10
100.7128878871482
 20
-137.5816107511949
 10
100.6911837855911
 20
-137.5816107511949
 10
100.6494981302196
 20
-137.583677808486
 10
100.6178032517553
 20
-137.5881564326169
 10
100.6178032517553
 20
-137.5881564326169
 10
100.6178032517553
 20
-137.3780056080166
 10
100.6178032517553
 20
-137.3780056080166
 10
100.6615559644179
 20
-137.3845512894386
 10
100.7104763203085
 20
-137.3869628562783
 10
100.718055530376
 20
-137.3869628562783
 10
100.793503121503
 20
-137.3869628562783
 10
101.0232909903692
 20
-137.3642252260756
 10
101.0232909903692
 20
-137.107910121973
 10
101.0232909903692
 20
-136.9156737938961
 10
100.8717067890182
 20
-136.8560736420013
 10
100.744927275161
 20
-136.8560736420013
 10
100.4393473056193
 20
-136.8560736420013
 10
100.4293565287121
 20
-137.107910121973
 10
100.4245333950328
 20
-137.1857692799397
 10
100.4245333950328
 20
-137.1857692799397
 10
100.1899223924872
 20
-137.1857692799397
 10
100.1899223924872
 20
-137.1857692799397
 10
100.1999131693945
 20
-137.0507215369179
 10
100.2316080478588
 20
-136.6435112505613
 10
100.759396676199
 20
-136.6435112505613
 10
101.0184678566898
 20
-136.6435112505613
 10
101.2971760814465
 20
-136.7806260508743
 10
101.2971760814465
 20
-137.1010199310025
 10
101.2971760814465
 20
-137.3022135073411
 10
101.1872775354671
 20
-137.3914414804091
 10
101.0722113462597
 20
-137.4579318232744
 10
101.1431803132559
 20
-137.4875596444476
 10
101.3533311378561
 20
-137.5747205602244
 10
101.3533311378561
 20
-137.8744438674411
 10
101.3533311378561
 20
-138.2403130079747
 10
101.0673882125804
 20
-138.4211805209503
 10
100.7473388420007
 20
-138.4211805209503
 97
        0
 97
        0
 75
     2
 76
     1
 98
        0
  0
POLYLINE
  5
107
330
101
100
AcDbEntity
  8
_U+30EC_U+30A4_U+30E4_U+30FC 1
370
     0
100
AcDb2dPolyline
 66
     1
 10
0.0
 20
0.0
 30
0.0
  0
VERTEX
  5
108
330
107
100
AcDbEntity
  8
_U+30EC_U+30A4_U+30E4_U+30FC 1
370
     0
100
AcDbVertex
100
AcDb2dVertex
 10
101.607234675119
 20
-138.3660589931863
 30
0.0
  0
VERTEX
  5
109
330
107
100
AcDbEntity
  8
_U+30EC_U+30A4_U+30E4_U+30FC 1
370
     0
100
AcDbVertex
100
AcDb2dVertex
 10
101.607234675119
 20
-138.0938964498515
 30
0.0
  0
VERTEX
  5
10A
330
107
100
AcDbEntity
  8
_U+30EC_U+30A4_U+30E4_U+30FC 1
370
     0
100
AcDbVertex
100
AcDb2dVertex
 10
101.8980007340741
 20
-138.0938964498515
 30
0.0
  0
VERTEX
  5
10B
330
107
100
AcDbEntity
  8
_U+30EC_U+30A4_U+30E4_U+30FC 1
370
     0
100
AcDbVertex
100
AcDb2dVertex
 10
101.8980007340741
 20
-138.3660589931863
 30
0.0
  0
VERTEX
  5
10C
330
107
100
AcDbEntity
  8
_U+30EC_U+30A4_U+30E4_U+30FC 1
370
     0
100
AcDbVertex
100
AcDb2dVertex
 10
101.607234675119
 20
-138.3660589931863
 30
0.0
  0
SEQEND
  5
10D
330
107
100
AcDbEntity
  8
_U+30EC_U+30A4_U+30E4_U+30FC 1
370
     0
  0
HATCH
  5
10E
330
101
100
AcDbEntity
  8
_U+30EC_U+30A4_U+30E4_U+30FC 1
 62
   179
420
  2234388
100
AcDbHatch
 10
0.0
 20
0.0
 30
0.0
210
0.0
220
0.0
230
1.0
  2
SOLID
 70
     1
 71
     0
 91
        1
 92
        1
 93
        4
 72
     1
 10
101.607234675119
 20
-138.3660589931863
 11
101.607234675119
 21
-138.0938964498515
 72
     1
 10
101.607234675119
 20
-138.0938964498515
 11
101.8980007340741
 21
-138.0938964498515
 72
     1
 10
101.8980007340741
 20
-138.0938964498515
 11
101.8980007340741
 21
-138.3660589931863
 72
     1
 10
101.8980007340741
 20
-138.3660589931863
 11
101.607234675119
 21
-138.3660589931863
 97
        0
 75
     2
 76
     1
 98
        0
  0
SPLINE
  5
10F
330
101
100
AcDbEntity
  8
_U+30EC_U+30A4_U+30E4_U+30FC 1
370
     0
100
AcDbSpline
210
0.0
220
0.0
230
1.0
 70
    11
 71
     3
 72
    29
 73
    25
 74
     0
 42
0.0000000001
 43
0.0000000001
 12
1.0
 22
0.0
 32
0.0
 13
1.0
 23
0.0
 33
0.0
 40
0.0
 40
0.0
 40
0.0
 40
0.0
 40
1.0
 40
1.0
 40
1.0
 40
2.0
 40
2.0
 40
2.0
 40
3.0
 40
3.0
 40
3.0
 40
4.0
 40
4.0
 40
4.0
 40
5.0
 40
5.0
 40
5.0
 40
6.0
 40
6.0
 40
6.0
 40
7.0
 40
7.0
 40
7.0
 40
8.0
 40
8.0
 40
8.0
 40
8.0
 10
102.7482502998338
 20
-138.4211805209503
 30
0.0
 10
102.4402587634524
 20
-138.4211805209503
 30
0.0
 10
102.1470811376577
 20
-138.2723523959875
 30
0.0
 10
102.1470811376577
 20
-137.8947699308041
 30
0.0
 10
102.1470811376577
 20
-137.6181287633385
 30
0.0
 10
102.3107231732071
 20
-137.5151204083296
 30
0.0
 10
102.4330240629334
 20
-137.4486300654642
 30
0.0
 10
102.2886745621014
 20
-137.3845512894386
 30
0.0
 10
102.2008246272276
 20
-137.2612168710666
 30
0.0
 10
102.2008246272276
 20
-137.0872395490615
 30
0.0
 10
102.2008246272276
 20
-136.7899278086845
 30
0.0
 10
102.4306124960937
 20
-136.6435112505613
 30
0.0
 10
102.7482502998338
 20
-136.6435112505613
 30
0.0
 10
103.075878880481
 20
-136.6435112505613
 30
0.0
 10
103.29567597244
 20
-136.7988850569461
 30
0.0
 10
103.29567597244
 20
-137.0872395490615
 30
0.0
 10
103.29567597244
 20
-137.2612168710666
 30
0.0
 10
103.2054144707264
 20
-137.3845512894386
 30
0.0
 10
103.0610649698945
 20
-137.4486300654642
 30
0.0
 10
103.1637288153549
 20
-137.5037515932282
 30
0.0
 10
103.3470078951702
 20
-137.6067599482372
 30
0.0
 10
103.3470078951702
 20
-137.8902913066733
 30
0.0
 10
103.3470078951702
 20
-138.2950900261901
 30
0.0
 10
103.0245469577508
 20
-138.4211805209503
 30
0.0
 10
102.7482502998338
 20
-138.4211805209503
 30
0.0
  0
SPLINE
  5
110
330
101
100
AcDbEntity
  8
_U+30EC_U+30A4_U+30E4_U+30FC 1
370
     0
100
AcDbSpline
210
0.0
220
0.0
230
1.0
 70
    11
 71
     3
 72
    17
 73
    13
 74
     0
 42
0.0000000001
 43
0.0000000001
 12
1.0
 22
0.0
 32
0.0
 13
1.0
 23
0.0
 33
0.0
 40
0.0
 40
0.0
 40
0.0
 40
0.0
 40
1.0
 40
1.0
 40
1.0
 40
2.0
 40
2.0
 40
2.0
 40
3.0
 40
3.0
 40
3.0
 40
4.0
 40
4.0
 40
4.0
 40
4.0
 10
102.7482502998338
 20
-137.5654188024142
 30
0.0
 10
102.5821966974447
 20
-137.5654188024142
 30
0.0
 10
102.4061523181485
 20
-137.659125399613
 30
0.0
 10
102.4061523181485
 20
-137.878922491572
 30
0.0
 10
102.4061523181485
 20
-138.100786640822
 30
0.0
 10
102.5529133858201
 20
-138.2106851868015
 30
0.0
 10
102.7482502998338
 20
-138.2106851868015
 30
0.0
 10
102.9632242581134
 20
-138.2106851868015
 30
0.0
 10
103.0903482815191
 20
-138.0780490106194
 30
0.0
 10
103.0903482815191
 20
-137.8858126825425
 30
0.0
 10
103.0903482815191
 20
-137.645345017672
 30
0.0
 10
102.9022460680244
 20
-137.5654188024142
 30
0.0
 10
102.7482502998338
 20
-137.5654188024142
 30
0.0
  0
SPLINE
  5
111
330
101
100
AcDbEntity
  8
_U+30EC_U+30A4_U+30E4_U+30FC 1
370
     0
100
AcDbSpline
210
0.0
220
0.0
230
1.0
 70
    11
 71
     3
 72
    17
 73
    13
 74
     0
 42
0.0000000001
 43
0.0000000001
 12
1.0
 22
0.0
 32
0.0
 13
1.0
 23
0.0
 33
0.0
 40
0.0
 40
0.0
 40
0.0
 40
0.0
 40
1.0
 40
1.0
 40
1.0
 40
2.0
 40
2.0
 40
2.0
 40
3.0
 40
3.0
 40
3.0
 40
4.0
 40
4.0
 40
4.0
 40
4.0
 10
102.7482502998338
 20
-136.8515950178704
 30
0.0
 10
102.5577365194995
 20
-136.8515950178704
 30
0.0
 10
102.4598958077184
 20
-136.9546033728794
 30
0.0
 10
102.4598958077184
 20
-137.1010199310025
 30
0.0
 10
102.4598958077184
 20
-137.2336561071847
 30
0.0
 10
102.5429226089129
 20
-137.3618136592359
 30
0.0
 10
102.7482502998338
 20
-137.3618136592359
 30
0.0
 10
102.9535779907547
 20
-137.3618136592359
 30
0.0
 10
103.0366047919492
 20
-137.2336561071847
 30
0.0
 10
103.0366047919492
 20
-137.1010199310025
 30
0.0
 10
103.0366047919492
 20
-136.9546033728794
 30
0.0
 10
102.9363525133284
 20
-136.8515950178704
 30
0.0
 10
102.7482502998338
 20
-136.8515950178704
 30
0.0
  0
HATCH
  5
112
330
101
100
AcDbEntity
  8
_U+30EC_U+30A4_U+30E4_U+30FC 1
 62
   179
420
  2234388
100
AcDbHatch
 10
0.0
 20
0.0
 30
0.0
210
0.0
220
0.0
230
1.0
  2
SOLID
 70
     1
 71
     0
 91
        3
 92
        1
 93
        1
 72
     4
 94
        3
 73
     0
 74
     1
 95
       29
 96
       25
 40
0.0
 40
0.0
 40
0.0
 40
0.0
 40
1.0
 40
1.0
 40
1.0
 40
2.0
 40
2.0
 40
2.0
 40
3.0
 40
3.0
 40
3.0
 40
4.0
 40
4.0
 40
4.0
 40
5.0
 40
5.0
 40
5.0
 40
6.0
 40
6.0
 40
6.0
 40
7.0
 40
7.0
 40
7.0
 40
8.0
 40
8.0
 40
8.0
 40
8.0
 10
102.7482502998338
 20
-138.4211805209503
 10
102.4402587634524
 20
-138.4211805209503
 10
102.1470811376577
 20
-138.2723523959875
 10
102.1470811376577
 20
-137.8947699308041
 10
102.1470811376577
 20
-137.6181287633385
 10
102.3107231732071
 20
-137.5151204083296
 10
102.4330240629334
 20
-137.4486300654642
 10
102.2886745621014
 20
-137.3845512894386
 10
102.2008246272276
 20
-137.2612168710666
 10
102.2008246272276
 20
-137.0872395490615
 10
102.2008246272276
 20
-136.7899278086845
 10
102.4306124960937
 20
-136.6435112505613
 10
102.7482502998338
 20
-136.6435112505613
 10
103.075878880481
 20
-136.6435112505613
 10
103.29567597244
 20
-136.7988850569461
 10
103.29567597244
 20
-137.0872395490615
 10
103.29567597244
 20
-137.2612168710666
 10
103.2054144707264
 20
-137.3845512894386
 10
103.0610649698945
 20
-137.4486300654642
 10
103.1637288153549
 20
-137.5037515932282
 10
103.3470078951702
 20
-137.6067599482372
 10
103.3470078951702
 20
-137.8902913066733
 10
103.3470078951702
 20
-138.2950900261901
 10
103.0245469577508
 20
-138.4211805209503
 10
102.7482502998338
 20
-138.4211805209503
 97
        0
 97
        0
 92
        1
 93
        1
 72
     4
 94
        3
 73
     0
 74
     1
 95
       17
 96
       13
 40
0.0
 40
0.0
 40
0.0
 40
0.0
 40
1.0
 40
1.0
 40
1.0
 40
2.0
 40
2.0
 40
2.0
 40
3.0
 40
3.0
 40
3.0
 40
4.0
 40
4.0
 40
4.0
 40
4.0
 10
102.7482502998338
 20
-137.5654188024142
 10
102.5821966974447
 20
-137.5654188024142
 10
102.4061523181485
 20
-137.659125399613
 10
102.4061523181485
 20
-137.878922491572
 10
102.4061523181485
 20
-138.100786640822
 10
102.5529133858201
 20
-138.2106851868015
 10
102.7482502998338
 20
-138.2106851868015
 10
102.9632242581134
 20
-138.2106851868015
 10
103.0903482815191
 20
-138.0780490106194
 10
103.0903482815191
 20
-137.8858126825425
 10
103.0903482815191
 20
-137.645345017672
 10
102.9022460680244
 20
-137.5654188024142
 10
102.7482502998338
 20
-137.5654188024142
 97
        0
 97
        0
 92
        1
 93
        1
 72
     4
 94
        3
 73
     0
 74
     1
 95
       17
 96
       13
 40
0.0
 40
0.0
 40
0.0
 40
0.0
 40
1.0
 40
1.0
 40
1.0
 40
2.0
 40
2.0
 40
2.0
 40
3.0
 40
3.0
 40
3.0
 40
4.0
 40
4.0
 40
4.0
 40
4.0
 10
102.7482502998338
 20
-136.8515950178704
 10
102.5577365194995
 20
-136.8515950178704
 10
102.4598958077184
 20
-136.9546033728794
 10
102.4598958077184
 20
-137.1010199310025
 10
102.4598958077184
 20
-137.2336561071847
 10
102.5429226089129
 20
-137.3618136592359
 10
102.7482502998338
 20
-137.3618136592359
 10
102.9535779907547
 20
-137.3618136592359
 10
103.0366047919492
 20
-137.2336561071847
 10
103.0366047919492
 20
-137.1010199310025
 10
103.0366047919492
 20
-136.9546033728794
 10
102.9363525133284
 20
-136.8515950178704
 10
102.7482502998338
 20
-136.8515950178704
 97
        0
 97
        0
 75
     2
 76
     1
 98
        0
  0
ENDBLK
  5
104
330
101
100
AcDbEntity
  8
0
100
AcDbBlockEnd
  0
BLOCK
  5
121
330
11F
100
AcDbEntity
  8
0
100
AcDbBlockBegin
  2
block 6
 70
     0
 10
0.0
 20
0.0
 30
0.0
  3
block 6
  1

  0
SPLINE
  5
123
330
11F
100
AcDbEntity
  8
_U+30EC_U+30A4_U+30E4_U+30FC 1
370
     0
100
AcDbSpline
210
0.0
220
0.0
230
1.0
 70
    11
 71
     3
 72
    29
 73
    25
 74
     0
 42
0.0000000001
 43
0.0000000001
 12
1.0
 22
0.0
 32
0.0
 13
1.0
 23
0.0
 33
0.0
 40
0.0
 40
0.0
 40
0.0
 40
0.0
 40
1.0
 40
1.0
 40
1.0
 40
2.0
 40
2.0
 40
2.0
 40
3.0
 40
3.0
 40
3.0
 40
4.0
 40
4.0
 40
4.0
 40
5.0
 40
5.0
 40
5.0
 40
6.0
 40
6.0
 40
6.0
 40
7.0
 40
7.0
 40
7.0
 40
8.0
 40
8.0
 40
8.0
 40
8.0
 10
107.6733588055469
 20
-143.1040988140504
 30
0.0
 10
107.6733588055469
 20
-143.4120903504317
 30
0.0
 10
107.5248751901327
 20
-143.7052679762265
 30
0.0
 10
107.1472927249493
 20
-143.7052679762265
 30
0.0
 10
106.8706515574837
 20
-143.7052679762265
 30
0.0
 10
106.7676432024748
 20
-143.5416259406771
 30
0.0
 10
106.7011528596094
 20
-143.4193250509507
 30
0.0
 10
106.6370740835838
 20
-143.5636745517827
 30
0.0
 10
106.5137396652118
 20
-143.6515244866566
 30
0.0
 10
106.3397623432067
 20
-143.6515244866566
 30
0.0
 10
106.0424506028297
 20
-143.6515244866566
 30
0.0
 10
105.8960340447066
 20
-143.4217366177904
 30
0.0
 10
105.8960340447066
 20
-143.1040988140504
 30
0.0
 10
105.8960340447066
 20
-142.7768147429516
 30
0.0
 10
106.0514078510913
 20
-142.5566731414442
 30
0.0
 10
106.3397623432067
 20
-142.5566731414442
 30
0.0
 10
106.5137396652118
 20
-142.5566731414442
 30
0.0
 10
106.6370740835838
 20
-142.6472791527062
 30
0.0
 10
106.7011528596094
 20
-142.7912841439897
 30
0.0
 10
106.7559298778249
 20
-142.6886202985292
 30
0.0
 10
106.8589382328339
 20
-142.5053412187139
 30
0.0
 10
107.1428141008185
 20
-142.5053412187139
 30
0.0
 10
107.5476128203353
 20
-142.5053412187139
 30
0.0
 10
107.6733588055469
 20
-142.8281466656819
 30
0.0
 10
107.6733588055469
 20
-143.1040988140504
 30
0.0
  0
SPLINE
  5
124
330
11F
100
AcDbEntity
  8
_U+30EC_U+30A4_U+30E4_U+30FC 1
370
     0
100
AcDbSpline
210
0.0
220
0.0
230
1.0
 70
    11
 71
     3
 72
    17
 73
    13
 74
     0
 42
0.0000000001
 43
0.0000000001
 12
1.0
 22
0.0
 32
0.0
 13
1.0
 23
0.0
 33
0.0
 40
0.0
 40
0.0
 40
0.0
 40
0.0
 40
1.0
 40
1.0
 40
1.0
 40
2.0
 40
2.0
 40
2.0
 40
3.0
 40
3.0
 40
3.0
 40
4.0
 40
4.0
 40
4.0
 40
4.0
 10
106.1041178120156
 20
-143.1040988140504
 30
0.0
 10
106.1041178120156
 20
-143.2949571039332
 30
0.0
 10
106.2071261670246
 20
-143.3924533061658
 30
0.0
 10
106.3535427251477
 20
-143.3924533061658
 30
0.0
 10
106.4861789013299
 20
-143.3924533061658
 30
0.0
 10
106.6143364533811
 20
-143.3094265049713
 30
0.0
 10
106.6143364533811
 20
-143.1040988140504
 30
0.0
 10
106.6143364533811
 20
-142.8987711231295
 30
0.0
 10
106.4861789013299
 20
-142.815744321935
 30
0.0
 10
106.3535427251477
 20
-142.815744321935
 30
0.0
 10
106.2071261670246
 20
-142.815744321935
 30
0.0
 10
106.1041178120156
 20
-142.9159966005557
 30
0.0
 10
106.1041178120156
 20
-143.1040988140504
 30
0.0
  0
SPLINE
  5
125
330
11F
100
AcDbEntity
  8
_U+30EC_U+30A4_U+30E4_U+30FC 1
370
     0
100
AcDbSpline
210
0.0
220
0.0
230
1.0
 70
    11
 71
     3
 72
    17
 73
    13
 74
     0
 42
0.0000000001
 43
0.0000000001
 12
1.0
 22
0.0
 32
0.0
 13
1.0
 23
0.0
 33
0.0
 40
0.0
 40
0.0
 40
0.0
 40
0.0
 40
1.0
 40
1.0
 40
1.0
 40
2.0
 40
2.0
 40
2.0
 40
3.0
 40
3.0
 40
3.0
 40
4.0
 40
4.0
 40
4.0
 40
4.0
 10
106.8179415965594
 20
-143.1040988140504
 30
0.0
 10
106.8179415965594
 20
-143.2704969259879
 30
0.0
 10
106.9116481937582
 20
-143.4461967957357
 30
0.0
 10
107.1314452857171
 20
-143.4461967957357
 30
0.0
 10
107.3533094349672
 20
-143.4461967957357
 30
0.0
 10
107.4628634713982
 20
-143.2997802376126
 30
0.0
 10
107.4628634713982
 20
-143.1040988140504
 30
0.0
 10
107.4628634713982
 20
-142.8891248557708
 30
0.0
 10
107.3302272952161
 20
-142.7620008323651
 30
0.0
 10
107.1379909671391
 20
-142.7620008323651
 30
0.0
 10
106.8978678118172
 20
-142.7620008323651
 30
0.0
 10
106.8179415965594
 20
-142.9501030458597
 30
0.0
 10
106.8179415965594
 20
-143.1040988140504
 30
0.0
  0
HATCH
  5
126
330
11F
100
AcDbEntity
  8
_U+30EC_U+30A4_U+30E4_U+30FC 1
 62
   179
420
  2234388
100
AcDbHatch
 10
0.0
 20
0.0
 30
0.0
210
0.0
220
0.0
230
1.0
  2
SOLID
 70
     1
 71
     0
 91
        3
 92
        1
 93
        1
 72
     4
 94
        3
 73
     0
 74
     1
 95
       29
 96
       25
 40
0.0
 40
0.0
 40
0.0
 40
0.0
 40
1.0
 40
1.0
 40
1.0
 40
2.0
 40
2.0
 40
2.0
 40
3.0
 40
3.0
 40
3.0
 40
4.0
 40
4.0
 40
4.0
 40
5.0
 40
5.0
 40
5.0
 40
6.0
 40
6.0
 40
6.0
 40
7.0
 40
7.0
 40
7.0
 40
8.0
 40
8.0
 40
8.0
 40
8.0
 10
107.6733588055469
 20
-143.1040988140504
 10
107.6733588055469
 20
-143.4120903504317
 10
107.5248751901327
 20
-143.7052679762265
 10
107.1472927249493
 20
-143.7052679762265
 10
106.8706515574837
 20
-143.7052679762265
 10
106.7676432024748
 20
-143.5416259406771
 10
106.7011528596094
 20
-143.4193250509507
 10
106.6370740835838
 20
-143.5636745517827
 10
106.5137396652118
 20
-143.6515244866566
 10
106.3397623432067
 20
-143.6515244866566
 10
106.0424506028297
 20
-143.6515244866566
 10
105.8960340447066
 20
-143.4217366177904
 10
105.8960340447066
 20
-143.1040988140504
 10
105.8960340447066
 20
-142.7768147429516
 10
106.0514078510913
 20
-142.5566731414442
 10
106.3397623432067
 20
-142.5566731414442
 10
106.5137396652118
 20
-142.5566731414442
 10
106.6370740835838
 20
-142.6472791527062
 10
106.7011528596094
 20
-142.7912841439897
 10
106.7559298778249
 20
-142.6886202985292
 10
106.8589382328339
 20
-142.5053412187139
 10
107.1428141008185
 20
-142.5053412187139
 10
107.5476128203353
 20
-142.5053412187139
 10
107.6733588055469
 20
-142.8281466656819
 10
107.6733588055469
 20
-143.1040988140504
 97
        0
 97
        0
 92
        1
 93
        1
 72
     4
 94
        3
 73
     0
 74
     1
 95
       17
 96
       13
 40
0.0
 40
0.0
 40
0.0
 40
0.0
 40
1.0
 40
1.0
 40
1.0
 40
2.0
 40
2.0
 40
2.0
 40
3.0
 40
3.0
 40
3.0
 40
4.0
 40
4.0
 40
4.0
 40
4.0
 10
106.1041178120156
 20
-143.1040988140504
 10
106.1041178120156
 20
-143.2949571039332
 10
106.2071261670246
 20
-143.3924533061658
 10
106.3535427251477
 20
-143.3924533061658
 10
106.4861789013299
 20
-143.3924533061658
 10
106.6143364533811
 20
-143.3094265049713
 10
106.6143364533811
 20
-143.1040988140504
 10
106.6143364533811
 20
-142.8987711231295
 10
106.4861789013299
 20
-142.815744321935
 10
106.3535427251477
 20
-142.815744321935
 10
106.2071261670246
 20
-142.815744321935
 10
106.1041178120156
 20
-142.9159966005557
 10
106.1041178120156
 20
-143.1040988140504
 97
        0
 97
        0
 92
        1
 93
        1
 72
     4
 94
        3
 73
     0
 74
     1
 95
       17
 96
       13
 40
0.0
 40
0.0
 40
0.0
 40
0.0
 40
1.0
 40
1.0
 40
1.0
 40
2.0
 40
2.0
 40
2.0
 40
3.0
 40
3.0
 40
3.0
 40
4.0
 40
4.0
 40
4.0
 40
4.0
 10
106.8179415965594
 20
-143.1040988140504
 10
106.8179415965594
 20
-143.2704969259879
 10
106.9116481937582
 20
-143.4461967957357
 10
107.1314452857171
 20
-143.4461967957357
 10
107.3533094349672
 20
-143.4461967957357
 10
107.4628634713982
 20
-143.2997802376126
 10
107.4628634713982
 20
-143.1040988140504
 10
107.4628634713982
 20
-142.8891248557708
 10
107.3302272952161
 20
-142.7620008323651
 10
107.1379909671391
 20
-142.7620008323651
 10
106.8978678118172
 20
-142.7620008323651
 10
106.8179415965594
 20
-142.9501030458597
 10
106.8179415965594
 20
-143.1040988140504
 97
        0
 97
        0
 75
     2
 76
     1
 98
        0
  0
ENDBLK
  5
122
330
11F
100
AcDbEntity
  8
0
100
AcDbBlockEnd
  0
BLOCK
  5
135
330
133
100
AcDbEntity
  8
0
100
AcDbBlockBegin
  2
block 7
 70
     0
 10
0.0
 20
0.0
 30
0.0
  3
block 7
  1

  0
SPLINE
  5
137
330
133
100
AcDbEntity
  8
_U+30EC_U+30A4_U+30E4_U+30FC 1
370
     0
100
AcDbSpline
210
0.0
220
0.0
230
1.0
 70
    11
 71
     3
 72
    53
 73
    49
 74
     0
 42
0.0000000001
 43
0.0000000001
 12
1.0
 22
0.0
 32
0.0
 13
1.0
 23
0.0
 33
0.0
 40
0.0
 40
0.0
 40
0.0
 40
0.0
 40
1.0
 40
1.0
 40
1.0
 40
2.0
 40
2.0
 40
2.0
 40
3.0
 40
3.0
 40
3.0
 40
4.0
 40
4.0
 40
4.0
 40
5.0
 40
5.0
 40
5.0
 40
6.0
 40
6.0
 40
6.0
 40
7.0
 40
7.0
 40
7.0
 40
8.0
 40
8.0
 40
8.0
 40
9.0
 40
9.0
 40
9.0
 40
10.0
 40
10.0
 40
10.0
 40
11.0
 40
11.0
 40
11.0
 40
12.0
 40
12.0
 40
12.0
 40
13.0
 40
13.0
 40
13.0
 40
14.0
 40
14.0
 40
14.0
 40
15.0
 40
15.0
 40
15.0
 40
16.0
 40
16.0
 40
16.0
 40
16.0
 10
78.3910807095689
 20
-144.0835394605069
 30
0.0
 10
78.3910807095689
 20
-144.174145471769
 30
0.0
 10
78.37282170349708
 20
-144.2912787182675
 30
0.0
 10
78.3042643033406
 20
-144.4087564743145
 30
0.0
 10
78.18540850909949
 20
-144.6089165220075
 30
0.0
 10
78.0434705751072
 20
-144.6333766999528
 30
0.0
 10
77.92668183815722
 20
-144.6554253110584
 30
0.0
 10
77.92668183815722
 20
-144.6554253110584
 30
0.0
 10
77.92668183815722
 20
-144.3987656974073
 30
0.0
 10
77.92668183815722
 20
-144.3987656974073
 30
0.0
 10
78.14200030598533
 20
-144.3353759404787
 30
0.0
 10
78.17403969399815
 20
-144.188614872807
 30
0.0
 10
78.17403969399815
 20
-144.0811278936672
 30
0.0
 10
78.17403969399815
 20
-143.9198974249575
 30
0.0
 10
78.06620820530983
 20
-143.7438530456613
 30
0.0
 10
77.8147162348866
 20
-143.7438530456613
 30
0.0
 10
77.53773055787252
 20
-143.7438530456613
 30
0.0
 10
77.46228296674555
 20
-143.9515923034218
 30
0.0
 10
77.46228296674555
 20
-144.0907741610259
 30
0.0
 10
77.46228296674555
 20
-144.1276366827181
 30
0.0
 10
77.46228296674555
 20
-144.2912787182675
 30
0.0
 10
77.60180933389816
 20
-144.3939425637279
 30
0.0
 10
77.60180933389816
 20
-144.3939425637279
 30
0.0
 10
77.58148327053519
 20
-144.5968586878091
 30
0.0
 10
77.58148327053519
 20
-144.5968586878091
 30
0.0
 10
77.58148327053519
 20
-144.5968586878091
 30
0.0
 10
76.6661214001043
 20
-144.4573323206565
 30
0.0
 10
76.6661214001043
 20
-144.4573323206565
 30
0.0
 10
76.6661214001043
 20
-144.4573323206565
 30
0.0
 10
76.6661214001043
 20
-143.5581623990063
 30
0.0
 10
76.6661214001043
 20
-143.5581623990063
 30
0.0
 10
76.6661214001043
 20
-143.5581623990063
 30
0.0
 10
76.87661673425308
 20
-143.5581623990063
 30
0.0
 10
76.87661673425308
 20
-143.5581623990063
 30
0.0
 10
76.87661673425308
 20
-143.5581623990063
 30
0.0
 10
76.87661673425308
 20
-144.2692301071619
 30
0.0
 10
76.87661673425308
 20
-144.2692301071619
 30
0.0
 10
76.87661673425308
 20
-144.2692301071619
 30
0.0
 10
77.33412541469426
 20
-144.3450222078374
 30
0.0
 10
77.33412541469426
 20
-144.3450222078374
 30
0.0
 10
77.2976074025506
 20
-144.2740532408412
 30
0.0
 10
77.25419919943646
 20
-144.1789686054483
 30
0.0
 10
77.25419919943646
 20
-144.0418538051354
 30
0.0
 10
77.25419919943646
 20
-143.7486761793406
 30
0.0
 10
77.45539277577504
 20
-143.4751355978118
 30
0.0
 10
77.7940456619751
 20
-143.4751355978118
 30
0.0
 10
78.13717717230598
 20
-143.4751355978118
 30
0.0
 10
78.3910807095689
 20
-143.7342067783026
 30
0.0
 10
78.3910807095689
 20
-144.0835394605069
 30
0.0
  0
HATCH
  5
138
330
133
100
AcDbEntity
  8
_U+30EC_U+30A4_U+30E4_U+30FC 1
 62
   179
420
  2234388
100
AcDbHatch
 10
0.0
 20
0.0
 30
0.0
210
0.0
220
0.0
230
1.0
  2
SOLID
 70
     1
 71
     0
 91
        1
 92
        1
 93
        1
 72
     4
 94
        3
 73
     0
 74
     1
 95
       53
 96
       49
 40
0.0
 40
0.0
 40
0.0
 40
0.0
 40
1.0
 40
1.0
 40
1.0
 40
2.0
 40
2.0
 40
2.0
 40
3.0
 40
3.0
 40
3.0
 40
4.0
 40
4.0
 40
4.0
 40
5.0
 40
5.0
 40
5.0
 40
6.0
 40
6.0
 40
6.0
 40
7.0
 40
7.0
 40
7.0
 40
8.0
 40
8.0
 40
8.0
 40
9.0
 40
9.0
 40
9.0
 40
10.0
 40
10.0
 40
10.0
 40
11.0
 40
11.0
 40
11.0
 40
12.0
 40
12.0
 40
12.0
 40
13.0
 40
13.0
 40
13.0
 40
14.0
 40
14.0
 40
14.0
 40
15.0
 40
15.0
 40
15.0
 40
16.0
 40
16.0
 40
16.0
 40
16.0
 10
78.3910807095689
 20
-144.0835394605069
 10
78.3910807095689
 20
-144.174145471769
 10
78.37282170349708
 20
-144.2912787182675
 10
78.3042643033406
 20
-144.4087564743145
 10
78.18540850909949
 20
-144.6089165220075
 10
78.0434705751072
 20
-144.6333766999528
 10
77.92668183815722
 20
-144.6554253110584
 10
77.92668183815722
 20
-144.6554253110584
 10
77.92668183815722
 20
-144.3987656974073
 10
77.92668183815722
 20
-144.3987656974073
 10
78.14200030598533
 20
-144.3353759404787
 10
78.17403969399815
 20
-144.188614872807
 10
78.17403969399815
 20
-144.0811278936672
 10
78.17403969399815
 20
-143.9198974249575
 10
78.06620820530983
 20
-143.7438530456613
 10
77.8147162348866
 20
-143.7438530456613
 10
77.53773055787252
 20
-143.7438530456613
 10
77.46228296674555
 20
-143.9515923034218
 10
77.46228296674555
 20
-144.0907741610259
 10
77.46228296674555
 20
-144.1276366827181
 10
77.46228296674555
 20
-144.2912787182675
 10
77.60180933389816
 20
-144.3939425637279
 10
77.60180933389816
 20
-144.3939425637279
 10
77.58148327053519
 20
-144.5968586878091
 10
77.58148327053519
 20
-144.5968586878091
 10
77.58148327053519
 20
-144.5968586878091
 10
76.6661214001043
 20
-144.4573323206565
 10
76.6661214001043
 20
-144.4573323206565
 10
76.6661214001043
 20
-144.4573323206565
 10
76.6661214001043
 20
-143.5581623990063
 10
76.6661214001043
 20
-143.5581623990063
 10
76.6661214001043
 20
-143.5581623990063
 10
76.87661673425308
 20
-143.5581623990063
 10
76.87661673425308
 20
-143.5581623990063
 10
76.87661673425308
 20
-143.5581623990063
 10
76.87661673425308
 20
-144.2692301071619
 10
76.87661673425308
 20
-144.2692301071619
 10
76.87661673425308
 20
-144.2692301071619
 10
77.33412541469426
 20
-144.3450222078374
 10
77.33412541469426
 20
-144.3450222078374
 10
77.2976074025506
 20
-144.2740532408412
 10
77.25419919943646
 20
-144.1789686054483
 10
77.25419919943646
 20
-144.0418538051354
 10
77.25419919943646
 20
-143.7486761793406
 10
77.45539277577504
 20
-143.4751355978118
 10
77.7940456619751
 20
-143.4751355978118
 10
78.13717717230598
 20
-143.4751355978118
 10
78.3910807095689
 20
-143.7342067783026
 10
78.3910807095689
 20
-144.0835394605069
 97
        0
 97
        0
 75
     2
 76
     1
 98
        0
  0
ENDBLK
  5
136
330
133
100
AcDbEntity
  8
0
100
AcDbBlockEnd
  0
BLOCK
  5
147
330
145
100
AcDbEntity
  8
0
100
AcDbBlockBegin
  2
block 8
 70
     0
 10
0.0
 20
0.0
 30
0.0
  3
block 8
  1

  0
SPLINE
  5
149
330
145
100
AcDbEntity
  8
_U+30EC_U+30A4_U+30E4_U+30FC 1
370
     0
100
AcDbSpline
210
0.0
220
0.0
230
1.0
 70
    11
 71
     3
 72
    44
 73
    40
 74
     0
 42
0.0000000001
 43
0.0000000001
 12
1.0
 22
0.0
 32
0.0
 13
1.0
 23
0.0
 33
0.0
 40
0.0
 40
0.0
 40
0.0
 40
0.0
 40
1.0
 40
1.0
 40
1.0
 40
2.0
 40
2.0
 40
2.0
 40
3.0
 40
3.0
 40
3.0
 40
4.0
 40
4.0
 40
4.0
 40
5.0
 40
5.0
 40
5.0
 40
6.0
 40
6.0
 40
6.0
 40
7.0
 40
7.0
 40
7.0
 40
8.0
 40
8.0
 40
8.0
 40
9.0
 40
9.0
 40
9.0
 40
10.0
 40
10.0
 40
10.0
 40
11.0
 40
11.0
 40
11.0
 40
12.0
 40
12.0
 40
12.0
 40
13.0
 40
13.0
 40
13.0
 40
13.0
 10
74.93392739012069
 20
-139.0009900911178
 30
0.0
 10
75.10549314528613
 20
-139.2524820615411
 30
0.0
 10
75.18541936054393
 20
-139.3599690406809
 30
0.0
 10
75.34113767647722
 20
-139.4164686066389
 30
0.0
 10
75.34113767647722
 20
-139.4164686066389
 30
0.0
 10
75.34113767647722
 20
-138.5169541754402
 30
0.0
 10
75.34113767647722
 20
-138.5169541754402
 30
0.0
 10
75.34113767647722
 20
-138.5169541754402
 30
0.0
 10
75.56300182572731
 20
-138.5169541754402
 30
0.0
 10
75.56300182572731
 20
-138.5169541754402
 30
0.0
 10
75.56300182572731
 20
-138.5169541754402
 30
0.0
 10
75.56300182572731
 20
-139.7048230987544
 30
0.0
 10
75.56300182572731
 20
-139.7048230987544
 30
0.0
 10
75.17646211228228
 20
-139.6679605770622
 30
0.0
 10
75.09171276334513
 20
-139.5921684763867
 30
0.0
 10
74.76925182592575
 20
-139.1474066492409
 30
0.0
 10
74.55393335809764
 20
-138.8518174566065
 30
0.0
 10
74.48089733381033
 20
-138.776025355931
 30
0.0
 10
74.33206920884754
 20
-138.776025355931
 30
0.0
 10
74.20391165679625
 20
-138.776025355931
 30
0.0
 10
74.06231823235248
 20
-138.8590521571255
 30
0.0
 10
74.06231823235248
 20
-139.086428459152
 30
0.0
 10
74.06231823235248
 20
-139.3868407854658
 30
0.0
 10
74.31174314548457
 20
-139.396831562373
 30
0.0
 10
74.43748913069619
 20
-139.4016546960524
 30
0.0
 10
74.43748913069619
 20
-139.4016546960524
 30
0.0
 10
74.43748913069619
 20
-139.6607258765432
 30
0.0
 10
74.43748913069619
 20
-139.6607258765432
 30
0.0
 10
74.30002982083472
 20
-139.6510796091844
 30
0.0
 10
74.17876245975393
 20
-139.6386772654376
 30
0.0
 10
74.05094941725116
 20
-139.5456596873358
 30
0.0
 10
73.87697209524603
 20
-139.4188801734786
 30
0.0
 10
73.84045408310239
 20
-139.2035617056505
 30
0.0
 10
73.84045408310239
 20
-139.0692029817258
 30
0.0
 10
73.84045408310239
 20
-138.7491536111461
 30
0.0
 10
74.0392360926013
 20
-138.5097194749212
 30
0.0
 10
74.33448077568721
 20
-138.5097194749212
 30
0.0
 10
74.58149412197963
 20
-138.5097194749212
 30
0.0
 10
74.68898110111942
 20
-138.6440781988459
 30
0.0
 10
74.93392739012069
 20
-139.0009900911178
 30
0.0
  0
HATCH
  5
14A
330
145
100
AcDbEntity
  8
_U+30EC_U+30A4_U+30E4_U+30FC 1
 62
   179
420
  2234388
100
AcDbHatch
 10
0.0
 20
0.0
 30
0.0
210
0.0
220
0.0
230
1.0
  2
SOLID
 70
     1
 71
     0
 91
        1
 92
        1
 93
        1
 72
     4
 94
        3
 73
     0
 74
     1
 95
       44
 96
       40
 40
0.0
 40
0.0
 40
0.0
 40
0.0
 40
1.0
 40
1.0
 40
1.0
 40
2.0
 40
2.0
 40
2.0
 40
3.0
 40
3.0
 40
3.0
 40
4.0
 40
4.0
 40
4.0
 40
5.0
 40
5.0
 40
5.0
 40
6.0
 40
6.0
 40
6.0
 40
7.0
 40
7.0
 40
7.0
 40
8.0
 40
8.0
 40
8.0
 40
9.0
 40
9.0
 40
9.0
 40
10.0
 40
10.0
 40
10.0
 40
11.0
 40
11.0
 40
11.0
 40
12.0
 40
12.0
 40
12.0
 40
13.0
 40
13.0
 40
13.0
 40
13.0
 10
74.93392739012069
 20
-139.0009900911178
 10
75.10549314528613
 20
-139.2524820615411
 10
75.18541936054393
 20
-139.3599690406809
 10
75.34113767647722
 20
-139.4164686066389
 10
75.34113767647722
 20
-139.4164686066389
 10
75.34113767647722
 20
-138.5169541754402
 10
75.34113767647722
 20
-138.5169541754402
 10
75.34113767647722
 20
-138.5169541754402
 10
75.56300182572731
 20
-138.5169541754402
 10
75.56300182572731
 20
-138.5169541754402
 10
75.56300182572731
 20
-138.5169541754402
 10
75.56300182572731
 20
-139.7048230987544
 10
75.56300182572731
 20
-139.7048230987544
 10
75.17646211228228
 20
-139.6679605770622
 10
75.09171276334513
 20
-139.5921684763867
 10
74.76925182592575
 20
-139.1474066492409
 10
74.55393335809764
 20
-138.8518174566065
 10
74.48089733381033
 20
-138.776025355931
 10
74.33206920884754
 20
-138.776025355931
 10
74.20391165679625
 20
-138.776025355931
 10
74.06231823235248
 20
-138.8590521571255
 10
74.06231823235248
 20
-139.086428459152
 10
74.06231823235248
 20
-139.3868407854658
 10
74.31174314548457
 20
-139.396831562373
 10
74.43748913069619
 20
-139.4016546960524
 10
74.43748913069619
 20
-139.4016546960524
 10
74.43748913069619
 20
-139.6607258765432
 10
74.43748913069619
 20
-139.6607258765432
 10
74.30002982083472
 20
-139.6510796091844
 10
74.17876245975393
 20
-139.6386772654376
 10
74.05094941725116
 20
-139.5456596873358
 10
73.87697209524603
 20
-139.4188801734786
 10
73.84045408310239
 20
-139.2035617056505
 10
73.84045408310239
 20
-139.0692029817258
 10
73.84045408310239
 20
-138.7491536111461
 10
74.0392360926013
 20
-138.5097194749212
 10
74.33448077568721
 20
-138.5097194749212
 10
74.58149412197963
 20
-138.5097194749212
 10
74.68898110111942
 20
-138.6440781988459
 10
74.93392739012069
 20
-139.0009900911178
 97
        0
 97
        0
 75
     2
 76
     1
 98
        0
  0
SPLINE
  5
14B
330
145
100
AcDbEntity
  8
_U+30EC_U+30A4_U+30E4_U+30FC 1
370
     0
100
AcDbSpline
210
0.0
220
0.0
230
1.0
 70
    11
 71
     3
 72
    53
 73
    49
 74
     0
 42
0.0000000001
 43
0.0000000001
 12
1.0
 22
0.0
 32
0.0
 13
1.0
 23
0.0
 33
0.0
 40
0.0
 40
0.0
 40
0.0
 40
0.0
 40
1.0
 40
1.0
 40
1.0
 40
2.0
 40
2.0
 40
2.0
 40
3.0
 40
3.0
 40
3.0
 40
4.0
 40
4.0
 40
4.0
 40
5.0
 40
5.0
 40
5.0
 40
6.0
 40
6.0
 40
6.0
 40
7.0
 40
7.0
 40
7.0
 40
8.0
 40
8.0
 40
8.0
 40
9.0
 40
9.0
 40
9.0
 40
10.0
 40
10.0
 40
10.0
 40
11.0
 40
11.0
 40
11.0
 40
12.0
 40
12.0
 40
12.0
 40
13.0
 40
13.0
 40
13.0
 40
14.0
 40
14.0
 40
14.0
 40
15.0
 40
15.0
 40
15.0
 40
16.0
 40
16.0
 40
16.0
 40
16.0
 10
75.61777884394279
 20
-137.7721245315292
 30
0.0
 10
75.61777884394279
 20
-137.8623860332428
 30
0.0
 10
75.59951983787096
 20
-137.9798637892898
 30
0.0
 10
75.53096243771448
 20
-138.0969970357883
 30
0.0
 10
75.41210664347336
 20
-138.2975015930298
 30
0.0
 10
75.27016870948107
 20
-138.3219617709751
 30
0.0
 10
75.1533799725311
 20
-138.3436658725321
 30
0.0
 10
75.1533799725311
 20
-138.3436658725321
 30
0.0
 10
75.1533799725311
 20
-138.0873507684296
 30
0.0
 10
75.1533799725311
 20
-138.0873507684296
 30
0.0
 10
75.36869844035921
 20
-138.0236165019524
 30
0.0
 10
75.40073782837204
 20
-137.8771999438293
 30
0.0
 10
75.40073782837204
 20
-137.769368455141
 30
0.0
 10
75.40073782837204
 20
-137.6081379864313
 30
0.0
 10
75.29290633968373
 20
-137.4324381166836
 30
0.0
 10
75.04141436926048
 20
-137.4324381166836
 30
0.0
 10
74.7644286922464
 20
-137.4324381166836
 30
0.0
 10
74.68898110111942
 20
-137.6398328648956
 30
0.0
 10
74.68898110111942
 20
-137.7793592320482
 30
0.0
 10
74.68898110111942
 20
-137.8158772441919
 30
0.0
 10
74.68898110111942
 20
-137.9798637892898
 30
0.0
 10
74.82850746827204
 20
-138.0821831252017
 30
0.0
 10
74.82850746827204
 20
-138.0821831252017
 30
0.0
 10
74.80818140490906
 20
-138.2850992492829
 30
0.0
 10
74.80818140490906
 20
-138.2850992492829
 30
0.0
 10
74.80818140490906
 20
-138.2850992492829
 30
0.0
 10
73.89281953447819
 20
-138.1459173916788
 30
0.0
 10
73.89281953447819
 20
-138.1459173916788
 30
0.0
 10
73.89281953447819
 20
-138.1459173916788
 30
0.0
 10
73.89281953447819
 20
-137.2464029604801
 30
0.0
 10
73.89281953447819
 20
-137.2464029604801
 30
0.0
 10
73.89281953447819
 20
-137.2464029604801
 30
0.0
 10
74.10331486862695
 20
-137.2464029604801
 30
0.0
 10
74.10331486862695
 20
-137.2464029604801
 30
0.0
 10
74.10331486862695
 20
-137.2464029604801
 30
0.0
 10
74.10331486862695
 20
-137.9578151781842
 30
0.0
 10
74.10331486862695
 20
-137.9578151781842
 30
0.0
 10
74.10331486862695
 20
-137.9578151781842
 30
0.0
 10
74.56082354906813
 20
-138.0336072788596
 30
0.0
 10
74.56082354906813
 20
-138.0336072788596
 30
0.0
 10
74.52430553692449
 20
-137.9626383118635
 30
0.0
 10
74.48089733381033
 20
-137.8672091669221
 30
0.0
 10
74.48089733381033
 20
-137.7304388761577
 30
0.0
 10
74.48089733381033
 20
-137.4372612503629
 30
0.0
 10
74.68209091014893
 20
-137.1633761592855
 30
0.0
 10
75.02074379634898
 20
-137.1633761592855
 30
0.0
 10
75.36387530667987
 20
-137.1633761592855
 30
0.0
 10
75.61777884394279
 20
-137.4224473397763
 30
0.0
 10
75.61777884394279
 20
-137.7721245315292
 30
0.0
  0
HATCH
  5
14C
330
145
100
AcDbEntity
  8
_U+30EC_U+30A4_U+30E4_U+30FC 1
 62
   179
420
  2234388
100
AcDbHatch
 10
0.0
 20
0.0
 30
0.0
210
0.0
220
0.0
230
1.0
  2
SOLID
 70
     1
 71
     0
 91
        1
 92
        1
 93
        1
 72
     4
 94
        3
 73
     0
 74
     1
 95
       53
 96
       49
 40
0.0
 40
0.0
 40
0.0
 40
0.0
 40
1.0
 40
1.0
 40
1.0
 40
2.0
 40
2.0
 40
2.0
 40
3.0
 40
3.0
 40
3.0
 40
4.0
 40
4.0
 40
4.0
 40
5.0
 40
5.0
 40
5.0
 40
6.0
 40
6.0
 40
6.0
 40
7.0
 40
7.0
 40
7.0
 40
8.0
 40
8.0
 40
8.0
 40
9.0
 40
9.0
 40
9.0
 40
10.0
 40
10.0
 40
10.0
 40
11.0
 40
11.0
 40
11.0
 40
12.0
 40
12.0
 40
12.0
 40
13.0
 40
13.0
 40
13.0
 40
14.0
 40
14.0
 40
14.0
 40
15.0
 40
15.0
 40
15.0
 40
16.0
 40
16.0
 40
16.0
 40
16.0
 10
75.61777884394279
 20
-137.7721245315292
 10
75.61777884394279
 20
-137.8623860332428
 10
75.59951983787096
 20
-137.9798637892898
 10
75.53096243771448
 20
-138.0969970357883
 10
75.41210664347336
 20
-138.2975015930298
 10
75.27016870948107
 20
-138.3219617709751
 10
75.1533799725311
 20
-138.3436658725321
 10
75.1533799725311
 20
-138.3436658725321
 10
75.1533799725311
 20
-138.0873507684296
 10
75.1533799725311
 20
-138.0873507684296
 10
75.36869844035921
 20
-138.0236165019524
 10
75.40073782837204
 20
-137.8771999438293
 10
75.40073782837204
 20
-137.769368455141
 10
75.40073782837204
 20
-137.6081379864313
 10
75.29290633968373
 20
-137.4324381166836
 10
75.04141436926048
 20
-137.4324381166836
 10
74.7644286922464
 20
-137.4324381166836
 10
74.68898110111942
 20
-137.6398328648956
 10
74.68898110111942
 20
-137.7793592320482
 10
74.68898110111942
 20
-137.8158772441919
 10
74.68898110111942
 20
-137.9798637892898
 10
74.82850746827204
 20
-138.0821831252017
 10
74.82850746827204
 20
-138.0821831252017
 10
74.80818140490906
 20
-138.2850992492829
 10
74.80818140490906
 20
-138.2850992492829
 10
74.80818140490906
 20
-138.2850992492829
 10
73.89281953447819
 20
-138.1459173916788
 10
73.89281953447819
 20
-138.1459173916788
 10
73.89281953447819
 20
-138.1459173916788
 10
73.89281953447819
 20
-137.2464029604801
 10
73.89281953447819
 20
-137.2464029604801
 10
73.89281953447819
 20
-137.2464029604801
 10
74.10331486862695
 20
-137.2464029604801
 10
74.10331486862695
 20
-137.2464029604801
 10
74.10331486862695
 20
-137.2464029604801
 10
74.10331486862695
 20
-137.9578151781842
 10
74.10331486862695
 20
-137.9578151781842
 10
74.10331486862695
 20
-137.9578151781842
 10
74.56082354906813
 20
-138.0336072788596
 10
74.56082354906813
 20
-138.0336072788596
 10
74.52430553692449
 20
-137.9626383118635
 10
74.48089733381033
 20
-137.8672091669221
 10
74.48089733381033
 20
-137.7304388761577
 10
74.48089733381033
 20
-137.4372612503629
 10
74.68209091014893
 20
-137.1633761592855
 10
75.02074379634898
 20
-137.1633761592855
 10
75.36387530667987
 20
-137.1633761592855
 10
75.61777884394279
 20
-137.4224473397763
 10
75.61777884394279
 20
-137.7721245315292
 97
        0
 97
        0
 75
     2
 76
     1
 98
        0
  0
ENDBLK
  5
148
330
145
100
AcDbEntity
  8
0
100
AcDbBlockEnd
  0
BLOCK
  5
157
330
155
100
AcDbEntity
  8
0
100
AcDbBlockBegin
  2
block 9
 70
     0
 10
0.0
 20
0.0
 30
0.0
  3
block 9
  1

  0
SPLINE
  5
159
330
155
100
AcDbEntity
  8
_U+30EC_U+30A4_U+30E4_U+30FC 1
370
     0
100
AcDbSpline
210
0.0
220
0.0
230
1.0
 70
    11
 71
     3
 72
    62
 73
    58
 74
     0
 42
0.0000000001
 43
0.0000000001
 12
1.0
 22
0.0
 32
0.0
 13
1.0
 23
0.0
 33
0.0
 40
0.0
 40
0.0
 40
0.0
 40
0.0
 40
1.0
 40
1.0
 40
1.0
 40
2.0
 40
2.0
 40
2.0
 40
3.0
 40
3.0
 40
3.0
 40
4.0
 40
4.0
 40
4.0
 40
5.0
 40
5.0
 40
5.0
 40
6.0
 40
6.0
 40
6.0
 40
7.0
 40
7.0
 40
7.0
 40
8.0
 40
8.0
 40
8.0
 40
9.0
 40
9.0
 40
9.0
 40
10.0
 40
10.0
 40
10.0
 40
11.0
 40
11.0
 40
11.0
 40
12.0
 40
12.0
 40
12.0
 40
13.0
 40
13.0
 40
13.0
 40
14.0
 40
14.0
 40
14.0
 40
15.0
 40
15.0
 40
15.0
 40
16.0
 40
16.0
 40
16.0
 40
17.0
 40
17.0
 40
17.0
 40
18.0
 40
18.0
 40
18.0
 40
19.0
 40
19.0
 40
19.0
 40
19.0
 10
75.61777884394279
 20
-130.7389620983917
 30
0.0
 10
75.61777884394279
 20
-130.8488606443711
 30
0.0
 10
75.59504121374013
 20
-131.1006971243429
 30
0.0
 10
75.39384763740154
 20
-131.2447021156263
 30
0.0
 10
75.27258027632075
 20
-131.330484993209
 30
0.0
 10
75.16509329718095
 20
-131.3353081268884
 30
0.0
 10
75.07345375727331
 20
-131.3401312605677
 30
0.0
 10
75.07345375727331
 20
-131.3401312605677
 30
0.0
 10
75.07345375727331
 20
-131.0858832137563
 30
0.0
 10
75.07345375727331
 20
-131.0858832137563
 30
0.0
 10
75.1533799725311
 20
-131.0834716469166
 30
0.0
 10
75.40728350979401
 20
-131.0714138127183
 30
0.0
 10
75.40728350979401
 20
-130.743785232071
 30
0.0
 10
75.40728350979401
 20
-130.584966330201
 30
0.0
 10
75.33183591866704
 20
-130.4089219509047
 30
0.0
 10
75.08482257237463
 20
-130.4089219509047
 30
0.0
 10
74.95907658716301
 20
-130.4089219509047
 30
0.0
 10
74.9063666262387
 20
-130.4530191731159
 30
0.0
 10
74.87226018093472
 20
-130.4898816948081
 30
0.0
 10
74.79198945612839
 20
-130.5753200628423
 30
0.0
 10
74.7782090741874
 20
-130.709678786767
 30
0.0
 10
74.7782090741874
 20
-130.7730685436956
 30
0.0
 10
74.7782090741874
 20
-130.7951171548012
 30
0.0
 10
74.78062064102707
 20
-130.8368028101727
 30
0.0
 10
74.7850992651579
 20
-130.868497688637
 30
0.0
 10
74.7850992651579
 20
-130.868497688637
 30
0.0
 10
74.57460393100914
 20
-130.868497688637
 30
0.0
 10
74.57460393100914
 20
-130.868497688637
 30
0.0
 10
74.58149412197963
 20
-130.8244004664259
 30
0.0
 10
74.5839056888193
 20
-130.7754801105353
 30
0.0
 10
74.5839056888193
 20
-130.7682454100163
 30
0.0
 10
74.5839056888193
 20
-130.6924533093408
 30
0.0
 10
74.56082354906813
 20
-130.4626654404746
 30
0.0
 10
74.30485295451406
 20
-130.4626654404746
 30
0.0
 10
74.11261662643713
 20
-130.4626654404746
 30
0.0
 10
74.0530164745423
 20
-130.6142496418256
 30
0.0
 10
74.0530164745423
 20
-130.7413736652313
 30
0.0
 10
74.0530164745423
 20
-131.046953634773
 30
0.0
 10
74.30485295451406
 20
-131.0565999021317
 30
0.0
 10
74.38236760293219
 20
-131.061423035811
 30
0.0
 10
74.38236760293219
 20
-131.061423035811
 30
0.0
 10
74.38236760293219
 20
-131.2960340383566
 30
0.0
 10
74.38236760293219
 20
-131.2960340383566
 30
0.0
 10
74.24766436945892
 20
-131.2863877709979
 30
0.0
 10
73.84045408310239
 20
-131.2546928925336
 30
0.0
 10
73.84045408310239
 20
-130.7269042641933
 30
0.0
 10
73.84045408310239
 20
-130.4678330837025
 30
0.0
 10
73.97756888341533
 20
-130.1891248589458
 30
0.0
 10
74.29796276354357
 20
-130.1891248589458
 30
0.0
 10
74.49915633988216
 20
-130.1891248589458
 30
0.0
 10
74.58838431295013
 20
-130.2990234049252
 30
0.0
 10
74.65487465581545
 20
-130.4140895941326
 30
0.0
 10
74.6845024769886
 20
-130.3431206271364
 30
0.0
 10
74.77131888321689
 20
-130.1329698025362
 30
0.0
 10
75.07104219043363
 20
-130.1329698025362
 30
0.0
 10
75.43725584051569
 20
-130.1329698025362
 30
0.0
 10
75.61777884394279
 20
-130.4189127278119
 30
0.0
 10
75.61777884394279
 20
-130.7389620983917
 30
0.0
  0
HATCH
  5
15A
330
155
100
AcDbEntity
  8
_U+30EC_U+30A4_U+30E4_U+30FC 1
 62
   179
420
  2234388
100
AcDbHatch
 10
0.0
 20
0.0
 30
0.0
210
0.0
220
0.0
230
1.0
  2
SOLID
 70
     1
 71
     0
 91
        1
 92
        1
 93
        1
 72
     4
 94
        3
 73
     0
 74
     1
 95
       62
 96
       58
 40
0.0
 40
0.0
 40
0.0
 40
0.0
 40
1.0
 40
1.0
 40
1.0
 40
2.0
 40
2.0
 40
2.0
 40
3.0
 40
3.0
 40
3.0
 40
4.0
 40
4.0
 40
4.0
 40
5.0
 40
5.0
 40
5.0
 40
6.0
 40
6.0
 40
6.0
 40
7.0
 40
7.0
 40
7.0
 40
8.0
 40
8.0
 40
8.0
 40
9.0
 40
9.0
 40
9.0
 40
10.0
 40
10.0
 40
10.0
 40
11.0
 40
11.0
 40
11.0
 40
12.0
 40
12.0
 40
12.0
 40
13.0
 40
13.0
 40
13.0
 40
14.0
 40
14.0
 40
14.0
 40
15.0
 40
15.0
 40
15.0
 40
16.0
 40
16.0
 40
16.0
 40
17.0
 40
17.0
 40
17.0
 40
18.0
 40
18.0
 40
18.0
 40
19.0
 40
19.0
 40
19.0
 40
19.0
 10
75.61777884394279
 20
-130.7389620983917
 10
75.61777884394279
 20
-130.8488606443711
 10
75.59504121374013
 20
-131.1006971243429
 10
75.39384763740154
 20
-131.2447021156263
 10
75.27258027632075
 20
-131.330484993209
 10
75.16509329718095
 20
-131.3353081268884
 10
75.07345375727331
 20
-131.3401312605677
 10
75.07345375727331
 20
-131.3401312605677
 10
75.07345375727331
 20
-131.0858832137563
 10
75.07345375727331
 20
-131.0858832137563
 10
75.1533799725311
 20
-131.0834716469166
 10
75.40728350979401
 20
-131.0714138127183
 10
75.40728350979401
 20
-130.743785232071
 10
75.40728350979401
 20
-130.584966330201
 10
75.33183591866704
 20
-130.4089219509047
 10
75.08482257237463
 20
-130.4089219509047
 10
74.95907658716301
 20
-130.4089219509047
 10
74.9063666262387
 20
-130.4530191731159
 10
74.87226018093472
 20
-130.4898816948081
 10
74.79198945612839
 20
-130.5753200628423
 10
74.7782090741874
 20
-130.709678786767
 10
74.7782090741874
 20
-130.7730685436956
 10
74.7782090741874
 20
-130.7951171548012
 10
74.78062064102707
 20
-130.8368028101727
 10
74.7850992651579
 20
-130.868497688637
 10
74.7850992651579
 20
-130.868497688637
 10
74.57460393100914
 20
-130.868497688637
 10
74.57460393100914
 20
-130.868497688637
 10
74.58149412197963
 20
-130.8244004664259
 10
74.5839056888193
 20
-130.7754801105353
 10
74.5839056888193
 20
-130.7682454100163
 10
74.5839056888193
 20
-130.6924533093408
 10
74.56082354906813
 20
-130.4626654404746
 10
74.30485295451406
 20
-130.4626654404746
 10
74.11261662643713
 20
-130.4626654404746
 10
74.0530164745423
 20
-130.6142496418256
 10
74.0530164745423
 20
-130.7413736652313
 10
74.0530164745423
 20
-131.046953634773
 10
74.30485295451406
 20
-131.0565999021317
 10
74.38236760293219
 20
-131.061423035811
 10
74.38236760293219
 20
-131.061423035811
 10
74.38236760293219
 20
-131.2960340383566
 10
74.38236760293219
 20
-131.2960340383566
 10
74.24766436945892
 20
-131.2863877709979
 10
73.84045408310239
 20
-131.2546928925336
 10
73.84045408310239
 20
-130.7269042641933
 10
73.84045408310239
 20
-130.4678330837025
 10
73.97756888341533
 20
-130.1891248589458
 10
74.29796276354357
 20
-130.1891248589458
 10
74.49915633988216
 20
-130.1891248589458
 10
74.58838431295013
 20
-130.2990234049252
 10
74.65487465581545
 20
-130.4140895941326
 10
74.6845024769886
 20
-130.3431206271364
 10
74.77131888321689
 20
-130.1329698025362
 10
75.07104219043363
 20
-130.1329698025362
 10
75.43725584051569
 20
-130.1329698025362
 10
75.61777884394279
 20
-130.4189127278119
 10
75.61777884394279
 20
-130.7389620983917
 97
        0
 97
        0
 75
     2
 76
     1
 98
        0
  0
ENDBLK
  5
158
330
155
100
AcDbEntity
  8
0
100
AcDbBlockEnd
  0
BLOCK
  5
169
330
167
100
AcDbEntity
  8
0
100
AcDbBlockBegin
  2
block 10
 70
     0
 10
0.0
 20
0.0
 30
0.0
  3
block 10
  1

  0
SPLINE
  5
16B
330
167
100
AcDbEntity
  8
_U+30EC_U+30A4_U+30E4_U+30FC 1
370
     0
100
AcDbSpline
210
0.0
220
0.0
230
1.0
 70
    11
 71
     3
 72
    62
 73
    58
 74
     0
 42
0.0000000001
 43
0.0000000001
 12
1.0
 22
0.0
 32
0.0
 13
1.0
 23
0.0
 33
0.0
 40
0.0
 40
0.0
 40
0.0
 40
0.0
 40
1.0
 40
1.0
 40
1.0
 40
2.0
 40
2.0
 40
2.0
 40
3.0
 40
3.0
 40
3.0
 40
4.0
 40
4.0
 40
4.0
 40
5.0
 40
5.0
 40
5.0
 40
6.0
 40
6.0
 40
6.0
 40
7.0
 40
7.0
 40
7.0
 40
8.0
 40
8.0
 40
8.0
 40
9.0
 40
9.0
 40
9.0
 40
10.0
 40
10.0
 40
10.0
 40
11.0
 40
11.0
 40
11.0
 40
12.0
 40
12.0
 40
12.0
 40
13.0
 40
13.0
 40
13.0
 40
14.0
 40
14.0
 40
14.0
 40
15.0
 40
15.0
 40
15.0
 40
16.0
 40
16.0
 40
16.0
 40
17.0
 40
17.0
 40
17.0
 40
18.0
 40
18.0
 40
18.0
 40
19.0
 40
19.0
 40
19.0
 40
19.0
 10
75.61777884394279
 20
-122.3432644008378
 30
0.0
 10
75.61777884394279
 20
-122.4531629468173
 30
0.0
 10
75.59504121374013
 20
-122.7048271720148
 30
0.0
 10
75.39384763740154
 20
-122.8490044180725
 30
0.0
 10
75.27258027632075
 20
-122.9346150408809
 30
0.0
 10
75.16509329718095
 20
-122.9394381745603
 30
0.0
 10
75.07345375727331
 20
-122.9444335630139
 30
0.0
 10
75.07345375727331
 20
-122.9444335630139
 30
0.0
 10
75.07345375727331
 20
-122.6901855162025
 30
0.0
 10
75.07345375727331
 20
-122.6901855162025
 30
0.0
 10
75.1533799725311
 20
-122.6877739493628
 30
0.0
 10
75.40728350979401
 20
-122.6755438603901
 30
0.0
 10
75.40728350979401
 20
-122.3480875345171
 30
0.0
 10
75.40728350979401
 20
-122.1892686326471
 30
0.0
 10
75.33183591866704
 20
-122.0132242533509
 30
0.0
 10
75.08482257237463
 20
-122.0132242533509
 30
0.0
 10
74.95907658716301
 20
-122.0132242533509
 30
0.0
 10
74.9063666262387
 20
-122.0573214755621
 30
0.0
 10
74.87226018093472
 20
-122.0938394877057
 30
0.0
 10
74.79198945612839
 20
-122.1794501105142
 30
0.0
 10
74.7782090741874
 20
-122.3138088344389
 30
0.0
 10
74.7782090741874
 20
-122.3773708461418
 30
0.0
 10
74.7782090741874
 20
-122.3994194572474
 30
0.0
 10
74.78062064102707
 20
-122.4409328578446
 30
0.0
 10
74.7850992651579
 20
-122.4727999910832
 30
0.0
 10
74.7850992651579
 20
-122.4727999910832
 30
0.0
 10
74.57460393100914
 20
-122.4727999910832
 30
0.0
 10
74.57460393100914
 20
-122.4727999910832
 30
0.0
 10
74.58149412197963
 20
-122.428702768872
 30
0.0
 10
74.5839056888193
 20
-122.3797824129815
 30
0.0
 10
74.5839056888193
 20
-122.3725477124624
 30
0.0
 10
74.5839056888193
 20
-122.2967556117869
 30
0.0
 10
74.56082354906813
 20
-122.0669677429208
 30
0.0
 10
74.30485295451406
 20
-122.0669677429208
 30
0.0
 10
74.11261662643713
 20
-122.0669677429208
 30
0.0
 10
74.0530164745423
 20
-122.2185519442718
 30
0.0
 10
74.0530164745423
 20
-122.3456759676775
 30
0.0
 10
74.0530164745423
 20
-122.6510836824449
 30
0.0
 10
74.30485295451406
 20
-122.6609022045778
 30
0.0
 10
74.38236760293219
 20
-122.6657253382572
 30
0.0
 10
74.38236760293219
 20
-122.6657253382572
 30
0.0
 10
74.38236760293219
 20
-122.9003363408027
 30
0.0
 10
74.38236760293219
 20
-122.9003363408027
 30
0.0
 10
74.24766436945892
 20
-122.890690073444
 30
0.0
 10
73.84045408310239
 20
-122.8588229402054
 30
0.0
 10
73.84045408310239
 20
-122.3310343118652
 30
0.0
 10
73.84045408310239
 20
-122.0719631313744
 30
0.0
 10
73.97756888341533
 20
-121.7932549066177
 30
0.0
 10
74.29796276354357
 20
-121.7932549066177
 30
0.0
 10
74.49915633988216
 20
-121.7932549066177
 30
0.0
 10
74.58838431295013
 20
-121.9033257073714
 30
0.0
 10
74.65487465581545
 20
-122.0182196418045
 30
0.0
 10
74.6845024769886
 20
-121.9472506748083
 30
0.0
 10
74.77131888321689
 20
-121.7370998502081
 30
0.0
 10
75.07104219043363
 20
-121.7370998502081
 30
0.0
 10
75.43725584051569
 20
-121.7370998502081
 30
0.0
 10
75.61777884394279
 20
-122.0230427754838
 30
0.0
 10
75.61777884394279
 20
-122.3432644008378
 30
0.0
  0
HATCH
  5
16C
330
167
100
AcDbEntity
  8
_U+30EC_U+30A4_U+30E4_U+30FC 1
 62
   179
420
  2234388
100
AcDbHatch
 10
0.0
 20
0.0
 30
0.0
210
0.0
220
0.0
230
1.0
  2
SOLID
 70
     1
 71
     0
 91
        1
 92
        1
 93
        1
 72
     4
 94
        3
 73
     0
 74
     1
 95
       62
 96
       58
 40
0.0
 40
0.0
 40
0.0
 40
0.0
 40
1.0
 40
1.0
 40
1.0
 40
2.0
 40
2.0
 40
2.0
 40
3.0
 40
3.0
 40
3.0
 40
4.0
 40
4.0
 40
4.0
 40
5.0
 40
5.0
 40
5.0
 40
6.0
 40
6.0
 40
6.0
 40
7.0
 40
7.0
 40
7.0
 40
8.0
 40
8.0
 40
8.0
 40
9.0
 40
9.0
 40
9.0
 40
10.0
 40
10.0
 40
10.0
 40
11.0
 40
11.0
 40
11.0
 40
12.0
 40
12.0
 40
12.0
 40
13.0
 40
13.0
 40
13.0
 40
14.0
 40
14.0
 40
14.0
 40
15.0
 40
15.0
 40
15.0
 40
16.0
 40
16.0
 40
16.0
 40
17.0
 40
17.0
 40
17.0
 40
18.0
 40
18.0
 40
18.0
 40
19.0
 40
19.0
 40
19.0
 40
19.0
 10
75.61777884394279
 20
-122.3432644008378
 10
75.61777884394279
 20
-122.4531629468173
 10
75.59504121374013
 20
-122.7048271720148
 10
75.39384763740154
 20
-122.8490044180725
 10
75.27258027632075
 20
-122.9346150408809
 10
75.16509329718095
 20
-122.9394381745603
 10
75.07345375727331
 20
-122.9444335630139
 10
75.07345375727331
 20
-122.9444335630139
 10
75.07345375727331
 20
-122.6901855162025
 10
75.07345375727331
 20
-122.6901855162025
 10
75.1533799725311
 20
-122.6877739493628
 10
75.40728350979401
 20
-122.6755438603901
 10
75.40728350979401
 20
-122.3480875345171
 10
75.40728350979401
 20
-122.1892686326471
 10
75.33183591866704
 20
-122.0132242533509
 10
75.08482257237463
 20
-122.0132242533509
 10
74.95907658716301
 20
-122.0132242533509
 10
74.9063666262387
 20
-122.0573214755621
 10
74.87226018093472
 20
-122.0938394877057
 10
74.79198945612839
 20
-122.1794501105142
 10
74.7782090741874
 20
-122.3138088344389
 10
74.7782090741874
 20
-122.3773708461418
 10
74.7782090741874
 20
-122.3994194572474
 10
74.78062064102707
 20
-122.4409328578446
 10
74.7850992651579
 20
-122.4727999910832
 10
74.7850992651579
 20
-122.4727999910832
 10
74.57460393100914
 20
-122.4727999910832
 10
74.57460393100914
 20
-122.4727999910832
 10
74.58149412197963
 20
-122.428702768872
 10
74.5839056888193
 20
-122.3797824129815
 10
74.5839056888193
 20
-122.3725477124624
 10
74.5839056888193
 20
-122.2967556117869
 10
74.56082354906813
 20
-122.0669677429208
 10
74.30485295451406
 20
-122.0669677429208
 10
74.11261662643713
 20
-122.0669677429208
 10
74.0530164745423
 20
-122.2185519442718
 10
74.0530164745423
 20
-122.3456759676775
 10
74.0530164745423
 20
-122.6510836824449
 10
74.30485295451406
 20
-122.6609022045778
 10
74.38236760293219
 20
-122.6657253382572
 10
74.38236760293219
 20
-122.6657253382572
 10
74.38236760293219
 20
-122.9003363408027
 10
74.38236760293219
 20
-122.9003363408027
 10
74.24766436945892
 20
-122.890690073444
 10
73.84045408310239
 20
-122.8588229402054
 10
73.84045408310239
 20
-122.3310343118652
 10
73.84045408310239
 20
-122.0719631313744
 10
73.97756888341533
 20
-121.7932549066177
 10
74.29796276354357
 20
-121.7932549066177
 10
74.49915633988216
 20
-121.7932549066177
 10
74.58838431295013
 20
-121.9033257073714
 10
74.65487465581545
 20
-122.0182196418045
 10
74.6845024769886
 20
-121.9472506748083
 10
74.77131888321689
 20
-121.7370998502081
 10
75.07104219043363
 20
-121.7370998502081
 10
75.43725584051569
 20
-121.7370998502081
 10
75.61777884394279
 20
-122.0230427754838
 10
75.61777884394279
 20
-122.3432644008378
 97
        0
 97
        0
 75
     2
 76
     1
 98
        0
  0
SPLINE
  5
16D
330
167
100
AcDbEntity
  8
_U+30EC_U+30A4_U+30E4_U+30FC 1
370
     0
100
AcDbSpline
210
0.0
220
0.0
230
1.0
 70
    11
 71
     3
 72
    29
 73
    25
 74
     0
 42
0.0000000001
 43
0.0000000001
 12
1.0
 22
0.0
 32
0.0
 13
1.0
 23
0.0
 33
0.0
 40
0.0
 40
0.0
 40
0.0
 40
0.0
 40
1.0
 40
1.0
 40
1.0
 40
2.0
 40
2.0
 40
2.0
 40
3.0
 40
3.0
 40
3.0
 40
4.0
 40
4.0
 40
4.0
 40
5.0
 40
5.0
 40
5.0
 40
6.0
 40
6.0
 40
6.0
 40
7.0
 40
7.0
 40
7.0
 40
8.0
 40
8.0
 40
8.0
 40
8.0
 10
75.37076549765037
 20
-120.5156412459128
 30
0.0
 10
75.5974527805798
 20
-120.6401814477045
 30
0.0
 10
75.61777884394279
 20
-120.8406860049461
 30
0.0
 10
75.61777884394279
 20
-120.9750447288708
 30
0.0
 10
75.61777884394279
 20
-121.1607353755258
 30
0.0
 10
75.56748044985814
 20
-121.3245496658494
 30
0.0
 10
75.37076549765037
 20
-121.4344482118289
 30
0.0
 10
75.16027016350161
 20
-121.5541652799413
 30
0.0
 10
74.90395505939901
 20
-121.5762138910469
 30
0.0
 10
74.72791068010275
 20
-121.5762138910469
 30
0.0
 10
74.57253687371798
 20
-121.5762138910469
 30
0.0
 10
74.30002982083472
 20
-121.5567491015553
 30
0.0
 10
74.08505586255512
 20
-121.4344482118289
 30
0.0
 10
73.86560328014471
 20
-121.3099080100371
 30
0.0
 10
73.84045408310239
 20
-121.1240451086079
 30
0.0
 10
73.84045408310239
 20
-120.9750447288708
 30
0.0
 10
73.84045408310239
 20
-120.7917656490555
 30
0.0
 10
73.88834091034737
 20
-120.6255397918922
 30
0.0
 10
74.08505586255512
 20
-120.5156412459128
 30
0.0
 10
74.29313962986421
 20
-120.4007473114797
 30
0.0
 10
74.54049748570516
 20
-120.3738755666947
 30
0.0
 10
74.72791068010275
 20
-120.3738755666947
 30
0.0
 10
74.91325681720919
 20
-120.3738755666947
 30
0.0
 10
75.16268173034128
 20
-120.39833574464
 30
0.0
 10
75.37076549765037
 20
-120.5156412459128
 30
0.0
  0
SPLINE
  5
16E
330
167
100
AcDbEntity
  8
_U+30EC_U+30A4_U+30E4_U+30FC 1
370
     0
100
AcDbSpline
210
0.0
220
0.0
230
1.0
 70
    11
 71
     3
 72
    17
 73
    13
 74
     0
 42
0.0000000001
 43
0.0000000001
 12
1.0
 22
0.0
 32
0.0
 13
1.0
 23
0.0
 33
0.0
 40
0.0
 40
0.0
 40
0.0
 40
0.0
 40
1.0
 40
1.0
 40
1.0
 40
2.0
 40
2.0
 40
2.0
 40
3.0
 40
3.0
 40
3.0
 40
4.0
 40
4.0
 40
4.0
 40
4.0
 10
74.04853785041148
 20
-120.9750447288708
 30
0.0
 10
74.04853785041148
 20
-121.2633992209862
 30
0.0
 10
74.35515134859871
 20
-121.3171427105561
 30
0.0
 10
74.72791068010275
 20
-121.3171427105561
 30
0.0
 10
75.07345375727331
 20
-121.3171427105561
 30
0.0
 10
75.40728350979401
 20
-121.2756293099589
 30
0.0
 10
75.40728350979401
 20
-120.9750447288708
 30
0.0
 10
75.40728350979401
 20
-120.6891018035951
 30
0.0
 10
75.10308157844645
 20
-120.6329467471855
 30
0.0
 10
74.72791068010275
 20
-120.6329467471855
 30
0.0
 10
74.38236760293219
 20
-120.6329467471855
 30
0.0
 10
74.04853785041148
 20
-120.6768717146225
 30
0.0
 10
74.04853785041148
 20
-120.9750447288708
 30
0.0
  0
HATCH
  5
16F
330
167
100
AcDbEntity
  8
_U+30EC_U+30A4_U+30E4_U+30FC 1
 62
   179
420
  2234388
100
AcDbHatch
 10
0.0
 20
0.0
 30
0.0
210
0.0
220
0.0
230
1.0
  2
SOLID
 70
     1
 71
     0
 91
        2
 92
        1
 93
        1
 72
     4
 94
        3
 73
     0
 74
     1
 95
       29
 96
       25
 40
0.0
 40
0.0
 40
0.0
 40
0.0
 40
1.0
 40
1.0
 40
1.0
 40
2.0
 40
2.0
 40
2.0
 40
3.0
 40
3.0
 40
3.0
 40
4.0
 40
4.0
 40
4.0
 40
5.0
 40
5.0
 40
5.0
 40
6.0
 40
6.0
 40
6.0
 40
7.0
 40
7.0
 40
7.0
 40
8.0
 40
8.0
 40
8.0
 40
8.0
 10
75.37076549765037
 20
-120.5156412459128
 10
75.5974527805798
 20
-120.6401814477045
 10
75.61777884394279
 20
-120.8406860049461
 10
75.61777884394279
 20
-120.9750447288708
 10
75.61777884394279
 20
-121.1607353755258
 10
75.56748044985814
 20
-121.3245496658494
 10
75.37076549765037
 20
-121.4344482118289
 10
75.16027016350161
 20
-121.5541652799413
 10
74.90395505939901
 20
-121.5762138910469
 10
74.72791068010275
 20
-121.5762138910469
 10
74.57253687371798
 20
-121.5762138910469
 10
74.30002982083472
 20
-121.5567491015553
 10
74.08505586255512
 20
-121.4344482118289
 10
73.86560328014471
 20
-121.3099080100371
 10
73.84045408310239
 20
-121.1240451086079
 10
73.84045408310239
 20
-120.9750447288708
 10
73.84045408310239
 20
-120.7917656490555
 10
73.88834091034737
 20
-120.6255397918922
 10
74.08505586255512
 20
-120.5156412459128
 10
74.29313962986421
 20
-120.4007473114797
 10
74.54049748570516
 20
-120.3738755666947
 10
74.72791068010275
 20
-120.3738755666947
 10
74.91325681720919
 20
-120.3738755666947
 10
75.16268173034128
 20
-120.39833574464
 10
75.37076549765037
 20
-120.5156412459128
 97
        0
 97
        0
 92
        1
 93
        1
 72
     4
 94
        3
 73
     0
 74
     1
 95
       17
 96
       13
 40
0.0
 40
0.0
 40
0.0
 40
0.0
 40
1.0
 40
1.0
 40
1.0
 40
2.0
 40
2.0
 40
2.0
 40
3.0
 40
3.0
 40
3.0
 40
4.0
 40
4.0
 40
4.0
 40
4.0
 10
74.04853785041148
 20
-120.9750447288708
 10
74.04853785041148
 20
-121.2633992209862
 10
74.35515134859871
 20
-121.3171427105561
 10
74.72791068010275
 20
-121.3171427105561
 10
75.07345375727331
 20
-121.3171427105561
 10
75.40728350979401
 20
-121.2756293099589
 10
75.40728350979401
 20
-120.9750447288708
 10
75.40728350979401
 20
-120.6891018035951
 10
75.10308157844645
 20
-120.6329467471855
 10
74.72791068010275
 20
-120.6329467471855
 10
74.38236760293219
 20
-120.6329467471855
 10
74.04853785041148
 20
-120.6768717146225
 10
74.04853785041148
 20
-120.9750447288708
 97
        0
 97
        0
 75
     2
 76
     1
 98
        0
  0
ENDBLK
  5
16A
330
167
100
AcDbEntity
  8
0
100
AcDbBlockEnd
  0
ENDSEC
  0
SECTION
  2
ENTITIES
  0
POLYLINE
  5
41
330
1F
100
AcDbEntity
  8
_U+30EC_U+30A4_U+30E4_U+30FC 1
370
     0
100
AcDb2dPolyline
 66
     1
 10
0.0
 20
0.0
 30
0.0
  0
VERTEX
  5
42
330
41
100
AcDbEntity
  8
_U+30EC_U+30A4_U+30E4_U+30FC 1
370
     0
100
AcDbVertex
100
AcDb2dVertex
 10
94.55065092114526
 20
-129.8601105230908
 30
0.0
  0
VERTEX
  5
43
330
41
100
AcDbEntity
  8
_U+30EC_U+30A4_U+30E4_U+30FC 1
370
     0
100
AcDbVertex
100
AcDb2dVertex
 10
94.55065092114526
 20
-113.4559438605249
 30
0.0
  0
VERTEX
  5
44
330
41
100
AcDbEntity
  8
_U+30EC_U+30A4_U+30E4_U+30FC 1
370
     0
100
AcDbVertex
100
AcDb2dVertex
 10
95.13837868392886
 20
-113.4559438605249
 30
0.0
  0
VERTEX
  5
45
330
41
100
AcDbEntity
  8
_U+30EC_U+30A4_U+30E4_U+30FC 1
370
     0
100
AcDbVertex
100
AcDb2dVertex
 10
95.13837868392886
 20
-130.4485438562769
 30
0.0
  0
VERTEX
  5
46
330
41
100
AcDbEntity
  8
_U+30EC_U+30A4_U+30E4_U+30FC 1
370
     0
100
AcDbVertex
100
AcDb2dVertex
 10
81.49787347637158
 20
-132.2124327447248
 30
0.0
  0
VERTEX
  5
47
330
41
100
AcDbEntity
  8
_U+30EC_U+30A4_U+30E4_U+30FC 1
370
     0
100
AcDbVertex
100
AcDb2dVertex
 10
81.49787347637158
 20
-142.5601105199158
 30
0.0
  0
VERTEX
  5
48
330
41
100
AcDbEntity
  8
_U+30EC_U+30A4_U+30E4_U+30FC 1
370
     0
100
AcDbVertex
100
AcDb2dVertex
 10
95.13837868392886
 20
-142.5601105199158
 30
0.0
  0
VERTEX
  5
49
330
41
100
AcDbEntity
  8
_U+30EC_U+30A4_U+30E4_U+30FC 1
370
     0
100
AcDbVertex
100
AcDb2dVertex
 10
95.13837868392886
 20
-144.6182160749565
 30
0.0
  0
VERTEX
  5
4A
330
41
100
AcDbEntity
  8
_U+30EC_U+30A4_U+30E4_U+30FC 1
370
     0
100
AcDbVertex
100
AcDb2dVertex
 10
104.8397673253147
 20
-144.6182160749565
 30
0.0
  0
VERTEX
  5
4B
330
41
100
AcDbEntity
  8
_U+30EC_U+30A4_U+30E4_U+30FC 1
370
     0
100
AcDbVertex
100
AcDb2dVertex
 10
104.8397673253147
 20
-141.5610438534988
 30
0.0
  0
VERTEX
  5
4C
330
41
100
AcDbEntity
  8
_U+30EC_U+30A4_U+30E4_U+30FC 1
370
     0
100
AcDbVertex
100
AcDb2dVertex
 10
103.428656250204
 20
-141.619604964595
 30
0.0
  0
VERTEX
  5
4D
330
41
100
AcDbEntity
  8
_U+30EC_U+30A4_U+30E4_U+30FC 1
370
     0
100
AcDbVertex
100
AcDb2dVertex
 10
103.428656250204
 20
-140.8554882981196
 30
0.0
  0
VERTEX
  5
4E
330
41
100
AcDbEntity
  8
_U+30EC_U+30A4_U+30E4_U+30FC 1
370
     0
100
AcDbVertex
100
AcDb2dVertex
 10
105.4867617532529
 20
-140.8554882981196
 30
0.0
  0
VERTEX
  5
4F
330
41
100
AcDbEntity
  8
_U+30EC_U+30A4_U+30E4_U+30FC 1
370
     0
100
AcDbVertex
100
AcDb2dVertex
 10
105.4867617532529
 20
-145.3237716303356
 30
0.0
  0
VERTEX
  5
50
330
41
100
AcDbEntity
  8
_U+30EC_U+30A4_U+30E4_U+30FC 1
370
     0
100
AcDbVertex
100
AcDb2dVertex
 10
94.55065092114526
 20
-145.3237716303356
 30
0.0
  0
VERTEX
  5
51
330
41
100
AcDbEntity
  8
_U+30EC_U+30A4_U+30E4_U+30FC 1
370
     0
100
AcDbVertex
100
AcDb2dVertex
 10
94.55065092114526
 20
-143.3249327419467
 30
0.0
  0
VERTEX
  5
52
330
41
100
AcDbEntity
  8
_U+30EC_U+30A4_U+30E4_U+30FC 1
370
     0
100
AcDbVertex
100
AcDb2dVertex
 10
81.38004570159984
 20
-143.3249327419467
 30
0.0
  0
VERTEX
  5
53
330
41
100
AcDbEntity
  8
_U+30EC_U+30A4_U+30E4_U+30FC 1
370
     0
100
AcDbVertex
100
AcDb2dVertex
 10
81.38004570159984
 20
-145.2059438525877
 30
0.0
  0
VERTEX
  5
54
330
41
100
AcDbEntity
  8
_U+30EC_U+30A4_U+30E4_U+30FC 1
370
     0
100
AcDbVertex
100
AcDb2dVertex
 10
80.67449016404451
 20
-145.2059438525877
 30
0.0
  0
VERTEX
  5
55
330
41
100
AcDbEntity
  8
_U+30EC_U+30A4_U+30E4_U+30FC 1
370
     0
100
AcDbVertex
100
AcDb2dVertex
 10
80.79231793881625
 20
-131.5654383004419
 30
0.0
  0
VERTEX
  5
56
330
41
100
AcDbEntity
  8
_U+30EC_U+30A4_U+30E4_U+30FC 1
370
     0
100
AcDbVertex
100
AcDb2dVertex
 10
94.55065092114526
 20
-129.8601105230908
 30
0.0
  0
SEQEND
  5
58
330
41
100
AcDbEntity
  8
_U+30EC_U+30A4_U+30E4_U+30FC 1
370
     0
  0
HATCH
  5
57
330
1F
100
AcDbEntity
  8
_U+30EC_U+30A4_U+30E4_U+30FC 1
 62
   253
420
 10066329
100
AcDbHatch
 10
0.0
 20
0.0
 30
0.0
210
0.0
220
0.0
230
1.0
  2
SOLID
 70
     1
 71
     0
 91
        1
 92
        1
 93
       20
 72
     1
 10
94.55065092114526
 20
-129.8601105230908
 11
94.55065092114526
 21
-113.4559438605249
 72
     1
 10
94.55065092114526
 20
-113.4559438605249
 11
95.13837868392886
 21
-113.4559438605249
 72
     1
 10
95.13837868392886
 20
-113.4559438605249
 11
95.13837868392886
 21
-130.4485438562769
 72
     1
 10
95.13837868392886
 20
-130.4485438562769
 11
81.49787347637158
 21
-132.2124327447248
 72
     1
 10
81.49787347637158
 20
-132.2124327447248
 11
81.49787347637158
 21
-142.5601105199158
 72
     1
 10
81.49787347637158
 20
-142.5601105199158
 11
95.13837868392886
 21
-142.5601105199158
 72
     1
 10
95.13837868392886
 20
-142.5601105199158
 11
95.13837868392886
 21
-144.6182160749565
 72
     1
 10
95.13837868392886
 20
-144.6182160749565
 11
104.8397673253147
 21
-144.6182160749565
 72
     1
 10
104.8397673253147
 20
-144.6182160749565
 11
104.8397673253147
 21
-141.5610438534988
 72
     1
 10
104.8397673253147
 20
-141.5610438534988
 11
103.428656250204
 21
-141.619604964595
 72
     1
 10
103.428656250204
 20
-141.619604964595
 11
103.428656250204
 21
-140.8554882981196
 72
     1
 10
103.428656250204
 20
-140.8554882981196
 11
105.4867617532529
 21
-140.8554882981196
 72
     1
 10
105.4867617532529
 20
-140.8554882981196
 11
105.4867617532529
 21
-145.3237716303356
 72
     1
 10
105.4867617532529
 20
-145.3237716303356
 11
94.55065092114526
 21
-145.3237716303356
 72
     1
 10
94.55065092114526
 20
-145.3237716303356
 11
94.55065092114526
 21
-143.3249327419467
 72
     1
 10
94.55065092114526
 20
-143.3249327419467
 11
81.38004570159984
 21
-143.3249327419467
 72
     1
 10
81.38004570159984
 20
-143.3249327419467
 11
81.38004570159984
 21
-145.2059438525877
 72
     1
 10
81.38004570159984
 20
-145.2059438525877
 11
80.67449016404451
 21
-145.2059438525877
 72
     1
 10
80.67449016404451
 20
-145.2059438525877
 11
80.79231793881625
 21
-131.5654383004419
 72
     1
 10
80.79231793881625
 20
-131.5654383004419
 11
94.55065092114526
 21
-129.8601105230908
 97
        0
 75
     2
 76
     1
 98
        0
  0
POLYLINE
  5
59
330
1F
100
AcDbEntity
  8
_U+30EC_U+30A4_U+30E4_U+30FC 1
 62
   179
420
  2234388
370
    25
100
AcDb2dPolyline
 66
     1
 10
0.0
 20
0.0
 30
0.0
  0
VERTEX
  5
5A
330
59
100
AcDbEntity
  8
_U+30EC_U+30A4_U+30E4_U+30FC 1
 62
   179
420
  2234388
370
    25
100
AcDbVertex
100
AcDb2dVertex
 10
80.7420138687034
 20
-131.5544316337782
 30
0.0
  0
VERTEX
  5
5B
330
59
100
AcDbEntity
  8
_U+30EC_U+30A4_U+30E4_U+30FC 1
 62
   179
420
  2234388
370
    25
100
AcDbVertex
100
AcDb2dVertex
 10
80.7420138687034
 20
-145.3044746858958
 30
0.0
  0
SEQEND
  5
5C
330
59
100
AcDbEntity
  8
_U+30EC_U+30A4_U+30E4_U+30FC 1
 62
   179
420
  2234388
370
    25
  0
POLYLINE
  5
5D
330
1F
100
AcDbEntity
  8
_U+30EC_U+30A4_U+30E4_U+30FC 1
 62
   179
420
  2234388
370
    25
100
AcDb2dPolyline
 66
     1
 10
0.0
 20
0.0
 30
0.0
  0
VERTEX
  5
5E
330
5D
100
AcDbEntity
  8
_U+30EC_U+30A4_U+30E4_U+30FC 1
 62
   179
420
  2234388
370
    25
100
AcDbVertex
100
AcDb2dVertex
 10
94.49208981152817
 20
-113.4042619160934
 30
0.0
  0
VERTEX
  5
5F
330
5D
100
AcDbEntity
  8
_U+30EC_U+30A4_U+30E4_U+30FC 1
 62
   179
420
  2234388
370
    25
100
AcDbVertex
100
AcDb2dVertex
 10
94.49208981152817
 20
-129.904207745302
 30
0.0
  0
SEQEND
  5
60
330
5D
100
AcDbEntity
  8
_U+30EC_U+30A4_U+30E4_U+30FC 1
 62
   179
420
  2234388
370
    25
  0
POLYLINE
  5
61
330
1F
100
AcDbEntity
  8
_U+30EC_U+30A4_U+30E4_U+30FC 1
 62
   179
420
  2234388
370
    25
100
AcDb2dPolyline
 66
     1
 10
0.0
 20
0.0
 30
0.0
  0
VERTEX
  5
62
330
61
100
AcDbEntity
  8
_U+30EC_U+30A4_U+30E4_U+30FC 1
 62
   179
420
  2234388
370
    25
100
AcDbVertex
100
AcDb2dVertex
 10
95.15217229468807
 20
-113.4042619160934
 30
0.0
  0
VERTEX
  5
63
330
61
100
AcDbEntity
  8
_U+30EC_U+30A4_U+30E4_U+30FC 1
 62
   179
420
  2234388
370
    25
100
AcDbVertex
100
AcDb2dVertex
 10
95.15217229468807
 20
-130.4898894118217
 30
0.0
  0
SEQEND
  5
64
330
61
100
AcDbEntity
  8
_U+30EC_U+30A4_U+30E4_U+30FC 1
 62
   179
420
  2234388
370
    25
  0
POLYLINE
  5
65
330
1F
100
AcDbEntity
  8
_U+30EC_U+30A4_U+30E4_U+30FC 1
 62
   179
420
  2234388
370
    25
100
AcDb2dPolyline
 66
     1
 10
0.0
 20
0.0
 30
0.0
  0
VERTEX
  5
66
330
65
100
AcDbEntity
  8
_U+30EC_U+30A4_U+30E4_U+30FC 1
 62
   179
420
  2234388
370
    25
100
AcDbVertex
100
AcDb2dVertex
 10
81.40209431214845
 20
-132.1400780225203
 30
0.0
  0
VERTEX
  5
67
330
65
100
AcDbEntity
  8
_U+30EC_U+30A4_U+30E4_U+30FC 1
 62
   179
420
  2234388
370
    25
100
AcDbVertex
100
AcDb2dVertex
 10
81.40209431214845
 20
-142.5546071865836
 30
0.0
  0
SEQEND
  5
68
330
65
100
AcDbEntity
  8
_U+30EC_U+30A4_U+30E4_U+30FC 1
 62
   179
420
  2234388
370
    25
  0
POLYLINE
  5
69
330
1F
100
AcDbEntity
  8
_U+30EC_U+30A4_U+30E4_U+30FC 1
 62
   179
420
  2234388
370
    25
100
AcDb2dPolyline
 66
     1
 10
0.0
 20
0.0
 30
0.0
  0
VERTEX
  5
6A
330
69
100
AcDbEntity
  8
_U+30EC_U+30A4_U+30E4_U+30FC 1
 62
   179
420
  2234388
370
    25
100
AcDbVertex
100
AcDb2dVertex
 10
94.49208981152817
 20
-113.4042619160934
 30
0.0
  0
VERTEX
  5
6B
330
69
100
AcDbEntity
  8
_U+30EC_U+30A4_U+30E4_U+30FC 1
 62
   179
420
  2234388
370
    25
100
AcDbVertex
100
AcDb2dVertex
 10
95.15217229468807
 20
-113.4042619160934
 30
0.0
  0
SEQEND
  5
6C
330
69
100
AcDbEntity
  8
_U+30EC_U+30A4_U+30E4_U+30FC 1
 62
   179
420
  2234388
370
    25
  0
POLYLINE
  5
6D
330
1F
100
AcDbEntity
  8
_U+30EC_U+30A4_U+30E4_U+30FC 1
 62
   179
420
  2234388
370
    25
100
AcDb2dPolyline
 66
     1
 10
0.0
 20
0.0
 30
0.0
  0
VERTEX
  5
6E
330
6D
100
AcDbEntity
  8
_U+30EC_U+30A4_U+30E4_U+30FC 1
 62
   179
420
  2234388
370
    25
100
AcDbVertex
100
AcDb2dVertex
 10
80.7420138687034
 20
-131.5544316337782
 30
0.0
  0
VERTEX
  5
6F
330
6D
100
AcDbEntity
  8
_U+30EC_U+30A4_U+30E4_U+30FC 1
 62
   179
420
  2234388
370
    25
100
AcDbVertex
100
AcDb2dVertex
 10
94.49208981152817
 20
-129.904207745302
 30
0.0
  0
SEQEND
  5
70
330
6D
100
AcDbEntity
  8
_U+30EC_U+30A4_U+30E4_U+30FC 1
 62
   179
420
  2234388
370
    25
  0
POLYLINE
  5
71
330
1F
100
AcDbEntity
  8
_U+30EC_U+30A4_U+30E4_U+30FC 1
 62
   179
420
  2234388
370
    25
100
AcDb2dPolyline
 66
     1
 10
0.0
 20
0.0
 30
0.0
  0
VERTEX
  5
72
330
71
100
AcDbEntity
  8
_U+30EC_U+30A4_U+30E4_U+30FC 1
 62
   179
420
  2234388
370
    25
100
AcDbVertex
100
AcDb2dVertex
 10
81.40209431214845
 20
-132.1400780225203
 30
0.0
  0
VERTEX
  5
73
330
71
100
AcDbEntity
  8
_U+30EC_U+30A4_U+30E4_U+30FC 1
 62
   179
420
  2234388
370
    25
100
AcDbVertex
100
AcDb2dVertex
 10
95.15217229468807
 20
-130.4898894118217
 30
0.0
  0
SEQEND
  5
74
330
71
100
AcDbEntity
  8
_U+30EC_U+30A4_U+30E4_U+30FC 1
 62
   179
420
  2234388
370
    25
  0
POLYLINE
  5
75
330
1F
100
AcDbEntity
  8
_U+30EC_U+30A4_U+30E4_U+30FC 1
 62
   179
420
  2234388
370
    25
100
AcDb2dPolyline
 66
     1
 10
0.0
 20
0.0
 30
0.0
  0
VERTEX
  5
76
330
75
100
AcDbEntity
  8
_U+30EC_U+30A4_U+30E4_U+30FC 1
 62
   179
420
  2234388
370
    25
100
AcDbVertex
100
AcDb2dVertex
 10
80.7420138687034
 20
-145.3044746858958
 30
0.0
  0
VERTEX
  5
77
330
75
100
AcDbEntity
  8
_U+30EC_U+30A4_U+30E4_U+30FC 1
 62
   179
420
  2234388
370
    25
100
AcDbVertex
100
AcDb2dVertex
 10
81.40209431214845
 20
-145.3044746858958
 30
0.0
  0
SEQEND
  5
78
330
75
100
AcDbEntity
  8
_U+30EC_U+30A4_U+30E4_U+30FC 1
 62
   179
420
  2234388
370
    25
  0
POLYLINE
  5
79
330
1F
100
AcDbEntity
  8
_U+30EC_U+30A4_U+30E4_U+30FC 1
 62
   179
420
  2234388
370
    25
100
AcDb2dPolyline
 66
     1
 10
0.0
 20
0.0
 30
0.0
  0
VERTEX
  5
7A
330
79
100
AcDbEntity
  8
_U+30EC_U+30A4_U+30E4_U+30FC 1
 62
   179
420
  2234388
370
    25
100
AcDbVertex
100
AcDb2dVertex
 10
81.40209431214845
 20
-142.5546071865836
 30
0.0
  0
VERTEX
  5
7B
330
79
100
AcDbEntity
  8
_U+30EC_U+30A4_U+30E4_U+30FC 1
 62
   179
420
  2234388
370
    25
100
AcDbVertex
100
AcDb2dVertex
 10
95.15217229468807
 20
-142.5546071865836
 30
0.0
  0
SEQEND
  5
7C
330
79
100
AcDbEntity
  8
_U+30EC_U+30A4_U+30E4_U+30FC 1
 62
   179
420
  2234388
370
    25
  0
POLYLINE
  5
7D
330
1F
100
AcDbEntity
  8
_U+30EC_U+30A4_U+30E4_U+30FC 1
 62
   179
420
  2234388
370
    25
100
AcDb2dPolyline
 66
     1
 10
0.0
 20
0.0
 30
0.0
  0
VERTEX
  5
7E
330
7D
100
AcDbEntity
  8
_U+30EC_U+30A4_U+30E4_U+30FC 1
 62
   179
420
  2234388
370
    25
100
AcDbVertex
100
AcDb2dVertex
 10
81.40209431214845
 20
-143.2146896864187
 30
0.0
  0
VERTEX
  5
7F
330
7D
100
AcDbEntity
  8
_U+30EC_U+30A4_U+30E4_U+30FC 1
 62
   179
420
  2234388
370
    25
100
AcDbVertex
100
AcDb2dVertex
 10
94.49208981152817
 20
-143.2146896864187
 30
0.0
  0
SEQEND
  5
80
330
7D
100
AcDbEntity
  8
_U+30EC_U+30A4_U+30E4_U+30FC 1
 62
   179
420
  2234388
370
    25
  0
POLYLINE
  5
81
330
1F
100
AcDbEntity
  8
_U+30EC_U+30A4_U+30E4_U+30FC 1
 62
   179
420
  2234388
370
    25
100
AcDb2dPolyline
 66
     1
 10
0.0
 20
0.0
 30
0.0
  0
VERTEX
  5
82
330
81
100
AcDbEntity
  8
_U+30EC_U+30A4_U+30E4_U+30FC 1
 62
   179
420
  2234388
370
    25
100
AcDbVertex
100
AcDb2dVertex
 10
94.49208981152817
 20
-143.2146896864187
 30
0.0
  0
VERTEX
  5
83
330
81
100
AcDbEntity
  8
_U+30EC_U+30A4_U+30E4_U+30FC 1
 62
   179
420
  2234388
370
    25
100
AcDbVertex
100
AcDb2dVertex
 10
94.49208981152817
 20
-145.3044746858958
 30
0.0
  0
SEQEND
  5
84
330
81
100
AcDbEntity
  8
_U+30EC_U+30A4_U+30E4_U+30FC 1
 62
   179
420
  2234388
370
    25
  0
POLYLINE
  5
85
330
1F
100
AcDbEntity
  8
_U+30EC_U+30A4_U+30E4_U+30FC 1
 62
   179
420
  2234388
370
    25
100
AcDb2dPolyline
 66
     1
 10
0.0
 20
0.0
 30
0.0
  0
VERTEX
  5
86
330
85
100
AcDbEntity
  8
_U+30EC_U+30A4_U+30E4_U+30FC 1
 62
   179
420
  2234388
370
    25
100
AcDbVertex
100
AcDb2dVertex
 10
95.15217229468807
 20
-142.5546071865836
 30
0.0
  0
VERTEX
  5
87
330
85
100
AcDbEntity
  8
_U+30EC_U+30A4_U+30E4_U+30FC 1
 62
   179
420
  2234388
370
    25
100
AcDbVertex
100
AcDb2dVertex
 10
95.15217229468807
 20
-144.6443921860614
 30
0.0
  0
SEQEND
  5
88
330
85
100
AcDbEntity
  8
_U+30EC_U+30A4_U+30E4_U+30FC 1
 62
   179
420
  2234388
370
    25
  0
POLYLINE
  5
89
330
1F
100
AcDbEntity
  8
_U+30EC_U+30A4_U+30E4_U+30FC 1
 62
   179
420
  2234388
370
    25
100
AcDb2dPolyline
 66
     1
 10
0.0
 20
0.0
 30
0.0
  0
VERTEX
  5
8A
330
89
100
AcDbEntity
  8
_U+30EC_U+30A4_U+30E4_U+30FC 1
 62
   179
420
  2234388
370
    25
100
AcDbVertex
100
AcDb2dVertex
 10
105.4922650864459
 20
-140.904418575885
 30
0.0
  0
VERTEX
  5
8B
330
89
100
AcDbEntity
  8
_U+30EC_U+30A4_U+30E4_U+30FC 1
 62
   179
420
  2234388
370
    25
100
AcDbVertex
100
AcDb2dVertex
 10
105.4922650864459
 20
-145.3044746858958
 30
0.0
  0
SEQEND
  5
8C
330
89
100
AcDbEntity
  8
_U+30EC_U+30A4_U+30E4_U+30FC 1
 62
   179
420
  2234388
370
    25
  0
POLYLINE
  5
8D
330
1F
100
AcDbEntity
  8
_U+30EC_U+30A4_U+30E4_U+30FC 1
 62
   179
420
  2234388
370
    25
100
AcDb2dPolyline
 66
     1
 10
0.0
 20
0.0
 30
0.0
  0
VERTEX
  5
8E
330
8D
100
AcDbEntity
  8
_U+30EC_U+30A4_U+30E4_U+30FC 1
 62
   179
420
  2234388
370
    25
100
AcDbVertex
100
AcDb2dVertex
 10
104.832182603286
 20
-141.5645010757201
 30
0.0
  0
VERTEX
  5
8F
330
8D
100
AcDbEntity
  8
_U+30EC_U+30A4_U+30E4_U+30FC 1
 62
   179
420
  2234388
370
    25
100
AcDbVertex
100
AcDb2dVertex
 10
104.832182603286
 20
-144.6443921860614
 30
0.0
  0
SEQEND
  5
90
330
8D
100
AcDbEntity
  8
_U+30EC_U+30A4_U+30E4_U+30FC 1
 62
   179
420
  2234388
370
    25
  0
POLYLINE
  5
91
330
1F
100
AcDbEntity
  8
_U+30EC_U+30A4_U+30E4_U+30FC 1
 62
   179
420
  2234388
370
    25
100
AcDb2dPolyline
 66
     1
 10
0.0
 20
0.0
 30
0.0
  0
VERTEX
  5
92
330
91
100
AcDbEntity
  8
_U+30EC_U+30A4_U+30E4_U+30FC 1
 62
   179
420
  2234388
370
    25
100
AcDbVertex
100
AcDb2dVertex
 10
94.49208981152817
 20
-145.3044746858958
 30
0.0
  0
VERTEX
  5
93
330
91
100
AcDbEntity
  8
_U+30EC_U+30A4_U+30E4_U+30FC 1
 62
   179
420
  2234388
370
    25
100
AcDbVertex
100
AcDb2dVertex
 10
105.4922650864459
 20
-145.3044746858958
 30
0.0
  0
SEQEND
  5
94
330
91
100
AcDbEntity
  8
_U+30EC_U+30A4_U+30E4_U+30FC 1
 62
   179
420
  2234388
370
    25
  0
POLYLINE
  5
95
330
1F
100
AcDbEntity
  8
_U+30EC_U+30A4_U+30E4_U+30FC 1
 62
   179
420
  2234388
370
    25
100
AcDb2dPolyline
 66
     1
 10
0.0
 20
0.0
 30
0.0
  0
VERTEX
  5
96
330
95
100
AcDbEntity
  8
_U+30EC_U+30A4_U+30E4_U+30FC 1
 62
   179
420
  2234388
370
    25
100
AcDbVertex
100
AcDb2dVertex
 10
95.15217229468807
 20
-144.6443921860614
 30
0.0
  0
VERTEX
  5
97
330
95
100
AcDbEntity
  8
_U+30EC_U+30A4_U+30E4_U+30FC 1
 62
   179
420
  2234388
370
    25
100
AcDbVertex
100
AcDb2dVertex
 10
104.832182603286
 20
-144.6443921860614
 30
0.0
  0
SEQEND
  5
98
330
95
100
AcDbEntity
  8
_U+30EC_U+30A4_U+30E4_U+30FC 1
 62
   179
420
  2234388
370
    25
  0
POLYLINE
  5
99
330
1F
100
AcDbEntity
  8
_U+30EC_U+30A4_U+30E4_U+30FC 1
 62
   179
420
  2234388
370
    25
100
AcDb2dPolyline
 66
     1
 10
0.0
 20
0.0
 30
0.0
  0
VERTEX
  5
9A
330
99
100
AcDbEntity
  8
_U+30EC_U+30A4_U+30E4_U+30FC 1
 62
   179
420
  2234388
370
    25
100
AcDbVertex
100
AcDb2dVertex
 10
103.4024801397607
 20
-140.904418575885
 30
0.0
  0
VERTEX
  5
9B
330
99
100
AcDbEntity
  8
_U+30EC_U+30A4_U+30E4_U+30FC 1
 62
   179
420
  2234388
370
    25
100
AcDbVertex
100
AcDb2dVertex
 10
105.4922650864459
 20
-140.904418575885
 30
0.0
  0
SEQEND
  5
9C
330
99
100
AcDbEntity
  8
_U+30EC_U+30A4_U+30E4_U+30FC 1
 62
   179
420
  2234388
370
    25
  0
POLYLINE
  5
9D
330
1F
100
AcDbEntity
  8
_U+30EC_U+30A4_U+30E4_U+30FC 1
 62
   179
420
  2234388
370
    25
100
AcDb2dPolyline
 66
     1
 10
0.0
 20
0.0
 30
0.0
  0
VERTEX
  5
9E
330
9D
100
AcDbEntity
  8
_U+30EC_U+30A4_U+30E4_U+30FC 1
 62
   179
420
  2234388
370
    25
100
AcDbVertex
100
AcDb2dVertex
 10
103.4024801397607
 20
-140.904418575885
 30
0.0
  0
VERTEX
  5
9F
330
9D
100
AcDbEntity
  8
_U+30EC_U+30A4_U+30E4_U+30FC 1
 62
   179
420
  2234388
370
    25
100
AcDbVertex
100
AcDb2dVertex
 10
103.4024801397607
 20
-141.5645010757201
 30
0.0
  0
SEQEND
  5
A0
330
9D
100
AcDbEntity
  8
_U+30EC_U+30A4_U+30E4_U+30FC 1
 62
   179
420
  2234388
370
    25
  0
POLYLINE
  5
A1
330
1F
100
AcDbEntity
  8
_U+30EC_U+30A4_U+30E4_U+30FC 1
 62
   179
420
  2234388
370
    25
100
AcDb2dPolyline
 66
     1
 10
0.0
 20
0.0
 30
0.0
  0
VERTEX
  5
A2
330
A1
100
AcDbEntity
  8
_U+30EC_U+30A4_U+30E4_U+30FC 1
 62
   179
420
  2234388
370
    25
100
AcDbVertex
100
AcDb2dVertex
 10
103.4024801397607
 20
-141.5645010757201
 30
0.0
  0
VERTEX
  5
A3
330
A1
100
AcDbEntity
  8
_U+30EC_U+30A4_U+30E4_U+30FC 1
 62
   179
420
  2234388
370
    25
100
AcDbVertex
100
AcDb2dVertex
 10
104.832182603286
 20
-141.5645010757201
 30
0.0
  0
SEQEND
  5
A4
330
A1
100
AcDbEntity
  8
_U+30EC_U+30A4_U+30E4_U+30FC 1
 62
   179
420
  2234388
370
    25
  0
POLYLINE
  5
A5
330
1F
100
AcDbEntity
  8
_U+30EC_U+30A4_U+30E4_U+30FC 1
 62
   179
420
  2234388
370
    25
100
AcDb2dPolyline
 66
     1
 10
0.0
 20
0.0
 30
0.0
  0
VERTEX
  5
A6
330
A5
100
AcDbEntity
  8
_U+30EC_U+30A4_U+30E4_U+30FC 1
 62
   179
420
  2234388
370
    25
100
AcDbVertex
100
AcDb2dVertex
 10
81.40209431214845
 20
-143.2146896864187
 30
0.0
  0
VERTEX
  5
A7
330
A5
100
AcDbEntity
  8
_U+30EC_U+30A4_U+30E4_U+30FC 1
 62
   179
420
  2234388
370
    25
100
AcDbVertex
100
AcDb2dVertex
 10
81.40209431214845
 20
-145.3044746858958
 30
0.0
  0
SEQEND
  5
A8
330
A5
100
AcDbEntity
  8
_U+30EC_U+30A4_U+30E4_U+30FC 1
 62
   179
420
  2234388
370
    25
  0
SPLINE
  5
A9
330
1F
100
AcDbEntity
  8
_U+30EC_U+30A4_U+30E4_U+30FC 1
 62
   179
420
  2234388
370
     9
100
AcDbSpline
210
0.0
220
0.0
230
1.0
 70
    11
 71
     3
 72
    17
 73
    13
 74
     0
 42
0.0000000001
 43
0.0000000001
 12
1.0
 22
0.0
 32
0.0
 13
1.0
 23
0.0
 33
0.0
 40
0.0
 40
0.0
 40
0.0
 40
0.0
 40
1.0
 40
1.0
 40
1.0
 40
2.0
 40
2.0
 40
2.0
 40
3.0
 40
3.0
 40
3.0
 40
4.0
 40
4.0
 40
4.0
 40
4.0
 10
103.4569137494831
 20
-138.7043552431018
 30
0.0
 10
103.4569137494831
 20
-138.6740516319982
 30
0.0
 10
103.4327837500987
 20
-138.6492513542268
 30
0.0
 10
103.4024801397607
 20
-138.6492513542268
 30
0.0
 10
103.3721412516459
 20
-138.6492513542268
 30
0.0
 10
103.3473409745008
 20
-138.6740516319982
 30
0.0
 10
103.3473409745008
 20
-138.7043552431018
 30
0.0
 10
103.3473409745008
 20
-138.7346941319828
 30
0.0
 10
103.3721412516459
 20
-138.7594944097548
 30
0.0
 10
103.4024801397607
 20
-138.7594944097548
 30
0.0
 10
103.4327837500987
 20
-138.7594944097548
 30
0.0
 10
103.4569137494831
 20
-138.7346941319828
 30
0.0
 10
103.4569137494831
 20
-138.7043552431018
 30
0.0
  0
SPLINE
  5
AA
330
1F
100
AcDbEntity
  8
_U+30EC_U+30A4_U+30E4_U+30FC 1
 62
   179
420
  2234388
370
     9
100
AcDbSpline
210
0.0
220
0.0
230
1.0
 70
    11
 71
     3
 72
    17
 73
    13
 74
     0
 42
0.0000000001
 43
0.0000000001
 12
1.0
 22
0.0
 32
0.0
 13
1.0
 23
0.0
 33
0.0
 40
0.0
 40
0.0
 40
0.0
 40
0.0
 40
1.0
 40
1.0
 40
1.0
 40
2.0
 40
2.0
 40
2.0
 40
3.0
 40
3.0
 40
3.0
 40
4.0
 40
4.0
 40
4.0
 40
4.0
 10
105.5474042517058
 20
-138.7043552431018
 30
0.0
 10
105.5474042517058
 20
-138.6740516319982
 30
0.0
 10
105.5225686967839
 20
-138.6492513542268
 30
0.0
 10
105.4922650864459
 20
-138.6492513542268
 30
0.0
 10
105.4619614761079
 20
-138.6492513542268
 30
0.0
 10
105.4371638625297
 20
-138.6740516319982
 30
0.0
 10
105.4371638625297
 20
-138.7043552431018
 30
0.0
 10
105.4371638625297
 20
-138.7346941319828
 30
0.0
 10
105.4619614761079
 20
-138.7594944097548
 30
0.0
 10
105.4922650864459
 20
-138.7594944097548
 30
0.0
 10
105.5225686967839
 20
-138.7594944097548
 30
0.0
 10
105.5474042517058
 20
-138.7346941319828
 30
0.0
 10
105.5474042517058
 20
-138.7043552431018
 30
0.0
  0
SPLINE
  5
AB
330
1F
100
AcDbEntity
  8
_U+30EC_U+30A4_U+30E4_U+30FC 1
 62
   179
420
  2234388
370
     9
100
AcDbSpline
210
0.0
220
0.0
230
1.0
 70
    11
 71
     3
 72
    17
 73
    13
 74
     0
 42
0.0000000001
 43
0.0000000001
 12
1.0
 22
0.0
 32
0.0
 13
1.0
 23
0.0
 33
0.0
 40
0.0
 40
0.0
 40
0.0
 40
0.0
 40
1.0
 40
1.0
 40
1.0
 40
2.0
 40
2.0
 40
2.0
 40
3.0
 40
3.0
 40
3.0
 40
4.0
 40
4.0
 40
4.0
 40
4.0
 10
107.747432251134
 20
-140.904418575885
 30
0.0
 10
107.747432251134
 20
-140.8740796870039
 30
0.0
 10
107.7226319739889
 20
-140.8492794092319
 30
0.0
 10
107.692293085874
 20
-140.8492794092319
 30
0.0
 10
107.661989475536
 20
-140.8492794092319
 30
0.0
 10
107.637189198391
 20
-140.8740796870039
 30
0.0
 10
107.637189198391
 20
-140.904418575885
 30
0.0
 10
107.637189198391
 20
-140.9347221869886
 30
0.0
 10
107.661989475536
 20
-140.9595224647599
 30
0.0
 10
107.692293085874
 20
-140.9595224647599
 30
0.0
 10
107.7226319739889
 20
-140.9595224647599
 30
0.0
 10
107.747432251134
 20
-140.9347221869886
 30
0.0
 10
107.747432251134
 20
-140.904418575885
 30
0.0
  0
SPLINE
  5
AC
330
1F
100
AcDbEntity
  8
_U+30EC_U+30A4_U+30E4_U+30FC 1
 62
   179
420
  2234388
370
     9
100
AcDbSpline
210
0.0
220
0.0
230
1.0
 70
    11
 71
     3
 72
    17
 73
    13
 74
     0
 42
0.0000000001
 43
0.0000000001
 12
1.0
 22
0.0
 32
0.0
 13
1.0
 23
0.0
 33
0.0
 40
0.0
 40
0.0
 40
0.0
 40
0.0
 40
1.0
 40
1.0
 40
1.0
 40
2.0
 40
2.0
 40
2.0
 40
3.0
 40
3.0
 40
3.0
 40
4.0
 40
4.0
 40
4.0
 40
4.0
 10
107.747432251134
 20
-145.3044746858958
 30
0.0
 10
107.747432251134
 20
-145.2741710747929
 30
0.0
 10
107.7226319739889
 20
-145.2493707970209
 30
0.0
 10
107.692293085874
 20
-145.2493707970209
 30
0.0
 10
107.661989475536
 20
-145.2493707970209
 30
0.0
 10
107.637189198391
 20
-145.2741710747929
 30
0.0
 10
107.637189198391
 20
-145.3044746858958
 30
0.0
 10
107.637189198391
 20
-145.3348135747775
 30
0.0
 10
107.661989475536
 20
-145.3596138525489
 30
0.0
 10
107.692293085874
 20
-145.3596138525489
 30
0.0
 10
107.7226319739889
 20
-145.3596138525489
 30
0.0
 10
107.747432251134
 20
-145.3348135747775
 30
0.0
 10
107.747432251134
 20
-145.3044746858958
 30
0.0
  0
SPLINE
  5
AD
330
1F
100
AcDbEntity
  8
_U+30EC_U+30A4_U+30E4_U+30FC 1
 62
   179
420
  2234388
370
     9
100
AcDbSpline
210
0.0
220
0.0
230
1.0
 70
    11
 71
     3
 72
    17
 73
    13
 74
     0
 42
0.0000000001
 43
0.0000000001
 12
1.0
 22
0.0
 32
0.0
 13
1.0
 23
0.0
 33
0.0
 40
0.0
 40
0.0
 40
0.0
 40
0.0
 40
1.0
 40
1.0
 40
1.0
 40
2.0
 40
2.0
 40
2.0
 40
3.0
 40
3.0
 40
3.0
 40
4.0
 40
4.0
 40
4.0
 40
4.0
 10
105.5474042517058
 20
-147.5045027409015
 30
0.0
 10
105.5474042517058
 20
-147.474199129798
 30
0.0
 10
105.5225686967839
 20
-147.4493988520266
 30
0.0
 10
105.4922650864459
 20
-147.4493988520266
 30
0.0
 10
105.4619614761079
 20
-147.4493988520266
 30
0.0
 10
105.4371638625297
 20
-147.474199129798
 30
0.0
 10
105.4371638625297
 20
-147.5045027409015
 30
0.0
 10
105.4371638625297
 20
-147.5348416297832
 30
0.0
 10
105.4619614761079
 20
-147.5596419075546
 30
0.0
 10
105.4922650864459
 20
-147.5596419075546
 30
0.0
 10
105.5225686967839
 20
-147.5596419075546
 30
0.0
 10
105.5474042517058
 20
-147.5348416297832
 30
0.0
 10
105.5474042517058
 20
-147.5045027409015
 30
0.0
  0
SPLINE
  5
AE
330
1F
100
AcDbEntity
  8
_U+30EC_U+30A4_U+30E4_U+30FC 1
 62
   179
420
  2234388
370
     9
100
AcDbSpline
210
0.0
220
0.0
230
1.0
 70
    11
 71
     3
 72
    17
 73
    13
 74
     0
 42
0.0000000001
 43
0.0000000001
 12
1.0
 22
0.0
 32
0.0
 13
1.0
 23
0.0
 33
0.0
 40
0.0
 40
0.0
 40
0.0
 40
0.0
 40
1.0
 40
1.0
 40
1.0
 40
2.0
 40
2.0
 40
2.0
 40
3.0
 40
3.0
 40
3.0
 40
4.0
 40
4.0
 40
4.0
 40
4.0
 10
94.54719369901125
 20
-147.5045027409015
 30
0.0
 10
94.54719369901125
 20
-147.474199129798
 30
0.0
 10
94.52239342186617
 20
-147.4493988520266
 30
0.0
 10
94.49208981152817
 20
-147.4493988520266
 30
0.0
 10
94.46175092341329
 20
-147.4493988520266
 30
0.0
 10
94.43695064626823
 20
-147.474199129798
 30
0.0
 10
94.43695064626823
 20
-147.5045027409015
 30
0.0
 10
94.43695064626823
 20
-147.5348416297832
 30
0.0
 10
94.46175092341329
 20
-147.5596419075546
 30
0.0
 10
94.49208981152817
 20
-147.5596419075546
 30
0.0
 10
94.52239342186617
 20
-147.5596419075546
 30
0.0
 10
94.54719369901125
 20
-147.5348416297832
 30
0.0
 10
94.54719369901125
 20
-147.5045027409015
 30
0.0
  0
SPLINE
  5
AF
330
1F
100
AcDbEntity
  8
_U+30EC_U+30A4_U+30E4_U+30FC 1
 62
   179
420
  2234388
370
     9
100
AcDbSpline
210
0.0
220
0.0
230
1.0
 70
    11
 71
     3
 72
    17
 73
    13
 74
     0
 42
0.0000000001
 43
0.0000000001
 12
1.0
 22
0.0
 32
0.0
 13
1.0
 23
0.0
 33
0.0
 40
0.0
 40
0.0
 40
0.0
 40
0.0
 40
1.0
 40
1.0
 40
1.0
 40
2.0
 40
2.0
 40
2.0
 40
3.0
 40
3.0
 40
3.0
 40
4.0
 40
4.0
 40
4.0
 40
4.0
 10
80.79715099424851
 20
-147.5045027409015
 30
0.0
 10
80.79715099424851
 20
-147.474199129798
 30
0.0
 10
80.77231543932656
 20
-147.4493988520266
 30
0.0
 10
80.7420138687034
 20
-147.4493988520266
 30
0.0
 10
80.71170821865056
 20
-147.4493988520266
 30
0.0
 10
80.68757821926616
 20
-147.474199129798
 30
0.0
 10
80.68757821926616
 20
-147.5045027409015
 30
0.0
 10
80.68757821926616
 20
-147.5348416297832
 30
0.0
 10
80.71170821865056
 20
-147.5596419075546
 30
0.0
 10
80.7420138687034
 20
-147.5596419075546
 30
0.0
 10
80.77231543932656
 20
-147.5596419075546
 30
0.0
 10
80.79715099424851
 20
-147.5348416297832
 30
0.0
 10
80.79715099424851
 20
-147.5045027409015
 30
0.0
  0
SPLINE
  5
B0
330
1F
100
AcDbEntity
  8
_U+30EC_U+30A4_U+30E4_U+30FC 1
 62
   179
420
  2234388
370
     9
100
AcDbSpline
210
0.0
220
0.0
230
1.0
 70
    11
 71
     3
 72
    17
 73
    13
 74
     0
 42
0.0000000001
 43
0.0000000001
 12
1.0
 22
0.0
 32
0.0
 13
1.0
 23
0.0
 33
0.0
 40
0.0
 40
0.0
 40
0.0
 40
0.0
 40
1.0
 40
1.0
 40
1.0
 40
2.0
 40
2.0
 40
2.0
 40
3.0
 40
3.0
 40
3.0
 40
4.0
 40
4.0
 40
4.0
 40
4.0
 10
78.59708771704346
 20
-142.5546071865836
 30
0.0
 10
78.59708771704346
 20
-142.5243035754801
 30
0.0
 10
78.57228743989839
 20
-142.4994680199306
 30
0.0
 10
78.5419838295604
 20
-142.4994680199306
 30
0.0
 10
78.51164494144551
 20
-142.4994680199306
 30
0.0
 10
78.48684466430043
 20
-142.5243035754801
 30
0.0
 10
78.48684466430043
 20
-142.5546071865836
 30
0.0
 10
78.48684466430043
 20
-142.5849107976872
 30
0.0
 10
78.51164494144551
 20
-142.6097110754585
 30
0.0
 10
78.5419838295604
 20
-142.6097110754585
 30
0.0
 10
78.57228743989839
 20
-142.6097110754585
 30
0.0
 10
78.59708771704346
 20
-142.5849107976872
 30
0.0
 10
78.59708771704346
 20
-142.5546071865836
 30
0.0
  0
SPLINE
  5
B1
330
1F
100
AcDbEntity
  8
_U+30EC_U+30A4_U+30E4_U+30FC 1
 62
   179
420
  2234388
370
     9
100
AcDbSpline
210
0.0
220
0.0
230
1.0
 70
    11
 71
     3
 72
    17
 73
    13
 74
     0
 42
0.0000000001
 43
0.0000000001
 12
1.0
 22
0.0
 32
0.0
 13
1.0
 23
0.0
 33
0.0
 40
0.0
 40
0.0
 40
0.0
 40
0.0
 40
1.0
 40
1.0
 40
1.0
 40
2.0
 40
2.0
 40
2.0
 40
3.0
 40
3.0
 40
3.0
 40
4.0
 40
4.0
 40
4.0
 40
4.0
 10
78.59708771704346
 20
-145.3044746858958
 30
0.0
 10
78.59708771704346
 20
-145.2741710747929
 30
0.0
 10
78.57228743989839
 20
-145.2493707970209
 30
0.0
 10
78.5419838295604
 20
-145.2493707970209
 30
0.0
 10
78.51164494144551
 20
-145.2493707970209
 30
0.0
 10
78.48684466430043
 20
-145.2741710747929
 30
0.0
 10
78.48684466430043
 20
-145.3044746858958
 30
0.0
 10
78.48684466430043
 20
-145.3348135747775
 30
0.0
 10
78.51164494144551
 20
-145.3596138525489
 30
0.0
 10
78.5419838295604
 20
-145.3596138525489
 30
0.0
 10
78.57228743989839
 20
-145.3596138525489
 30
0.0
 10
78.59708771704346
 20
-145.3348135747775
 30
0.0
 10
78.59708771704346
 20
-145.3044746858958
 30
0.0
  0
SPLINE
  5
B2
330
1F
100
AcDbEntity
  8
_U+30EC_U+30A4_U+30E4_U+30FC 1
 62
   179
420
  2234388
370
     9
100
AcDbSpline
210
0.0
220
0.0
230
1.0
 70
    11
 71
     3
 72
    17
 73
    13
 74
     0
 42
0.0000000001
 43
0.0000000001
 12
1.0
 22
0.0
 32
0.0
 13
1.0
 23
0.0
 33
0.0
 40
0.0
 40
0.0
 40
0.0
 40
0.0
 40
1.0
 40
1.0
 40
1.0
 40
2.0
 40
2.0
 40
2.0
 40
3.0
 40
3.0
 40
3.0
 40
4.0
 40
4.0
 40
4.0
 40
4.0
 10
76.39705971761529
 20
-145.3044746858958
 30
0.0
 10
76.39705971761529
 20
-145.2741710747929
 30
0.0
 10
76.37225944047023
 20
-145.2493707970209
 30
0.0
 10
76.34192055235535
 20
-145.2493707970209
 30
0.0
 10
76.31161694201735
 20
-145.2493707970209
 30
0.0
 10
76.28748886981688
 20
-145.2741710747929
 30
0.0
 10
76.28748886981688
 20
-145.3044746858958
 30
0.0
 10
76.28748886981688
 20
-145.3348135747775
 30
0.0
 10
76.31161694201735
 20
-145.3596138525489
 30
0.0
 10
76.34192055235535
 20
-145.3596138525489
 30
0.0
 10
76.37225944047023
 20
-145.3596138525489
 30
0.0
 10
76.39705971761529
 20
-145.3348135747775
 30
0.0
 10
76.39705971761529
 20
-145.3044746858958
 30
0.0
  0
SPLINE
  5
B3
330
1F
100
AcDbEntity
  8
_U+30EC_U+30A4_U+30E4_U+30FC 1
 62
   179
420
  2234388
370
     9
100
AcDbSpline
210
0.0
220
0.0
230
1.0
 70
    11
 71
     3
 72
    17
 73
    13
 74
     0
 42
0.0000000001
 43
0.0000000001
 12
1.0
 22
0.0
 32
0.0
 13
1.0
 23
0.0
 33
0.0
 40
0.0
 40
0.0
 40
0.0
 40
0.0
 40
1.0
 40
1.0
 40
1.0
 40
2.0
 40
2.0
 40
2.0
 40
3.0
 40
3.0
 40
3.0
 40
4.0
 40
4.0
 40
4.0
 40
4.0
 10
76.39705971761529
 20
-129.904207745302
 30
0.0
 10
76.39705971761529
 20
-129.8739041341985
 30
0.0
 10
76.37225944047023
 20
-129.8497741342044
 30
0.0
 10
76.34192055235535
 20
-129.8497741342044
 30
0.0
 10
76.31161694201735
 20
-129.8497741342044
 30
0.0
 10
76.28748886981688
 20
-129.8739041341985
 30
0.0
 10
76.28748886981688
 20
-129.904207745302
 30
0.0
 10
76.28748886981688
 20
-129.9345466341831
 30
0.0
 10
76.31161694201735
 20
-129.9593469119544
 30
0.0
 10
76.34192055235535
 20
-129.9593469119544
 30
0.0
 10
76.37225944047023
 20
-129.9593469119544
 30
0.0
 10
76.39705971761529
 20
-129.9345466341831
 30
0.0
 10
76.39705971761529
 20
-129.904207745302
 30
0.0
  0
SPLINE
  5
B4
330
1F
100
AcDbEntity
  8
_U+30EC_U+30A4_U+30E4_U+30FC 1
 62
   179
420
  2234388
370
     9
100
AcDbSpline
210
0.0
220
0.0
230
1.0
 70
    11
 71
     3
 72
    17
 73
    13
 74
     0
 42
0.0000000001
 43
0.0000000001
 12
1.0
 22
0.0
 32
0.0
 13
1.0
 23
0.0
 33
0.0
 40
0.0
 40
0.0
 40
0.0
 40
0.0
 40
1.0
 40
1.0
 40
1.0
 40
2.0
 40
2.0
 40
2.0
 40
3.0
 40
3.0
 40
3.0
 40
4.0
 40
4.0
 40
4.0
 40
4.0
 10
76.39705971761529
 20
-131.5544316337782
 30
0.0
 10
76.39705971761529
 20
-131.5240927448964
 30
0.0
 10
76.37225944047023
 20
-131.4992924671251
 30
0.0
 10
76.34192055235535
 20
-131.4992924671251
 30
0.0
 10
76.31161694201735
 20
-131.4992924671251
 30
0.0
 10
76.28748886981688
 20
-131.5240927448964
 30
0.0
 10
76.28748886981688
 20
-131.5544316337782
 30
0.0
 10
76.28748886981688
 20
-131.5847352448817
 30
0.0
 10
76.31161694201735
 20
-131.6095355226531
 30
0.0
 10
76.34192055235535
 20
-131.6095355226531
 30
0.0
 10
76.37225944047023
 20
-131.6095355226531
 30
0.0
 10
76.39705971761529
 20
-131.5847352448817
 30
0.0
 10
76.39705971761529
 20
-131.5544316337782
 30
0.0
  0
SPLINE
  5
B5
330
1F
100
AcDbEntity
  8
_U+30EC_U+30A4_U+30E4_U+30FC 1
 62
   179
420
  2234388
370
     9
100
AcDbSpline
210
0.0
220
0.0
230
1.0
 70
    11
 71
     3
 72
    17
 73
    13
 74
     0
 42
0.0000000001
 43
0.0000000001
 12
1.0
 22
0.0
 32
0.0
 13
1.0
 23
0.0
 33
0.0
 40
0.0
 40
0.0
 40
0.0
 40
0.0
 40
1.0
 40
1.0
 40
1.0
 40
2.0
 40
2.0
 40
2.0
 40
3.0
 40
3.0
 40
3.0
 40
4.0
 40
4.0
 40
4.0
 40
4.0
 10
76.39705971761529
 20
-113.4042619160934
 30
0.0
 10
76.39705971761529
 20
-113.3739583049899
 30
0.0
 10
76.37225944047023
 20
-113.3498283049958
 30
0.0
 10
76.34192055235535
 20
-113.3498283049958
 30
0.0
 10
76.31161694201735
 20
-113.3498283049958
 30
0.0
 10
76.28748886981688
 20
-113.3739583049899
 30
0.0
 10
76.28748886981688
 20
-113.4042619160934
 30
0.0
 10
76.28748886981688
 20
-113.4346008049748
 30
0.0
 10
76.31161694201735
 20
-113.4594010827462
 30
0.0
 10
76.34192055235535
 20
-113.4594010827462
 30
0.0
 10
76.37225944047023
 20
-113.4594010827462
 30
0.0
 10
76.39705971761529
 20
-113.4346008049748
 30
0.0
 10
76.39705971761529
 20
-113.4042619160934
 30
0.0
  0
SPLINE
  5
B6
330
1F
100
AcDbEntity
  8
_U+30EC_U+30A4_U+30E4_U+30FC 1
 62
   179
420
  2234388
370
     9
100
AcDbSpline
210
0.0
220
0.0
230
1.0
 70
    11
 71
     3
 72
    17
 73
    13
 74
     0
 42
0.0000000001
 43
0.0000000001
 12
1.0
 22
0.0
 32
0.0
 13
1.0
 23
0.0
 33
0.0
 40
0.0
 40
0.0
 40
0.0
 40
0.0
 40
1.0
 40
1.0
 40
1.0
 40
2.0
 40
2.0
 40
2.0
 40
3.0
 40
3.0
 40
3.0
 40
4.0
 40
4.0
 40
4.0
 40
4.0
 10
80.79715099424851
 20
-111.2042338610877
 30
0.0
 10
80.79715099424851
 20
-111.1739302499845
 30
0.0
 10
80.77231543932656
 20
-111.1498002499904
 30
0.0
 10
80.7420138687034
 20
-111.1498002499904
 30
0.0
 10
80.71170821865056
 20
-111.1498002499904
 30
0.0
 10
80.68757821926616
 20
-111.1739302499845
 30
0.0
 10
80.68757821926616
 20
-111.2042338610877
 30
0.0
 10
80.68757821926616
 20
-111.2345374721912
 30
0.0
 10
80.71170821865056
 20
-111.2593730277408
 30
0.0
 10
80.7420138687034
 20
-111.2593730277408
 30
0.0
 10
80.77231543932656
 20
-111.2593730277408
 30
0.0
 10
80.79715099424851
 20
-111.2345374721912
 30
0.0
 10
80.79715099424851
 20
-111.2042338610877
 30
0.0
  0
SPLINE
  5
B7
330
1F
100
AcDbEntity
  8
_U+30EC_U+30A4_U+30E4_U+30FC 1
 62
   179
420
  2234388
370
     9
100
AcDbSpline
210
0.0
220
0.0
230
1.0
 70
    11
 71
     3
 72
    17
 73
    13
 74
     0
 42
0.0000000001
 43
0.0000000001
 12
1.0
 22
0.0
 32
0.0
 13
1.0
 23
0.0
 33
0.0
 40
0.0
 40
0.0
 40
0.0
 40
0.0
 40
1.0
 40
1.0
 40
1.0
 40
2.0
 40
2.0
 40
2.0
 40
3.0
 40
3.0
 40
3.0
 40
4.0
 40
4.0
 40
4.0
 40
4.0
 10
94.54719369901125
 20
-111.2042338610877
 30
0.0
 10
94.54719369901125
 20
-111.1739302499845
 30
0.0
 10
94.52239342186617
 20
-111.1498002499904
 30
0.0
 10
94.49208981152817
 20
-111.1498002499904
 30
0.0
 10
94.46175092341329
 20
-111.1498002499904
 30
0.0
 10
94.43695064626823
 20
-111.1739302499845
 30
0.0
 10
94.43695064626823
 20
-111.2042338610877
 30
0.0
 10
94.43695064626823
 20
-111.2345374721912
 30
0.0
 10
94.46175092341329
 20
-111.2593730277408
 30
0.0
 10
94.49208981152817
 20
-111.2593730277408
 30
0.0
 10
94.52239342186617
 20
-111.2593730277408
 30
0.0
 10
94.54719369901125
 20
-111.2345374721912
 30
0.0
 10
94.54719369901125
 20
-111.2042338610877
 30
0.0
  0
POLYLINE
  5
B8
330
1F
100
AcDbEntity
  8
_U+30EC_U+30A4_U+30E4_U+30FC 1
 62
   179
420
  2234388
370
     9
100
AcDb2dPolyline
 66
     1
 10
0.0
 20
0.0
 30
0.0
  0
VERTEX
  5
B9
330
B8
100
AcDbEntity
  8
_U+30EC_U+30A4_U+30E4_U+30FC 1
 62
   179
420
  2234388
370
     9
100
AcDbVertex
100
AcDb2dVertex
 10
94.49208981152817
 20
-111.2042338610877
 30
0.0
  0
VERTEX
  5
BA
330
B8
100
AcDbEntity
  8
_U+30EC_U+30A4_U+30E4_U+30FC 1
 62
   179
420
  2234388
370
     9
100
AcDbVertex
100
AcDb2dVertex
 10
80.7420138687034
 20
-111.2042338610877
 30
0.0
  0
SEQEND
  5
BB
330
B8
100
AcDbEntity
  8
_U+30EC_U+30A4_U+30E4_U+30FC 1
 62
   179
420
  2234388
370
     9
  0
POLYLINE
  5
BC
330
1F
100
AcDbEntity
  8
_U+30EC_U+30A4_U+30E4_U+30FC 1
 62
   179
420
  2234388
370
     9
100
AcDb2dPolyline
 66
     1
 10
0.0
 20
0.0
 30
0.0
  0
VERTEX
  5
BD
330
BC
100
AcDbEntity
  8
_U+30EC_U+30A4_U+30E4_U+30FC 1
 62
   179
420
  2234388
370
     9
100
AcDbVertex
100
AcDb2dVertex
 10
94.49208981152817
 20
-112.0076499719982
 30
0.0
  0
VERTEX
  5
BE
330
BC
100
AcDbEntity
  8
_U+30EC_U+30A4_U+30E4_U+30FC 1
 62
   179
420
  2234388
370
     9
100
AcDbVertex
100
AcDb2dVertex
 10
94.49208981152817
 20
-110.6543944167809
 30
0.0
  0
SEQEND
  5
BF
330
BC
100
AcDbEntity
  8
_U+30EC_U+30A4_U+30E4_U+30FC 1
 62
   179
420
  2234388
370
     9
  0
POLYLINE
  5
C0
330
1F
100
AcDbEntity
  8
_U+30EC_U+30A4_U+30E4_U+30FC 1
 62
   179
420
  2234388
370
     9
100
AcDb2dPolyline
 66
     1
 10
0.0
 20
0.0
 30
0.0
  0
VERTEX
  5
C1
330
C0
100
AcDbEntity
  8
_U+30EC_U+30A4_U+30E4_U+30FC 1
 62
   179
420
  2234388
370
     9
100
AcDbVertex
100
AcDb2dVertex
 10
80.7420138687034
 20
-130.1577844119048
 30
0.0
  0
VERTEX
  5
C2
330
C0
100
AcDbEntity
  8
_U+30EC_U+30A4_U+30E4_U+30FC 1
 62
   179
420
  2234388
370
     9
100
AcDbVertex
100
AcDb2dVertex
 10
80.7420138687034
 20
-110.6543944167809
 30
0.0
  0
SEQEND
  5
C3
330
C0
100
AcDbEntity
  8
_U+30EC_U+30A4_U+30E4_U+30FC 1
 62
   179
420
  2234388
370
     9
  0
INSERT
  5
C5
330
1F
100
AcDbEntity
  8
_U+30EC_U+30A4_U+30E4_U+30FC 1
100
AcDbBlockReference
  2
block 2
 10
0.0
 20
0.0
 30
0.0
  0
POLYLINE
  5
CC
330
1F
100
AcDbEntity
  8
_U+30EC_U+30A4_U+30E4_U+30FC 1
 62
   179
420
  2234388
370
     9
100
AcDb2dPolyline
 66
     1
 10
0.0
 20
0.0
 30
0.0
  0
VERTEX
  5
CD
330
CC
100
AcDbEntity
  8
_U+30EC_U+30A4_U+30E4_U+30FC 1
 62
   179
420
  2234388
370
     9
100
AcDbVertex
100
AcDb2dVertex
 10
80.7420138687034
 20
-147.5045027409015
 30
0.0
  0
VERTEX
  5
CE
330
CC
100
AcDbEntity
  8
_U+30EC_U+30A4_U+30E4_U+30FC 1
 62
   179
420
  2234388
370
     9
100
AcDbVertex
100
AcDb2dVertex
 10
94.49208981152817
 20
-147.5045027409015
 30
0.0
  0
SEQEND
  5
CF
330
CC
100
AcDbEntity
  8
_U+30EC_U+30A4_U+30E4_U+30FC 1
 62
   179
420
  2234388
370
     9
  0
POLYLINE
  5
D0
330
1F
100
AcDbEntity
  8
_U+30EC_U+30A4_U+30E4_U+30FC 1
 62
   179
420
  2234388
370
     9
100
AcDb2dPolyline
 66
     1
 10
0.0
 20
0.0
 30
0.0
  0
VERTEX
  5
D1
330
D0
100
AcDbEntity
  8
_U+30EC_U+30A4_U+30E4_U+30FC 1
 62
   179
420
  2234388
370
     9
100
AcDbVertex
100
AcDb2dVertex
 10
80.7420138687034
 20
-146.7018274633246
 30
0.0
  0
VERTEX
  5
D2
330
D0
100
AcDbEntity
  8
_U+30EC_U+30A4_U+30E4_U+30FC 1
 62
   179
420
  2234388
370
     9
100
AcDbVertex
100
AcDb2dVertex
 10
80.7420138687034
 20
-148.0543421852086
 30
0.0
  0
SEQEND
  5
D3
330
D0
100
AcDbEntity
  8
_U+30EC_U+30A4_U+30E4_U+30FC 1
 62
   179
420
  2234388
370
     9
  0
POLYLINE
  5
D4
330
1F
100
AcDbEntity
  8
_U+30EC_U+30A4_U+30E4_U+30FC 1
 62
   179
420
  2234388
370
     9
100
AcDb2dPolyline
 66
     1
 10
0.0
 20
0.0
 30
0.0
  0
VERTEX
  5
D5
330
D4
100
AcDbEntity
  8
_U+30EC_U+30A4_U+30E4_U+30FC 1
 62
   179
420
  2234388
370
     9
100
AcDbVertex
100
AcDb2dVertex
 10
94.49208981152817
 20
-146.7018274633246
 30
0.0
  0
VERTEX
  5
D6
330
D4
100
AcDbEntity
  8
_U+30EC_U+30A4_U+30E4_U+30FC 1
 62
   179
420
  2234388
370
     9
100
AcDbVertex
100
AcDb2dVertex
 10
94.49208981152817
 20
-148.0543421852086
 30
0.0
  0
SEQEND
  5
D7
330
D4
100
AcDbEntity
  8
_U+30EC_U+30A4_U+30E4_U+30FC 1
 62
   179
420
  2234388
370
     9
  0
INSERT
  5
D9
330
1F
100
AcDbEntity
  8
_U+30EC_U+30A4_U+30E4_U+30FC 1
100
AcDbBlockReference
  2
block 3
 10
0.0
 20
0.0
 30
0.0
  0
POLYLINE
  5
E0
330
1F
100
AcDbEntity
  8
_U+30EC_U+30A4_U+30E4_U+30FC 1
 62
   179
420
  2234388
370
     9
100
AcDb2dPolyline
 66
     1
 10
0.0
 20
0.0
 30
0.0
  0
VERTEX
  5
E1
330
E0
100
AcDbEntity
  8
_U+30EC_U+30A4_U+30E4_U+30FC 1
 62
   179
420
  2234388
370
     9
100
AcDbVertex
100
AcDb2dVertex
 10
94.49208981152817
 20
-147.5045027409015
 30
0.0
  0
VERTEX
  5
E2
330
E0
100
AcDbEntity
  8
_U+30EC_U+30A4_U+30E4_U+30FC 1
 62
   179
420
  2234388
370
     9
100
AcDbVertex
100
AcDb2dVertex
 10
105.4922650864459
 20
-147.5045027409015
 30
0.0
  0
SEQEND
  5
E3
330
E0
100
AcDbEntity
  8
_U+30EC_U+30A4_U+30E4_U+30FC 1
 62
   179
420
  2234388
370
     9
  0
POLYLINE
  5
E4
330
1F
100
AcDbEntity
  8
_U+30EC_U+30A4_U+30E4_U+30FC 1
 62
   179
420
  2234388
370
     9
100
AcDb2dPolyline
 66
     1
 10
0.0
 20
0.0
 30
0.0
  0
VERTEX
  5
E5
330
E4
100
AcDbEntity
  8
_U+30EC_U+30A4_U+30E4_U+30FC 1
 62
   179
420
  2234388
370
     9
100
AcDbVertex
100
AcDb2dVertex
 10
105.4922650864459
 20
-146.7018274633246
 30
0.0
  0
VERTEX
  5
E6
330
E4
100
AcDbEntity
  8
_U+30EC_U+30A4_U+30E4_U+30FC 1
 62
   179
420
  2234388
370
     9
100
AcDbVertex
100
AcDb2dVertex
 10
105.4922650864459
 20
-148.0543421852086
 30
0.0
  0
SEQEND
  5
E7
330
E4
100
AcDbEntity
  8
_U+30EC_U+30A4_U+30E4_U+30FC 1
 62
   179
420
  2234388
370
     9
  0
INSERT
  5
E9
330
1F
100
AcDbEntity
  8
_U+30EC_U+30A4_U+30E4_U+30FC 1
100
AcDbBlockReference
  2
block 4
 10
0.0
 20
0.0
 30
0.0
  0
POLYLINE
  5
F1
330
1F
100
AcDbEntity
  8
_U+30EC_U+30A4_U+30E4_U+30FC 1
 62
   179
420
  2234388
370
     9
100
AcDb2dPolyline
 66
     1
 10
0.0
 20
0.0
 30
0.0
  0
VERTEX
  5
F2
330
F1
100
AcDbEntity
  8
_U+30EC_U+30A4_U+30E4_U+30FC 1
 62
   179
420
  2234388
370
     9
100
AcDbVertex
100
AcDb2dVertex
 10
103.4024801397607
 20
-138.7043552431018
 30
0.0
  0
VERTEX
  5
F3
330
F1
100
AcDbEntity
  8
_U+30EC_U+30A4_U+30E4_U+30FC 1
 62
   179
420
  2234388
370
     9
100
AcDbVertex
100
AcDb2dVertex
 10
100.5106549357596
 20
-138.7043552431018
 30
0.0
  0
SEQEND
  5
F4
330
F1
100
AcDbEntity
  8
_U+30EC_U+30A4_U+30E4_U+30FC 1
 62
   179
420
  2234388
370
     9
  0
POLYLINE
  5
F5
330
1F
100
AcDbEntity
  8
_U+30EC_U+30A4_U+30E4_U+30FC 1
 62
   179
420
  2234388
370
     9
100
AcDb2dPolyline
 66
     1
 10
0.0
 20
0.0
 30
0.0
  0
VERTEX
  5
F6
330
F5
100
AcDbEntity
  8
_U+30EC_U+30A4_U+30E4_U+30FC 1
 62
   179
420
  2234388
370
     9
100
AcDbVertex
100
AcDb2dVertex
 10
103.4024801397607
 20
-138.7043552431018
 30
0.0
  0
VERTEX
  5
F7
330
F5
100
AcDbEntity
  8
_U+30EC_U+30A4_U+30E4_U+30FC 1
 62
   179
420
  2234388
370
     9
100
AcDbVertex
100
AcDb2dVertex
 10
105.4922650864459
 20
-138.7043552431018
 30
0.0
  0
SEQEND
  5
F8
330
F5
100
AcDbEntity
  8
_U+30EC_U+30A4_U+30E4_U+30FC 1
 62
   179
420
  2234388
370
     9
  0
POLYLINE
  5
F9
330
1F
100
AcDbEntity
  8
_U+30EC_U+30A4_U+30E4_U+30FC 1
 62
   179
420
  2234388
370
     9
100
AcDb2dPolyline
 66
     1
 10
0.0
 20
0.0
 30
0.0
  0
VERTEX
  5
FA
330
F9
100
AcDbEntity
  8
_U+30EC_U+30A4_U+30E4_U+30FC 1
 62
   179
420
  2234388
370
     9
100
AcDbVertex
100
AcDb2dVertex
 10
103.4024801397607
 20
-139.5070657984568
 30
0.0
  0
VERTEX
  5
FB
330
F9
100
AcDbEntity
  8
_U+30EC_U+30A4_U+30E4_U+30FC 1
 62
   179
420
  2234388
370
     9
100
AcDbVertex
100
AcDb2dVertex
 10
103.4024801397607
 20
-138.1545157987947
 30
0.0
  0
SEQEND
  5
FC
330
F9
100
AcDbEntity
  8
_U+30EC_U+30A4_U+30E4_U+30FC 1
 62
   179
420
  2234388
370
     9
  0
POLYLINE
  5
FD
330
1F
100
AcDbEntity
  8
_U+30EC_U+30A4_U+30E4_U+30FC 1
 62
   179
420
  2234388
370
     9
100
AcDb2dPolyline
 66
     1
 10
0.0
 20
0.0
 30
0.0
  0
VERTEX
  5
FE
330
FD
100
AcDbEntity
  8
_U+30EC_U+30A4_U+30E4_U+30FC 1
 62
   179
420
  2234388
370
     9
100
AcDbVertex
100
AcDb2dVertex
 10
105.4922650864459
 20
-139.5070657984568
 30
0.0
  0
VERTEX
  5
FF
330
FD
100
AcDbEntity
  8
_U+30EC_U+30A4_U+30E4_U+30FC 1
 62
   179
420
  2234388
370
     9
100
AcDbVertex
100
AcDb2dVertex
 10
105.4922650864459
 20
-138.1545157987947
 30
0.0
  0
SEQEND
  5
100
330
FD
100
AcDbEntity
  8
_U+30EC_U+30A4_U+30E4_U+30FC 1
 62
   179
420
  2234388
370
     9
  0
INSERT
  5
102
330
1F
100
AcDbEntity
  8
_U+30EC_U+30A4_U+30E4_U+30FC 1
100
AcDbBlockReference
  2
block 5
 10
0.0
 20
0.0
 30
0.0
  0
POLYLINE
  5
113
330
1F
100
AcDbEntity
  8
_U+30EC_U+30A4_U+30E4_U+30FC 1
 62
   179
420
  2234388
370
     9
100
AcDb2dPolyline
 66
     1
 10
0.0
 20
0.0
 30
0.0
  0
VERTEX
  5
114
330
113
100
AcDbEntity
  8
_U+30EC_U+30A4_U+30E4_U+30FC 1
 62
   179
420
  2234388
370
     9
100
AcDbVertex
100
AcDb2dVertex
 10
107.692293085874
 20
-140.904418575885
 30
0.0
  0
VERTEX
  5
115
330
113
100
AcDbEntity
  8
_U+30EC_U+30A4_U+30E4_U+30FC 1
 62
   179
420
  2234388
370
     9
100
AcDbVertex
100
AcDb2dVertex
 10
107.692293085874
 20
-145.3044746858958
 30
0.0
  0
SEQEND
  5
116
330
113
100
AcDbEntity
  8
_U+30EC_U+30A4_U+30E4_U+30FC 1
 62
   179
420
  2234388
370
     9
  0
POLYLINE
  5
117
330
1F
100
AcDbEntity
  8
_U+30EC_U+30A4_U+30E4_U+30FC 1
 62
   179
420
  2234388
370
     9
100
AcDb2dPolyline
 66
     1
 10
0.0
 20
0.0
 30
0.0
  0
VERTEX
  5
118
330
117
100
AcDbEntity
  8
_U+30EC_U+30A4_U+30E4_U+30FC 1
 62
   179
420
  2234388
370
     9
100
AcDbVertex
100
AcDb2dVertex
 10
106.8895825507973
 20
-140.904418575885
 30
0.0
  0
VERTEX
  5
119
330
117
100
AcDbEntity
  8
_U+30EC_U+30A4_U+30E4_U+30FC 1
 62
   179
420
  2234388
370
     9
100
AcDbVertex
100
AcDb2dVertex
 10
108.2421325162909
 20
-140.904418575885
 30
0.0
  0
SEQEND
  5
11A
330
117
100
AcDbEntity
  8
_U+30EC_U+30A4_U+30E4_U+30FC 1
 62
   179
420
  2234388
370
     9
  0
POLYLINE
  5
11B
330
1F
100
AcDbEntity
  8
_U+30EC_U+30A4_U+30E4_U+30FC 1
 62
   179
420
  2234388
370
     9
100
AcDb2dPolyline
 66
     1
 10
0.0
 20
0.0
 30
0.0
  0
VERTEX
  5
11C
330
11B
100
AcDbEntity
  8
_U+30EC_U+30A4_U+30E4_U+30FC 1
 62
   179
420
  2234388
370
     9
100
AcDbVertex
100
AcDb2dVertex
 10
106.8895825507973
 20
-145.3044746858958
 30
0.0
  0
VERTEX
  5
11D
330
11B
100
AcDbEntity
  8
_U+30EC_U+30A4_U+30E4_U+30FC 1
 62
   179
420
  2234388
370
     9
100
AcDbVertex
100
AcDb2dVertex
 10
108.2421325162909
 20
-145.3044746858958
 30
0.0
  0
SEQEND
  5
11E
330
11B
100
AcDbEntity
  8
_U+30EC_U+30A4_U+30E4_U+30FC 1
 62
   179
420
  2234388
370
     9
  0
INSERT
  5
120
330
1F
100
AcDbEntity
  8
_U+30EC_U+30A4_U+30E4_U+30FC 1
100
AcDbBlockReference
  2
block 6
 10
0.0
 20
0.0
 30
0.0
  0
POLYLINE
  5
127
330
1F
100
AcDbEntity
  8
_U+30EC_U+30A4_U+30E4_U+30FC 1
 62
   179
420
  2234388
370
     9
100
AcDb2dPolyline
 66
     1
 10
0.0
 20
0.0
 30
0.0
  0
VERTEX
  5
128
330
127
100
AcDbEntity
  8
_U+30EC_U+30A4_U+30E4_U+30FC 1
 62
   179
420
  2234388
370
     9
100
AcDbVertex
100
AcDb2dVertex
 10
78.5419838295604
 20
-145.3044746858958
 30
0.0
  0
VERTEX
  5
129
330
127
100
AcDbEntity
  8
_U+30EC_U+30A4_U+30E4_U+30FC 1
 62
   179
420
  2234388
370
     9
100
AcDbVertex
100
AcDb2dVertex
 10
78.5419838295604
 20
-142.5546071865836
 30
0.0
  0
SEQEND
  5
12A
330
127
100
AcDbEntity
  8
_U+30EC_U+30A4_U+30E4_U+30FC 1
 62
   179
420
  2234388
370
     9
  0
POLYLINE
  5
12B
330
1F
100
AcDbEntity
  8
_U+30EC_U+30A4_U+30E4_U+30FC 1
 62
   179
420
  2234388
370
     9
100
AcDb2dPolyline
 66
     1
 10
0.0
 20
0.0
 30
0.0
  0
VERTEX
  5
12C
330
12B
100
AcDbEntity
  8
_U+30EC_U+30A4_U+30E4_U+30FC 1
 62
   179
420
  2234388
370
     9
100
AcDbVertex
100
AcDb2dVertex
 10
79.34536664683039
 20
-145.3044746858958
 30
0.0
  0
VERTEX
  5
12D
330
12B
100
AcDbEntity
  8
_U+30EC_U+30A4_U+30E4_U+30FC 1
 62
   179
420
  2234388
370
     9
100
AcDbVertex
100
AcDb2dVertex
 10
77.99214439914351
 20
-145.3044746858958
 30
0.0
  0
SEQEND
  5
12E
330
12B
100
AcDbEntity
  8
_U+30EC_U+30A4_U+30E4_U+30FC 1
 62
   179
420
  2234388
370
     9
  0
POLYLINE
  5
12F
330
1F
100
AcDbEntity
  8
_U+30EC_U+30A4_U+30E4_U+30FC 1
 62
   179
420
  2234388
370
     9
100
AcDb2dPolyline
 66
     1
 10
0.0
 20
0.0
 30
0.0
  0
VERTEX
  5
130
330
12F
100
AcDbEntity
  8
_U+30EC_U+30A4_U+30E4_U+30FC 1
 62
   179
420
  2234388
370
     9
100
AcDbVertex
100
AcDb2dVertex
 10
80.00544712555767
 20
-142.5546071865836
 30
0.0
  0
VERTEX
  5
131
330
12F
100
AcDbEntity
  8
_U+30EC_U+30A4_U+30E4_U+30FC 1
 62
   179
420
  2234388
370
     9
100
AcDbVertex
100
AcDb2dVertex
 10
77.99214439914351
 20
-142.5546071865836
 30
0.0
  0
SEQEND
  5
132
330
12F
100
AcDbEntity
  8
_U+30EC_U+30A4_U+30E4_U+30FC 1
 62
   179
420
  2234388
370
     9
  0
INSERT
  5
134
330
1F
100
AcDbEntity
  8
_U+30EC_U+30A4_U+30E4_U+30FC 1
100
AcDbBlockReference
  2
block 7
 10
0.0
 20
0.0
 30
0.0
  0
POLYLINE
  5
139
330
1F
100
AcDbEntity
  8
_U+30EC_U+30A4_U+30E4_U+30FC 1
 62
   179
420
  2234388
370
     9
100
AcDb2dPolyline
 66
     1
 10
0.0
 20
0.0
 30
0.0
  0
VERTEX
  5
13A
330
139
100
AcDbEntity
  8
_U+30EC_U+30A4_U+30E4_U+30FC 1
 62
   179
420
  2234388
370
     9
100
AcDbVertex
100
AcDb2dVertex
 10
76.34192055235535
 20
-145.3044746858958
 30
0.0
  0
VERTEX
  5
13B
330
139
100
AcDbEntity
  8
_U+30EC_U+30A4_U+30E4_U+30FC 1
 62
   179
420
  2234388
370
     9
100
AcDbVertex
100
AcDb2dVertex
 10
76.34192055235535
 20
-131.5544316337782
 30
0.0
  0
SEQEND
  5
13C
330
139
100
AcDbEntity
  8
_U+30EC_U+30A4_U+30E4_U+30FC 1
 62
   179
420
  2234388
370
     9
  0
POLYLINE
  5
13D
330
1F
100
AcDbEntity
  8
_U+30EC_U+30A4_U+30E4_U+30FC 1
 62
   179
420
  2234388
370
     9
100
AcDb2dPolyline
 66
     1
 10
0.0
 20
0.0
 30
0.0
  0
VERTEX
  5
13E
330
13D
100
AcDbEntity
  8
_U+30EC_U+30A4_U+30E4_U+30FC 1
 62
   179
420
  2234388
370
     9
100
AcDbVertex
100
AcDb2dVertex
 10
79.34536664683039
 20
-145.3044746858958
 30
0.0
  0
VERTEX
  5
13F
330
13D
100
AcDbEntity
  8
_U+30EC_U+30A4_U+30E4_U+30FC 1
 62
   179
420
  2234388
370
     9
100
AcDbVertex
100
AcDb2dVertex
 10
75.79211639971535
 20
-145.3044746858958
 30
0.0
  0
SEQEND
  5
140
330
13D
100
AcDbEntity
  8
_U+30EC_U+30A4_U+30E4_U+30FC 1
 62
   179
420
  2234388
370
     9
  0
POLYLINE
  5
141
330
1F
100
AcDbEntity
  8
_U+30EC_U+30A4_U+30E4_U+30FC 1
 62
   179
420
  2234388
370
     9
100
AcDb2dPolyline
 66
     1
 10
0.0
 20
0.0
 30
0.0
  0
VERTEX
  5
142
330
141
100
AcDbEntity
  8
_U+30EC_U+30A4_U+30E4_U+30FC 1
 62
   179
420
  2234388
370
     9
100
AcDbVertex
100
AcDb2dVertex
 10
79.34536664683039
 20
-131.5544316337782
 30
0.0
  0
VERTEX
  5
143
330
141
100
AcDbEntity
  8
_U+30EC_U+30A4_U+30E4_U+30FC 1
 62
   179
420
  2234388
370
     9
100
AcDbVertex
100
AcDb2dVertex
 10
75.79211639971535
 20
-131.5544316337782
 30
0.0
  0
SEQEND
  5
144
330
141
100
AcDbEntity
  8
_U+30EC_U+30A4_U+30E4_U+30FC 1
 62
   179
420
  2234388
370
     9
  0
INSERT
  5
146
330
1F
100
AcDbEntity
  8
_U+30EC_U+30A4_U+30E4_U+30FC 1
100
AcDbBlockReference
  2
block 8
 10
0.0
 20
0.0
 30
0.0
  0
POLYLINE
  5
14D
330
1F
100
AcDbEntity
  8
_U+30EC_U+30A4_U+30E4_U+30FC 1
 62
   179
420
  2234388
370
     9
100
AcDb2dPolyline
 66
     1
 10
0.0
 20
0.0
 30
0.0
  0
VERTEX
  5
14E
330
14D
100
AcDbEntity
  8
_U+30EC_U+30A4_U+30E4_U+30FC 1
 62
   179
420
  2234388
370
     9
100
AcDbVertex
100
AcDb2dVertex
 10
76.34192055235535
 20
-131.5544316337782
 30
0.0
  0
VERTEX
  5
14F
330
14D
100
AcDbEntity
  8
_U+30EC_U+30A4_U+30E4_U+30FC 1
 62
   179
420
  2234388
370
     9
100
AcDbVertex
100
AcDb2dVertex
 10
76.34192055235535
 20
-129.904207745302
 30
0.0
  0
SEQEND
  5
150
330
14D
100
AcDbEntity
  8
_U+30EC_U+30A4_U+30E4_U+30FC 1
 62
   179
420
  2234388
370
     9
  0
POLYLINE
  5
151
330
1F
100
AcDbEntity
  8
_U+30EC_U+30A4_U+30E4_U+30FC 1
 62
   179
420
  2234388
370
     9
100
AcDb2dPolyline
 66
     1
 10
0.0
 20
0.0
 30
0.0
  0
VERTEX
  5
152
330
151
100
AcDbEntity
  8
_U+30EC_U+30A4_U+30E4_U+30FC 1
 62
   179
420
  2234388
370
     9
100
AcDbVertex
100
AcDb2dVertex
 10
93.09544262493739
 20
-129.904207745302
 30
0.0
  0
VERTEX
  5
153
330
151
100
AcDbEntity
  8
_U+30EC_U+30A4_U+30E4_U+30FC 1
 62
   179
420
  2234388
370
     9
100
AcDbVertex
100
AcDb2dVertex
 10
75.79211639971535
 20
-129.904207745302
 30
0.0
  0
SEQEND
  5
154
330
151
100
AcDbEntity
  8
_U+30EC_U+30A4_U+30E4_U+30FC 1
 62
   179
420
  2234388
370
     9
  0
INSERT
  5
156
330
1F
100
AcDbEntity
  8
_U+30EC_U+30A4_U+30E4_U+30FC 1
100
AcDbBlockReference
  2
block 9
 10
0.0
 20
0.0
 30
0.0
  0
POLYLINE
  5
15B
330
1F
100
AcDbEntity
  8
_U+30EC_U+30A4_U+30E4_U+30FC 1
 62
   179
420
  2234388
370
     9
100
AcDb2dPolyline
 66
     1
 10
0.0
 20
0.0
 30
0.0
  0
VERTEX
  5
15C
330
15B
100
AcDbEntity
  8
_U+30EC_U+30A4_U+30E4_U+30FC 1
 62
   179
420
  2234388
370
     9
100
AcDbVertex
100
AcDb2dVertex
 10
76.34192055235535
 20
-113.4042619160934
 30
0.0
  0
VERTEX
  5
15D
330
15B
100
AcDbEntity
  8
_U+30EC_U+30A4_U+30E4_U+30FC 1
 62
   179
420
  2234388
370
     9
100
AcDbVertex
100
AcDb2dVertex
 10
76.34192055235535
 20
-129.904207745302
 30
0.0
  0
SEQEND
  5
15E
330
15B
100
AcDbEntity
  8
_U+30EC_U+30A4_U+30E4_U+30FC 1
 62
   179
420
  2234388
370
     9
  0
POLYLINE
  5
15F
330
1F
100
AcDbEntity
  8
_U+30EC_U+30A4_U+30E4_U+30FC 1
 62
   179
420
  2234388
370
     9
100
AcDb2dPolyline
 66
     1
 10
0.0
 20
0.0
 30
0.0
  0
VERTEX
  5
160
330
15F
100
AcDbEntity
  8
_U+30EC_U+30A4_U+30E4_U+30FC 1
 62
   179
420
  2234388
370
     9
100
AcDbVertex
100
AcDb2dVertex
 10
93.09544262493739
 20
-113.4042619160934
 30
0.0
  0
VERTEX
  5
161
330
15F
100
AcDbEntity
  8
_U+30EC_U+30A4_U+30E4_U+30FC 1
 62
   179
420
  2234388
370
     9
100
AcDbVertex
100
AcDb2dVertex
 10
75.79211639971535
 20
-113.4042619160934
 30
0.0
  0
SEQEND
  5
162
330
15F
100
AcDbEntity
  8
_U+30EC_U+30A4_U+30E4_U+30FC 1
 62
   179
420
  2234388
370
     9
  0
POLYLINE
  5
163
330
1F
100
AcDbEntity
  8
_U+30EC_U+30A4_U+30E4_U+30FC 1
 62
   179
420
  2234388
370
     9
100
AcDb2dPolyline
 66
     1
 10
0.0
 20
0.0
 30
0.0
  0
VERTEX
  5
164
330
163
100
AcDbEntity
  8
_U+30EC_U+30A4_U+30E4_U+30FC 1
 62
   179
420
  2234388
370
     9
100
AcDbVertex
100
AcDb2dVertex
 10
93.09544262493739
 20
-129.904207745302
 30
0.0
  0
VERTEX
  5
165
330
163
100
AcDbEntity
  8
_U+30EC_U+30A4_U+30E4_U+30FC 1
 62
   179
420
  2234388
370
     9
100
AcDbVertex
100
AcDb2dVertex
 10
75.79211639971535
 20
-129.904207745302
 30
0.0
  0
SEQEND
  5
166
330
163
100
AcDbEntity
  8
_U+30EC_U+30A4_U+30E4_U+30FC 1
 62
   179
420
  2234388
370
     9
  0
INSERT
  5
168
330
1F
100
AcDbEntity
  8
_U+30EC_U+30A4_U+30E4_U+30FC 1
100
AcDbBlockReference
  2
block 10
 10
0.0
 20
0.0
 30
0.0
  0
ENDSEC
  0
SECTION
  2
OBJECTS
  0
DICTIONARY
  5
C
330
0
100
AcDbDictionary
281
     1
  3
ACAD_GROUP
350
D
  3
ACAD_LAYOUT
350
1A
  3
ACAD_MATERIAL
350
3B
  3
ACAD_MLEADERSTYLE
350
171
  3
ACAD_MLINESTYLE
350
17
  3
ACAD_PLOTSETTINGS
350
19
  3
ACAD_PLOTSTYLENAME
350
E
  3
ACAD_TABLESTYLE
350
170
  3
ACAD_VISUALSTYLE
350
2A
  0
SUN
  5
3F
330
29
100
AcDbSun
 90
        1
290
     0
 63
     7
421
 16777215
 40
1.0
291
     1
 91
  2455826
 92
 54000000
292
     0
 70
     2
 71
   256
280
     1
  0
DICTIONARY
  5
D
102
{ACAD_REACTORS
330
C
102
}
330
C
100
AcDbDictionary
281
     1
  0
DICTIONARY
  5
1A
102
{ACAD_REACTORS
330
C
102
}
330
C
100
AcDbDictionary
281
     1
  3
Layout1
350
1E
  3
Layout2
350
26
  3
Model
350
22
  0
DICTIONARY
  5
3B
102
{ACAD_REACTORS
330
C
102
}
330
C
100
AcDbDictionary
281
     1
  3
ByBlock
350
3D
  3
ByLayer
350
3C
  3
Global
350
3E
  0
DICTIONARY
  5
171
102
{ACAD_REACTORS
330
C
102
}
330
C
100
AcDbDictionary
281
     1
  0
DICTIONARY
  5
17
102
{ACAD_REACTORS
330
C
102
}
330
C
100
AcDbDictionary
281
     1
  3
Standard
350
18
  0
DICTIONARY
  5
19
102
{ACAD_REACTORS
330
C
102
}
330
C
100
AcDbDictionary
281
     1
  0
ACDBDICTIONARYWDFLT
  5
E
102
{ACAD_REACTORS
330
C
102
}
330
C
100
AcDbDictionary
281
     1
  3
Normal
350
F
100
AcDbDictionaryWithDefault
340
F
  0
DICTIONARY
  5
170
102
{ACAD_REACTORS
330
C
102
}
330
C
100
AcDbDictionary
281
     1
  0
DICTIONARY
  5
2A
102
{ACAD_REACTORS
330
C
102
}
330
C
100
AcDbDictionary
281
     1
  3
2dWireframe
350
2F
  3
3D Hidden
350
31
  3
3dWireframe
350
30
  3
Basic
350
32
  3
Brighten
350
36
  3
ColorChange
350
3A
  3
Conceptual
350
34
  3
Dim
350
35
  3
Facepattern
350
39
  3
Flat
350
2B
  3
FlatWithEdges
350
2C
  3
Gouraud
350
2D
  3
GouraudWithEdges
350
2E
  3
Linepattern
350
38
  3
Realistic
350
33
  3
Thicken
350
37
  0
LAYOUT
  5
1E
102
{ACAD_REACTORS
330
1A
102
}
330
1A
100
AcDbPlotSettings
  1

  2
none_device
  4

  6

 40
0.0
 41
0.0
 42
0.0
 43
0.0
 44
0.0
 45
0.0
 46
0.0
 47
0.0
 48
0.0
 49
0.0
140
0.0
141
0.0
142
1.0
143
1.0
 70
   688
 72
     0
 73
     0
 74
     5
  7

 75
    16
 76
     0
 77
     2
 78
   300
147
1.0
148
0.0
149
0.0
100
AcDbLayout
  1
Layout1
 70
     1
 71
     1
 10
0.0
 20
0.0
 11
12.0
 21
9.0
 12
0.0
 22
0.0
 32
0.0
 14
1.000000000000000E+20
 24
1.000000000000000E+20
 34
1.000000000000000E+20
 15
-1.000000000000000E+20
 25
-1.000000000000000E+20
 35
-1.000000000000000E+20
146
0.0
 13
0.0
 23
0.0
 33
0.0
 16
1.0
 26
0.0
 36
0.0
 17
0.0
 27
1.0
 37
0.0
 76
     0
330
1B
  0
LAYOUT
  5
26
102
{ACAD_REACTORS
330
1A
102
}
330
1A
100
AcDbPlotSettings
  1

  2
none_device
  4

  6

 40
0.0
 41
0.0
 42
0.0
 43
0.0
 44
0.0
 45
0.0
 46
0.0
 47
0.0
 48
0.0
 49
0.0
140
0.0
141
0.0
142
1.0
143
1.0
 70
   688
 72
     0
 73
     0
 74
     5
  7

 75
    16
 76
     0
 77
     2
 78
   300
147
1.0
148
0.0
149
0.0
100
AcDbLayout
  1
Layout2
 70
     1
 71
     2
 10
0.0
 20
0.0
 11
0.0
 21
0.0
 12
0.0
 22
0.0
 32
0.0
 14
0.0
 24
0.0
 34
0.0
 15
0.0
 25
0.0
 35
0.0
146
0.0
 13
0.0
 23
0.0
 33
0.0
 16
1.0
 26
0.0
 36
0.0
 17
0.0
 27
1.0
 37
0.0
 76
     0
330
23
  0
LAYOUT
  5
22
102
{ACAD_REACTORS
330
1A
102
}
330
1A
100
AcDbPlotSettings
  1

  2
none_device
  4

  6

 40
0.0
 41
0.0
 42
0.0
 43
0.0
 44
0.0
 45
0.0
 46
0.0
 47
0.0
 48
0.0
 49
0.0
140
0.0
141
0.0
142
1.0
143
1.0
 70
  1712
 72
     0
 73
     0
 74
     0
  7

 75
     0
 76
     0
 77
     2
 78
   300
147
1.0
148
0.0
149
0.0
100
AcDbLayout
  1
Model
 70
     1
 71
     0
 10
0.0
 20
0.0
 11
12.0
 21
9.0
 12
0.0
 22
0.0
 32
0.0
 14
1.000000000000000E+20
 24
1.000000000000000E+20
 34
1.000000000000000E+20
 15
-1.000000000000000E+20
 25
-1.000000000000000E+20
 35
-1.000000000000000E+20
146
0.0
 13
0.0
 23
0.0
 33
0.0
 16
1.0
 26
0.0
 36
0.0
 17
0.0
 27
1.0
 37
0.0
 76
     0
330
1F
331
29
  0
MATERIAL
  5
3D
102
{ACAD_REACTORS
330
3B
102
}
330
3B
100
AcDbMaterial
  1
ByBlock
 72
     1
 94
      127
  0
MATERIAL
  5
3C
102
{ACAD_REACTORS
330
3B
102
}
330
3B
100
AcDbMaterial
  1
ByLayer
 72
     1
 94
      127
  0
MATERIAL
  5
3E
102
{ACAD_REACTORS
330
3B
102
}
330
3B
100
AcDbMaterial
  1
Global
 72
     1
 94
      127
  0
MLINESTYLE
  5
18
102
{ACAD_REACTORS
330
17
102
}
330
17
100
AcDbMlineStyle
  2
Standard
 70
     0
  3

 62
   256
 51
90.0
 52
90.0
 71
     2
 49
0.5
 62
   256
  6
BYLAYER
 49
-0.5
 62
   256
  6
BYLAYER
  0
ACDBPLACEHOLDER
  5
F
102
{ACAD_REACTORS
330
E
102
}
330
E
  0
VISUALSTYLE
  5
2F
102
{ACAD_REACTORS
330
2A
102
}
330
2A
100
AcDbVisualStyle
  2
2dWireframe
 70
     4
177
     2
291
     0
 71
     0
176
     1
 72
     2
176
     1
 73
     0
176
     1
 90
        0
176
     1
 40
-0.6
176
     1
 41
-30.0
176
     1
 62
     5
 63
     7
421
 16777215
176
     1
 74
     1
176
     1
 91
        4
176
     1
 64
     7
176
     1
 65
   257
176
     1
 75
     1
176
     1
175
     1
176
     1
 42
1.0
176
     1
 92
        0
176
     1
 66
   257
176
     1
 43
1.0
176
     1
 76
     1
176
     1
 77
     6
176
     1
 78
     2
176
     1
 67
     7
176
     1
 79
     5
176
     1
170
     0
176
     1
171
     0
176
     1
290
     0
176
     1
 93
        1
176
     1
 44
0.0
176
     1
173
     0
176
     1
  0
VISUALSTYLE
  5
31
102
{ACAD_REACTORS
330
2A
102
}
330
2A
100
AcDbVisualStyle
  2
3D Hidden
 70
     6
177
     2
291
     0
 71
     1
176
     1
 72
     2
176
     1
 73
     2
176
     1
 90
        0
176
     1
 40
-0.6
176
     1
 41
-30.0
176
     1
 62
     5
 63
     7
421
 16777215
176
     1
 74
     2
176
     1
 91
        2
176
     1
 64
     7
176
     1
 65
   257
176
     1
 75
     2
176
     1
175
     1
176
     1
 42
40.0
176
     1
 92
        0
176
     1
 66
   257
176
     1
 43
1.0
176
     1
 76
     1
176
     1
 77
     6
176
     1
 78
     2
176
     1
 67
     7
176
     1
 79
     3
176
     1
170
     0
176
     1
171
     0
176
     1
290
     0
176
     1
 93
        1
176
     1
 44
0.0
176
     1
173
     0
176
     1
  0
VISUALSTYLE
  5
30
102
{ACAD_REACTORS
330
2A
102
}
330
2A
100
AcDbVisualStyle
  2
3dWireframe
 70
     5
177
     2
291
     0
 71
     0
176
     1
 72
     2
176
     1
 73
     0
176
     1
 90
        0
176
     1
 40
-0.6
176
     1
 41
-30.0
176
     1
 62
     5
 63
     7
421
 16777215
176
     1
 74
     1
176
     1
 91
        4
176
     1
 64
     7
176
     1
 65
   257
176
     1
 75
     1
176
     1
175
     1
176
     1
 42
1.0
176
     1
 92
        0
176
     1
 66
   257
176
     1
 43
1.0
176
     1
 76
     1
176
     1
 77
     6
176
     1
 78
     2
176
     1
 67
     7
176
     1
 79
     5
176
     1
170
     0
176
     1
171
     0
176
     1
290
     0
176
     1
 93
        1
176
     1
 44
0.0
176
     1
173
     0
176
     1
  0
VISUALSTYLE
  5
32
102
{ACAD_REACTORS
330
2A
102
}
330
2A
100
AcDbVisualStyle
  2
Basic
 70
     7
177
     2
291
     1
 71
     1
176
     1
 72
     0
176
     1
 73
     1
176
     1
 90
        0
176
     1
 40
-0.6
176
     1
 41
-30.0
176
     1
 62
     5
 63
     7
421
 16777215
176
     1
 74
     0
176
     1
 91
        4
176
     1
 64
     7
176
     1
 65
   257
176
     1
 75
     1
176
     1
175
     1
176
     1
 42
1.0
176
     1
 92
        8
176
     1
 66
     7
176
     1
 43
1.0
176
     1
 76
     1
176
     1
 77
     6
176
     1
 78
     2
176
     1
 67
     7
176
     1
 79
     5
176
     1
170
     0
176
     1
171
     0
176
     1
290
     0
176
     1
 93
        1
176
     1
 44
0.0
176
     1
173
     0
176
     1
  0
VISUALSTYLE
  5
36
102
{ACAD_REACTORS
330
2A
102
}
330
2A
100
AcDbVisualStyle
  2
Brighten
 70
    12
177
     2
291
     1
 71
     2
176
     1
 72
     2
176
     1
 73
     0
176
     1
 90
        0
176
     1
 40
-0.6
176
     1
 41
-30.0
176
     1
 62
     5
 63
     7
421
 16777215
176
     1
 74
     1
176
     1
 91
        4
176
     1
 64
     7
176
     1
 65
   257
176
     1
 75
     1
176
     1
175
     1
176
     1
 42
1.0
176
     1
 92
        8
176
     1
 66
     7
176
     1
 43
1.0
176
     1
 76
     1
176
     1
 77
     6
176
     1
 78
     2
176
     1
 67
     7
176
     1
 79
     5
176
     1
170
     0
176
     1
171
     0
176
     1
290
     0
176
     1
 93
        1
176
     1
 44
50.0
176
     1
173
     0
176
     1
  0
VISUALSTYLE
  5
3A
102
{ACAD_REACTORS
330
2A
102
}
330
2A
100
AcDbVisualStyle
  2
ColorChange
 70
    16
177
     2
291
     1
 71
     2
176
     1
 72
     2
176
     1
 73
     3
176
     1
 90
        0
176
     1
 40
-0.6
176
     1
 41
-30.0
176
     1
 62
     5
 63
     8
421
  8421504
176
     1
 74
     1
176
     1
 91
        4
176
     1
 64
     7
176
     1
 65
   257
176
     1
 75
     1
176
     1
175
     1
176
     1
 42
1.0
176
     1
 92
        8
176
     1
 66
     8
424
  8421504
176
     1
 43
1.0
176
     1
 76
     1
176
     1
 77
     6
176
     1
 78
     2
176
     1
 67
     7
176
     1
 79
     5
176
     1
170
     0
176
     1
171
     0
176
     1
290
     0
176
     1
 93
        1
176
     1
 44
0.0
176
     1
173
     0
176
     1
  0
VISUALSTYLE
  5
34
102
{ACAD_REACTORS
330
2A
102
}
330
2A
100
AcDbVisualStyle
  2
Conceptual
 70
     9
177
     2
291
     0
 71
     3
176
     1
 72
     2
176
     1
 73
     0
176
     1
 90
        0
176
     1
 40
-0.6
176
     1
 41
-30.0
176
     1
 62
     5
 63
     7
421
 16777215
176
     1
 74
     2
176
     1
 91
        2
176
     1
 64
     7
176
     1
 65
   257
176
     1
 75
     1
176
     1
175
     1
176
     1
 42
40.0
176
     1
 92
        8
176
     1
 66
     7
176
     1
 43
1.0
176
     1
 76
     1
176
     1
 77
     6
176
     1
 78
     2
176
     1
 67
     7
176
     1
 79
     3
176
     1
170
     0
176
     1
171
     0
176
     1
290
     0
176
     1
 93
        1
176
     1
 44
0.0
176
     1
173
     0
176
     1
  0
VISUALSTYLE
  5
35
102
{ACAD_REACTORS
330
2A
102
}
330
2A
100
AcDbVisualStyle
  2
Dim
 70
    11
177
     2
291
     1
 71
     2
176
     1
 72
     2
176
     1
 73
     0
176
     1
 90
        0
176
     1
 40
-0.6
176
     1
 41
-30.0
176
     1
 62
     5
 63
     7
421
 16777215
176
     1
 74
     1
176
     1
 91
        4
176
     1
 64
     7
176
     1
 65
   257
176
     1
 75
     1
176
     1
175
     1
176
     1
 42
1.0
176
     1
 92
        8
176
     1
 66
     7
176
     1
 43
1.0
176
     1
 76
     1
176
     1
 77
     6
176
     1
 78
     2
176
     1
 67
     7
176
     1
 79
     5
176
     1
170
     0
176
     1
171
     0
176
     1
290
     0
176
     1
 93
        1
176
     1
 44
-50.0
176
     1
173
     0
176
     1
  0
VISUALSTYLE
  5
39
102
{ACAD_REACTORS
330
2A
102
}
330
2A
100
AcDbVisualStyle
  2
Facepattern
 70
    15
177
     2
291
     1
 71
     2
176
     1
 72
     2
176
     1
 73
     0
176
     1
 90
        0
176
     1
 40
-0.6
176
     1
 41
-30.0
176
     1
 62
     5
 63
     7
421
 16777215
176
     1
 74
     1
176
     1
 91
        4
176
     1
 64
     7
176
     1
 65
   257
176
     1
 75
     1
176
     1
175
     1
176
     1
 42
1.0
176
     1
 92
        8
176
     1
 66
     7
176
     1
 43
1.0
176
     1
 76
     1
176
     1
 77
     6
176
     1
 78
     2
176
     1
 67
     7
176
     1
 79
     5
176
     1
170
     0
176
     1
171
     0
176
     1
290
     0
176
     1
 93
        1
176
     1
 44
0.0
176
     1
173
     0
176
     1
  0
VISUALSTYLE
  5
2B
102
{ACAD_REACTORS
330
2A
102
}
330
2A
100
AcDbVisualStyle
  2
Flat
 70
     0
177
     2
291
     1
 71
     2
176
     1
 72
     1
176
     1
 73
     1
176
     1
 90
        2
176
     1
 40
-0.6
176
     1
 41
30.0
176
     1
 62
     5
 63
     7
421
 16777215
176
     1
 74
     0
176
     1
 91
        4
176
     1
 64
     7
176
     1
 65
   257
176
     1
 75
     1
176
     1
175
     1
176
     1
 42
1.0
176
     1
 92
        8
176
     1
 66
     7
176
     1
 43
1.0
176
     1
 76
     1
176
     1
 77
     6
176
     1
 78
     2
176
     1
 67
     7
176
     1
 79
     5
176
     1
170
     0
176
     1
171
     0
176
     1
290
     0
176
     1
 93
       13
176
     1
 44
0.0
176
     1
173
     0
176
     1
  0
VISUALSTYLE
  5
2C
102
{ACAD_REACTORS
330
2A
102
}
330
2A
100
AcDbVisualStyle
  2
FlatWithEdges
 70
     1
177
     2
291
     1
 71
     2
176
     1
 72
     1
176
     1
 73
     1
176
     1
 90
        2
176
     1
 40
-0.6
176
     1
 41
30.0
176
     1
 62
     5
 63
     7
421
 16777215
176
     1
 74
     1
176
     1
 91
        4
176
     1
 64
     7
176
     1
 65
   257
176
     1
 75
     1
176
     1
175
     1
176
     1
 42
1.0
176
     1
 92
        0
176
     1
 66
   257
176
     1
 43
1.0
176
     1
 76
     1
176
     1
 77
     6
176
     1
 78
     2
176
     1
 67
     7
176
     1
 79
     5
176
     1
170
     0
176
     1
171
     0
176
     1
290
     0
176
     1
 93
       13
176
     1
 44
0.0
176
     1
173
     0
176
     1
  0
VISUALSTYLE
  5
2D
102
{ACAD_REACTORS
330
2A
102
}
330
2A
100
AcDbVisualStyle
  2
Gouraud
 70
     2
177
     2
291
     1
 71
     2
176
     1
 72
     2
176
     1
 73
     1
176
     1
 90
        2
176
     1
 40
-0.6
176
     1
 41
30.0
176
     1
 62
     5
 63
     7
421
 16777215
176
     1
 74
     0
176
     1
 91
        4
176
     1
 64
     7
176
     1
 65
   257
176
     1
 75
     1
176
     1
175
     1
176
     1
 42
1.0
176
     1
 92
        0
176
     1
 66
     7
176
     1
 43
1.0
176
     1
 76
     1
176
     1
 77
     6
176
     1
 78
     2
176
     1
 67
     7
176
     1
 79
     5
176
     1
170
     0
176
     1
171
     0
176
     1
290
     0
176
     1
 93
       13
176
     1
 44
0.0
176
     1
173
     0
176
     1
  0
VISUALSTYLE
  5
2E
102
{ACAD_REACTORS
330
2A
102
}
330
2A
100
AcDbVisualStyle
  2
GouraudWithEdges
 70
     3
177
     2
291
     1
 71
     2
176
     1
 72
     2
176
     1
 73
     1
176
     1
 90
        2
176
     1
 40
-0.6
176
     1
 41
30.0
176
     1
 62
     5
 63
     7
421
 16777215
176
     1
 74
     1
176
     1
 91
        4
176
     1
 64
     7
176
     1
 65
   257
176
     1
 75
     1
176
     1
175
     1
176
     1
 42
1.0
176
     1
 92
        0
176
     1
 66
   257
176
     1
 43
1.0
176
     1
 76
     1
176
     1
 77
     6
176
     1
 78
     2
176
     1
 67
     7
176
     1
 79
     5
176
     1
170
     0
176
     1
171
     0
176
     1
290
     0
176
     1
 93
       13
176
     1
 44
0.0
176
     1
173
     0
176
     1
  0
VISUALSTYLE
  5
38
102
{ACAD_REACTORS
330
2A
102
}
330
2A
100
AcDbVisualStyle
  2
Linepattern
 70
    14
177
     2
291
     1
 71
     2
176
     1
 72
     2
176
     1
 73
     0
176
     1
 90
        0
176
     1
 40
-0.6
176
     1
 41
-30.0
176
     1
 62
     5
 63
     7
421
 16777215
176
     1
 74
     1
176
     1
 91
        4
176
     1
 64
     7
176
     1
 65
   257
176
     1
 75
     7
176
     1
175
     7
176
     1
 42
1.0
176
     1
 92
        8
176
     1
 66
     7
176
     1
 43
1.0
176
     1
 76
     1
176
     1
 77
     6
176
     1
 78
     2
176
     1
 67
     7
176
     1
 79
     5
176
     1
170
     0
176
     1
171
     0
176
     1
290
     0
176
     1
 93
        1
176
     1
 44
0.0
176
     1
173
     0
176
     1
  0
VISUALSTYLE
  5
33
102
{ACAD_REACTORS
330
2A
102
}
330
2A
100
AcDbVisualStyle
  2
Realistic
 70
     8
177
     2
291
     0
 71
     2
176
     1
 72
     2
176
     1
 73
     0
176
     1
 90
        0
176
     1
 40
-0.6
176
     1
 41
-30.0
176
     1
 62
     5
 63
     7
421
 16777215
176
     1
 74
     1
176
     1
 91
        0
176
     1
 64
     7
176
     1
 65
   257
176
     1
 75
     1
176
     1
175
     1
176
     1
 42
1.0
176
     1
 92
        8
176
     1
 66
     8
424
  7895160
176
     1
 43
1.0
176
     1
 76
     1
176
     1
 77
     6
176
     1
 78
     2
176
     1
 67
     7
176
     1
 79
     5
176
     1
170
     0
176
     1
171
     0
176
     1
290
     0
176
     1
 93
       13
176
     1
 44
0.0
176
     1
173
     0
176
     1
  0
VISUALSTYLE
  5
37
102
{ACAD_REACTORS
330
2A
102
}
330
2A
100
AcDbVisualStyle
  2
Thicken
 70
    13
177
     2
291
     1
 71
     2
176
     1
 72
     2
176
     1
 73
     0
176
     1
 90
        0
176
     1
 40
-0.6
176
     1
 41
-30.0
176
     1
 62
     5
 63
     7
421
 16777215
176
     1
 74
     1
176
     1
 91
        4
176
     1
 64
     7
176
     1
 65
   257
176
     1
 75
     1
176
     1
175
     1
176
     1
 42
1.0
176
     1
 92
       12
176
     1
 66
     7
176
     1
 43
1.0
176
     1
 76
     1
176
     1
 77
     6
176
     1
 78
     2
176
     1
 67
     7
176
     1
 79
     5
176
     1
170
     0
176
     1
171
     0
176
     1
290
     0
176
     1
 93
        1
176
     1
 44
0.0
176
     1
173
     0
176
     1
  0
ENDSEC
  0
EOF
