  0
SECTION
  2
HEADER
  9
$ACADVER
  1
AC1024
  9
$ACADMAINTVER
 70
     6
  9
$DWGCODEPAGE
  3
UNDEFINED
  9
$INSBASE
 10
0.0
 20
0.0
 30
0.0
  9
$EXTMIN
 10
1.000000000000000E+20
 20
1.000000000000000E+20
 30
1.000000000000000E+20
  9
$EXTMAX
 10
-1.000000000000000E+20
 20
-1.000000000000000E+20
 30
-1.000000000000000E+20
  9
$LIMMIN
 10
0.0
 20
0.0
  9
$LIMMAX
 10
12.0
 20
9.0
  9
$ORTHOMODE
 70
     0
  9
$REGENMODE
 70
     1
  9
$FILLMODE
 70
     1
  9
$QTEXTMODE
 70
     0
  9
$MIRRTEXT
 70
     1
  9
$LTSCALE
 40
1.0
  9
$ATTMODE
 70
     1
  9
$TEXTSIZE
 40
0.2
  9
$TRACEWID
 40
0.05
  9
$TEXTSTYLE
  7
Standard
  9
$CLAYER
  8
0
  9
$CELTYPE
  6
ByLayer
  9
$CECOLOR
 62
   256
  9
$CELTSCALE
 40
1.0
  9
$DISPSILH
 70
     0
  9
$DIMSCALE
 40
1.0
  9
$DIMASZ
 40
0.18
  9
$DIMEXO
 40
0.0625
  9
$DIMDLI
 40
0.38
  9
$DIMRND
 40
0.0
  9
$DIMDLE
 40
0.0
  9
$DIMEXE
 40
0.18
  9
$DIMTP
 40
0.0
  9
$DIMTM
 40
0.0
  9
$DIMTXT
 40
0.18
  9
$DIMCEN
 40
0.09
  9
$DIMTSZ
 40
0.0
  9
$DIMTOL
 70
     0
  9
$DIMLIM
 70
     0
  9
$DIMTIH
 70
     1
  9
$DIMTOH
 70
     1
  9
$DIMSE1
 70
     0
  9
$DIMSE2
 70
     0
  9
$DIMTAD
 70
     0
  9
$DIMZIN
 70
     0
  9
$DIMBLK
  1

  9
$DIMASO
 70
     1
  9
$DIMSHO
 70
     1
  9
$DIMPOST
  1

  9
$DIMAPOST
  1

  9
$DIMALT
 70
     0
  9
$DIMALTD
 70
     2
  9
$DIMALTF
 40
25.4
  9
$DIMLFAC
 40
1.0
  9
$DIMTOFL
 70
     0
  9
$DIMTVP
 40
0.0
  9
$DIMTIX
 70
     0
  9
$DIMSOXD
 70
     0
  9
$DIMSAH
 70
     0
  9
$DIMBLK1
  1

  9
$DIMBLK2
  1

  9
$DIMSTYLE
  2
Standard
  9
$DIMCLRD
 70
     0
  9
$DIMCLRE
 70
     0
  9
$DIMCLRT
 70
     0
  9
$DIMTFAC
 40
1.0
  9
$DIMGAP
 40
0.09
  9
$DIMJUST
 70
     0
  9
$DIMSD1
 70
     0
  9
$DIMSD2
 70
     0
  9
$DIMTOLJ
 70
     1
  9
$DIMTZIN
 70
     0
  9
$DIMALTZ
 70
     0
  9
$DIMALTTZ
 70
     0
  9
$DIMUPT
 70
     0
  9
$DIMDEC
 70
     4
  9
$DIMTDEC
 70
     4
  9
$DIMALTU
 70
     2
  9
$DIMALTTD
 70
     2
  9
$DIMTXSTY
  7
Standard
  9
$DIMAUNIT
 70
     0
  9
$DIMADEC
 70
     0
  9
$DIMALTRND
 40
0.0
  9
$DIMAZIN
 70
     0
  9
$DIMDSEP
 70
    46
  9
$DIMATFIT
 70
     3
  9
$DIMFRAC
 70
     0
  9
$DIMLDRBLK
  1

  9
$DIMLUNIT
 70
     2
  9
$DIMLWD
 70
    -2
  9
$DIMLWE
 70
    -2
  9
$DIMTMOVE
 70
     0
  9
$DIMFXL
 40
1.0
  9
$DIMFXLON
 70
     0
  9
$DIMJOGANG
 40
0.7853981633974483
  9
$DIMTFILL
 70
     0
  9
$DIMTFILLCLR
 70
     0
  9
$DIMARCSYM
 70
     0
  9
$DIMLTYPE
  6

  9
$DIMLTEX1
  6

  9
$DIMLTEX2
  6

  9
$DIMTXTDIRECTION
 70
     0
  9
$LUNITS
 70
     2
  9
$LUPREC
 70
     4
  9
$SKETCHINC
 40
0.1
  9
$FILLETRAD
 40
0.5
  9
$AUNITS
 70
     0
  9
$AUPREC
 70
     0
  9
$MENU
  1
.
  9
$ELEVATION
 40
0.0
  9
$PELEVATION
 40
0.0
  9
$THICKNESS
 40
0.0
  9
$LIMCHECK
 70
     0
  9
$CHAMFERA
 40
0.5
  9
$CHAMFERB
 40
0.5
  9
$CHAMFERC
 40
1.0
  9
$CHAMFERD
 40
0.0
  9
$SKPOLY
 70
     0
  9
$TDCREATE
 40
2457917.626608796
  9
$TDUCREATE
 40
2457917.251608796
  9
$TDUPDATE
 40
2457917.626608796
  9
$TDUUPDATE
 40
2457917.251608796
  9
$TDINDWG
 40
0.0000000116
  9
$TDUSRTIMER
 40
0.0000000116
  9
$USRTIMER
 70
     1
  9
$ANGBASE
 50
0.0
  9
$ANGDIR
 70
     0
  9
$PDMODE
 70
     0
  9
$PDSIZE
 40
0.0
  9
$PLINEWID
 40
0.0
  9
$SPLFRAME
 70
     0
  9
$SPLINETYPE
 70
     6
  9
$SPLINESEGS
 70
     8
  9
$HANDSEED
  5
15B
  9
$SURFTAB1
 70
     6
  9
$SURFTAB2
 70
     6
  9
$SURFTYPE
 70
     6
  9
$SURFU
 70
     6
  9
$SURFV
 70
     6
  9
$UCSBASE
  2

  9
$UCSNAME
  2

  9
$UCSORG
 10
0.0
 20
0.0
 30
0.0
  9
$UCSXDIR
 10
1.0
 20
0.0
 30
0.0
  9
$UCSYDIR
 10
0.0
 20
1.0
 30
0.0
  9
$UCSORTHOREF
  2

  9
$UCSORTHOVIEW
 70
     0
  9
$UCSORGTOP
 10
0.0
 20
0.0
 30
0.0
  9
$UCSORGBOTTOM
 10
0.0
 20
0.0
 30
0.0
  9
$UCSORGLEFT
 10
0.0
 20
0.0
 30
0.0
  9
$UCSORGRIGHT
 10
0.0
 20
0.0
 30
0.0
  9
$UCSORGFRONT
 10
0.0
 20
0.0
 30
0.0
  9
$UCSORGBACK
 10
0.0
 20
0.0
 30
0.0
  9
$PUCSBASE
  2

  9
$PUCSNAME
  2

  9
$PUCSORG
 10
0.0
 20
0.0
 30
0.0
  9
$PUCSXDIR
 10
1.0
 20
0.0
 30
0.0
  9
$PUCSYDIR
 10
0.0
 20
1.0
 30
0.0
  9
$PUCSORTHOREF
  2

  9
$PUCSORTHOVIEW
 70
     0
  9
$PUCSORGTOP
 10
0.0
 20
0.0
 30
0.0
  9
$PUCSORGBOTTOM
 10
0.0
 20
0.0
 30
0.0
  9
$PUCSORGLEFT
 10
0.0
 20
0.0
 30
0.0
  9
$PUCSORGRIGHT
 10
0.0
 20
0.0
 30
0.0
  9
$PUCSORGFRONT
 10
0.0
 20
0.0
 30
0.0
  9
$PUCSORGBACK
 10
0.0
 20
0.0
 30
0.0
  9
$USERI1
 70
     0
  9
$USERI2
 70
     0
  9
$USERI3
 70
     0
  9
$USERI4
 70
     0
  9
$USERI5
 70
     0
  9
$USERR1
 40
0.0
  9
$USERR2
 40
0.0
  9
$USERR3
 40
0.0
  9
$USERR4
 40
0.0
  9
$USERR5
 40
0.0
  9
$WORLDVIEW
 70
     1
  9
$SHADEDGE
 70
     3
  9
$SHADEDIF
 70
    70
  9
$TILEMODE
 70
     1
  9
$MAXACTVP
 70
    64
  9
$PINSBASE
 10
0.0
 20
0.0
 30
0.0
  9
$PLIMCHECK
 70
     0
  9
$PEXTMIN
 10
1.000000000000000E+20
 20
1.000000000000000E+20
 30
1.000000000000000E+20
  9
$PEXTMAX
 10
-1.000000000000000E+20
 20
-1.000000000000000E+20
 30
-1.000000000000000E+20
  9
$PLIMMIN
 10
0.0
 20
0.0
  9
$PLIMMAX
 10
12.0
 20
9.0
  9
$UNITMODE
 70
     0
  9
$VISRETAIN
 70
     1
  9
$PLINEGEN
 70
     0
  9
$PSLTSCALE
 70
     1
  9
$TREEDEPTH
 70
  3020
  9
$CMLSTYLE
  2
Standard
  9
$CMLJUST
 70
     0
  9
$CMLSCALE
 40
1.0
  9
$PROXYGRAPHICS
 70
     1
  9
$MEASUREMENT
 70
     0
  9
$CELWEIGHT
370
    -1
  9
$ENDCAPS
280
     0
  9
$JOINSTYLE
280
     0
  9
$LWDISPLAY
290
     1
  9
$INSUNITS
 70
     1
  9
$HYPERLINKBASE
  1

  9
$STYLESHEET
  1

  9
$XEDIT
290
     1
  9
$CEPSNTYPE
380
     0
  9
$PSTYLEMODE
290
     1
  9
$FINGERPRINTGUID
  2
{3A150BAB-2757-638A-3942-E7C8241CDD8F}
  9
$VERSIONGUID
  2
{FAEB1C32-E019-11D5-929B-00C0DF256EC4}
  9
$EXTNAMES
290
     1
  9
$PSVPSCALE
 40
0.0
  9
$OLESTARTUP
290
     0
  9
$SORTENTS
280
   127
  9
$INDEXCTL
280
     0
  9
$HIDETEXT
280
     1
  9
$XCLIPFRAME
280
     2
  9
$HALOGAP
280
     0
  9
$OBSCOLOR
 70
   257
  9
$OBSLTYPE
280
     0
  9
$INTERSECTIONDISPLAY
280
     0
  9
$INTERSECTIONCOLOR
 70
   257
  9
$DIMASSOC
280
     2
  9
$PROJECTNAME
  1

  9
$CAMERADISPLAY
290
     0
  9
$LENSLENGTH
 40
50.0
  9
$CAMERAHEIGHT
 40
0.0
  9
$STEPSPERSEC
 40
2.0
  9
$STEPSIZE
 40
6.0
  9
$3DDWFPREC
 40
2.0
  9
$PSOLWIDTH
 40
0.25
  9
$PSOLHEIGHT
 40
4.0
  9
$LOFTANG1
 40
1.570796326794897
  9
$LOFTANG2
 40
1.570796326794897
  9
$LOFTMAG1
 40
0.0
  9
$LOFTMAG2
 40
0.0
  9
$LOFTPARAM
 70
     7
  9
$LOFTNORMALS
280
     1
  9
$LATITUDE
 40
37.795
  9
$LONGITUDE
 40
-122.394
  9
$NORTHDIRECTION
 40
0.0
  9
$TIMEZONE
 70
 -8000
  9
$LIGHTGLYPHDISPLAY
280
     1
  9
$TILEMODELIGHTSYNCH
280
     1
  9
$CMATERIAL
347
3C
  9
$SOLIDHIST
280
     1
  9
$SHOWHIST
280
     1
  9
$DWFFRAME
280
     2
  9
$DGNFRAME
280
     2
  9
$REALWORLDSCALE
290
     1
  9
$INTERFERECOLOR
 62
   256
  9
$CSHADOW
280
     0
  9
$SHADOWPLANELOCATION
 40
0.0
  0
ENDSEC
  0
SECTION
  2
CLASSES
  0
CLASS
  1
ACDBDICTIONARYWDFLT
  2
AcDbDictionaryWithDefault
  3
ObjectDBX Classes
 90
        0
 91
        4
280
     0
281
     0
  0
CLASS
  1
VISUALSTYLE
  2
AcDbVisualStyle
  3
ObjectDBX Classes
 90
     4095
 91
        4
280
     0
281
     0
  0
CLASS
  1
MATERIAL
  2
AcDbMaterial
  3
ObjectDBX Classes
 90
     1153
 91
        4
280
     0
281
     0
  0
CLASS
  1
SUN
  2
AcDbSun
  3
SCENEOE
 90
     1024
 91
        4
280
     0
281
     0
  0
ENDSEC
  0
SECTION
  2
TABLES
  0
TABLE
  2
VPORT
  5
8
330
0
100
AcDbSymbolTable
 70
     1
  0
VPORT
  5
29
330
8
100
AcDbSymbolTableRecord
100
AcDbViewportTableRecord
  2
*Active
 70
     0
 10
0.0
 20
0.0
 11
1.0
 21
1.0
 12
0.0
 22
0.0
 13
0.0
 23
0.0
 14
0.5
 24
0.5
 15
0.5
 25
0.5
 16
0.0
 26
0.0
 36
1.0
 17
91.00082462281999
 27
-128.4993055234307
 37
0.0
 40
256.9986110468615
 41
0.7081814508812795
 42
50.0
 43
0.0
 44
0.0
 50
0.0
 51
0.0
 71
     0
 72
   100
 73
     1
 74
     3
 75
     0
 76
     0
 77
     0
 78
     0
281
     0
 65
     1
110
0.0
120
0.0
130
0.0
111
1.0
121
0.0
131
0.0
112
0.0
122
1.0
132
0.0
 79
     0
146
0.0
 60
     3
 61
     5
292
     1
282
     1
141
0.0
142
0.0
 63
   250
361
3F
  0
ENDTAB
  0
TABLE
  2
LTYPE
  5
5
330
0
100
AcDbSymbolTable
 70
     3
  0
LTYPE
  5
14
330
5
100
AcDbSymbolTableRecord
100
AcDbLinetypeTableRecord
  2
ByBlock
 70
     0
  3

 72
    65
 73
     0
 40
0.0
  0
LTYPE
  5
15
330
5
100
AcDbSymbolTableRecord
100
AcDbLinetypeTableRecord
  2
ByLayer
 70
     0
  3

 72
    65
 73
     0
 40
0.0
  0
LTYPE
  5
16
330
5
100
AcDbSymbolTableRecord
100
AcDbLinetypeTableRecord
  2
Continuous
 70
     0
  3
Solid line
 72
    65
 73
     0
 40
0.0
  0
LTYPE
  5
42
330
5
100
AcDbSymbolTableRecord
100
AcDbLinetypeTableRecord
  2
AI-Linetype-1
 70
     0
  3
Adobe Illustrator Linetype No. 1
 72
    65
 73
     2
 40
1.411111110758333
 49
0.7055555553791667
 74
     0
 49
-0.7055555553791667
 74
     0
  0
LTYPE
  5
44
330
5
100
AcDbSymbolTableRecord
100
AcDbLinetypeTableRecord
  2
AI-Linetype-2
 70
     0
  3
Adobe Illustrator Linetype No. 2
 72
    65
 73
     2
 40
1.411111110758333
 49
0.7055555553791667
 74
     0
 49
-0.7055555553791667
 74
     0
  0
ENDTAB
  0
TABLE
  2
LAYER
  5
2
330
0
100
AcDbSymbolTable
 70
     2
  0
LAYER
  5
10
330
2
100
AcDbSymbolTableRecord
100
AcDbLayerTableRecord
  2
0
 70
     0
 62
     7
  6
Continuous
370
    -3
390
F
347
3E
  0
LAYER
  5
40
330
2
100
AcDbSymbolTableRecord
100
AcDbLayerTableRecord
  2
_U+30EC_U+30A4_U+30E4_U+30FC 1
 70
     0
 62
     7
  6
Continuous
370
    -3
390
F
347
3E
  0
ENDTAB
  0
TABLE
  2
STYLE
  5
3
330
0
100
AcDbSymbolTable
 70
     1
  0
STYLE
  5
11
330
3
100
AcDbSymbolTableRecord
100
AcDbTextStyleTableRecord
  2
Standard
 70
     0
 40
0.0
 41
1.0
 50
0.0
 71
     0
 42
0.2
  3
txt
  4

  0
ENDTAB
  0
TABLE
  2
VIEW
  5
6
330
0
100
AcDbSymbolTable
 70
     0
  0
ENDTAB
  0
TABLE
  2
UCS
  5
7
330
0
100
AcDbSymbolTable
 70
     0
  0
ENDTAB
  0
TABLE
  2
APPID
  5
9
330
0
100
AcDbSymbolTable
 70
     1
  0
APPID
  5
12
330
9
100
AcDbSymbolTableRecord
100
AcDbRegAppTableRecord
  2
ACAD
 70
     0
  0
ENDTAB
  0
TABLE
  2
DIMSTYLE
  5
A
330
0
100
AcDbSymbolTable
 70
     1
100
AcDbDimStyleTable
  0
DIMSTYLE
105
27
330
A
100
AcDbSymbolTableRecord
100
AcDbDimStyleTableRecord
  2
Standard
 70
     0
178
     0
340
11
  0
ENDTAB
  0
TABLE
  2
BLOCK_RECORD
  5
1
330
0
100
AcDbSymbolTable
 70
    13
  0
BLOCK_RECORD
  5
1F
330
1
100
AcDbSymbolTableRecord
100
AcDbBlockTableRecord
  2
*Model_Space
340
22
 70
     0
280
     1
281
     0
  0
BLOCK_RECORD
  5
1B
330
1
100
AcDbSymbolTableRecord
100
AcDbBlockTableRecord
  2
*Paper_Space
340
1E
 70
     0
280
     1
281
     0
  0
BLOCK_RECORD
  5
23
330
1
100
AcDbSymbolTableRecord
100
AcDbBlockTableRecord
  2
*Paper_Space0
340
26
 70
     0
280
     1
281
     0
  0
BLOCK_RECORD
  5
D5
330
1
100
AcDbSymbolTableRecord
100
AcDbBlockTableRecord
  2
block 2
340
0
102
{BLKREFS
331
D6
102
}
 70
     0
280
     1
281
     0
  0
BLOCK_RECORD
  5
DE
330
1
100
AcDbSymbolTableRecord
100
AcDbBlockTableRecord
  2
block 3
340
0
102
{BLKREFS
331
DF
102
}
 70
     0
280
     1
281
     0
  0
BLOCK_RECORD
  5
E7
330
1
100
AcDbSymbolTableRecord
100
AcDbBlockTableRecord
  2
block 4
340
0
102
{BLKREFS
331
E8
102
}
 70
     0
280
     1
281
     0
  0
BLOCK_RECORD
  5
F0
330
1
100
AcDbSymbolTableRecord
100
AcDbBlockTableRecord
  2
block 5
340
0
102
{BLKREFS
331
F1
102
}
 70
     0
280
     1
281
     0
  0
BLOCK_RECORD
  5
F9
330
1
100
AcDbSymbolTableRecord
100
AcDbBlockTableRecord
  2
block 6
340
0
102
{BLKREFS
331
FA
102
}
 70
     0
280
     1
281
     0
  0
BLOCK_RECORD
  5
104
330
1
100
AcDbSymbolTableRecord
100
AcDbBlockTableRecord
  2
block 7
340
0
102
{BLKREFS
331
105
102
}
 70
     0
280
     1
281
     0
  0
BLOCK_RECORD
  5
10F
330
1
100
AcDbSymbolTableRecord
100
AcDbBlockTableRecord
  2
block 8
340
0
102
{BLKREFS
331
110
102
}
 70
     0
280
     1
281
     0
  0
BLOCK_RECORD
  5
118
330
1
100
AcDbSymbolTableRecord
100
AcDbBlockTableRecord
  2
block 9
340
0
102
{BLKREFS
331
119
102
}
 70
     0
280
     1
281
     0
  0
BLOCK_RECORD
  5
121
330
1
100
AcDbSymbolTableRecord
100
AcDbBlockTableRecord
  2
block 10
340
0
102
{BLKREFS
331
122
102
}
 70
     0
280
     1
281
     0
  0
BLOCK_RECORD
  5
12A
330
1
100
AcDbSymbolTableRecord
100
AcDbBlockTableRecord
  2
block 11
340
0
102
{BLKREFS
331
12B
102
}
 70
     0
280
     1
281
     0
  0
BLOCK_RECORD
  5
133
330
1
100
AcDbSymbolTableRecord
100
AcDbBlockTableRecord
  2
block 12
340
0
102
{BLKREFS
331
134
102
}
 70
     0
280
     1
281
     0
  0
BLOCK_RECORD
  5
144
330
1
100
AcDbSymbolTableRecord
100
AcDbBlockTableRecord
  2
block 13
340
0
102
{BLKREFS
331
145
102
}
 70
     0
280
     1
281
     0
  0
ENDTAB
  0
ENDSEC
  0
SECTION
  2
BLOCKS
  0
BLOCK
  5
20
330
1F
100
AcDbEntity
  8
0
100
AcDbBlockBegin
  2
*Model_Space
 70
     0
 10
0.0
 20
0.0
 30
0.0
  3
*Model_Space
  1

  0
ENDBLK
  5
21
330
1F
100
AcDbEntity
  8
0
100
AcDbBlockEnd
  0
BLOCK
  5
1C
330
1B
100
AcDbEntity
 67
     1
  8
0
100
AcDbBlockBegin
  2
*Paper_Space
 70
     0
 10
0.0
 20
0.0
 30
0.0
  3
*Paper_Space
  1

  0
ENDBLK
  5
1D
330
1B
100
AcDbEntity
 67
     1
  8
0
100
AcDbBlockEnd
  0
BLOCK
  5
24
330
23
100
AcDbEntity
  8
0
100
AcDbBlockBegin
  2
*Paper_Space0
 70
     0
 10
0.0
 20
0.0
 30
0.0
  3
*Paper_Space0
  1

  0
ENDBLK
  5
25
330
23
100
AcDbEntity
  8
0
100
AcDbBlockEnd
  0
BLOCK
  5
D7
330
D5
100
AcDbEntity
  8
0
100
AcDbBlockBegin
  2
block 2
 70
     0
 10
0.0
 20
0.0
 30
0.0
  3
block 2
  1

  0
SPLINE
  5
D9
330
D5
100
AcDbEntity
  8
_U+30EC_U+30A4_U+30E4_U+30FC 1
370
     0
100
AcDbSpline
210
0.0
220
0.0
230
1.0
 70
    11
 71
     3
 72
    44
 73
    40
 74
     0
 42
0.0000000001
 43
0.0000000001
 12
1.0
 22
0.0
 32
0.0
 13
1.0
 23
0.0
 33
0.0
 40
0.0
 40
0.0
 40
0.0
 40
0.0
 40
1.0
 40
1.0
 40
1.0
 40
2.0
 40
2.0
 40
2.0
 40
3.0
 40
3.0
 40
3.0
 40
4.0
 40
4.0
 40
4.0
 40
5.0
 40
5.0
 40
5.0
 40
6.0
 40
6.0
 40
6.0
 40
7.0
 40
7.0
 40
7.0
 40
8.0
 40
8.0
 40
8.0
 40
9.0
 40
9.0
 40
9.0
 40
10.0
 40
10.0
 40
10.0
 40
11.0
 40
11.0
 40
11.0
 40
12.0
 40
12.0
 40
12.0
 40
13.0
 40
13.0
 40
13.0
 40
13.0
 10
114.9221842160611
 20
-131.7042778533587
 30
0.0
 10
114.7044541813933
 20
-131.8630967552287
 30
0.0
 10
114.6114366032916
 20
-131.9371663081616
 30
0.0
 10
114.562516247401
 20
-132.0808267898965
 30
0.0
 10
114.562516247401
 20
-132.0808267898965
 30
0.0
 10
115.3411078270675
 20
-132.0808267898965
 30
0.0
 10
115.3411078270675
 20
-132.0808267898965
 30
0.0
 10
115.3411078270675
 20
-132.0808267898965
 30
0.0
 10
115.3411078270675
 20
-132.2861544808173
 30
0.0
 10
115.3411078270675
 20
-132.2861544808173
 30
0.0
 10
115.3411078270675
 20
-132.2861544808173
 30
0.0
 10
114.313091334269
 20
-132.2861544808173
 30
0.0
 10
114.313091334269
 20
-132.2861544808173
 30
0.0
 10
114.3447862127333
 20
-131.9285535694484
 30
0.0
 10
114.410243026953
 20
-131.8503499019332
 30
0.0
 10
114.7954047022039
 20
-131.5520046329106
 30
0.0
 10
115.051375296758
 20
-131.3532226234117
 30
0.0
 10
115.1168321109777
 20
-131.2853542423523
 30
0.0
 10
115.1168321109777
 20
-131.1478949324908
 30
0.0
 10
115.1168321109777
 20
-131.0293836477982
 30
0.0
 10
115.044829615336
 20
-130.8984700193587
 30
0.0
 10
114.8481146631283
 20
-130.8984700193587
 30
0.0
 10
114.5880099539919
 20
-130.8984700193587
 30
0.0
 10
114.5797417248273
 20
-131.1289469073219
 30
0.0
 10
114.5752631006965
 20
-131.2453911347234
 30
0.0
 10
114.5752631006965
 20
-131.2453911347234
 30
0.0
 10
114.3509873846067
 20
-131.2453911347234
 30
0.0
 10
114.3509873846067
 20
-131.2453911347234
 30
0.0
 10
114.3596001233198
 20
-131.1182671113177
 30
0.0
 10
114.3702799193241
 20
-131.006301508047
 30
0.0
 10
114.4505506441304
 20
-130.8877902233544
 30
0.0
 10
114.5604491901099
 20
-130.7269042641933
 30
0.0
 10
114.7468288558619
 20
-130.6931423284378
 30
0.0
 10
114.8629285737148
 20
-130.6931423284378
 30
0.0
 10
115.1402587602774
 20
-130.6931423284378
 30
0.0
 10
115.3476535084895
 20
-130.8771104273502
 30
0.0
 10
115.3476535084895
 20
-131.149961989782
 30
0.0
 10
115.3476535084895
 20
-131.3787163300026
 30
0.0
 10
115.231209281088
 20
-131.4779350799778
 30
0.0
 10
114.9221842160611
 20
-131.7042778533587
 30
0.0
  0
HATCH
  5
DA
330
D5
100
AcDbEntity
  8
_U+30EC_U+30A4_U+30E4_U+30FC 1
 62
   179
420
  2234388
100
AcDbHatch
 10
0.0
 20
0.0
 30
0.0
210
0.0
220
0.0
230
1.0
  2
SOLID
 70
     1
 71
     0
 91
        1
 92
        1
 93
        1
 72
     4
 94
        3
 73
     0
 74
     1
 95
       44
 96
       40
 40
0.0
 40
0.0
 40
0.0
 40
0.0
 40
1.0
 40
1.0
 40
1.0
 40
2.0
 40
2.0
 40
2.0
 40
3.0
 40
3.0
 40
3.0
 40
4.0
 40
4.0
 40
4.0
 40
5.0
 40
5.0
 40
5.0
 40
6.0
 40
6.0
 40
6.0
 40
7.0
 40
7.0
 40
7.0
 40
8.0
 40
8.0
 40
8.0
 40
9.0
 40
9.0
 40
9.0
 40
10.0
 40
10.0
 40
10.0
 40
11.0
 40
11.0
 40
11.0
 40
12.0
 40
12.0
 40
12.0
 40
13.0
 40
13.0
 40
13.0
 40
13.0
 10
114.9221842160611
 20
-131.7042778533587
 10
114.7044541813933
 20
-131.8630967552287
 10
114.6114366032916
 20
-131.9371663081616
 10
114.562516247401
 20
-132.0808267898965
 10
114.562516247401
 20
-132.0808267898965
 10
115.3411078270675
 20
-132.0808267898965
 10
115.3411078270675
 20
-132.0808267898965
 10
115.3411078270675
 20
-132.0808267898965
 10
115.3411078270675
 20
-132.2861544808173
 10
115.3411078270675
 20
-132.2861544808173
 10
115.3411078270675
 20
-132.2861544808173
 10
114.313091334269
 20
-132.2861544808173
 10
114.313091334269
 20
-132.2861544808173
 10
114.3447862127333
 20
-131.9285535694484
 10
114.410243026953
 20
-131.8503499019332
 10
114.7954047022039
 20
-131.5520046329106
 10
115.051375296758
 20
-131.3532226234117
 10
115.1168321109777
 20
-131.2853542423523
 10
115.1168321109777
 20
-131.1478949324908
 10
115.1168321109777
 20
-131.0293836477982
 10
115.044829615336
 20
-130.8984700193587
 10
114.8481146631283
 20
-130.8984700193587
 10
114.5880099539919
 20
-130.8984700193587
 10
114.5797417248273
 20
-131.1289469073219
 10
114.5752631006965
 20
-131.2453911347234
 10
114.5752631006965
 20
-131.2453911347234
 10
114.3509873846067
 20
-131.2453911347234
 10
114.3509873846067
 20
-131.2453911347234
 10
114.3596001233198
 20
-131.1182671113177
 10
114.3702799193241
 20
-131.006301508047
 10
114.4505506441304
 20
-130.8877902233544
 10
114.5604491901099
 20
-130.7269042641933
 10
114.7468288558619
 20
-130.6931423284378
 10
114.8629285737148
 20
-130.6931423284378
 10
115.1402587602774
 20
-130.6931423284378
 10
115.3476535084895
 20
-130.8771104273502
 10
115.3476535084895
 20
-131.149961989782
 10
115.3476535084895
 20
-131.3787163300026
 10
115.231209281088
 20
-131.4779350799778
 10
114.9221842160611
 20
-131.7042778533587
 97
        0
 97
        0
 75
     2
 76
     1
 98
        0
  0
SPLINE
  5
DB
330
D5
100
AcDbEntity
  8
_U+30EC_U+30A4_U+30E4_U+30FC 1
370
     0
100
AcDbSpline
210
0.0
220
0.0
230
1.0
 70
    11
 71
     3
 72
    32
 73
    28
 74
     0
 42
0.0000000001
 43
0.0000000001
 12
1.0
 22
0.0
 32
0.0
 13
1.0
 23
0.0
 33
0.0
 40
0.0
 40
0.0
 40
0.0
 40
0.0
 40
1.0
 40
1.0
 40
1.0
 40
2.0
 40
2.0
 40
2.0
 40
3.0
 40
3.0
 40
3.0
 40
4.0
 40
4.0
 40
4.0
 40
5.0
 40
5.0
 40
5.0
 40
6.0
 40
6.0
 40
6.0
 40
7.0
 40
7.0
 40
7.0
 40
8.0
 40
8.0
 40
8.0
 40
9.0
 40
9.0
 40
9.0
 40
9.0
 10
116.010145370303
 20
-132.3367973844505
 30
0.0
 10
115.4940700666126
 20
-132.3367973844505
 30
0.0
 10
115.485801837448
 20
-131.7828260304223
 30
0.0
 10
115.485801837448
 20
-131.5688856007883
 30
0.0
 10
115.485801837448
 20
-131.3384087128251
 30
0.0
 10
115.5047498626169
 20
-130.6910752711467
 30
0.0
 10
116.0483859301893
 20
-130.6910752711467
 30
0.0
 10
116.2216742330974
 20
-130.6910752711467
 30
0.0
 10
116.4673095411957
 20
-130.7610107094972
 30
0.0
 10
116.5052055915334
 20
-131.0931179142753
 30
0.0
 10
116.5052055915334
 20
-131.0931179142753
 30
0.0
 10
116.2916096714479
 20
-131.0931179142753
 30
0.0
 10
116.2916096714479
 20
-131.0931179142753
 30
0.0
 10
116.2809298754437
 20
-131.0359293292202
 30
0.0
 10
116.2492349969794
 20
-130.8877902233544
 30
0.0
 10
116.0463188728981
 20
-130.8877902233544
 30
0.0
 10
115.754174775749
 20
-130.8877902233544
 30
0.0
 10
115.7142116681201
 20
-131.2157633135502
 30
0.0
 10
115.7014648148246
 20
-131.4207464949226
 30
0.0
 10
115.7944823929264
 20
-131.3425428274074
 30
0.0
 10
115.8623507739858
 20
-131.2832871850611
 30
0.0
 10
116.044251815607
 20
-131.2832871850611
 30
0.0
 10
116.224085799937
 20
-131.2832871850611
 30
0.0
 10
116.526565183542
 20
-131.391463183298
 30
0.0
 10
116.526565183542
 20
-131.7976399410089
 30
0.0
 10
116.526565183542
 20
-132.1170002924916
 30
0.0
 10
116.3277831740431
 20
-132.3367973844505
 30
0.0
 10
116.010145370303
 20
-132.3367973844505
 30
0.0
  0
SPLINE
  5
DC
330
D5
100
AcDbEntity
  8
_U+30EC_U+30A4_U+30E4_U+30FC 1
370
     0
100
AcDbSpline
210
0.0
220
0.0
230
1.0
 70
    11
 71
     3
 72
    17
 73
    13
 74
     0
 42
0.0000000001
 43
0.0000000001
 12
1.0
 22
0.0
 32
0.0
 13
1.0
 23
0.0
 33
0.0
 40
0.0
 40
0.0
 40
0.0
 40
0.0
 40
1.0
 40
1.0
 40
1.0
 40
2.0
 40
2.0
 40
2.0
 40
3.0
 40
3.0
 40
3.0
 40
4.0
 40
4.0
 40
4.0
 40
4.0
 10
116.0273708477293
 20
-131.4779350799778
 30
0.0
 10
115.7648545717532
 20
-131.4779350799778
 30
0.0
 10
115.7269585214155
 20
-131.6894639427721
 30
0.0
 10
115.7269585214155
 20
-131.8059081701735
 30
0.0
 10
115.7269585214155
 20
-131.9816080399213
 30
0.0
 10
115.8220431568084
 20
-132.1445610563736
 30
0.0
 10
116.0060112557207
 20
-132.1445610563736
 30
0.0
 10
116.1265895977045
 20
-132.1445610563736
 30
0.0
 10
116.3022894674522
 20
-132.0853054140273
 30
0.0
 10
116.3022894674522
 20
-131.7997069983001
 30
0.0
 10
116.3022894674522
 20
-131.5754312822103
 30
0.0
 10
116.1627631002996
 20
-131.4779350799778
 30
0.0
 10
116.0273708477293
 20
-131.4779350799778
 30
0.0
  0
HATCH
  5
DD
330
D5
100
AcDbEntity
  8
_U+30EC_U+30A4_U+30E4_U+30FC 1
 62
   179
420
  2234388
100
AcDbHatch
 10
0.0
 20
0.0
 30
0.0
210
0.0
220
0.0
230
1.0
  2
SOLID
 70
     1
 71
     0
 91
        2
 92
        1
 93
        1
 72
     4
 94
        3
 73
     0
 74
     1
 95
       32
 96
       28
 40
0.0
 40
0.0
 40
0.0
 40
0.0
 40
1.0
 40
1.0
 40
1.0
 40
2.0
 40
2.0
 40
2.0
 40
3.0
 40
3.0
 40
3.0
 40
4.0
 40
4.0
 40
4.0
 40
5.0
 40
5.0
 40
5.0
 40
6.0
 40
6.0
 40
6.0
 40
7.0
 40
7.0
 40
7.0
 40
8.0
 40
8.0
 40
8.0
 40
9.0
 40
9.0
 40
9.0
 40
9.0
 10
116.010145370303
 20
-132.3367973844505
 10
115.4940700666126
 20
-132.3367973844505
 10
115.485801837448
 20
-131.7828260304223
 10
115.485801837448
 20
-131.5688856007883
 10
115.485801837448
 20
-131.3384087128251
 10
115.5047498626169
 20
-130.6910752711467
 10
116.0483859301893
 20
-130.6910752711467
 10
116.2216742330974
 20
-130.6910752711467
 10
116.4673095411957
 20
-130.7610107094972
 10
116.5052055915334
 20
-131.0931179142753
 10
116.5052055915334
 20
-131.0931179142753
 10
116.2916096714479
 20
-131.0931179142753
 10
116.2916096714479
 20
-131.0931179142753
 10
116.2809298754437
 20
-131.0359293292202
 10
116.2492349969794
 20
-130.8877902233544
 10
116.0463188728981
 20
-130.8877902233544
 10
115.754174775749
 20
-130.8877902233544
 10
115.7142116681201
 20
-131.2157633135502
 10
115.7014648148246
 20
-131.4207464949226
 10
115.7944823929264
 20
-131.3425428274074
 10
115.8623507739858
 20
-131.2832871850611
 10
116.044251815607
 20
-131.2832871850611
 10
116.224085799937
 20
-131.2832871850611
 10
116.526565183542
 20
-131.391463183298
 10
116.526565183542
 20
-131.7976399410089
 10
116.526565183542
 20
-132.1170002924916
 10
116.3277831740431
 20
-132.3367973844505
 10
116.010145370303
 20
-132.3367973844505
 97
        0
 97
        0
 92
        1
 93
        1
 72
     4
 94
        3
 73
     0
 74
     1
 95
       17
 96
       13
 40
0.0
 40
0.0
 40
0.0
 40
0.0
 40
1.0
 40
1.0
 40
1.0
 40
2.0
 40
2.0
 40
2.0
 40
3.0
 40
3.0
 40
3.0
 40
4.0
 40
4.0
 40
4.0
 40
4.0
 10
116.0273708477293
 20
-131.4779350799778
 10
115.7648545717532
 20
-131.4779350799778
 10
115.7269585214155
 20
-131.6894639427721
 10
115.7269585214155
 20
-131.8059081701735
 10
115.7269585214155
 20
-131.9816080399213
 10
115.8220431568084
 20
-132.1445610563736
 10
116.0060112557207
 20
-132.1445610563736
 10
116.1265895977045
 20
-132.1445610563736
 10
116.3022894674522
 20
-132.0853054140273
 10
116.3022894674522
 20
-131.7997069983001
 10
116.3022894674522
 20
-131.5754312822103
 10
116.1627631002996
 20
-131.4779350799778
 10
116.0273708477293
 20
-131.4779350799778
 97
        0
 97
        0
 75
     2
 76
     1
 98
        0
  0
ENDBLK
  5
D8
330
D5
100
AcDbEntity
  8
0
100
AcDbBlockEnd
  0
BLOCK
  5
E0
330
DE
100
AcDbEntity
  8
0
100
AcDbBlockBegin
  2
block 3
 70
     0
 10
0.0
 20
0.0
 30
0.0
  3
block 3
  1

  0
SPLINE
  5
E2
330
DE
100
AcDbEntity
  8
_U+30EC_U+30A4_U+30E4_U+30FC 1
370
     0
100
AcDbSpline
210
0.0
220
0.0
230
1.0
 70
    11
 71
     3
 72
    44
 73
    40
 74
     0
 42
0.0000000001
 43
0.0000000001
 12
1.0
 22
0.0
 32
0.0
 13
1.0
 23
0.0
 33
0.0
 40
0.0
 40
0.0
 40
0.0
 40
0.0
 40
1.0
 40
1.0
 40
1.0
 40
2.0
 40
2.0
 40
2.0
 40
3.0
 40
3.0
 40
3.0
 40
4.0
 40
4.0
 40
4.0
 40
5.0
 40
5.0
 40
5.0
 40
6.0
 40
6.0
 40
6.0
 40
7.0
 40
7.0
 40
7.0
 40
8.0
 40
8.0
 40
8.0
 40
9.0
 40
9.0
 40
9.0
 40
10.0
 40
10.0
 40
10.0
 40
11.0
 40
11.0
 40
11.0
 40
12.0
 40
12.0
 40
12.0
 40
13.0
 40
13.0
 40
13.0
 40
13.0
 10
106.6908175731537
 20
-131.7042778533587
 30
0.0
 10
106.4730875384859
 20
-131.8630967552287
 30
0.0
 10
106.3800699603841
 20
-131.9371663081616
 30
0.0
 10
106.3311496044936
 20
-132.0808267898965
 30
0.0
 10
106.3311496044936
 20
-132.0808267898965
 30
0.0
 10
107.1097411841601
 20
-132.0808267898965
 30
0.0
 10
107.1097411841601
 20
-132.0808267898965
 30
0.0
 10
107.1097411841601
 20
-132.0808267898965
 30
0.0
 10
107.1097411841601
 20
-132.2861544808173
 30
0.0
 10
107.1097411841601
 20
-132.2861544808173
 30
0.0
 10
107.1097411841601
 20
-132.2861544808173
 30
0.0
 10
106.0817246913615
 20
-132.2861544808173
 30
0.0
 10
106.0817246913615
 20
-132.2861544808173
 30
0.0
 10
106.1134195698258
 20
-131.9285535694484
 30
0.0
 10
106.1788763840456
 20
-131.8503499019332
 30
0.0
 10
106.5640380592965
 20
-131.5520046329106
 30
0.0
 10
106.8200086538506
 20
-131.3532226234117
 30
0.0
 10
106.8854654680703
 20
-131.2853542423523
 30
0.0
 10
106.8854654680703
 20
-131.1478949324908
 30
0.0
 10
106.8854654680703
 20
-131.0293836477982
 30
0.0
 10
106.8134629724286
 20
-130.8984700193587
 30
0.0
 10
106.6167480202208
 20
-130.8984700193587
 30
0.0
 10
106.3566433110845
 20
-130.8984700193587
 30
0.0
 10
106.3480305723713
 20
-131.1289469073219
 30
0.0
 10
106.343896457789
 20
-131.2453911347234
 30
0.0
 10
106.343896457789
 20
-131.2453911347234
 30
0.0
 10
106.1196207416993
 20
-131.2453911347234
 30
0.0
 10
106.1196207416993
 20
-131.2453911347234
 30
0.0
 10
106.1282334804124
 20
-131.1182671113177
 30
0.0
 10
106.1389132764167
 20
-131.006301508047
 30
0.0
 10
106.219184001223
 20
-130.8877902233544
 30
0.0
 10
106.3290825472025
 20
-130.7269042641933
 30
0.0
 10
106.5154622129545
 20
-130.6931423284378
 30
0.0
 10
106.6315619308074
 20
-130.6931423284378
 30
0.0
 10
106.90889211737
 20
-130.6931423284378
 30
0.0
 10
107.116286865582
 20
-130.8771104273502
 30
0.0
 10
107.116286865582
 20
-131.149961989782
 30
0.0
 10
107.116286865582
 20
-131.3787163300026
 30
0.0
 10
106.9998426381806
 20
-131.4779350799778
 30
0.0
 10
106.6908175731537
 20
-131.7042778533587
 30
0.0
  0
HATCH
  5
E3
330
DE
100
AcDbEntity
  8
_U+30EC_U+30A4_U+30E4_U+30FC 1
 62
   179
420
  2234388
100
AcDbHatch
 10
0.0
 20
0.0
 30
0.0
210
0.0
220
0.0
230
1.0
  2
SOLID
 70
     1
 71
     0
 91
        1
 92
        1
 93
        1
 72
     4
 94
        3
 73
     0
 74
     1
 95
       44
 96
       40
 40
0.0
 40
0.0
 40
0.0
 40
0.0
 40
1.0
 40
1.0
 40
1.0
 40
2.0
 40
2.0
 40
2.0
 40
3.0
 40
3.0
 40
3.0
 40
4.0
 40
4.0
 40
4.0
 40
5.0
 40
5.0
 40
5.0
 40
6.0
 40
6.0
 40
6.0
 40
7.0
 40
7.0
 40
7.0
 40
8.0
 40
8.0
 40
8.0
 40
9.0
 40
9.0
 40
9.0
 40
10.0
 40
10.0
 40
10.0
 40
11.0
 40
11.0
 40
11.0
 40
12.0
 40
12.0
 40
12.0
 40
13.0
 40
13.0
 40
13.0
 40
13.0
 10
106.6908175731537
 20
-131.7042778533587
 10
106.4730875384859
 20
-131.8630967552287
 10
106.3800699603841
 20
-131.9371663081616
 10
106.3311496044936
 20
-132.0808267898965
 10
106.3311496044936
 20
-132.0808267898965
 10
107.1097411841601
 20
-132.0808267898965
 10
107.1097411841601
 20
-132.0808267898965
 10
107.1097411841601
 20
-132.0808267898965
 10
107.1097411841601
 20
-132.2861544808173
 10
107.1097411841601
 20
-132.2861544808173
 10
107.1097411841601
 20
-132.2861544808173
 10
106.0817246913615
 20
-132.2861544808173
 10
106.0817246913615
 20
-132.2861544808173
 10
106.1134195698258
 20
-131.9285535694484
 10
106.1788763840456
 20
-131.8503499019332
 10
106.5640380592965
 20
-131.5520046329106
 10
106.8200086538506
 20
-131.3532226234117
 10
106.8854654680703
 20
-131.2853542423523
 10
106.8854654680703
 20
-131.1478949324908
 10
106.8854654680703
 20
-131.0293836477982
 10
106.8134629724286
 20
-130.8984700193587
 10
106.6167480202208
 20
-130.8984700193587
 10
106.3566433110845
 20
-130.8984700193587
 10
106.3480305723713
 20
-131.1289469073219
 10
106.343896457789
 20
-131.2453911347234
 10
106.343896457789
 20
-131.2453911347234
 10
106.1196207416993
 20
-131.2453911347234
 10
106.1196207416993
 20
-131.2453911347234
 10
106.1282334804124
 20
-131.1182671113177
 10
106.1389132764167
 20
-131.006301508047
 10
106.219184001223
 20
-130.8877902233544
 10
106.3290825472025
 20
-130.7269042641933
 10
106.5154622129545
 20
-130.6931423284378
 10
106.6315619308074
 20
-130.6931423284378
 10
106.90889211737
 20
-130.6931423284378
 10
107.116286865582
 20
-130.8771104273502
 10
107.116286865582
 20
-131.149961989782
 10
107.116286865582
 20
-131.3787163300026
 10
106.9998426381806
 20
-131.4779350799778
 10
106.6908175731537
 20
-131.7042778533587
 97
        0
 97
        0
 75
     2
 76
     1
 98
        0
  0
SPLINE
  5
E4
330
DE
100
AcDbEntity
  8
_U+30EC_U+30A4_U+30E4_U+30FC 1
370
     0
100
AcDbSpline
210
0.0
220
0.0
230
1.0
 70
    11
 71
     3
 72
    32
 73
    28
 74
     0
 42
0.0000000001
 43
0.0000000001
 12
1.0
 22
0.0
 32
0.0
 13
1.0
 23
0.0
 33
0.0
 40
0.0
 40
0.0
 40
0.0
 40
0.0
 40
1.0
 40
1.0
 40
1.0
 40
2.0
 40
2.0
 40
2.0
 40
3.0
 40
3.0
 40
3.0
 40
4.0
 40
4.0
 40
4.0
 40
5.0
 40
5.0
 40
5.0
 40
6.0
 40
6.0
 40
6.0
 40
7.0
 40
7.0
 40
7.0
 40
8.0
 40
8.0
 40
8.0
 40
9.0
 40
9.0
 40
9.0
 40
9.0
 10
107.7787787273956
 20
-132.3367973844505
 30
0.0
 10
107.2627034237052
 20
-132.3367973844505
 30
0.0
 10
107.2544351945406
 20
-131.7828260304223
 30
0.0
 10
107.2544351945406
 20
-131.5688856007883
 30
0.0
 10
107.2544351945406
 20
-131.3384087128251
 30
0.0
 10
107.2733832197094
 20
-130.6910752711467
 30
0.0
 10
107.8170192872819
 20
-130.6910752711467
 30
0.0
 10
107.9906520997385
 20
-130.6910752711467
 30
0.0
 10
108.2359428982882
 20
-130.7610107094972
 30
0.0
 10
108.273838948626
 20
-131.0931179142753
 30
0.0
 10
108.273838948626
 20
-131.0931179142753
 30
0.0
 10
108.0602430285405
 20
-131.0931179142753
 30
0.0
 10
108.0602430285405
 20
-131.0931179142753
 30
0.0
 10
108.0495632325362
 20
-131.0359293292202
 30
0.0
 10
108.0178683540719
 20
-130.8877902233544
 30
0.0
 10
107.8149522299907
 20
-130.8877902233544
 30
0.0
 10
107.5228081328415
 20
-130.8877902233544
 30
0.0
 10
107.4828450252126
 20
-131.2157633135502
 30
0.0
 10
107.4700981719172
 20
-131.4207464949226
 30
0.0
 10
107.563115750019
 20
-131.3425428274074
 30
0.0
 10
107.6309841310784
 20
-131.2832871850611
 30
0.0
 10
107.8128851726996
 20
-131.2832871850611
 30
0.0
 10
107.9927191570296
 20
-131.2832871850611
 30
0.0
 10
108.2951985406345
 20
-131.391463183298
 30
0.0
 10
108.2951985406345
 20
-131.7976399410089
 30
0.0
 10
108.2951985406345
 20
-132.1170002924916
 30
0.0
 10
108.0964165311356
 20
-132.3367973844505
 30
0.0
 10
107.7787787273956
 20
-132.3367973844505
 30
0.0
  0
SPLINE
  5
E5
330
DE
100
AcDbEntity
  8
_U+30EC_U+30A4_U+30E4_U+30FC 1
370
     0
100
AcDbSpline
210
0.0
220
0.0
230
1.0
 70
    11
 71
     3
 72
    17
 73
    13
 74
     0
 42
0.0000000001
 43
0.0000000001
 12
1.0
 22
0.0
 32
0.0
 13
1.0
 23
0.0
 33
0.0
 40
0.0
 40
0.0
 40
0.0
 40
0.0
 40
1.0
 40
1.0
 40
1.0
 40
2.0
 40
2.0
 40
2.0
 40
3.0
 40
3.0
 40
3.0
 40
4.0
 40
4.0
 40
4.0
 40
4.0
 10
107.7960042048218
 20
-131.4779350799778
 30
0.0
 10
107.5334879288458
 20
-131.4779350799778
 30
0.0
 10
107.4955918785081
 20
-131.6894639427721
 30
0.0
 10
107.4955918785081
 20
-131.8059081701735
 30
0.0
 10
107.4955918785081
 20
-131.9816080399213
 30
0.0
 10
107.5906765139009
 20
-132.1445610563736
 30
0.0
 10
107.7746446128133
 20
-132.1445610563736
 30
0.0
 10
107.895222954797
 20
-132.1445610563736
 30
0.0
 10
108.0709228245448
 20
-132.0853054140273
 30
0.0
 10
108.0709228245448
 20
-131.7997069983001
 30
0.0
 10
108.0709228245448
 20
-131.5754312822103
 30
0.0
 10
107.9313964573922
 20
-131.4779350799778
 30
0.0
 10
107.7960042048218
 20
-131.4779350799778
 30
0.0
  0
HATCH
  5
E6
330
DE
100
AcDbEntity
  8
_U+30EC_U+30A4_U+30E4_U+30FC 1
 62
   179
420
  2234388
100
AcDbHatch
 10
0.0
 20
0.0
 30
0.0
210
0.0
220
0.0
230
1.0
  2
SOLID
 70
     1
 71
     0
 91
        2
 92
        1
 93
        1
 72
     4
 94
        3
 73
     0
 74
     1
 95
       32
 96
       28
 40
0.0
 40
0.0
 40
0.0
 40
0.0
 40
1.0
 40
1.0
 40
1.0
 40
2.0
 40
2.0
 40
2.0
 40
3.0
 40
3.0
 40
3.0
 40
4.0
 40
4.0
 40
4.0
 40
5.0
 40
5.0
 40
5.0
 40
6.0
 40
6.0
 40
6.0
 40
7.0
 40
7.0
 40
7.0
 40
8.0
 40
8.0
 40
8.0
 40
9.0
 40
9.0
 40
9.0
 40
9.0
 10
107.7787787273956
 20
-132.3367973844505
 10
107.2627034237052
 20
-132.3367973844505
 10
107.2544351945406
 20
-131.7828260304223
 10
107.2544351945406
 20
-131.5688856007883
 10
107.2544351945406
 20
-131.3384087128251
 10
107.2733832197094
 20
-130.6910752711467
 10
107.8170192872819
 20
-130.6910752711467
 10
107.9906520997385
 20
-130.6910752711467
 10
108.2359428982882
 20
-130.7610107094972
 10
108.273838948626
 20
-131.0931179142753
 10
108.273838948626
 20
-131.0931179142753
 10
108.0602430285405
 20
-131.0931179142753
 10
108.0602430285405
 20
-131.0931179142753
 10
108.0495632325362
 20
-131.0359293292202
 10
108.0178683540719
 20
-130.8877902233544
 10
107.8149522299907
 20
-130.8877902233544
 10
107.5228081328415
 20
-130.8877902233544
 10
107.4828450252126
 20
-131.2157633135502
 10
107.4700981719172
 20
-131.4207464949226
 10
107.563115750019
 20
-131.3425428274074
 10
107.6309841310784
 20
-131.2832871850611
 10
107.8128851726996
 20
-131.2832871850611
 10
107.9927191570296
 20
-131.2832871850611
 10
108.2951985406345
 20
-131.391463183298
 10
108.2951985406345
 20
-131.7976399410089
 10
108.2951985406345
 20
-132.1170002924916
 10
108.0964165311356
 20
-132.3367973844505
 10
107.7787787273956
 20
-132.3367973844505
 97
        0
 97
        0
 92
        1
 93
        1
 72
     4
 94
        3
 73
     0
 74
     1
 95
       17
 96
       13
 40
0.0
 40
0.0
 40
0.0
 40
0.0
 40
1.0
 40
1.0
 40
1.0
 40
2.0
 40
2.0
 40
2.0
 40
3.0
 40
3.0
 40
3.0
 40
4.0
 40
4.0
 40
4.0
 40
4.0
 10
107.7960042048218
 20
-131.4779350799778
 10
107.5334879288458
 20
-131.4779350799778
 10
107.4955918785081
 20
-131.6894639427721
 10
107.4955918785081
 20
-131.8059081701735
 10
107.4955918785081
 20
-131.9816080399213
 10
107.5906765139009
 20
-132.1445610563736
 10
107.7746446128133
 20
-132.1445610563736
 10
107.895222954797
 20
-132.1445610563736
 10
108.0709228245448
 20
-132.0853054140273
 10
108.0709228245448
 20
-131.7997069983001
 10
108.0709228245448
 20
-131.5754312822103
 10
107.9313964573922
 20
-131.4779350799778
 10
107.7960042048218
 20
-131.4779350799778
 97
        0
 97
        0
 75
     2
 76
     1
 98
        0
  0
ENDBLK
  5
E1
330
DE
100
AcDbEntity
  8
0
100
AcDbBlockEnd
  0
BLOCK
  5
E9
330
E7
100
AcDbEntity
  8
0
100
AcDbBlockBegin
  2
block 4
 70
     0
 10
0.0
 20
0.0
 30
0.0
  3
block 4
  1

  0
SPLINE
  5
EB
330
E7
100
AcDbEntity
  8
_U+30EC_U+30A4_U+30E4_U+30FC 1
370
     0
100
AcDbSpline
210
0.0
220
0.0
230
1.0
 70
    11
 71
     3
 72
    44
 73
    40
 74
     0
 42
0.0000000001
 43
0.0000000001
 12
1.0
 22
0.0
 32
0.0
 13
1.0
 23
0.0
 33
0.0
 40
0.0
 40
0.0
 40
0.0
 40
0.0
 40
1.0
 40
1.0
 40
1.0
 40
2.0
 40
2.0
 40
2.0
 40
3.0
 40
3.0
 40
3.0
 40
4.0
 40
4.0
 40
4.0
 40
5.0
 40
5.0
 40
5.0
 40
6.0
 40
6.0
 40
6.0
 40
7.0
 40
7.0
 40
7.0
 40
8.0
 40
8.0
 40
8.0
 40
9.0
 40
9.0
 40
9.0
 40
10.0
 40
10.0
 40
10.0
 40
11.0
 40
11.0
 40
11.0
 40
12.0
 40
12.0
 40
12.0
 40
13.0
 40
13.0
 40
13.0
 40
13.0
 10
98.5180175534955
 20
-131.7042778533587
 30
0.0
 10
98.30028751882772
 20
-131.8630967552287
 30
0.0
 10
98.20726994072596
 20
-131.9371663081616
 30
0.0
 10
98.15834958483542
 20
-132.0808267898965
 30
0.0
 10
98.15834958483542
 20
-132.0808267898965
 30
0.0
 10
98.93694116450187
 20
-132.0808267898965
 30
0.0
 10
98.93694116450187
 20
-132.0808267898965
 30
0.0
 10
98.93694116450187
 20
-132.0808267898965
 30
0.0
 10
98.93694116450187
 20
-132.2861544808173
 30
0.0
 10
98.93694116450187
 20
-132.2861544808173
 30
0.0
 10
98.93694116450187
 20
-132.2861544808173
 30
0.0
 10
97.90892467170333
 20
-132.2861544808173
 30
0.0
 10
97.90892467170333
 20
-132.2861544808173
 30
0.0
 10
97.94061955016763
 20
-131.9285535694484
 30
0.0
 10
98.00607636438737
 20
-131.8503499019332
 30
0.0
 10
98.39123803963831
 20
-131.5520046329106
 30
0.0
 10
98.64720863419237
 20
-131.3532226234117
 30
0.0
 10
98.71266544841211
 20
-131.2853542423523
 30
0.0
 10
98.71266544841211
 20
-131.1478949324908
 30
0.0
 10
98.71266544841211
 20
-131.0293836477982
 30
0.0
 10
98.6406629527704
 20
-130.8984700193587
 30
0.0
 10
98.44394800056263
 20
-130.8984700193587
 30
0.0
 10
98.18384329142627
 20
-130.8984700193587
 30
0.0
 10
98.17557506226167
 20
-131.1289469073219
 30
0.0
 10
98.17109643813085
 20
-131.2453911347234
 30
0.0
 10
98.17109643813085
 20
-131.2453911347234
 30
0.0
 10
97.94682072204108
 20
-131.2453911347234
 30
0.0
 10
97.94682072204108
 20
-131.2453911347234
 30
0.0
 10
97.95543346075421
 20
-131.1182671113177
 30
0.0
 10
97.96611325675848
 20
-131.006301508047
 30
0.0
 10
98.0463839815648
 20
-130.8877902233544
 30
0.0
 10
98.15628252754426
 20
-130.7269042641933
 30
0.0
 10
98.34266219329628
 20
-130.6931423284378
 30
0.0
 10
98.4587619111492
 20
-130.6931423284378
 30
0.0
 10
98.73609209771182
 20
-130.6931423284378
 30
0.0
 10
98.94348684592386
 20
-130.8771104273502
 30
0.0
 10
98.94348684592386
 20
-131.149961989782
 30
0.0
 10
98.94348684592386
 20
-131.3787163300026
 30
0.0
 10
98.82704261852241
 20
-131.4779350799778
 30
0.0
 10
98.5180175534955
 20
-131.7042778533587
 30
0.0
  0
HATCH
  5
EC
330
E7
100
AcDbEntity
  8
_U+30EC_U+30A4_U+30E4_U+30FC 1
 62
   179
420
  2234388
100
AcDbHatch
 10
0.0
 20
0.0
 30
0.0
210
0.0
220
0.0
230
1.0
  2
SOLID
 70
     1
 71
     0
 91
        1
 92
        1
 93
        1
 72
     4
 94
        3
 73
     0
 74
     1
 95
       44
 96
       40
 40
0.0
 40
0.0
 40
0.0
 40
0.0
 40
1.0
 40
1.0
 40
1.0
 40
2.0
 40
2.0
 40
2.0
 40
3.0
 40
3.0
 40
3.0
 40
4.0
 40
4.0
 40
4.0
 40
5.0
 40
5.0
 40
5.0
 40
6.0
 40
6.0
 40
6.0
 40
7.0
 40
7.0
 40
7.0
 40
8.0
 40
8.0
 40
8.0
 40
9.0
 40
9.0
 40
9.0
 40
10.0
 40
10.0
 40
10.0
 40
11.0
 40
11.0
 40
11.0
 40
12.0
 40
12.0
 40
12.0
 40
13.0
 40
13.0
 40
13.0
 40
13.0
 10
98.5180175534955
 20
-131.7042778533587
 10
98.30028751882772
 20
-131.8630967552287
 10
98.20726994072596
 20
-131.9371663081616
 10
98.15834958483542
 20
-132.0808267898965
 10
98.15834958483542
 20
-132.0808267898965
 10
98.93694116450187
 20
-132.0808267898965
 10
98.93694116450187
 20
-132.0808267898965
 10
98.93694116450187
 20
-132.0808267898965
 10
98.93694116450187
 20
-132.2861544808173
 10
98.93694116450187
 20
-132.2861544808173
 10
98.93694116450187
 20
-132.2861544808173
 10
97.90892467170333
 20
-132.2861544808173
 10
97.90892467170333
 20
-132.2861544808173
 10
97.94061955016763
 20
-131.9285535694484
 10
98.00607636438737
 20
-131.8503499019332
 10
98.39123803963831
 20
-131.5520046329106
 10
98.64720863419237
 20
-131.3532226234117
 10
98.71266544841211
 20
-131.2853542423523
 10
98.71266544841211
 20
-131.1478949324908
 10
98.71266544841211
 20
-131.0293836477982
 10
98.6406629527704
 20
-130.8984700193587
 10
98.44394800056263
 20
-130.8984700193587
 10
98.18384329142627
 20
-130.8984700193587
 10
98.17557506226167
 20
-131.1289469073219
 10
98.17109643813085
 20
-131.2453911347234
 10
98.17109643813085
 20
-131.2453911347234
 10
97.94682072204108
 20
-131.2453911347234
 10
97.94682072204108
 20
-131.2453911347234
 10
97.95543346075421
 20
-131.1182671113177
 10
97.96611325675848
 20
-131.006301508047
 10
98.0463839815648
 20
-130.8877902233544
 10
98.15628252754426
 20
-130.7269042641933
 10
98.34266219329628
 20
-130.6931423284378
 10
98.4587619111492
 20
-130.6931423284378
 10
98.73609209771182
 20
-130.6931423284378
 10
98.94348684592386
 20
-130.8771104273502
 10
98.94348684592386
 20
-131.149961989782
 10
98.94348684592386
 20
-131.3787163300026
 10
98.82704261852241
 20
-131.4779350799778
 10
98.5180175534955
 20
-131.7042778533587
 97
        0
 97
        0
 75
     2
 76
     1
 98
        0
  0
SPLINE
  5
ED
330
E7
100
AcDbEntity
  8
_U+30EC_U+30A4_U+30E4_U+30FC 1
370
     0
100
AcDbSpline
210
0.0
220
0.0
230
1.0
 70
    11
 71
     3
 72
    32
 73
    28
 74
     0
 42
0.0000000001
 43
0.0000000001
 12
1.0
 22
0.0
 32
0.0
 13
1.0
 23
0.0
 33
0.0
 40
0.0
 40
0.0
 40
0.0
 40
0.0
 40
1.0
 40
1.0
 40
1.0
 40
2.0
 40
2.0
 40
2.0
 40
3.0
 40
3.0
 40
3.0
 40
4.0
 40
4.0
 40
4.0
 40
5.0
 40
5.0
 40
5.0
 40
6.0
 40
6.0
 40
6.0
 40
7.0
 40
7.0
 40
7.0
 40
8.0
 40
8.0
 40
8.0
 40
9.0
 40
9.0
 40
9.0
 40
9.0
 10
99.60597870773739
 20
-132.3367973844505
 30
0.0
 10
99.08990340404698
 20
-132.3367973844505
 30
0.0
 10
99.08163517488238
 20
-131.7828260304223
 30
0.0
 10
99.08163517488238
 20
-131.5688856007883
 30
0.0
 10
99.08163517488238
 20
-131.3384087128251
 30
0.0
 10
99.10058320005125
 20
-130.6910752711467
 30
0.0
 10
99.64421926762367
 20
-130.6910752711467
 30
0.0
 10
99.81750757053175
 20
-130.6910752711467
 30
0.0
 10
100.06314287863
 20
-130.7610107094972
 30
0.0
 10
100.1010389289678
 20
-131.0931179142753
 30
0.0
 10
100.1010389289678
 20
-131.0931179142753
 30
0.0
 10
99.88744300888231
 20
-131.0931179142753
 30
0.0
 10
99.88744300888231
 20
-131.0931179142753
 30
0.0
 10
99.87676321287803
 20
-131.0359293292202
 30
0.0
 10
99.84506833441374
 20
-130.8877902233544
 30
0.0
 10
99.64215221033253
 20
-130.8877902233544
 30
0.0
 10
99.35000811318334
 20
-130.8877902233544
 30
0.0
 10
99.31004500555444
 20
-131.2157633135502
 30
0.0
 10
99.29729815225902
 20
-131.4207464949226
 30
0.0
 10
99.39031573036075
 20
-131.3425428274074
 30
0.0
 10
99.45818411142018
 20
-131.2832871850611
 30
0.0
 10
99.64008515304137
 20
-131.2832871850611
 30
0.0
 10
99.81991913737141
 20
-131.2832871850611
 30
0.0
 10
100.1223985209763
 20
-131.391463183298
 30
0.0
 10
100.1223985209763
 20
-131.7976399410089
 30
0.0
 10
100.1223985209763
 20
-132.1170002924916
 30
0.0
 10
99.92361651147743
 20
-132.3367973844505
 30
0.0
 10
99.60597870773739
 20
-132.3367973844505
 30
0.0
  0
SPLINE
  5
EE
330
E7
100
AcDbEntity
  8
_U+30EC_U+30A4_U+30E4_U+30FC 1
370
     0
100
AcDbSpline
210
0.0
220
0.0
230
1.0
 70
    11
 71
     3
 72
    17
 73
    13
 74
     0
 42
0.0000000001
 43
0.0000000001
 12
1.0
 22
0.0
 32
0.0
 13
1.0
 23
0.0
 33
0.0
 40
0.0
 40
0.0
 40
0.0
 40
0.0
 40
1.0
 40
1.0
 40
1.0
 40
2.0
 40
2.0
 40
2.0
 40
3.0
 40
3.0
 40
3.0
 40
4.0
 40
4.0
 40
4.0
 40
4.0
 10
99.62320418516364
 20
-131.4779350799778
 30
0.0
 10
99.3606879091876
 20
-131.4779350799778
 30
0.0
 10
99.32279185884987
 20
-131.6894639427721
 30
0.0
 10
99.32279185884987
 20
-131.8059081701735
 30
0.0
 10
99.32279185884987
 20
-131.9816080399213
 30
0.0
 10
99.41787649424276
 20
-132.1445610563736
 30
0.0
 10
99.60184459315509
 20
-132.1445610563736
 30
0.0
 10
99.72242293513884
 20
-132.1445610563736
 30
0.0
 10
99.89812280488658
 20
-132.0853054140273
 30
0.0
 10
99.89812280488658
 20
-131.7997069983001
 30
0.0
 10
99.89812280488658
 20
-131.5754312822103
 30
0.0
 10
99.75859643773397
 20
-131.4779350799778
 30
0.0
 10
99.62320418516364
 20
-131.4779350799778
 30
0.0
  0
HATCH
  5
EF
330
E7
100
AcDbEntity
  8
_U+30EC_U+30A4_U+30E4_U+30FC 1
 62
   179
420
  2234388
100
AcDbHatch
 10
0.0
 20
0.0
 30
0.0
210
0.0
220
0.0
230
1.0
  2
SOLID
 70
     1
 71
     0
 91
        2
 92
        1
 93
        1
 72
     4
 94
        3
 73
     0
 74
     1
 95
       32
 96
       28
 40
0.0
 40
0.0
 40
0.0
 40
0.0
 40
1.0
 40
1.0
 40
1.0
 40
2.0
 40
2.0
 40
2.0
 40
3.0
 40
3.0
 40
3.0
 40
4.0
 40
4.0
 40
4.0
 40
5.0
 40
5.0
 40
5.0
 40
6.0
 40
6.0
 40
6.0
 40
7.0
 40
7.0
 40
7.0
 40
8.0
 40
8.0
 40
8.0
 40
9.0
 40
9.0
 40
9.0
 40
9.0
 10
99.60597870773739
 20
-132.3367973844505
 10
99.08990340404698
 20
-132.3367973844505
 10
99.08163517488238
 20
-131.7828260304223
 10
99.08163517488238
 20
-131.5688856007883
 10
99.08163517488238
 20
-131.3384087128251
 10
99.10058320005125
 20
-130.6910752711467
 10
99.64421926762367
 20
-130.6910752711467
 10
99.81750757053175
 20
-130.6910752711467
 10
100.06314287863
 20
-130.7610107094972
 10
100.1010389289678
 20
-131.0931179142753
 10
100.1010389289678
 20
-131.0931179142753
 10
99.88744300888231
 20
-131.0931179142753
 10
99.88744300888231
 20
-131.0931179142753
 10
99.87676321287803
 20
-131.0359293292202
 10
99.84506833441374
 20
-130.8877902233544
 10
99.64215221033253
 20
-130.8877902233544
 10
99.35000811318334
 20
-130.8877902233544
 10
99.31004500555444
 20
-131.2157633135502
 10
99.29729815225902
 20
-131.4207464949226
 10
99.39031573036075
 20
-131.3425428274074
 10
99.45818411142018
 20
-131.2832871850611
 10
99.64008515304137
 20
-131.2832871850611
 10
99.81991913737141
 20
-131.2832871850611
 10
100.1223985209763
 20
-131.391463183298
 10
100.1223985209763
 20
-131.7976399410089
 10
100.1223985209763
 20
-132.1170002924916
 10
99.92361651147743
 20
-132.3367973844505
 10
99.60597870773739
 20
-132.3367973844505
 97
        0
 97
        0
 92
        1
 93
        1
 72
     4
 94
        3
 73
     0
 74
     1
 95
       17
 96
       13
 40
0.0
 40
0.0
 40
0.0
 40
0.0
 40
1.0
 40
1.0
 40
1.0
 40
2.0
 40
2.0
 40
2.0
 40
3.0
 40
3.0
 40
3.0
 40
4.0
 40
4.0
 40
4.0
 40
4.0
 10
99.62320418516364
 20
-131.4779350799778
 10
99.3606879091876
 20
-131.4779350799778
 10
99.32279185884987
 20
-131.6894639427721
 10
99.32279185884987
 20
-131.8059081701735
 10
99.32279185884987
 20
-131.9816080399213
 10
99.41787649424276
 20
-132.1445610563736
 10
99.60184459315509
 20
-132.1445610563736
 10
99.72242293513884
 20
-132.1445610563736
 10
99.89812280488658
 20
-132.0853054140273
 10
99.89812280488658
 20
-131.7997069983001
 10
99.89812280488658
 20
-131.5754312822103
 10
99.75859643773397
 20
-131.4779350799778
 10
99.62320418516364
 20
-131.4779350799778
 97
        0
 97
        0
 75
     2
 76
     1
 98
        0
  0
ENDBLK
  5
EA
330
E7
100
AcDbEntity
  8
0
100
AcDbBlockEnd
  0
BLOCK
  5
F2
330
F0
100
AcDbEntity
  8
0
100
AcDbBlockBegin
  2
block 5
 70
     0
 10
0.0
 20
0.0
 30
0.0
  3
block 5
  1

  0
SPLINE
  5
F4
330
F0
100
AcDbEntity
  8
_U+30EC_U+30A4_U+30E4_U+30FC 1
370
     0
100
AcDbSpline
210
0.0
220
0.0
230
1.0
 70
    11
 71
     3
 72
    44
 73
    40
 74
     0
 42
0.0000000001
 43
0.0000000001
 12
1.0
 22
0.0
 32
0.0
 13
1.0
 23
0.0
 33
0.0
 40
0.0
 40
0.0
 40
0.0
 40
0.0
 40
1.0
 40
1.0
 40
1.0
 40
2.0
 40
2.0
 40
2.0
 40
3.0
 40
3.0
 40
3.0
 40
4.0
 40
4.0
 40
4.0
 40
5.0
 40
5.0
 40
5.0
 40
6.0
 40
6.0
 40
6.0
 40
7.0
 40
7.0
 40
7.0
 40
8.0
 40
8.0
 40
8.0
 40
9.0
 40
9.0
 40
9.0
 40
10.0
 40
10.0
 40
10.0
 40
11.0
 40
11.0
 40
11.0
 40
12.0
 40
12.0
 40
12.0
 40
13.0
 40
13.0
 40
13.0
 40
13.0
 10
90.46321205420712
 20
-131.7042778533587
 30
0.0
 10
90.24530976476507
 20
-131.8630967552287
 30
0.0
 10
90.15211993188906
 20
-131.9371663081616
 30
0.0
 10
90.10354408554703
 20
-132.0808267898965
 30
0.0
 10
90.10354408554703
 20
-132.0808267898965
 30
0.0
 10
90.88196341043924
 20
-132.0808267898965
 30
0.0
 10
90.88196341043924
 20
-132.0808267898965
 30
0.0
 10
90.88196341043924
 20
-132.0808267898965
 30
0.0
 10
90.88196341043924
 20
-132.2861544808173
 30
0.0
 10
90.88196341043924
 20
-132.2861544808173
 30
0.0
 10
90.88196341043924
 20
-132.2861544808173
 30
0.0
 10
89.85394691764068
 20
-132.2861544808173
 30
0.0
 10
89.85394691764068
 20
-132.2861544808173
 30
0.0
 10
89.88564179610498
 20
-131.9285535694484
 30
0.0
 10
89.95109861032473
 20
-131.8503499019332
 30
0.0
 10
90.33626028557566
 20
-131.5520046329106
 30
0.0
 10
90.59223088012972
 20
-131.3532226234117
 30
0.0
 10
90.65768769434948
 20
-131.2853542423523
 30
0.0
 10
90.65768769434948
 20
-131.1478949324908
 30
0.0
 10
90.65768769434948
 20
-131.0293836477982
 30
0.0
 10
90.585857453482
 20
-130.8984700193587
 30
0.0
 10
90.38914250127425
 20
-130.8984700193587
 30
0.0
 10
90.12886553736362
 20
-130.8984700193587
 30
0.0
 10
90.12042505342475
 20
-131.1289469073219
 30
0.0
 10
90.1161186840682
 20
-131.2453911347234
 30
0.0
 10
90.1161186840682
 20
-131.2453911347234
 30
0.0
 10
89.89201522275269
 20
-131.2453911347234
 30
0.0
 10
89.89201522275269
 20
-131.2453911347234
 30
0.0
 10
89.90045570669156
 20
-131.1182671113177
 30
0.0
 10
89.91096324792157
 20
-131.006301508047
 30
0.0
 10
89.99140622750215
 20
-130.8877902233544
 30
0.0
 10
90.10130477348162
 20
-130.7269042641933
 30
0.0
 10
90.28751218445937
 20
-130.6931423284378
 30
0.0
 10
90.40395641186082
 20
-130.6931423284378
 30
0.0
 10
90.68111434364917
 20
-130.6931423284378
 30
0.0
 10
90.88833683708695
 20
-130.8771104273502
 30
0.0
 10
90.88833683708695
 20
-131.149961989782
 30
0.0
 10
90.88833683708695
 20
-131.3787163300026
 30
0.0
 10
90.77206486445976
 20
-131.4779350799778
 30
0.0
 10
90.46321205420712
 20
-131.7042778533587
 30
0.0
  0
HATCH
  5
F5
330
F0
100
AcDbEntity
  8
_U+30EC_U+30A4_U+30E4_U+30FC 1
 62
   179
420
  2234388
100
AcDbHatch
 10
0.0
 20
0.0
 30
0.0
210
0.0
220
0.0
230
1.0
  2
SOLID
 70
     1
 71
     0
 91
        1
 92
        1
 93
        1
 72
     4
 94
        3
 73
     0
 74
     1
 95
       44
 96
       40
 40
0.0
 40
0.0
 40
0.0
 40
0.0
 40
1.0
 40
1.0
 40
1.0
 40
2.0
 40
2.0
 40
2.0
 40
3.0
 40
3.0
 40
3.0
 40
4.0
 40
4.0
 40
4.0
 40
5.0
 40
5.0
 40
5.0
 40
6.0
 40
6.0
 40
6.0
 40
7.0
 40
7.0
 40
7.0
 40
8.0
 40
8.0
 40
8.0
 40
9.0
 40
9.0
 40
9.0
 40
10.0
 40
10.0
 40
10.0
 40
11.0
 40
11.0
 40
11.0
 40
12.0
 40
12.0
 40
12.0
 40
13.0
 40
13.0
 40
13.0
 40
13.0
 10
90.46321205420712
 20
-131.7042778533587
 10
90.24530976476507
 20
-131.8630967552287
 10
90.15211993188906
 20
-131.9371663081616
 10
90.10354408554703
 20
-132.0808267898965
 10
90.10354408554703
 20
-132.0808267898965
 10
90.88196341043924
 20
-132.0808267898965
 10
90.88196341043924
 20
-132.0808267898965
 10
90.88196341043924
 20
-132.0808267898965
 10
90.88196341043924
 20
-132.2861544808173
 10
90.88196341043924
 20
-132.2861544808173
 10
90.88196341043924
 20
-132.2861544808173
 10
89.85394691764068
 20
-132.2861544808173
 10
89.85394691764068
 20
-132.2861544808173
 10
89.88564179610498
 20
-131.9285535694484
 10
89.95109861032473
 20
-131.8503499019332
 10
90.33626028557566
 20
-131.5520046329106
 10
90.59223088012972
 20
-131.3532226234117
 10
90.65768769434948
 20
-131.2853542423523
 10
90.65768769434948
 20
-131.1478949324908
 10
90.65768769434948
 20
-131.0293836477982
 10
90.585857453482
 20
-130.8984700193587
 10
90.38914250127425
 20
-130.8984700193587
 10
90.12886553736362
 20
-130.8984700193587
 10
90.12042505342475
 20
-131.1289469073219
 10
90.1161186840682
 20
-131.2453911347234
 10
90.1161186840682
 20
-131.2453911347234
 10
89.89201522275269
 20
-131.2453911347234
 10
89.89201522275269
 20
-131.2453911347234
 10
89.90045570669156
 20
-131.1182671113177
 10
89.91096324792157
 20
-131.006301508047
 10
89.99140622750215
 20
-130.8877902233544
 10
90.10130477348162
 20
-130.7269042641933
 10
90.28751218445937
 20
-130.6931423284378
 10
90.40395641186082
 20
-130.6931423284378
 10
90.68111434364917
 20
-130.6931423284378
 10
90.88833683708695
 20
-130.8771104273502
 10
90.88833683708695
 20
-131.149961989782
 10
90.88833683708695
 20
-131.3787163300026
 10
90.77206486445976
 20
-131.4779350799778
 10
90.46321205420712
 20
-131.7042778533587
 97
        0
 97
        0
 75
     2
 76
     1
 98
        0
  0
SPLINE
  5
F6
330
F0
100
AcDbEntity
  8
_U+30EC_U+30A4_U+30E4_U+30FC 1
370
     0
100
AcDbSpline
210
0.0
220
0.0
230
1.0
 70
    11
 71
     3
 72
    32
 73
    28
 74
     0
 42
0.0000000001
 43
0.0000000001
 12
1.0
 22
0.0
 32
0.0
 13
1.0
 23
0.0
 33
0.0
 40
0.0
 40
0.0
 40
0.0
 40
0.0
 40
1.0
 40
1.0
 40
1.0
 40
2.0
 40
2.0
 40
2.0
 40
3.0
 40
3.0
 40
3.0
 40
4.0
 40
4.0
 40
4.0
 40
5.0
 40
5.0
 40
5.0
 40
6.0
 40
6.0
 40
6.0
 40
7.0
 40
7.0
 40
7.0
 40
8.0
 40
8.0
 40
8.0
 40
9.0
 40
9.0
 40
9.0
 40
9.0
 10
91.55100095367476
 20
-132.3367973844505
 30
0.0
 10
91.03492564998433
 20
-132.3367973844505
 30
0.0
 10
91.02648516604546
 20
-131.7828260304223
 30
0.0
 10
91.02648516604546
 20
-131.5688856007883
 30
0.0
 10
91.02648516604546
 20
-131.3384087128251
 30
0.0
 10
91.0456054459886
 20
-130.6910752711467
 30
0.0
 10
91.58924151356102
 20
-130.6910752711467
 30
0.0
 10
91.76287432601762
 20
-130.6910752711467
 30
0.0
 10
92.00816512456741
 20
-130.7610107094972
 30
0.0
 10
92.04606117490516
 20
-131.0931179142753
 30
0.0
 10
92.04606117490516
 20
-131.0931179142753
 30
0.0
 10
91.83246525481967
 20
-131.0931179142753
 30
0.0
 10
91.83246525481967
 20
-131.0931179142753
 30
0.0
 10
91.82178545881538
 20
-131.0359293292202
 30
0.0
 10
91.79009058035109
 20
-130.8877902233544
 30
0.0
 10
91.58717445626988
 20
-130.8877902233544
 30
0.0
 10
91.29520261389496
 20
-130.8877902233544
 30
0.0
 10
91.2550672514918
 20
-131.2157633135502
 30
0.0
 10
91.24232039819637
 20
-131.4207464949226
 30
0.0
 10
91.33533797629812
 20
-131.3425428274074
 30
0.0
 10
91.40320635735753
 20
-131.2832871850611
 30
0.0
 10
91.58510739897872
 20
-131.2832871850611
 30
0.0
 10
91.76494138330877
 20
-131.2832871850611
 30
0.0
 10
92.0674207669137
 20
-131.391463183298
 30
0.0
 10
92.0674207669137
 20
-131.7976399410089
 30
0.0
 10
92.0674207669137
 20
-132.1170002924916
 30
0.0
 10
91.86863875741479
 20
-132.3367973844505
 30
0.0
 10
91.55100095367476
 20
-132.3367973844505
 30
0.0
  0
SPLINE
  5
F7
330
F0
100
AcDbEntity
  8
_U+30EC_U+30A4_U+30E4_U+30FC 1
370
     0
100
AcDbSpline
210
0.0
220
0.0
230
1.0
 70
    11
 71
     3
 72
    17
 73
    13
 74
     0
 42
0.0000000001
 43
0.0000000001
 12
1.0
 22
0.0
 32
0.0
 13
1.0
 23
0.0
 33
0.0
 40
0.0
 40
0.0
 40
0.0
 40
0.0
 40
1.0
 40
1.0
 40
1.0
 40
2.0
 40
2.0
 40
2.0
 40
3.0
 40
3.0
 40
3.0
 40
4.0
 40
4.0
 40
4.0
 40
4.0
 10
91.56822643110101
 20
-131.4779350799778
 30
0.0
 10
91.30571015512497
 20
-131.4779350799778
 30
0.0
 10
91.26764185001295
 20
-131.6894639427721
 30
0.0
 10
91.26764185001295
 20
-131.8059081701735
 30
0.0
 10
91.26764185001295
 20
-131.9816080399213
 30
0.0
 10
91.36289874018011
 20
-132.1445610563736
 30
0.0
 10
91.54686683909246
 20
-132.1445610563736
 30
0.0
 10
91.6674451810762
 20
-132.1445610563736
 30
0.0
 10
91.84314505082394
 20
-132.0853054140273
 30
0.0
 10
91.84314505082394
 20
-131.7997069983001
 30
0.0
 10
91.84314505082394
 20
-131.5754312822103
 30
0.0
 10
91.70361868367132
 20
-131.4779350799778
 30
0.0
 10
91.56822643110101
 20
-131.4779350799778
 30
0.0
  0
HATCH
  5
F8
330
F0
100
AcDbEntity
  8
_U+30EC_U+30A4_U+30E4_U+30FC 1
 62
   179
420
  2234388
100
AcDbHatch
 10
0.0
 20
0.0
 30
0.0
210
0.0
220
0.0
230
1.0
  2
SOLID
 70
     1
 71
     0
 91
        2
 92
        1
 93
        1
 72
     4
 94
        3
 73
     0
 74
     1
 95
       32
 96
       28
 40
0.0
 40
0.0
 40
0.0
 40
0.0
 40
1.0
 40
1.0
 40
1.0
 40
2.0
 40
2.0
 40
2.0
 40
3.0
 40
3.0
 40
3.0
 40
4.0
 40
4.0
 40
4.0
 40
5.0
 40
5.0
 40
5.0
 40
6.0
 40
6.0
 40
6.0
 40
7.0
 40
7.0
 40
7.0
 40
8.0
 40
8.0
 40
8.0
 40
9.0
 40
9.0
 40
9.0
 40
9.0
 10
91.55100095367476
 20
-132.3367973844505
 10
91.03492564998433
 20
-132.3367973844505
 10
91.02648516604546
 20
-131.7828260304223
 10
91.02648516604546
 20
-131.5688856007883
 10
91.02648516604546
 20
-131.3384087128251
 10
91.0456054459886
 20
-130.6910752711467
 10
91.58924151356102
 20
-130.6910752711467
 10
91.76287432601762
 20
-130.6910752711467
 10
92.00816512456741
 20
-130.7610107094972
 10
92.04606117490516
 20
-131.0931179142753
 10
92.04606117490516
 20
-131.0931179142753
 10
91.83246525481967
 20
-131.0931179142753
 10
91.83246525481967
 20
-131.0931179142753
 10
91.82178545881538
 20
-131.0359293292202
 10
91.79009058035109
 20
-130.8877902233544
 10
91.58717445626988
 20
-130.8877902233544
 10
91.29520261389496
 20
-130.8877902233544
 10
91.2550672514918
 20
-131.2157633135502
 10
91.24232039819637
 20
-131.4207464949226
 10
91.33533797629812
 20
-131.3425428274074
 10
91.40320635735753
 20
-131.2832871850611
 10
91.58510739897872
 20
-131.2832871850611
 10
91.76494138330877
 20
-131.2832871850611
 10
92.0674207669137
 20
-131.391463183298
 10
92.0674207669137
 20
-131.7976399410089
 10
92.0674207669137
 20
-132.1170002924916
 10
91.86863875741479
 20
-132.3367973844505
 10
91.55100095367476
 20
-132.3367973844505
 97
        0
 97
        0
 92
        1
 93
        1
 72
     4
 94
        3
 73
     0
 74
     1
 95
       17
 96
       13
 40
0.0
 40
0.0
 40
0.0
 40
0.0
 40
1.0
 40
1.0
 40
1.0
 40
2.0
 40
2.0
 40
2.0
 40
3.0
 40
3.0
 40
3.0
 40
4.0
 40
4.0
 40
4.0
 40
4.0
 10
91.56822643110101
 20
-131.4779350799778
 10
91.30571015512497
 20
-131.4779350799778
 10
91.26764185001295
 20
-131.6894639427721
 10
91.26764185001295
 20
-131.8059081701735
 10
91.26764185001295
 20
-131.9816080399213
 10
91.36289874018011
 20
-132.1445610563736
 10
91.54686683909246
 20
-132.1445610563736
 10
91.6674451810762
 20
-132.1445610563736
 10
91.84314505082394
 20
-132.0853054140273
 10
91.84314505082394
 20
-131.7997069983001
 10
91.84314505082394
 20
-131.5754312822103
 10
91.70361868367132
 20
-131.4779350799778
 10
91.56822643110101
 20
-131.4779350799778
 97
        0
 97
        0
 75
     2
 76
     1
 98
        0
  0
ENDBLK
  5
F3
330
F0
100
AcDbEntity
  8
0
100
AcDbBlockEnd
  0
BLOCK
  5
FB
330
F9
100
AcDbEntity
  8
0
100
AcDbBlockBegin
  2
block 6
 70
     0
 10
0.0
 20
0.0
 30
0.0
  3
block 6
  1

  0
SPLINE
  5
FD
330
F9
100
AcDbEntity
  8
_U+30EC_U+30A4_U+30E4_U+30FC 1
370
     0
100
AcDbSpline
210
0.0
220
0.0
230
1.0
 70
    11
 71
     3
 72
    26
 73
    22
 74
     0
 42
0.0000000001
 43
0.0000000001
 12
1.0
 22
0.0
 32
0.0
 13
1.0
 23
0.0
 33
0.0
 40
0.0
 40
0.0
 40
0.0
 40
0.0
 40
1.0
 40
1.0
 40
1.0
 40
2.0
 40
2.0
 40
2.0
 40
3.0
 40
3.0
 40
3.0
 40
4.0
 40
4.0
 40
4.0
 40
5.0
 40
5.0
 40
5.0
 40
6.0
 40
6.0
 40
6.0
 40
7.0
 40
7.0
 40
7.0
 40
7.0
 10
88.49881860851767
 20
-135.8724988809624
 30
0.0
 10
88.49881860851767
 20
-135.8724988809624
 30
0.0
 10
88.49881860851767
 20
-134.7683457779399
 30
0.0
 10
88.49881860851767
 20
-134.7683457779399
 30
0.0
 10
88.49881860851767
 20
-134.7683457779399
 30
0.0
 10
88.16877846103073
 20
-134.7683457779399
 30
0.0
 10
88.16877846103073
 20
-134.7683457779399
 30
0.0
 10
88.16877846103073
 20
-134.7683457779399
 30
0.0
 10
88.16877846103073
 20
-134.6202066720741
 30
0.0
 10
88.16877846103073
 20
-134.6202066720741
 30
0.0
 10
88.50088566580881
 20
-134.6053927614875
 30
0.0
 10
88.54739445485968
 20
-134.4424397450352
 30
0.0
 10
88.57702227603284
 20
-134.3280625749249
 30
0.0
 10
88.57702227603284
 20
-134.3280625749249
 30
0.0
 10
88.72309432460743
 20
-134.3280625749249
 30
0.0
 10
88.72309432460743
 20
-134.3280625749249
 30
0.0
 10
88.72309432460743
 20
-134.3280625749249
 30
0.0
 10
88.72309432460743
 20
-135.8724988809624
 30
0.0
 10
88.72309432460743
 20
-135.8724988809624
 30
0.0
 10
88.72309432460743
 20
-135.8724988809624
 30
0.0
 10
88.49881860851767
 20
-135.8724988809624
 30
0.0
 10
88.49881860851767
 20
-135.8724988809624
 30
0.0
  0
HATCH
  5
FE
330
F9
100
AcDbEntity
  8
_U+30EC_U+30A4_U+30E4_U+30FC 1
 62
   179
420
  2234388
100
AcDbHatch
 10
0.0
 20
0.0
 30
0.0
210
0.0
220
0.0
230
1.0
  2
SOLID
 70
     1
 71
     0
 91
        1
 92
        1
 93
        1
 72
     4
 94
        3
 73
     0
 74
     1
 95
       26
 96
       22
 40
0.0
 40
0.0
 40
0.0
 40
0.0
 40
1.0
 40
1.0
 40
1.0
 40
2.0
 40
2.0
 40
2.0
 40
3.0
 40
3.0
 40
3.0
 40
4.0
 40
4.0
 40
4.0
 40
5.0
 40
5.0
 40
5.0
 40
6.0
 40
6.0
 40
6.0
 40
7.0
 40
7.0
 40
7.0
 40
7.0
 10
88.49881860851767
 20
-135.8724988809624
 10
88.49881860851767
 20
-135.8724988809624
 10
88.49881860851767
 20
-134.7683457779399
 10
88.49881860851767
 20
-134.7683457779399
 10
88.49881860851767
 20
-134.7683457779399
 10
88.16877846103073
 20
-134.7683457779399
 10
88.16877846103073
 20
-134.7683457779399
 10
88.16877846103073
 20
-134.7683457779399
 10
88.16877846103073
 20
-134.6202066720741
 10
88.16877846103073
 20
-134.6202066720741
 10
88.50088566580881
 20
-134.6053927614875
 10
88.54739445485968
 20
-134.4424397450352
 10
88.57702227603284
 20
-134.3280625749249
 10
88.57702227603284
 20
-134.3280625749249
 10
88.72309432460743
 20
-134.3280625749249
 10
88.72309432460743
 20
-134.3280625749249
 10
88.72309432460743
 20
-134.3280625749249
 10
88.72309432460743
 20
-135.8724988809624
 10
88.72309432460743
 20
-135.8724988809624
 10
88.72309432460743
 20
-135.8724988809624
 10
88.49881860851767
 20
-135.8724988809624
 10
88.49881860851767
 20
-135.8724988809624
 97
        0
 97
        0
 75
     2
 76
     1
 98
        0
  0
SPLINE
  5
FF
330
F9
100
AcDbEntity
  8
_U+30EC_U+30A4_U+30E4_U+30FC 1
370
     0
100
AcDbSpline
210
0.0
220
0.0
230
1.0
 70
    11
 71
     3
 72
    62
 73
    58
 74
     0
 42
0.0000000001
 43
0.0000000001
 12
1.0
 22
0.0
 32
0.0
 13
1.0
 23
0.0
 33
0.0
 40
0.0
 40
0.0
 40
0.0
 40
0.0
 40
1.0
 40
1.0
 40
1.0
 40
2.0
 40
2.0
 40
2.0
 40
3.0
 40
3.0
 40
3.0
 40
4.0
 40
4.0
 40
4.0
 40
5.0
 40
5.0
 40
5.0
 40
6.0
 40
6.0
 40
6.0
 40
7.0
 40
7.0
 40
7.0
 40
8.0
 40
8.0
 40
8.0
 40
9.0
 40
9.0
 40
9.0
 40
10.0
 40
10.0
 40
10.0
 40
11.0
 40
11.0
 40
11.0
 40
12.0
 40
12.0
 40
12.0
 40
13.0
 40
13.0
 40
13.0
 40
14.0
 40
14.0
 40
14.0
 40
15.0
 40
15.0
 40
15.0
 40
16.0
 40
16.0
 40
16.0
 40
17.0
 40
17.0
 40
17.0
 40
18.0
 40
18.0
 40
18.0
 40
19.0
 40
19.0
 40
19.0
 40
19.0
 10
89.71579858868216
 20
-135.9231417845956
 30
0.0
 10
89.62071395328927
 20
-135.9231417845956
 30
0.0
 10
89.40281166384722
 20
-135.9021267021356
 30
0.0
 10
89.27792695250692
 20
-135.7160915459321
 30
0.0
 10
89.20385739957403
 20
-135.6037814331129
 30
0.0
 10
89.19972328499173
 20
-135.5045626831377
 30
0.0
 10
89.19541691563518
 20
-135.4198133342006
 30
0.0
 10
89.19541691563518
 20
-135.4198133342006
 30
0.0
 10
89.41538626236839
 20
-135.4198133342006
 30
0.0
 10
89.41538626236839
 20
-135.4198133342006
 30
0.0
 10
89.41762557443379
 20
-135.4938828871335
 30
0.0
 10
89.4281331156638
 20
-135.728493889679
 30
0.0
 10
89.71166447409986
 20
-135.728493889679
 30
0.0
 10
89.84912378396133
 20
-135.728493889679
 30
0.0
 10
90.00139700440938
 20
-135.658902960877
 30
0.0
 10
90.00139700440938
 20
-135.4304931302049
 30
0.0
 10
90.00139700440938
 20
-135.3140489028034
 30
0.0
 10
89.96332869929736
 20
-135.2654730564614
 30
0.0
 10
89.93163382083307
 20
-135.2337781779971
 30
0.0
 10
89.8575642679002
 20
-135.1597086250642
 30
0.0
 10
89.74129229527301
 20
-135.1469617717688
 30
0.0
 10
89.68617076750901
 20
-135.1469617717688
 30
0.0
 10
89.66722274234014
 20
-135.1469617717688
 30
0.0
 10
89.63122149451928
 20
-135.14902882906
 30
0.0
 10
89.60366073063729
 20
-135.1531629436423
 30
0.0
 10
89.60366073063729
 20
-135.1531629436423
 30
0.0
 10
89.60366073063729
 20
-134.9585150487256
 30
0.0
 10
89.60366073063729
 20
-134.9585150487256
 30
0.0
 10
89.6417290357493
 20
-134.9650607301476
 30
0.0
 10
89.68410371021787
 20
-134.9671277874388
 30
0.0
 10
89.69047713686558
 20
-134.9671277874388
 30
0.0
 10
89.7561062058596
 20
-134.9671277874388
 30
0.0
 10
89.95488821535851
 20
-134.9457681954302
 30
0.0
 10
89.95488821535851
 20
-134.7090901355936
 30
0.0
 10
89.95488821535851
 20
-134.5313232085547
 30
0.0
 10
89.82380233214475
 20
-134.4762016807907
 30
0.0
 10
89.71373153139102
 20
-134.4762016807907
 30
0.0
 10
89.44932045289809
 20
-134.4762016807907
 30
0.0
 10
89.44087996895922
 20
-134.7090901355936
 30
0.0
 10
89.43657359960267
 20
-134.7807481216868
 30
0.0
 10
89.43657359960267
 20
-134.7807481216868
 30
0.0
 10
89.23348522074718
 20
-134.7807481216868
 30
0.0
 10
89.23348522074718
 20
-134.7807481216868
 30
0.0
 10
89.24192570468605
 20
-134.6560356651207
 30
0.0
 10
89.26948646856805
 20
-134.2794867285829
 30
0.0
 10
89.72647838468644
 20
-134.2794867285829
 30
0.0
 10
89.95058184600194
 20
-134.2794867285829
 30
0.0
 10
90.19173852996943
 20
-134.4066107519886
 30
0.0
 10
90.19173852996943
 20
-134.7025444541716
 30
0.0
 10
90.19173852996943
 20
-134.8889241199236
 30
0.0
 10
90.09665389457653
 20
-134.9712619020211
 30
0.0
 10
89.99726288982708
 20
-135.0325846016585
 30
0.0
 10
90.05858558946453
 20
-135.0601453655405
 30
0.0
 10
90.24048663108572
 20
-135.1404160903469
 30
0.0
 10
90.24048663108572
 20
-135.4177462769095
 30
0.0
 10
90.24048663108572
 20
-135.756054653561
 30
0.0
 10
89.99295652047051
 20
-135.9231417845956
 30
0.0
 10
89.71579858868216
 20
-135.9231417845956
 30
0.0
  0
HATCH
  5
100
330
F9
100
AcDbEntity
  8
_U+30EC_U+30A4_U+30E4_U+30FC 1
 62
   179
420
  2234388
100
AcDbHatch
 10
0.0
 20
0.0
 30
0.0
210
0.0
220
0.0
230
1.0
  2
SOLID
 70
     1
 71
     0
 91
        1
 92
        1
 93
        1
 72
     4
 94
        3
 73
     0
 74
     1
 95
       62
 96
       58
 40
0.0
 40
0.0
 40
0.0
 40
0.0
 40
1.0
 40
1.0
 40
1.0
 40
2.0
 40
2.0
 40
2.0
 40
3.0
 40
3.0
 40
3.0
 40
4.0
 40
4.0
 40
4.0
 40
5.0
 40
5.0
 40
5.0
 40
6.0
 40
6.0
 40
6.0
 40
7.0
 40
7.0
 40
7.0
 40
8.0
 40
8.0
 40
8.0
 40
9.0
 40
9.0
 40
9.0
 40
10.0
 40
10.0
 40
10.0
 40
11.0
 40
11.0
 40
11.0
 40
12.0
 40
12.0
 40
12.0
 40
13.0
 40
13.0
 40
13.0
 40
14.0
 40
14.0
 40
14.0
 40
15.0
 40
15.0
 40
15.0
 40
16.0
 40
16.0
 40
16.0
 40
17.0
 40
17.0
 40
17.0
 40
18.0
 40
18.0
 40
18.0
 40
19.0
 40
19.0
 40
19.0
 40
19.0
 10
89.71579858868216
 20
-135.9231417845956
 10
89.62071395328927
 20
-135.9231417845956
 10
89.40281166384722
 20
-135.9021267021356
 10
89.27792695250692
 20
-135.7160915459321
 10
89.20385739957403
 20
-135.6037814331129
 10
89.19972328499173
 20
-135.5045626831377
 10
89.19541691563518
 20
-135.4198133342006
 10
89.19541691563518
 20
-135.4198133342006
 10
89.41538626236839
 20
-135.4198133342006
 10
89.41538626236839
 20
-135.4198133342006
 10
89.41762557443379
 20
-135.4938828871335
 10
89.4281331156638
 20
-135.728493889679
 10
89.71166447409986
 20
-135.728493889679
 10
89.84912378396133
 20
-135.728493889679
 10
90.00139700440938
 20
-135.658902960877
 10
90.00139700440938
 20
-135.4304931302049
 10
90.00139700440938
 20
-135.3140489028034
 10
89.96332869929736
 20
-135.2654730564614
 10
89.93163382083307
 20
-135.2337781779971
 10
89.8575642679002
 20
-135.1597086250642
 10
89.74129229527301
 20
-135.1469617717688
 10
89.68617076750901
 20
-135.1469617717688
 10
89.66722274234014
 20
-135.1469617717688
 10
89.63122149451928
 20
-135.14902882906
 10
89.60366073063729
 20
-135.1531629436423
 10
89.60366073063729
 20
-135.1531629436423
 10
89.60366073063729
 20
-134.9585150487256
 10
89.60366073063729
 20
-134.9585150487256
 10
89.6417290357493
 20
-134.9650607301476
 10
89.68410371021787
 20
-134.9671277874388
 10
89.69047713686558
 20
-134.9671277874388
 10
89.7561062058596
 20
-134.9671277874388
 10
89.95488821535851
 20
-134.9457681954302
 10
89.95488821535851
 20
-134.7090901355936
 10
89.95488821535851
 20
-134.5313232085547
 10
89.82380233214475
 20
-134.4762016807907
 10
89.71373153139102
 20
-134.4762016807907
 10
89.44932045289809
 20
-134.4762016807907
 10
89.44087996895922
 20
-134.7090901355936
 10
89.43657359960267
 20
-134.7807481216868
 10
89.43657359960267
 20
-134.7807481216868
 10
89.23348522074718
 20
-134.7807481216868
 10
89.23348522074718
 20
-134.7807481216868
 10
89.24192570468605
 20
-134.6560356651207
 10
89.26948646856805
 20
-134.2794867285829
 10
89.72647838468644
 20
-134.2794867285829
 10
89.95058184600194
 20
-134.2794867285829
 10
90.19173852996943
 20
-134.4066107519886
 10
90.19173852996943
 20
-134.7025444541716
 10
90.19173852996943
 20
-134.8889241199236
 10
90.09665389457653
 20
-134.9712619020211
 10
89.99726288982708
 20
-135.0325846016585
 10
90.05858558946453
 20
-135.0601453655405
 10
90.24048663108572
 20
-135.1404160903469
 10
90.24048663108572
 20
-135.4177462769095
 10
90.24048663108572
 20
-135.756054653561
 10
89.99295652047051
 20
-135.9231417845956
 10
89.71579858868216
 20
-135.9231417845956
 97
        0
 97
        0
 75
     2
 76
     1
 98
        0
  0
SPLINE
  5
101
330
F9
100
AcDbEntity
  8
_U+30EC_U+30A4_U+30E4_U+30FC 1
370
     0
100
AcDbSpline
210
0.0
220
0.0
230
1.0
 70
    11
 71
     3
 72
    29
 73
    25
 74
     0
 42
0.0000000001
 43
0.0000000001
 12
1.0
 22
0.0
 32
0.0
 13
1.0
 23
0.0
 33
0.0
 40
0.0
 40
0.0
 40
0.0
 40
0.0
 40
1.0
 40
1.0
 40
1.0
 40
2.0
 40
2.0
 40
2.0
 40
3.0
 40
3.0
 40
3.0
 40
4.0
 40
4.0
 40
4.0
 40
5.0
 40
5.0
 40
5.0
 40
6.0
 40
6.0
 40
6.0
 40
7.0
 40
7.0
 40
7.0
 40
8.0
 40
8.0
 40
8.0
 40
8.0
 10
91.29881996415446
 20
-135.6947319539235
 30
0.0
 10
91.19098847546614
 20
-135.9041937594267
 30
0.0
 10
91.01752791778382
 20
-135.9231417845956
 30
0.0
 10
90.90108369038238
 20
-135.9231417845956
 30
0.0
 10
90.74036998599547
 20
-135.9231417845956
 30
0.0
 10
90.59860430677743
 20
-135.8766329955447
 30
0.0
 10
90.50351967138454
 20
-135.6947319539235
 30
0.0
 10
90.39982229727852
 20
-135.5000840590069
 30
0.0
 10
90.38070201733538
 20
-135.2634059991703
 30
0.0
 10
90.38070201733538
 20
-135.1004529827179
 30
0.0
 10
90.38070201733538
 20
-134.9564479914345
 30
0.0
 10
90.3975829852131
 20
-134.7046115114627
 30
0.0
 10
90.50351967138454
 20
-134.5058295019638
 30
0.0
 10
90.61135116007286
 20
-134.3029133778826
 30
0.0
 10
90.77206486445976
 20
-134.2794867285829
 30
0.0
 10
90.90108369038238
 20
-134.2794867285829
 30
0.0
 10
91.05990259225239
 20
-134.2794867285829
 30
0.0
 10
91.20373532876157
 20
-134.3239284603426
 30
0.0
 10
91.29881996415446
 20
-134.5058295019638
 30
0.0
 10
91.39838322367818
 20
-134.6984103395893
 30
0.0
 10
91.42146536342936
 20
-134.9268201702614
 30
0.0
 10
91.42146536342936
 20
-135.1004529827179
 30
0.0
 10
91.42146536342936
 20
-135.2716742283349
 30
0.0
 10
91.40045028096934
 20
-135.5021511162981
 30
0.0
 10
91.29881996415446
 20
-135.6947319539235
 30
0.0
  0
SPLINE
  5
102
330
F9
100
AcDbEntity
  8
_U+30EC_U+30A4_U+30E4_U+30FC 1
370
     0
100
AcDbSpline
210
0.0
220
0.0
230
1.0
 70
    11
 71
     3
 72
    17
 73
    13
 74
     0
 42
0.0000000001
 43
0.0000000001
 12
1.0
 22
0.0
 32
0.0
 13
1.0
 23
0.0
 33
0.0
 40
0.0
 40
0.0
 40
0.0
 40
0.0
 40
1.0
 40
1.0
 40
1.0
 40
2.0
 40
2.0
 40
2.0
 40
3.0
 40
3.0
 40
3.0
 40
4.0
 40
4.0
 40
4.0
 40
4.0
 10
90.90108369038238
 20
-134.4720675662084
 30
0.0
 10
90.65148652247602
 20
-134.4720675662084
 30
0.0
 10
90.60497773342514
 20
-134.7555989246444
 30
0.0
 10
90.60497773342514
 20
-135.1004529827179
 30
0.0
 10
90.60497773342514
 20
-135.4198133342006
 30
0.0
 10
90.64097898124601
 20
-135.728493889679
 30
0.0
 10
90.90108369038238
 20
-135.728493889679
 30
0.0
 10
91.14861380099757
 20
-135.728493889679
 30
0.0
 10
91.19736190211385
 20
-135.4473740980826
 30
0.0
 10
91.19736190211385
 20
-135.1004529827179
 30
0.0
 10
91.19736190211385
 20
-134.7807481216868
 30
0.0
 10
91.15929359700185
 20
-134.4720675662084
 30
0.0
 10
90.90108369038238
 20
-134.4720675662084
 30
0.0
  0
HATCH
  5
103
330
F9
100
AcDbEntity
  8
_U+30EC_U+30A4_U+30E4_U+30FC 1
 62
   179
420
  2234388
100
AcDbHatch
 10
0.0
 20
0.0
 30
0.0
210
0.0
220
0.0
230
1.0
  2
SOLID
 70
     1
 71
     0
 91
        2
 92
        1
 93
        1
 72
     4
 94
        3
 73
     0
 74
     1
 95
       29
 96
       25
 40
0.0
 40
0.0
 40
0.0
 40
0.0
 40
1.0
 40
1.0
 40
1.0
 40
2.0
 40
2.0
 40
2.0
 40
3.0
 40
3.0
 40
3.0
 40
4.0
 40
4.0
 40
4.0
 40
5.0
 40
5.0
 40
5.0
 40
6.0
 40
6.0
 40
6.0
 40
7.0
 40
7.0
 40
7.0
 40
8.0
 40
8.0
 40
8.0
 40
8.0
 10
91.29881996415446
 20
-135.6947319539235
 10
91.19098847546614
 20
-135.9041937594267
 10
91.01752791778382
 20
-135.9231417845956
 10
90.90108369038238
 20
-135.9231417845956
 10
90.74036998599547
 20
-135.9231417845956
 10
90.59860430677743
 20
-135.8766329955447
 10
90.50351967138454
 20
-135.6947319539235
 10
90.39982229727852
 20
-135.5000840590069
 10
90.38070201733538
 20
-135.2634059991703
 10
90.38070201733538
 20
-135.1004529827179
 10
90.38070201733538
 20
-134.9564479914345
 10
90.3975829852131
 20
-134.7046115114627
 10
90.50351967138454
 20
-134.5058295019638
 10
90.61135116007286
 20
-134.3029133778826
 10
90.77206486445976
 20
-134.2794867285829
 10
90.90108369038238
 20
-134.2794867285829
 10
91.05990259225239
 20
-134.2794867285829
 10
91.20373532876157
 20
-134.3239284603426
 10
91.29881996415446
 20
-134.5058295019638
 10
91.39838322367818
 20
-134.6984103395893
 10
91.42146536342936
 20
-134.9268201702614
 10
91.42146536342936
 20
-135.1004529827179
 10
91.42146536342936
 20
-135.2716742283349
 10
91.40045028096934
 20
-135.5021511162981
 10
91.29881996415446
 20
-135.6947319539235
 97
        0
 97
        0
 92
        1
 93
        1
 72
     4
 94
        3
 73
     0
 74
     1
 95
       17
 96
       13
 40
0.0
 40
0.0
 40
0.0
 40
0.0
 40
1.0
 40
1.0
 40
1.0
 40
2.0
 40
2.0
 40
2.0
 40
3.0
 40
3.0
 40
3.0
 40
4.0
 40
4.0
 40
4.0
 40
4.0
 10
90.90108369038238
 20
-134.4720675662084
 10
90.65148652247602
 20
-134.4720675662084
 10
90.60497773342514
 20
-134.7555989246444
 10
90.60497773342514
 20
-135.1004529827179
 10
90.60497773342514
 20
-135.4198133342006
 10
90.64097898124601
 20
-135.728493889679
 10
90.90108369038238
 20
-135.728493889679
 10
91.14861380099757
 20
-135.728493889679
 10
91.19736190211385
 20
-135.4473740980826
 10
91.19736190211385
 20
-135.1004529827179
 10
91.19736190211385
 20
-134.7807481216868
 10
91.15929359700185
 20
-134.4720675662084
 10
90.90108369038238
 20
-134.4720675662084
 97
        0
 97
        0
 75
     2
 76
     1
 98
        0
  0
ENDBLK
  5
FC
330
F9
100
AcDbEntity
  8
0
100
AcDbBlockEnd
  0
BLOCK
  5
106
330
104
100
AcDbEntity
  8
0
100
AcDbBlockBegin
  2
block 7
 70
     0
 10
0.0
 20
0.0
 30
0.0
  3
block 7
  1

  0
SPLINE
  5
108
330
104
100
AcDbEntity
  8
_U+30EC_U+30A4_U+30E4_U+30FC 1
370
     0
100
AcDbSpline
210
0.0
220
0.0
230
1.0
 70
    11
 71
     3
 72
    26
 73
    22
 74
     0
 42
0.0000000001
 43
0.0000000001
 12
1.0
 22
0.0
 32
0.0
 13
1.0
 23
0.0
 33
0.0
 40
0.0
 40
0.0
 40
0.0
 40
0.0
 40
1.0
 40
1.0
 40
1.0
 40
2.0
 40
2.0
 40
2.0
 40
3.0
 40
3.0
 40
3.0
 40
4.0
 40
4.0
 40
4.0
 40
5.0
 40
5.0
 40
5.0
 40
6.0
 40
6.0
 40
6.0
 40
7.0
 40
7.0
 40
7.0
 40
7.0
 10
94.17271861794988
 20
-139.0771267013418
 30
0.0
 10
94.17271861794988
 20
-139.0771267013418
 30
0.0
 10
94.17271861794988
 20
-137.9729735983193
 30
0.0
 10
94.17271861794988
 20
-137.9729735983193
 30
0.0
 10
94.17271861794988
 20
-137.9729735983193
 30
0.0
 10
93.84267847046294
 20
-137.9729735983193
 30
0.0
 10
93.84267847046294
 20
-137.9729735983193
 30
0.0
 10
93.84267847046294
 20
-137.9729735983193
 30
0.0
 10
93.84267847046294
 20
-137.8248344924535
 30
0.0
 10
93.84267847046294
 20
-137.8248344924535
 30
0.0
 10
94.17478567524103
 20
-137.810020581867
 30
0.0
 10
94.2212944642919
 20
-137.6470675654146
 30
0.0
 10
94.25092228546505
 20
-137.5326903953043
 30
0.0
 10
94.25092228546505
 20
-137.5326903953043
 30
0.0
 10
94.39699433403965
 20
-137.5326903953043
 30
0.0
 10
94.39699433403965
 20
-137.5326903953043
 30
0.0
 10
94.39699433403965
 20
-137.5326903953043
 30
0.0
 10
94.39699433403965
 20
-139.0771267013418
 30
0.0
 10
94.39699433403965
 20
-139.0771267013418
 30
0.0
 10
94.39699433403965
 20
-139.0771267013418
 30
0.0
 10
94.17271861794988
 20
-139.0771267013418
 30
0.0
 10
94.17271861794988
 20
-139.0771267013418
 30
0.0
  0
HATCH
  5
109
330
104
100
AcDbEntity
  8
_U+30EC_U+30A4_U+30E4_U+30FC 1
 62
   179
420
  2234388
100
AcDbHatch
 10
0.0
 20
0.0
 30
0.0
210
0.0
220
0.0
230
1.0
  2
SOLID
 70
     1
 71
     0
 91
        1
 92
        1
 93
        1
 72
     4
 94
        3
 73
     0
 74
     1
 95
       26
 96
       22
 40
0.0
 40
0.0
 40
0.0
 40
0.0
 40
1.0
 40
1.0
 40
1.0
 40
2.0
 40
2.0
 40
2.0
 40
3.0
 40
3.0
 40
3.0
 40
4.0
 40
4.0
 40
4.0
 40
5.0
 40
5.0
 40
5.0
 40
6.0
 40
6.0
 40
6.0
 40
7.0
 40
7.0
 40
7.0
 40
7.0
 10
94.17271861794988
 20
-139.0771267013418
 10
94.17271861794988
 20
-139.0771267013418
 10
94.17271861794988
 20
-137.9729735983193
 10
94.17271861794988
 20
-137.9729735983193
 10
94.17271861794988
 20
-137.9729735983193
 10
93.84267847046294
 20
-137.9729735983193
 10
93.84267847046294
 20
-137.9729735983193
 10
93.84267847046294
 20
-137.9729735983193
 10
93.84267847046294
 20
-137.8248344924535
 10
93.84267847046294
 20
-137.8248344924535
 10
94.17478567524103
 20
-137.810020581867
 10
94.2212944642919
 20
-137.6470675654146
 10
94.25092228546505
 20
-137.5326903953043
 10
94.25092228546505
 20
-137.5326903953043
 10
94.39699433403965
 20
-137.5326903953043
 10
94.39699433403965
 20
-137.5326903953043
 10
94.39699433403965
 20
-137.5326903953043
 10
94.39699433403965
 20
-139.0771267013418
 10
94.39699433403965
 20
-139.0771267013418
 10
94.39699433403965
 20
-139.0771267013418
 10
94.17271861794988
 20
-139.0771267013418
 10
94.17271861794988
 20
-139.0771267013418
 97
        0
 97
        0
 75
     2
 76
     1
 98
        0
  0
SPLINE
  5
10A
330
104
100
AcDbEntity
  8
_U+30EC_U+30A4_U+30E4_U+30FC 1
370
     0
100
AcDbSpline
210
0.0
220
0.0
230
1.0
 70
    11
 71
     3
 72
    53
 73
    49
 74
     0
 42
0.0000000001
 43
0.0000000001
 12
1.0
 22
0.0
 32
0.0
 13
1.0
 23
0.0
 33
0.0
 40
0.0
 40
0.0
 40
0.0
 40
0.0
 40
1.0
 40
1.0
 40
1.0
 40
2.0
 40
2.0
 40
2.0
 40
3.0
 40
3.0
 40
3.0
 40
4.0
 40
4.0
 40
4.0
 40
5.0
 40
5.0
 40
5.0
 40
6.0
 40
6.0
 40
6.0
 40
7.0
 40
7.0
 40
7.0
 40
8.0
 40
8.0
 40
8.0
 40
9.0
 40
9.0
 40
9.0
 40
10.0
 40
10.0
 40
10.0
 40
11.0
 40
11.0
 40
11.0
 40
12.0
 40
12.0
 40
12.0
 40
13.0
 40
13.0
 40
13.0
 40
14.0
 40
14.0
 40
14.0
 40
15.0
 40
15.0
 40
15.0
 40
16.0
 40
16.0
 40
16.0
 40
16.0
 10
95.37919105688437
 20
-139.127769604975
 30
0.0
 10
95.3009873893692
 20
-139.127769604975
 30
0.0
 10
95.19935707255433
 20
-139.1108886370973
 30
0.0
 10
95.09772675573946
 20
-139.0474988801687
 30
0.0
 10
94.9244384528314
 20
-138.9376003341892
 30
0.0
 10
94.90307886082284
 20
-138.8063421962012
 30
0.0
 10
94.88413083565398
 20
-138.6985107075129
 30
0.0
 10
94.88413083565398
 20
-138.6985107075129
 30
0.0
 10
95.10633949445258
 20
-138.6985107075129
 30
0.0
 10
95.10633949445258
 20
-138.6985107075129
 30
0.0
 10
95.16111651266806
 20
-138.8972927170118
 30
0.0
 10
95.28824053607377
 20
-138.9269205381849
 30
0.0
 10
95.38125811417552
 20
-138.9269205381849
 30
0.0
 10
95.52078448132814
 20
-138.9269205381849
 30
0.0
 10
95.67305770177619
 20
-138.8273572786612
 30
0.0
 10
95.67305770177619
 20
-138.5948133334068
 30
0.0
 10
95.67305770177619
 20
-138.3388427388528
 30
0.0
 10
95.49322371744614
 20
-138.2689073005022
 30
0.0
 10
95.3726453754624
 20
-138.2689073005022
 30
0.0
 10
95.3409504969981
 20
-138.2689073005022
 30
0.0
 10
95.19935707255433
 20
-138.2689073005022
 30
0.0
 10
95.11047360903488
 20
-138.3980983811991
 30
0.0
 10
95.11047360903488
 20
-138.3980983811991
 30
0.0
 10
94.93477373928714
 20
-138.3791503560302
 30
0.0
 10
94.93477373928714
 20
-138.3791503560302
 30
0.0
 10
94.93477373928714
 20
-138.3791503560302
 30
0.0
 10
95.05535208127088
 20
-137.5326903953043
 30
0.0
 10
95.05535208127088
 20
-137.5326903953043
 30
0.0
 10
95.05535208127088
 20
-137.5326903953043
 30
0.0
 10
95.83394366093735
 20
-137.5326903953043
 30
0.0
 10
95.83394366093735
 20
-137.5326903953043
 30
0.0
 10
95.83394366093735
 20
-137.5326903953043
 30
0.0
 10
95.83394366093735
 20
-137.727338290221
 30
0.0
 10
95.83394366093735
 20
-137.727338290221
 30
0.0
 10
95.83394366093735
 20
-137.727338290221
 30
0.0
 10
95.2183050977232
 20
-137.727338290221
 30
0.0
 10
95.2183050977232
 20
-137.727338290221
 30
0.0
 10
95.2183050977232
 20
-137.727338290221
 30
0.0
 10
95.15284828350346
 20
-138.1503960158096
 30
0.0
 10
95.15284828350346
 20
-138.1503960158096
 30
0.0
 10
95.2141709831409
 20
-138.1166340800542
 30
0.0
 10
95.29650876523837
 20
-138.0763264628768
 30
0.0
 10
95.41502004993097
 20
-138.0763264628768
 30
0.0
 10
95.66892358719389
 20
-138.0763264628768
 30
0.0
 10
95.90594615657908
 20
-138.2627061286288
 30
0.0
 10
95.90594615657908
 20
-138.575865308238
 30
0.0
 10
95.90594615657908
 20
-138.8931586024295
 30
0.0
 10
95.68167044048931
 20
-139.127769604975
 30
0.0
 10
95.37919105688437
 20
-139.127769604975
 30
0.0
  0
HATCH
  5
10B
330
104
100
AcDbEntity
  8
_U+30EC_U+30A4_U+30E4_U+30FC 1
 62
   179
420
  2234388
100
AcDbHatch
 10
0.0
 20
0.0
 30
0.0
210
0.0
220
0.0
230
1.0
  2
SOLID
 70
     1
 71
     0
 91
        1
 92
        1
 93
        1
 72
     4
 94
        3
 73
     0
 74
     1
 95
       53
 96
       49
 40
0.0
 40
0.0
 40
0.0
 40
0.0
 40
1.0
 40
1.0
 40
1.0
 40
2.0
 40
2.0
 40
2.0
 40
3.0
 40
3.0
 40
3.0
 40
4.0
 40
4.0
 40
4.0
 40
5.0
 40
5.0
 40
5.0
 40
6.0
 40
6.0
 40
6.0
 40
7.0
 40
7.0
 40
7.0
 40
8.0
 40
8.0
 40
8.0
 40
9.0
 40
9.0
 40
9.0
 40
10.0
 40
10.0
 40
10.0
 40
11.0
 40
11.0
 40
11.0
 40
12.0
 40
12.0
 40
12.0
 40
13.0
 40
13.0
 40
13.0
 40
14.0
 40
14.0
 40
14.0
 40
15.0
 40
15.0
 40
15.0
 40
16.0
 40
16.0
 40
16.0
 40
16.0
 10
95.37919105688437
 20
-139.127769604975
 10
95.3009873893692
 20
-139.127769604975
 10
95.19935707255433
 20
-139.1108886370973
 10
95.09772675573946
 20
-139.0474988801687
 10
94.9244384528314
 20
-138.9376003341892
 10
94.90307886082284
 20
-138.8063421962012
 10
94.88413083565398
 20
-138.6985107075129
 10
94.88413083565398
 20
-138.6985107075129
 10
95.10633949445258
 20
-138.6985107075129
 10
95.10633949445258
 20
-138.6985107075129
 10
95.16111651266806
 20
-138.8972927170118
 10
95.28824053607377
 20
-138.9269205381849
 10
95.38125811417552
 20
-138.9269205381849
 10
95.52078448132814
 20
-138.9269205381849
 10
95.67305770177619
 20
-138.8273572786612
 10
95.67305770177619
 20
-138.5948133334068
 10
95.67305770177619
 20
-138.3388427388528
 10
95.49322371744614
 20
-138.2689073005022
 10
95.3726453754624
 20
-138.2689073005022
 10
95.3409504969981
 20
-138.2689073005022
 10
95.19935707255433
 20
-138.2689073005022
 10
95.11047360903488
 20
-138.3980983811991
 10
95.11047360903488
 20
-138.3980983811991
 10
94.93477373928714
 20
-138.3791503560302
 10
94.93477373928714
 20
-138.3791503560302
 10
94.93477373928714
 20
-138.3791503560302
 10
95.05535208127088
 20
-137.5326903953043
 10
95.05535208127088
 20
-137.5326903953043
 10
95.05535208127088
 20
-137.5326903953043
 10
95.83394366093735
 20
-137.5326903953043
 10
95.83394366093735
 20
-137.5326903953043
 10
95.83394366093735
 20
-137.5326903953043
 10
95.83394366093735
 20
-137.727338290221
 10
95.83394366093735
 20
-137.727338290221
 10
95.83394366093735
 20
-137.727338290221
 10
95.2183050977232
 20
-137.727338290221
 10
95.2183050977232
 20
-137.727338290221
 10
95.2183050977232
 20
-137.727338290221
 10
95.15284828350346
 20
-138.1503960158096
 10
95.15284828350346
 20
-138.1503960158096
 10
95.2141709831409
 20
-138.1166340800542
 10
95.29650876523837
 20
-138.0763264628768
 10
95.41502004993097
 20
-138.0763264628768
 10
95.66892358719389
 20
-138.0763264628768
 10
95.90594615657908
 20
-138.2627061286288
 10
95.90594615657908
 20
-138.575865308238
 10
95.90594615657908
 20
-138.8931586024295
 10
95.68167044048931
 20
-139.127769604975
 10
95.37919105688437
 20
-139.127769604975
 97
        0
 97
        0
 75
     2
 76
     1
 98
        0
  0
SPLINE
  5
10C
330
104
100
AcDbEntity
  8
_U+30EC_U+30A4_U+30E4_U+30FC 1
370
     0
100
AcDbSpline
210
0.0
220
0.0
230
1.0
 70
    11
 71
     3
 72
    32
 73
    28
 74
     0
 42
0.0000000001
 43
0.0000000001
 12
1.0
 22
0.0
 32
0.0
 13
1.0
 23
0.0
 33
0.0
 40
0.0
 40
0.0
 40
0.0
 40
0.0
 40
1.0
 40
1.0
 40
1.0
 40
2.0
 40
2.0
 40
2.0
 40
3.0
 40
3.0
 40
3.0
 40
4.0
 40
4.0
 40
4.0
 40
5.0
 40
5.0
 40
5.0
 40
6.0
 40
6.0
 40
6.0
 40
7.0
 40
7.0
 40
7.0
 40
8.0
 40
8.0
 40
8.0
 40
9.0
 40
9.0
 40
9.0
 40
9.0
 10
96.5791178143969
 20
-139.127769604975
 30
0.0
 10
96.06304251070647
 20
-139.127769604975
 30
0.0
 10
96.05477428154187
 20
-138.5737982509468
 30
0.0
 10
96.05477428154187
 20
-138.3598578213128
 30
0.0
 10
96.05477428154187
 20
-138.1293809333496
 30
0.0
 10
96.07372230671074
 20
-137.4820474916712
 30
0.0
 10
96.61735837428317
 20
-137.4820474916712
 30
0.0
 10
96.79099118673976
 20
-137.4820474916712
 30
0.0
 10
97.03628198528955
 20
-137.5519829300217
 30
0.0
 10
97.0741780356273
 20
-137.8840901347998
 30
0.0
 10
97.0741780356273
 20
-137.8840901347998
 30
0.0
 10
96.8605821155418
 20
-137.8840901347998
 30
0.0
 10
96.8605821155418
 20
-137.8840901347998
 30
0.0
 10
96.84990231953753
 20
-137.8269015497447
 30
0.0
 10
96.81820744107323
 20
-137.6787624438789
 30
0.0
 10
96.61529131699201
 20
-137.6787624438789
 30
0.0
 10
96.32314721984282
 20
-137.6787624438789
 30
0.0
 10
96.28318411221393
 20
-138.0067355340747
 30
0.0
 10
96.2704372589185
 20
-138.2117187154471
 30
0.0
 10
96.36345483702026
 20
-138.1335150479319
 30
0.0
 10
96.43132321807967
 20
-138.0742594055856
 30
0.0
 10
96.61322425970087
 20
-138.0742594055856
 30
0.0
 10
96.7930582440309
 20
-138.0742594055856
 30
0.0
 10
97.09553762763585
 20
-138.1824354038225
 30
0.0
 10
97.09553762763585
 20
-138.5886121615334
 30
0.0
 10
97.09553762763585
 20
-138.9079725130161
 30
0.0
 10
96.89675561813692
 20
-139.127769604975
 30
0.0
 10
96.5791178143969
 20
-139.127769604975
 30
0.0
  0
SPLINE
  5
10D
330
104
100
AcDbEntity
  8
_U+30EC_U+30A4_U+30E4_U+30FC 1
370
     0
100
AcDbSpline
210
0.0
220
0.0
230
1.0
 70
    11
 71
     3
 72
    17
 73
    13
 74
     0
 42
0.0000000001
 43
0.0000000001
 12
1.0
 22
0.0
 32
0.0
 13
1.0
 23
0.0
 33
0.0
 40
0.0
 40
0.0
 40
0.0
 40
0.0
 40
1.0
 40
1.0
 40
1.0
 40
2.0
 40
2.0
 40
2.0
 40
3.0
 40
3.0
 40
3.0
 40
4.0
 40
4.0
 40
4.0
 40
4.0
 10
96.59634329182315
 20
-138.2689073005022
 30
0.0
 10
96.3338270158471
 20
-138.2689073005022
 30
0.0
 10
96.29593096550936
 20
-138.4804361632966
 30
0.0
 10
96.29593096550936
 20
-138.596880390698
 30
0.0
 10
96.29593096550936
 20
-138.7725802604457
 30
0.0
 10
96.39101560090225
 20
-138.9355332768981
 30
0.0
 10
96.5749836998146
 20
-138.9355332768981
 30
0.0
 10
96.69556204179834
 20
-138.9355332768981
 30
0.0
 10
96.87126191154607
 20
-138.8762776345518
 30
0.0
 10
96.87126191154607
 20
-138.5906792188246
 30
0.0
 10
96.87126191154607
 20
-138.3664035027348
 30
0.0
 10
96.73173554439346
 20
-138.2689073005022
 30
0.0
 10
96.59634329182315
 20
-138.2689073005022
 30
0.0
  0
HATCH
  5
10E
330
104
100
AcDbEntity
  8
_U+30EC_U+30A4_U+30E4_U+30FC 1
 62
   179
420
  2234388
100
AcDbHatch
 10
0.0
 20
0.0
 30
0.0
210
0.0
220
0.0
230
1.0
  2
SOLID
 70
     1
 71
     0
 91
        2
 92
        1
 93
        1
 72
     4
 94
        3
 73
     0
 74
     1
 95
       32
 96
       28
 40
0.0
 40
0.0
 40
0.0
 40
0.0
 40
1.0
 40
1.0
 40
1.0
 40
2.0
 40
2.0
 40
2.0
 40
3.0
 40
3.0
 40
3.0
 40
4.0
 40
4.0
 40
4.0
 40
5.0
 40
5.0
 40
5.0
 40
6.0
 40
6.0
 40
6.0
 40
7.0
 40
7.0
 40
7.0
 40
8.0
 40
8.0
 40
8.0
 40
9.0
 40
9.0
 40
9.0
 40
9.0
 10
96.5791178143969
 20
-139.127769604975
 10
96.06304251070647
 20
-139.127769604975
 10
96.05477428154187
 20
-138.5737982509468
 10
96.05477428154187
 20
-138.3598578213128
 10
96.05477428154187
 20
-138.1293809333496
 10
96.07372230671074
 20
-137.4820474916712
 10
96.61735837428317
 20
-137.4820474916712
 10
96.79099118673976
 20
-137.4820474916712
 10
97.03628198528955
 20
-137.5519829300217
 10
97.0741780356273
 20
-137.8840901347998
 10
97.0741780356273
 20
-137.8840901347998
 10
96.8605821155418
 20
-137.8840901347998
 10
96.8605821155418
 20
-137.8840901347998
 10
96.84990231953753
 20
-137.8269015497447
 10
96.81820744107323
 20
-137.6787624438789
 10
96.61529131699201
 20
-137.6787624438789
 10
96.32314721984282
 20
-137.6787624438789
 10
96.28318411221393
 20
-138.0067355340747
 10
96.2704372589185
 20
-138.2117187154471
 10
96.36345483702026
 20
-138.1335150479319
 10
96.43132321807967
 20
-138.0742594055856
 10
96.61322425970087
 20
-138.0742594055856
 10
96.7930582440309
 20
-138.0742594055856
 10
97.09553762763585
 20
-138.1824354038225
 10
97.09553762763585
 20
-138.5886121615334
 10
97.09553762763585
 20
-138.9079725130161
 10
96.89675561813692
 20
-139.127769604975
 10
96.5791178143969
 20
-139.127769604975
 97
        0
 97
        0
 92
        1
 93
        1
 72
     4
 94
        3
 73
     0
 74
     1
 95
       17
 96
       13
 40
0.0
 40
0.0
 40
0.0
 40
0.0
 40
1.0
 40
1.0
 40
1.0
 40
2.0
 40
2.0
 40
2.0
 40
3.0
 40
3.0
 40
3.0
 40
4.0
 40
4.0
 40
4.0
 40
4.0
 10
96.59634329182315
 20
-138.2689073005022
 10
96.3338270158471
 20
-138.2689073005022
 10
96.29593096550936
 20
-138.4804361632966
 10
96.29593096550936
 20
-138.596880390698
 10
96.29593096550936
 20
-138.7725802604457
 10
96.39101560090225
 20
-138.9355332768981
 10
96.5749836998146
 20
-138.9355332768981
 10
96.69556204179834
 20
-138.9355332768981
 10
96.87126191154607
 20
-138.8762776345518
 10
96.87126191154607
 20
-138.5906792188246
 10
96.87126191154607
 20
-138.3664035027348
 10
96.73173554439346
 20
-138.2689073005022
 10
96.59634329182315
 20
-138.2689073005022
 97
        0
 97
        0
 75
     2
 76
     1
 98
        0
  0
ENDBLK
  5
107
330
104
100
AcDbEntity
  8
0
100
AcDbBlockEnd
  0
BLOCK
  5
111
330
10F
100
AcDbEntity
  8
0
100
AcDbBlockBegin
  2
block 8
 70
     0
 10
0.0
 20
0.0
 30
0.0
  3
block 8
  1

  0
SPLINE
  5
113
330
10F
100
AcDbEntity
  8
_U+30EC_U+30A4_U+30E4_U+30FC 1
370
     0
100
AcDbSpline
210
0.0
220
0.0
230
1.0
 70
    11
 71
     3
 72
    44
 73
    40
 74
     0
 42
0.0000000001
 43
0.0000000001
 12
1.0
 22
0.0
 32
0.0
 13
1.0
 23
0.0
 33
0.0
 40
0.0
 40
0.0
 40
0.0
 40
0.0
 40
1.0
 40
1.0
 40
1.0
 40
2.0
 40
2.0
 40
2.0
 40
3.0
 40
3.0
 40
3.0
 40
4.0
 40
4.0
 40
4.0
 40
5.0
 40
5.0
 40
5.0
 40
6.0
 40
6.0
 40
6.0
 40
7.0
 40
7.0
 40
7.0
 40
8.0
 40
8.0
 40
8.0
 40
9.0
 40
9.0
 40
9.0
 40
10.0
 40
10.0
 40
10.0
 40
11.0
 40
11.0
 40
11.0
 40
12.0
 40
12.0
 40
12.0
 40
13.0
 40
13.0
 40
13.0
 40
13.0
 10
82.05528426768063
 20
-131.7042778533587
 30
0.0
 10
81.83738197823857
 20
-131.8630967552287
 30
0.0
 10
81.74419214536256
 20
-131.9371663081616
 30
0.0
 10
81.69561629902054
 20
-132.0808267898965
 30
0.0
 10
81.69561629902054
 20
-132.0808267898965
 30
0.0
 10
82.47403562391274
 20
-132.0808267898965
 30
0.0
 10
82.47403562391274
 20
-132.0808267898965
 30
0.0
 10
82.47403562391274
 20
-132.0808267898965
 30
0.0
 10
82.47403562391274
 20
-132.2861544808173
 30
0.0
 10
82.47403562391274
 20
-132.2861544808173
 30
0.0
 10
82.47403562391274
 20
-132.2861544808173
 30
0.0
 10
81.4460191311142
 20
-132.2861544808173
 30
0.0
 10
81.4460191311142
 20
-132.2861544808173
 30
0.0
 10
81.47771400957849
 20
-131.9285535694484
 30
0.0
 10
81.5433430785725
 20
-131.8503499019332
 30
0.0
 10
81.92833249904918
 20
-131.5520046329106
 30
0.0
 10
82.18430309360323
 20
-131.3532226234117
 30
0.0
 10
82.24975990782298
 20
-131.2853542423523
 30
0.0
 10
82.24975990782298
 20
-131.1478949324908
 30
0.0
 10
82.24975990782298
 20
-131.0293836477982
 30
0.0
 10
82.17792966695552
 20
-130.8984700193587
 30
0.0
 10
81.98121471474775
 20
-130.8984700193587
 30
0.0
 10
81.72093775083712
 20
-130.8984700193587
 30
0.0
 10
81.71249726689827
 20
-131.1289469073219
 30
0.0
 10
81.70819089754171
 20
-131.2453911347234
 30
0.0
 10
81.70819089754171
 20
-131.2453911347234
 30
0.0
 10
81.4840874362262
 20
-131.2453911347234
 30
0.0
 10
81.4840874362262
 20
-131.2453911347234
 30
0.0
 10
81.49252792016506
 20
-131.1182671113177
 30
0.0
 10
81.50303546139507
 20
-131.006301508047
 30
0.0
 10
81.58347844097567
 20
-130.8877902233544
 30
0.0
 10
81.69337698695513
 20
-130.7269042641933
 30
0.0
 10
81.87958439793289
 20
-130.6931423284378
 30
0.0
 10
81.99602862533433
 20
-130.6931423284378
 30
0.0
 10
82.27318655712268
 20
-130.6931423284378
 30
0.0
 10
82.48040905056045
 20
-130.8771104273502
 30
0.0
 10
82.48040905056045
 20
-131.149961989782
 30
0.0
 10
82.48040905056045
 20
-131.3787163300026
 30
0.0
 10
82.36413707793328
 20
-131.4779350799778
 30
0.0
 10
82.05528426768063
 20
-131.7042778533587
 30
0.0
  0
HATCH
  5
114
330
10F
100
AcDbEntity
  8
_U+30EC_U+30A4_U+30E4_U+30FC 1
 62
   179
420
  2234388
100
AcDbHatch
 10
0.0
 20
0.0
 30
0.0
210
0.0
220
0.0
230
1.0
  2
SOLID
 70
     1
 71
     0
 91
        1
 92
        1
 93
        1
 72
     4
 94
        3
 73
     0
 74
     1
 95
       44
 96
       40
 40
0.0
 40
0.0
 40
0.0
 40
0.0
 40
1.0
 40
1.0
 40
1.0
 40
2.0
 40
2.0
 40
2.0
 40
3.0
 40
3.0
 40
3.0
 40
4.0
 40
4.0
 40
4.0
 40
5.0
 40
5.0
 40
5.0
 40
6.0
 40
6.0
 40
6.0
 40
7.0
 40
7.0
 40
7.0
 40
8.0
 40
8.0
 40
8.0
 40
9.0
 40
9.0
 40
9.0
 40
10.0
 40
10.0
 40
10.0
 40
11.0
 40
11.0
 40
11.0
 40
12.0
 40
12.0
 40
12.0
 40
13.0
 40
13.0
 40
13.0
 40
13.0
 10
82.05528426768063
 20
-131.7042778533587
 10
81.83738197823857
 20
-131.8630967552287
 10
81.74419214536256
 20
-131.9371663081616
 10
81.69561629902054
 20
-132.0808267898965
 10
81.69561629902054
 20
-132.0808267898965
 10
82.47403562391274
 20
-132.0808267898965
 10
82.47403562391274
 20
-132.0808267898965
 10
82.47403562391274
 20
-132.0808267898965
 10
82.47403562391274
 20
-132.2861544808173
 10
82.47403562391274
 20
-132.2861544808173
 10
82.47403562391274
 20
-132.2861544808173
 10
81.4460191311142
 20
-132.2861544808173
 10
81.4460191311142
 20
-132.2861544808173
 10
81.47771400957849
 20
-131.9285535694484
 10
81.5433430785725
 20
-131.8503499019332
 10
81.92833249904918
 20
-131.5520046329106
 10
82.18430309360323
 20
-131.3532226234117
 10
82.24975990782298
 20
-131.2853542423523
 10
82.24975990782298
 20
-131.1478949324908
 10
82.24975990782298
 20
-131.0293836477982
 10
82.17792966695552
 20
-130.8984700193587
 10
81.98121471474775
 20
-130.8984700193587
 10
81.72093775083712
 20
-130.8984700193587
 10
81.71249726689827
 20
-131.1289469073219
 10
81.70819089754171
 20
-131.2453911347234
 10
81.70819089754171
 20
-131.2453911347234
 10
81.4840874362262
 20
-131.2453911347234
 10
81.4840874362262
 20
-131.2453911347234
 10
81.49252792016506
 20
-131.1182671113177
 10
81.50303546139507
 20
-131.006301508047
 10
81.58347844097567
 20
-130.8877902233544
 10
81.69337698695513
 20
-130.7269042641933
 10
81.87958439793289
 20
-130.6931423284378
 10
81.99602862533433
 20
-130.6931423284378
 10
82.27318655712268
 20
-130.6931423284378
 10
82.48040905056045
 20
-130.8771104273502
 10
82.48040905056045
 20
-131.149961989782
 10
82.48040905056045
 20
-131.3787163300026
 10
82.36413707793328
 20
-131.4779350799778
 10
82.05528426768063
 20
-131.7042778533587
 97
        0
 97
        0
 75
     2
 76
     1
 98
        0
  0
SPLINE
  5
115
330
10F
100
AcDbEntity
  8
_U+30EC_U+30A4_U+30E4_U+30FC 1
370
     0
100
AcDbSpline
210
0.0
220
0.0
230
1.0
 70
    11
 71
     3
 72
    32
 73
    28
 74
     0
 42
0.0000000001
 43
0.0000000001
 12
1.0
 22
0.0
 32
0.0
 13
1.0
 23
0.0
 33
0.0
 40
0.0
 40
0.0
 40
0.0
 40
0.0
 40
1.0
 40
1.0
 40
1.0
 40
2.0
 40
2.0
 40
2.0
 40
3.0
 40
3.0
 40
3.0
 40
4.0
 40
4.0
 40
4.0
 40
5.0
 40
5.0
 40
5.0
 40
6.0
 40
6.0
 40
6.0
 40
7.0
 40
7.0
 40
7.0
 40
8.0
 40
8.0
 40
8.0
 40
9.0
 40
9.0
 40
9.0
 40
9.0
 10
83.14324542192253
 20
-132.3367973844505
 30
0.0
 10
82.62699786345783
 20
-132.3367973844505
 30
0.0
 10
82.61855737951898
 20
-131.7828260304223
 30
0.0
 10
82.61855737951898
 20
-131.5688856007883
 30
0.0
 10
82.61855737951898
 20
-131.3384087128251
 30
0.0
 10
82.63767765946211
 20
-130.6910752711467
 30
0.0
 10
83.18131372703454
 20
-130.6910752711467
 30
0.0
 10
83.35477428471687
 20
-130.6910752711467
 30
0.0
 10
83.60023733804091
 20
-130.7610107094972
 30
0.0
 10
83.63830564315293
 20
-131.0931179142753
 30
0.0
 10
83.63830564315293
 20
-131.0931179142753
 30
0.0
 10
83.42453746829318
 20
-131.0931179142753
 30
0.0
 10
83.42453746829318
 20
-131.0931179142753
 30
0.0
 10
83.41402992706317
 20
-131.0359293292202
 30
0.0
 10
83.38233504859886
 20
-130.8877902233544
 30
0.0
 10
83.17924666974339
 20
-130.8877902233544
 30
0.0
 10
82.88727482736846
 20
-130.8877902233544
 30
0.0
 10
82.84696721019104
 20
-131.2157633135502
 30
0.0
 10
82.83439261166988
 20
-131.4207464949226
 30
0.0
 10
82.92741018977162
 20
-131.3425428274074
 30
0.0
 10
82.99510631605678
 20
-131.2832871850611
 30
0.0
 10
83.17700735767798
 20
-131.2832871850611
 30
0.0
 10
83.35684134200801
 20
-131.2832871850611
 30
0.0
 10
83.65932072561296
 20
-131.391463183298
 30
0.0
 10
83.65932072561296
 20
-131.7976399410089
 30
0.0
 10
83.65932072561296
 20
-132.1170002924916
 30
0.0
 10
83.46053871611403
 20
-132.3367973844505
 30
0.0
 10
83.14324542192253
 20
-132.3367973844505
 30
0.0
  0
SPLINE
  5
116
330
10F
100
AcDbEntity
  8
_U+30EC_U+30A4_U+30E4_U+30FC 1
370
     0
100
AcDbSpline
210
0.0
220
0.0
230
1.0
 70
    11
 71
     3
 72
    17
 73
    13
 74
     0
 42
0.0000000001
 43
0.0000000001
 12
1.0
 22
0.0
 32
0.0
 13
1.0
 23
0.0
 33
0.0
 40
0.0
 40
0.0
 40
0.0
 40
0.0
 40
1.0
 40
1.0
 40
1.0
 40
2.0
 40
2.0
 40
2.0
 40
3.0
 40
3.0
 40
3.0
 40
4.0
 40
4.0
 40
4.0
 40
4.0
 10
83.16012638980025
 20
-131.4779350799778
 30
0.0
 10
82.89778236859847
 20
-131.4779350799778
 30
0.0
 10
82.85971406348646
 20
-131.6894639427721
 30
0.0
 10
82.85971406348646
 20
-131.8059081701735
 30
0.0
 10
82.85971406348646
 20
-131.9816080399213
 30
0.0
 10
82.95497095365363
 20
-132.1445610563736
 30
0.0
 10
83.13893905256596
 20
-132.1445610563736
 30
0.0
 10
83.2595173945497
 20
-132.1445610563736
 30
0.0
 10
83.43521726429745
 20
-132.0853054140273
 30
0.0
 10
83.43521726429745
 20
-131.7997069983001
 30
0.0
 10
83.43521726429745
 20
-131.5754312822103
 30
0.0
 10
83.29551864237057
 20
-131.4779350799778
 30
0.0
 10
83.16012638980025
 20
-131.4779350799778
 30
0.0
  0
HATCH
  5
117
330
10F
100
AcDbEntity
  8
_U+30EC_U+30A4_U+30E4_U+30FC 1
 62
   179
420
  2234388
100
AcDbHatch
 10
0.0
 20
0.0
 30
0.0
210
0.0
220
0.0
230
1.0
  2
SOLID
 70
     1
 71
     0
 91
        2
 92
        1
 93
        1
 72
     4
 94
        3
 73
     0
 74
     1
 95
       32
 96
       28
 40
0.0
 40
0.0
 40
0.0
 40
0.0
 40
1.0
 40
1.0
 40
1.0
 40
2.0
 40
2.0
 40
2.0
 40
3.0
 40
3.0
 40
3.0
 40
4.0
 40
4.0
 40
4.0
 40
5.0
 40
5.0
 40
5.0
 40
6.0
 40
6.0
 40
6.0
 40
7.0
 40
7.0
 40
7.0
 40
8.0
 40
8.0
 40
8.0
 40
9.0
 40
9.0
 40
9.0
 40
9.0
 10
83.14324542192253
 20
-132.3367973844505
 10
82.62699786345783
 20
-132.3367973844505
 10
82.61855737951898
 20
-131.7828260304223
 10
82.61855737951898
 20
-131.5688856007883
 10
82.61855737951898
 20
-131.3384087128251
 10
82.63767765946211
 20
-130.6910752711467
 10
83.18131372703454
 20
-130.6910752711467
 10
83.35477428471687
 20
-130.6910752711467
 10
83.60023733804091
 20
-130.7610107094972
 10
83.63830564315293
 20
-131.0931179142753
 10
83.63830564315293
 20
-131.0931179142753
 10
83.42453746829318
 20
-131.0931179142753
 10
83.42453746829318
 20
-131.0931179142753
 10
83.41402992706317
 20
-131.0359293292202
 10
83.38233504859886
 20
-130.8877902233544
 10
83.17924666974339
 20
-130.8877902233544
 10
82.88727482736846
 20
-130.8877902233544
 10
82.84696721019104
 20
-131.2157633135502
 10
82.83439261166988
 20
-131.4207464949226
 10
82.92741018977162
 20
-131.3425428274074
 10
82.99510631605678
 20
-131.2832871850611
 10
83.17700735767798
 20
-131.2832871850611
 10
83.35684134200801
 20
-131.2832871850611
 10
83.65932072561296
 20
-131.391463183298
 10
83.65932072561296
 20
-131.7976399410089
 10
83.65932072561296
 20
-132.1170002924916
 10
83.46053871611403
 20
-132.3367973844505
 10
83.14324542192253
 20
-132.3367973844505
 97
        0
 97
        0
 92
        1
 93
        1
 72
     4
 94
        3
 73
     0
 74
     1
 95
       17
 96
       13
 40
0.0
 40
0.0
 40
0.0
 40
0.0
 40
1.0
 40
1.0
 40
1.0
 40
2.0
 40
2.0
 40
2.0
 40
3.0
 40
3.0
 40
3.0
 40
4.0
 40
4.0
 40
4.0
 40
4.0
 10
83.16012638980025
 20
-131.4779350799778
 10
82.89778236859847
 20
-131.4779350799778
 10
82.85971406348646
 20
-131.6894639427721
 10
82.85971406348646
 20
-131.8059081701735
 10
82.85971406348646
 20
-131.9816080399213
 10
82.95497095365363
 20
-132.1445610563736
 10
83.13893905256596
 20
-132.1445610563736
 10
83.2595173945497
 20
-132.1445610563736
 10
83.43521726429745
 20
-132.0853054140273
 10
83.43521726429745
 20
-131.7997069983001
 10
83.43521726429745
 20
-131.5754312822103
 10
83.29551864237057
 20
-131.4779350799778
 10
83.16012638980025
 20
-131.4779350799778
 97
        0
 97
        0
 75
     2
 76
     1
 98
        0
  0
ENDBLK
  5
112
330
10F
100
AcDbEntity
  8
0
100
AcDbBlockEnd
  0
BLOCK
  5
11A
330
118
100
AcDbEntity
  8
0
100
AcDbBlockBegin
  2
block 9
 70
     0
 10
0.0
 20
0.0
 30
0.0
  3
block 9
  1

  0
SPLINE
  5
11C
330
118
100
AcDbEntity
  8
_U+30EC_U+30A4_U+30E4_U+30FC 1
370
     0
100
AcDbSpline
210
0.0
220
0.0
230
1.0
 70
    11
 71
     3
 72
    44
 73
    40
 74
     0
 42
0.0000000001
 43
0.0000000001
 12
1.0
 22
0.0
 32
0.0
 13
1.0
 23
0.0
 33
0.0
 40
0.0
 40
0.0
 40
0.0
 40
0.0
 40
1.0
 40
1.0
 40
1.0
 40
2.0
 40
2.0
 40
2.0
 40
3.0
 40
3.0
 40
3.0
 40
4.0
 40
4.0
 40
4.0
 40
5.0
 40
5.0
 40
5.0
 40
6.0
 40
6.0
 40
6.0
 40
7.0
 40
7.0
 40
7.0
 40
8.0
 40
8.0
 40
8.0
 40
9.0
 40
9.0
 40
9.0
 40
10.0
 40
10.0
 40
10.0
 40
11.0
 40
11.0
 40
11.0
 40
12.0
 40
12.0
 40
12.0
 40
13.0
 40
13.0
 40
13.0
 40
13.0
 10
74.29417315850979
 20
-131.7042778533587
 30
0.0
 10
74.07627086906774
 20
-131.8630967552287
 30
0.0
 10
73.98308103619173
 20
-131.9371663081616
 30
0.0
 10
73.93450518984972
 20
-132.0808267898965
 30
0.0
 10
73.93450518984972
 20
-132.0808267898965
 30
0.0
 10
74.71292451474191
 20
-132.0808267898965
 30
0.0
 10
74.71292451474191
 20
-132.0808267898965
 30
0.0
 10
74.71292451474191
 20
-132.0808267898965
 30
0.0
 10
74.71292451474191
 20
-132.2861544808173
 30
0.0
 10
74.71292451474191
 20
-132.2861544808173
 30
0.0
 10
74.71292451474191
 20
-132.2861544808173
 30
0.0
 10
73.68490802194336
 20
-132.2861544808173
 30
0.0
 10
73.68490802194336
 20
-132.2861544808173
 30
0.0
 10
73.71660290040766
 20
-131.9285535694484
 30
0.0
 10
73.78223196940166
 20
-131.8503499019332
 30
0.0
 10
74.16722138987834
 20
-131.5520046329106
 30
0.0
 10
74.4231919844324
 20
-131.3532226234117
 30
0.0
 10
74.48864879865215
 20
-131.2853542423523
 30
0.0
 10
74.48864879865215
 20
-131.1478949324908
 30
0.0
 10
74.48864879865215
 20
-131.0293836477982
 30
0.0
 10
74.4168185577847
 20
-130.8984700193587
 30
0.0
 10
74.22010360557692
 20
-130.8984700193587
 30
0.0
 10
73.9598266416663
 20
-130.8984700193587
 30
0.0
 10
73.95138615772744
 20
-131.1289469073219
 30
0.0
 10
73.94707978837087
 20
-131.2453911347234
 30
0.0
 10
73.94707978837087
 20
-131.2453911347234
 30
0.0
 10
73.72297632705536
 20
-131.2453911347234
 30
0.0
 10
73.72297632705536
 20
-131.2453911347234
 30
0.0
 10
73.73141681099423
 20
-131.1182671113177
 30
0.0
 10
73.74192435222425
 20
-131.006301508047
 30
0.0
 10
73.82236733180483
 20
-130.8877902233544
 30
0.0
 10
73.9322658777843
 20
-130.7269042641933
 30
0.0
 10
74.11847328876205
 20
-130.6931423284378
 30
0.0
 10
74.23491751616349
 20
-130.6931423284378
 30
0.0
 10
74.51207544795184
 20
-130.6931423284378
 30
0.0
 10
74.71929794138963
 20
-130.8771104273502
 30
0.0
 10
74.71929794138963
 20
-131.149961989782
 30
0.0
 10
74.71929794138963
 20
-131.3787163300026
 30
0.0
 10
74.60302596876244
 20
-131.4779350799778
 30
0.0
 10
74.29417315850979
 20
-131.7042778533587
 30
0.0
  0
HATCH
  5
11D
330
118
100
AcDbEntity
  8
_U+30EC_U+30A4_U+30E4_U+30FC 1
 62
   179
420
  2234388
100
AcDbHatch
 10
0.0
 20
0.0
 30
0.0
210
0.0
220
0.0
230
1.0
  2
SOLID
 70
     1
 71
     0
 91
        1
 92
        1
 93
        1
 72
     4
 94
        3
 73
     0
 74
     1
 95
       44
 96
       40
 40
0.0
 40
0.0
 40
0.0
 40
0.0
 40
1.0
 40
1.0
 40
1.0
 40
2.0
 40
2.0
 40
2.0
 40
3.0
 40
3.0
 40
3.0
 40
4.0
 40
4.0
 40
4.0
 40
5.0
 40
5.0
 40
5.0
 40
6.0
 40
6.0
 40
6.0
 40
7.0
 40
7.0
 40
7.0
 40
8.0
 40
8.0
 40
8.0
 40
9.0
 40
9.0
 40
9.0
 40
10.0
 40
10.0
 40
10.0
 40
11.0
 40
11.0
 40
11.0
 40
12.0
 40
12.0
 40
12.0
 40
13.0
 40
13.0
 40
13.0
 40
13.0
 10
74.29417315850979
 20
-131.7042778533587
 10
74.07627086906774
 20
-131.8630967552287
 10
73.98308103619173
 20
-131.9371663081616
 10
73.93450518984972
 20
-132.0808267898965
 10
73.93450518984972
 20
-132.0808267898965
 10
74.71292451474191
 20
-132.0808267898965
 10
74.71292451474191
 20
-132.0808267898965
 10
74.71292451474191
 20
-132.0808267898965
 10
74.71292451474191
 20
-132.2861544808173
 10
74.71292451474191
 20
-132.2861544808173
 10
74.71292451474191
 20
-132.2861544808173
 10
73.68490802194336
 20
-132.2861544808173
 10
73.68490802194336
 20
-132.2861544808173
 10
73.71660290040766
 20
-131.9285535694484
 10
73.78223196940166
 20
-131.8503499019332
 10
74.16722138987834
 20
-131.5520046329106
 10
74.4231919844324
 20
-131.3532226234117
 10
74.48864879865215
 20
-131.2853542423523
 10
74.48864879865215
 20
-131.1478949324908
 10
74.48864879865215
 20
-131.0293836477982
 10
74.4168185577847
 20
-130.8984700193587
 10
74.22010360557692
 20
-130.8984700193587
 10
73.9598266416663
 20
-130.8984700193587
 10
73.95138615772744
 20
-131.1289469073219
 10
73.94707978837087
 20
-131.2453911347234
 10
73.94707978837087
 20
-131.2453911347234
 10
73.72297632705536
 20
-131.2453911347234
 10
73.72297632705536
 20
-131.2453911347234
 10
73.73141681099423
 20
-131.1182671113177
 10
73.74192435222425
 20
-131.006301508047
 10
73.82236733180483
 20
-130.8877902233544
 10
73.9322658777843
 20
-130.7269042641933
 10
74.11847328876205
 20
-130.6931423284378
 10
74.23491751616349
 20
-130.6931423284378
 10
74.51207544795184
 20
-130.6931423284378
 10
74.71929794138963
 20
-130.8771104273502
 10
74.71929794138963
 20
-131.149961989782
 10
74.71929794138963
 20
-131.3787163300026
 10
74.60302596876244
 20
-131.4779350799778
 10
74.29417315850979
 20
-131.7042778533587
 97
        0
 97
        0
 75
     2
 76
     1
 98
        0
  0
SPLINE
  5
11E
330
118
100
AcDbEntity
  8
_U+30EC_U+30A4_U+30E4_U+30FC 1
370
     0
100
AcDbSpline
210
0.0
220
0.0
230
1.0
 70
    11
 71
     3
 72
    32
 73
    28
 74
     0
 42
0.0000000001
 43
0.0000000001
 12
1.0
 22
0.0
 32
0.0
 13
1.0
 23
0.0
 33
0.0
 40
0.0
 40
0.0
 40
0.0
 40
0.0
 40
1.0
 40
1.0
 40
1.0
 40
2.0
 40
2.0
 40
2.0
 40
3.0
 40
3.0
 40
3.0
 40
4.0
 40
4.0
 40
4.0
 40
5.0
 40
5.0
 40
5.0
 40
6.0
 40
6.0
 40
6.0
 40
7.0
 40
7.0
 40
7.0
 40
8.0
 40
8.0
 40
8.0
 40
9.0
 40
9.0
 40
9.0
 40
9.0
 10
75.38213431275169
 20
-132.3367973844505
 30
0.0
 10
74.865886754287
 20
-132.3367973844505
 30
0.0
 10
74.85744627034815
 20
-131.7828260304223
 30
0.0
 10
74.85744627034815
 20
-131.5688856007883
 30
0.0
 10
74.85744627034815
 20
-131.3384087128251
 30
0.0
 10
74.87656655029127
 20
-130.6910752711467
 30
0.0
 10
75.42020261786371
 20
-130.6910752711467
 30
0.0
 10
75.59366317554603
 20
-130.6910752711467
 30
0.0
 10
75.83912622887009
 20
-130.7610107094972
 30
0.0
 10
75.87719453398209
 20
-131.0931179142753
 30
0.0
 10
75.87719453398209
 20
-131.0931179142753
 30
0.0
 10
75.66342635912234
 20
-131.0931179142753
 30
0.0
 10
75.66342635912234
 20
-131.0931179142753
 30
0.0
 10
75.65291881789233
 20
-131.0359293292202
 30
0.0
 10
75.62122393942803
 20
-130.8877902233544
 30
0.0
 10
75.41813556057255
 20
-130.8877902233544
 30
0.0
 10
75.12616371819763
 20
-130.8877902233544
 30
0.0
 10
75.08585610102021
 20
-131.2157633135502
 30
0.0
 10
75.07328150249904
 20
-131.4207464949226
 30
0.0
 10
75.1662990806008
 20
-131.3425428274074
 30
0.0
 10
75.23399520688595
 20
-131.2832871850611
 30
0.0
 10
75.41589624850714
 20
-131.2832871850611
 30
0.0
 10
75.59573023283718
 20
-131.2832871850611
 30
0.0
 10
75.89820961644212
 20
-131.391463183298
 30
0.0
 10
75.89820961644212
 20
-131.7976399410089
 30
0.0
 10
75.89820961644212
 20
-132.1170002924916
 30
0.0
 10
75.6994276069432
 20
-132.3367973844505
 30
0.0
 10
75.38213431275169
 20
-132.3367973844505
 30
0.0
  0
SPLINE
  5
11F
330
118
100
AcDbEntity
  8
_U+30EC_U+30A4_U+30E4_U+30FC 1
370
     0
100
AcDbSpline
210
0.0
220
0.0
230
1.0
 70
    11
 71
     3
 72
    17
 73
    13
 74
     0
 42
0.0000000001
 43
0.0000000001
 12
1.0
 22
0.0
 32
0.0
 13
1.0
 23
0.0
 33
0.0
 40
0.0
 40
0.0
 40
0.0
 40
0.0
 40
1.0
 40
1.0
 40
1.0
 40
2.0
 40
2.0
 40
2.0
 40
3.0
 40
3.0
 40
3.0
 40
4.0
 40
4.0
 40
4.0
 40
4.0
 10
75.39901528062941
 20
-131.4779350799778
 30
0.0
 10
75.13667125942764
 20
-131.4779350799778
 30
0.0
 10
75.09860295431562
 20
-131.6894639427721
 30
0.0
 10
75.09860295431562
 20
-131.8059081701735
 30
0.0
 10
75.09860295431562
 20
-131.9816080399213
 30
0.0
 10
75.19385984448279
 20
-132.1445610563736
 30
0.0
 10
75.37782794339513
 20
-132.1445610563736
 30
0.0
 10
75.49840628537888
 20
-132.1445610563736
 30
0.0
 10
75.67410615512662
 20
-132.0853054140273
 30
0.0
 10
75.67410615512662
 20
-131.7997069983001
 30
0.0
 10
75.67410615512662
 20
-131.5754312822103
 30
0.0
 10
75.53440753319974
 20
-131.4779350799778
 30
0.0
 10
75.39901528062941
 20
-131.4779350799778
 30
0.0
  0
HATCH
  5
120
330
118
100
AcDbEntity
  8
_U+30EC_U+30A4_U+30E4_U+30FC 1
 62
   179
420
  2234388
100
AcDbHatch
 10
0.0
 20
0.0
 30
0.0
210
0.0
220
0.0
230
1.0
  2
SOLID
 70
     1
 71
     0
 91
        2
 92
        1
 93
        1
 72
     4
 94
        3
 73
     0
 74
     1
 95
       32
 96
       28
 40
0.0
 40
0.0
 40
0.0
 40
0.0
 40
1.0
 40
1.0
 40
1.0
 40
2.0
 40
2.0
 40
2.0
 40
3.0
 40
3.0
 40
3.0
 40
4.0
 40
4.0
 40
4.0
 40
5.0
 40
5.0
 40
5.0
 40
6.0
 40
6.0
 40
6.0
 40
7.0
 40
7.0
 40
7.0
 40
8.0
 40
8.0
 40
8.0
 40
9.0
 40
9.0
 40
9.0
 40
9.0
 10
75.38213431275169
 20
-132.3367973844505
 10
74.865886754287
 20
-132.3367973844505
 10
74.85744627034815
 20
-131.7828260304223
 10
74.85744627034815
 20
-131.5688856007883
 10
74.85744627034815
 20
-131.3384087128251
 10
74.87656655029127
 20
-130.6910752711467
 10
75.42020261786371
 20
-130.6910752711467
 10
75.59366317554603
 20
-130.6910752711467
 10
75.83912622887009
 20
-130.7610107094972
 10
75.87719453398209
 20
-131.0931179142753
 10
75.87719453398209
 20
-131.0931179142753
 10
75.66342635912234
 20
-131.0931179142753
 10
75.66342635912234
 20
-131.0931179142753
 10
75.65291881789233
 20
-131.0359293292202
 10
75.62122393942803
 20
-130.8877902233544
 10
75.41813556057255
 20
-130.8877902233544
 10
75.12616371819763
 20
-130.8877902233544
 10
75.08585610102021
 20
-131.2157633135502
 10
75.07328150249904
 20
-131.4207464949226
 10
75.1662990806008
 20
-131.3425428274074
 10
75.23399520688595
 20
-131.2832871850611
 10
75.41589624850714
 20
-131.2832871850611
 10
75.59573023283718
 20
-131.2832871850611
 10
75.89820961644212
 20
-131.391463183298
 10
75.89820961644212
 20
-131.7976399410089
 10
75.89820961644212
 20
-132.1170002924916
 10
75.6994276069432
 20
-132.3367973844505
 10
75.38213431275169
 20
-132.3367973844505
 97
        0
 97
        0
 92
        1
 93
        1
 72
     4
 94
        3
 73
     0
 74
     1
 95
       17
 96
       13
 40
0.0
 40
0.0
 40
0.0
 40
0.0
 40
1.0
 40
1.0
 40
1.0
 40
2.0
 40
2.0
 40
2.0
 40
3.0
 40
3.0
 40
3.0
 40
4.0
 40
4.0
 40
4.0
 40
4.0
 10
75.39901528062941
 20
-131.4779350799778
 10
75.13667125942764
 20
-131.4779350799778
 10
75.09860295431562
 20
-131.6894639427721
 10
75.09860295431562
 20
-131.8059081701735
 10
75.09860295431562
 20
-131.9816080399213
 10
75.19385984448279
 20
-132.1445610563736
 10
75.37782794339513
 20
-132.1445610563736
 10
75.49840628537888
 20
-132.1445610563736
 10
75.67410615512662
 20
-132.0853054140273
 10
75.67410615512662
 20
-131.7997069983001
 10
75.67410615512662
 20
-131.5754312822103
 10
75.53440753319974
 20
-131.4779350799778
 10
75.39901528062941
 20
-131.4779350799778
 97
        0
 97
        0
 75
     2
 76
     1
 98
        0
  0
ENDBLK
  5
11B
330
118
100
AcDbEntity
  8
0
100
AcDbBlockEnd
  0
BLOCK
  5
123
330
121
100
AcDbEntity
  8
0
100
AcDbBlockBegin
  2
block 10
 70
     0
 10
0.0
 20
0.0
 30
0.0
  3
block 10
  1

  0
SPLINE
  5
125
330
121
100
AcDbEntity
  8
_U+30EC_U+30A4_U+30E4_U+30FC 1
370
     0
100
AcDbSpline
210
0.0
220
0.0
230
1.0
 70
    11
 71
     3
 72
    62
 73
    58
 74
     0
 42
0.0000000001
 43
0.0000000001
 12
1.0
 22
0.0
 32
0.0
 13
1.0
 23
0.0
 33
0.0
 40
0.0
 40
0.0
 40
0.0
 40
0.0
 40
1.0
 40
1.0
 40
1.0
 40
2.0
 40
2.0
 40
2.0
 40
3.0
 40
3.0
 40
3.0
 40
4.0
 40
4.0
 40
4.0
 40
5.0
 40
5.0
 40
5.0
 40
6.0
 40
6.0
 40
6.0
 40
7.0
 40
7.0
 40
7.0
 40
8.0
 40
8.0
 40
8.0
 40
9.0
 40
9.0
 40
9.0
 40
10.0
 40
10.0
 40
10.0
 40
11.0
 40
11.0
 40
11.0
 40
12.0
 40
12.0
 40
12.0
 40
13.0
 40
13.0
 40
13.0
 40
14.0
 40
14.0
 40
14.0
 40
15.0
 40
15.0
 40
15.0
 40
16.0
 40
16.0
 40
16.0
 40
17.0
 40
17.0
 40
17.0
 40
18.0
 40
18.0
 40
18.0
 40
19.0
 40
19.0
 40
19.0
 40
19.0
 10
62.96239283365177
 20
-132.3367973844505
 30
0.0
 10
62.86713594348461
 20
-132.3367973844505
 30
0.0
 10
62.64923365404255
 20
-132.3157823019905
 30
0.0
 10
62.52452119747651
 20
-132.129747145787
 30
0.0
 10
62.45045164454364
 20
-132.0174370329679
 30
0.0
 10
62.44614527518708
 20
-131.9182182829927
 30
0.0
 10
62.44201116060478
 20
-131.8334689340555
 30
0.0
 10
62.44201116060478
 20
-131.8334689340555
 30
0.0
 10
62.66198050733798
 20
-131.8334689340555
 30
0.0
 10
62.66198050733798
 20
-131.8334689340555
 30
0.0
 10
62.66404756462913
 20
-131.9075384869884
 30
0.0
 10
62.6747273606334
 20
-132.1421494895339
 30
0.0
 10
62.95808646429521
 20
-132.1421494895339
 30
0.0
 10
63.09571802893093
 20
-132.1421494895339
 30
0.0
 10
63.24799124937898
 20
-132.0725585607319
 30
0.0
 10
63.24799124937898
 20
-131.8441487300598
 30
0.0
 10
63.24799124937898
 20
-131.7277045026584
 30
0.0
 10
63.20992294426696
 20
-131.6791286563163
 30
0.0
 10
63.17822806580267
 20
-131.647433777852
 30
0.0
 10
63.10415851286979
 20
-131.5733642249192
 30
0.0
 10
62.98771428546835
 20
-131.5606173716237
 30
0.0
 10
62.93276501247862
 20
-131.5606173716237
 30
0.0
 10
62.91381698730974
 20
-131.5606173716237
 30
0.0
 10
62.87781573948888
 20
-131.5626844289149
 30
0.0
 10
62.85025497560688
 20
-131.5668185434972
 30
0.0
 10
62.85025497560688
 20
-131.5668185434972
 30
0.0
 10
62.85025497560688
 20
-131.3721706485806
 30
0.0
 10
62.85025497560688
 20
-131.3721706485806
 30
0.0
 10
62.88832328071889
 20
-131.3787163300026
 30
0.0
 10
62.93069795518747
 20
-131.3807833872937
 30
0.0
 10
62.93707138183518
 20
-131.3807833872937
 30
0.0
 10
63.00252819605493
 20
-131.3807833872937
 30
0.0
 10
63.2014824603281
 20
-131.3594237952852
 30
0.0
 10
63.2014824603281
 20
-131.1227457354485
 30
0.0
 10
63.2014824603281
 20
-130.9449788084096
 30
0.0
 10
63.07022432234009
 20
-130.8898572806456
 30
0.0
 10
62.96032577636061
 20
-130.8898572806456
 30
0.0
 10
62.69591469786769
 20
-130.8898572806456
 30
0.0
 10
62.68730195915457
 20
-131.1227457354485
 30
0.0
 10
62.68316784457227
 20
-131.1944037215417
 30
0.0
 10
62.68316784457227
 20
-131.1944037215417
 30
0.0
 10
62.48007946571679
 20
-131.1944037215417
 30
0.0
 10
62.48007946571679
 20
-131.1944037215417
 30
0.0
 10
62.48851994965565
 20
-131.0696912649756
 30
0.0
 10
62.51608071353765
 20
-130.6931423284378
 30
0.0
 10
62.97290037488177
 20
-130.6931423284378
 30
0.0
 10
63.19717609097155
 20
-130.6931423284378
 30
0.0
 10
63.43833277493903
 20
-130.8202663518435
 30
0.0
 10
63.43833277493903
 20
-131.1162000540265
 30
0.0
 10
63.43833277493903
 20
-131.3025797197785
 30
0.0
 10
63.34324813954613
 20
-131.384917501876
 30
0.0
 10
63.24368488002241
 20
-131.4462402015134
 30
0.0
 10
63.30517983443413
 20
-131.4738009653954
 30
0.0
 10
63.48708087605532
 20
-131.5540716902018
 30
0.0
 10
63.48708087605532
 20
-131.8314018767644
 30
0.0
 10
63.48708087605532
 20
-132.1697102534159
 30
0.0
 10
63.23955076544011
 20
-132.3367973844505
 30
0.0
 10
62.96239283365177
 20
-132.3367973844505
 30
0.0
  0
HATCH
  5
126
330
121
100
AcDbEntity
  8
_U+30EC_U+30A4_U+30E4_U+30FC 1
 62
   179
420
  2234388
100
AcDbHatch
 10
0.0
 20
0.0
 30
0.0
210
0.0
220
0.0
230
1.0
  2
SOLID
 70
     1
 71
     0
 91
        1
 92
        1
 93
        1
 72
     4
 94
        3
 73
     0
 74
     1
 95
       62
 96
       58
 40
0.0
 40
0.0
 40
0.0
 40
0.0
 40
1.0
 40
1.0
 40
1.0
 40
2.0
 40
2.0
 40
2.0
 40
3.0
 40
3.0
 40
3.0
 40
4.0
 40
4.0
 40
4.0
 40
5.0
 40
5.0
 40
5.0
 40
6.0
 40
6.0
 40
6.0
 40
7.0
 40
7.0
 40
7.0
 40
8.0
 40
8.0
 40
8.0
 40
9.0
 40
9.0
 40
9.0
 40
10.0
 40
10.0
 40
10.0
 40
11.0
 40
11.0
 40
11.0
 40
12.0
 40
12.0
 40
12.0
 40
13.0
 40
13.0
 40
13.0
 40
14.0
 40
14.0
 40
14.0
 40
15.0
 40
15.0
 40
15.0
 40
16.0
 40
16.0
 40
16.0
 40
17.0
 40
17.0
 40
17.0
 40
18.0
 40
18.0
 40
18.0
 40
19.0
 40
19.0
 40
19.0
 40
19.0
 10
62.96239283365177
 20
-132.3367973844505
 10
62.86713594348461
 20
-132.3367973844505
 10
62.64923365404255
 20
-132.3157823019905
 10
62.52452119747651
 20
-132.129747145787
 10
62.45045164454364
 20
-132.0174370329679
 10
62.44614527518708
 20
-131.9182182829927
 10
62.44201116060478
 20
-131.8334689340555
 10
62.44201116060478
 20
-131.8334689340555
 10
62.66198050733798
 20
-131.8334689340555
 10
62.66198050733798
 20
-131.8334689340555
 10
62.66404756462913
 20
-131.9075384869884
 10
62.6747273606334
 20
-132.1421494895339
 10
62.95808646429521
 20
-132.1421494895339
 10
63.09571802893093
 20
-132.1421494895339
 10
63.24799124937898
 20
-132.0725585607319
 10
63.24799124937898
 20
-131.8441487300598
 10
63.24799124937898
 20
-131.7277045026584
 10
63.20992294426696
 20
-131.6791286563163
 10
63.17822806580267
 20
-131.647433777852
 10
63.10415851286979
 20
-131.5733642249192
 10
62.98771428546835
 20
-131.5606173716237
 10
62.93276501247862
 20
-131.5606173716237
 10
62.91381698730974
 20
-131.5606173716237
 10
62.87781573948888
 20
-131.5626844289149
 10
62.85025497560688
 20
-131.5668185434972
 10
62.85025497560688
 20
-131.5668185434972
 10
62.85025497560688
 20
-131.3721706485806
 10
62.85025497560688
 20
-131.3721706485806
 10
62.88832328071889
 20
-131.3787163300026
 10
62.93069795518747
 20
-131.3807833872937
 10
62.93707138183518
 20
-131.3807833872937
 10
63.00252819605493
 20
-131.3807833872937
 10
63.2014824603281
 20
-131.3594237952852
 10
63.2014824603281
 20
-131.1227457354485
 10
63.2014824603281
 20
-130.9449788084096
 10
63.07022432234009
 20
-130.8898572806456
 10
62.96032577636061
 20
-130.8898572806456
 10
62.69591469786769
 20
-130.8898572806456
 10
62.68730195915457
 20
-131.1227457354485
 10
62.68316784457227
 20
-131.1944037215417
 10
62.68316784457227
 20
-131.1944037215417
 10
62.48007946571679
 20
-131.1944037215417
 10
62.48007946571679
 20
-131.1944037215417
 10
62.48851994965565
 20
-131.0696912649756
 10
62.51608071353765
 20
-130.6931423284378
 10
62.97290037488177
 20
-130.6931423284378
 10
63.19717609097155
 20
-130.6931423284378
 10
63.43833277493903
 20
-130.8202663518435
 10
63.43833277493903
 20
-131.1162000540265
 10
63.43833277493903
 20
-131.3025797197785
 10
63.34324813954613
 20
-131.384917501876
 10
63.24368488002241
 20
-131.4462402015134
 10
63.30517983443413
 20
-131.4738009653954
 10
63.48708087605532
 20
-131.5540716902018
 10
63.48708087605532
 20
-131.8314018767644
 10
63.48708087605532
 20
-132.1697102534159
 10
63.23955076544011
 20
-132.3367973844505
 10
62.96239283365177
 20
-132.3367973844505
 97
        0
 97
        0
 75
     2
 76
     1
 98
        0
  0
SPLINE
  5
127
330
121
100
AcDbEntity
  8
_U+30EC_U+30A4_U+30E4_U+30FC 1
370
     0
100
AcDbSpline
210
0.0
220
0.0
230
1.0
 70
    11
 71
     3
 72
    32
 73
    28
 74
     0
 42
0.0000000001
 43
0.0000000001
 12
1.0
 22
0.0
 32
0.0
 13
1.0
 23
0.0
 33
0.0
 40
0.0
 40
0.0
 40
0.0
 40
0.0
 40
1.0
 40
1.0
 40
1.0
 40
2.0
 40
2.0
 40
2.0
 40
3.0
 40
3.0
 40
3.0
 40
4.0
 40
4.0
 40
4.0
 40
5.0
 40
5.0
 40
5.0
 40
6.0
 40
6.0
 40
6.0
 40
7.0
 40
7.0
 40
7.0
 40
8.0
 40
8.0
 40
8.0
 40
9.0
 40
9.0
 40
9.0
 40
9.0
 10
64.15198430470853
 20
-132.3367973844505
 30
0.0
 10
63.63573674624384
 20
-132.3367973844505
 30
0.0
 10
63.62729626230499
 20
-131.7828260304223
 30
0.0
 10
63.62729626230499
 20
-131.5688856007883
 30
0.0
 10
63.62729626230499
 20
-131.3384087128251
 30
0.0
 10
63.64641654224812
 20
-130.6910752711467
 30
0.0
 10
64.19005260982054
 20
-130.6910752711467
 30
0.0
 10
64.36351316750287
 20
-130.6910752711467
 30
0.0
 10
64.60897622082693
 20
-130.7610107094972
 30
0.0
 10
64.64704452593894
 20
-131.0931179142753
 30
0.0
 10
64.64704452593894
 20
-131.0931179142753
 30
0.0
 10
64.43327635107919
 20
-131.0931179142753
 30
0.0
 10
64.43327635107919
 20
-131.0931179142753
 30
0.0
 10
64.42276880984917
 20
-131.0359293292202
 30
0.0
 10
64.39107393138487
 20
-130.8877902233544
 30
0.0
 10
64.1879855525294
 20
-130.8877902233544
 30
0.0
 10
63.89601371015447
 20
-130.8877902233544
 30
0.0
 10
63.85587834775131
 20
-131.2157633135502
 30
0.0
 10
63.84313149445589
 20
-131.4207464949226
 30
0.0
 10
63.93614907255763
 20
-131.3425428274074
 30
0.0
 10
64.0038451988428
 20
-131.2832871850611
 30
0.0
 10
64.18574624046398
 20
-131.2832871850611
 30
0.0
 10
64.36558022479403
 20
-131.2832871850611
 30
0.0
 10
64.66823186317322
 20
-131.391463183298
 30
0.0
 10
64.66823186317322
 20
-131.7976399410089
 30
0.0
 10
64.66823186317322
 20
-132.1170002924916
 30
0.0
 10
64.46927759890005
 20
-132.3367973844505
 30
0.0
 10
64.15198430470853
 20
-132.3367973844505
 30
0.0
  0
SPLINE
  5
128
330
121
100
AcDbEntity
  8
_U+30EC_U+30A4_U+30E4_U+30FC 1
370
     0
100
AcDbSpline
210
0.0
220
0.0
230
1.0
 70
    11
 71
     3
 72
    17
 73
    13
 74
     0
 42
0.0000000001
 43
0.0000000001
 12
1.0
 22
0.0
 32
0.0
 13
1.0
 23
0.0
 33
0.0
 40
0.0
 40
0.0
 40
0.0
 40
0.0
 40
1.0
 40
1.0
 40
1.0
 40
2.0
 40
2.0
 40
2.0
 40
3.0
 40
3.0
 40
3.0
 40
4.0
 40
4.0
 40
4.0
 40
4.0
 10
64.16886527258626
 20
-131.4779350799778
 30
0.0
 10
63.90652125138448
 20
-131.4779350799778
 30
0.0
 10
63.86845294627247
 20
-131.6894639427721
 30
0.0
 10
63.86845294627247
 20
-131.8059081701735
 30
0.0
 10
63.86845294627247
 20
-131.9816080399213
 30
0.0
 10
63.96370983643963
 20
-132.1445610563736
 30
0.0
 10
64.14767793535198
 20
-132.1445610563736
 30
0.0
 10
64.26825627733572
 20
-132.1445610563736
 30
0.0
 10
64.44395614708345
 20
-132.0853054140273
 30
0.0
 10
64.44395614708345
 20
-131.7997069983001
 30
0.0
 10
64.44395614708345
 20
-131.5754312822103
 30
0.0
 10
64.30425752515657
 20
-131.4779350799778
 30
0.0
 10
64.16886527258626
 20
-131.4779350799778
 30
0.0
  0
HATCH
  5
129
330
121
100
AcDbEntity
  8
_U+30EC_U+30A4_U+30E4_U+30FC 1
 62
   179
420
  2234388
100
AcDbHatch
 10
0.0
 20
0.0
 30
0.0
210
0.0
220
0.0
230
1.0
  2
SOLID
 70
     1
 71
     0
 91
        2
 92
        1
 93
        1
 72
     4
 94
        3
 73
     0
 74
     1
 95
       32
 96
       28
 40
0.0
 40
0.0
 40
0.0
 40
0.0
 40
1.0
 40
1.0
 40
1.0
 40
2.0
 40
2.0
 40
2.0
 40
3.0
 40
3.0
 40
3.0
 40
4.0
 40
4.0
 40
4.0
 40
5.0
 40
5.0
 40
5.0
 40
6.0
 40
6.0
 40
6.0
 40
7.0
 40
7.0
 40
7.0
 40
8.0
 40
8.0
 40
8.0
 40
9.0
 40
9.0
 40
9.0
 40
9.0
 10
64.15198430470853
 20
-132.3367973844505
 10
63.63573674624384
 20
-132.3367973844505
 10
63.62729626230499
 20
-131.7828260304223
 10
63.62729626230499
 20
-131.5688856007883
 10
63.62729626230499
 20
-131.3384087128251
 10
63.64641654224812
 20
-130.6910752711467
 10
64.19005260982054
 20
-130.6910752711467
 10
64.36351316750287
 20
-130.6910752711467
 10
64.60897622082693
 20
-130.7610107094972
 10
64.64704452593894
 20
-131.0931179142753
 10
64.64704452593894
 20
-131.0931179142753
 10
64.43327635107919
 20
-131.0931179142753
 10
64.43327635107919
 20
-131.0931179142753
 10
64.42276880984917
 20
-131.0359293292202
 10
64.39107393138487
 20
-130.8877902233544
 10
64.1879855525294
 20
-130.8877902233544
 10
63.89601371015447
 20
-130.8877902233544
 10
63.85587834775131
 20
-131.2157633135502
 10
63.84313149445589
 20
-131.4207464949226
 10
63.93614907255763
 20
-131.3425428274074
 10
64.0038451988428
 20
-131.2832871850611
 10
64.18574624046398
 20
-131.2832871850611
 10
64.36558022479403
 20
-131.2832871850611
 10
64.66823186317322
 20
-131.391463183298
 10
64.66823186317322
 20
-131.7976399410089
 10
64.66823186317322
 20
-132.1170002924916
 10
64.46927759890005
 20
-132.3367973844505
 10
64.15198430470853
 20
-132.3367973844505
 97
        0
 97
        0
 92
        1
 93
        1
 72
     4
 94
        3
 73
     0
 74
     1
 95
       17
 96
       13
 40
0.0
 40
0.0
 40
0.0
 40
0.0
 40
1.0
 40
1.0
 40
1.0
 40
2.0
 40
2.0
 40
2.0
 40
3.0
 40
3.0
 40
3.0
 40
4.0
 40
4.0
 40
4.0
 40
4.0
 10
64.16886527258626
 20
-131.4779350799778
 10
63.90652125138448
 20
-131.4779350799778
 10
63.86845294627247
 20
-131.6894639427721
 10
63.86845294627247
 20
-131.8059081701735
 10
63.86845294627247
 20
-131.9816080399213
 10
63.96370983643963
 20
-132.1445610563736
 10
64.14767793535198
 20
-132.1445610563736
 10
64.26825627733572
 20
-132.1445610563736
 10
64.44395614708345
 20
-132.0853054140273
 10
64.44395614708345
 20
-131.7997069983001
 10
64.44395614708345
 20
-131.5754312822103
 10
64.30425752515657
 20
-131.4779350799778
 10
64.16886527258626
 20
-131.4779350799778
 97
        0
 97
        0
 75
     2
 76
     1
 98
        0
  0
ENDBLK
  5
124
330
121
100
AcDbEntity
  8
0
100
AcDbBlockEnd
  0
BLOCK
  5
12C
330
12A
100
AcDbEntity
  8
0
100
AcDbBlockBegin
  2
block 11
 70
     0
 10
0.0
 20
0.0
 30
0.0
  3
block 11
  1

  0
SPLINE
  5
12E
330
12A
100
AcDbEntity
  8
_U+30EC_U+30A4_U+30E4_U+30FC 1
370
     0
100
AcDbSpline
210
0.0
220
0.0
230
1.0
 70
    11
 71
     3
 72
    26
 73
    22
 74
     0
 42
0.0000000001
 43
0.0000000001
 12
1.0
 22
0.0
 32
0.0
 13
1.0
 23
0.0
 33
0.0
 40
0.0
 40
0.0
 40
0.0
 40
0.0
 40
1.0
 40
1.0
 40
1.0
 40
2.0
 40
2.0
 40
2.0
 40
3.0
 40
3.0
 40
3.0
 40
4.0
 40
4.0
 40
4.0
 40
5.0
 40
5.0
 40
5.0
 40
6.0
 40
6.0
 40
6.0
 40
7.0
 40
7.0
 40
7.0
 40
7.0
 10
56.15057778544153
 20
-126.2195135860667
 30
0.0
 10
56.15057778544153
 20
-126.2195135860667
 30
0.0
 10
55.04625242764469
 20
-126.2195135860667
 30
0.0
 10
55.04625242764469
 20
-126.2195135860667
 30
0.0
 10
55.04625242764469
 20
-126.2195135860667
 30
0.0
 10
55.04625242764469
 20
-126.5495537335536
 30
0.0
 10
55.04625242764469
 20
-126.5495537335536
 30
0.0
 10
55.04625242764469
 20
-126.5495537335536
 30
0.0
 10
54.89828557655321
 20
-126.5495537335536
 30
0.0
 10
54.89828557655321
 20
-126.5495537335536
 30
0.0
 10
54.88347166596663
 20
-126.2174465287755
 30
0.0
 10
54.72051864951432
 20
-126.1709377397246
 30
0.0
 10
54.60631373417829
 20
-126.1413099185515
 30
0.0
 10
54.60631373417829
 20
-126.1413099185515
 30
0.0
 10
54.60631373417829
 20
-125.9952378699769
 30
0.0
 10
54.60631373417829
 20
-125.9952378699769
 30
0.0
 10
54.60631373417829
 20
-125.9952378699769
 30
0.0
 10
56.15057778544153
 20
-125.9952378699769
 30
0.0
 10
56.15057778544153
 20
-125.9952378699769
 30
0.0
 10
56.15057778544153
 20
-125.9952378699769
 30
0.0
 10
56.15057778544153
 20
-126.2195135860667
 30
0.0
 10
56.15057778544153
 20
-126.2195135860667
 30
0.0
  0
HATCH
  5
12F
330
12A
100
AcDbEntity
  8
_U+30EC_U+30A4_U+30E4_U+30FC 1
 62
   179
420
  2234388
100
AcDbHatch
 10
0.0
 20
0.0
 30
0.0
210
0.0
220
0.0
230
1.0
  2
SOLID
 70
     1
 71
     0
 91
        1
 92
        1
 93
        1
 72
     4
 94
        3
 73
     0
 74
     1
 95
       26
 96
       22
 40
0.0
 40
0.0
 40
0.0
 40
0.0
 40
1.0
 40
1.0
 40
1.0
 40
2.0
 40
2.0
 40
2.0
 40
3.0
 40
3.0
 40
3.0
 40
4.0
 40
4.0
 40
4.0
 40
5.0
 40
5.0
 40
5.0
 40
6.0
 40
6.0
 40
6.0
 40
7.0
 40
7.0
 40
7.0
 40
7.0
 10
56.15057778544153
 20
-126.2195135860667
 10
56.15057778544153
 20
-126.2195135860667
 10
55.04625242764469
 20
-126.2195135860667
 10
55.04625242764469
 20
-126.2195135860667
 10
55.04625242764469
 20
-126.2195135860667
 10
55.04625242764469
 20
-126.5495537335536
 10
55.04625242764469
 20
-126.5495537335536
 10
55.04625242764469
 20
-126.5495537335536
 10
54.89828557655321
 20
-126.5495537335536
 10
54.89828557655321
 20
-126.5495537335536
 10
54.88347166596663
 20
-126.2174465287755
 10
54.72051864951432
 20
-126.1709377397246
 10
54.60631373417829
 20
-126.1413099185515
 10
54.60631373417829
 20
-126.1413099185515
 10
54.60631373417829
 20
-125.9952378699769
 10
54.60631373417829
 20
-125.9952378699769
 10
54.60631373417829
 20
-125.9952378699769
 10
56.15057778544153
 20
-125.9952378699769
 10
56.15057778544153
 20
-125.9952378699769
 10
56.15057778544153
 20
-125.9952378699769
 10
56.15057778544153
 20
-126.2195135860667
 10
56.15057778544153
 20
-126.2195135860667
 97
        0
 97
        0
 75
     2
 76
     1
 98
        0
  0
SPLINE
  5
130
330
12A
100
AcDbEntity
  8
_U+30EC_U+30A4_U+30E4_U+30FC 1
370
     0
100
AcDbSpline
210
0.0
220
0.0
230
1.0
 70
    11
 71
     3
 72
    32
 73
    28
 74
     0
 42
0.0000000001
 43
0.0000000001
 12
1.0
 22
0.0
 32
0.0
 13
1.0
 23
0.0
 33
0.0
 40
0.0
 40
0.0
 40
0.0
 40
0.0
 40
1.0
 40
1.0
 40
1.0
 40
2.0
 40
2.0
 40
2.0
 40
3.0
 40
3.0
 40
3.0
 40
4.0
 40
4.0
 40
4.0
 40
5.0
 40
5.0
 40
5.0
 40
6.0
 40
6.0
 40
6.0
 40
7.0
 40
7.0
 40
7.0
 40
8.0
 40
8.0
 40
8.0
 40
9.0
 40
9.0
 40
9.0
 40
9.0
 10
56.20139294384896
 20
-124.9897867526067
 30
0.0
 10
56.20139294384896
 20
-125.5060343110714
 30
0.0
 10
55.64707708027226
 20
-125.5144747950103
 30
0.0
 10
55.43348116018677
 20
-125.5144747950103
 30
0.0
 10
55.2028320174493
 20
-125.5144747950103
 30
0.0
 10
54.55549857577085
 20
-125.4953545150671
 30
0.0
 10
54.55549857577085
 20
-124.9517184474947
 30
0.0
 10
54.55549857577085
 20
-124.7782578898124
 30
0.0
 10
54.62526175934716
 20
-124.5327948364883
 30
0.0
 10
54.95736896412524
 20
-124.4947265313763
 30
0.0
 10
54.95736896412524
 20
-124.4947265313763
 30
0.0
 10
54.95736896412524
 20
-124.7084947062361
 30
0.0
 10
54.95736896412524
 20
-124.7084947062361
 30
0.0
 10
54.90035263384436
 20
-124.7190022474661
 30
0.0
 10
54.75221352797862
 20
-124.7506971259304
 30
0.0
 10
54.75221352797862
 20
-124.9537855047859
 30
0.0
 10
54.75221352797862
 20
-125.2457573471608
 30
0.0
 10
55.0801866181744
 20
-125.2860649643382
 30
0.0
 10
55.28534205432103
 20
-125.2986395628594
 30
0.0
 10
55.20713838680586
 20
-125.2056219847576
 30
0.0
 10
55.14788274445956
 20
-125.1379258584725
 30
0.0
 10
55.14788274445956
 20
-124.9560248168513
 30
0.0
 10
55.14788274445956
 20
-124.7761908325212
 30
0.0
 10
55.25571423314788
 20
-124.4737114489163
 30
0.0
 10
55.66189099085884
 20
-124.4737114489163
 30
0.0
 10
55.98142359711576
 20
-124.4737114489163
 30
0.0
 10
56.20139294384896
 20
-124.6724934584152
 30
0.0
 10
56.20139294384896
 20
-124.9897867526067
 30
0.0
  0
SPLINE
  5
131
330
12A
100
AcDbEntity
  8
_U+30EC_U+30A4_U+30E4_U+30FC 1
370
     0
100
AcDbSpline
210
0.0
220
0.0
230
1.0
 70
    11
 71
     3
 72
    17
 73
    13
 74
     0
 42
0.0000000001
 43
0.0000000001
 12
1.0
 22
0.0
 32
0.0
 13
1.0
 23
0.0
 33
0.0
 40
0.0
 40
0.0
 40
0.0
 40
0.0
 40
1.0
 40
1.0
 40
1.0
 40
2.0
 40
2.0
 40
2.0
 40
3.0
 40
3.0
 40
3.0
 40
4.0
 40
4.0
 40
4.0
 40
4.0
 10
55.34253063937618
 20
-124.972905784729
 30
0.0
 10
55.34253063937618
 20
-125.2352498059308
 30
0.0
 10
55.55405950217052
 20
-125.2733181110428
 30
0.0
 10
55.6703314747977
 20
-125.2733181110428
 30
0.0
 10
55.84603134454544
 20
-125.2733181110428
 30
0.0
 10
56.00881210622349
 20
-125.1780612208756
 30
0.0
 10
56.00881210622349
 20
-124.9940931219633
 30
0.0
 10
56.00881210622349
 20
-124.8735147799795
 30
0.0
 10
55.94955646387719
 20
-124.6978149102318
 30
0.0
 10
55.66395804814999
 20
-124.6978149102318
 30
0.0
 10
55.43985458683449
 20
-124.6978149102318
 30
0.0
 10
55.34253063937618
 20
-124.8375135321587
 30
0.0
 10
55.34253063937618
 20
-124.972905784729
 30
0.0
  0
HATCH
  5
132
330
12A
100
AcDbEntity
  8
_U+30EC_U+30A4_U+30E4_U+30FC 1
 62
   179
420
  2234388
100
AcDbHatch
 10
0.0
 20
0.0
 30
0.0
210
0.0
220
0.0
230
1.0
  2
SOLID
 70
     1
 71
     0
 91
        2
 92
        1
 93
        1
 72
     4
 94
        3
 73
     0
 74
     1
 95
       32
 96
       28
 40
0.0
 40
0.0
 40
0.0
 40
0.0
 40
1.0
 40
1.0
 40
1.0
 40
2.0
 40
2.0
 40
2.0
 40
3.0
 40
3.0
 40
3.0
 40
4.0
 40
4.0
 40
4.0
 40
5.0
 40
5.0
 40
5.0
 40
6.0
 40
6.0
 40
6.0
 40
7.0
 40
7.0
 40
7.0
 40
8.0
 40
8.0
 40
8.0
 40
9.0
 40
9.0
 40
9.0
 40
9.0
 10
56.20139294384896
 20
-124.9897867526067
 10
56.20139294384896
 20
-125.5060343110714
 10
55.64707708027226
 20
-125.5144747950103
 10
55.43348116018677
 20
-125.5144747950103
 10
55.2028320174493
 20
-125.5144747950103
 10
54.55549857577085
 20
-125.4953545150671
 10
54.55549857577085
 20
-124.9517184474947
 10
54.55549857577085
 20
-124.7782578898124
 10
54.62526175934716
 20
-124.5327948364883
 10
54.95736896412524
 20
-124.4947265313763
 10
54.95736896412524
 20
-124.4947265313763
 10
54.95736896412524
 20
-124.7084947062361
 10
54.95736896412524
 20
-124.7084947062361
 10
54.90035263384436
 20
-124.7190022474661
 10
54.75221352797862
 20
-124.7506971259304
 10
54.75221352797862
 20
-124.9537855047859
 10
54.75221352797862
 20
-125.2457573471608
 10
55.0801866181744
 20
-125.2860649643382
 10
55.28534205432103
 20
-125.2986395628594
 10
55.20713838680586
 20
-125.2056219847576
 10
55.14788274445956
 20
-125.1379258584725
 10
55.14788274445956
 20
-124.9560248168513
 10
55.14788274445956
 20
-124.7761908325212
 10
55.25571423314788
 20
-124.4737114489163
 10
55.66189099085884
 20
-124.4737114489163
 10
55.98142359711576
 20
-124.4737114489163
 10
56.20139294384896
 20
-124.6724934584152
 10
56.20139294384896
 20
-124.9897867526067
 97
        0
 97
        0
 92
        1
 93
        1
 72
     4
 94
        3
 73
     0
 74
     1
 95
       17
 96
       13
 40
0.0
 40
0.0
 40
0.0
 40
0.0
 40
1.0
 40
1.0
 40
1.0
 40
2.0
 40
2.0
 40
2.0
 40
3.0
 40
3.0
 40
3.0
 40
4.0
 40
4.0
 40
4.0
 40
4.0
 10
55.34253063937618
 20
-124.972905784729
 10
55.34253063937618
 20
-125.2352498059308
 10
55.55405950217052
 20
-125.2733181110428
 10
55.6703314747977
 20
-125.2733181110428
 10
55.84603134454544
 20
-125.2733181110428
 10
56.00881210622349
 20
-125.1780612208756
 10
56.00881210622349
 20
-124.9940931219633
 10
56.00881210622349
 20
-124.8735147799795
 10
55.94955646387719
 20
-124.6978149102318
 10
55.66395804814999
 20
-124.6978149102318
 10
55.43985458683449
 20
-124.6978149102318
 10
55.34253063937618
 20
-124.8375135321587
 10
55.34253063937618
 20
-124.972905784729
 97
        0
 97
        0
 75
     2
 76
     1
 98
        0
  0
ENDBLK
  5
12D
330
12A
100
AcDbEntity
  8
0
100
AcDbBlockEnd
  0
BLOCK
  5
135
330
133
100
AcDbEntity
  8
0
100
AcDbBlockBegin
  2
block 12
 70
     0
 10
0.0
 20
0.0
 30
0.0
  3
block 12
  1

  0
SPLINE
  5
137
330
133
100
AcDbEntity
  8
_U+30EC_U+30A4_U+30E4_U+30FC 1
370
     0
100
AcDbSpline
210
0.0
220
0.0
230
1.0
 70
    11
 71
     3
 72
    32
 73
    28
 74
     0
 42
0.0000000001
 43
0.0000000001
 12
1.0
 22
0.0
 32
0.0
 13
1.0
 23
0.0
 33
0.0
 40
0.0
 40
0.0
 40
0.0
 40
0.0
 40
1.0
 40
1.0
 40
1.0
 40
2.0
 40
2.0
 40
2.0
 40
3.0
 40
3.0
 40
3.0
 40
4.0
 40
4.0
 40
4.0
 40
5.0
 40
5.0
 40
5.0
 40
6.0
 40
6.0
 40
6.0
 40
7.0
 40
7.0
 40
7.0
 40
8.0
 40
8.0
 40
8.0
 40
9.0
 40
9.0
 40
9.0
 40
9.0
 10
108.8519259710509
 20
-119.2888427436153
 30
0.0
 10
108.6786376681428
 20
-119.2888427436153
 30
0.0
 10
108.4330023600445
 20
-119.2189073052647
 30
0.0
 10
108.3951063097068
 20
-118.8868001004866
 30
0.0
 10
108.3951063097068
 20
-118.8868001004866
 30
0.0
 10
108.6087022297923
 20
-118.8868001004866
 30
0.0
 10
108.6087022297923
 20
-118.8868001004866
 30
0.0
 10
108.6193820257966
 20
-118.9460557428329
 30
0.0
 10
108.6510769042608
 20
-119.0941948486987
 30
0.0
 10
108.8539930283421
 20
-119.0941948486987
 30
0.0
 10
109.1461371254913
 20
-119.0941948486987
 30
0.0
 10
109.184033175829
 20
-118.7641547012118
 30
0.0
 10
109.1967800291244
 20
-118.5589992650651
 30
0.0
 10
109.1058295083138
 20
-118.6392699898714
 30
0.0
 10
109.0383056368029
 20
-118.6964585749266
 30
0.0
 10
108.8564045951817
 20
-118.6964585749266
 30
0.0
 10
108.6765706108517
 20
-118.6964585749266
 30
0.0
 10
108.3737467176982
 20
-118.5906941435294
 30
0.0
 10
108.3737467176982
 20
-118.1845173858185
 30
0.0
 10
108.3737467176982
 20
-117.8649847795615
 30
0.0
 10
108.5728732367457
 20
-117.6450154328283
 30
0.0
 10
108.8901665309372
 20
-117.6450154328283
 30
0.0
 10
109.4041747773365
 20
-117.6450154328283
 30
0.0
 10
109.4148545733407
 20
-118.199331296405
 30
0.0
 10
109.4148545733407
 20
-118.4129272164905
 30
0.0
 10
109.4148545733407
 20
-118.643576359228
 30
0.0
 10
109.3955620386233
 20
-119.2888427436153
 30
0.0
 10
108.8519259710509
 20
-119.2888427436153
 30
0.0
  0
SPLINE
  5
138
330
133
100
AcDbEntity
  8
_U+30EC_U+30A4_U+30E4_U+30FC 1
370
     0
100
AcDbSpline
210
0.0
220
0.0
230
1.0
 70
    11
 71
     3
 72
    17
 73
    13
 74
     0
 42
0.0000000001
 43
0.0000000001
 12
1.0
 22
0.0
 32
0.0
 13
1.0
 23
0.0
 33
0.0
 40
0.0
 40
0.0
 40
0.0
 40
0.0
 40
1.0
 40
1.0
 40
1.0
 40
2.0
 40
2.0
 40
2.0
 40
3.0
 40
3.0
 40
3.0
 40
4.0
 40
4.0
 40
4.0
 40
4.0
 10
108.8922335882283
 20
-117.8375962704538
 30
0.0
 10
108.7737223035357
 20
-117.8375962704538
 30
0.0
 10
108.598022433788
 20
-117.8946126007347
 30
0.0
 10
108.598022433788
 20
-118.1802110164619
 30
0.0
 10
108.598022433788
 20
-118.4065537898428
 30
0.0
 10
108.7378933104891
 20
-118.50181068001
 30
0.0
 10
108.8732855630595
 20
-118.50181068001
 30
0.0
 10
109.135457329487
 20
-118.50181068001
 30
0.0
 10
109.1736978893732
 20
-118.2923488745068
 30
0.0
 10
109.1736978893732
 20
-118.1760769018796
 30
0.0
 10
109.1736978893732
 20
-118.0003770321319
 30
0.0
 10
109.0782687444318
 20
-117.8375962704538
 30
0.0
 10
108.8922335882283
 20
-117.8375962704538
 30
0.0
  0
HATCH
  5
139
330
133
100
AcDbEntity
  8
_U+30EC_U+30A4_U+30E4_U+30FC 1
 62
   179
420
  2234388
100
AcDbHatch
 10
0.0
 20
0.0
 30
0.0
210
0.0
220
0.0
230
1.0
  2
SOLID
 70
     1
 71
     0
 91
        2
 92
        1
 93
        1
 72
     4
 94
        3
 73
     0
 74
     1
 95
       32
 96
       28
 40
0.0
 40
0.0
 40
0.0
 40
0.0
 40
1.0
 40
1.0
 40
1.0
 40
2.0
 40
2.0
 40
2.0
 40
3.0
 40
3.0
 40
3.0
 40
4.0
 40
4.0
 40
4.0
 40
5.0
 40
5.0
 40
5.0
 40
6.0
 40
6.0
 40
6.0
 40
7.0
 40
7.0
 40
7.0
 40
8.0
 40
8.0
 40
8.0
 40
9.0
 40
9.0
 40
9.0
 40
9.0
 10
108.8519259710509
 20
-119.2888427436153
 10
108.6786376681428
 20
-119.2888427436153
 10
108.4330023600445
 20
-119.2189073052647
 10
108.3951063097068
 20
-118.8868001004866
 10
108.3951063097068
 20
-118.8868001004866
 10
108.6087022297923
 20
-118.8868001004866
 10
108.6087022297923
 20
-118.8868001004866
 10
108.6193820257966
 20
-118.9460557428329
 10
108.6510769042608
 20
-119.0941948486987
 10
108.8539930283421
 20
-119.0941948486987
 10
109.1461371254913
 20
-119.0941948486987
 10
109.184033175829
 20
-118.7641547012118
 10
109.1967800291244
 20
-118.5589992650651
 10
109.1058295083138
 20
-118.6392699898714
 10
109.0383056368029
 20
-118.6964585749266
 10
108.8564045951817
 20
-118.6964585749266
 10
108.6765706108517
 20
-118.6964585749266
 10
108.3737467176982
 20
-118.5906941435294
 10
108.3737467176982
 20
-118.1845173858185
 10
108.3737467176982
 20
-117.8649847795615
 10
108.5728732367457
 20
-117.6450154328283
 10
108.8901665309372
 20
-117.6450154328283
 10
109.4041747773365
 20
-117.6450154328283
 10
109.4148545733407
 20
-118.199331296405
 10
109.4148545733407
 20
-118.4129272164905
 10
109.4148545733407
 20
-118.643576359228
 10
109.3955620386233
 20
-119.2888427436153
 10
108.8519259710509
 20
-119.2888427436153
 97
        0
 97
        0
 92
        1
 93
        1
 72
     4
 94
        3
 73
     0
 74
     1
 95
       17
 96
       13
 40
0.0
 40
0.0
 40
0.0
 40
0.0
 40
1.0
 40
1.0
 40
1.0
 40
2.0
 40
2.0
 40
2.0
 40
3.0
 40
3.0
 40
3.0
 40
4.0
 40
4.0
 40
4.0
 40
4.0
 10
108.8922335882283
 20
-117.8375962704538
 10
108.7737223035357
 20
-117.8375962704538
 10
108.598022433788
 20
-117.8946126007347
 10
108.598022433788
 20
-118.1802110164619
 10
108.598022433788
 20
-118.4065537898428
 10
108.7378933104891
 20
-118.50181068001
 10
108.8732855630595
 20
-118.50181068001
 10
109.135457329487
 20
-118.50181068001
 10
109.1736978893732
 20
-118.2923488745068
 10
109.1736978893732
 20
-118.1760769018796
 10
109.1736978893732
 20
-118.0003770321319
 10
109.0782687444318
 20
-117.8375962704538
 10
108.8922335882283
 20
-117.8375962704538
 97
        0
 97
        0
 75
     2
 76
     1
 98
        0
  0
POLYLINE
  5
13A
330
133
100
AcDbEntity
  8
_U+30EC_U+30A4_U+30E4_U+30FC 1
370
     0
100
AcDb2dPolyline
 66
     1
 10
0.0
 20
0.0
 30
0.0
  0
VERTEX
  5
13B
330
13A
100
AcDbEntity
  8
_U+30EC_U+30A4_U+30E4_U+30FC 1
370
     0
100
AcDbVertex
100
AcDb2dVertex
 10
109.6312065698144
 20
-119.2380275852079
 30
0.0
  0
VERTEX
  5
13C
330
13A
100
AcDbEntity
  8
_U+30EC_U+30A4_U+30E4_U+30FC 1
370
     0
100
AcDbVertex
100
AcDb2dVertex
 10
109.6312065698144
 20
-118.9863633600104
 30
0.0
  0
VERTEX
  5
13D
330
13A
100
AcDbEntity
  8
_U+30EC_U+30A4_U+30E4_U+30FC 1
370
     0
100
AcDbVertex
100
AcDb2dVertex
 10
109.8830430497862
 20
-118.9863633600104
 30
0.0
  0
VERTEX
  5
13E
330
13A
100
AcDbEntity
  8
_U+30EC_U+30A4_U+30E4_U+30FC 1
370
     0
100
AcDbVertex
100
AcDb2dVertex
 10
109.8830430497862
 20
-119.2380275852079
 30
0.0
  0
VERTEX
  5
13F
330
13A
100
AcDbEntity
  8
_U+30EC_U+30A4_U+30E4_U+30FC 1
370
     0
100
AcDbVertex
100
AcDb2dVertex
 10
109.6312065698144
 20
-119.2380275852079
 30
0.0
  0
SEQEND
  5
140
330
13A
100
AcDbEntity
  8
_U+30EC_U+30A4_U+30E4_U+30FC 1
370
     0
  0
HATCH
  5
141
330
133
100
AcDbEntity
  8
_U+30EC_U+30A4_U+30E4_U+30FC 1
 62
   179
420
  2234388
100
AcDbHatch
 10
0.0
 20
0.0
 30
0.0
210
0.0
220
0.0
230
1.0
  2
SOLID
 70
     1
 71
     0
 91
        1
 92
        1
 93
        4
 72
     1
 10
109.6312065698144
 20
-119.2380275852079
 11
109.6312065698144
 21
-118.9863633600104
 72
     1
 10
109.6312065698144
 20
-118.9863633600104
 11
109.8830430497862
 21
-118.9863633600104
 72
     1
 10
109.8830430497862
 20
-118.9863633600104
 11
109.8830430497862
 21
-119.2380275852079
 72
     1
 10
109.8830430497862
 20
-119.2380275852079
 11
109.6312065698144
 21
-119.2380275852079
 97
        0
 75
     2
 76
     1
 98
        0
  0
SPLINE
  5
142
330
133
100
AcDbEntity
  8
_U+30EC_U+30A4_U+30E4_U+30FC 1
370
     0
100
AcDbSpline
210
0.0
220
0.0
230
1.0
 70
    11
 71
     3
 72
    53
 73
    49
 74
     0
 42
0.0000000001
 43
0.0000000001
 12
1.0
 22
0.0
 32
0.0
 13
1.0
 23
0.0
 33
0.0
 40
0.0
 40
0.0
 40
0.0
 40
0.0
 40
1.0
 40
1.0
 40
1.0
 40
2.0
 40
2.0
 40
2.0
 40
3.0
 40
3.0
 40
3.0
 40
4.0
 40
4.0
 40
4.0
 40
5.0
 40
5.0
 40
5.0
 40
6.0
 40
6.0
 40
6.0
 40
7.0
 40
7.0
 40
7.0
 40
8.0
 40
8.0
 40
8.0
 40
9.0
 40
9.0
 40
9.0
 40
10.0
 40
10.0
 40
10.0
 40
11.0
 40
11.0
 40
11.0
 40
12.0
 40
12.0
 40
12.0
 40
13.0
 40
13.0
 40
13.0
 40
14.0
 40
14.0
 40
14.0
 40
15.0
 40
15.0
 40
15.0
 40
16.0
 40
16.0
 40
16.0
 40
16.0
 10
110.6003119298152
 20
-119.2888427436153
 30
0.0
 10
110.5221082623
 20
-119.2888427436153
 30
0.0
 10
110.4204779454852
 20
-119.2719617757376
 30
0.0
 10
110.3188476286703
 20
-119.2083997640347
 30
0.0
 10
110.1455593257622
 20
-119.098328963281
 30
0.0
 10
110.1241997337537
 20
-118.9672430800672
 30
0.0
 10
110.1052517085848
 20
-118.8594115913789
 30
0.0
 10
110.1052517085848
 20
-118.8594115913789
 30
0.0
 10
110.3274603673834
 20
-118.8594115913789
 30
0.0
 10
110.3274603673834
 20
-118.8594115913789
 30
0.0
 10
110.3825818951474
 20
-119.0581936008778
 30
0.0
 10
110.5093614090046
 20
-119.087821422051
 30
0.0
 10
110.6023789871063
 20
-119.087821422051
 30
0.0
 10
110.7422498638075
 20
-119.087821422051
 30
0.0
 10
110.8945230842555
 20
-118.9884304173015
 30
0.0
 10
110.8945230842555
 20
-118.7557142172729
 30
0.0
 10
110.8945230842555
 20
-118.4997436227188
 30
0.0
 10
110.7146890999255
 20
-118.4299804391425
 30
0.0
 10
110.5941107579417
 20
-118.4299804391425
 30
0.0
 10
110.5624158794775
 20
-118.4299804391425
 30
0.0
 10
110.4204779454852
 20
-118.4299804391425
 30
0.0
 10
110.3315944819657
 20
-118.5589992650651
 30
0.0
 10
110.3315944819657
 20
-118.5589992650651
 30
0.0
 10
110.1562391217665
 20
-118.539878985122
 30
0.0
 10
110.1562391217665
 20
-118.539878985122
 30
0.0
 10
110.1562391217665
 20
-118.539878985122
 30
0.0
 10
110.2768174637502
 20
-117.6937635339446
 30
0.0
 10
110.2768174637502
 20
-117.6937635339446
 30
0.0
 10
110.2768174637502
 20
-117.6937635339446
 30
0.0
 10
111.0550645338682
 20
-117.6937635339446
 30
0.0
 10
111.0550645338682
 20
-117.6937635339446
 30
0.0
 10
111.0550645338682
 20
-117.6937635339446
 30
0.0
 10
111.0550645338682
 20
-117.8884114288612
 30
0.0
 10
111.0550645338682
 20
-117.8884114288612
 30
0.0
 10
111.0550645338682
 20
-117.8884114288612
 30
0.0
 10
110.439425970654
 20
-117.8884114288612
 30
0.0
 10
110.439425970654
 20
-117.8884114288612
 30
0.0
 10
110.439425970654
 20
-117.8884114288612
 30
0.0
 10
110.3739691564343
 20
-118.3114691544499
 30
0.0
 10
110.3739691564343
 20
-118.3114691544499
 30
0.0
 10
110.4352918560717
 20
-118.2775349639202
 30
0.0
 10
110.5179741477177
 20
-118.237399601517
 30
0.0
 10
110.6364854324103
 20
-118.237399601517
 30
0.0
 10
110.8900444601247
 20
-118.237399601517
 30
0.0
 10
111.1270670295099
 20
-118.4236070124948
 30
0.0
 10
111.1270670295099
 20
-118.7365939373297
 30
0.0
 10
111.1270670295099
 20
-119.0540594862955
 30
0.0
 10
110.9027913134201
 20
-119.2888427436153
 30
0.0
 10
110.6003119298152
 20
-119.2888427436153
 30
0.0
  0
HATCH
  5
143
330
133
100
AcDbEntity
  8
_U+30EC_U+30A4_U+30E4_U+30FC 1
 62
   179
420
  2234388
100
AcDbHatch
 10
0.0
 20
0.0
 30
0.0
210
0.0
220
0.0
230
1.0
  2
SOLID
 70
     1
 71
     0
 91
        1
 92
        1
 93
        1
 72
     4
 94
        3
 73
     0
 74
     1
 95
       53
 96
       49
 40
0.0
 40
0.0
 40
0.0
 40
0.0
 40
1.0
 40
1.0
 40
1.0
 40
2.0
 40
2.0
 40
2.0
 40
3.0
 40
3.0
 40
3.0
 40
4.0
 40
4.0
 40
4.0
 40
5.0
 40
5.0
 40
5.0
 40
6.0
 40
6.0
 40
6.0
 40
7.0
 40
7.0
 40
7.0
 40
8.0
 40
8.0
 40
8.0
 40
9.0
 40
9.0
 40
9.0
 40
10.0
 40
10.0
 40
10.0
 40
11.0
 40
11.0
 40
11.0
 40
12.0
 40
12.0
 40
12.0
 40
13.0
 40
13.0
 40
13.0
 40
14.0
 40
14.0
 40
14.0
 40
15.0
 40
15.0
 40
15.0
 40
16.0
 40
16.0
 40
16.0
 40
16.0
 10
110.6003119298152
 20
-119.2888427436153
 10
110.5221082623
 20
-119.2888427436153
 10
110.4204779454852
 20
-119.2719617757376
 10
110.3188476286703
 20
-119.2083997640347
 10
110.1455593257622
 20
-119.098328963281
 10
110.1241997337537
 20
-118.9672430800672
 10
110.1052517085848
 20
-118.8594115913789
 10
110.1052517085848
 20
-118.8594115913789
 10
110.3274603673834
 20
-118.8594115913789
 10
110.3274603673834
 20
-118.8594115913789
 10
110.3825818951474
 20
-119.0581936008778
 10
110.5093614090046
 20
-119.087821422051
 10
110.6023789871063
 20
-119.087821422051
 10
110.7422498638075
 20
-119.087821422051
 10
110.8945230842555
 20
-118.9884304173015
 10
110.8945230842555
 20
-118.7557142172729
 10
110.8945230842555
 20
-118.4997436227188
 10
110.7146890999255
 20
-118.4299804391425
 10
110.5941107579417
 20
-118.4299804391425
 10
110.5624158794775
 20
-118.4299804391425
 10
110.4204779454852
 20
-118.4299804391425
 10
110.3315944819657
 20
-118.5589992650651
 10
110.3315944819657
 20
-118.5589992650651
 10
110.1562391217665
 20
-118.539878985122
 10
110.1562391217665
 20
-118.539878985122
 10
110.1562391217665
 20
-118.539878985122
 10
110.2768174637502
 20
-117.6937635339446
 10
110.2768174637502
 20
-117.6937635339446
 10
110.2768174637502
 20
-117.6937635339446
 10
111.0550645338682
 20
-117.6937635339446
 10
111.0550645338682
 20
-117.6937635339446
 10
111.0550645338682
 20
-117.6937635339446
 10
111.0550645338682
 20
-117.8884114288612
 10
111.0550645338682
 20
-117.8884114288612
 10
111.0550645338682
 20
-117.8884114288612
 10
110.439425970654
 20
-117.8884114288612
 10
110.439425970654
 20
-117.8884114288612
 10
110.439425970654
 20
-117.8884114288612
 10
110.3739691564343
 20
-118.3114691544499
 10
110.3739691564343
 20
-118.3114691544499
 10
110.4352918560717
 20
-118.2775349639202
 10
110.5179741477177
 20
-118.237399601517
 10
110.6364854324103
 20
-118.237399601517
 10
110.8900444601247
 20
-118.237399601517
 10
111.1270670295099
 20
-118.4236070124948
 10
111.1270670295099
 20
-118.7365939373297
 10
111.1270670295099
 20
-119.0540594862955
 10
110.9027913134201
 20
-119.2888427436153
 10
110.6003119298152
 20
-119.2888427436153
 97
        0
 97
        0
 75
     2
 76
     1
 98
        0
  0
ENDBLK
  5
136
330
133
100
AcDbEntity
  8
0
100
AcDbBlockEnd
  0
BLOCK
  5
146
330
144
100
AcDbEntity
  8
0
100
AcDbBlockBegin
  2
block 13
 70
     0
 10
0.0
 20
0.0
 30
0.0
  3
block 13
  1

  0
SPLINE
  5
148
330
144
100
AcDbEntity
  8
_U+30EC_U+30A4_U+30E4_U+30FC 1
370
     0
100
AcDbSpline
210
0.0
220
0.0
230
1.0
 70
    11
 71
     3
 72
    44
 73
    40
 74
     0
 42
0.0000000001
 43
0.0000000001
 12
1.0
 22
0.0
 32
0.0
 13
1.0
 23
0.0
 33
0.0
 40
0.0
 40
0.0
 40
0.0
 40
0.0
 40
1.0
 40
1.0
 40
1.0
 40
2.0
 40
2.0
 40
2.0
 40
3.0
 40
3.0
 40
3.0
 40
4.0
 40
4.0
 40
4.0
 40
5.0
 40
5.0
 40
5.0
 40
6.0
 40
6.0
 40
6.0
 40
7.0
 40
7.0
 40
7.0
 40
8.0
 40
8.0
 40
8.0
 40
9.0
 40
9.0
 40
9.0
 40
10.0
 40
10.0
 40
10.0
 40
11.0
 40
11.0
 40
11.0
 40
12.0
 40
12.0
 40
12.0
 40
13.0
 40
13.0
 40
13.0
 40
13.0
 10
125.9182399858816
 20
-125.2543700858739
 30
0.0
 10
126.0770588877516
 20
-125.472272375316
 30
0.0
 10
126.1511284406844
 20
-125.565462208192
 30
0.0
 10
126.2947889224194
 20
-125.614038054534
 30
0.0
 10
126.2947889224194
 20
-125.614038054534
 30
0.0
 10
126.2947889224194
 20
-124.8356187296418
 30
0.0
 10
126.2947889224194
 20
-124.8356187296418
 30
0.0
 10
126.2947889224194
 20
-124.8356187296418
 30
0.0
 10
126.5001166133403
 20
-124.8356187296418
 30
0.0
 10
126.5001166133403
 20
-124.8356187296418
 30
0.0
 10
126.5001166133403
 20
-124.8356187296418
 30
0.0
 10
126.5001166133403
 20
-125.8636352224404
 30
0.0
 10
126.5001166133403
 20
-125.8636352224404
 30
0.0
 10
126.1425157019713
 20
-125.831940343976
 30
0.0
 10
126.0643120344562
 20
-125.766311274982
 30
0.0
 10
125.7659667654335
 20
-125.3813218545054
 30
0.0
 10
125.5671847559346
 20
-125.1253512599513
 30
0.0
 10
125.4993163748752
 20
-125.0598944457316
 30
0.0
 10
125.3618570650137
 20
-125.0598944457316
 30
0.0
 10
125.2433457803211
 20
-125.0598944457316
 30
0.0
 10
125.1124321518816
 20
-125.131724686599
 30
0.0
 10
125.1124321518816
 20
-125.3284396388068
 30
0.0
 10
125.1124321518816
 20
-125.5887166027174
 30
0.0
 10
125.3429090398448
 20
-125.5971570866563
 30
0.0
 10
125.4593532672463
 20
-125.6014634560128
 30
0.0
 10
125.4593532672463
 20
-125.6014634560128
 30
0.0
 10
125.4593532672463
 20
-125.8255669173283
 30
0.0
 10
125.4593532672463
 20
-125.8255669173283
 30
0.0
 10
125.3322292438406
 20
-125.8171264333895
 30
0.0
 10
125.2202636405699
 20
-125.8066188921595
 30
0.0
 10
125.1017523558774
 20
-125.7261759125789
 30
0.0
 10
124.9408663967162
 20
-125.6162773665994
 30
0.0
 10
124.9071044609607
 20
-125.4300699556217
 30
0.0
 10
124.9071044609607
 20
-125.3136257282202
 30
0.0
 10
124.9071044609607
 20
-125.0364677964319
 30
0.0
 10
125.0910725598731
 20
-124.8292453029941
 30
0.0
 10
125.3639241223049
 20
-124.8292453029941
 30
0.0
 10
125.5926784625254
 20
-124.8292453029941
 30
0.0
 10
125.6918972125006
 20
-124.9455172756213
 30
0.0
 10
125.9182399858816
 20
-125.2543700858739
 30
0.0
  0
HATCH
  5
149
330
144
100
AcDbEntity
  8
_U+30EC_U+30A4_U+30E4_U+30FC 1
 62
   179
420
  2234388
100
AcDbHatch
 10
0.0
 20
0.0
 30
0.0
210
0.0
220
0.0
230
1.0
  2
SOLID
 70
     1
 71
     0
 91
        1
 92
        1
 93
        1
 72
     4
 94
        3
 73
     0
 74
     1
 95
       44
 96
       40
 40
0.0
 40
0.0
 40
0.0
 40
0.0
 40
1.0
 40
1.0
 40
1.0
 40
2.0
 40
2.0
 40
2.0
 40
3.0
 40
3.0
 40
3.0
 40
4.0
 40
4.0
 40
4.0
 40
5.0
 40
5.0
 40
5.0
 40
6.0
 40
6.0
 40
6.0
 40
7.0
 40
7.0
 40
7.0
 40
8.0
 40
8.0
 40
8.0
 40
9.0
 40
9.0
 40
9.0
 40
10.0
 40
10.0
 40
10.0
 40
11.0
 40
11.0
 40
11.0
 40
12.0
 40
12.0
 40
12.0
 40
13.0
 40
13.0
 40
13.0
 40
13.0
 10
125.9182399858816
 20
-125.2543700858739
 10
126.0770588877516
 20
-125.472272375316
 10
126.1511284406844
 20
-125.565462208192
 10
126.2947889224194
 20
-125.614038054534
 10
126.2947889224194
 20
-125.614038054534
 10
126.2947889224194
 20
-124.8356187296418
 10
126.2947889224194
 20
-124.8356187296418
 10
126.2947889224194
 20
-124.8356187296418
 10
126.5001166133403
 20
-124.8356187296418
 10
126.5001166133403
 20
-124.8356187296418
 10
126.5001166133403
 20
-124.8356187296418
 10
126.5001166133403
 20
-125.8636352224404
 10
126.5001166133403
 20
-125.8636352224404
 10
126.1425157019713
 20
-125.831940343976
 10
126.0643120344562
 20
-125.766311274982
 10
125.7659667654335
 20
-125.3813218545054
 10
125.5671847559346
 20
-125.1253512599513
 10
125.4993163748752
 20
-125.0598944457316
 10
125.3618570650137
 20
-125.0598944457316
 10
125.2433457803211
 20
-125.0598944457316
 10
125.1124321518816
 20
-125.131724686599
 10
125.1124321518816
 20
-125.3284396388068
 10
125.1124321518816
 20
-125.5887166027174
 10
125.3429090398448
 20
-125.5971570866563
 10
125.4593532672463
 20
-125.6014634560128
 10
125.4593532672463
 20
-125.6014634560128
 10
125.4593532672463
 20
-125.8255669173283
 10
125.4593532672463
 20
-125.8255669173283
 10
125.3322292438406
 20
-125.8171264333895
 10
125.2202636405699
 20
-125.8066188921595
 10
125.1017523558774
 20
-125.7261759125789
 10
124.9408663967162
 20
-125.6162773665994
 10
124.9071044609607
 20
-125.4300699556217
 10
124.9071044609607
 20
-125.3136257282202
 10
124.9071044609607
 20
-125.0364677964319
 10
125.0910725598731
 20
-124.8292453029941
 10
125.3639241223049
 20
-124.8292453029941
 10
125.5926784625254
 20
-124.8292453029941
 10
125.6918972125006
 20
-124.9455172756213
 10
125.9182399858816
 20
-125.2543700858739
 97
        0
 97
        0
 75
     2
 76
     1
 98
        0
  0
SPLINE
  5
14A
330
144
100
AcDbEntity
  8
_U+30EC_U+30A4_U+30E4_U+30FC 1
370
     0
100
AcDbSpline
210
0.0
220
0.0
230
1.0
 70
    11
 71
     3
 72
    29
 73
    25
 74
     0
 42
0.0000000001
 43
0.0000000001
 12
1.0
 22
0.0
 32
0.0
 13
1.0
 23
0.0
 33
0.0
 40
0.0
 40
0.0
 40
0.0
 40
0.0
 40
1.0
 40
1.0
 40
1.0
 40
2.0
 40
2.0
 40
2.0
 40
3.0
 40
3.0
 40
3.0
 40
4.0
 40
4.0
 40
4.0
 40
5.0
 40
5.0
 40
5.0
 40
6.0
 40
6.0
 40
6.0
 40
7.0
 40
7.0
 40
7.0
 40
8.0
 40
8.0
 40
8.0
 40
8.0
 10
126.3223496863014
 20
-123.7729790272165
 30
0.0
 10
126.5318114918045
 20
-123.8808105159048
 30
0.0
 10
126.5507595169734
 20
-124.0542710735871
 30
0.0
 10
126.5507595169734
 20
-124.1707153009886
 30
0.0
 10
126.5507595169734
 20
-124.3314290053755
 30
0.0
 10
126.5042507279226
 20
-124.4731946845935
 30
0.0
 10
126.3223496863014
 20
-124.5684515747607
 30
0.0
 10
126.1277017913848
 20
-124.6719766940924
 30
0.0
 10
125.8906792219996
 20
-124.6910969740356
 30
0.0
 10
125.7280707150958
 20
-124.6910969740356
 30
0.0
 10
125.5840657238123
 20
-124.6910969740356
 30
0.0
 10
125.3322292438406
 20
-124.6742160061578
 30
0.0
 10
125.1334472343416
 20
-124.5684515747607
 30
0.0
 10
124.9305311102604
 20
-124.4604478312981
 30
0.0
 10
124.9071044609607
 20
-124.2997341269112
 30
0.0
 10
124.9071044609607
 20
-124.1707153009886
 30
0.0
 10
124.9071044609607
 20
-124.0120686538928
 30
0.0
 10
124.9515461927205
 20
-123.8680636626094
 30
0.0
 10
125.1334472343416
 20
-123.7729790272165
 30
0.0
 10
125.3260280719671
 20
-123.673588022467
 30
0.0
 10
125.5544379026392
 20
-123.6503336279416
 30
0.0
 10
125.7280707150958
 20
-123.6503336279416
 30
0.0
 10
125.8992919607127
 20
-123.6503336279416
 30
0.0
 10
126.1297688486759
 20
-123.6713487104016
 30
0.0
 10
126.3223496863014
 20
-123.7729790272165
 30
0.0
  0
SPLINE
  5
14B
330
144
100
AcDbEntity
  8
_U+30EC_U+30A4_U+30E4_U+30FC 1
370
     0
100
AcDbSpline
210
0.0
220
0.0
230
1.0
 70
    11
 71
     3
 72
    17
 73
    13
 74
     0
 42
0.0000000001
 43
0.0000000001
 12
1.0
 22
0.0
 32
0.0
 13
1.0
 23
0.0
 33
0.0
 40
0.0
 40
0.0
 40
0.0
 40
0.0
 40
1.0
 40
1.0
 40
1.0
 40
2.0
 40
2.0
 40
2.0
 40
3.0
 40
3.0
 40
3.0
 40
4.0
 40
4.0
 40
4.0
 40
4.0
 10
125.0996852985862
 20
-124.1707153009886
 30
0.0
 10
125.0996852985862
 20
-124.4203124688949
 30
0.0
 10
125.3832166570223
 20
-124.4668212579458
 30
0.0
 10
125.7280707150958
 20
-124.4668212579458
 30
0.0
 10
126.0474310665784
 20
-124.4668212579458
 30
0.0
 10
126.3561116220568
 20
-124.4308200101249
 30
0.0
 10
126.3561116220568
 20
-124.1707153009886
 30
0.0
 10
126.3561116220568
 20
-123.9231851903734
 30
0.0
 10
126.0749918304604
 20
-123.8744370892571
 30
0.0
 10
125.7280707150958
 20
-123.8744370892571
 30
0.0
 10
125.4083658540646
 20
-123.8744370892571
 30
0.0
 10
125.0996852985862
 20
-123.9125053943691
 30
0.0
 10
125.0996852985862
 20
-124.1707153009886
 30
0.0
  0
HATCH
  5
14C
330
144
100
AcDbEntity
  8
_U+30EC_U+30A4_U+30E4_U+30FC 1
 62
   179
420
  2234388
100
AcDbHatch
 10
0.0
 20
0.0
 30
0.0
210
0.0
220
0.0
230
1.0
  2
SOLID
 70
     1
 71
     0
 91
        2
 92
        1
 93
        1
 72
     4
 94
        3
 73
     0
 74
     1
 95
       29
 96
       25
 40
0.0
 40
0.0
 40
0.0
 40
0.0
 40
1.0
 40
1.0
 40
1.0
 40
2.0
 40
2.0
 40
2.0
 40
3.0
 40
3.0
 40
3.0
 40
4.0
 40
4.0
 40
4.0
 40
5.0
 40
5.0
 40
5.0
 40
6.0
 40
6.0
 40
6.0
 40
7.0
 40
7.0
 40
7.0
 40
8.0
 40
8.0
 40
8.0
 40
8.0
 10
126.3223496863014
 20
-123.7729790272165
 10
126.5318114918045
 20
-123.8808105159048
 10
126.5507595169734
 20
-124.0542710735871
 10
126.5507595169734
 20
-124.1707153009886
 10
126.5507595169734
 20
-124.3314290053755
 10
126.5042507279226
 20
-124.4731946845935
 10
126.3223496863014
 20
-124.5684515747607
 10
126.1277017913848
 20
-124.6719766940924
 10
125.8906792219996
 20
-124.6910969740356
 10
125.7280707150958
 20
-124.6910969740356
 10
125.5840657238123
 20
-124.6910969740356
 10
125.3322292438406
 20
-124.6742160061578
 10
125.1334472343416
 20
-124.5684515747607
 10
124.9305311102604
 20
-124.4604478312981
 10
124.9071044609607
 20
-124.2997341269112
 10
124.9071044609607
 20
-124.1707153009886
 10
124.9071044609607
 20
-124.0120686538928
 10
124.9515461927205
 20
-123.8680636626094
 10
125.1334472343416
 20
-123.7729790272165
 10
125.3260280719671
 20
-123.673588022467
 10
125.5544379026392
 20
-123.6503336279416
 10
125.7280707150958
 20
-123.6503336279416
 10
125.8992919607127
 20
-123.6503336279416
 10
126.1297688486759
 20
-123.6713487104016
 10
126.3223496863014
 20
-123.7729790272165
 97
        0
 97
        0
 92
        1
 93
        1
 72
     4
 94
        3
 73
     0
 74
     1
 95
       17
 96
       13
 40
0.0
 40
0.0
 40
0.0
 40
0.0
 40
1.0
 40
1.0
 40
1.0
 40
2.0
 40
2.0
 40
2.0
 40
3.0
 40
3.0
 40
3.0
 40
4.0
 40
4.0
 40
4.0
 40
4.0
 10
125.0996852985862
 20
-124.1707153009886
 10
125.0996852985862
 20
-124.4203124688949
 10
125.3832166570223
 20
-124.4668212579458
 10
125.7280707150958
 20
-124.4668212579458
 10
126.0474310665784
 20
-124.4668212579458
 10
126.3561116220568
 20
-124.4308200101249
 10
126.3561116220568
 20
-124.1707153009886
 10
126.3561116220568
 20
-123.9231851903734
 10
126.0749918304604
 20
-123.8744370892571
 10
125.7280707150958
 20
-123.8744370892571
 10
125.4083658540646
 20
-123.8744370892571
 10
125.0996852985862
 20
-123.9125053943691
 10
125.0996852985862
 20
-124.1707153009886
 97
        0
 97
        0
 75
     2
 76
     1
 98
        0
  0
ENDBLK
  5
147
330
144
100
AcDbEntity
  8
0
100
AcDbBlockEnd
  0
ENDSEC
  0
SECTION
  2
ENTITIES
  0
SPLINE
  5
41
330
1F
100
AcDbEntity
  8
_U+30EC_U+30A4_U+30E4_U+30FC 1
  6
AI-Linetype-1
 62
     7
420
 16777215
370
     9
100
AcDbSpline
210
0.0
220
0.0
230
1.0
 70
     8
 71
     3
 72
    20
 73
    16
 74
     0
 42
0.0000000001
 43
0.0000000001
 12
1.0
 22
0.0
 32
0.0
 13
1.0
 23
0.0
 33
0.0
 40
0.0
 40
0.0
 40
0.0
 40
0.0
 40
1.0
 40
1.0
 40
1.0
 40
2.0
 40
2.0
 40
2.0
 40
3.0
 40
3.0
 40
3.0
 40
4.0
 40
4.0
 40
4.0
 40
5.0
 40
5.0
 40
5.0
 40
5.0
 10
109.419672194867
 20
-121.820128580656
 30
0.0
 10
109.419672194867
 20
-121.820128580656
 30
0.0
 10
110.007752750276
 20
-122.5842452471317
 30
0.0
 10
110.007752750276
 20
-122.5842452471317
 30
0.0
 10
110.007752750276
 20
-122.5842452471317
 30
0.0
 10
118.8861110813896
 20
-122.5842452471317
 30
0.0
 10
118.8861110813896
 20
-122.5842452471317
 30
0.0
 10
118.8861110813896
 20
-122.5842452471317
 30
0.0
 10
119.8269694144875
 20
-122.5845980249095
 30
0.0
 10
119.8269694144875
 20
-123.7604063579487
 30
0.0
 10
119.8269694144875
 20
-123.7604063579487
 30
0.0
 10
119.7677027478358
 20
-127.8173508013789
 30
0.0
 10
119.7677027478358
 20
-127.8173508013789
 30
0.0
 10
119.7677027478358
 20
-127.8173508013789
 30
0.0
 10
127.9994194124448
 20
-127.8173508013789
 30
0.0
 10
127.9994194124448
 20
-127.8173508013789
 30
0.0
  0
SPLINE
  5
43
330
1F
100
AcDbEntity
  8
_U+30EC_U+30A4_U+30E4_U+30FC 1
  6
AI-Linetype-2
 62
     7
420
 16777215
370
     9
100
AcDbSpline
210
0.0
220
0.0
230
1.0
 70
     8
 71
     3
 72
    20
 73
    16
 74
     0
 42
0.0000000001
 43
0.0000000001
 12
1.0
 22
0.0
 32
0.0
 13
1.0
 23
0.0
 33
0.0
 40
0.0
 40
0.0
 40
0.0
 40
0.0
 40
1.0
 40
1.0
 40
1.0
 40
2.0
 40
2.0
 40
2.0
 40
3.0
 40
3.0
 40
3.0
 40
4.0
 40
4.0
 40
4.0
 40
5.0
 40
5.0
 40
5.0
 40
5.0
 10
108.8905055283327
 20
-121.761214691782
 30
0.0
 10
108.8905055283327
 20
-121.761214691782
 30
0.0
 10
109.7724499725566
 20
-122.9370230248213
 30
0.0
 10
109.7724499725566
 20
-122.9370230248213
 30
0.0
 10
109.7724499725566
 20
-122.9370230248213
 30
0.0
 10
119.2974499701754
 20
-123.1134119136661
 30
0.0
 10
119.2974499701754
 20
-123.1134119136661
 30
0.0
 10
119.2974499701754
 20
-123.1134119136661
 30
0.0
 10
119.2974499701754
 20
-127.1703563570963
 30
0.0
 10
119.2974499701754
 20
-127.1703563570963
 30
0.0
 10
119.2974499701754
 20
-127.1703563570963
 30
0.0
 10
118.8861110813896
 20
-128.3465174679133
 30
0.0
 10
120.7089138587115
 20
-128.3465174679133
 30
0.0
 10
120.7089138587115
 20
-128.3465174679133
 30
0.0
 10
127.9994194124448
 20
-128.3465174679133
 30
0.0
 10
127.9994194124448
 20
-128.3465174679133
 30
0.0
  0
SPLINE
  5
45
330
1F
100
AcDbEntity
  8
_U+30EC_U+30A4_U+30E4_U+30FC 1
 62
     7
420
 16777215
370
     9
100
AcDbSpline
210
0.0
220
0.0
230
1.0
 70
    11
 71
     3
 72
   209
 73
   205
 74
     0
 42
0.0000000001
 43
0.0000000001
 12
1.0
 22
0.0
 32
0.0
 13
1.0
 23
0.0
 33
0.0
 40
0.0
 40
0.0
 40
0.0
 40
0.0
 40
1.0
 40
1.0
 40
1.0
 40
2.0
 40
2.0
 40
2.0
 40
3.0
 40
3.0
 40
3.0
 40
4.0
 40
4.0
 40
4.0
 40
5.0
 40
5.0
 40
5.0
 40
6.0
 40
6.0
 40
6.0
 40
7.0
 40
7.0
 40
7.0
 40
8.0
 40
8.0
 40
8.0
 40
9.0
 40
9.0
 40
9.0
 40
10.0
 40
10.0
 40
10.0
 40
11.0
 40
11.0
 40
11.0
 40
12.0
 40
12.0
 40
12.0
 40
13.0
 40
13.0
 40
13.0
 40
14.0
 40
14.0
 40
14.0
 40
15.0
 40
15.0
 40
15.0
 40
16.0
 40
16.0
 40
16.0
 40
17.0
 40
17.0
 40
17.0
 40
18.0
 40
18.0
 40
18.0
 40
19.0
 40
19.0
 40
19.0
 40
20.0
 40
20.0
 40
20.0
 40
21.0
 40
21.0
 40
21.0
 40
22.0
 40
22.0
 40
22.0
 40
23.0
 40
23.0
 40
23.0
 40
24.0
 40
24.0
 40
24.0
 40
25.0
 40
25.0
 40
25.0
 40
26.0
 40
26.0
 40
26.0
 40
27.0
 40
27.0
 40
27.0
 40
28.0
 40
28.0
 40
28.0
 40
29.0
 40
29.0
 40
29.0
 40
30.0
 40
30.0
 40
30.0
 40
31.0
 40
31.0
 40
31.0
 40
32.0
 40
32.0
 40
32.0
 40
33.0
 40
33.0
 40
33.0
 40
34.0
 40
34.0
 40
34.0
 40
35.0
 40
35.0
 40
35.0
 40
36.0
 40
36.0
 40
36.0
 40
37.0
 40
37.0
 40
37.0
 40
38.0
 40
38.0
 40
38.0
 40
39.0
 40
39.0
 40
39.0
 40
40.0
 40
40.0
 40
40.0
 40
41.0
 40
41.0
 40
41.0
 40
42.0
 40
42.0
 40
42.0
 40
43.0
 40
43.0
 40
43.0
 40
44.0
 40
44.0
 40
44.0
 40
45.0
 40
45.0
 40
45.0
 40
46.0
 40
46.0
 40
46.0
 40
47.0
 40
47.0
 40
47.0
 40
48.0
 40
48.0
 40
48.0
 40
49.0
 40
49.0
 40
49.0
 40
50.0
 40
50.0
 40
50.0
 40
51.0
 40
51.0
 40
51.0
 40
52.0
 40
52.0
 40
52.0
 40
53.0
 40
53.0
 40
53.0
 40
54.0
 40
54.0
 40
54.0
 40
55.0
 40
55.0
 40
55.0
 40
56.0
 40
56.0
 40
56.0
 40
57.0
 40
57.0
 40
57.0
 40
58.0
 40
58.0
 40
58.0
 40
59.0
 40
59.0
 40
59.0
 40
60.0
 40
60.0
 40
60.0
 40
61.0
 40
61.0
 40
61.0
 40
62.0
 40
62.0
 40
62.0
 40
63.0
 40
63.0
 40
63.0
 40
64.0
 40
64.0
 40
64.0
 40
65.0
 40
65.0
 40
65.0
 40
66.0
 40
66.0
 40
66.0
 40
67.0
 40
67.0
 40
67.0
 40
68.0
 40
68.0
 40
68.0
 40
68.0
 10
57.56151380926121
 20
-121.8197758028783
 30
0.0
 10
57.56151380926121
 20
-121.8197758028783
 30
0.0
 10
57.85537769065301
 20
-121.525911914063
 30
0.0
 10
57.85537769065301
 20
-121.525911914063
 30
0.0
 10
57.85537769065301
 20
-121.525911914063
 30
0.0
 10
58.56093322820835
 20
-122.1725535805678
 30
0.0
 10
58.56093322820835
 20
-122.1725535805678
 30
0.0
 10
58.56093322820835
 20
-122.1725535805678
 30
0.0
 10
69.90873571647957
 20
-122.1725535805678
 30
0.0
 10
69.90873571647957
 20
-122.1725535805678
 30
0.0
 10
69.90873571647957
 20
-122.1725535805678
 30
0.0
 10
70.84941942673196
 20
-122.2903813583164
 30
0.0
 10
70.84941942673196
 20
-123.3487146913852
 30
0.0
 10
70.84941942673196
 20
-123.3487146913852
 30
0.0
 10
70.84941942673196
 20
-126.9350535793772
 30
0.0
 10
70.84941942673196
 20
-126.9350535793772
 30
0.0
 10
70.84941942673196
 20
-126.9350535793772
 30
0.0
 10
70.73176625103787
 20
-127.6995230236307
 30
0.0
 10
71.20219720442155
 20
-127.6995230236307
 30
0.0
 10
71.20219720442155
 20
-127.6995230236307
 30
0.0
 10
77.37580831398925
 20
-127.6995230236307
 30
0.0
 10
77.37580831398925
 20
-127.6995230236307
 30
0.0
 10
77.37580831398925
 20
-127.6995230236307
 30
0.0
 10
78.25775275821321
 20
-127.934473023572
 30
0.0
 10
78.25775275821321
 20
-127.111442468222
 30
0.0
 10
78.25775275821321
 20
-127.111442468222
 30
0.0
 10
78.25775275821321
 20
-123.1723258025404
 30
0.0
 10
78.25775275821321
 20
-123.1723258025404
 30
0.0
 10
78.25775275821321
 20
-123.1723258025404
 30
0.0
 10
78.3166666470875
 20
-122.2903813583164
 30
0.0
 10
79.61012435786542
 20
-122.2903813583164
 30
0.0
 10
79.61012435786542
 20
-122.2903813583164
 30
0.0
 10
85.90121030847754
 20
-122.2903813583164
 30
0.0
 10
85.90121030847754
 20
-122.2903813583164
 30
0.0
 10
85.90121030847754
 20
-122.2903813583164
 30
0.0
 10
87.0771972004528
 20
-122.2903813583164
 30
0.0
 10
87.0771972004528
 20
-123.3487146913852
 30
0.0
 10
87.0771972004528
 20
-123.3487146913852
 30
0.0
 10
87.0771972004528
 20
-127.2292702459706
 30
0.0
 10
87.0771972004528
 20
-127.2292702459706
 30
0.0
 10
87.0771972004528
 20
-127.2292702459706
 30
0.0
 10
86.84206861780758
 20
-127.8169980236012
 30
0.0
 10
87.54762415536293
 20
-127.8169980236012
 30
0.0
 10
87.54762415536293
 20
-127.8169980236012
 30
0.0
 10
94.07383886537018
 20
-127.8169980236012
 30
0.0
 10
94.07383886537018
 20
-127.8169980236012
 30
0.0
 10
94.07383886537018
 20
-127.8169980236012
 30
0.0
 10
94.72083330965313
 20
-127.9937396902237
 30
0.0
 10
94.72083330965313
 20
-127.0528813571258
 30
0.0
 10
94.72083330965313
 20
-127.0528813571258
 30
0.0
 10
94.72083330965313
 20
-123.4072758024814
 30
0.0
 10
94.72083330965313
 20
-123.4072758024814
 30
0.0
 10
94.72083330965313
 20
-123.4072758024814
 30
0.0
 10
94.36770275418579
 20
-122.3782230249611
 30
0.0
 10
95.74953330939569
 20
-122.3782230249611
 30
0.0
 10
95.74953330939569
 20
-122.3782230249611
 30
0.0
 10
102.0702527522604
 20
-122.3782230249611
 30
0.0
 10
102.0702527522604
 20
-122.3782230249611
 30
0.0
 10
102.0702527522604
 20
-122.3782230249611
 30
0.0
 10
103.4813638630187
 20
-122.1139924694716
 30
0.0
 10
103.4813638630187
 20
-123.52510358023
 30
0.0
 10
103.4813638630187
 20
-123.52510358023
 30
0.0
 10
103.4813638630187
 20
-127.1703563570963
 30
0.0
 10
103.4813638630187
 20
-127.1703563570963
 30
0.0
 10
103.4813638630187
 20
-127.1703563570963
 30
0.0
 10
103.1871471964254
 20
-127.8169980236012
 30
0.0
 10
104.1280055295233
 20
-127.8169980236012
 30
0.0
 10
104.1280055295233
 20
-127.8169980236012
 30
0.0
 10
110.2430555279948
 20
-127.8169980236012
 30
0.0
 10
110.2430555279948
 20
-127.8169980236012
 30
0.0
 10
110.2430555279948
 20
-127.8169980236012
 30
0.0
 10
111.0071721944702
 20
-128.110509134639
 30
0.0
 10
111.0071721944702
 20
-127.052528579348
 30
0.0
 10
111.0071721944702
 20
-127.052528579348
 30
0.0
 10
111.0071721944702
 20
-123.4661896913557
 30
0.0
 10
111.0071721944702
 20
-123.4661896913557
 30
0.0
 10
111.0071721944702
 20
-123.4661896913557
 30
0.0
 10
109.1847221949261
 20
-123.4661896913557
 30
0.0
 10
109.1847221949261
 20
-123.4661896913557
 30
0.0
 10
109.1847221949261
 20
-123.4661896913557
 30
0.0
 10
108.0674749729833
 20
-123.5840174691039
 30
0.0
 10
108.0674749729833
 20
-122.2903813583164
 30
0.0
 10
108.0674749729833
 20
-122.2903813583164
 30
0.0
 10
108.4206055284507
 20
-121.4673508029664
 30
0.0
 10
108.8905055283327
 20
-121.4673508029664
 30
0.0
 10
108.8905055283327
 20
-121.4673508029664
 30
0.0
 10
113.7708333048906
 20
-121.4673508029664
 30
0.0
 10
113.7708333048906
 20
-121.4673508029664
 30
0.0
 10
113.7708333048906
 20
-121.4673508029664
 30
0.0
 10
113.5351777493941
 20
-122.1139924694716
 30
0.0
 10
114.4171221936181
 20
-122.1139924694716
 30
0.0
 10
114.4171221936181
 20
-122.1139924694716
 30
0.0
 10
114.8291666379594
 20
-122.2311146916644
 30
0.0
 10
114.8291666379594
 20
-121.4669980251887
 30
0.0
 10
114.8291666379594
 20
-121.4669980251887
 30
0.0
 10
119.5327527478948
 20
-121.4669980251887
 30
0.0
 10
119.5327527478948
 20
-121.4669980251887
 30
0.0
 10
119.5327527478948
 20
-121.4669980251887
 30
0.0
 10
120.8766919161787
 20
-122.6119735804581
 30
0.0
 10
120.8766919161787
 20
-122.6119735804581
 30
0.0
 10
120.8766919161787
 20
-122.6119735804581
 30
0.0
 10
120.3475252630122
 20
-122.9058374692737
 30
0.0
 10
120.3475252630122
 20
-122.9058374692737
 30
0.0
 10
120.3475252630122
 20
-122.9058374692737
 30
0.0
 10
119.876566941694
 20
-122.043542747267
 30
0.0
 10
119.1210610813306
 20
-122.0550785805973
 30
0.0
 10
118.474419414826
 20
-122.0648858028171
 30
0.0
 10
118.474419414826
 20
-122.0550785805973
 30
0.0
 10
118.474419414826
 20
-122.0550785805973
 30
0.0
 10
118.474419414826
 20
-122.0550785805973
 30
0.0
 10
115.2994194156198
 20
-122.0550785805973
 30
0.0
 10
115.2994194156198
 20
-122.0550785805973
 30
0.0
 10
115.2994194156198
 20
-122.0550785805973
 30
0.0
 10
115.0055555268042
 20
-122.819195247073
 30
0.0
 10
114.299999971425
 20
-122.7017202471022
 30
0.0
 10
114.299999971425
 20
-122.7017202471022
 30
0.0
 10
113.5355305271719
 20
-122.6428063582282
 30
0.0
 10
113.5355305271719
 20
-121.9961646917231
 30
0.0
 10
113.5355305271719
 20
-121.9961646917231
 30
0.0
 10
109.3021971948969
 20
-121.9961646917231
 30
0.0
 10
109.3021971948969
 20
-121.9961646917231
 30
0.0
 10
109.3021971948969
 20
-121.9961646917231
 30
0.0
 10
108.5966416395177
 20
-121.9965174695008
 30
0.0
 10
108.5966416395177
 20
-122.4667702471612
 30
0.0
 10
108.5966416395177
 20
-122.4667702471612
 30
0.0
 10
108.4791666395469
 20
-122.9959369136956
 30
0.0
 10
109.5374999726156
 20
-122.9959369136956
 30
0.0
 10
110.5958333056844
 20
-122.9959369136956
 30
0.0
 10
109.5374999726156
 20
-122.878109135947
 30
0.0
 10
109.5374999726156
 20
-122.878109135947
 30
0.0
 10
109.5374999726156
 20
-122.878109135947
 30
0.0
 10
111.5363388610046
 20
-122.9959369136956
 30
0.0
 10
111.5363388610046
 20
-122.9959369136956
 30
0.0
 10
111.5363388610046
 20
-122.9959369136956
 30
0.0
 10
111.5363388610046
 20
-127.2292702459706
 30
0.0
 10
111.5363388610046
 20
-127.2292702459706
 30
0.0
 10
111.5363388610046
 20
-127.2292702459706
 30
0.0
 10
111.7127277498493
 20
-128.3757980234617
 30
0.0
 10
110.3898110835134
 20
-128.3757980234617
 30
0.0
 10
110.3898110835134
 20
-128.3757980234617
 30
0.0
 10
103.8930555295823
 20
-128.3757980234617
 30
0.0
 10
103.8930555295823
 20
-128.3757980234617
 30
0.0
 10
103.8930555295823
 20
-128.3757980234617
 30
0.0
 10
102.9521971964844
 20
-128.5818202456324
 30
0.0
 10
102.9521971964844
 20
-127.0528813571258
 30
0.0
 10
102.9521971964844
 20
-127.0528813571258
 30
0.0
 10
102.9521971964844
 20
-123.3487146913852
 30
0.0
 10
102.9521971964844
 20
-123.3487146913852
 30
0.0
 10
102.9521971964844
 20
-123.3487146913852
 30
0.0
 10
103.0111110853583
 20
-122.9077424692732
 30
0.0
 10
102.5112249743724
 20
-122.9077424692732
 30
0.0
 10
102.5112249743724
 20
-122.9077424692732
 30
0.0
 10
95.72025275384792
 20
-122.9077424692732
 30
0.0
 10
95.72025275384792
 20
-122.9077424692732
 30
0.0
 10
95.72025275384792
 20
-122.9077424692732
 30
0.0
 10
95.17626942065012
 20
-122.4964035804871
 30
0.0
 10
95.17626942065012
 20
-123.4517258024703
 30
0.0
 10
95.17626942065012
 20
-123.4517258024703
 30
0.0
 10
95.17626942065012
 20
-127.111442468222
 30
0.0
 10
95.17626942065012
 20
-127.111442468222
 30
0.0
 10
95.17626942065012
 20
-127.111442468222
 30
0.0
 10
95.3085610872837
 20
-128.2876035790393
 30
0.0
 10
94.42661664305976
 20
-128.2876035790393
 30
0.0
 10
94.42661664305976
 20
-128.2876035790393
 30
0.0
 10
87.72401303975175
 20
-128.2876035790393
 30
0.0
 10
87.72401303975175
 20
-128.2876035790393
 30
0.0
 10
87.72401303975175
 20
-128.2876035790393
 30
0.0
 10
86.54803053391842
 20
-128.5814674678546
 30
0.0
 10
86.54803053391842
 20
-127.1703563570963
 30
0.0
 10
86.54803053391842
 20
-127.1703563570963
 30
0.0
 10
86.54803053391842
 20
-123.2898008025109
 30
0.0
 10
86.54803053391842
 20
-123.2898008025109
 30
0.0
 10
86.54803053391842
 20
-123.2898008025109
 30
0.0
 10
86.60694442279271
 20
-122.8195480248508
 30
0.0
 10
86.07777775625834
 20
-122.8195480248508
 30
0.0
 10
86.07777775625834
 20
-122.8195480248508
 30
0.0
 10
79.31608609128196
 20
-122.8195480248508
 30
0.0
 10
79.31608609128196
 20
-122.8195480248508
 30
0.0
 10
79.31608609128196
 20
-122.8195480248508
 30
0.0
 10
78.66944442477708
 20
-122.7602813581987
 30
0.0
 10
78.66944442477708
 20
-123.4072758024814
 30
0.0
 10
78.66944442477708
 20
-123.4072758024814
 30
0.0
 10
78.66944442477708
 20
-127.0528813571258
 30
0.0
 10
78.66944442477708
 20
-127.0528813571258
 30
0.0
 10
78.66944442477708
 20
-127.0528813571258
 30
0.0
 10
78.78691942474758
 20
-128.2286896901651
 30
0.0
 10
77.72858609167884
 20
-128.2286896901651
 30
0.0
 10
77.72858609167884
 20
-128.2286896901651
 30
0.0
 10
71.26111109329584
 20
-128.2286896901651
 30
0.0
 10
71.26111109329584
 20
-128.2286896901651
 30
0.0
 10
71.26111109329584
 20
-128.2286896901651
 30
0.0
 10
70.32025276019759
 20
-128.5225535789803
 30
0.0
 10
70.32025276019759
 20
-126.7586646905324
 30
0.0
 10
70.32025276019759
 20
-126.7586646905324
 30
0.0
 10
70.43790236964607
 20
-123.52510358023
 30
0.0
 10
70.43790236964607
 20
-123.52510358023
 30
0.0
 10
70.43790236964607
 20
-123.52510358023
 30
0.0
 10
70.55520276013891
 20
-122.643159136006
 30
0.0
 10
69.55578331594445
 20
-122.643159136006
 30
0.0
 10
69.55578331594445
 20
-122.643159136006
 30
0.0
 10
58.50219720759655
 20
-122.643159136006
 30
0.0
 10
58.50219720759655
 20
-122.643159136006
 30
0.0
 10
58.50219720759655
 20
-122.643159136006
 30
0.0
 10
57.56151380926121
 20
-121.8197758028783
 30
0.0
 10
57.56151380926121
 20
-121.8197758028783
 30
0.0
  0
HATCH
  5
46
330
1F
100
AcDbEntity
  8
_U+30EC_U+30A4_U+30E4_U+30FC 1
 62
   253
420
 10066329
100
AcDbHatch
 10
0.0
 20
0.0
 30
0.0
210
0.0
220
0.0
230
1.0
  2
SOLID
 70
     1
 71
     0
 91
        1
 92
        1
 93
        1
 72
     4
 94
        3
 73
     0
 74
     1
 95
      209
 96
      205
 40
0.0
 40
0.0
 40
0.0
 40
0.0
 40
1.0
 40
1.0
 40
1.0
 40
2.0
 40
2.0
 40
2.0
 40
3.0
 40
3.0
 40
3.0
 40
4.0
 40
4.0
 40
4.0
 40
5.0
 40
5.0
 40
5.0
 40
6.0
 40
6.0
 40
6.0
 40
7.0
 40
7.0
 40
7.0
 40
8.0
 40
8.0
 40
8.0
 40
9.0
 40
9.0
 40
9.0
 40
10.0
 40
10.0
 40
10.0
 40
11.0
 40
11.0
 40
11.0
 40
12.0
 40
12.0
 40
12.0
 40
13.0
 40
13.0
 40
13.0
 40
14.0
 40
14.0
 40
14.0
 40
15.0
 40
15.0
 40
15.0
 40
16.0
 40
16.0
 40
16.0
 40
17.0
 40
17.0
 40
17.0
 40
18.0
 40
18.0
 40
18.0
 40
19.0
 40
19.0
 40
19.0
 40
20.0
 40
20.0
 40
20.0
 40
21.0
 40
21.0
 40
21.0
 40
22.0
 40
22.0
 40
22.0
 40
23.0
 40
23.0
 40
23.0
 40
24.0
 40
24.0
 40
24.0
 40
25.0
 40
25.0
 40
25.0
 40
26.0
 40
26.0
 40
26.0
 40
27.0
 40
27.0
 40
27.0
 40
28.0
 40
28.0
 40
28.0
 40
29.0
 40
29.0
 40
29.0
 40
30.0
 40
30.0
 40
30.0
 40
31.0
 40
31.0
 40
31.0
 40
32.0
 40
32.0
 40
32.0
 40
33.0
 40
33.0
 40
33.0
 40
34.0
 40
34.0
 40
34.0
 40
35.0
 40
35.0
 40
35.0
 40
36.0
 40
36.0
 40
36.0
 40
37.0
 40
37.0
 40
37.0
 40
38.0
 40
38.0
 40
38.0
 40
39.0
 40
39.0
 40
39.0
 40
40.0
 40
40.0
 40
40.0
 40
41.0
 40
41.0
 40
41.0
 40
42.0
 40
42.0
 40
42.0
 40
43.0
 40
43.0
 40
43.0
 40
44.0
 40
44.0
 40
44.0
 40
45.0
 40
45.0
 40
45.0
 40
46.0
 40
46.0
 40
46.0
 40
47.0
 40
47.0
 40
47.0
 40
48.0
 40
48.0
 40
48.0
 40
49.0
 40
49.0
 40
49.0
 40
50.0
 40
50.0
 40
50.0
 40
51.0
 40
51.0
 40
51.0
 40
52.0
 40
52.0
 40
52.0
 40
53.0
 40
53.0
 40
53.0
 40
54.0
 40
54.0
 40
54.0
 40
55.0
 40
55.0
 40
55.0
 40
56.0
 40
56.0
 40
56.0
 40
57.0
 40
57.0
 40
57.0
 40
58.0
 40
58.0
 40
58.0
 40
59.0
 40
59.0
 40
59.0
 40
60.0
 40
60.0
 40
60.0
 40
61.0
 40
61.0
 40
61.0
 40
62.0
 40
62.0
 40
62.0
 40
63.0
 40
63.0
 40
63.0
 40
64.0
 40
64.0
 40
64.0
 40
65.0
 40
65.0
 40
65.0
 40
66.0
 40
66.0
 40
66.0
 40
67.0
 40
67.0
 40
67.0
 40
68.0
 40
68.0
 40
68.0
 40
68.0
 10
57.56151380926121
 20
-121.8197758028783
 10
57.56151380926121
 20
-121.8197758028783
 10
57.85537769065301
 20
-121.525911914063
 10
57.85537769065301
 20
-121.525911914063
 10
57.85537769065301
 20
-121.525911914063
 10
58.56093322820835
 20
-122.1725535805678
 10
58.56093322820835
 20
-122.1725535805678
 10
58.56093322820835
 20
-122.1725535805678
 10
69.90873571647957
 20
-122.1725535805678
 10
69.90873571647957
 20
-122.1725535805678
 10
69.90873571647957
 20
-122.1725535805678
 10
70.84941942673196
 20
-122.2903813583164
 10
70.84941942673196
 20
-123.3487146913852
 10
70.84941942673196
 20
-123.3487146913852
 10
70.84941942673196
 20
-126.9350535793772
 10
70.84941942673196
 20
-126.9350535793772
 10
70.84941942673196
 20
-126.9350535793772
 10
70.73176625103787
 20
-127.6995230236307
 10
71.20219720442155
 20
-127.6995230236307
 10
71.20219720442155
 20
-127.6995230236307
 10
77.37580831398925
 20
-127.6995230236307
 10
77.37580831398925
 20
-127.6995230236307
 10
77.37580831398925
 20
-127.6995230236307
 10
78.25775275821321
 20
-127.934473023572
 10
78.25775275821321
 20
-127.111442468222
 10
78.25775275821321
 20
-127.111442468222
 10
78.25775275821321
 20
-123.1723258025404
 10
78.25775275821321
 20
-123.1723258025404
 10
78.25775275821321
 20
-123.1723258025404
 10
78.3166666470875
 20
-122.2903813583164
 10
79.61012435786542
 20
-122.2903813583164
 10
79.61012435786542
 20
-122.2903813583164
 10
85.90121030847754
 20
-122.2903813583164
 10
85.90121030847754
 20
-122.2903813583164
 10
85.90121030847754
 20
-122.2903813583164
 10
87.0771972004528
 20
-122.2903813583164
 10
87.0771972004528
 20
-123.3487146913852
 10
87.0771972004528
 20
-123.3487146913852
 10
87.0771972004528
 20
-127.2292702459706
 10
87.0771972004528
 20
-127.2292702459706
 10
87.0771972004528
 20
-127.2292702459706
 10
86.84206861780758
 20
-127.8169980236012
 10
87.54762415536293
 20
-127.8169980236012
 10
87.54762415536293
 20
-127.8169980236012
 10
94.07383886537018
 20
-127.8169980236012
 10
94.07383886537018
 20
-127.8169980236012
 10
94.07383886537018
 20
-127.8169980236012
 10
94.72083330965313
 20
-127.9937396902237
 10
94.72083330965313
 20
-127.0528813571258
 10
94.72083330965313
 20
-127.0528813571258
 10
94.72083330965313
 20
-123.4072758024814
 10
94.72083330965313
 20
-123.4072758024814
 10
94.72083330965313
 20
-123.4072758024814
 10
94.36770275418579
 20
-122.3782230249611
 10
95.74953330939569
 20
-122.3782230249611
 10
95.74953330939569
 20
-122.3782230249611
 10
102.0702527522604
 20
-122.3782230249611
 10
102.0702527522604
 20
-122.3782230249611
 10
102.0702527522604
 20
-122.3782230249611
 10
103.4813638630187
 20
-122.1139924694716
 10
103.4813638630187
 20
-123.52510358023
 10
103.4813638630187
 20
-123.52510358023
 10
103.4813638630187
 20
-127.1703563570963
 10
103.4813638630187
 20
-127.1703563570963
 10
103.4813638630187
 20
-127.1703563570963
 10
103.1871471964254
 20
-127.8169980236012
 10
104.1280055295233
 20
-127.8169980236012
 10
104.1280055295233
 20
-127.8169980236012
 10
110.2430555279948
 20
-127.8169980236012
 10
110.2430555279948
 20
-127.8169980236012
 10
110.2430555279948
 20
-127.8169980236012
 10
111.0071721944702
 20
-128.110509134639
 10
111.0071721944702
 20
-127.052528579348
 10
111.0071721944702
 20
-127.052528579348
 10
111.0071721944702
 20
-123.4661896913557
 10
111.0071721944702
 20
-123.4661896913557
 10
111.0071721944702
 20
-123.4661896913557
 10
109.1847221949261
 20
-123.4661896913557
 10
109.1847221949261
 20
-123.4661896913557
 10
109.1847221949261
 20
-123.4661896913557
 10
108.0674749729833
 20
-123.5840174691039
 10
108.0674749729833
 20
-122.2903813583164
 10
108.0674749729833
 20
-122.2903813583164
 10
108.4206055284507
 20
-121.4673508029664
 10
108.8905055283327
 20
-121.4673508029664
 10
108.8905055283327
 20
-121.4673508029664
 10
113.7708333048906
 20
-121.4673508029664
 10
113.7708333048906
 20
-121.4673508029664
 10
113.7708333048906
 20
-121.4673508029664
 10
113.5351777493941
 20
-122.1139924694716
 10
114.4171221936181
 20
-122.1139924694716
 10
114.4171221936181
 20
-122.1139924694716
 10
114.8291666379594
 20
-122.2311146916644
 10
114.8291666379594
 20
-121.4669980251887
 10
114.8291666379594
 20
-121.4669980251887
 10
119.5327527478948
 20
-121.4669980251887
 10
119.5327527478948
 20
-121.4669980251887
 10
119.5327527478948
 20
-121.4669980251887
 10
120.8766919161787
 20
-122.6119735804581
 10
120.8766919161787
 20
-122.6119735804581
 10
120.8766919161787
 20
-122.6119735804581
 10
120.3475252630122
 20
-122.9058374692737
 10
120.3475252630122
 20
-122.9058374692737
 10
120.3475252630122
 20
-122.9058374692737
 10
119.876566941694
 20
-122.043542747267
 10
119.1210610813306
 20
-122.0550785805973
 10
118.474419414826
 20
-122.0648858028171
 10
118.474419414826
 20
-122.0550785805973
 10
118.474419414826
 20
-122.0550785805973
 10
118.474419414826
 20
-122.0550785805973
 10
115.2994194156198
 20
-122.0550785805973
 10
115.2994194156198
 20
-122.0550785805973
 10
115.2994194156198
 20
-122.0550785805973
 10
115.0055555268042
 20
-122.819195247073
 10
114.299999971425
 20
-122.7017202471022
 10
114.299999971425
 20
-122.7017202471022
 10
113.5355305271719
 20
-122.6428063582282
 10
113.5355305271719
 20
-121.9961646917231
 10
113.5355305271719
 20
-121.9961646917231
 10
109.3021971948969
 20
-121.9961646917231
 10
109.3021971948969
 20
-121.9961646917231
 10
109.3021971948969
 20
-121.9961646917231
 10
108.5966416395177
 20
-121.9965174695008
 10
108.5966416395177
 20
-122.4667702471612
 10
108.5966416395177
 20
-122.4667702471612
 10
108.4791666395469
 20
-122.9959369136956
 10
109.5374999726156
 20
-122.9959369136956
 10
110.5958333056844
 20
-122.9959369136956
 10
109.5374999726156
 20
-122.878109135947
 10
109.5374999726156
 20
-122.878109135947
 10
109.5374999726156
 20
-122.878109135947
 10
111.5363388610046
 20
-122.9959369136956
 10
111.5363388610046
 20
-122.9959369136956
 10
111.5363388610046
 20
-122.9959369136956
 10
111.5363388610046
 20
-127.2292702459706
 10
111.5363388610046
 20
-127.2292702459706
 10
111.5363388610046
 20
-127.2292702459706
 10
111.7127277498493
 20
-128.3757980234617
 10
110.3898110835134
 20
-128.3757980234617
 10
110.3898110835134
 20
-128.3757980234617
 10
103.8930555295823
 20
-128.3757980234617
 10
103.8930555295823
 20
-128.3757980234617
 10
103.8930555295823
 20
-128.3757980234617
 10
102.9521971964844
 20
-128.5818202456324
 10
102.9521971964844
 20
-127.0528813571258
 10
102.9521971964844
 20
-127.0528813571258
 10
102.9521971964844
 20
-123.3487146913852
 10
102.9521971964844
 20
-123.3487146913852
 10
102.9521971964844
 20
-123.3487146913852
 10
103.0111110853583
 20
-122.9077424692732
 10
102.5112249743724
 20
-122.9077424692732
 10
102.5112249743724
 20
-122.9077424692732
 10
95.72025275384792
 20
-122.9077424692732
 10
95.72025275384792
 20
-122.9077424692732
 10
95.72025275384792
 20
-122.9077424692732
 10
95.17626942065012
 20
-122.4964035804871
 10
95.17626942065012
 20
-123.4517258024703
 10
95.17626942065012
 20
-123.4517258024703
 10
95.17626942065012
 20
-127.111442468222
 10
95.17626942065012
 20
-127.111442468222
 10
95.17626942065012
 20
-127.111442468222
 10
95.3085610872837
 20
-128.2876035790393
 10
94.42661664305976
 20
-128.2876035790393
 10
94.42661664305976
 20
-128.2876035790393
 10
87.72401303975175
 20
-128.2876035790393
 10
87.72401303975175
 20
-128.2876035790393
 10
87.72401303975175
 20
-128.2876035790393
 10
86.54803053391842
 20
-128.5814674678546
 10
86.54803053391842
 20
-127.1703563570963
 10
86.54803053391842
 20
-127.1703563570963
 10
86.54803053391842
 20
-123.2898008025109
 10
86.54803053391842
 20
-123.2898008025109
 10
86.54803053391842
 20
-123.2898008025109
 10
86.60694442279271
 20
-122.8195480248508
 10
86.07777775625834
 20
-122.8195480248508
 10
86.07777775625834
 20
-122.8195480248508
 10
79.31608609128196
 20
-122.8195480248508
 10
79.31608609128196
 20
-122.8195480248508
 10
79.31608609128196
 20
-122.8195480248508
 10
78.66944442477708
 20
-122.7602813581987
 10
78.66944442477708
 20
-123.4072758024814
 10
78.66944442477708
 20
-123.4072758024814
 10
78.66944442477708
 20
-127.0528813571258
 10
78.66944442477708
 20
-127.0528813571258
 10
78.66944442477708
 20
-127.0528813571258
 10
78.78691942474758
 20
-128.2286896901651
 10
77.72858609167884
 20
-128.2286896901651
 10
77.72858609167884
 20
-128.2286896901651
 10
71.26111109329584
 20
-128.2286896901651
 10
71.26111109329584
 20
-128.2286896901651
 10
71.26111109329584
 20
-128.2286896901651
 10
70.32025276019759
 20
-128.5225535789803
 10
70.32025276019759
 20
-126.7586646905324
 10
70.32025276019759
 20
-126.7586646905324
 10
70.43790236964607
 20
-123.52510358023
 10
70.43790236964607
 20
-123.52510358023
 10
70.43790236964607
 20
-123.52510358023
 10
70.55520276013891
 20
-122.643159136006
 10
69.55578331594445
 20
-122.643159136006
 10
69.55578331594445
 20
-122.643159136006
 10
58.50219720759655
 20
-122.643159136006
 10
58.50219720759655
 20
-122.643159136006
 10
58.50219720759655
 20
-122.643159136006
 10
57.56151380926121
 20
-121.8197758028783
 10
57.56151380926121
 20
-121.8197758028783
 97
        0
 97
        0
 75
     2
 76
     1
 98
        0
  0
POLYLINE
  5
47
330
1F
100
AcDbEntity
  8
_U+30EC_U+30A4_U+30E4_U+30FC 1
 62
     7
420
 16777215
370
     9
100
AcDb2dPolyline
 66
     1
 10
0.0
 20
0.0
 30
0.0
  0
VERTEX
  5
48
330
47
100
AcDbEntity
  8
_U+30EC_U+30A4_U+30E4_U+30FC 1
 62
     7
420
 16777215
370
     9
100
AcDbVertex
100
AcDb2dVertex
 10
54.26886387532154
 20
-122.70207302488
 30
0.0
  0
VERTEX
  5
49
330
47
100
AcDbEntity
  8
_U+30EC_U+30A4_U+30E4_U+30FC 1
 62
     7
420
 16777215
370
     9
100
AcDbVertex
100
AcDb2dVertex
 10
57.20873604048355
 20
-122.70207302488
 30
0.0
  0
SEQEND
  5
4A
330
47
100
AcDbEntity
  8
_U+30EC_U+30A4_U+30E4_U+30FC 1
 62
     7
420
 16777215
370
     9
  0
POLYLINE
  5
4B
330
1F
100
AcDbEntity
  8
_U+30EC_U+30A4_U+30E4_U+30FC 1
 62
     7
420
 16777215
370
     9
100
AcDb2dPolyline
 66
     1
 10
0.0
 20
0.0
 30
0.0
  0
VERTEX
  5
4C
330
4B
100
AcDbEntity
  8
_U+30EC_U+30A4_U+30E4_U+30FC 1
 62
     7
420
 16777215
370
     9
100
AcDbVertex
100
AcDb2dVertex
 10
55.26845831220638
 20
-123.9367952467935
 30
0.0
  0
VERTEX
  5
4D
330
4B
100
AcDbEntity
  8
_U+30EC_U+30A4_U+30E4_U+30FC 1
 62
     7
420
 16777215
370
     9
100
AcDbVertex
100
AcDb2dVertex
 10
55.26845831220638
 20
-122.70207302488
 30
0.0
  0
SEQEND
  5
4E
330
4B
100
AcDbEntity
  8
_U+30EC_U+30A4_U+30E4_U+30FC 1
 62
     7
420
 16777215
370
     9
  0
POLYLINE
  5
4F
330
1F
100
AcDbEntity
  8
_U+30EC_U+30A4_U+30E4_U+30FC 1
 62
     7
420
 16777215
370
     9
100
AcDb2dPolyline
 66
     1
 10
0.0
 20
0.0
 30
0.0
  0
VERTEX
  5
50
330
4F
100
AcDbEntity
  8
_U+30EC_U+30A4_U+30E4_U+30FC 1
 62
     7
420
 16777215
370
     9
100
AcDbVertex
100
AcDb2dVertex
 10
54.26886387532154
 20
-128.0523008013203
 30
0.0
  0
VERTEX
  5
51
330
4F
100
AcDbEntity
  8
_U+30EC_U+30A4_U+30E4_U+30FC 1
 62
     7
420
 16777215
370
     9
100
AcDbVertex
100
AcDb2dVertex
 10
57.1499999857125
 20
-128.0523008013203
 30
0.0
  0
SEQEND
  5
52
330
4F
100
AcDbEntity
  8
_U+30EC_U+30A4_U+30E4_U+30FC 1
 62
     7
420
 16777215
370
     9
  0
POLYLINE
  5
53
330
1F
100
AcDbEntity
  8
_U+30EC_U+30A4_U+30E4_U+30FC 1
 62
     7
420
 16777215
370
     9
100
AcDb2dPolyline
 66
     1
 10
0.0
 20
0.0
 30
0.0
  0
VERTEX
  5
54
330
53
100
AcDbEntity
  8
_U+30EC_U+30A4_U+30E4_U+30FC 1
 62
     7
420
 16777215
370
     9
100
AcDbVertex
100
AcDb2dVertex
 10
55.20972220841979
 20
-127.9937396902237
 30
0.0
  0
VERTEX
  5
55
330
53
100
AcDbEntity
  8
_U+30EC_U+30A4_U+30E4_U+30FC 1
 62
     7
420
 16777215
370
     9
100
AcDbVertex
100
AcDb2dVertex
 10
55.20972220841979
 20
-127.1703563570963
 30
0.0
  0
SEQEND
  5
56
330
53
100
AcDbEntity
  8
_U+30EC_U+30A4_U+30E4_U+30FC 1
 62
     7
420
 16777215
370
     9
  0
POLYLINE
  5
57
330
1F
100
AcDbEntity
  8
_U+30EC_U+30A4_U+30E4_U+30FC 1
 62
     7
420
 16777215
370
     9
100
AcDb2dPolyline
 66
     1
 10
0.0
 20
0.0
 30
0.0
  0
VERTEX
  5
58
330
57
100
AcDbEntity
  8
_U+30EC_U+30A4_U+30E4_U+30FC 1
 62
     7
420
 16777215
370
     9
100
AcDbVertex
100
AcDb2dVertex
 10
57.44386387452779
 20
-129.0518966344036
 30
0.0
  0
VERTEX
  5
59
330
57
100
AcDbEntity
  8
_U+30EC_U+30A4_U+30E4_U+30FC 1
 62
     7
420
 16777215
370
     9
100
AcDbVertex
100
AcDb2dVertex
 10
57.44386387452779
 20
-131.9326799670171
 30
0.0
  0
SEQEND
  5
5A
330
57
100
AcDbEntity
  8
_U+30EC_U+30A4_U+30E4_U+30FC 1
 62
     7
420
 16777215
370
     9
  0
POLYLINE
  5
5B
330
1F
100
AcDbEntity
  8
_U+30EC_U+30A4_U+30E4_U+30FC 1
 62
     7
420
 16777215
370
     9
100
AcDb2dPolyline
 66
     1
 10
0.0
 20
0.0
 30
0.0
  0
VERTEX
  5
5C
330
5B
100
AcDbEntity
  8
_U+30EC_U+30A4_U+30E4_U+30FC 1
 62
     7
420
 16777215
370
     9
100
AcDbVertex
100
AcDb2dVertex
 10
57.44386387452779
 20
-130.9921744116963
 30
0.0
  0
VERTEX
  5
5D
330
5B
100
AcDbEntity
  8
_U+30EC_U+30A4_U+30E4_U+30FC 1
 62
     7
420
 16777215
370
     9
100
AcDbVertex
100
AcDb2dVertex
 10
61.38315537842968
 20
-130.9921744116963
 30
0.0
  0
SEQEND
  5
5E
330
5B
100
AcDbEntity
  8
_U+30EC_U+30A4_U+30E4_U+30FC 1
 62
     7
420
 16777215
370
     9
  0
POLYLINE
  5
5F
330
1F
100
AcDbEntity
  8
_U+30EC_U+30A4_U+30E4_U+30FC 1
 62
     7
420
 16777215
370
     9
100
AcDb2dPolyline
 66
     1
 10
0.0
 20
0.0
 30
0.0
  0
VERTEX
  5
60
330
5F
100
AcDbEntity
  8
_U+30EC_U+30A4_U+30E4_U+30FC 1
 62
     7
420
 16777215
370
     9
100
AcDbVertex
100
AcDb2dVertex
 10
65.67540249114757
 20
-131.0507355227932
 30
0.0
  0
VERTEX
  5
61
330
5F
100
AcDbEntity
  8
_U+30EC_U+30A4_U+30E4_U+30FC 1
 62
     7
420
 16777215
370
     9
100
AcDbVertex
100
AcDb2dVertex
 10
72.49565509492619
 20
-131.0507355227932
 30
0.0
  0
SEQEND
  5
62
330
5F
100
AcDbEntity
  8
_U+30EC_U+30A4_U+30E4_U+30FC 1
 62
     7
420
 16777215
370
     9
  0
POLYLINE
  5
63
330
1F
100
AcDbEntity
  8
_U+30EC_U+30A4_U+30E4_U+30FC 1
 62
     7
420
 16777215
370
     9
100
AcDb2dPolyline
 66
     1
 10
0.0
 20
0.0
 30
0.0
  0
VERTEX
  5
64
330
63
100
AcDbEntity
  8
_U+30EC_U+30A4_U+30E4_U+30FC 1
 62
     7
420
 16777215
370
     9
100
AcDbVertex
100
AcDb2dVertex
 10
70.26151348525723
 20
-129.1104577455004
 30
0.0
  0
VERTEX
  5
65
330
63
100
AcDbEntity
  8
_U+30EC_U+30A4_U+30E4_U+30FC 1
 62
     7
420
 16777215
370
     9
100
AcDbVertex
100
AcDb2dVertex
 10
70.26151348525723
 20
-139.0475021874605
 30
0.0
  0
SEQEND
  5
66
330
63
100
AcDbEntity
  8
_U+30EC_U+30A4_U+30E4_U+30FC 1
 62
     7
420
 16777215
370
     9
  0
POLYLINE
  5
67
330
1F
100
AcDbEntity
  8
_U+30EC_U+30A4_U+30E4_U+30FC 1
 62
     7
420
 16777215
370
     9
100
AcDb2dPolyline
 66
     1
 10
0.0
 20
0.0
 30
0.0
  0
VERTEX
  5
68
330
67
100
AcDbEntity
  8
_U+30EC_U+30A4_U+30E4_U+30FC 1
 62
     7
420
 16777215
370
     9
100
AcDbVertex
100
AcDb2dVertex
 10
76.78790220764408
 20
-131.1685633005411
 30
0.0
  0
VERTEX
  5
69
330
67
100
AcDbEntity
  8
_U+30EC_U+30A4_U+30E4_U+30FC 1
 62
     7
420
 16777215
370
     9
100
AcDbVertex
100
AcDb2dVertex
 10
80.4331548924237
 20
-131.1685633005411
 30
0.0
  0
SEQEND
  5
6A
330
67
100
AcDbEntity
  8
_U+30EC_U+30A4_U+30E4_U+30FC 1
 62
     7
420
 16777215
370
     9
  0
POLYLINE
  5
6B
330
1F
100
AcDbEntity
  8
_U+30EC_U+30A4_U+30E4_U+30FC 1
 62
     7
420
 16777215
370
     9
100
AcDb2dPolyline
 66
     1
 10
0.0
 20
0.0
 30
0.0
  0
VERTEX
  5
6C
330
6B
100
AcDbEntity
  8
_U+30EC_U+30A4_U+30E4_U+30FC 1
 62
     7
420
 16777215
370
     9
100
AcDbVertex
100
AcDb2dVertex
 10
78.6105305359028
 20
-129.1697244121522
 30
0.0
  0
VERTEX
  5
6D
330
6B
100
AcDbEntity
  8
_U+30EC_U+30A4_U+30E4_U+30FC 1
 62
     7
420
 16777215
370
     9
100
AcDbVertex
100
AcDb2dVertex
 10
78.6105305359028
 20
-132.1090688558619
 30
0.0
  0
SEQEND
  5
6E
330
6B
100
AcDbEntity
  8
_U+30EC_U+30A4_U+30E4_U+30FC 1
 62
     7
420
 16777215
370
     9
  0
POLYLINE
  5
6F
330
1F
100
AcDbEntity
  8
_U+30EC_U+30A4_U+30E4_U+30FC 1
 62
     7
420
 16777215
370
     9
100
AcDb2dPolyline
 66
     1
 10
0.0
 20
0.0
 30
0.0
  0
VERTEX
  5
70
330
6F
100
AcDbEntity
  8
_U+30EC_U+30A4_U+30E4_U+30FC 1
 62
     7
420
 16777215
370
     9
100
AcDbVertex
100
AcDb2dVertex
 10
84.8430555343448
 20
-131.1685633005411
 30
0.0
  0
VERTEX
  5
71
330
6F
100
AcDbEntity
  8
_U+30EC_U+30A4_U+30E4_U+30FC 1
 62
     7
420
 16777215
370
     9
100
AcDbVertex
100
AcDb2dVertex
 10
88.48830831121113
 20
-131.1685633005411
 30
0.0
  0
SEQEND
  5
72
330
6F
100
AcDbEntity
  8
_U+30EC_U+30A4_U+30E4_U+30FC 1
 62
     7
420
 16777215
370
     9
  0
POLYLINE
  5
73
330
1F
100
AcDbEntity
  8
_U+30EC_U+30A4_U+30E4_U+30FC 1
 62
     7
420
 16777215
370
     9
100
AcDb2dPolyline
 66
     1
 10
0.0
 20
0.0
 30
0.0
  0
VERTEX
  5
74
330
73
100
AcDbEntity
  8
_U+30EC_U+30A4_U+30E4_U+30FC 1
 62
     7
420
 16777215
370
     9
100
AcDbVertex
100
AcDb2dVertex
 10
86.66567973341876
 20
-129.1697244121522
 30
0.0
  0
VERTEX
  5
75
330
73
100
AcDbEntity
  8
_U+30EC_U+30A4_U+30E4_U+30FC 1
 62
     7
420
 16777215
370
     9
100
AcDbVertex
100
AcDb2dVertex
 10
86.66567973341876
 20
-132.1090688558619
 30
0.0
  0
SEQEND
  5
76
330
73
100
AcDbEntity
  8
_U+30EC_U+30A4_U+30E4_U+30FC 1
 62
     7
420
 16777215
370
     9
  0
POLYLINE
  5
77
330
1F
100
AcDbEntity
  8
_U+30EC_U+30A4_U+30E4_U+30FC 1
 62
     7
420
 16777215
370
     9
100
AcDb2dPolyline
 66
     1
 10
0.0
 20
0.0
 30
0.0
  0
VERTEX
  5
78
330
77
100
AcDbEntity
  8
_U+30EC_U+30A4_U+30E4_U+30FC 1
 62
     7
420
 16777215
370
     9
100
AcDbVertex
100
AcDb2dVertex
 10
93.13333331005
 20
-131.1685633005411
 30
0.0
  0
VERTEX
  5
79
330
77
100
AcDbEntity
  8
_U+30EC_U+30A4_U+30E4_U+30FC 1
 62
     7
420
 16777215
370
     9
100
AcDbVertex
100
AcDb2dVertex
 10
96.77858608691666
 20
-131.1685633005411
 30
0.0
  0
SEQEND
  5
7A
330
77
100
AcDbEntity
  8
_U+30EC_U+30A4_U+30E4_U+30FC 1
 62
     7
420
 16777215
370
     9
  0
POLYLINE
  5
7B
330
1F
100
AcDbEntity
  8
_U+30EC_U+30A4_U+30E4_U+30FC 1
 62
     7
420
 16777215
370
     9
100
AcDb2dPolyline
 66
     1
 10
0.0
 20
0.0
 30
0.0
  0
VERTEX
  5
7C
330
7B
100
AcDbEntity
  8
_U+30EC_U+30A4_U+30E4_U+30FC 1
 62
     7
420
 16777215
370
     9
100
AcDbVertex
100
AcDb2dVertex
 10
94.95578330959412
 20
-129.1697244121522
 30
0.0
  0
VERTEX
  5
7D
330
7B
100
AcDbEntity
  8
_U+30EC_U+30A4_U+30E4_U+30FC 1
 62
     7
420
 16777215
370
     9
100
AcDbVertex
100
AcDb2dVertex
 10
94.95578330959412
 20
-132.1090688558619
 30
0.0
  0
SEQEND
  5
7E
330
7B
100
AcDbEntity
  8
_U+30EC_U+30A4_U+30E4_U+30FC 1
 62
     7
420
 16777215
370
     9
  0
POLYLINE
  5
7F
330
1F
100
AcDbEntity
  8
_U+30EC_U+30A4_U+30E4_U+30FC 1
 62
     7
420
 16777215
370
     9
100
AcDb2dPolyline
 66
     1
 10
0.0
 20
0.0
 30
0.0
  0
VERTEX
  5
80
330
7F
100
AcDbEntity
  8
_U+30EC_U+30A4_U+30E4_U+30FC 1
 62
     7
420
 16777215
370
     9
100
AcDbVertex
100
AcDb2dVertex
 10
101.2472221969104
 20
-131.1685633005411
 30
0.0
  0
VERTEX
  5
81
330
7F
100
AcDbEntity
  8
_U+30EC_U+30A4_U+30E4_U+30FC 1
 62
     7
420
 16777215
370
     9
100
AcDbVertex
100
AcDb2dVertex
 10
104.8924749737771
 20
-131.1685633005411
 30
0.0
  0
SEQEND
  5
82
330
7F
100
AcDbEntity
  8
_U+30EC_U+30A4_U+30E4_U+30FC 1
 62
     7
420
 16777215
370
     9
  0
POLYLINE
  5
83
330
1F
100
AcDbEntity
  8
_U+30EC_U+30A4_U+30E4_U+30FC 1
 62
     7
420
 16777215
370
     9
100
AcDb2dPolyline
 66
     1
 10
0.0
 20
0.0
 30
0.0
  0
VERTEX
  5
84
330
83
100
AcDbEntity
  8
_U+30EC_U+30A4_U+30E4_U+30FC 1
 62
     7
420
 16777215
370
     9
100
AcDbVertex
100
AcDb2dVertex
 10
103.0696721964545
 20
-129.1697244121522
 30
0.0
  0
VERTEX
  5
85
330
83
100
AcDbEntity
  8
_U+30EC_U+30A4_U+30E4_U+30FC 1
 62
     7
420
 16777215
370
     9
100
AcDbVertex
100
AcDb2dVertex
 10
103.0696721964545
 20
-132.1090688558619
 30
0.0
  0
SEQEND
  5
86
330
83
100
AcDbEntity
  8
_U+30EC_U+30A4_U+30E4_U+30FC 1
 62
     7
420
 16777215
370
     9
  0
POLYLINE
  5
87
330
1F
100
AcDbEntity
  8
_U+30EC_U+30A4_U+30E4_U+30FC 1
 62
     7
420
 16777215
370
     9
100
AcDb2dPolyline
 66
     1
 10
0.0
 20
0.0
 30
0.0
  0
VERTEX
  5
88
330
87
100
AcDbEntity
  8
_U+30EC_U+30A4_U+30E4_U+30FC 1
 62
     7
420
 16777215
370
     9
100
AcDbVertex
100
AcDb2dVertex
 10
70.32025276019759
 20
-135.0491188551265
 30
0.0
  0
VERTEX
  5
89
330
87
100
AcDbEntity
  8
_U+30EC_U+30A4_U+30E4_U+30FC 1
 62
     7
420
 16777215
370
     9
100
AcDbVertex
100
AcDb2dVertex
 10
85.96012419586341
 20
-135.0491188551265
 30
0.0
  0
SEQEND
  5
8A
330
87
100
AcDbEntity
  8
_U+30EC_U+30A4_U+30E4_U+30FC 1
 62
     7
420
 16777215
370
     9
  0
POLYLINE
  5
8B
330
1F
100
AcDbEntity
  8
_U+30EC_U+30A4_U+30E4_U+30FC 1
 62
     7
420
 16777215
370
     9
100
AcDb2dPolyline
 66
     1
 10
0.0
 20
0.0
 30
0.0
  0
VERTEX
  5
8C
330
8B
100
AcDbEntity
  8
_U+30EC_U+30A4_U+30E4_U+30FC 1
 62
     7
420
 16777215
370
     9
100
AcDbVertex
100
AcDb2dVertex
 10
70.2027777602271
 20
-138.047729965488
 30
0.0
  0
VERTEX
  5
8D
330
8B
100
AcDbEntity
  8
_U+30EC_U+30A4_U+30E4_U+30FC 1
 62
     7
420
 16777215
370
     9
100
AcDbVertex
100
AcDb2dVertex
 10
91.72222219929166
 20
-138.047729965488
 30
0.0
  0
SEQEND
  5
8E
330
8B
100
AcDbEntity
  8
_U+30EC_U+30A4_U+30E4_U+30FC 1
 62
     7
420
 16777215
370
     9
  0
POLYLINE
  5
8F
330
1F
100
AcDbEntity
  8
_U+30EC_U+30A4_U+30E4_U+30FC 1
 62
     7
420
 16777215
370
     9
100
AcDb2dPolyline
 66
     1
 10
0.0
 20
0.0
 30
0.0
  0
VERTEX
  5
90
330
8F
100
AcDbEntity
  8
_U+30EC_U+30A4_U+30E4_U+30FC 1
 62
     7
420
 16777215
370
     9
100
AcDbVertex
100
AcDb2dVertex
 10
92.30994997692225
 20
-135.2255077439713
 30
0.0
  0
VERTEX
  5
91
330
8F
100
AcDbEntity
  8
_U+30EC_U+30A4_U+30E4_U+30FC 1
 62
     7
420
 16777215
370
     9
100
AcDbVertex
100
AcDb2dVertex
 10
111.183561083315
 20
-135.2255077439713
 30
0.0
  0
SEQEND
  5
92
330
8F
100
AcDbEntity
  8
_U+30EC_U+30A4_U+30E4_U+30FC 1
 62
     7
420
 16777215
370
     9
  0
POLYLINE
  5
93
330
1F
100
AcDbEntity
  8
_U+30EC_U+30A4_U+30E4_U+30FC 1
 62
     7
420
 16777215
370
     9
100
AcDb2dPolyline
 66
     1
 10
0.0
 20
0.0
 30
0.0
  0
VERTEX
  5
94
330
93
100
AcDbEntity
  8
_U+30EC_U+30A4_U+30E4_U+30FC 1
 62
     7
420
 16777215
370
     9
100
AcDbVertex
100
AcDb2dVertex
 10
111.3013888610635
 20
-129.5225021898418
 30
0.0
  0
VERTEX
  5
95
330
93
100
AcDbEntity
  8
_U+30EC_U+30A4_U+30E4_U+30FC 1
 62
     7
420
 16777215
370
     9
100
AcDbVertex
100
AcDb2dVertex
 10
111.3013888610635
 20
-136.2838410770401
 30
0.0
  0
SEQEND
  5
96
330
93
100
AcDbEntity
  8
_U+30EC_U+30A4_U+30E4_U+30FC 1
 62
     7
420
 16777215
370
     9
  0
POLYLINE
  5
97
330
1F
100
AcDbEntity
  8
_U+30EC_U+30A4_U+30E4_U+30FC 1
 62
     7
420
 16777215
370
     9
100
AcDb2dPolyline
 66
     1
 10
0.0
 20
0.0
 30
0.0
  0
VERTEX
  5
98
330
97
100
AcDbEntity
  8
_U+30EC_U+30A4_U+30E4_U+30FC 1
 62
     7
420
 16777215
370
     9
100
AcDbVertex
100
AcDb2dVertex
 10
98.24861108654896
 20
-138.2826799654296
 30
0.0
  0
VERTEX
  5
99
330
97
100
AcDbEntity
  8
_U+30EC_U+30A4_U+30E4_U+30FC 1
 62
     7
420
 16777215
370
     9
100
AcDbVertex
100
AcDb2dVertex
 10
119.1799749702052
 20
-138.2826799654296
 30
0.0
  0
SEQEND
  5
9A
330
97
100
AcDbEntity
  8
_U+30EC_U+30A4_U+30E4_U+30FC 1
 62
     7
420
 16777215
370
     9
  0
POLYLINE
  5
9B
330
1F
100
AcDbEntity
  8
_U+30EC_U+30A4_U+30E4_U+30FC 1
 62
     7
420
 16777215
370
     9
100
AcDb2dPolyline
 66
     1
 10
0.0
 20
0.0
 30
0.0
  0
VERTEX
  5
9C
330
9B
100
AcDbEntity
  8
_U+30EC_U+30A4_U+30E4_U+30FC 1
 62
     7
420
 16777215
370
     9
100
AcDbVertex
100
AcDb2dVertex
 10
119.2388888590792
 20
-129.46323552319
 30
0.0
  0
VERTEX
  5
9D
330
9B
100
AcDbEntity
  8
_U+30EC_U+30A4_U+30E4_U+30FC 1
 62
     7
420
 16777215
370
     9
100
AcDbVertex
100
AcDb2dVertex
 10
119.2388888590792
 20
-139.3410132984984
 30
0.0
  0
SEQEND
  5
9E
330
9B
100
AcDbEntity
  8
_U+30EC_U+30A4_U+30E4_U+30FC 1
 62
     7
420
 16777215
370
     9
  0
POLYLINE
  5
9F
330
1F
100
AcDbEntity
  8
_U+30EC_U+30A4_U+30E4_U+30FC 1
 62
     7
420
 16777215
370
     9
100
AcDb2dPolyline
 66
     1
 10
0.0
 20
0.0
 30
0.0
  0
VERTEX
  5
A0
330
9F
100
AcDbEntity
  8
_U+30EC_U+30A4_U+30E4_U+30FC 1
 62
     7
420
 16777215
370
     9
100
AcDbVertex
100
AcDb2dVertex
 10
117.5924749706021
 20
-131.4627799671345
 30
0.0
  0
VERTEX
  5
A1
330
9F
100
AcDbEntity
  8
_U+30EC_U+30A4_U+30E4_U+30FC 1
 62
     7
420
 16777215
370
     9
100
AcDbVertex
100
AcDb2dVertex
 10
119.1799749702052
 20
-131.4627799671345
 30
0.0
  0
SEQEND
  5
A2
330
9F
100
AcDbEntity
  8
_U+30EC_U+30A4_U+30E4_U+30FC 1
 62
     7
420
 16777215
370
     9
  0
POLYLINE
  5
A3
330
1F
100
AcDbEntity
  8
_U+30EC_U+30A4_U+30E4_U+30FC 1
 62
     7
420
 16777215
370
     9
100
AcDb2dPolyline
 66
     1
 10
0.0
 20
0.0
 30
0.0
  0
VERTEX
  5
A4
330
A3
100
AcDbEntity
  8
_U+30EC_U+30A4_U+30E4_U+30FC 1
 62
     7
420
 16777215
370
     9
100
AcDbVertex
100
AcDb2dVertex
 10
109.3611110837708
 20
-131.4035133004827
 30
0.0
  0
VERTEX
  5
A5
330
A3
100
AcDbEntity
  8
_U+30EC_U+30A4_U+30E4_U+30FC 1
 62
     7
420
 16777215
370
     9
100
AcDbVertex
100
AcDb2dVertex
 10
113.1238388606077
 20
-131.4035133004827
 30
0.0
  0
SEQEND
  5
A6
330
A3
100
AcDbEntity
  8
_U+30EC_U+30A4_U+30E4_U+30FC 1
 62
     7
420
 16777215
370
     9
  0
POLYLINE
  5
A7
330
1F
100
AcDbEntity
  8
_U+30EC_U+30A4_U+30E4_U+30FC 1
 62
     7
420
 16777215
370
     9
100
AcDb2dPolyline
 66
     1
 10
0.0
 20
0.0
 30
0.0
  0
VERTEX
  5
A8
330
A7
100
AcDbEntity
  8
_U+30EC_U+30A4_U+30E4_U+30FC 1
 62
     7
420
 16777215
370
     9
100
AcDbVertex
100
AcDb2dVertex
 10
121.0172416364121
 20
-121.6437396918112
 30
0.0
  0
VERTEX
  5
A9
330
A7
100
AcDbEntity
  8
_U+30EC_U+30A4_U+30E4_U+30FC 1
 62
     7
420
 16777215
370
     9
100
AcDbVertex
100
AcDb2dVertex
 10
126.7646971905312
 20
-121.6437396918112
 30
0.0
  0
SEQEND
  5
AA
330
A7
100
AcDbEntity
  8
_U+30EC_U+30A4_U+30E4_U+30FC 1
 62
     7
420
 16777215
370
     9
  0
POLYLINE
  5
AB
330
1F
100
AcDbEntity
  8
_U+30EC_U+30A4_U+30E4_U+30FC 1
 62
     7
420
 16777215
370
     9
100
AcDb2dPolyline
 66
     1
 10
0.0
 20
0.0
 30
0.0
  0
VERTEX
  5
AC
330
AB
100
AcDbEntity
  8
_U+30EC_U+30A4_U+30E4_U+30FC 1
 62
     7
420
 16777215
370
     9
100
AcDbVertex
100
AcDb2dVertex
 10
125.7649249685587
 20
-121.5848258029373
 30
0.0
  0
VERTEX
  5
AD
330
AB
100
AcDbEntity
  8
_U+30EC_U+30A4_U+30E4_U+30FC 1
 62
     7
420
 16777215
370
     9
100
AcDbVertex
100
AcDb2dVertex
 10
125.7649249685587
 20
-123.1134119136661
 30
0.0
  0
SEQEND
  5
AE
330
AB
100
AcDbEntity
  8
_U+30EC_U+30A4_U+30E4_U+30FC 1
 62
     7
420
 16777215
370
     9
  0
POLYLINE
  5
AF
330
1F
100
AcDbEntity
  8
_U+30EC_U+30A4_U+30E4_U+30FC 1
 62
     7
420
 16777215
370
     9
100
AcDb2dPolyline
 66
     1
 10
0.0
 20
0.0
 30
0.0
  0
VERTEX
  5
B0
330
AF
100
AcDbEntity
  8
_U+30EC_U+30A4_U+30E4_U+30FC 1
 62
     7
420
 16777215
370
     9
100
AcDbVertex
100
AcDb2dVertex
 10
125.7649249685587
 20
-126.4648008017171
 30
0.0
  0
VERTEX
  5
B1
330
AF
100
AcDbEntity
  8
_U+30EC_U+30A4_U+30E4_U+30FC 1
 62
     7
420
 16777215
370
     9
100
AcDbVertex
100
AcDb2dVertex
 10
125.7063638574625
 20
-128.3465174679133
 30
0.0
  0
SEQEND
  5
B2
330
AF
100
AcDbEntity
  8
_U+30EC_U+30A4_U+30E4_U+30FC 1
 62
     7
420
 16777215
370
     9
  0
POLYLINE
  5
B3
330
1F
100
AcDbEntity
  8
_U+30EC_U+30A4_U+30E4_U+30FC 1
 62
     7
420
 16777215
370
     9
100
AcDb2dPolyline
 66
     1
 10
0.0
 20
0.0
 30
0.0
  0
VERTEX
  5
B4
330
B3
100
AcDbEntity
  8
_U+30EC_U+30A4_U+30E4_U+30FC 1
 62
     7
420
 16777215
370
     9
100
AcDbVertex
100
AcDb2dVertex
 10
108.0085610841087
 20
-118.9805144146994
 30
0.0
  0
VERTEX
  5
B5
330
B3
100
AcDbEntity
  8
_U+30EC_U+30A4_U+30E4_U+30FC 1
 62
     7
420
 16777215
370
     9
100
AcDbVertex
100
AcDb2dVertex
 10
108.0085610841087
 20
-120.5411327476424
 30
0.0
  0
SEQEND
  5
B6
330
B3
100
AcDbEntity
  8
_U+30EC_U+30A4_U+30E4_U+30FC 1
 62
     7
420
 16777215
370
     9
  0
SPLINE
  5
B7
330
1F
100
AcDbEntity
  8
_U+30EC_U+30A4_U+30E4_U+30FC 1
370
     0
100
AcDbSpline
210
0.0
220
0.0
230
1.0
 70
    11
 71
     3
 72
    17
 73
    13
 74
     0
 42
0.0000000001
 43
0.0000000001
 12
1.0
 22
0.0
 32
0.0
 13
1.0
 23
0.0
 33
0.0
 40
0.0
 40
0.0
 40
0.0
 40
0.0
 40
1.0
 40
1.0
 40
1.0
 40
2.0
 40
2.0
 40
2.0
 40
3.0
 40
3.0
 40
3.0
 40
4.0
 40
4.0
 40
4.0
 40
4.0
 10
125.8241916352104
 20
-121.6378835807016
 30
0.0
 10
125.8241916352104
 20
-121.6868138584673
 30
0.0
 10
125.7845715131905
 20
-121.726078025124
 30
0.0
 10
125.735997190788
 20
-121.726078025124
 30
0.0
 10
125.6870637379003
 20
-121.726078025124
 30
0.0
 10
125.6478027463656
 20
-121.6868138584673
 30
0.0
 10
125.6478027463656
 20
-121.6378835807016
 30
0.0
 10
125.6478027463656
 20
-121.5889533029362
 30
0.0
 10
125.6870637379003
 20
-121.5496891362792
 30
0.0
 10
125.735997190788
 20
-121.5496891362792
 30
0.0
 10
125.7845715131905
 20
-121.5496891362792
 30
0.0
 10
125.8241916352104
 20
-121.5889533029362
 30
0.0
 10
125.8241916352104
 20
-121.6378835807016
 30
0.0
  0
HATCH
  5
B8
330
1F
100
AcDbEntity
  8
_U+30EC_U+30A4_U+30E4_U+30FC 1
 62
     7
420
 16777215
100
AcDbHatch
 10
0.0
 20
0.0
 30
0.0
210
0.0
220
0.0
230
1.0
  2
SOLID
 70
     1
 71
     0
 91
        1
 92
        1
 93
        1
 72
     4
 94
        3
 73
     0
 74
     1
 95
       17
 96
       13
 40
0.0
 40
0.0
 40
0.0
 40
0.0
 40
1.0
 40
1.0
 40
1.0
 40
2.0
 40
2.0
 40
2.0
 40
3.0
 40
3.0
 40
3.0
 40
4.0
 40
4.0
 40
4.0
 40
4.0
 10
125.8241916352104
 20
-121.6378835807016
 10
125.8241916352104
 20
-121.6868138584673
 10
125.7845715131905
 20
-121.726078025124
 10
125.735997190788
 20
-121.726078025124
 10
125.6870637379003
 20
-121.726078025124
 10
125.6478027463656
 20
-121.6868138584673
 10
125.6478027463656
 20
-121.6378835807016
 10
125.6478027463656
 20
-121.5889533029362
 10
125.6870637379003
 20
-121.5496891362792
 10
125.735997190788
 20
-121.5496891362792
 10
125.7845715131905
 20
-121.5496891362792
 10
125.8241916352104
 20
-121.5889533029362
 10
125.8241916352104
 20
-121.6378835807016
 97
        0
 97
        0
 75
     2
 76
     1
 98
        0
  0
SPLINE
  5
B9
330
1F
100
AcDbEntity
  8
_U+30EC_U+30A4_U+30E4_U+30FC 1
370
     0
100
AcDbSpline
210
0.0
220
0.0
230
1.0
 70
    11
 71
     3
 72
    17
 73
    13
 74
     0
 42
0.0000000001
 43
0.0000000001
 12
1.0
 22
0.0
 32
0.0
 13
1.0
 23
0.0
 33
0.0
 40
0.0
 40
0.0
 40
0.0
 40
0.0
 40
1.0
 40
1.0
 40
1.0
 40
2.0
 40
2.0
 40
2.0
 40
3.0
 40
3.0
 40
3.0
 40
4.0
 40
4.0
 40
4.0
 40
4.0
 10
125.8241916352104
 20
-128.3406613568037
 30
0.0
 10
125.8241916352104
 20
-128.3895916345694
 30
0.0
 10
125.7845715131905
 20
-128.4288558012261
 30
0.0
 10
125.735997190788
 20
-128.4288558012261
 30
0.0
 10
125.6870637379003
 20
-128.4288558012261
 30
0.0
 10
125.6478027463656
 20
-128.3895916345694
 30
0.0
 10
125.6478027463656
 20
-128.3406613568037
 30
0.0
 10
125.6478027463656
 20
-128.2917310790383
 30
0.0
 10
125.6870637379003
 20
-128.2524669123813
 30
0.0
 10
125.735997190788
 20
-128.2524669123813
 30
0.0
 10
125.7845715131905
 20
-128.2524669123813
 30
0.0
 10
125.8241916352104
 20
-128.2917310790383
 30
0.0
 10
125.8241916352104
 20
-128.3406613568037
 30
0.0
  0
HATCH
  5
BA
330
1F
100
AcDbEntity
  8
_U+30EC_U+30A4_U+30E4_U+30FC 1
 62
     7
420
 16777215
100
AcDbHatch
 10
0.0
 20
0.0
 30
0.0
210
0.0
220
0.0
230
1.0
  2
SOLID
 70
     1
 71
     0
 91
        1
 92
        1
 93
        1
 72
     4
 94
        3
 73
     0
 74
     1
 95
       17
 96
       13
 40
0.0
 40
0.0
 40
0.0
 40
0.0
 40
1.0
 40
1.0
 40
1.0
 40
2.0
 40
2.0
 40
2.0
 40
3.0
 40
3.0
 40
3.0
 40
4.0
 40
4.0
 40
4.0
 40
4.0
 10
125.8241916352104
 20
-128.3406613568037
 10
125.8241916352104
 20
-128.3895916345694
 10
125.7845715131905
 20
-128.4288558012261
 10
125.735997190788
 20
-128.4288558012261
 10
125.6870637379003
 20
-128.4288558012261
 10
125.6478027463656
 20
-128.3895916345694
 10
125.6478027463656
 20
-128.3406613568037
 10
125.6478027463656
 20
-128.2917310790383
 10
125.6870637379003
 20
-128.2524669123813
 10
125.735997190788
 20
-128.2524669123813
 10
125.7845715131905
 20
-128.2524669123813
 10
125.8241916352104
 20
-128.2917310790383
 10
125.8241916352104
 20
-128.3406613568037
 97
        0
 97
        0
 75
     2
 76
     1
 98
        0
  0
SPLINE
  5
BB
330
1F
100
AcDbEntity
  8
_U+30EC_U+30A4_U+30E4_U+30FC 1
370
     0
100
AcDbSpline
210
0.0
220
0.0
230
1.0
 70
    11
 71
     3
 72
    17
 73
    13
 74
     0
 42
0.0000000001
 43
0.0000000001
 12
1.0
 22
0.0
 32
0.0
 13
1.0
 23
0.0
 33
0.0
 40
0.0
 40
0.0
 40
0.0
 40
0.0
 40
1.0
 40
1.0
 40
1.0
 40
2.0
 40
2.0
 40
2.0
 40
3.0
 40
3.0
 40
3.0
 40
4.0
 40
4.0
 40
4.0
 40
4.0
 10
119.35636385905
 20
-131.4565710782468
 30
0.0
 10
119.35636385905
 20
-131.5055013560128
 30
0.0
 10
119.3167439004207
 20
-131.5447655226692
 30
0.0
 10
119.2681694146276
 20
-131.5447655226692
 30
0.0
 10
119.2195889028993
 20
-131.5447655226692
 30
0.0
 10
119.1799749702052
 20
-131.5055013560128
 30
0.0
 10
119.1799749702052
 20
-131.4565710782468
 30
0.0
 10
119.1799749702052
 20
-131.4076408004814
 30
0.0
 10
119.2195889028993
 20
-131.3683766338244
 30
0.0
 10
119.2681694146276
 20
-131.3683766338244
 30
0.0
 10
119.3167439004207
 20
-131.3683766338244
 30
0.0
 10
119.35636385905
 20
-131.4076408004814
 30
0.0
 10
119.35636385905
 20
-131.4565710782468
 30
0.0
  0
HATCH
  5
BC
330
1F
100
AcDbEntity
  8
_U+30EC_U+30A4_U+30E4_U+30FC 1
 62
     7
420
 16777215
100
AcDbHatch
 10
0.0
 20
0.0
 30
0.0
210
0.0
220
0.0
230
1.0
  2
SOLID
 70
     1
 71
     0
 91
        1
 92
        1
 93
        1
 72
     4
 94
        3
 73
     0
 74
     1
 95
       17
 96
       13
 40
0.0
 40
0.0
 40
0.0
 40
0.0
 40
1.0
 40
1.0
 40
1.0
 40
2.0
 40
2.0
 40
2.0
 40
3.0
 40
3.0
 40
3.0
 40
4.0
 40
4.0
 40
4.0
 40
4.0
 10
119.35636385905
 20
-131.4565710782468
 10
119.35636385905
 20
-131.5055013560128
 10
119.3167439004207
 20
-131.5447655226692
 10
119.2681694146276
 20
-131.5447655226692
 10
119.2195889028993
 20
-131.5447655226692
 10
119.1799749702052
 20
-131.5055013560128
 10
119.1799749702052
 20
-131.4565710782468
 10
119.1799749702052
 20
-131.4076408004814
 10
119.2195889028993
 20
-131.3683766338244
 10
119.2681694146276
 20
-131.3683766338244
 10
119.3167439004207
 20
-131.3683766338244
 10
119.35636385905
 20
-131.4076408004814
 10
119.35636385905
 20
-131.4565710782468
 97
        0
 97
        0
 75
     2
 76
     1
 98
        0
  0
SPLINE
  5
BD
330
1F
100
AcDbEntity
  8
_U+30EC_U+30A4_U+30E4_U+30FC 1
370
     0
100
AcDbSpline
210
0.0
220
0.0
230
1.0
 70
    11
 71
     3
 72
    17
 73
    13
 74
     0
 42
0.0000000001
 43
0.0000000001
 12
1.0
 22
0.0
 32
0.0
 13
1.0
 23
0.0
 33
0.0
 40
0.0
 40
0.0
 40
0.0
 40
0.0
 40
1.0
 40
1.0
 40
1.0
 40
2.0
 40
2.0
 40
2.0
 40
3.0
 40
3.0
 40
3.0
 40
4.0
 40
4.0
 40
4.0
 40
4.0
 10
119.35636385905
 20
-138.2771766320974
 30
0.0
 10
119.35636385905
 20
-138.3261069098628
 30
0.0
 10
119.3167439004207
 20
-138.3653710765198
 30
0.0
 10
119.2681694146276
 20
-138.3653710765198
 30
0.0
 10
119.2195889028993
 20
-138.3653710765198
 30
0.0
 10
119.1799749702052
 20
-138.3261069098628
 30
0.0
 10
119.1799749702052
 20
-138.2771766320974
 30
0.0
 10
119.1799749702052
 20
-138.228246354332
 30
0.0
 10
119.2195889028993
 20
-138.188982187675
 30
0.0
 10
119.2681694146276
 20
-138.188982187675
 30
0.0
 10
119.3167439004207
 20
-138.188982187675
 30
0.0
 10
119.35636385905
 20
-138.228246354332
 30
0.0
 10
119.35636385905
 20
-138.2771766320974
 30
0.0
  0
HATCH
  5
BE
330
1F
100
AcDbEntity
  8
_U+30EC_U+30A4_U+30E4_U+30FC 1
 62
     7
420
 16777215
100
AcDbHatch
 10
0.0
 20
0.0
 30
0.0
210
0.0
220
0.0
230
1.0
  2
SOLID
 70
     1
 71
     0
 91
        1
 92
        1
 93
        1
 72
     4
 94
        3
 73
     0
 74
     1
 95
       17
 96
       13
 40
0.0
 40
0.0
 40
0.0
 40
0.0
 40
1.0
 40
1.0
 40
1.0
 40
2.0
 40
2.0
 40
2.0
 40
3.0
 40
3.0
 40
3.0
 40
4.0
 40
4.0
 40
4.0
 40
4.0
 10
119.35636385905
 20
-138.2771766320974
 10
119.35636385905
 20
-138.3261069098628
 10
119.3167439004207
 20
-138.3653710765198
 10
119.2681694146276
 20
-138.3653710765198
 10
119.2195889028993
 20
-138.3653710765198
 10
119.1799749702052
 20
-138.3261069098628
 10
119.1799749702052
 20
-138.2771766320974
 10
119.1799749702052
 20
-138.228246354332
 10
119.2195889028993
 20
-138.188982187675
 10
119.2681694146276
 20
-138.188982187675
 10
119.3167439004207
 20
-138.188982187675
 10
119.35636385905
 20
-138.228246354332
 10
119.35636385905
 20
-138.2771766320974
 97
        0
 97
        0
 75
     2
 76
     1
 98
        0
  0
SPLINE
  5
BF
330
1F
100
AcDbEntity
  8
_U+30EC_U+30A4_U+30E4_U+30FC 1
370
     0
100
AcDbSpline
210
0.0
220
0.0
230
1.0
 70
    11
 71
     3
 72
    17
 73
    13
 74
     0
 42
0.0000000001
 43
0.0000000001
 12
1.0
 22
0.0
 32
0.0
 13
1.0
 23
0.0
 33
0.0
 40
0.0
 40
0.0
 40
0.0
 40
0.0
 40
1.0
 40
1.0
 40
1.0
 40
2.0
 40
2.0
 40
2.0
 40
3.0
 40
3.0
 40
3.0
 40
4.0
 40
4.0
 40
4.0
 40
4.0
 10
111.4188638610344
 20
-131.4565710782468
 30
0.0
 10
111.4188638610344
 20
-131.5055013560128
 30
0.0
 10
111.3792441029232
 20
-131.5447655226692
 30
0.0
 10
111.330669416612
 20
-131.5447655226692
 30
0.0
 10
111.2820891054018
 20
-131.5447655226692
 30
0.0
 10
111.2424749721896
 20
-131.5055013560128
 30
0.0
 10
111.2424749721896
 20
-131.4565710782468
 30
0.0
 10
111.2424749721896
 20
-131.4076408004814
 30
0.0
 10
111.2820891054018
 20
-131.3683766338244
 30
0.0
 10
111.330669416612
 20
-131.3683766338244
 30
0.0
 10
111.3792441029232
 20
-131.3683766338244
 30
0.0
 10
111.4188638610344
 20
-131.4076408004814
 30
0.0
 10
111.4188638610344
 20
-131.4565710782468
 30
0.0
  0
HATCH
  5
C0
330
1F
100
AcDbEntity
  8
_U+30EC_U+30A4_U+30E4_U+30FC 1
 62
     7
420
 16777215
100
AcDbHatch
 10
0.0
 20
0.0
 30
0.0
210
0.0
220
0.0
230
1.0
  2
SOLID
 70
     1
 71
     0
 91
        1
 92
        1
 93
        1
 72
     4
 94
        3
 73
     0
 74
     1
 95
       17
 96
       13
 40
0.0
 40
0.0
 40
0.0
 40
0.0
 40
1.0
 40
1.0
 40
1.0
 40
2.0
 40
2.0
 40
2.0
 40
3.0
 40
3.0
 40
3.0
 40
4.0
 40
4.0
 40
4.0
 40
4.0
 10
111.4188638610344
 20
-131.4565710782468
 10
111.4188638610344
 20
-131.5055013560128
 10
111.3792441029232
 20
-131.5447655226692
 10
111.330669416612
 20
-131.5447655226692
 10
111.2820891054018
 20
-131.5447655226692
 10
111.2424749721896
 20
-131.5055013560128
 10
111.2424749721896
 20
-131.4565710782468
 10
111.2424749721896
 20
-131.4076408004814
 10
111.2820891054018
 20
-131.3683766338244
 10
111.330669416612
 20
-131.3683766338244
 10
111.3792441029232
 20
-131.3683766338244
 10
111.4188638610344
 20
-131.4076408004814
 10
111.4188638610344
 20
-131.4565710782468
 97
        0
 97
        0
 75
     2
 76
     1
 98
        0
  0
SPLINE
  5
C1
330
1F
100
AcDbEntity
  8
_U+30EC_U+30A4_U+30E4_U+30FC 1
370
     0
100
AcDbSpline
210
0.0
220
0.0
230
1.0
 70
    11
 71
     3
 72
    17
 73
    13
 74
     0
 42
0.0000000001
 43
0.0000000001
 12
1.0
 22
0.0
 32
0.0
 13
1.0
 23
0.0
 33
0.0
 40
0.0
 40
0.0
 40
0.0
 40
0.0
 40
1.0
 40
1.0
 40
1.0
 40
2.0
 40
2.0
 40
2.0
 40
3.0
 40
3.0
 40
3.0
 40
4.0
 40
4.0
 40
4.0
 40
4.0
 10
103.1874999742031
 20
-131.1037933005572
 30
0.0
 10
103.1874999742031
 20
-131.1527235783232
 30
0.0
 10
103.1478804240339
 20
-131.1919877449796
 30
0.0
 10
103.0993055297807
 20
-131.1919877449796
 30
0.0
 10
103.0503726487437
 20
-131.1919877449796
 30
0.0
 10
103.0111110853583
 20
-131.1527235783232
 30
0.0
 10
103.0111110853583
 20
-131.1037933005572
 30
0.0
 10
103.0111110853583
 20
-131.0548630227918
 30
0.0
 10
103.0503726487437
 20
-131.0155988561348
 30
0.0
 10
103.0993055297807
 20
-131.0155988561348
 30
0.0
 10
103.1478804240339
 20
-131.0155988561348
 30
0.0
 10
103.1874999742031
 20
-131.0548630227918
 30
0.0
 10
103.1874999742031
 20
-131.1037933005572
 30
0.0
  0
HATCH
  5
C2
330
1F
100
AcDbEntity
  8
_U+30EC_U+30A4_U+30E4_U+30FC 1
 62
     7
420
 16777215
100
AcDbHatch
 10
0.0
 20
0.0
 30
0.0
210
0.0
220
0.0
230
1.0
  2
SOLID
 70
     1
 71
     0
 91
        1
 92
        1
 93
        1
 72
     4
 94
        3
 73
     0
 74
     1
 95
       17
 96
       13
 40
0.0
 40
0.0
 40
0.0
 40
0.0
 40
1.0
 40
1.0
 40
1.0
 40
2.0
 40
2.0
 40
2.0
 40
3.0
 40
3.0
 40
3.0
 40
4.0
 40
4.0
 40
4.0
 40
4.0
 10
103.1874999742031
 20
-131.1037933005572
 10
103.1874999742031
 20
-131.1527235783232
 10
103.1478804240339
 20
-131.1919877449796
 10
103.0993055297807
 20
-131.1919877449796
 10
103.0503726487437
 20
-131.1919877449796
 10
103.0111110853583
 20
-131.1527235783232
 10
103.0111110853583
 20
-131.1037933005572
 10
103.0111110853583
 20
-131.0548630227918
 10
103.0503726487437
 20
-131.0155988561348
 10
103.0993055297807
 20
-131.0155988561348
 10
103.1478804240339
 20
-131.0155988561348
 10
103.1874999742031
 20
-131.0548630227918
 10
103.1874999742031
 20
-131.1037933005572
 97
        0
 97
        0
 75
     2
 76
     1
 98
        0
  0
SPLINE
  5
C3
330
1F
100
AcDbEntity
  8
_U+30EC_U+30A4_U+30E4_U+30FC 1
370
     0
100
AcDbSpline
210
0.0
220
0.0
230
1.0
 70
    11
 71
     3
 72
    17
 73
    13
 74
     0
 42
0.0000000001
 43
0.0000000001
 12
1.0
 22
0.0
 32
0.0
 13
1.0
 23
0.0
 33
0.0
 40
0.0
 40
0.0
 40
0.0
 40
0.0
 40
1.0
 40
1.0
 40
1.0
 40
2.0
 40
2.0
 40
2.0
 40
3.0
 40
3.0
 40
3.0
 40
4.0
 40
4.0
 40
4.0
 40
4.0
 10
95.01469719846874
 20
-131.1037933005572
 30
0.0
 10
95.01469719846874
 20
-131.1527235783232
 30
0.0
 10
94.97507785476168
 20
-131.1919877449796
 30
0.0
 10
94.92650275404634
 20
-131.1919877449796
 30
0.0
 10
94.8779228572403
 20
-131.1919877449796
 30
0.0
 10
94.83830830962395
 20
-131.1527235783232
 30
0.0
 10
94.83830830962395
 20
-131.1037933005572
 30
0.0
 10
94.83830830962395
 20
-131.0548630227918
 30
0.0
 10
94.8779228572403
 20
-131.0155988561348
 30
0.0
 10
94.92650275404634
 20
-131.0155988561348
 30
0.0
 10
94.97507785476168
 20
-131.0155988561348
 30
0.0
 10
95.01469719846874
 20
-131.0548630227918
 30
0.0
 10
95.01469719846874
 20
-131.1037933005572
 30
0.0
  0
HATCH
  5
C4
330
1F
100
AcDbEntity
  8
_U+30EC_U+30A4_U+30E4_U+30FC 1
 62
     7
420
 16777215
100
AcDbHatch
 10
0.0
 20
0.0
 30
0.0
210
0.0
220
0.0
230
1.0
  2
SOLID
 70
     1
 71
     0
 91
        1
 92
        1
 93
        1
 72
     4
 94
        3
 73
     0
 74
     1
 95
       17
 96
       13
 40
0.0
 40
0.0
 40
0.0
 40
0.0
 40
1.0
 40
1.0
 40
1.0
 40
2.0
 40
2.0
 40
2.0
 40
3.0
 40
3.0
 40
3.0
 40
4.0
 40
4.0
 40
4.0
 40
4.0
 10
95.01469719846874
 20
-131.1037933005572
 10
95.01469719846874
 20
-131.1527235783232
 10
94.97507785476168
 20
-131.1919877449796
 10
94.92650275404634
 20
-131.1919877449796
 10
94.8779228572403
 20
-131.1919877449796
 10
94.83830830962395
 20
-131.1527235783232
 10
94.83830830962395
 20
-131.1037933005572
 10
94.83830830962395
 20
-131.0548630227918
 10
94.8779228572403
 20
-131.0155988561348
 10
94.92650275404634
 20
-131.0155988561348
 10
94.97507785476168
 20
-131.0155988561348
 10
95.01469719846874
 20
-131.0548630227918
 10
95.01469719846874
 20
-131.1037933005572
 97
        0
 97
        0
 75
     2
 76
     1
 98
        0
  0
SPLINE
  5
C5
330
1F
100
AcDbEntity
  8
_U+30EC_U+30A4_U+30E4_U+30FC 1
370
     0
100
AcDbSpline
210
0.0
220
0.0
230
1.0
 70
    11
 71
     3
 72
    17
 73
    13
 74
     0
 42
0.0000000001
 43
0.0000000001
 12
1.0
 22
0.0
 32
0.0
 13
1.0
 23
0.0
 33
0.0
 40
0.0
 40
0.0
 40
0.0
 40
0.0
 40
1.0
 40
1.0
 40
1.0
 40
2.0
 40
2.0
 40
2.0
 40
3.0
 40
3.0
 40
3.0
 40
4.0
 40
4.0
 40
4.0
 40
4.0
 10
86.78315473042171
 20
-131.1630599672096
 30
0.0
 10
86.78315473042171
 20
-131.2119902449749
 30
0.0
 10
86.74371417587237
 20
-131.2512544116319
 30
0.0
 10
86.69496028822729
 20
-131.2512544116319
 30
0.0
 10
86.64620640058223
 20
-131.2512544116319
 30
0.0
 10
86.60676584603289
 20
-131.2119902449749
 30
0.0
 10
86.60676584603289
 20
-131.1630599672096
 30
0.0
 10
86.60676584603289
 20
-131.1141296894435
 30
0.0
 10
86.64620640058223
 20
-131.0748655227871
 30
0.0
 10
86.69496028822729
 20
-131.0748655227871
 30
0.0
 10
86.74371417587237
 20
-131.0748655227871
 30
0.0
 10
86.78315473042171
 20
-131.1141296894435
 30
0.0
 10
86.78315473042171
 20
-131.1630599672096
 30
0.0
  0
HATCH
  5
C6
330
1F
100
AcDbEntity
  8
_U+30EC_U+30A4_U+30E4_U+30FC 1
 62
     7
420
 16777215
100
AcDbHatch
 10
0.0
 20
0.0
 30
0.0
210
0.0
220
0.0
230
1.0
  2
SOLID
 70
     1
 71
     0
 91
        1
 92
        1
 93
        1
 72
     4
 94
        3
 73
     0
 74
     1
 95
       17
 96
       13
 40
0.0
 40
0.0
 40
0.0
 40
0.0
 40
1.0
 40
1.0
 40
1.0
 40
2.0
 40
2.0
 40
2.0
 40
3.0
 40
3.0
 40
3.0
 40
4.0
 40
4.0
 40
4.0
 40
4.0
 10
86.78315473042171
 20
-131.1630599672096
 10
86.78315473042171
 20
-131.2119902449749
 10
86.74371417587237
 20
-131.2512544116319
 10
86.69496028822729
 20
-131.2512544116319
 10
86.64620640058223
 20
-131.2512544116319
 10
86.60676584603289
 20
-131.2119902449749
 10
86.60676584603289
 20
-131.1630599672096
 10
86.60676584603289
 20
-131.1141296894435
 10
86.64620640058223
 20
-131.0748655227871
 10
86.69496028822729
 20
-131.0748655227871
 10
86.74371417587237
 20
-131.0748655227871
 10
86.78315473042171
 20
-131.1141296894435
 10
86.78315473042171
 20
-131.1630599672096
 97
        0
 97
        0
 75
     2
 76
     1
 98
        0
  0
SPLINE
  5
C7
330
1F
100
AcDbEntity
  8
_U+30EC_U+30A4_U+30E4_U+30FC 1
370
     0
100
AcDbSpline
210
0.0
220
0.0
230
1.0
 70
    11
 71
     3
 72
    17
 73
    13
 74
     0
 42
0.0000000001
 43
0.0000000001
 12
1.0
 22
0.0
 32
0.0
 13
1.0
 23
0.0
 33
0.0
 40
0.0
 40
0.0
 40
0.0
 40
0.0
 40
1.0
 40
1.0
 40
1.0
 40
2.0
 40
2.0
 40
2.0
 40
3.0
 40
3.0
 40
3.0
 40
4.0
 40
4.0
 40
4.0
 40
4.0
 10
78.72817993592125
 20
-131.1630599672096
 30
0.0
 10
78.72817993592125
 20
-131.2119902449749
 30
0.0
 10
78.6887393813719
 20
-131.2512544116319
 30
0.0
 10
78.63998549372683
 20
-131.2512544116319
 30
0.0
 10
78.59123160608175
 20
-131.2512544116319
 30
0.0
 10
78.5517910515324
 20
-131.2119902449749
 30
0.0
 10
78.5517910515324
 20
-131.1630599672096
 30
0.0
 10
78.5517910515324
 20
-131.1141296894435
 30
0.0
 10
78.59123160608175
 20
-131.0748655227871
 30
0.0
 10
78.63998549372683
 20
-131.0748655227871
 30
0.0
 10
78.6887393813719
 20
-131.0748655227871
 30
0.0
 10
78.72817993592125
 20
-131.1141296894435
 30
0.0
 10
78.72817993592125
 20
-131.1630599672096
 30
0.0
  0
HATCH
  5
C8
330
1F
100
AcDbEntity
  8
_U+30EC_U+30A4_U+30E4_U+30FC 1
 62
     7
420
 16777215
100
AcDbHatch
 10
0.0
 20
0.0
 30
0.0
210
0.0
220
0.0
230
1.0
  2
SOLID
 70
     1
 71
     0
 91
        1
 92
        1
 93
        1
 72
     4
 94
        3
 73
     0
 74
     1
 95
       17
 96
       13
 40
0.0
 40
0.0
 40
0.0
 40
0.0
 40
1.0
 40
1.0
 40
1.0
 40
2.0
 40
2.0
 40
2.0
 40
3.0
 40
3.0
 40
3.0
 40
4.0
 40
4.0
 40
4.0
 40
4.0
 10
78.72817993592125
 20
-131.1630599672096
 10
78.72817993592125
 20
-131.2119902449749
 10
78.6887393813719
 20
-131.2512544116319
 10
78.63998549372683
 20
-131.2512544116319
 10
78.59123160608175
 20
-131.2512544116319
 10
78.5517910515324
 20
-131.2119902449749
 10
78.5517910515324
 20
-131.1630599672096
 10
78.5517910515324
 20
-131.1141296894435
 10
78.59123160608175
 20
-131.0748655227871
 10
78.63998549372683
 20
-131.0748655227871
 10
78.6887393813719
 20
-131.0748655227871
 10
78.72817993592125
 20
-131.1141296894435
 10
78.72817993592125
 20
-131.1630599672096
 97
        0
 97
        0
 75
     2
 76
     1
 98
        0
  0
SPLINE
  5
C9
330
1F
100
AcDbEntity
  8
_U+30EC_U+30A4_U+30E4_U+30FC 1
370
     0
100
AcDbSpline
210
0.0
220
0.0
230
1.0
 70
    11
 71
     3
 72
    17
 73
    13
 74
     0
 42
0.0000000001
 43
0.0000000001
 12
1.0
 22
0.0
 32
0.0
 13
1.0
 23
0.0
 33
0.0
 40
0.0
 40
0.0
 40
0.0
 40
0.0
 40
1.0
 40
1.0
 40
1.0
 40
2.0
 40
2.0
 40
2.0
 40
3.0
 40
3.0
 40
3.0
 40
4.0
 40
4.0
 40
4.0
 40
4.0
 10
70.3789884822602
 20
-131.0865777450064
 30
0.0
 10
70.3789884822602
 20
-131.1355080227718
 30
0.0
 10
70.33954792771085
 20
-131.1747721894288
 30
0.0
 10
70.29079404006578
 20
-131.1747721894288
 30
0.0
 10
70.2420401524207
 20
-131.1747721894288
 30
0.0
 10
70.20259959787136
 20
-131.1355080227718
 30
0.0
 10
70.20259959787136
 20
-131.0865777450064
 30
0.0
 10
70.20259959787136
 20
-131.0376474672404
 30
0.0
 10
70.2420401524207
 20
-130.998383300584
 30
0.0
 10
70.29079404006578
 20
-130.998383300584
 30
0.0
 10
70.33954792771085
 20
-130.998383300584
 30
0.0
 10
70.3789884822602
 20
-131.0376474672404
 30
0.0
 10
70.3789884822602
 20
-131.0865777450064
 30
0.0
  0
HATCH
  5
CA
330
1F
100
AcDbEntity
  8
_U+30EC_U+30A4_U+30E4_U+30FC 1
 62
     7
420
 16777215
100
AcDbHatch
 10
0.0
 20
0.0
 30
0.0
210
0.0
220
0.0
230
1.0
  2
SOLID
 70
     1
 71
     0
 91
        1
 92
        1
 93
        1
 72
     4
 94
        3
 73
     0
 74
     1
 95
       17
 96
       13
 40
0.0
 40
0.0
 40
0.0
 40
0.0
 40
1.0
 40
1.0
 40
1.0
 40
2.0
 40
2.0
 40
2.0
 40
3.0
 40
3.0
 40
3.0
 40
4.0
 40
4.0
 40
4.0
 40
4.0
 10
70.3789884822602
 20
-131.0865777450064
 10
70.3789884822602
 20
-131.1355080227718
 10
70.33954792771085
 20
-131.1747721894288
 10
70.29079404006578
 20
-131.1747721894288
 10
70.2420401524207
 20
-131.1747721894288
 10
70.20259959787136
 20
-131.1355080227718
 10
70.20259959787136
 20
-131.0865777450064
 10
70.20259959787136
 20
-131.0376474672404
 10
70.2420401524207
 20
-130.998383300584
 10
70.29079404006578
 20
-130.998383300584
 10
70.33954792771085
 20
-130.998383300584
 10
70.3789884822602
 20
-131.0376474672404
 10
70.3789884822602
 20
-131.0865777450064
 97
        0
 97
        0
 75
     2
 76
     1
 98
        0
  0
SPLINE
  5
CB
330
1F
100
AcDbEntity
  8
_U+30EC_U+30A4_U+30E4_U+30FC 1
370
     0
100
AcDbSpline
210
0.0
220
0.0
230
1.0
 70
    11
 71
     3
 72
    17
 73
    13
 74
     0
 42
0.0000000001
 43
0.0000000001
 12
1.0
 22
0.0
 32
0.0
 13
1.0
 23
0.0
 33
0.0
 40
0.0
 40
0.0
 40
0.0
 40
0.0
 40
1.0
 40
1.0
 40
1.0
 40
2.0
 40
2.0
 40
2.0
 40
3.0
 40
3.0
 40
3.0
 40
4.0
 40
4.0
 40
4.0
 40
4.0
 10
70.3789884822602
 20
-135.043615521795
 30
0.0
 10
70.3789884822602
 20
-135.0925457995604
 30
0.0
 10
70.33954792771085
 20
-135.1318099662174
 30
0.0
 10
70.29079404006578
 20
-135.1318099662174
 30
0.0
 10
70.2420401524207
 20
-135.1318099662174
 30
0.0
 10
70.20259959787136
 20
-135.0925457995604
 30
0.0
 10
70.20259959787136
 20
-135.043615521795
 30
0.0
 10
70.20259959787136
 20
-134.9946852440289
 30
0.0
 10
70.2420401524207
 20
-134.9554210773726
 30
0.0
 10
70.29079404006578
 20
-134.9554210773726
 30
0.0
 10
70.33954792771085
 20
-134.9554210773726
 30
0.0
 10
70.3789884822602
 20
-134.9946852440289
 30
0.0
 10
70.3789884822602
 20
-135.043615521795
 30
0.0
  0
HATCH
  5
CC
330
1F
100
AcDbEntity
  8
_U+30EC_U+30A4_U+30E4_U+30FC 1
 62
     7
420
 16777215
100
AcDbHatch
 10
0.0
 20
0.0
 30
0.0
210
0.0
220
0.0
230
1.0
  2
SOLID
 70
     1
 71
     0
 91
        1
 92
        1
 93
        1
 72
     4
 94
        3
 73
     0
 74
     1
 95
       17
 96
       13
 40
0.0
 40
0.0
 40
0.0
 40
0.0
 40
1.0
 40
1.0
 40
1.0
 40
2.0
 40
2.0
 40
2.0
 40
3.0
 40
3.0
 40
3.0
 40
4.0
 40
4.0
 40
4.0
 40
4.0
 10
70.3789884822602
 20
-135.043615521795
 10
70.3789884822602
 20
-135.0925457995604
 10
70.33954792771085
 20
-135.1318099662174
 10
70.29079404006578
 20
-135.1318099662174
 10
70.2420401524207
 20
-135.1318099662174
 10
70.20259959787136
 20
-135.0925457995604
 10
70.20259959787136
 20
-135.043615521795
 10
70.20259959787136
 20
-134.9946852440289
 10
70.2420401524207
 20
-134.9554210773726
 10
70.29079404006578
 20
-134.9554210773726
 10
70.33954792771085
 20
-134.9554210773726
 10
70.3789884822602
 20
-134.9946852440289
 10
70.3789884822602
 20
-135.043615521795
 97
        0
 97
        0
 75
     2
 76
     1
 98
        0
  0
SPLINE
  5
CD
330
1F
100
AcDbEntity
  8
_U+30EC_U+30A4_U+30E4_U+30FC 1
370
     0
100
AcDbSpline
210
0.0
220
0.0
230
1.0
 70
    11
 71
     3
 72
    17
 73
    13
 74
     0
 42
0.0000000001
 43
0.0000000001
 12
1.0
 22
0.0
 32
0.0
 13
1.0
 23
0.0
 33
0.0
 40
0.0
 40
0.0
 40
0.0
 40
0.0
 40
1.0
 40
1.0
 40
1.0
 40
2.0
 40
2.0
 40
2.0
 40
3.0
 40
3.0
 40
3.0
 40
4.0
 40
4.0
 40
4.0
 40
4.0
 10
70.36142014937506
 20
-138.0828666321457
 30
0.0
 10
70.36142014937506
 20
-138.1317969099117
 30
0.0
 10
70.32197959482572
 20
-138.1710610765681
 30
0.0
 10
70.27322570718066
 20
-138.1710610765681
 30
0.0
 10
70.22447181953558
 20
-138.1710610765681
 30
0.0
 10
70.18503126498624
 20
-138.1317969099117
 30
0.0
 10
70.18503126498624
 20
-138.0828666321457
 30
0.0
 10
70.18503126498624
 20
-138.0339363543803
 30
0.0
 10
70.22447181953558
 20
-137.9946721877233
 30
0.0
 10
70.27322570718066
 20
-137.9946721877233
 30
0.0
 10
70.32197959482572
 20
-137.9946721877233
 30
0.0
 10
70.36142014937506
 20
-138.0339363543803
 30
0.0
 10
70.36142014937506
 20
-138.0828666321457
 30
0.0
  0
HATCH
  5
CE
330
1F
100
AcDbEntity
  8
_U+30EC_U+30A4_U+30E4_U+30FC 1
 62
     7
420
 16777215
100
AcDbHatch
 10
0.0
 20
0.0
 30
0.0
210
0.0
220
0.0
230
1.0
  2
SOLID
 70
     1
 71
     0
 91
        1
 92
        1
 93
        1
 72
     4
 94
        3
 73
     0
 74
     1
 95
       17
 96
       13
 40
0.0
 40
0.0
 40
0.0
 40
0.0
 40
1.0
 40
1.0
 40
1.0
 40
2.0
 40
2.0
 40
2.0
 40
3.0
 40
3.0
 40
3.0
 40
4.0
 40
4.0
 40
4.0
 40
4.0
 10
70.36142014937506
 20
-138.0828666321457
 10
70.36142014937506
 20
-138.1317969099117
 10
70.32197959482572
 20
-138.1710610765681
 10
70.27322570718066
 20
-138.1710610765681
 10
70.22447181953558
 20
-138.1710610765681
 10
70.18503126498624
 20
-138.1317969099117
 10
70.18503126498624
 20
-138.0828666321457
 10
70.18503126498624
 20
-138.0339363543803
 10
70.22447181953558
 20
-137.9946721877233
 10
70.27322570718066
 20
-137.9946721877233
 10
70.32197959482572
 20
-137.9946721877233
 10
70.36142014937506
 20
-138.0339363543803
 10
70.36142014937506
 20
-138.0828666321457
 97
        0
 97
        0
 75
     2
 76
     1
 98
        0
  0
SPLINE
  5
CF
330
1F
100
AcDbEntity
  8
_U+30EC_U+30A4_U+30E4_U+30FC 1
370
     0
100
AcDbSpline
210
0.0
220
0.0
230
1.0
 70
    11
 71
     3
 72
    17
 73
    13
 74
     0
 42
0.0000000001
 43
0.0000000001
 12
1.0
 22
0.0
 32
0.0
 13
1.0
 23
0.0
 33
0.0
 40
0.0
 40
0.0
 40
0.0
 40
0.0
 40
1.0
 40
1.0
 40
1.0
 40
2.0
 40
2.0
 40
2.0
 40
3.0
 40
3.0
 40
3.0
 40
4.0
 40
4.0
 40
4.0
 40
4.0
 10
57.56151380926121
 20
-130.9866710783648
 30
0.0
 10
57.56151380926121
 20
-131.0356013561301
 30
0.0
 10
57.52207325471188
 20
-131.0748655227871
 30
0.0
 10
57.4733193670668
 20
-131.0748655227871
 30
0.0
 10
57.42456547942173
 20
-131.0748655227871
 30
0.0
 10
57.38512492487239
 20
-131.0356013561301
 30
0.0
 10
57.38512492487239
 20
-130.9866710783648
 30
0.0
 10
57.38512492487239
 20
-130.9377408005988
 30
0.0
 10
57.42456547942173
 20
-130.8984766339424
 30
0.0
 10
57.4733193670668
 20
-130.8984766339424
 30
0.0
 10
57.52207325471188
 20
-130.8984766339424
 30
0.0
 10
57.56151380926121
 20
-130.9377408005988
 30
0.0
 10
57.56151380926121
 20
-130.9866710783648
 30
0.0
  0
HATCH
  5
D0
330
1F
100
AcDbEntity
  8
_U+30EC_U+30A4_U+30E4_U+30FC 1
 62
     7
420
 16777215
100
AcDbHatch
 10
0.0
 20
0.0
 30
0.0
210
0.0
220
0.0
230
1.0
  2
SOLID
 70
     1
 71
     0
 91
        1
 92
        1
 93
        1
 72
     4
 94
        3
 73
     0
 74
     1
 95
       17
 96
       13
 40
0.0
 40
0.0
 40
0.0
 40
0.0
 40
1.0
 40
1.0
 40
1.0
 40
2.0
 40
2.0
 40
2.0
 40
3.0
 40
3.0
 40
3.0
 40
4.0
 40
4.0
 40
4.0
 40
4.0
 10
57.56151380926121
 20
-130.9866710783648
 10
57.56151380926121
 20
-131.0356013561301
 10
57.52207325471188
 20
-131.0748655227871
 10
57.4733193670668
 20
-131.0748655227871
 10
57.42456547942173
 20
-131.0748655227871
 10
57.38512492487239
 20
-131.0356013561301
 10
57.38512492487239
 20
-130.9866710783648
 10
57.38512492487239
 20
-130.9377408005988
 10
57.42456547942173
 20
-130.8984766339424
 10
57.4733193670668
 20
-130.8984766339424
 10
57.52207325471188
 20
-130.8984766339424
 10
57.56151380926121
 20
-130.9377408005988
 10
57.56151380926121
 20
-130.9866710783648
 97
        0
 97
        0
 75
     2
 76
     1
 98
        0
  0
SPLINE
  5
D1
330
1F
100
AcDbEntity
  8
_U+30EC_U+30A4_U+30E4_U+30FC 1
370
     0
100
AcDbSpline
210
0.0
220
0.0
230
1.0
 70
    11
 71
     3
 72
    17
 73
    13
 74
     0
 42
0.0000000001
 43
0.0000000001
 12
1.0
 22
0.0
 32
0.0
 13
1.0
 23
0.0
 33
0.0
 40
0.0
 40
0.0
 40
0.0
 40
0.0
 40
1.0
 40
1.0
 40
1.0
 40
2.0
 40
2.0
 40
2.0
 40
3.0
 40
3.0
 40
3.0
 40
4.0
 40
4.0
 40
4.0
 40
4.0
 10
55.26845831220638
 20
-127.9878835791141
 30
0.0
 10
55.26845831220638
 20
-128.0368138568798
 30
0.0
 10
55.22901775765704
 20
-128.0760780235365
 30
0.0
 10
55.18026387001196
 20
-128.0760780235365
 30
0.0
 10
55.13150998236689
 20
-128.0760780235365
 30
0.0
 10
55.09206942781755
 20
-128.0368138568798
 30
0.0
 10
55.09206942781755
 20
-127.9878835791141
 30
0.0
 10
55.09206942781755
 20
-127.9389533013487
 30
0.0
 10
55.13150998236689
 20
-127.8996891346917
 30
0.0
 10
55.18026387001196
 20
-127.8996891346917
 30
0.0
 10
55.22901775765704
 20
-127.8996891346917
 30
0.0
 10
55.26845831220638
 20
-127.9389533013487
 30
0.0
 10
55.26845831220638
 20
-127.9878835791141
 30
0.0
  0
HATCH
  5
D2
330
1F
100
AcDbEntity
  8
_U+30EC_U+30A4_U+30E4_U+30FC 1
 62
     7
420
 16777215
100
AcDbHatch
 10
0.0
 20
0.0
 30
0.0
210
0.0
220
0.0
230
1.0
  2
SOLID
 70
     1
 71
     0
 91
        1
 92
        1
 93
        1
 72
     4
 94
        3
 73
     0
 74
     1
 95
       17
 96
       13
 40
0.0
 40
0.0
 40
0.0
 40
0.0
 40
1.0
 40
1.0
 40
1.0
 40
2.0
 40
2.0
 40
2.0
 40
3.0
 40
3.0
 40
3.0
 40
4.0
 40
4.0
 40
4.0
 40
4.0
 10
55.26845831220638
 20
-127.9878835791141
 10
55.26845831220638
 20
-128.0368138568798
 10
55.22901775765704
 20
-128.0760780235365
 10
55.18026387001196
 20
-128.0760780235365
 10
55.13150998236689
 20
-128.0760780235365
 10
55.09206942781755
 20
-128.0368138568798
 10
55.09206942781755
 20
-127.9878835791141
 10
55.09206942781755
 20
-127.9389533013487
 10
55.13150998236689
 20
-127.8996891346917
 10
55.18026387001196
 20
-127.8996891346917
 10
55.22901775765704
 20
-127.8996891346917
 10
55.26845831220638
 20
-127.9389533013487
 10
55.26845831220638
 20
-127.9878835791141
 97
        0
 97
        0
 75
     2
 76
     1
 98
        0
  0
SPLINE
  5
D3
330
1F
100
AcDbEntity
  8
_U+30EC_U+30A4_U+30E4_U+30FC 1
370
     0
100
AcDbSpline
210
0.0
220
0.0
230
1.0
 70
    11
 71
     3
 72
    17
 73
    13
 74
     0
 42
0.0000000001
 43
0.0000000001
 12
1.0
 22
0.0
 32
0.0
 13
1.0
 23
0.0
 33
0.0
 40
0.0
 40
0.0
 40
0.0
 40
0.0
 40
1.0
 40
1.0
 40
1.0
 40
2.0
 40
2.0
 40
2.0
 40
3.0
 40
3.0
 40
3.0
 40
4.0
 40
4.0
 40
4.0
 40
4.0
 10
55.3271972083903
 20
-122.7551308026446
 30
0.0
 10
55.3271972083903
 20
-122.80406108041
 30
0.0
 10
55.28775525615852
 20
-122.843325247067
 30
0.0
 10
55.2390027639679
 20
-122.843325247067
 30
0.0
 10
55.19024748086837
 20
-122.843325247067
 30
0.0
 10
55.1508083195455
 20
-122.80406108041
 30
0.0
 10
55.1508083195455
 20
-122.7551308026446
 30
0.0
 10
55.1508083195455
 20
-122.706200524879
 30
0.0
 10
55.19024748086837
 20
-122.6669363582222
 30
0.0
 10
55.2390027639679
 20
-122.6669363582222
 30
0.0
 10
55.28775525615852
 20
-122.6669363582222
 30
0.0
 10
55.3271972083903
 20
-122.706200524879
 30
0.0
 10
55.3271972083903
 20
-122.7551308026446
 30
0.0
  0
HATCH
  5
D4
330
1F
100
AcDbEntity
  8
_U+30EC_U+30A4_U+30E4_U+30FC 1
 62
     7
420
 16777215
100
AcDbHatch
 10
0.0
 20
0.0
 30
0.0
210
0.0
220
0.0
230
1.0
  2
SOLID
 70
     1
 71
     0
 91
        1
 92
        1
 93
        1
 72
     4
 94
        3
 73
     0
 74
     1
 95
       17
 96
       13
 40
0.0
 40
0.0
 40
0.0
 40
0.0
 40
1.0
 40
1.0
 40
1.0
 40
2.0
 40
2.0
 40
2.0
 40
3.0
 40
3.0
 40
3.0
 40
4.0
 40
4.0
 40
4.0
 40
4.0
 10
55.3271972083903
 20
-122.7551308026446
 10
55.3271972083903
 20
-122.80406108041
 10
55.28775525615852
 20
-122.843325247067
 10
55.2390027639679
 20
-122.843325247067
 10
55.19024748086837
 20
-122.843325247067
 10
55.1508083195455
 20
-122.80406108041
 10
55.1508083195455
 20
-122.7551308026446
 10
55.1508083195455
 20
-122.706200524879
 10
55.19024748086837
 20
-122.6669363582222
 10
55.2390027639679
 20
-122.6669363582222
 10
55.28775525615852
 20
-122.6669363582222
 10
55.3271972083903
 20
-122.706200524879
 10
55.3271972083903
 20
-122.7551308026446
 97
        0
 97
        0
 75
     2
 76
     1
 98
        0
  0
INSERT
  5
D6
330
1F
100
AcDbEntity
  8
_U+30EC_U+30A4_U+30E4_U+30FC 1
100
AcDbBlockReference
  2
block 2
 10
0.0
 20
0.0
 30
0.0
  0
INSERT
  5
DF
330
1F
100
AcDbEntity
  8
_U+30EC_U+30A4_U+30E4_U+30FC 1
100
AcDbBlockReference
  2
block 3
 10
0.0
 20
0.0
 30
0.0
  0
INSERT
  5
E8
330
1F
100
AcDbEntity
  8
_U+30EC_U+30A4_U+30E4_U+30FC 1
100
AcDbBlockReference
  2
block 4
 10
0.0
 20
0.0
 30
0.0
  0
INSERT
  5
F1
330
1F
100
AcDbEntity
  8
_U+30EC_U+30A4_U+30E4_U+30FC 1
100
AcDbBlockReference
  2
block 5
 10
0.0
 20
0.0
 30
0.0
  0
INSERT
  5
FA
330
1F
100
AcDbEntity
  8
_U+30EC_U+30A4_U+30E4_U+30FC 1
100
AcDbBlockReference
  2
block 6
 10
0.0
 20
0.0
 30
0.0
  0
INSERT
  5
105
330
1F
100
AcDbEntity
  8
_U+30EC_U+30A4_U+30E4_U+30FC 1
100
AcDbBlockReference
  2
block 7
 10
0.0
 20
0.0
 30
0.0
  0
INSERT
  5
110
330
1F
100
AcDbEntity
  8
_U+30EC_U+30A4_U+30E4_U+30FC 1
100
AcDbBlockReference
  2
block 8
 10
0.0
 20
0.0
 30
0.0
  0
INSERT
  5
119
330
1F
100
AcDbEntity
  8
_U+30EC_U+30A4_U+30E4_U+30FC 1
100
AcDbBlockReference
  2
block 9
 10
0.0
 20
0.0
 30
0.0
  0
INSERT
  5
122
330
1F
100
AcDbEntity
  8
_U+30EC_U+30A4_U+30E4_U+30FC 1
100
AcDbBlockReference
  2
block 10
 10
0.0
 20
0.0
 30
0.0
  0
INSERT
  5
12B
330
1F
100
AcDbEntity
  8
_U+30EC_U+30A4_U+30E4_U+30FC 1
100
AcDbBlockReference
  2
block 11
 10
0.0
 20
0.0
 30
0.0
  0
INSERT
  5
134
330
1F
100
AcDbEntity
  8
_U+30EC_U+30A4_U+30E4_U+30FC 1
100
AcDbBlockReference
  2
block 12
 10
0.0
 20
0.0
 30
0.0
  0
INSERT
  5
145
330
1F
100
AcDbEntity
  8
_U+30EC_U+30A4_U+30E4_U+30FC 1
100
AcDbBlockReference
  2
block 13
 10
0.0
 20
0.0
 30
0.0
  0
POLYLINE
  5
14D
330
1F
100
AcDbEntity
  8
_U+30EC_U+30A4_U+30E4_U+30FC 1
 62
     7
420
 16777215
370
     9
100
AcDb2dPolyline
 66
     1
 10
0.0
 20
0.0
 30
0.0
  0
VERTEX
  5
14E
330
14D
100
AcDbEntity
  8
_U+30EC_U+30A4_U+30E4_U+30FC 1
 62
     7
420
 16777215
370
     9
100
AcDbVertex
100
AcDb2dVertex
 10
108.0085610841087
 20
-119.7611763589485
 30
0.0
  0
VERTEX
  5
14F
330
14D
100
AcDbEntity
  8
_U+30EC_U+30A4_U+30E4_U+30FC 1
 62
     7
420
 16777215
370
     9
100
AcDbVertex
100
AcDb2dVertex
 10
111.5363388610046
 20
-119.7611763589485
 30
0.0
  0
SEQEND
  5
150
330
14D
100
AcDbEntity
  8
_U+30EC_U+30A4_U+30E4_U+30FC 1
 62
     7
420
 16777215
370
     9
  0
POLYLINE
  5
151
330
1F
100
AcDbEntity
  8
_U+30EC_U+30A4_U+30E4_U+30FC 1
 62
     7
420
 16777215
370
     9
100
AcDb2dPolyline
 66
     1
 10
0.0
 20
0.0
 30
0.0
  0
VERTEX
  5
152
330
151
100
AcDbEntity
  8
_U+30EC_U+30A4_U+30E4_U+30FC 1
 62
     7
420
 16777215
370
     9
100
AcDbVertex
100
AcDb2dVertex
 10
111.5363388610046
 20
-120.5411327476424
 30
0.0
  0
VERTEX
  5
153
330
151
100
AcDbEntity
  8
_U+30EC_U+30A4_U+30E4_U+30FC 1
 62
     7
420
 16777215
370
     9
100
AcDbVertex
100
AcDb2dVertex
 10
111.5363388610046
 20
-118.9805144146994
 30
0.0
  0
SEQEND
  5
154
330
151
100
AcDbEntity
  8
_U+30EC_U+30A4_U+30E4_U+30FC 1
 62
     7
420
 16777215
370
     9
  0
SPLINE
  5
155
330
1F
100
AcDbEntity
  8
_U+30EC_U+30A4_U+30E4_U+30FC 1
370
     0
100
AcDbSpline
210
0.0
220
0.0
230
1.0
 70
    11
 71
     3
 72
    17
 73
    13
 74
     0
 42
0.0000000001
 43
0.0000000001
 12
1.0
 22
0.0
 32
0.0
 13
1.0
 23
0.0
 33
0.0
 40
0.0
 40
0.0
 40
0.0
 40
0.0
 40
1.0
 40
1.0
 40
1.0
 40
2.0
 40
2.0
 40
2.0
 40
3.0
 40
3.0
 40
3.0
 40
4.0
 40
4.0
 40
4.0
 40
4.0
 10
108.0967555285311
 20
-119.7611763589485
 30
0.0
 10
108.0967555285311
 20
-119.8100713589363
 30
0.0
 10
108.0574886321127
 20
-119.8493708033709
 30
0.0
 10
108.0085610841087
 20
-119.8493708033709
 30
0.0
 10
107.9599808568225
 20
-119.8493708033709
 30
0.0
 10
107.9203666396863
 20
-119.8100713589363
 30
0.0
 10
107.9203666396863
 20
-119.7611763589485
 30
0.0
 10
107.9203666396863
 20
-119.7122460811831
 30
0.0
 10
107.9599808568225
 20
-119.6729819145261
 30
0.0
 10
108.0085610841087
 20
-119.6729819145261
 30
0.0
 10
108.0574886321127
 20
-119.6729819145261
 30
0.0
 10
108.0967555285311
 20
-119.7122460811831
 30
0.0
 10
108.0967555285311
 20
-119.7611763589485
 30
0.0
  0
HATCH
  5
156
330
1F
100
AcDbEntity
  8
_U+30EC_U+30A4_U+30E4_U+30FC 1
 62
     7
420
 16777215
100
AcDbHatch
 10
0.0
 20
0.0
 30
0.0
210
0.0
220
0.0
230
1.0
  2
SOLID
 70
     1
 71
     0
 91
        1
 92
        1
 93
        1
 72
     4
 94
        3
 73
     0
 74
     1
 95
       17
 96
       13
 40
0.0
 40
0.0
 40
0.0
 40
0.0
 40
1.0
 40
1.0
 40
1.0
 40
2.0
 40
2.0
 40
2.0
 40
3.0
 40
3.0
 40
3.0
 40
4.0
 40
4.0
 40
4.0
 40
4.0
 10
108.0967555285311
 20
-119.7611763589485
 10
108.0967555285311
 20
-119.8100713589363
 10
108.0574886321127
 20
-119.8493708033709
 10
108.0085610841087
 20
-119.8493708033709
 10
107.9599808568225
 20
-119.8493708033709
 10
107.9203666396863
 20
-119.8100713589363
 10
107.9203666396863
 20
-119.7611763589485
 10
107.9203666396863
 20
-119.7122460811831
 10
107.9599808568225
 20
-119.6729819145261
 10
108.0085610841087
 20
-119.6729819145261
 10
108.0574886321127
 20
-119.6729819145261
 10
108.0967555285311
 20
-119.7122460811831
 10
108.0967555285311
 20
-119.7611763589485
 97
        0
 97
        0
 75
     2
 76
     1
 98
        0
  0
SPLINE
  5
157
330
1F
100
AcDbEntity
  8
_U+30EC_U+30A4_U+30E4_U+30FC 1
370
     0
100
AcDbSpline
210
0.0
220
0.0
230
1.0
 70
    11
 71
     3
 72
    17
 73
    13
 74
     0
 42
0.0000000001
 43
0.0000000001
 12
1.0
 22
0.0
 32
0.0
 13
1.0
 23
0.0
 33
0.0
 40
0.0
 40
0.0
 40
0.0
 40
0.0
 40
1.0
 40
1.0
 40
1.0
 40
2.0
 40
2.0
 40
2.0
 40
3.0
 40
3.0
 40
3.0
 40
4.0
 40
4.0
 40
4.0
 40
4.0
 10
111.6245333054269
 20
-119.7616702478373
 30
0.0
 10
111.6245333054269
 20
-119.810600525603
 30
0.0
 10
111.5852663198894
 20
-119.8498646922597
 30
0.0
 10
111.5363388610046
 20
-119.8498646922597
 30
0.0
 10
111.4874057668304
 20
-119.8498646922597
 30
0.0
 10
111.4481444165822
 20
-119.810600525603
 30
0.0
 10
111.4481444165822
 20
-119.7616702478373
 30
0.0
 10
111.4481444165822
 20
-119.7127752478497
 30
0.0
 10
111.4874057668304
 20
-119.6734758034149
 30
0.0
 10
111.5363388610046
 20
-119.6734758034149
 30
0.0
 10
111.5852663198894
 20
-119.6734758034149
 30
0.0
 10
111.6245333054269
 20
-119.7127752478497
 30
0.0
 10
111.6245333054269
 20
-119.7616702478373
 30
0.0
  0
HATCH
  5
158
330
1F
100
AcDbEntity
  8
_U+30EC_U+30A4_U+30E4_U+30FC 1
 62
     7
420
 16777215
100
AcDbHatch
 10
0.0
 20
0.0
 30
0.0
210
0.0
220
0.0
230
1.0
  2
SOLID
 70
     1
 71
     0
 91
        1
 92
        1
 93
        1
 72
     4
 94
        3
 73
     0
 74
     1
 95
       17
 96
       13
 40
0.0
 40
0.0
 40
0.0
 40
0.0
 40
1.0
 40
1.0
 40
1.0
 40
2.0
 40
2.0
 40
2.0
 40
3.0
 40
3.0
 40
3.0
 40
4.0
 40
4.0
 40
4.0
 40
4.0
 10
111.6245333054269
 20
-119.7616702478373
 10
111.6245333054269
 20
-119.810600525603
 10
111.5852663198894
 20
-119.8498646922597
 10
111.5363388610046
 20
-119.8498646922597
 10
111.4874057668304
 20
-119.8498646922597
 10
111.4481444165822
 20
-119.810600525603
 10
111.4481444165822
 20
-119.7616702478373
 10
111.4481444165822
 20
-119.7127752478497
 10
111.4874057668304
 20
-119.6734758034149
 10
111.5363388610046
 20
-119.6734758034149
 10
111.5852663198894
 20
-119.6734758034149
 10
111.6245333054269
 20
-119.7127752478497
 10
111.6245333054269
 20
-119.7616702478373
 97
        0
 97
        0
 75
     2
 76
     1
 98
        0
  0
ENDSEC
  0
SECTION
  2
OBJECTS
  0
DICTIONARY
  5
C
330
0
100
AcDbDictionary
281
     1
  3
ACAD_GROUP
350
D
  3
ACAD_LAYOUT
350
1A
  3
ACAD_MATERIAL
350
3B
  3
ACAD_MLEADERSTYLE
350
15A
  3
ACAD_MLINESTYLE
350
17
  3
ACAD_PLOTSETTINGS
350
19
  3
ACAD_PLOTSTYLENAME
350
E
  3
ACAD_TABLESTYLE
350
159
  3
ACAD_VISUALSTYLE
350
2A
  0
SUN
  5
3F
330
29
100
AcDbSun
 90
        1
290
     0
 63
     7
421
 16777215
 40
1.0
291
     1
 91
  2455826
 92
 54000000
292
     0
 70
     2
 71
   256
280
     1
  0
DICTIONARY
  5
D
102
{ACAD_REACTORS
330
C
102
}
330
C
100
AcDbDictionary
281
     1
  0
DICTIONARY
  5
1A
102
{ACAD_REACTORS
330
C
102
}
330
C
100
AcDbDictionary
281
     1
  3
Layout1
350
1E
  3
Layout2
350
26
  3
Model
350
22
  0
DICTIONARY
  5
3B
102
{ACAD_REACTORS
330
C
102
}
330
C
100
AcDbDictionary
281
     1
  3
ByBlock
350
3D
  3
ByLayer
350
3C
  3
Global
350
3E
  0
DICTIONARY
  5
15A
102
{ACAD_REACTORS
330
C
102
}
330
C
100
AcDbDictionary
281
     1
  0
DICTIONARY
  5
17
102
{ACAD_REACTORS
330
C
102
}
330
C
100
AcDbDictionary
281
     1
  3
Standard
350
18
  0
DICTIONARY
  5
19
102
{ACAD_REACTORS
330
C
102
}
330
C
100
AcDbDictionary
281
     1
  0
ACDBDICTIONARYWDFLT
  5
E
102
{ACAD_REACTORS
330
C
102
}
330
C
100
AcDbDictionary
281
     1
  3
Normal
350
F
100
AcDbDictionaryWithDefault
340
F
  0
DICTIONARY
  5
159
102
{ACAD_REACTORS
330
C
102
}
330
C
100
AcDbDictionary
281
     1
  0
DICTIONARY
  5
2A
102
{ACAD_REACTORS
330
C
102
}
330
C
100
AcDbDictionary
281
     1
  3
2dWireframe
350
2F
  3
3D Hidden
350
31
  3
3dWireframe
350
30
  3
Basic
350
32
  3
Brighten
350
36
  3
ColorChange
350
3A
  3
Conceptual
350
34
  3
Dim
350
35
  3
Facepattern
350
39
  3
Flat
350
2B
  3
FlatWithEdges
350
2C
  3
Gouraud
350
2D
  3
GouraudWithEdges
350
2E
  3
Linepattern
350
38
  3
Realistic
350
33
  3
Thicken
350
37
  0
LAYOUT
  5
1E
102
{ACAD_REACTORS
330
1A
102
}
330
1A
100
AcDbPlotSettings
  1

  2
none_device
  4

  6

 40
0.0
 41
0.0
 42
0.0
 43
0.0
 44
0.0
 45
0.0
 46
0.0
 47
0.0
 48
0.0
 49
0.0
140
0.0
141
0.0
142
1.0
143
1.0
 70
   688
 72
     0
 73
     0
 74
     5
  7

 75
    16
 76
     0
 77
     2
 78
   300
147
1.0
148
0.0
149
0.0
100
AcDbLayout
  1
Layout1
 70
     1
 71
     1
 10
0.0
 20
0.0
 11
12.0
 21
9.0
 12
0.0
 22
0.0
 32
0.0
 14
1.000000000000000E+20
 24
1.000000000000000E+20
 34
1.000000000000000E+20
 15
-1.000000000000000E+20
 25
-1.000000000000000E+20
 35
-1.000000000000000E+20
146
0.0
 13
0.0
 23
0.0
 33
0.0
 16
1.0
 26
0.0
 36
0.0
 17
0.0
 27
1.0
 37
0.0
 76
     0
330
1B
  0
LAYOUT
  5
26
102
{ACAD_REACTORS
330
1A
102
}
330
1A
100
AcDbPlotSettings
  1

  2
none_device
  4

  6

 40
0.0
 41
0.0
 42
0.0
 43
0.0
 44
0.0
 45
0.0
 46
0.0
 47
0.0
 48
0.0
 49
0.0
140
0.0
141
0.0
142
1.0
143
1.0
 70
   688
 72
     0
 73
     0
 74
     5
  7

 75
    16
 76
     0
 77
     2
 78
   300
147
1.0
148
0.0
149
0.0
100
AcDbLayout
  1
Layout2
 70
     1
 71
     2
 10
0.0
 20
0.0
 11
0.0
 21
0.0
 12
0.0
 22
0.0
 32
0.0
 14
0.0
 24
0.0
 34
0.0
 15
0.0
 25
0.0
 35
0.0
146
0.0
 13
0.0
 23
0.0
 33
0.0
 16
1.0
 26
0.0
 36
0.0
 17
0.0
 27
1.0
 37
0.0
 76
     0
330
23
  0
LAYOUT
  5
22
102
{ACAD_REACTORS
330
1A
102
}
330
1A
100
AcDbPlotSettings
  1

  2
none_device
  4

  6

 40
0.0
 41
0.0
 42
0.0
 43
0.0
 44
0.0
 45
0.0
 46
0.0
 47
0.0
 48
0.0
 49
0.0
140
0.0
141
0.0
142
1.0
143
1.0
 70
  1712
 72
     0
 73
     0
 74
     0
  7

 75
     0
 76
     0
 77
     2
 78
   300
147
1.0
148
0.0
149
0.0
100
AcDbLayout
  1
Model
 70
     1
 71
     0
 10
0.0
 20
0.0
 11
12.0
 21
9.0
 12
0.0
 22
0.0
 32
0.0
 14
1.000000000000000E+20
 24
1.000000000000000E+20
 34
1.000000000000000E+20
 15
-1.000000000000000E+20
 25
-1.000000000000000E+20
 35
-1.000000000000000E+20
146
0.0
 13
0.0
 23
0.0
 33
0.0
 16
1.0
 26
0.0
 36
0.0
 17
0.0
 27
1.0
 37
0.0
 76
     0
330
1F
331
29
  0
MATERIAL
  5
3D
102
{ACAD_REACTORS
330
3B
102
}
330
3B
100
AcDbMaterial
  1
ByBlock
 72
     1
 94
      127
  0
MATERIAL
  5
3C
102
{ACAD_REACTORS
330
3B
102
}
330
3B
100
AcDbMaterial
  1
ByLayer
 72
     1
 94
      127
  0
MATERIAL
  5
3E
102
{ACAD_REACTORS
330
3B
102
}
330
3B
100
AcDbMaterial
  1
Global
 72
     1
 94
      127
  0
MLINESTYLE
  5
18
102
{ACAD_REACTORS
330
17
102
}
330
17
100
AcDbMlineStyle
  2
Standard
 70
     0
  3

 62
   256
 51
90.0
 52
90.0
 71
     2
 49
0.5
 62
   256
  6
BYLAYER
 49
-0.5
 62
   256
  6
BYLAYER
  0
ACDBPLACEHOLDER
  5
F
102
{ACAD_REACTORS
330
E
102
}
330
E
  0
VISUALSTYLE
  5
2F
102
{ACAD_REACTORS
330
2A
102
}
330
2A
100
AcDbVisualStyle
  2
2dWireframe
 70
     4
177
     2
291
     0
 71
     0
176
     1
 72
     2
176
     1
 73
     0
176
     1
 90
        0
176
     1
 40
-0.6
176
     1
 41
-30.0
176
     1
 62
     5
 63
     7
421
 16777215
176
     1
 74
     1
176
     1
 91
        4
176
     1
 64
     7
176
     1
 65
   257
176
     1
 75
     1
176
     1
175
     1
176
     1
 42
1.0
176
     1
 92
        0
176
     1
 66
   257
176
     1
 43
1.0
176
     1
 76
     1
176
     1
 77
     6
176
     1
 78
     2
176
     1
 67
     7
176
     1
 79
     5
176
     1
170
     0
176
     1
171
     0
176
     1
290
     0
176
     1
 93
        1
176
     1
 44
0.0
176
     1
173
     0
176
     1
  0
VISUALSTYLE
  5
31
102
{ACAD_REACTORS
330
2A
102
}
330
2A
100
AcDbVisualStyle
  2
3D Hidden
 70
     6
177
     2
291
     0
 71
     1
176
     1
 72
     2
176
     1
 73
     2
176
     1
 90
        0
176
     1
 40
-0.6
176
     1
 41
-30.0
176
     1
 62
     5
 63
     7
421
 16777215
176
     1
 74
     2
176
     1
 91
        2
176
     1
 64
     7
176
     1
 65
   257
176
     1
 75
     2
176
     1
175
     1
176
     1
 42
40.0
176
     1
 92
        0
176
     1
 66
   257
176
     1
 43
1.0
176
     1
 76
     1
176
     1
 77
     6
176
     1
 78
     2
176
     1
 67
     7
176
     1
 79
     3
176
     1
170
     0
176
     1
171
     0
176
     1
290
     0
176
     1
 93
        1
176
     1
 44
0.0
176
     1
173
     0
176
     1
  0
VISUALSTYLE
  5
30
102
{ACAD_REACTORS
330
2A
102
}
330
2A
100
AcDbVisualStyle
  2
3dWireframe
 70
     5
177
     2
291
     0
 71
     0
176
     1
 72
     2
176
     1
 73
     0
176
     1
 90
        0
176
     1
 40
-0.6
176
     1
 41
-30.0
176
     1
 62
     5
 63
     7
421
 16777215
176
     1
 74
     1
176
     1
 91
        4
176
     1
 64
     7
176
     1
 65
   257
176
     1
 75
     1
176
     1
175
     1
176
     1
 42
1.0
176
     1
 92
        0
176
     1
 66
   257
176
     1
 43
1.0
176
     1
 76
     1
176
     1
 77
     6
176
     1
 78
     2
176
     1
 67
     7
176
     1
 79
     5
176
     1
170
     0
176
     1
171
     0
176
     1
290
     0
176
     1
 93
        1
176
     1
 44
0.0
176
     1
173
     0
176
     1
  0
VISUALSTYLE
  5
32
102
{ACAD_REACTORS
330
2A
102
}
330
2A
100
AcDbVisualStyle
  2
Basic
 70
     7
177
     2
291
     1
 71
     1
176
     1
 72
     0
176
     1
 73
     1
176
     1
 90
        0
176
     1
 40
-0.6
176
     1
 41
-30.0
176
     1
 62
     5
 63
     7
421
 16777215
176
     1
 74
     0
176
     1
 91
        4
176
     1
 64
     7
176
     1
 65
   257
176
     1
 75
     1
176
     1
175
     1
176
     1
 42
1.0
176
     1
 92
        8
176
     1
 66
     7
176
     1
 43
1.0
176
     1
 76
     1
176
     1
 77
     6
176
     1
 78
     2
176
     1
 67
     7
176
     1
 79
     5
176
     1
170
     0
176
     1
171
     0
176
     1
290
     0
176
     1
 93
        1
176
     1
 44
0.0
176
     1
173
     0
176
     1
  0
VISUALSTYLE
  5
36
102
{ACAD_REACTORS
330
2A
102
}
330
2A
100
AcDbVisualStyle
  2
Brighten
 70
    12
177
     2
291
     1
 71
     2
176
     1
 72
     2
176
     1
 73
     0
176
     1
 90
        0
176
     1
 40
-0.6
176
     1
 41
-30.0
176
     1
 62
     5
 63
     7
421
 16777215
176
     1
 74
     1
176
     1
 91
        4
176
     1
 64
     7
176
     1
 65
   257
176
     1
 75
     1
176
     1
175
     1
176
     1
 42
1.0
176
     1
 92
        8
176
     1
 66
     7
176
     1
 43
1.0
176
     1
 76
     1
176
     1
 77
     6
176
     1
 78
     2
176
     1
 67
     7
176
     1
 79
     5
176
     1
170
     0
176
     1
171
     0
176
     1
290
     0
176
     1
 93
        1
176
     1
 44
50.0
176
     1
173
     0
176
     1
  0
VISUALSTYLE
  5
3A
102
{ACAD_REACTORS
330
2A
102
}
330
2A
100
AcDbVisualStyle
  2
ColorChange
 70
    16
177
     2
291
     1
 71
     2
176
     1
 72
     2
176
     1
 73
     3
176
     1
 90
        0
176
     1
 40
-0.6
176
     1
 41
-30.0
176
     1
 62
     5
 63
     8
421
  8421504
176
     1
 74
     1
176
     1
 91
        4
176
     1
 64
     7
176
     1
 65
   257
176
     1
 75
     1
176
     1
175
     1
176
     1
 42
1.0
176
     1
 92
        8
176
     1
 66
     8
424
  8421504
176
     1
 43
1.0
176
     1
 76
     1
176
     1
 77
     6
176
     1
 78
     2
176
     1
 67
     7
176
     1
 79
     5
176
     1
170
     0
176
     1
171
     0
176
     1
290
     0
176
     1
 93
        1
176
     1
 44
0.0
176
     1
173
     0
176
     1
  0
VISUALSTYLE
  5
34
102
{ACAD_REACTORS
330
2A
102
}
330
2A
100
AcDbVisualStyle
  2
Conceptual
 70
     9
177
     2
291
     0
 71
     3
176
     1
 72
     2
176
     1
 73
     0
176
     1
 90
        0
176
     1
 40
-0.6
176
     1
 41
-30.0
176
     1
 62
     5
 63
     7
421
 16777215
176
     1
 74
     2
176
     1
 91
        2
176
     1
 64
     7
176
     1
 65
   257
176
     1
 75
     1
176
     1
175
     1
176
     1
 42
40.0
176
     1
 92
        8
176
     1
 66
     7
176
     1
 43
1.0
176
     1
 76
     1
176
     1
 77
     6
176
     1
 78
     2
176
     1
 67
     7
176
     1
 79
     3
176
     1
170
     0
176
     1
171
     0
176
     1
290
     0
176
     1
 93
        1
176
     1
 44
0.0
176
     1
173
     0
176
     1
  0
VISUALSTYLE
  5
35
102
{ACAD_REACTORS
330
2A
102
}
330
2A
100
AcDbVisualStyle
  2
Dim
 70
    11
177
     2
291
     1
 71
     2
176
     1
 72
     2
176
     1
 73
     0
176
     1
 90
        0
176
     1
 40
-0.6
176
     1
 41
-30.0
176
     1
 62
     5
 63
     7
421
 16777215
176
     1
 74
     1
176
     1
 91
        4
176
     1
 64
     7
176
     1
 65
   257
176
     1
 75
     1
176
     1
175
     1
176
     1
 42
1.0
176
     1
 92
        8
176
     1
 66
     7
176
     1
 43
1.0
176
     1
 76
     1
176
     1
 77
     6
176
     1
 78
     2
176
     1
 67
     7
176
     1
 79
     5
176
     1
170
     0
176
     1
171
     0
176
     1
290
     0
176
     1
 93
        1
176
     1
 44
-50.0
176
     1
173
     0
176
     1
  0
VISUALSTYLE
  5
39
102
{ACAD_REACTORS
330
2A
102
}
330
2A
100
AcDbVisualStyle
  2
Facepattern
 70
    15
177
     2
291
     1
 71
     2
176
     1
 72
     2
176
     1
 73
     0
176
     1
 90
        0
176
     1
 40
-0.6
176
     1
 41
-30.0
176
     1
 62
     5
 63
     7
421
 16777215
176
     1
 74
     1
176
     1
 91
        4
176
     1
 64
     7
176
     1
 65
   257
176
     1
 75
     1
176
     1
175
     1
176
     1
 42
1.0
176
     1
 92
        8
176
     1
 66
     7
176
     1
 43
1.0
176
     1
 76
     1
176
     1
 77
     6
176
     1
 78
     2
176
     1
 67
     7
176
     1
 79
     5
176
     1
170
     0
176
     1
171
     0
176
     1
290
     0
176
     1
 93
        1
176
     1
 44
0.0
176
     1
173
     0
176
     1
  0
VISUALSTYLE
  5
2B
102
{ACAD_REACTORS
330
2A
102
}
330
2A
100
AcDbVisualStyle
  2
Flat
 70
     0
177
     2
291
     1
 71
     2
176
     1
 72
     1
176
     1
 73
     1
176
     1
 90
        2
176
     1
 40
-0.6
176
     1
 41
30.0
176
     1
 62
     5
 63
     7
421
 16777215
176
     1
 74
     0
176
     1
 91
        4
176
     1
 64
     7
176
     1
 65
   257
176
     1
 75
     1
176
     1
175
     1
176
     1
 42
1.0
176
     1
 92
        8
176
     1
 66
     7
176
     1
 43
1.0
176
     1
 76
     1
176
     1
 77
     6
176
     1
 78
     2
176
     1
 67
     7
176
     1
 79
     5
176
     1
170
     0
176
     1
171
     0
176
     1
290
     0
176
     1
 93
       13
176
     1
 44
0.0
176
     1
173
     0
176
     1
  0
VISUALSTYLE
  5
2C
102
{ACAD_REACTORS
330
2A
102
}
330
2A
100
AcDbVisualStyle
  2
FlatWithEdges
 70
     1
177
     2
291
     1
 71
     2
176
     1
 72
     1
176
     1
 73
     1
176
     1
 90
        2
176
     1
 40
-0.6
176
     1
 41
30.0
176
     1
 62
     5
 63
     7
421
 16777215
176
     1
 74
     1
176
     1
 91
        4
176
     1
 64
     7
176
     1
 65
   257
176
     1
 75
     1
176
     1
175
     1
176
     1
 42
1.0
176
     1
 92
        0
176
     1
 66
   257
176
     1
 43
1.0
176
     1
 76
     1
176
     1
 77
     6
176
     1
 78
     2
176
     1
 67
     7
176
     1
 79
     5
176
     1
170
     0
176
     1
171
     0
176
     1
290
     0
176
     1
 93
       13
176
     1
 44
0.0
176
     1
173
     0
176
     1
  0
VISUALSTYLE
  5
2D
102
{ACAD_REACTORS
330
2A
102
}
330
2A
100
AcDbVisualStyle
  2
Gouraud
 70
     2
177
     2
291
     1
 71
     2
176
     1
 72
     2
176
     1
 73
     1
176
     1
 90
        2
176
     1
 40
-0.6
176
     1
 41
30.0
176
     1
 62
     5
 63
     7
421
 16777215
176
     1
 74
     0
176
     1
 91
        4
176
     1
 64
     7
176
     1
 65
   257
176
     1
 75
     1
176
     1
175
     1
176
     1
 42
1.0
176
     1
 92
        0
176
     1
 66
     7
176
     1
 43
1.0
176
     1
 76
     1
176
     1
 77
     6
176
     1
 78
     2
176
     1
 67
     7
176
     1
 79
     5
176
     1
170
     0
176
     1
171
     0
176
     1
290
     0
176
     1
 93
       13
176
     1
 44
0.0
176
     1
173
     0
176
     1
  0
VISUALSTYLE
  5
2E
102
{ACAD_REACTORS
330
2A
102
}
330
2A
100
AcDbVisualStyle
  2
GouraudWithEdges
 70
     3
177
     2
291
     1
 71
     2
176
     1
 72
     2
176
     1
 73
     1
176
     1
 90
        2
176
     1
 40
-0.6
176
     1
 41
30.0
176
     1
 62
     5
 63
     7
421
 16777215
176
     1
 74
     1
176
     1
 91
        4
176
     1
 64
     7
176
     1
 65
   257
176
     1
 75
     1
176
     1
175
     1
176
     1
 42
1.0
176
     1
 92
        0
176
     1
 66
   257
176
     1
 43
1.0
176
     1
 76
     1
176
     1
 77
     6
176
     1
 78
     2
176
     1
 67
     7
176
     1
 79
     5
176
     1
170
     0
176
     1
171
     0
176
     1
290
     0
176
     1
 93
       13
176
     1
 44
0.0
176
     1
173
     0
176
     1
  0
VISUALSTYLE
  5
38
102
{ACAD_REACTORS
330
2A
102
}
330
2A
100
AcDbVisualStyle
  2
Linepattern
 70
    14
177
     2
291
     1
 71
     2
176
     1
 72
     2
176
     1
 73
     0
176
     1
 90
        0
176
     1
 40
-0.6
176
     1
 41
-30.0
176
     1
 62
     5
 63
     7
421
 16777215
176
     1
 74
     1
176
     1
 91
        4
176
     1
 64
     7
176
     1
 65
   257
176
     1
 75
     7
176
     1
175
     7
176
     1
 42
1.0
176
     1
 92
        8
176
     1
 66
     7
176
     1
 43
1.0
176
     1
 76
     1
176
     1
 77
     6
176
     1
 78
     2
176
     1
 67
     7
176
     1
 79
     5
176
     1
170
     0
176
     1
171
     0
176
     1
290
     0
176
     1
 93
        1
176
     1
 44
0.0
176
     1
173
     0
176
     1
  0
VISUALSTYLE
  5
33
102
{ACAD_REACTORS
330
2A
102
}
330
2A
100
AcDbVisualStyle
  2
Realistic
 70
     8
177
     2
291
     0
 71
     2
176
     1
 72
     2
176
     1
 73
     0
176
     1
 90
        0
176
     1
 40
-0.6
176
     1
 41
-30.0
176
     1
 62
     5
 63
     7
421
 16777215
176
     1
 74
     1
176
     1
 91
        0
176
     1
 64
     7
176
     1
 65
   257
176
     1
 75
     1
176
     1
175
     1
176
     1
 42
1.0
176
     1
 92
        8
176
     1
 66
     8
424
  7895160
176
     1
 43
1.0
176
     1
 76
     1
176
     1
 77
     6
176
     1
 78
     2
176
     1
 67
     7
176
     1
 79
     5
176
     1
170
     0
176
     1
171
     0
176
     1
290
     0
176
     1
 93
       13
176
     1
 44
0.0
176
     1
173
     0
176
     1
  0
VISUALSTYLE
  5
37
102
{ACAD_REACTORS
330
2A
102
}
330
2A
100
AcDbVisualStyle
  2
Thicken
 70
    13
177
     2
291
     1
 71
     2
176
     1
 72
     2
176
     1
 73
     0
176
     1
 90
        0
176
     1
 40
-0.6
176
     1
 41
-30.0
176
     1
 62
     5
 63
     7
421
 16777215
176
     1
 74
     1
176
     1
 91
        4
176
     1
 64
     7
176
     1
 65
   257
176
     1
 75
     1
176
     1
175
     1
176
     1
 42
1.0
176
     1
 92
       12
176
     1
 66
     7
176
     1
 43
1.0
176
     1
 76
     1
176
     1
 77
     6
176
     1
 78
     2
176
     1
 67
     7
176
     1
 79
     5
176
     1
170
     0
176
     1
171
     0
176
     1
290
     0
176
     1
 93
        1
176
     1
 44
0.0
176
     1
173
     0
176
     1
  0
ENDSEC
  0
EOF
