  0
SECTION
  2
HEADER
  9
$ACADVER
  1
AC1024
  9
$ACADMAINTVER
 70
     6
  9
$DWGCODEPAGE
  3
UNDEFINED
  9
$INSBASE
 10
0.0
 20
0.0
 30
0.0
  9
$EXTMIN
 10
1.000000000000000E+20
 20
1.000000000000000E+20
 30
1.000000000000000E+20
  9
$EXTMAX
 10
-1.000000000000000E+20
 20
-1.000000000000000E+20
 30
-1.000000000000000E+20
  9
$LIMMIN
 10
0.0
 20
0.0
  9
$LIMMAX
 10
12.0
 20
9.0
  9
$ORTHOMODE
 70
     0
  9
$REGENMODE
 70
     1
  9
$FILLMODE
 70
     1
  9
$QTEXTMODE
 70
     0
  9
$MIRRTEXT
 70
     1
  9
$LTSCALE
 40
1.0
  9
$ATTMODE
 70
     1
  9
$TEXTSIZE
 40
0.2
  9
$TRACEWID
 40
0.05
  9
$TEXTSTYLE
  7
Standard
  9
$CLAYER
  8
0
  9
$CELTYPE
  6
ByLayer
  9
$CECOLOR
 62
   256
  9
$CELTSCALE
 40
1.0
  9
$DISPSILH
 70
     0
  9
$DIMSCALE
 40
1.0
  9
$DIMASZ
 40
0.18
  9
$DIMEXO
 40
0.0625
  9
$DIMDLI
 40
0.38
  9
$DIMRND
 40
0.0
  9
$DIMDLE
 40
0.0
  9
$DIMEXE
 40
0.18
  9
$DIMTP
 40
0.0
  9
$DIMTM
 40
0.0
  9
$DIMTXT
 40
0.18
  9
$DIMCEN
 40
0.09
  9
$DIMTSZ
 40
0.0
  9
$DIMTOL
 70
     0
  9
$DIMLIM
 70
     0
  9
$DIMTIH
 70
     1
  9
$DIMTOH
 70
     1
  9
$DIMSE1
 70
     0
  9
$DIMSE2
 70
     0
  9
$DIMTAD
 70
     0
  9
$DIMZIN
 70
     0
  9
$DIMBLK
  1

  9
$DIMASO
 70
     1
  9
$DIMSHO
 70
     1
  9
$DIMPOST
  1

  9
$DIMAPOST
  1

  9
$DIMALT
 70
     0
  9
$DIMALTD
 70
     2
  9
$DIMALTF
 40
25.4
  9
$DIMLFAC
 40
1.0
  9
$DIMTOFL
 70
     0
  9
$DIMTVP
 40
0.0
  9
$DIMTIX
 70
     0
  9
$DIMSOXD
 70
     0
  9
$DIMSAH
 70
     0
  9
$DIMBLK1
  1

  9
$DIMBLK2
  1

  9
$DIMSTYLE
  2
Standard
  9
$DIMCLRD
 70
     0
  9
$DIMCLRE
 70
     0
  9
$DIMCLRT
 70
     0
  9
$DIMTFAC
 40
1.0
  9
$DIMGAP
 40
0.09
  9
$DIMJUST
 70
     0
  9
$DIMSD1
 70
     0
  9
$DIMSD2
 70
     0
  9
$DIMTOLJ
 70
     1
  9
$DIMTZIN
 70
     0
  9
$DIMALTZ
 70
     0
  9
$DIMALTTZ
 70
     0
  9
$DIMUPT
 70
     0
  9
$DIMDEC
 70
     4
  9
$DIMTDEC
 70
     4
  9
$DIMALTU
 70
     2
  9
$DIMALTTD
 70
     2
  9
$DIMTXSTY
  7
Standard
  9
$DIMAUNIT
 70
     0
  9
$DIMADEC
 70
     0
  9
$DIMALTRND
 40
0.0
  9
$DIMAZIN
 70
     0
  9
$DIMDSEP
 70
    46
  9
$DIMATFIT
 70
     3
  9
$DIMFRAC
 70
     0
  9
$DIMLDRBLK
  1

  9
$DIMLUNIT
 70
     2
  9
$DIMLWD
 70
    -2
  9
$DIMLWE
 70
    -2
  9
$DIMTMOVE
 70
     0
  9
$DIMFXL
 40
1.0
  9
$DIMFXLON
 70
     0
  9
$DIMJOGANG
 40
0.7853981633974483
  9
$DIMTFILL
 70
     0
  9
$DIMTFILLCLR
 70
     0
  9
$DIMARCSYM
 70
     0
  9
$DIMLTYPE
  6

  9
$DIMLTEX1
  6

  9
$DIMLTEX2
  6

  9
$DIMTXTDIRECTION
 70
     0
  9
$LUNITS
 70
     2
  9
$LUPREC
 70
     4
  9
$SKETCHINC
 40
0.1
  9
$FILLETRAD
 40
0.5
  9
$AUNITS
 70
     0
  9
$AUPREC
 70
     0
  9
$MENU
  1
.
  9
$ELEVATION
 40
0.0
  9
$PELEVATION
 40
0.0
  9
$THICKNESS
 40
0.0
  9
$LIMCHECK
 70
     0
  9
$CHAMFERA
 40
0.5
  9
$CHAMFERB
 40
0.5
  9
$CHAMFERC
 40
1.0
  9
$CHAMFERD
 40
0.0
  9
$SKPOLY
 70
     0
  9
$TDCREATE
 40
2457917.626412026
  9
$TDUCREATE
 40
2457917.251412037
  9
$TDUPDATE
 40
2457917.626412026
  9
$TDUUPDATE
 40
2457917.251412037
  9
$TDINDWG
 40
0.0000000116
  9
$TDUSRTIMER
 40
0.0000000116
  9
$USRTIMER
 70
     1
  9
$ANGBASE
 50
0.0
  9
$ANGDIR
 70
     0
  9
$PDMODE
 70
     0
  9
$PDSIZE
 40
0.0
  9
$PLINEWID
 40
0.0
  9
$SPLFRAME
 70
     0
  9
$SPLINETYPE
 70
     6
  9
$SPLINESEGS
 70
     8
  9
$HANDSEED
  5
1DF
  9
$SURFTAB1
 70
     6
  9
$SURFTAB2
 70
     6
  9
$SURFTYPE
 70
     6
  9
$SURFU
 70
     6
  9
$SURFV
 70
     6
  9
$UCSBASE
  2

  9
$UCSNAME
  2

  9
$UCSORG
 10
0.0
 20
0.0
 30
0.0
  9
$UCSXDIR
 10
1.0
 20
0.0
 30
0.0
  9
$UCSYDIR
 10
0.0
 20
1.0
 30
0.0
  9
$UCSORTHOREF
  2

  9
$UCSORTHOVIEW
 70
     0
  9
$UCSORGTOP
 10
0.0
 20
0.0
 30
0.0
  9
$UCSORGBOTTOM
 10
0.0
 20
0.0
 30
0.0
  9
$UCSORGLEFT
 10
0.0
 20
0.0
 30
0.0
  9
$UCSORGRIGHT
 10
0.0
 20
0.0
 30
0.0
  9
$UCSORGFRONT
 10
0.0
 20
0.0
 30
0.0
  9
$UCSORGBACK
 10
0.0
 20
0.0
 30
0.0
  9
$PUCSBASE
  2

  9
$PUCSNAME
  2

  9
$PUCSORG
 10
0.0
 20
0.0
 30
0.0
  9
$PUCSXDIR
 10
1.0
 20
0.0
 30
0.0
  9
$PUCSYDIR
 10
0.0
 20
1.0
 30
0.0
  9
$PUCSORTHOREF
  2

  9
$PUCSORTHOVIEW
 70
     0
  9
$PUCSORGTOP
 10
0.0
 20
0.0
 30
0.0
  9
$PUCSORGBOTTOM
 10
0.0
 20
0.0
 30
0.0
  9
$PUCSORGLEFT
 10
0.0
 20
0.0
 30
0.0
  9
$PUCSORGRIGHT
 10
0.0
 20
0.0
 30
0.0
  9
$PUCSORGFRONT
 10
0.0
 20
0.0
 30
0.0
  9
$PUCSORGBACK
 10
0.0
 20
0.0
 30
0.0
  9
$USERI1
 70
     0
  9
$USERI2
 70
     0
  9
$USERI3
 70
     0
  9
$USERI4
 70
     0
  9
$USERI5
 70
     0
  9
$USERR1
 40
0.0
  9
$USERR2
 40
0.0
  9
$USERR3
 40
0.0
  9
$USERR4
 40
0.0
  9
$USERR5
 40
0.0
  9
$WORLDVIEW
 70
     1
  9
$SHADEDGE
 70
     3
  9
$SHADEDIF
 70
    70
  9
$TILEMODE
 70
     1
  9
$MAXACTVP
 70
    64
  9
$PINSBASE
 10
0.0
 20
0.0
 30
0.0
  9
$PLIMCHECK
 70
     0
  9
$PEXTMIN
 10
1.000000000000000E+20
 20
1.000000000000000E+20
 30
1.000000000000000E+20
  9
$PEXTMAX
 10
-1.000000000000000E+20
 20
-1.000000000000000E+20
 30
-1.000000000000000E+20
  9
$PLIMMIN
 10
0.0
 20
0.0
  9
$PLIMMAX
 10
12.0
 20
9.0
  9
$UNITMODE
 70
     0
  9
$VISRETAIN
 70
     1
  9
$PLINEGEN
 70
     0
  9
$PSLTSCALE
 70
     1
  9
$TREEDEPTH
 70
  3020
  9
$CMLSTYLE
  2
Standard
  9
$CMLJUST
 70
     0
  9
$CMLSCALE
 40
1.0
  9
$PROXYGRAPHICS
 70
     1
  9
$MEASUREMENT
 70
     0
  9
$CELWEIGHT
370
    -1
  9
$ENDCAPS
280
     0
  9
$JOINSTYLE
280
     0
  9
$LWDISPLAY
290
     1
  9
$INSUNITS
 70
     1
  9
$HYPERLINKBASE
  1

  9
$STYLESHEET
  1

  9
$XEDIT
290
     1
  9
$CEPSNTYPE
380
     0
  9
$PSTYLEMODE
290
     1
  9
$FINGERPRINTGUID
  2
{FC109BFC-8443-B996-8832-2201A2859164}
  9
$VERSIONGUID
  2
{FAEB1C32-E019-11D5-929B-00C0DF256EC4}
  9
$EXTNAMES
290
     1
  9
$PSVPSCALE
 40
0.0
  9
$OLESTARTUP
290
     0
  9
$SORTENTS
280
   127
  9
$INDEXCTL
280
     0
  9
$HIDETEXT
280
     1
  9
$XCLIPFRAME
280
     2
  9
$HALOGAP
280
     0
  9
$OBSCOLOR
 70
   257
  9
$OBSLTYPE
280
     0
  9
$INTERSECTIONDISPLAY
280
     0
  9
$INTERSECTIONCOLOR
 70
   257
  9
$DIMASSOC
280
     2
  9
$PROJECTNAME
  1

  9
$CAMERADISPLAY
290
     0
  9
$LENSLENGTH
 40
50.0
  9
$CAMERAHEIGHT
 40
0.0
  9
$STEPSPERSEC
 40
2.0
  9
$STEPSIZE
 40
6.0
  9
$3DDWFPREC
 40
2.0
  9
$PSOLWIDTH
 40
0.25
  9
$PSOLHEIGHT
 40
4.0
  9
$LOFTANG1
 40
1.570796326794897
  9
$LOFTANG2
 40
1.570796326794897
  9
$LOFTMAG1
 40
0.0
  9
$LOFTMAG2
 40
0.0
  9
$LOFTPARAM
 70
     7
  9
$LOFTNORMALS
280
     1
  9
$LATITUDE
 40
37.795
  9
$LONGITUDE
 40
-122.394
  9
$NORTHDIRECTION
 40
0.0
  9
$TIMEZONE
 70
 -8000
  9
$LIGHTGLYPHDISPLAY
280
     1
  9
$TILEMODELIGHTSYNCH
280
     1
  9
$CMATERIAL
347
3C
  9
$SOLIDHIST
280
     1
  9
$SHOWHIST
280
     1
  9
$DWFFRAME
280
     2
  9
$DGNFRAME
280
     2
  9
$REALWORLDSCALE
290
     1
  9
$INTERFERECOLOR
 62
   256
  9
$CSHADOW
280
     0
  9
$SHADOWPLANELOCATION
 40
0.0
  0
ENDSEC
  0
SECTION
  2
CLASSES
  0
CLASS
  1
ACDBDICTIONARYWDFLT
  2
AcDbDictionaryWithDefault
  3
ObjectDBX Classes
 90
        0
 91
        4
280
     0
281
     0
  0
CLASS
  1
VISUALSTYLE
  2
AcDbVisualStyle
  3
ObjectDBX Classes
 90
     4095
 91
        4
280
     0
281
     0
  0
CLASS
  1
MATERIAL
  2
AcDbMaterial
  3
ObjectDBX Classes
 90
     1153
 91
        4
280
     0
281
     0
  0
CLASS
  1
SUN
  2
AcDbSun
  3
SCENEOE
 90
     1024
 91
        4
280
     0
281
     0
  0
ENDSEC
  0
SECTION
  2
TABLES
  0
TABLE
  2
VPORT
  5
8
330
0
100
AcDbSymbolTable
 70
     1
  0
VPORT
  5
29
330
8
100
AcDbSymbolTableRecord
100
AcDbViewportTableRecord
  2
*Active
 70
     0
 10
0.0
 20
0.0
 11
1.0
 21
1.0
 12
0.0
 22
0.0
 13
0.0
 23
0.0
 14
0.5
 24
0.5
 15
0.5
 25
0.5
 16
0.0
 26
0.0
 36
1.0
 17
91.00082462281999
 27
-128.4993055234307
 37
0.0
 40
256.9986110468615
 41
0.7081814508812795
 42
50.0
 43
0.0
 44
0.0
 50
0.0
 51
0.0
 71
     0
 72
   100
 73
     1
 74
     3
 75
     0
 76
     0
 77
     0
 78
     0
281
     0
 65
     1
110
0.0
120
0.0
130
0.0
111
1.0
121
0.0
131
0.0
112
0.0
122
1.0
132
0.0
 79
     0
146
0.0
 60
     3
 61
     5
292
     1
282
     1
141
0.0
142
0.0
 63
   250
361
3F
  0
ENDTAB
  0
TABLE
  2
LTYPE
  5
5
330
0
100
AcDbSymbolTable
 70
    14
  0
LTYPE
  5
14
330
5
100
AcDbSymbolTableRecord
100
AcDbLinetypeTableRecord
  2
ByBlock
 70
     0
  3

 72
    65
 73
     0
 40
0.0
  0
LTYPE
  5
15
330
5
100
AcDbSymbolTableRecord
100
AcDbLinetypeTableRecord
  2
ByLayer
 70
     0
  3

 72
    65
 73
     0
 40
0.0
  0
LTYPE
  5
16
330
5
100
AcDbSymbolTableRecord
100
AcDbLinetypeTableRecord
  2
Continuous
 70
     0
  3
Solid line
 72
    65
 73
     0
 40
0.0
  0
LTYPE
  5
B2
330
5
100
AcDbSymbolTableRecord
100
AcDbLinetypeTableRecord
  2
AI-Linetype-1
 70
     0
  3
Adobe Illustrator Linetype No. 1
 72
    65
 73
     2
 40
3.500014142644928
 49
2.000003083046956
 74
     0
 49
-1.500011059597972
 74
     0
  0
LTYPE
  5
B7
330
5
100
AcDbSymbolTableRecord
100
AcDbLinetypeTableRecord
  2
AI-Linetype-2
 70
     0
  3
Adobe Illustrator Linetype No. 2
 72
    65
 73
     2
 40
3.500014142644928
 49
2.000003083046956
 74
     0
 49
-1.500011059597972
 74
     0
  0
LTYPE
  5
BC
330
5
100
AcDbSymbolTableRecord
100
AcDbLinetypeTableRecord
  2
AI-Linetype-3
 70
     0
  3
Adobe Illustrator Linetype No. 3
 72
    65
 73
     2
 40
3.500014142644928
 49
2.000003083046956
 74
     0
 49
-1.500011059597972
 74
     0
  0
LTYPE
  5
C1
330
5
100
AcDbSymbolTableRecord
100
AcDbLinetypeTableRecord
  2
AI-Linetype-4
 70
     0
  3
Adobe Illustrator Linetype No. 4
 72
    65
 73
     2
 40
3.500014142644928
 49
2.000003083046956
 74
     0
 49
-1.500011059597972
 74
     0
  0
LTYPE
  5
C6
330
5
100
AcDbSymbolTableRecord
100
AcDbLinetypeTableRecord
  2
AI-Linetype-5
 70
     0
  3
Adobe Illustrator Linetype No. 5
 72
    65
 73
     2
 40
3.500014142644928
 49
2.000003083046956
 74
     0
 49
-1.500011059597972
 74
     0
  0
LTYPE
  5
CB
330
5
100
AcDbSymbolTableRecord
100
AcDbLinetypeTableRecord
  2
AI-Linetype-6
 70
     0
  3
Adobe Illustrator Linetype No. 6
 72
    65
 73
     2
 40
3.500014142644928
 49
2.000003083046956
 74
     0
 49
-1.500011059597972
 74
     0
  0
LTYPE
  5
D0
330
5
100
AcDbSymbolTableRecord
100
AcDbLinetypeTableRecord
  2
AI-Linetype-7
 70
     0
  3
Adobe Illustrator Linetype No. 7
 72
    65
 73
     2
 40
3.500014142644928
 49
2.000003083046956
 74
     0
 49
-1.500011059597972
 74
     0
  0
LTYPE
  5
D5
330
5
100
AcDbSymbolTableRecord
100
AcDbLinetypeTableRecord
  2
AI-Linetype-8
 70
     0
  3
Adobe Illustrator Linetype No. 8
 72
    65
 73
     2
 40
3.500014142644928
 49
2.000003083046956
 74
     0
 49
-1.500011059597972
 74
     0
  0
LTYPE
  5
DA
330
5
100
AcDbSymbolTableRecord
100
AcDbLinetypeTableRecord
  2
AI-Linetype-9
 70
     0
  3
Adobe Illustrator Linetype No. 9
 72
    65
 73
     2
 40
3.500014142644928
 49
2.000003083046956
 74
     0
 49
-1.500011059597972
 74
     0
  0
LTYPE
  5
E5
330
5
100
AcDbSymbolTableRecord
100
AcDbLinetypeTableRecord
  2
AI-Linetype-10
 70
     0
  3
Adobe Illustrator Linetype No. 10
 72
    65
 73
     2
 40
3.500014142644928
 49
2.000003083046956
 74
     0
 49
-1.500011059597972
 74
     0
  0
LTYPE
  5
E7
330
5
100
AcDbSymbolTableRecord
100
AcDbLinetypeTableRecord
  2
AI-Linetype-11
 70
     0
  3
Adobe Illustrator Linetype No. 11
 72
    65
 73
     2
 40
3.500014142644928
 49
2.000003083046956
 74
     0
 49
-1.500011059597972
 74
     0
  0
LTYPE
  5
E9
330
5
100
AcDbSymbolTableRecord
100
AcDbLinetypeTableRecord
  2
AI-Linetype-12
 70
     0
  3
Adobe Illustrator Linetype No. 12
 72
    65
 73
     2
 40
3.500014142644928
 49
2.000003083046956
 74
     0
 49
-1.500011059597972
 74
     0
  0
LTYPE
  5
EB
330
5
100
AcDbSymbolTableRecord
100
AcDbLinetypeTableRecord
  2
AI-Linetype-13
 70
     0
  3
Adobe Illustrator Linetype No. 13
 72
    65
 73
     2
 40
3.500014142644928
 49
2.000003083046956
 74
     0
 49
-1.500011059597972
 74
     0
  0
ENDTAB
  0
TABLE
  2
LAYER
  5
2
330
0
100
AcDbSymbolTable
 70
     2
  0
LAYER
  5
10
330
2
100
AcDbSymbolTableRecord
100
AcDbLayerTableRecord
  2
0
 70
     0
 62
     7
  6
Continuous
370
    -3
390
F
347
3E
  0
LAYER
  5
40
330
2
100
AcDbSymbolTableRecord
100
AcDbLayerTableRecord
  2
_U+30EC_U+30A4_U+30E4_U+30FC 1
 70
     0
 62
     7
  6
Continuous
370
    -3
390
F
347
3E
  0
ENDTAB
  0
TABLE
  2
STYLE
  5
3
330
0
100
AcDbSymbolTable
 70
     1
  0
STYLE
  5
11
330
3
100
AcDbSymbolTableRecord
100
AcDbTextStyleTableRecord
  2
Standard
 70
     0
 40
0.0
 41
1.0
 50
0.0
 71
     0
 42
0.2
  3
txt
  4

  0
ENDTAB
  0
TABLE
  2
VIEW
  5
6
330
0
100
AcDbSymbolTable
 70
     0
  0
ENDTAB
  0
TABLE
  2
UCS
  5
7
330
0
100
AcDbSymbolTable
 70
     0
  0
ENDTAB
  0
TABLE
  2
APPID
  5
9
330
0
100
AcDbSymbolTable
 70
     1
  0
APPID
  5
12
330
9
100
AcDbSymbolTableRecord
100
AcDbRegAppTableRecord
  2
ACAD
 70
     0
  0
ENDTAB
  0
TABLE
  2
DIMSTYLE
  5
A
330
0
100
AcDbSymbolTable
 70
     1
100
AcDbDimStyleTable
  0
DIMSTYLE
105
27
330
A
100
AcDbSymbolTableRecord
100
AcDbDimStyleTableRecord
  2
Standard
 70
     0
178
     0
340
11
  0
ENDTAB
  0
TABLE
  2
BLOCK_RECORD
  5
1
330
0
100
AcDbSymbolTable
 70
    12
  0
BLOCK_RECORD
  5
1F
330
1
100
AcDbSymbolTableRecord
100
AcDbBlockTableRecord
  2
*Model_Space
340
22
 70
     0
280
     1
281
     0
  0
BLOCK_RECORD
  5
1B
330
1
100
AcDbSymbolTableRecord
100
AcDbBlockTableRecord
  2
*Paper_Space
340
1E
 70
     0
280
     1
281
     0
  0
BLOCK_RECORD
  5
23
330
1
100
AcDbSymbolTableRecord
100
AcDbBlockTableRecord
  2
*Paper_Space0
340
26
 70
     0
280
     1
281
     0
  0
BLOCK_RECORD
  5
41
330
1
100
AcDbSymbolTableRecord
100
AcDbBlockTableRecord
  2
block 2
340
0
102
{BLKREFS
331
42
102
}
 70
     0
280
     1
281
     0
  0
BLOCK_RECORD
  5
107
330
1
100
AcDbSymbolTableRecord
100
AcDbBlockTableRecord
  2
block 3
340
0
102
{BLKREFS
331
108
102
}
 70
     0
280
     1
281
     0
  0
BLOCK_RECORD
  5
137
330
1
100
AcDbSymbolTableRecord
100
AcDbBlockTableRecord
  2
block 4
340
0
102
{BLKREFS
331
138
102
}
 70
     0
280
     1
281
     0
  0
BLOCK_RECORD
  5
149
330
1
100
AcDbSymbolTableRecord
100
AcDbBlockTableRecord
  2
block 5
340
0
102
{BLKREFS
331
14A
102
}
 70
     0
280
     1
281
     0
  0
BLOCK_RECORD
  5
16C
330
1
100
AcDbSymbolTableRecord
100
AcDbBlockTableRecord
  2
block 6
340
0
102
{BLKREFS
331
16D
102
}
 70
     0
280
     1
281
     0
  0
BLOCK_RECORD
  5
180
330
1
100
AcDbSymbolTableRecord
100
AcDbBlockTableRecord
  2
block 7
340
0
102
{BLKREFS
331
181
102
}
 70
     0
280
     1
281
     0
  0
BLOCK_RECORD
  5
194
330
1
100
AcDbSymbolTableRecord
100
AcDbBlockTableRecord
  2
block 8
340
0
102
{BLKREFS
331
195
102
}
 70
     0
280
     1
281
     0
  0
BLOCK_RECORD
  5
19E
330
1
100
AcDbSymbolTableRecord
100
AcDbBlockTableRecord
  2
block 9
340
0
102
{BLKREFS
331
19F
102
}
 70
     0
280
     1
281
     0
  0
BLOCK_RECORD
  5
1B2
330
1
100
AcDbSymbolTableRecord
100
AcDbBlockTableRecord
  2
block 10
340
0
102
{BLKREFS
331
1B3
102
}
 70
     0
280
     1
281
     0
  0
BLOCK_RECORD
  5
1C6
330
1
100
AcDbSymbolTableRecord
100
AcDbBlockTableRecord
  2
block 11
340
0
102
{BLKREFS
331
1C7
102
}
 70
     0
280
     1
281
     0
  0
BLOCK_RECORD
  5
1D4
330
1
100
AcDbSymbolTableRecord
100
AcDbBlockTableRecord
  2
block 12
340
0
102
{BLKREFS
331
1D5
102
}
 70
     0
280
     1
281
     0
  0
ENDTAB
  0
ENDSEC
  0
SECTION
  2
BLOCKS
  0
BLOCK
  5
20
330
1F
100
AcDbEntity
  8
0
100
AcDbBlockBegin
  2
*Model_Space
 70
     0
 10
0.0
 20
0.0
 30
0.0
  3
*Model_Space
  1

  0
ENDBLK
  5
21
330
1F
100
AcDbEntity
  8
0
100
AcDbBlockEnd
  0
BLOCK
  5
1C
330
1B
100
AcDbEntity
 67
     1
  8
0
100
AcDbBlockBegin
  2
*Paper_Space
 70
     0
 10
0.0
 20
0.0
 30
0.0
  3
*Paper_Space
  1

  0
ENDBLK
  5
1D
330
1B
100
AcDbEntity
 67
     1
  8
0
100
AcDbBlockEnd
  0
BLOCK
  5
24
330
23
100
AcDbEntity
  8
0
100
AcDbBlockBegin
  2
*Paper_Space0
 70
     0
 10
0.0
 20
0.0
 30
0.0
  3
*Paper_Space0
  1

  0
ENDBLK
  5
25
330
23
100
AcDbEntity
  8
0
100
AcDbBlockEnd
  0
BLOCK
  5
43
330
41
100
AcDbEntity
  8
0
100
AcDbBlockBegin
  2
block 2
 70
     0
 10
0.0
 20
0.0
 30
0.0
  3
block 2
  1

  0
POLYLINE
  5
45
330
41
100
AcDbEntity
  8
_U+30EC_U+30A4_U+30E4_U+30FC 1
370
     0
100
AcDb2dPolyline
 66
     1
 10
0.0
 20
0.0
 30
0.0
  0
VERTEX
  5
46
330
45
100
AcDbEntity
  8
_U+30EC_U+30A4_U+30E4_U+30FC 1
370
     0
100
AcDbVertex
100
AcDb2dVertex
 10
50.36798501344968
 20
-122.4605699021106
 30
0.0
  0
VERTEX
  5
47
330
45
100
AcDbEntity
  8
_U+30EC_U+30A4_U+30E4_U+30FC 1
370
     0
100
AcDbVertex
100
AcDb2dVertex
 10
50.36798501344968
 20
-122.8610622522709
 30
0.0
  0
VERTEX
  5
48
330
45
100
AcDbEntity
  8
_U+30EC_U+30A4_U+30E4_U+30FC 1
370
     0
100
AcDbVertex
100
AcDb2dVertex
 10
49.38630505492773
 20
-122.8610622522709
 30
0.0
  0
VERTEX
  5
49
330
45
100
AcDbEntity
  8
_U+30EC_U+30A4_U+30E4_U+30FC 1
370
     0
100
AcDbVertex
100
AcDb2dVertex
 10
49.38630505492773
 20
-123.7326714100391
 30
0.0
  0
VERTEX
  5
4A
330
45
100
AcDbEntity
  8
_U+30EC_U+30A4_U+30E4_U+30FC 1
370
     0
100
AcDbVertex
100
AcDb2dVertex
 10
48.87867023517617
 20
-123.7326714100391
 30
0.0
  0
VERTEX
  5
4B
330
45
100
AcDbEntity
  8
_U+30EC_U+30A4_U+30E4_U+30FC 1
370
     0
100
AcDbVertex
100
AcDb2dVertex
 10
48.87867023517617
 20
-121.5098958029559
 30
0.0
  0
VERTEX
  5
4C
330
45
100
AcDbEntity
  8
_U+30EC_U+30A4_U+30E4_U+30FC 1
370
     0
100
AcDbVertex
100
AcDb2dVertex
 10
50.52594264144838
 20
-121.5098958029559
 30
0.0
  0
VERTEX
  5
4D
330
45
100
AcDbEntity
  8
_U+30EC_U+30A4_U+30E4_U+30FC 1
370
     0
100
AcDbVertex
100
AcDb2dVertex
 10
50.52594264144838
 20
-121.9246852993799
 30
0.0
  0
VERTEX
  5
4E
330
45
100
AcDbEntity
  8
_U+30EC_U+30A4_U+30E4_U+30FC 1
370
     0
100
AcDbVertex
100
AcDb2dVertex
 10
49.38630505492773
 20
-121.9246852993799
 30
0.0
  0
VERTEX
  5
4F
330
45
100
AcDbEntity
  8
_U+30EC_U+30A4_U+30E4_U+30FC 1
370
     0
100
AcDbVertex
100
AcDb2dVertex
 10
49.38630505492773
 20
-122.4605699021106
 30
0.0
  0
VERTEX
  5
50
330
45
100
AcDbEntity
  8
_U+30EC_U+30A4_U+30E4_U+30FC 1
370
     0
100
AcDbVertex
100
AcDb2dVertex
 10
50.36798501344968
 20
-122.4605699021106
 30
0.0
  0
SEQEND
  5
51
330
45
100
AcDbEntity
  8
_U+30EC_U+30A4_U+30E4_U+30FC 1
370
     0
  0
HATCH
  5
52
330
41
100
AcDbEntity
  8
_U+30EC_U+30A4_U+30E4_U+30FC 1
 62
   179
420
  2234388
100
AcDbHatch
 10
0.0
 20
0.0
 30
0.0
210
0.0
220
0.0
230
1.0
  2
SOLID
 70
     1
 71
     0
 91
        1
 92
        1
 93
       10
 72
     1
 10
50.36798501344968
 20
-122.4605699021106
 11
50.36798501344968
 21
-122.8610622522709
 72
     1
 10
50.36798501344968
 20
-122.8610622522709
 11
49.38630505492773
 21
-122.8610622522709
 72
     1
 10
49.38630505492773
 20
-122.8610622522709
 11
49.38630505492773
 21
-123.7326714100391
 72
     1
 10
49.38630505492773
 20
-123.7326714100391
 11
48.87867023517617
 21
-123.7326714100391
 72
     1
 10
48.87867023517617
 20
-123.7326714100391
 11
48.87867023517617
 21
-121.5098958029559
 72
     1
 10
48.87867023517617
 20
-121.5098958029559
 11
50.52594264144838
 21
-121.5098958029559
 72
     1
 10
50.52594264144838
 20
-121.5098958029559
 11
50.52594264144838
 21
-121.9246852993799
 72
     1
 10
50.52594264144838
 20
-121.9246852993799
 11
49.38630505492773
 21
-121.9246852993799
 72
     1
 10
49.38630505492773
 20
-121.9246852993799
 11
49.38630505492773
 21
-122.4605699021106
 72
     1
 10
49.38630505492773
 20
-122.4605699021106
 11
50.36798501344968
 21
-122.4605699021106
 97
        0
 75
     2
 76
     1
 98
        0
  0
SPLINE
  5
53
330
41
100
AcDbEntity
  8
_U+30EC_U+30A4_U+30E4_U+30FC 1
370
     0
100
AcDbSpline
210
0.0
220
0.0
230
1.0
 70
    11
 71
     3
 72
   119
 73
   115
 74
     0
 42
0.0000000001
 43
0.0000000001
 12
1.0
 22
0.0
 32
0.0
 13
1.0
 23
0.0
 33
0.0
 40
0.0
 40
0.0
 40
0.0
 40
0.0
 40
1.0
 40
1.0
 40
1.0
 40
2.0
 40
2.0
 40
2.0
 40
3.0
 40
3.0
 40
3.0
 40
4.0
 40
4.0
 40
4.0
 40
5.0
 40
5.0
 40
5.0
 40
6.0
 40
6.0
 40
6.0
 40
7.0
 40
7.0
 40
7.0
 40
8.0
 40
8.0
 40
8.0
 40
9.0
 40
9.0
 40
9.0
 40
10.0
 40
10.0
 40
10.0
 40
11.0
 40
11.0
 40
11.0
 40
12.0
 40
12.0
 40
12.0
 40
13.0
 40
13.0
 40
13.0
 40
14.0
 40
14.0
 40
14.0
 40
15.0
 40
15.0
 40
15.0
 40
16.0
 40
16.0
 40
16.0
 40
17.0
 40
17.0
 40
17.0
 40
18.0
 40
18.0
 40
18.0
 40
19.0
 40
19.0
 40
19.0
 40
20.0
 40
20.0
 40
20.0
 40
21.0
 40
21.0
 40
21.0
 40
22.0
 40
22.0
 40
22.0
 40
23.0
 40
23.0
 40
23.0
 40
24.0
 40
24.0
 40
24.0
 40
25.0
 40
25.0
 40
25.0
 40
26.0
 40
26.0
 40
26.0
 40
27.0
 40
27.0
 40
27.0
 40
28.0
 40
28.0
 40
28.0
 40
29.0
 40
29.0
 40
29.0
 40
30.0
 40
30.0
 40
30.0
 40
31.0
 40
31.0
 40
31.0
 40
32.0
 40
32.0
 40
32.0
 40
33.0
 40
33.0
 40
33.0
 40
34.0
 40
34.0
 40
34.0
 40
35.0
 40
35.0
 40
35.0
 40
36.0
 40
36.0
 40
36.0
 40
37.0
 40
37.0
 40
37.0
 40
38.0
 40
38.0
 40
38.0
 40
38.0
 10
51.92878552304211
 20
-121.9810126105638
 30
0.0
 10
51.92878552304211
 20
-121.9810126105638
 30
0.0
 10
52.14599879338711
 20
-121.9810126105638
 30
0.0
 10
52.14599879338711
 20
-121.9810126105638
 30
0.0
 10
52.14599879338711
 20
-121.9810126105638
 30
0.0
 10
52.14599879338711
 20
-122.3251776495402
 30
0.0
 10
52.14599879338711
 20
-122.3251776495402
 30
0.0
 10
52.14599879338711
 20
-122.3251776495402
 30
0.0
 10
51.92878552304211
 20
-122.3251776495402
 30
0.0
 10
51.92878552304211
 20
-122.3251776495402
 30
0.0
 10
51.92878552304211
 20
-122.3251776495402
 30
0.0
 10
51.92878552304211
 20
-122.8131754250259
 30
0.0
 10
51.92878552304211
 20
-122.8131754250259
 30
0.0
 10
51.92878552304211
 20
-122.8131754250259
 30
0.0
 10
52.25606959414085
 20
-122.8243719853529
 30
0.0
 10
52.25606959414085
 20
-122.8243719853529
 30
0.0
 10
52.27570663840677
 20
-122.8243719853529
 30
0.0
 10
52.30395642138582
 20
-122.8300563929036
 30
0.0
 10
52.30395642138582
 20
-122.8583061758826
 30
0.0
 10
52.30395642138582
 20
-122.8779432201486
 30
0.0
 10
52.29827201383516
 20
-122.8836276276992
 30
0.0
 10
52.23901637148886
 20
-122.9230739710054
 30
0.0
 10
52.23901637148886
 20
-122.9230739710054
 30
0.0
 10
52.23901637148886
 20
-123.0190198802696
 30
0.0
 10
52.23901637148886
 20
-123.0190198802696
 30
0.0
 10
52.23901637148886
 20
-123.0190198802696
 30
0.0
 10
52.96972112391035
 20
-123.0190198802696
 30
0.0
 10
52.96972112391035
 20
-123.0190198802696
 30
0.0
 10
52.96972112391035
 20
-123.0190198802696
 30
0.0
 10
52.96972112391035
 20
-123.3602565880836
 30
0.0
 10
52.96972112391035
 20
-123.3602565880836
 30
0.0
 10
52.96972112391035
 20
-123.3602565880836
 30
0.0
 10
52.23901637148886
 20
-123.3602565880836
 30
0.0
 10
52.23901637148886
 20
-123.3602565880836
 30
0.0
 10
52.23901637148886
 20
-123.3602565880836
 30
0.0
 10
52.23901637148886
 20
-123.5295830311836
 30
0.0
 10
52.23901637148886
 20
-123.5295830311836
 30
0.0
 10
52.23901637148886
 20
-123.5295830311836
 30
0.0
 10
53.29976127139729
 20
-123.5295830311836
 30
0.0
 10
53.29976127139729
 20
-123.5295830311836
 30
0.0
 10
53.29976127139729
 20
-123.5295830311836
 30
0.0
 10
53.29976127139729
 20
-123.8849446304871
 30
0.0
 10
53.29976127139729
 20
-123.8849446304871
 30
0.0
 10
53.29976127139729
 20
-123.8849446304871
 30
0.0
 10
50.76675481586734
 20
-123.8849446304871
 30
0.0
 10
50.76675481586734
 20
-123.8849446304871
 30
0.0
 10
50.76675481586734
 20
-123.8849446304871
 30
0.0
 10
50.76675481586734
 20
-123.5295830311836
 30
0.0
 10
50.76675481586734
 20
-123.5295830311836
 30
0.0
 10
50.76675481586734
 20
-123.5295830311836
 30
0.0
 10
51.83576794494036
 20
-123.5295830311836
 30
0.0
 10
51.83576794494036
 20
-123.5295830311836
 30
0.0
 10
51.83576794494036
 20
-123.5295830311836
 30
0.0
 10
51.83576794494036
 20
-123.3602565880836
 30
0.0
 10
51.83576794494036
 20
-123.3602565880836
 30
0.0
 10
51.83576794494036
 20
-123.3602565880836
 30
0.0
 10
51.09111055580362
 20
-123.3602565880836
 30
0.0
 10
51.09111055580362
 20
-123.3602565880836
 30
0.0
 10
51.09111055580362
 20
-123.3602565880836
 30
0.0
 10
51.09111055580362
 20
-123.0190198802696
 30
0.0
 10
51.09111055580362
 20
-123.0190198802696
 30
0.0
 10
51.09111055580362
 20
-123.0190198802696
 30
0.0
 10
51.83576794494036
 20
-123.0190198802696
 30
0.0
 10
51.83576794494036
 20
-123.0190198802696
 30
0.0
 10
51.83576794494036
 20
-123.0190198802696
 30
0.0
 10
51.83576794494036
 20
-122.8836276276992
 30
0.0
 10
51.83576794494036
 20
-122.8836276276992
 30
0.0
 10
51.83576794494036
 20
-122.8836276276992
 30
0.0
 10
51.53966198798314
 20
-122.8836276276992
 30
0.0
 10
51.53966198798314
 20
-122.8836276276992
 30
0.0
 10
51.53966198798314
 20
-122.8836276276992
 30
0.0
 10
51.53966198798314
 20
-122.3251776495402
 30
0.0
 10
51.53966198798314
 20
-122.3251776495402
 30
0.0
 10
51.53966198798314
 20
-122.3251776495402
 30
0.0
 10
51.38153210521018
 20
-122.3251776495402
 30
0.0
 10
51.38153210521018
 20
-122.3251776495402
 30
0.0
 10
51.31400823369928
 20
-122.7031046242721
 30
0.0
 10
51.15036619814991
 20
-122.8977525191888
 30
0.0
 10
51.08267007186475
 20
-122.9823296133517
 30
0.0
 10
50.96140271078396
 20
-122.8977525191888
 30
0.0
 10
50.8399630949289
 20
-122.8414252080049
 30
0.0
 10
50.70457084235859
 20
-122.7962944571482
 30
0.0
 10
50.90214706843766
 20
-122.5902777471302
 30
0.0
 10
50.95847437962149
 20
-122.4774508699883
 30
0.0
 10
50.99240857015121
 20
-122.3251776495402
 30
0.0
 10
50.99240857015121
 20
-122.3251776495402
 30
0.0
 10
50.772439223418
 20
-122.3251776495402
 30
0.0
 10
50.772439223418
 20
-122.3251776495402
 30
0.0
 10
50.772439223418
 20
-122.3251776495402
 30
0.0
 10
50.772439223418
 20
-121.9810126105638
 30
0.0
 10
50.772439223418
 20
-121.9810126105638
 30
0.0
 10
50.772439223418
 20
-121.9810126105638
 30
0.0
 10
51.02341442951845
 20
-121.9810126105638
 30
0.0
 10
51.02341442951845
 20
-121.9810126105638
 30
0.0
 10
51.02341442951845
 20
-121.9810126105638
 30
0.0
 10
51.02341442951845
 20
-121.7892930468096
 30
0.0
 10
51.02341442951845
 20
-121.7892930468096
 30
0.0
 10
51.02341442951845
 20
-121.7892930468096
 30
0.0
 10
50.84564750247957
 20
-121.7892930468096
 30
0.0
 10
50.84564750247957
 20
-121.7892930468096
 30
0.0
 10
50.84564750247957
 20
-121.7892930468096
 30
0.0
 10
50.84564750247957
 20
-121.453568491772
 30
0.0
 10
50.84564750247957
 20
-121.453568491772
 30
0.0
 10
50.84564750247957
 20
-121.453568491772
 30
0.0
 10
52.08123099826442
 20
-121.453568491772
 30
0.0
 10
52.08123099826442
 20
-121.453568491772
 30
0.0
 10
52.08123099826442
 20
-121.453568491772
 30
0.0
 10
52.08123099826442
 20
-121.7892930468096
 30
0.0
 10
52.08123099826442
 20
-121.7892930468096
 30
0.0
 10
52.08123099826442
 20
-121.7892930468096
 30
0.0
 10
51.92878552304211
 20
-121.7892930468096
 30
0.0
 10
51.92878552304211
 20
-121.7892930468096
 30
0.0
 10
51.92878552304211
 20
-121.7892930468096
 30
0.0
 10
51.92878552304211
 20
-121.9810126105638
 30
0.0
 10
51.92878552304211
 20
-121.9810126105638
 30
0.0
  0
POLYLINE
  5
54
330
41
100
AcDbEntity
  8
_U+30EC_U+30A4_U+30E4_U+30FC 1
370
     0
100
AcDb2dPolyline
 66
     1
 10
0.0
 20
0.0
 30
0.0
  0
VERTEX
  5
55
330
54
100
AcDbEntity
  8
_U+30EC_U+30A4_U+30E4_U+30FC 1
370
     0
100
AcDbVertex
100
AcDb2dVertex
 10
51.53966198798314
 20
-121.7892930468096
 30
0.0
  0
VERTEX
  5
56
330
54
100
AcDbEntity
  8
_U+30EC_U+30A4_U+30E4_U+30FC 1
370
     0
100
AcDbVertex
100
AcDb2dVertex
 10
51.39858532786216
 20
-121.7892930468096
 30
0.0
  0
VERTEX
  5
57
330
54
100
AcDbEntity
  8
_U+30EC_U+30A4_U+30E4_U+30FC 1
370
     0
100
AcDbVertex
100
AcDb2dVertex
 10
51.39858532786216
 20
-121.9810126105638
 30
0.0
  0
VERTEX
  5
58
330
54
100
AcDbEntity
  8
_U+30EC_U+30A4_U+30E4_U+30FC 1
370
     0
100
AcDbVertex
100
AcDb2dVertex
 10
51.53966198798314
 20
-121.9810126105638
 30
0.0
  0
VERTEX
  5
59
330
54
100
AcDbEntity
  8
_U+30EC_U+30A4_U+30E4_U+30FC 1
370
     0
100
AcDbVertex
100
AcDb2dVertex
 10
51.53966198798314
 20
-121.7892930468096
 30
0.0
  0
SEQEND
  5
5A
330
54
100
AcDbEntity
  8
_U+30EC_U+30A4_U+30E4_U+30FC 1
370
     0
  0
SPLINE
  5
5B
330
41
100
AcDbEntity
  8
_U+30EC_U+30A4_U+30E4_U+30FC 1
370
     0
100
AcDbSpline
210
0.0
220
0.0
230
1.0
 70
    11
 71
     3
 72
    50
 73
    46
 74
     0
 42
0.0000000001
 43
0.0000000001
 12
1.0
 22
0.0
 32
0.0
 13
1.0
 23
0.0
 33
0.0
 40
0.0
 40
0.0
 40
0.0
 40
0.0
 40
1.0
 40
1.0
 40
1.0
 40
2.0
 40
2.0
 40
2.0
 40
3.0
 40
3.0
 40
3.0
 40
4.0
 40
4.0
 40
4.0
 40
5.0
 40
5.0
 40
5.0
 40
6.0
 40
6.0
 40
6.0
 40
7.0
 40
7.0
 40
7.0
 40
8.0
 40
8.0
 40
8.0
 40
9.0
 40
9.0
 40
9.0
 40
10.0
 40
10.0
 40
10.0
 40
11.0
 40
11.0
 40
11.0
 40
12.0
 40
12.0
 40
12.0
 40
13.0
 40
13.0
 40
13.0
 40
14.0
 40
14.0
 40
14.0
 40
15.0
 40
15.0
 40
15.0
 40
15.0
 10
52.83984102411643
 20
-121.3745035503855
 30
0.0
 10
52.83984102411643
 20
-121.3745035503855
 30
0.0
 10
53.25170218937805
 20
-121.3999972569764
 30
0.0
 10
53.25170218937805
 20
-121.3999972569764
 30
0.0
 10
53.27151148841823
 20
-121.3999972569764
 30
0.0
 10
53.28839245629596
 20
-121.4056816645271
 30
0.0
 10
53.28839245629596
 20
-121.425318708793
 30
0.0
 10
53.28839245629596
 20
-121.442371931445
 30
0.0
 10
53.2799519723571
 20
-121.453568491772
 30
0.0
 10
53.23757729788853
 20
-121.4845743511393
 30
0.0
 10
53.23757729788853
 20
-121.4845743511393
 30
0.0
 10
53.23757729788853
 20
-122.683295325232
 30
0.0
 10
53.23757729788853
 20
-122.683295325232
 30
0.0
 10
53.23757729788853
 20
-122.8779432201486
 30
0.0
 10
53.20381536213308
 20
-122.9795735369634
 30
0.0
 10
52.7242580705863
 20
-122.9768174605752
 30
0.0
 10
52.70444877154611
 20
-122.8243719853529
 30
0.0
 10
52.6622463518518
 20
-122.6805392488438
 30
0.0
 10
52.60299070950551
 20
-122.5761528556407
 30
0.0
 10
52.60299070950551
 20
-122.5761528556407
 30
0.0
 10
52.27295056201857
 20
-122.5761528556407
 30
0.0
 10
52.27295056201857
 20
-122.5761528556407
 30
0.0
 10
52.27295056201857
 20
-122.5761528556407
 30
0.0
 10
52.27295056201857
 20
-121.5636392925258
 30
0.0
 10
52.27295056201857
 20
-121.5636392925258
 30
0.0
 10
52.27295056201857
 20
-121.5636392925258
 30
0.0
 10
52.67068683579066
 20
-121.5862046679541
 30
0.0
 10
52.67068683579066
 20
-121.5862046679541
 30
0.0
 10
52.69600828760725
 20
-121.5889607443423
 30
0.0
 10
52.7215019941981
 20
-121.5889607443423
 30
0.0
 10
52.7215019941981
 20
-121.6142821961589
 30
0.0
 10
52.7215019941981
 20
-121.6482163866886
 30
0.0
 10
52.68756780366839
 20
-121.6623412781782
 30
0.0
 10
52.65656194430114
 20
-121.6735378385052
 30
0.0
 10
52.65656194430114
 20
-121.6735378385052
 30
0.0
 10
52.65656194430114
 20
-122.5565158113748
 30
0.0
 10
52.65656194430114
 20
-122.5565158113748
 30
0.0
 10
52.66500242824
 20
-122.5565158113748
 30
0.0
 10
52.74113903846402
 20
-122.5620279641512
 30
0.0
 10
52.76094833750421
 20
-122.5620279641512
 30
0.0
 10
52.83984102411643
 20
-122.5620279641512
 30
0.0
 10
52.83984102411643
 20
-122.5282660283957
 30
0.0
 10
52.83984102411643
 20
-122.4295640427433
 30
0.0
 10
52.83984102411643
 20
-122.4295640427433
 30
0.0
 10
52.83984102411643
 20
-121.3745035503855
 30
0.0
 10
52.83984102411643
 20
-121.3745035503855
 30
0.0
  0
HATCH
  5
5C
330
41
100
AcDbEntity
  8
_U+30EC_U+30A4_U+30E4_U+30FC 1
 62
   179
420
  2234388
100
AcDbHatch
 10
0.0
 20
0.0
 30
0.0
210
0.0
220
0.0
230
1.0
  2
SOLID
 70
     1
 71
     0
 91
        3
 92
        1
 93
        1
 72
     4
 94
        3
 73
     0
 74
     1
 95
      119
 96
      115
 40
0.0
 40
0.0
 40
0.0
 40
0.0
 40
1.0
 40
1.0
 40
1.0
 40
2.0
 40
2.0
 40
2.0
 40
3.0
 40
3.0
 40
3.0
 40
4.0
 40
4.0
 40
4.0
 40
5.0
 40
5.0
 40
5.0
 40
6.0
 40
6.0
 40
6.0
 40
7.0
 40
7.0
 40
7.0
 40
8.0
 40
8.0
 40
8.0
 40
9.0
 40
9.0
 40
9.0
 40
10.0
 40
10.0
 40
10.0
 40
11.0
 40
11.0
 40
11.0
 40
12.0
 40
12.0
 40
12.0
 40
13.0
 40
13.0
 40
13.0
 40
14.0
 40
14.0
 40
14.0
 40
15.0
 40
15.0
 40
15.0
 40
16.0
 40
16.0
 40
16.0
 40
17.0
 40
17.0
 40
17.0
 40
18.0
 40
18.0
 40
18.0
 40
19.0
 40
19.0
 40
19.0
 40
20.0
 40
20.0
 40
20.0
 40
21.0
 40
21.0
 40
21.0
 40
22.0
 40
22.0
 40
22.0
 40
23.0
 40
23.0
 40
23.0
 40
24.0
 40
24.0
 40
24.0
 40
25.0
 40
25.0
 40
25.0
 40
26.0
 40
26.0
 40
26.0
 40
27.0
 40
27.0
 40
27.0
 40
28.0
 40
28.0
 40
28.0
 40
29.0
 40
29.0
 40
29.0
 40
30.0
 40
30.0
 40
30.0
 40
31.0
 40
31.0
 40
31.0
 40
32.0
 40
32.0
 40
32.0
 40
33.0
 40
33.0
 40
33.0
 40
34.0
 40
34.0
 40
34.0
 40
35.0
 40
35.0
 40
35.0
 40
36.0
 40
36.0
 40
36.0
 40
37.0
 40
37.0
 40
37.0
 40
38.0
 40
38.0
 40
38.0
 40
38.0
 10
51.92878552304211
 20
-121.9810126105638
 10
51.92878552304211
 20
-121.9810126105638
 10
52.14599879338711
 20
-121.9810126105638
 10
52.14599879338711
 20
-121.9810126105638
 10
52.14599879338711
 20
-121.9810126105638
 10
52.14599879338711
 20
-122.3251776495402
 10
52.14599879338711
 20
-122.3251776495402
 10
52.14599879338711
 20
-122.3251776495402
 10
51.92878552304211
 20
-122.3251776495402
 10
51.92878552304211
 20
-122.3251776495402
 10
51.92878552304211
 20
-122.3251776495402
 10
51.92878552304211
 20
-122.8131754250259
 10
51.92878552304211
 20
-122.8131754250259
 10
51.92878552304211
 20
-122.8131754250259
 10
52.25606959414085
 20
-122.8243719853529
 10
52.25606959414085
 20
-122.8243719853529
 10
52.27570663840677
 20
-122.8243719853529
 10
52.30395642138582
 20
-122.8300563929036
 10
52.30395642138582
 20
-122.8583061758826
 10
52.30395642138582
 20
-122.8779432201486
 10
52.29827201383516
 20
-122.8836276276992
 10
52.23901637148886
 20
-122.9230739710054
 10
52.23901637148886
 20
-122.9230739710054
 10
52.23901637148886
 20
-123.0190198802696
 10
52.23901637148886
 20
-123.0190198802696
 10
52.23901637148886
 20
-123.0190198802696
 10
52.96972112391035
 20
-123.0190198802696
 10
52.96972112391035
 20
-123.0190198802696
 10
52.96972112391035
 20
-123.0190198802696
 10
52.96972112391035
 20
-123.3602565880836
 10
52.96972112391035
 20
-123.3602565880836
 10
52.96972112391035
 20
-123.3602565880836
 10
52.23901637148886
 20
-123.3602565880836
 10
52.23901637148886
 20
-123.3602565880836
 10
52.23901637148886
 20
-123.3602565880836
 10
52.23901637148886
 20
-123.5295830311836
 10
52.23901637148886
 20
-123.5295830311836
 10
52.23901637148886
 20
-123.5295830311836
 10
53.29976127139729
 20
-123.5295830311836
 10
53.29976127139729
 20
-123.5295830311836
 10
53.29976127139729
 20
-123.5295830311836
 10
53.29976127139729
 20
-123.8849446304871
 10
53.29976127139729
 20
-123.8849446304871
 10
53.29976127139729
 20
-123.8849446304871
 10
50.76675481586734
 20
-123.8849446304871
 10
50.76675481586734
 20
-123.8849446304871
 10
50.76675481586734
 20
-123.8849446304871
 10
50.76675481586734
 20
-123.5295830311836
 10
50.76675481586734
 20
-123.5295830311836
 10
50.76675481586734
 20
-123.5295830311836
 10
51.83576794494036
 20
-123.5295830311836
 10
51.83576794494036
 20
-123.5295830311836
 10
51.83576794494036
 20
-123.5295830311836
 10
51.83576794494036
 20
-123.3602565880836
 10
51.83576794494036
 20
-123.3602565880836
 10
51.83576794494036
 20
-123.3602565880836
 10
51.09111055580362
 20
-123.3602565880836
 10
51.09111055580362
 20
-123.3602565880836
 10
51.09111055580362
 20
-123.3602565880836
 10
51.09111055580362
 20
-123.0190198802696
 10
51.09111055580362
 20
-123.0190198802696
 10
51.09111055580362
 20
-123.0190198802696
 10
51.83576794494036
 20
-123.0190198802696
 10
51.83576794494036
 20
-123.0190198802696
 10
51.83576794494036
 20
-123.0190198802696
 10
51.83576794494036
 20
-122.8836276276992
 10
51.83576794494036
 20
-122.8836276276992
 10
51.83576794494036
 20
-122.8836276276992
 10
51.53966198798314
 20
-122.8836276276992
 10
51.53966198798314
 20
-122.8836276276992
 10
51.53966198798314
 20
-122.8836276276992
 10
51.53966198798314
 20
-122.3251776495402
 10
51.53966198798314
 20
-122.3251776495402
 10
51.53966198798314
 20
-122.3251776495402
 10
51.38153210521018
 20
-122.3251776495402
 10
51.38153210521018
 20
-122.3251776495402
 10
51.31400823369928
 20
-122.7031046242721
 10
51.15036619814991
 20
-122.8977525191888
 10
51.08267007186475
 20
-122.9823296133517
 10
50.96140271078396
 20
-122.8977525191888
 10
50.8399630949289
 20
-122.8414252080049
 10
50.70457084235859
 20
-122.7962944571482
 10
50.90214706843766
 20
-122.5902777471302
 10
50.95847437962149
 20
-122.4774508699883
 10
50.99240857015121
 20
-122.3251776495402
 10
50.99240857015121
 20
-122.3251776495402
 10
50.772439223418
 20
-122.3251776495402
 10
50.772439223418
 20
-122.3251776495402
 10
50.772439223418
 20
-122.3251776495402
 10
50.772439223418
 20
-121.9810126105638
 10
50.772439223418
 20
-121.9810126105638
 10
50.772439223418
 20
-121.9810126105638
 10
51.02341442951845
 20
-121.9810126105638
 10
51.02341442951845
 20
-121.9810126105638
 10
51.02341442951845
 20
-121.9810126105638
 10
51.02341442951845
 20
-121.7892930468096
 10
51.02341442951845
 20
-121.7892930468096
 10
51.02341442951845
 20
-121.7892930468096
 10
50.84564750247957
 20
-121.7892930468096
 10
50.84564750247957
 20
-121.7892930468096
 10
50.84564750247957
 20
-121.7892930468096
 10
50.84564750247957
 20
-121.453568491772
 10
50.84564750247957
 20
-121.453568491772
 10
50.84564750247957
 20
-121.453568491772
 10
52.08123099826442
 20
-121.453568491772
 10
52.08123099826442
 20
-121.453568491772
 10
52.08123099826442
 20
-121.453568491772
 10
52.08123099826442
 20
-121.7892930468096
 10
52.08123099826442
 20
-121.7892930468096
 10
52.08123099826442
 20
-121.7892930468096
 10
51.92878552304211
 20
-121.7892930468096
 10
51.92878552304211
 20
-121.7892930468096
 10
51.92878552304211
 20
-121.7892930468096
 10
51.92878552304211
 20
-121.9810126105638
 10
51.92878552304211
 20
-121.9810126105638
 97
        0
 97
        0
 92
        1
 93
        4
 72
     1
 10
51.53966198798314
 20
-121.7892930468096
 11
51.39858532786216
 21
-121.7892930468096
 72
     1
 10
51.39858532786216
 20
-121.7892930468096
 11
51.39858532786216
 21
-121.9810126105638
 72
     1
 10
51.39858532786216
 20
-121.9810126105638
 11
51.53966198798314
 21
-121.9810126105638
 72
     1
 10
51.53966198798314
 20
-121.9810126105638
 11
51.53966198798314
 21
-121.7892930468096
 97
        0
 92
        1
 93
        1
 72
     4
 94
        3
 73
     0
 74
     1
 95
       50
 96
       46
 40
0.0
 40
0.0
 40
0.0
 40
0.0
 40
1.0
 40
1.0
 40
1.0
 40
2.0
 40
2.0
 40
2.0
 40
3.0
 40
3.0
 40
3.0
 40
4.0
 40
4.0
 40
4.0
 40
5.0
 40
5.0
 40
5.0
 40
6.0
 40
6.0
 40
6.0
 40
7.0
 40
7.0
 40
7.0
 40
8.0
 40
8.0
 40
8.0
 40
9.0
 40
9.0
 40
9.0
 40
10.0
 40
10.0
 40
10.0
 40
11.0
 40
11.0
 40
11.0
 40
12.0
 40
12.0
 40
12.0
 40
13.0
 40
13.0
 40
13.0
 40
14.0
 40
14.0
 40
14.0
 40
15.0
 40
15.0
 40
15.0
 40
15.0
 10
52.83984102411643
 20
-121.3745035503855
 10
52.83984102411643
 20
-121.3745035503855
 10
53.25170218937805
 20
-121.3999972569764
 10
53.25170218937805
 20
-121.3999972569764
 10
53.27151148841823
 20
-121.3999972569764
 10
53.28839245629596
 20
-121.4056816645271
 10
53.28839245629596
 20
-121.425318708793
 10
53.28839245629596
 20
-121.442371931445
 10
53.2799519723571
 20
-121.453568491772
 10
53.23757729788853
 20
-121.4845743511393
 10
53.23757729788853
 20
-121.4845743511393
 10
53.23757729788853
 20
-122.683295325232
 10
53.23757729788853
 20
-122.683295325232
 10
53.23757729788853
 20
-122.8779432201486
 10
53.20381536213308
 20
-122.9795735369634
 10
52.7242580705863
 20
-122.9768174605752
 10
52.70444877154611
 20
-122.8243719853529
 10
52.6622463518518
 20
-122.6805392488438
 10
52.60299070950551
 20
-122.5761528556407
 10
52.60299070950551
 20
-122.5761528556407
 10
52.27295056201857
 20
-122.5761528556407
 10
52.27295056201857
 20
-122.5761528556407
 10
52.27295056201857
 20
-122.5761528556407
 10
52.27295056201857
 20
-121.5636392925258
 10
52.27295056201857
 20
-121.5636392925258
 10
52.27295056201857
 20
-121.5636392925258
 10
52.67068683579066
 20
-121.5862046679541
 10
52.67068683579066
 20
-121.5862046679541
 10
52.69600828760725
 20
-121.5889607443423
 10
52.7215019941981
 20
-121.5889607443423
 10
52.7215019941981
 20
-121.6142821961589
 10
52.7215019941981
 20
-121.6482163866886
 10
52.68756780366839
 20
-121.6623412781782
 10
52.65656194430114
 20
-121.6735378385052
 10
52.65656194430114
 20
-121.6735378385052
 10
52.65656194430114
 20
-122.5565158113748
 10
52.65656194430114
 20
-122.5565158113748
 10
52.66500242824
 20
-122.5565158113748
 10
52.74113903846402
 20
-122.5620279641512
 10
52.76094833750421
 20
-122.5620279641512
 10
52.83984102411643
 20
-122.5620279641512
 10
52.83984102411643
 20
-122.5282660283957
 10
52.83984102411643
 20
-122.4295640427433
 10
52.83984102411643
 20
-122.4295640427433
 10
52.83984102411643
 20
-121.3745035503855
 10
52.83984102411643
 20
-121.3745035503855
 97
        0
 97
        0
 75
     2
 76
     1
 98
        0
  0
ENDBLK
  5
44
330
41
100
AcDbEntity
  8
0
100
AcDbBlockEnd
  0
BLOCK
  5
109
330
107
100
AcDbEntity
  8
0
100
AcDbBlockBegin
  2
block 3
 70
     0
 10
0.0
 20
0.0
 30
0.0
  3
block 3
  1

  0
SPLINE
  5
10B
330
107
100
AcDbEntity
  8
_U+30EC_U+30A4_U+30E4_U+30FC 1
370
     0
100
AcDbSpline
210
0.0
220
0.0
230
1.0
 70
    11
 71
     3
 72
    26
 73
    22
 74
     0
 42
0.0000000001
 43
0.0000000001
 12
1.0
 22
0.0
 32
0.0
 13
1.0
 23
0.0
 33
0.0
 40
0.0
 40
0.0
 40
0.0
 40
0.0
 40
1.0
 40
1.0
 40
1.0
 40
2.0
 40
2.0
 40
2.0
 40
3.0
 40
3.0
 40
3.0
 40
4.0
 40
4.0
 40
4.0
 40
5.0
 40
5.0
 40
5.0
 40
6.0
 40
6.0
 40
6.0
 40
7.0
 40
7.0
 40
7.0
 40
7.0
 10
83.71616480111958
 20
-136.7041449311018
 30
0.0
 10
83.71616480111958
 20
-136.7041449311018
 30
0.0
 10
83.71616480111958
 20
-135.5100748359142
 30
0.0
 10
83.71616480111958
 20
-135.5100748359142
 30
0.0
 10
83.71616480111958
 20
-135.5100748359142
 30
0.0
 10
83.33496498567668
 20
-135.5100748359142
 30
0.0
 10
83.33496498567668
 20
-135.5100748359142
 30
0.0
 10
83.33496498567668
 20
-135.5100748359142
 30
0.0
 10
83.33496498567668
 20
-135.34987789585
 30
0.0
 10
83.33496498567668
 20
-135.34987789585
 30
0.0
 10
83.71857636795924
 20
-135.3340304566179
 30
0.0
 10
83.77231985752914
 20
-135.1579860773216
 30
0.0
 10
83.80659855760739
 20
-135.0343071494011
 30
0.0
 10
83.80659855760739
 20
-135.0343071494011
 30
0.0
 10
83.97523598161037
 20
-135.0343071494011
 30
0.0
 10
83.97523598161037
 20
-135.0343071494011
 30
0.0
 10
83.97523598161037
 20
-135.0343071494011
 30
0.0
 10
83.97523598161037
 20
-136.7041449311018
 30
0.0
 10
83.97523598161037
 20
-136.7041449311018
 30
0.0
 10
83.97523598161037
 20
-136.7041449311018
 30
0.0
 10
83.71616480111958
 20
-136.7041449311018
 30
0.0
 10
83.71616480111958
 20
-136.7041449311018
 30
0.0
  0
HATCH
  5
10C
330
107
100
AcDbEntity
  8
_U+30EC_U+30A4_U+30E4_U+30FC 1
 62
   179
420
  2234388
100
AcDbHatch
 10
0.0
 20
0.0
 30
0.0
210
0.0
220
0.0
230
1.0
  2
SOLID
 70
     1
 71
     0
 91
        1
 92
        1
 93
        1
 72
     4
 94
        3
 73
     0
 74
     1
 95
       26
 96
       22
 40
0.0
 40
0.0
 40
0.0
 40
0.0
 40
1.0
 40
1.0
 40
1.0
 40
2.0
 40
2.0
 40
2.0
 40
3.0
 40
3.0
 40
3.0
 40
4.0
 40
4.0
 40
4.0
 40
5.0
 40
5.0
 40
5.0
 40
6.0
 40
6.0
 40
6.0
 40
7.0
 40
7.0
 40
7.0
 40
7.0
 10
83.71616480111958
 20
-136.7041449311018
 10
83.71616480111958
 20
-136.7041449311018
 10
83.71616480111958
 20
-135.5100748359142
 10
83.71616480111958
 20
-135.5100748359142
 10
83.71616480111958
 20
-135.5100748359142
 10
83.33496498567668
 20
-135.5100748359142
 10
83.33496498567668
 20
-135.5100748359142
 10
83.33496498567668
 20
-135.5100748359142
 10
83.33496498567668
 20
-135.34987789585
 10
83.33496498567668
 20
-135.34987789585
 10
83.71857636795924
 20
-135.3340304566179
 10
83.77231985752914
 20
-135.1579860773216
 10
83.80659855760739
 20
-135.0343071494011
 10
83.80659855760739
 20
-135.0343071494011
 10
83.97523598161037
 20
-135.0343071494011
 10
83.97523598161037
 20
-135.0343071494011
 10
83.97523598161037
 20
-135.0343071494011
 10
83.97523598161037
 20
-136.7041449311018
 10
83.97523598161037
 20
-136.7041449311018
 10
83.97523598161037
 20
-136.7041449311018
 10
83.71616480111958
 20
-136.7041449311018
 10
83.71616480111958
 20
-136.7041449311018
 97
        0
 97
        0
 75
     2
 76
     1
 98
        0
  0
SPLINE
  5
10D
330
107
100
AcDbEntity
  8
_U+30EC_U+30A4_U+30E4_U+30FC 1
370
     0
100
AcDbSpline
210
0.0
220
0.0
230
1.0
 70
    11
 71
     3
 72
    29
 73
    25
 74
     0
 42
0.0000000001
 43
0.0000000001
 12
1.0
 22
0.0
 32
0.0
 13
1.0
 23
0.0
 33
0.0
 40
0.0
 40
0.0
 40
0.0
 40
0.0
 40
1.0
 40
1.0
 40
1.0
 40
2.0
 40
2.0
 40
2.0
 40
3.0
 40
3.0
 40
3.0
 40
4.0
 40
4.0
 40
4.0
 40
5.0
 40
5.0
 40
5.0
 40
6.0
 40
6.0
 40
6.0
 40
7.0
 40
7.0
 40
7.0
 40
8.0
 40
8.0
 40
8.0
 40
8.0
 10
85.59012449032122
 20
-136.5119086030248
 30
0.0
 10
85.46558428852944
 20
-136.7385958859543
 30
0.0
 10
85.2650797312879
 20
-136.7592664588657
 30
0.0
 10
85.13072100736316
 20
-136.7592664588657
 30
0.0
 10
84.94503036070819
 20
-136.7592664588657
 30
0.0
 10
84.78121607038456
 20
-136.7089680647811
 30
0.0
 10
84.6713175244051
 20
-136.5119086030248
 30
0.0
 10
84.55160045629266
 20
-136.3017577784246
 30
0.0
 10
84.52955184518706
 20
-136.045442674322
 30
0.0
 10
84.52955184518706
 20
-135.8690537854772
 30
0.0
 10
84.52955184518706
 20
-135.7136799790924
 30
0.0
 10
84.54918888945298
 20
-135.4415174357577
 30
0.0
 10
84.6713175244051
 20
-135.2261989679296
 30
0.0
 10
84.79585772619687
 20
-135.0067463855192
 30
0.0
 10
84.9817206276261
 20
-134.9815971884768
 30
0.0
 10
85.13072100736316
 20
-134.9815971884768
 30
0.0
 10
85.31400008717844
 20
-134.9815971884768
 30
0.0
 10
85.48022594434175
 20
-135.0298285252703
 30
0.0
 10
85.59012449032122
 20
-135.2261989679296
 30
0.0
 10
85.7050184247543
 20
-135.4346272447872
 30
0.0
 10
85.73189016953926
 20
-135.6816405910796
 30
0.0
 10
85.73189016953926
 20
-135.8690537854772
 30
0.0
 10
85.73189016953926
 20
-136.0543999225836
 30
0.0
 10
85.70742999159398
 20
-136.3038248357157
 30
0.0
 10
85.59012449032122
 20
-136.5119086030248
 30
0.0
  0
SPLINE
  5
10E
330
107
100
AcDbEntity
  8
_U+30EC_U+30A4_U+30E4_U+30FC 1
370
     0
100
AcDbSpline
210
0.0
220
0.0
230
1.0
 70
    11
 71
     3
 72
    17
 73
    13
 74
     0
 42
0.0000000001
 43
0.0000000001
 12
1.0
 22
0.0
 32
0.0
 13
1.0
 23
0.0
 33
0.0
 40
0.0
 40
0.0
 40
0.0
 40
0.0
 40
1.0
 40
1.0
 40
1.0
 40
2.0
 40
2.0
 40
2.0
 40
3.0
 40
3.0
 40
3.0
 40
4.0
 40
4.0
 40
4.0
 40
4.0
 10
85.13072100736316
 20
-135.1896809557859
 30
0.0
 10
84.84236651524775
 20
-135.1896809557859
 30
0.0
 10
84.78862302567785
 20
-135.4962944539731
 30
0.0
 10
84.78862302567785
 20
-135.8690537854772
 30
0.0
 10
84.78862302567785
 20
-136.2149413721963
 30
0.0
 10
84.8301364262751
 20
-136.548771124717
 30
0.0
 10
85.13072100736316
 20
-136.548771124717
 30
0.0
 10
85.4166639326389
 20
-136.548771124717
 30
0.0
 10
85.47281898904846
 20
-136.2445691933694
 30
0.0
 10
85.47281898904846
 20
-135.8690537854772
 30
0.0
 10
85.47281898904846
 20
-135.5238552178552
 30
0.0
 10
85.42889402161153
 20
-135.1896809557859
 30
0.0
 10
85.13072100736316
 20
-135.1896809557859
 30
0.0
  0
HATCH
  5
10F
330
107
100
AcDbEntity
  8
_U+30EC_U+30A4_U+30E4_U+30FC 1
 62
   179
420
  2234388
100
AcDbHatch
 10
0.0
 20
0.0
 30
0.0
210
0.0
220
0.0
230
1.0
  2
SOLID
 70
     1
 71
     0
 91
        2
 92
        1
 93
        1
 72
     4
 94
        3
 73
     0
 74
     1
 95
       29
 96
       25
 40
0.0
 40
0.0
 40
0.0
 40
0.0
 40
1.0
 40
1.0
 40
1.0
 40
2.0
 40
2.0
 40
2.0
 40
3.0
 40
3.0
 40
3.0
 40
4.0
 40
4.0
 40
4.0
 40
5.0
 40
5.0
 40
5.0
 40
6.0
 40
6.0
 40
6.0
 40
7.0
 40
7.0
 40
7.0
 40
8.0
 40
8.0
 40
8.0
 40
8.0
 10
85.59012449032122
 20
-136.5119086030248
 10
85.46558428852944
 20
-136.7385958859543
 10
85.2650797312879
 20
-136.7592664588657
 10
85.13072100736316
 20
-136.7592664588657
 10
84.94503036070819
 20
-136.7592664588657
 10
84.78121607038456
 20
-136.7089680647811
 10
84.6713175244051
 20
-136.5119086030248
 10
84.55160045629266
 20
-136.3017577784246
 10
84.52955184518706
 20
-136.045442674322
 10
84.52955184518706
 20
-135.8690537854772
 10
84.52955184518706
 20
-135.7136799790924
 10
84.54918888945298
 20
-135.4415174357577
 10
84.6713175244051
 20
-135.2261989679296
 10
84.79585772619687
 20
-135.0067463855192
 10
84.9817206276261
 20
-134.9815971884768
 10
85.13072100736316
 20
-134.9815971884768
 10
85.31400008717844
 20
-134.9815971884768
 10
85.48022594434175
 20
-135.0298285252703
 10
85.59012449032122
 20
-135.2261989679296
 10
85.7050184247543
 20
-135.4346272447872
 10
85.73189016953926
 20
-135.6816405910796
 10
85.73189016953926
 20
-135.8690537854772
 10
85.73189016953926
 20
-136.0543999225836
 10
85.70742999159398
 20
-136.3038248357157
 10
85.59012449032122
 20
-136.5119086030248
 97
        0
 97
        0
 92
        1
 93
        1
 72
     4
 94
        3
 73
     0
 74
     1
 95
       17
 96
       13
 40
0.0
 40
0.0
 40
0.0
 40
0.0
 40
1.0
 40
1.0
 40
1.0
 40
2.0
 40
2.0
 40
2.0
 40
3.0
 40
3.0
 40
3.0
 40
4.0
 40
4.0
 40
4.0
 40
4.0
 10
85.13072100736316
 20
-135.1896809557859
 10
84.84236651524775
 20
-135.1896809557859
 10
84.78862302567785
 20
-135.4962944539731
 10
84.78862302567785
 20
-135.8690537854772
 10
84.78862302567785
 20
-136.2149413721963
 10
84.8301364262751
 20
-136.548771124717
 10
85.13072100736316
 20
-136.548771124717
 10
85.4166639326389
 20
-136.548771124717
 10
85.47281898904846
 20
-136.2445691933694
 10
85.47281898904846
 20
-135.8690537854772
 10
85.47281898904846
 20
-135.5238552178552
 10
85.42889402161153
 20
-135.1896809557859
 10
85.13072100736316
 20
-135.1896809557859
 97
        0
 97
        0
 75
     2
 76
     1
 98
        0
  0
SPLINE
  5
110
330
107
100
AcDbEntity
  8
_U+30EC_U+30A4_U+30E4_U+30FC 1
370
     0
100
AcDbSpline
210
0.0
220
0.0
230
1.0
 70
    11
 71
     3
 72
    29
 73
    25
 74
     0
 42
0.0000000001
 43
0.0000000001
 12
1.0
 22
0.0
 32
0.0
 13
1.0
 23
0.0
 33
0.0
 40
0.0
 40
0.0
 40
0.0
 40
0.0
 40
1.0
 40
1.0
 40
1.0
 40
2.0
 40
2.0
 40
2.0
 40
3.0
 40
3.0
 40
3.0
 40
4.0
 40
4.0
 40
4.0
 40
5.0
 40
5.0
 40
5.0
 40
6.0
 40
6.0
 40
6.0
 40
7.0
 40
7.0
 40
7.0
 40
8.0
 40
8.0
 40
8.0
 40
8.0
 10
86.94852564015524
 20
-136.5119086030248
 30
0.0
 10
86.82398543836345
 20
-136.7385958859543
 30
0.0
 10
86.6234808811219
 20
-136.7592664588657
 30
0.0
 10
86.48912215719717
 20
-136.7592664588657
 30
0.0
 10
86.3034315105422
 20
-136.7592664588657
 30
0.0
 10
86.13961722021857
 20
-136.7089680647811
 30
0.0
 10
86.0297186742391
 20
-136.5119086030248
 30
0.0
 10
85.91000160612667
 20
-136.3017577784246
 30
0.0
 10
85.88795299502107
 20
-136.045442674322
 30
0.0
 10
85.88795299502107
 20
-135.8690537854772
 30
0.0
 10
85.88795299502107
 20
-135.7136799790924
 30
0.0
 10
85.907590039287
 20
-135.4415174357577
 30
0.0
 10
86.0297186742391
 20
-135.2261989679296
 30
0.0
 10
86.15425887603088
 20
-135.0067463855192
 30
0.0
 10
86.34012177746011
 20
-134.9815971884768
 30
0.0
 10
86.48912215719717
 20
-134.9815971884768
 30
0.0
 10
86.67240123701247
 20
-134.9815971884768
 30
0.0
 10
86.83862709417576
 20
-135.0298285252703
 30
0.0
 10
86.94852564015524
 20
-135.2261989679296
 30
0.0
 10
87.06341957458831
 20
-135.4346272447872
 30
0.0
 10
87.09029131937326
 20
-135.6816405910796
 30
0.0
 10
87.09029131937326
 20
-135.8690537854772
 30
0.0
 10
87.09029131937326
 20
-136.0543999225836
 30
0.0
 10
87.06583114142799
 20
-136.3038248357157
 30
0.0
 10
86.94852564015524
 20
-136.5119086030248
 30
0.0
  0
SPLINE
  5
111
330
107
100
AcDbEntity
  8
_U+30EC_U+30A4_U+30E4_U+30FC 1
370
     0
100
AcDbSpline
210
0.0
220
0.0
230
1.0
 70
    11
 71
     3
 72
    17
 73
    13
 74
     0
 42
0.0000000001
 43
0.0000000001
 12
1.0
 22
0.0
 32
0.0
 13
1.0
 23
0.0
 33
0.0
 40
0.0
 40
0.0
 40
0.0
 40
0.0
 40
1.0
 40
1.0
 40
1.0
 40
2.0
 40
2.0
 40
2.0
 40
3.0
 40
3.0
 40
3.0
 40
4.0
 40
4.0
 40
4.0
 40
4.0
 10
86.48912215719717
 20
-135.1896809557859
 30
0.0
 10
86.20076766508176
 20
-135.1896809557859
 30
0.0
 10
86.14702417551186
 20
-135.4962944539731
 30
0.0
 10
86.14702417551186
 20
-135.8690537854772
 30
0.0
 10
86.14702417551186
 20
-136.2149413721963
 30
0.0
 10
86.18853757610911
 20
-136.548771124717
 30
0.0
 10
86.48912215719717
 20
-136.548771124717
 30
0.0
 10
86.7750650824729
 20
-136.548771124717
 30
0.0
 10
86.83122013888247
 20
-136.2445691933694
 30
0.0
 10
86.83122013888247
 20
-135.8690537854772
 30
0.0
 10
86.83122013888247
 20
-135.5238552178552
 30
0.0
 10
86.78729517144554
 20
-135.1896809557859
 30
0.0
 10
86.48912215719717
 20
-135.1896809557859
 30
0.0
  0
HATCH
  5
112
330
107
100
AcDbEntity
  8
_U+30EC_U+30A4_U+30E4_U+30FC 1
 62
   179
420
  2234388
100
AcDbHatch
 10
0.0
 20
0.0
 30
0.0
210
0.0
220
0.0
230
1.0
  2
SOLID
 70
     1
 71
     0
 91
        2
 92
        1
 93
        1
 72
     4
 94
        3
 73
     0
 74
     1
 95
       29
 96
       25
 40
0.0
 40
0.0
 40
0.0
 40
0.0
 40
1.0
 40
1.0
 40
1.0
 40
2.0
 40
2.0
 40
2.0
 40
3.0
 40
3.0
 40
3.0
 40
4.0
 40
4.0
 40
4.0
 40
5.0
 40
5.0
 40
5.0
 40
6.0
 40
6.0
 40
6.0
 40
7.0
 40
7.0
 40
7.0
 40
8.0
 40
8.0
 40
8.0
 40
8.0
 10
86.94852564015524
 20
-136.5119086030248
 10
86.82398543836345
 20
-136.7385958859543
 10
86.6234808811219
 20
-136.7592664588657
 10
86.48912215719717
 20
-136.7592664588657
 10
86.3034315105422
 20
-136.7592664588657
 10
86.13961722021857
 20
-136.7089680647811
 10
86.0297186742391
 20
-136.5119086030248
 10
85.91000160612667
 20
-136.3017577784246
 10
85.88795299502107
 20
-136.045442674322
 10
85.88795299502107
 20
-135.8690537854772
 10
85.88795299502107
 20
-135.7136799790924
 10
85.907590039287
 20
-135.4415174357577
 10
86.0297186742391
 20
-135.2261989679296
 10
86.15425887603088
 20
-135.0067463855192
 10
86.34012177746011
 20
-134.9815971884768
 10
86.48912215719717
 20
-134.9815971884768
 10
86.67240123701247
 20
-134.9815971884768
 10
86.83862709417576
 20
-135.0298285252703
 10
86.94852564015524
 20
-135.2261989679296
 10
87.06341957458831
 20
-135.4346272447872
 10
87.09029131937326
 20
-135.6816405910796
 10
87.09029131937326
 20
-135.8690537854772
 10
87.09029131937326
 20
-136.0543999225836
 10
87.06583114142799
 20
-136.3038248357157
 10
86.94852564015524
 20
-136.5119086030248
 97
        0
 97
        0
 92
        1
 93
        1
 72
     4
 94
        3
 73
     0
 74
     1
 95
       17
 96
       13
 40
0.0
 40
0.0
 40
0.0
 40
0.0
 40
1.0
 40
1.0
 40
1.0
 40
2.0
 40
2.0
 40
2.0
 40
3.0
 40
3.0
 40
3.0
 40
4.0
 40
4.0
 40
4.0
 40
4.0
 10
86.48912215719717
 20
-135.1896809557859
 10
86.20076766508176
 20
-135.1896809557859
 10
86.14702417551186
 20
-135.4962944539731
 10
86.14702417551186
 20
-135.8690537854772
 10
86.14702417551186
 20
-136.2149413721963
 10
86.18853757610911
 20
-136.548771124717
 10
86.48912215719717
 20
-136.548771124717
 10
86.7750650824729
 20
-136.548771124717
 10
86.83122013888247
 20
-136.2445691933694
 10
86.83122013888247
 20
-135.8690537854772
 10
86.83122013888247
 20
-135.5238552178552
 10
86.78729517144554
 20
-135.1896809557859
 10
86.48912215719717
 20
-135.1896809557859
 97
        0
 97
        0
 75
     2
 76
     1
 98
        0
  0
SPLINE
  5
113
330
107
100
AcDbEntity
  8
_U+30EC_U+30A4_U+30E4_U+30FC 1
370
     0
100
AcDbSpline
210
0.0
220
0.0
230
1.0
 70
    11
 71
     3
 72
    17
 73
    13
 74
     0
 42
0.0000000001
 43
0.0000000001
 12
1.0
 22
0.0
 32
0.0
 13
1.0
 23
0.0
 33
0.0
 40
0.0
 40
0.0
 40
0.0
 40
0.0
 40
1.0
 40
1.0
 40
1.0
 40
2.0
 40
2.0
 40
2.0
 40
3.0
 40
3.0
 40
3.0
 40
4.0
 40
4.0
 40
4.0
 40
4.0
 10
87.879562695044
 20
-135.8349473401732
 30
0.0
 10
87.879562695044
 20
-135.9586262680937
 30
0.0
 10
87.77207571590421
 20
-136.0568114894233
 30
0.0
 10
87.64254012565881
 20
-136.0568114894233
 30
0.0
 10
87.51059296857375
 20
-136.0568114894233
 30
0.0
 10
87.40551755627362
 20
-135.956214701254
 30
0.0
 10
87.40551755627362
 20
-135.8349473401732
 30
0.0
 10
87.40551755627362
 20
-135.7112684122527
 30
0.0
 10
87.51300453541342
 20
-135.6130831909231
 30
0.0
 10
87.64254012565881
 20
-135.6130831909231
 30
0.0
 10
87.76966414906454
 20
-135.6130831909231
 30
0.0
 10
87.879562695044
 20
-135.7092013549616
 30
0.0
 10
87.879562695044
 20
-135.8349473401732
 30
0.0
  0
HATCH
  5
114
330
107
100
AcDbEntity
  8
_U+30EC_U+30A4_U+30E4_U+30FC 1
 62
   179
420
  2234388
100
AcDbHatch
 10
0.0
 20
0.0
 30
0.0
210
0.0
220
0.0
230
1.0
  2
SOLID
 70
     1
 71
     0
 91
        1
 92
        1
 93
        1
 72
     4
 94
        3
 73
     0
 74
     1
 95
       17
 96
       13
 40
0.0
 40
0.0
 40
0.0
 40
0.0
 40
1.0
 40
1.0
 40
1.0
 40
2.0
 40
2.0
 40
2.0
 40
3.0
 40
3.0
 40
3.0
 40
4.0
 40
4.0
 40
4.0
 40
4.0
 10
87.879562695044
 20
-135.8349473401732
 10
87.879562695044
 20
-135.9586262680937
 10
87.77207571590421
 20
-136.0568114894233
 10
87.64254012565881
 20
-136.0568114894233
 10
87.51059296857375
 20
-136.0568114894233
 10
87.40551755627362
 20
-135.956214701254
 10
87.40551755627362
 20
-135.8349473401732
 10
87.40551755627362
 20
-135.7112684122527
 10
87.51300453541342
 20
-135.6130831909231
 10
87.64254012565881
 20
-135.6130831909231
 10
87.76966414906454
 20
-135.6130831909231
 10
87.879562695044
 20
-135.7092013549616
 10
87.879562695044
 20
-135.8349473401732
 97
        0
 97
        0
 75
     2
 76
     1
 98
        0
  0
SPLINE
  5
115
330
107
100
AcDbEntity
  8
_U+30EC_U+30A4_U+30E4_U+30FC 1
370
     0
100
AcDbSpline
210
0.0
220
0.0
230
1.0
 70
    11
 71
     3
 72
    26
 73
    22
 74
     0
 42
0.0000000001
 43
0.0000000001
 12
1.0
 22
0.0
 32
0.0
 13
1.0
 23
0.0
 33
0.0
 40
0.0
 40
0.0
 40
0.0
 40
0.0
 40
1.0
 40
1.0
 40
1.0
 40
2.0
 40
2.0
 40
2.0
 40
3.0
 40
3.0
 40
3.0
 40
4.0
 40
4.0
 40
4.0
 40
5.0
 40
5.0
 40
5.0
 40
6.0
 40
6.0
 40
6.0
 40
7.0
 40
7.0
 40
7.0
 40
7.0
 10
88.7392862733881
 20
-136.7041449311018
 30
0.0
 10
88.7392862733881
 20
-136.7041449311018
 30
0.0
 10
88.7392862733881
 20
-135.5100748359142
 30
0.0
 10
88.7392862733881
 20
-135.5100748359142
 30
0.0
 10
88.7392862733881
 20
-135.5100748359142
 30
0.0
 10
88.3580864579452
 20
-135.5100748359142
 30
0.0
 10
88.3580864579452
 20
-135.5100748359142
 30
0.0
 10
88.3580864579452
 20
-135.5100748359142
 30
0.0
 10
88.3580864579452
 20
-135.34987789585
 30
0.0
 10
88.3580864579452
 20
-135.34987789585
 30
0.0
 10
88.74169784022777
 20
-135.3340304566179
 30
0.0
 10
88.79544132979767
 20
-135.1579860773216
 30
0.0
 10
88.8297200298759
 20
-135.0343071494011
 30
0.0
 10
88.8297200298759
 20
-135.0343071494011
 30
0.0
 10
88.99835745387888
 20
-135.0343071494011
 30
0.0
 10
88.99835745387888
 20
-135.0343071494011
 30
0.0
 10
88.99835745387888
 20
-135.0343071494011
 30
0.0
 10
88.99835745387888
 20
-136.7041449311018
 30
0.0
 10
88.99835745387888
 20
-136.7041449311018
 30
0.0
 10
88.99835745387888
 20
-136.7041449311018
 30
0.0
 10
88.7392862733881
 20
-136.7041449311018
 30
0.0
 10
88.7392862733881
 20
-136.7041449311018
 30
0.0
  0
HATCH
  5
116
330
107
100
AcDbEntity
  8
_U+30EC_U+30A4_U+30E4_U+30FC 1
 62
   179
420
  2234388
100
AcDbHatch
 10
0.0
 20
0.0
 30
0.0
210
0.0
220
0.0
230
1.0
  2
SOLID
 70
     1
 71
     0
 91
        1
 92
        1
 93
        1
 72
     4
 94
        3
 73
     0
 74
     1
 95
       26
 96
       22
 40
0.0
 40
0.0
 40
0.0
 40
0.0
 40
1.0
 40
1.0
 40
1.0
 40
2.0
 40
2.0
 40
2.0
 40
3.0
 40
3.0
 40
3.0
 40
4.0
 40
4.0
 40
4.0
 40
5.0
 40
5.0
 40
5.0
 40
6.0
 40
6.0
 40
6.0
 40
7.0
 40
7.0
 40
7.0
 40
7.0
 10
88.7392862733881
 20
-136.7041449311018
 10
88.7392862733881
 20
-136.7041449311018
 10
88.7392862733881
 20
-135.5100748359142
 10
88.7392862733881
 20
-135.5100748359142
 10
88.7392862733881
 20
-135.5100748359142
 10
88.3580864579452
 20
-135.5100748359142
 10
88.3580864579452
 20
-135.5100748359142
 10
88.3580864579452
 20
-135.5100748359142
 10
88.3580864579452
 20
-135.34987789585
 10
88.3580864579452
 20
-135.34987789585
 10
88.74169784022777
 20
-135.3340304566179
 10
88.79544132979767
 20
-135.1579860773216
 10
88.8297200298759
 20
-135.0343071494011
 10
88.8297200298759
 20
-135.0343071494011
 10
88.99835745387888
 20
-135.0343071494011
 10
88.99835745387888
 20
-135.0343071494011
 10
88.99835745387888
 20
-135.0343071494011
 10
88.99835745387888
 20
-136.7041449311018
 10
88.99835745387888
 20
-136.7041449311018
 10
88.99835745387888
 20
-136.7041449311018
 10
88.7392862733881
 20
-136.7041449311018
 10
88.7392862733881
 20
-136.7041449311018
 97
        0
 97
        0
 75
     2
 76
     1
 98
        0
  0
SPLINE
  5
117
330
107
100
AcDbEntity
  8
_U+30EC_U+30A4_U+30E4_U+30FC 1
370
     0
100
AcDbSpline
210
0.0
220
0.0
230
1.0
 70
    11
 71
     3
 72
    44
 73
    40
 74
     0
 42
0.0000000001
 43
0.0000000001
 12
1.0
 22
0.0
 32
0.0
 13
1.0
 23
0.0
 33
0.0
 40
0.0
 40
0.0
 40
0.0
 40
0.0
 40
1.0
 40
1.0
 40
1.0
 40
2.0
 40
2.0
 40
2.0
 40
3.0
 40
3.0
 40
3.0
 40
4.0
 40
4.0
 40
4.0
 40
5.0
 40
5.0
 40
5.0
 40
6.0
 40
6.0
 40
6.0
 40
7.0
 40
7.0
 40
7.0
 40
8.0
 40
8.0
 40
8.0
 40
9.0
 40
9.0
 40
9.0
 40
10.0
 40
10.0
 40
10.0
 40
11.0
 40
11.0
 40
11.0
 40
12.0
 40
12.0
 40
12.0
 40
13.0
 40
13.0
 40
13.0
 40
13.0
 10
90.26132945877147
 20
-136.0750704954951
 30
0.0
 10
90.00966523357398
 20
-136.2466362506606
 30
0.0
 10
89.90217825443418
 20
-136.3269069754669
 30
0.0
 10
89.84602319802461
 20
-136.4822807818517
 30
0.0
 10
89.84602319802461
 20
-136.4822807818517
 30
0.0
 10
90.74519311967482
 20
-136.4822807818517
 30
0.0
 10
90.74519311967482
 20
-136.4822807818517
 30
0.0
 10
90.74519311967482
 20
-136.4822807818517
 30
0.0
 10
90.74519311967482
 20
-136.7041449311018
 30
0.0
 10
90.74519311967482
 20
-136.7041449311018
 30
0.0
 10
90.74519311967482
 20
-136.7041449311018
 30
0.0
 10
89.55749645113494
 20
-136.7041449311018
 30
0.0
 10
89.55749645113494
 20
-136.7041449311018
 30
0.0
 10
89.59418671805285
 20
-136.3176052176567
 30
0.0
 10
89.66997881872834
 20
-136.2328558687196
 30
0.0
 10
90.1147406458741
 20
-135.9103949313002
 30
0.0
 10
90.4105020932828
 20
-135.6954209730206
 30
0.0
 10
90.48629419395829
 20
-135.6223849487333
 30
0.0
 10
90.48629419395829
 20
-135.4735568237705
 30
0.0
 10
90.48629419395829
 20
-135.3453992717192
 30
0.0
 10
90.40309513798951
 20
-135.2034613377269
 30
0.0
 10
90.17589109073728
 20
-135.2034613377269
 30
0.0
 10
89.87530650964923
 20
-135.2034613377269
 30
0.0
 10
89.86548798751627
 20
-135.452886250859
 30
0.0
 10
89.86066485383692
 20
-135.5789767456191
 30
0.0
 10
89.86066485383692
 20
-135.5789767456191
 30
0.0
 10
89.60159367334613
 20
-135.5789767456191
 30
0.0
 10
89.60159367334613
 20
-135.5789767456191
 30
0.0
 10
89.61141219547909
 20
-135.4415174357577
 30
0.0
 10
89.62347002967746
 20
-135.3202500746769
 30
0.0
 10
89.71648760777921
 20
-135.1920925226256
 30
0.0
 10
89.84343937641067
 20
-135.0181152006205
 30
0.0
 10
90.05858558946453
 20
-134.9815971884768
 30
0.0
 10
90.19294431338926
 20
-134.9815971884768
 30
0.0
 10
90.51316593874324
 20
-134.9815971884768
 30
0.0
 10
90.7526000749681
 20
-135.1807237075243
 30
0.0
 10
90.7526000749681
 20
-135.4756238810617
 30
0.0
 10
90.7526000749681
 20
-135.7229817369026
 30
0.0
 10
90.61824135104337
 20
-135.8304687160424
 30
0.0
 10
90.26132945877147
 20
-136.0750704954951
 30
0.0
  0
HATCH
  5
118
330
107
100
AcDbEntity
  8
_U+30EC_U+30A4_U+30E4_U+30FC 1
 62
   179
420
  2234388
100
AcDbHatch
 10
0.0
 20
0.0
 30
0.0
210
0.0
220
0.0
230
1.0
  2
SOLID
 70
     1
 71
     0
 91
        1
 92
        1
 93
        1
 72
     4
 94
        3
 73
     0
 74
     1
 95
       44
 96
       40
 40
0.0
 40
0.0
 40
0.0
 40
0.0
 40
1.0
 40
1.0
 40
1.0
 40
2.0
 40
2.0
 40
2.0
 40
3.0
 40
3.0
 40
3.0
 40
4.0
 40
4.0
 40
4.0
 40
5.0
 40
5.0
 40
5.0
 40
6.0
 40
6.0
 40
6.0
 40
7.0
 40
7.0
 40
7.0
 40
8.0
 40
8.0
 40
8.0
 40
9.0
 40
9.0
 40
9.0
 40
10.0
 40
10.0
 40
10.0
 40
11.0
 40
11.0
 40
11.0
 40
12.0
 40
12.0
 40
12.0
 40
13.0
 40
13.0
 40
13.0
 40
13.0
 10
90.26132945877147
 20
-136.0750704954951
 10
90.00966523357398
 20
-136.2466362506606
 10
89.90217825443418
 20
-136.3269069754669
 10
89.84602319802461
 20
-136.4822807818517
 10
89.84602319802461
 20
-136.4822807818517
 10
90.74519311967482
 20
-136.4822807818517
 10
90.74519311967482
 20
-136.4822807818517
 10
90.74519311967482
 20
-136.4822807818517
 10
90.74519311967482
 20
-136.7041449311018
 10
90.74519311967482
 20
-136.7041449311018
 10
90.74519311967482
 20
-136.7041449311018
 10
89.55749645113494
 20
-136.7041449311018
 10
89.55749645113494
 20
-136.7041449311018
 10
89.59418671805285
 20
-136.3176052176567
 10
89.66997881872834
 20
-136.2328558687196
 10
90.1147406458741
 20
-135.9103949313002
 10
90.4105020932828
 20
-135.6954209730206
 10
90.48629419395829
 20
-135.6223849487333
 10
90.48629419395829
 20
-135.4735568237705
 10
90.48629419395829
 20
-135.3453992717192
 10
90.40309513798951
 20
-135.2034613377269
 10
90.17589109073728
 20
-135.2034613377269
 10
89.87530650964923
 20
-135.2034613377269
 10
89.86548798751627
 20
-135.452886250859
 10
89.86066485383692
 20
-135.5789767456191
 10
89.86066485383692
 20
-135.5789767456191
 10
89.60159367334613
 20
-135.5789767456191
 10
89.60159367334613
 20
-135.5789767456191
 10
89.61141219547909
 20
-135.4415174357577
 10
89.62347002967746
 20
-135.3202500746769
 10
89.71648760777921
 20
-135.1920925226256
 10
89.84343937641067
 20
-135.0181152006205
 10
90.05858558946453
 20
-134.9815971884768
 10
90.19294431338926
 20
-134.9815971884768
 10
90.51316593874324
 20
-134.9815971884768
 10
90.7526000749681
 20
-135.1807237075243
 10
90.7526000749681
 20
-135.4756238810617
 10
90.7526000749681
 20
-135.7229817369026
 10
90.61824135104337
 20
-135.8304687160424
 10
90.26132945877147
 20
-136.0750704954951
 97
        0
 97
        0
 75
     2
 76
     1
 98
        0
  0
SPLINE
  5
119
330
107
100
AcDbEntity
  8
_U+30EC_U+30A4_U+30E4_U+30FC 1
370
     0
100
AcDbSpline
210
0.0
220
0.0
230
1.0
 70
    11
 71
     3
 72
    29
 73
    25
 74
     0
 42
0.0000000001
 43
0.0000000001
 12
1.0
 22
0.0
 32
0.0
 13
1.0
 23
0.0
 33
0.0
 40
0.0
 40
0.0
 40
0.0
 40
0.0
 40
1.0
 40
1.0
 40
1.0
 40
2.0
 40
2.0
 40
2.0
 40
3.0
 40
3.0
 40
3.0
 40
4.0
 40
4.0
 40
4.0
 40
5.0
 40
5.0
 40
5.0
 40
6.0
 40
6.0
 40
6.0
 40
7.0
 40
7.0
 40
7.0
 40
8.0
 40
8.0
 40
8.0
 40
8.0
 10
91.97164711242375
 20
-136.5119086030248
 30
0.0
 10
91.84693465585771
 20
-136.7385958859543
 30
0.0
 10
91.64643009861618
 20
-136.7592664588657
 30
0.0
 10
91.51207137469143
 20
-136.7592664588657
 30
0.0
 10
91.32655298281072
 20
-136.7592664588657
 30
0.0
 10
91.1627386924871
 20
-136.7089680647811
 30
0.0
 10
91.05284014650763
 20
-136.5119086030248
 30
0.0
 10
90.9331230783952
 20
-136.3017577784246
 30
0.0
 10
90.9110744672896
 20
-136.045442674322
 30
0.0
 10
90.9110744672896
 20
-135.8690537854772
 30
0.0
 10
90.9110744672896
 20
-135.7136799790924
 30
0.0
 10
90.93053925678126
 20
-135.4415174357577
 30
0.0
 10
91.05284014650763
 20
-135.2261989679296
 30
0.0
 10
91.17738034829941
 20
-135.0067463855192
 30
0.0
 10
91.36324324972864
 20
-134.9815971884768
 30
0.0
 10
91.51207137469143
 20
-134.9815971884768
 30
0.0
 10
91.69535045450672
 20
-134.9815971884768
 30
0.0
 10
91.86174856644429
 20
-135.0298285252703
 30
0.0
 10
91.97164711242375
 20
-135.2261989679296
 30
0.0
 10
92.08671330163111
 20
-135.4346272447872
 30
0.0
 10
92.11358504641605
 20
-135.6816405910796
 30
0.0
 10
92.11358504641605
 20
-135.8690537854772
 30
0.0
 10
92.11358504641605
 20
-136.0543999225836
 30
0.0
 10
92.08878035892225
 20
-136.3038248357157
 30
0.0
 10
91.97164711242375
 20
-136.5119086030248
 30
0.0
  0
SPLINE
  5
11A
330
107
100
AcDbEntity
  8
_U+30EC_U+30A4_U+30E4_U+30FC 1
370
     0
100
AcDbSpline
210
0.0
220
0.0
230
1.0
 70
    11
 71
     3
 72
    17
 73
    13
 74
     0
 42
0.0000000001
 43
0.0000000001
 12
1.0
 22
0.0
 32
0.0
 13
1.0
 23
0.0
 33
0.0
 40
0.0
 40
0.0
 40
0.0
 40
0.0
 40
1.0
 40
1.0
 40
1.0
 40
2.0
 40
2.0
 40
2.0
 40
3.0
 40
3.0
 40
3.0
 40
4.0
 40
4.0
 40
4.0
 40
4.0
 10
91.51207137469143
 20
-135.1896809557859
 30
0.0
 10
91.22388913735028
 20
-135.1896809557859
 30
0.0
 10
91.17014564778039
 20
-135.4962944539731
 30
0.0
 10
91.17014564778039
 20
-135.8690537854772
 30
0.0
 10
91.17014564778039
 20
-136.2149413721963
 30
0.0
 10
91.21165904837764
 20
-136.548771124717
 30
0.0
 10
91.51207137469143
 20
-136.548771124717
 30
0.0
 10
91.79801429996716
 20
-136.548771124717
 30
0.0
 10
91.85451386592527
 20
-136.2445691933694
 30
0.0
 10
91.85451386592527
 20
-135.8690537854772
 30
0.0
 10
91.85451386592527
 20
-135.5238552178552
 30
0.0
 10
91.81041664371406
 20
-135.1896809557859
 30
0.0
 10
91.51207137469143
 20
-135.1896809557859
 30
0.0
  0
HATCH
  5
11B
330
107
100
AcDbEntity
  8
_U+30EC_U+30A4_U+30E4_U+30FC 1
 62
   179
420
  2234388
100
AcDbHatch
 10
0.0
 20
0.0
 30
0.0
210
0.0
220
0.0
230
1.0
  2
SOLID
 70
     1
 71
     0
 91
        2
 92
        1
 93
        1
 72
     4
 94
        3
 73
     0
 74
     1
 95
       29
 96
       25
 40
0.0
 40
0.0
 40
0.0
 40
0.0
 40
1.0
 40
1.0
 40
1.0
 40
2.0
 40
2.0
 40
2.0
 40
3.0
 40
3.0
 40
3.0
 40
4.0
 40
4.0
 40
4.0
 40
5.0
 40
5.0
 40
5.0
 40
6.0
 40
6.0
 40
6.0
 40
7.0
 40
7.0
 40
7.0
 40
8.0
 40
8.0
 40
8.0
 40
8.0
 10
91.97164711242375
 20
-136.5119086030248
 10
91.84693465585771
 20
-136.7385958859543
 10
91.64643009861618
 20
-136.7592664588657
 10
91.51207137469143
 20
-136.7592664588657
 10
91.32655298281072
 20
-136.7592664588657
 10
91.1627386924871
 20
-136.7089680647811
 10
91.05284014650763
 20
-136.5119086030248
 10
90.9331230783952
 20
-136.3017577784246
 10
90.9110744672896
 20
-136.045442674322
 10
90.9110744672896
 20
-135.8690537854772
 10
90.9110744672896
 20
-135.7136799790924
 10
90.93053925678126
 20
-135.4415174357577
 10
91.05284014650763
 20
-135.2261989679296
 10
91.17738034829941
 20
-135.0067463855192
 10
91.36324324972864
 20
-134.9815971884768
 10
91.51207137469143
 20
-134.9815971884768
 10
91.69535045450672
 20
-134.9815971884768
 10
91.86174856644429
 20
-135.0298285252703
 10
91.97164711242375
 20
-135.2261989679296
 10
92.08671330163111
 20
-135.4346272447872
 10
92.11358504641605
 20
-135.6816405910796
 10
92.11358504641605
 20
-135.8690537854772
 10
92.11358504641605
 20
-136.0543999225836
 10
92.08878035892225
 20
-136.3038248357157
 10
91.97164711242375
 20
-136.5119086030248
 97
        0
 97
        0
 92
        1
 93
        1
 72
     4
 94
        3
 73
     0
 74
     1
 95
       17
 96
       13
 40
0.0
 40
0.0
 40
0.0
 40
0.0
 40
1.0
 40
1.0
 40
1.0
 40
2.0
 40
2.0
 40
2.0
 40
3.0
 40
3.0
 40
3.0
 40
4.0
 40
4.0
 40
4.0
 40
4.0
 10
91.51207137469143
 20
-135.1896809557859
 10
91.22388913735028
 20
-135.1896809557859
 10
91.17014564778039
 20
-135.4962944539731
 10
91.17014564778039
 20
-135.8690537854772
 10
91.17014564778039
 20
-136.2149413721963
 10
91.21165904837764
 20
-136.548771124717
 10
91.51207137469143
 20
-136.548771124717
 10
91.79801429996716
 20
-136.548771124717
 10
91.85451386592527
 20
-136.2445691933694
 10
91.85451386592527
 20
-135.8690537854772
 10
91.85451386592527
 20
-135.5238552178552
 10
91.81041664371406
 20
-135.1896809557859
 10
91.51207137469143
 20
-135.1896809557859
 97
        0
 97
        0
 75
     2
 76
     1
 98
        0
  0
SPLINE
  5
11C
330
107
100
AcDbEntity
  8
_U+30EC_U+30A4_U+30E4_U+30FC 1
370
     0
100
AcDbSpline
210
0.0
220
0.0
230
1.0
 70
    11
 71
     3
 72
    17
 73
    13
 74
     0
 42
0.0000000001
 43
0.0000000001
 12
1.0
 22
0.0
 32
0.0
 13
1.0
 23
0.0
 33
0.0
 40
0.0
 40
0.0
 40
0.0
 40
0.0
 40
1.0
 40
1.0
 40
1.0
 40
2.0
 40
2.0
 40
2.0
 40
3.0
 40
3.0
 40
3.0
 40
4.0
 40
4.0
 40
4.0
 40
4.0
 10
92.90251191253826
 20
-135.8349473401732
 30
0.0
 10
92.90251191253826
 20
-135.9586262680937
 30
0.0
 10
92.79502493339847
 20
-136.0568114894233
 30
0.0
 10
92.66548934315307
 20
-136.0568114894233
 30
0.0
 10
92.53388669561653
 20
-136.0568114894233
 30
0.0
 10
92.4284667737679
 20
-135.956214701254
 30
0.0
 10
92.4284667737679
 20
-135.8349473401732
 30
0.0
 10
92.4284667737679
 20
-135.7112684122527
 30
0.0
 10
92.53595375290769
 20
-135.6130831909231
 30
0.0
 10
92.66548934315307
 20
-135.6130831909231
 30
0.0
 10
92.7926133665588
 20
-135.6130831909231
 30
0.0
 10
92.90251191253826
 20
-135.7092013549616
 30
0.0
 10
92.90251191253826
 20
-135.8349473401732
 30
0.0
  0
HATCH
  5
11D
330
107
100
AcDbEntity
  8
_U+30EC_U+30A4_U+30E4_U+30FC 1
 62
   179
420
  2234388
100
AcDbHatch
 10
0.0
 20
0.0
 30
0.0
210
0.0
220
0.0
230
1.0
  2
SOLID
 70
     1
 71
     0
 91
        1
 92
        1
 93
        1
 72
     4
 94
        3
 73
     0
 74
     1
 95
       17
 96
       13
 40
0.0
 40
0.0
 40
0.0
 40
0.0
 40
1.0
 40
1.0
 40
1.0
 40
2.0
 40
2.0
 40
2.0
 40
3.0
 40
3.0
 40
3.0
 40
4.0
 40
4.0
 40
4.0
 40
4.0
 10
92.90251191253826
 20
-135.8349473401732
 10
92.90251191253826
 20
-135.9586262680937
 10
92.79502493339847
 20
-136.0568114894233
 10
92.66548934315307
 20
-136.0568114894233
 10
92.53388669561653
 20
-136.0568114894233
 10
92.4284667737679
 20
-135.956214701254
 10
92.4284667737679
 20
-135.8349473401732
 10
92.4284667737679
 20
-135.7112684122527
 10
92.53595375290769
 20
-135.6130831909231
 10
92.66548934315307
 20
-135.6130831909231
 10
92.7926133665588
 20
-135.6130831909231
 10
92.90251191253826
 20
-135.7092013549616
 10
92.90251191253826
 20
-135.8349473401732
 97
        0
 97
        0
 75
     2
 76
     1
 98
        0
  0
SPLINE
  5
11E
330
107
100
AcDbEntity
  8
_U+30EC_U+30A4_U+30E4_U+30FC 1
370
     0
100
AcDbSpline
210
0.0
220
0.0
230
1.0
 70
    11
 71
     3
 72
    26
 73
    22
 74
     0
 42
0.0000000001
 43
0.0000000001
 12
1.0
 22
0.0
 32
0.0
 13
1.0
 23
0.0
 33
0.0
 40
0.0
 40
0.0
 40
0.0
 40
0.0
 40
1.0
 40
1.0
 40
1.0
 40
2.0
 40
2.0
 40
2.0
 40
3.0
 40
3.0
 40
3.0
 40
4.0
 40
4.0
 40
4.0
 40
5.0
 40
5.0
 40
5.0
 40
6.0
 40
6.0
 40
6.0
 40
7.0
 40
7.0
 40
7.0
 40
7.0
 10
93.76240774565663
 20
-136.7041449311018
 30
0.0
 10
93.76240774565663
 20
-136.7041449311018
 30
0.0
 10
93.76240774565663
 20
-135.5100748359142
 30
0.0
 10
93.76240774565663
 20
-135.5100748359142
 30
0.0
 10
93.76240774565663
 20
-135.5100748359142
 30
0.0
 10
93.38138018498799
 20
-135.5100748359142
 30
0.0
 10
93.38138018498799
 20
-135.5100748359142
 30
0.0
 10
93.38138018498799
 20
-135.5100748359142
 30
0.0
 10
93.38138018498799
 20
-135.34987789585
 30
0.0
 10
93.38138018498799
 20
-135.34987789585
 30
0.0
 10
93.7648193124963
 20
-135.3340304566179
 30
0.0
 10
93.8185628020662
 20
-135.1579860773216
 30
0.0
 10
93.85266924737017
 20
-135.0343071494011
 30
0.0
 10
93.85266924737017
 20
-135.0343071494011
 30
0.0
 10
94.02147892614741
 20
-135.0343071494011
 30
0.0
 10
94.02147892614741
 20
-135.0343071494011
 30
0.0
 10
94.02147892614741
 20
-135.0343071494011
 30
0.0
 10
94.02147892614741
 20
-136.7041449311018
 30
0.0
 10
94.02147892614741
 20
-136.7041449311018
 30
0.0
 10
94.02147892614741
 20
-136.7041449311018
 30
0.0
 10
93.76240774565663
 20
-136.7041449311018
 30
0.0
 10
93.76240774565663
 20
-136.7041449311018
 30
0.0
  0
HATCH
  5
11F
330
107
100
AcDbEntity
  8
_U+30EC_U+30A4_U+30E4_U+30FC 1
 62
   179
420
  2234388
100
AcDbHatch
 10
0.0
 20
0.0
 30
0.0
210
0.0
220
0.0
230
1.0
  2
SOLID
 70
     1
 71
     0
 91
        1
 92
        1
 93
        1
 72
     4
 94
        3
 73
     0
 74
     1
 95
       26
 96
       22
 40
0.0
 40
0.0
 40
0.0
 40
0.0
 40
1.0
 40
1.0
 40
1.0
 40
2.0
 40
2.0
 40
2.0
 40
3.0
 40
3.0
 40
3.0
 40
4.0
 40
4.0
 40
4.0
 40
5.0
 40
5.0
 40
5.0
 40
6.0
 40
6.0
 40
6.0
 40
7.0
 40
7.0
 40
7.0
 40
7.0
 10
93.76240774565663
 20
-136.7041449311018
 10
93.76240774565663
 20
-136.7041449311018
 10
93.76240774565663
 20
-135.5100748359142
 10
93.76240774565663
 20
-135.5100748359142
 10
93.76240774565663
 20
-135.5100748359142
 10
93.38138018498799
 20
-135.5100748359142
 10
93.38138018498799
 20
-135.5100748359142
 10
93.38138018498799
 20
-135.5100748359142
 10
93.38138018498799
 20
-135.34987789585
 10
93.38138018498799
 20
-135.34987789585
 10
93.7648193124963
 20
-135.3340304566179
 10
93.8185628020662
 20
-135.1579860773216
 10
93.85266924737017
 20
-135.0343071494011
 10
93.85266924737017
 20
-135.0343071494011
 10
94.02147892614741
 20
-135.0343071494011
 10
94.02147892614741
 20
-135.0343071494011
 10
94.02147892614741
 20
-135.0343071494011
 10
94.02147892614741
 20
-136.7041449311018
 10
94.02147892614741
 20
-136.7041449311018
 10
94.02147892614741
 20
-136.7041449311018
 10
93.76240774565663
 20
-136.7041449311018
 10
93.76240774565663
 20
-136.7041449311018
 97
        0
 97
        0
 75
     2
 76
     1
 98
        0
  0
SPLINE
  5
120
330
107
100
AcDbEntity
  8
_U+30EC_U+30A4_U+30E4_U+30FC 1
370
     0
100
AcDbSpline
210
0.0
220
0.0
230
1.0
 70
    11
 71
     3
 72
    53
 73
    49
 74
     0
 42
0.0000000001
 43
0.0000000001
 12
1.0
 22
0.0
 32
0.0
 13
1.0
 23
0.0
 33
0.0
 40
0.0
 40
0.0
 40
0.0
 40
0.0
 40
1.0
 40
1.0
 40
1.0
 40
2.0
 40
2.0
 40
2.0
 40
3.0
 40
3.0
 40
3.0
 40
4.0
 40
4.0
 40
4.0
 40
5.0
 40
5.0
 40
5.0
 40
6.0
 40
6.0
 40
6.0
 40
7.0
 40
7.0
 40
7.0
 40
8.0
 40
8.0
 40
8.0
 40
9.0
 40
9.0
 40
9.0
 40
10.0
 40
10.0
 40
10.0
 40
11.0
 40
11.0
 40
11.0
 40
12.0
 40
12.0
 40
12.0
 40
13.0
 40
13.0
 40
13.0
 40
14.0
 40
14.0
 40
14.0
 40
15.0
 40
15.0
 40
15.0
 40
16.0
 40
16.0
 40
16.0
 40
16.0
 10
95.1549153407946
 20
-136.7592664588657
 30
0.0
 10
95.06465383908106
 20
-136.7592664588657
 30
0.0
 10
94.94717608303404
 20
-136.7410074527939
 30
0.0
 10
94.83004283653555
 20
-136.6724500526375
 30
0.0
 10
94.62953827929401
 20
-136.5532497488478
 30
0.0
 10
94.60507810134874
 20
-136.4113118148555
 30
0.0
 10
94.58302949024313
 20
-136.2948675874541
 30
0.0
 10
94.58302949024313
 20
-136.2948675874541
 30
0.0
 10
94.83968910389424
 20
-136.2948675874541
 30
0.0
 10
94.83968910389424
 20
-136.2948675874541
 30
0.0
 10
94.90342337037137
 20
-136.5098415457337
 30
0.0
 10
95.04983992849449
 20
-136.5418809337465
 30
0.0
 10
95.15767141718281
 20
-136.5418809337465
 30
0.0
 10
95.3189018858925
 20
-136.5418809337465
 30
0.0
 10
95.49460175564025
 20
-136.4343939546067
 30
0.0
 10
95.49460175564025
 20
-136.1825574746349
 30
0.0
 10
95.49460175564025
 20
-135.9059163071693
 30
0.0
 10
95.28720700742821
 20
-135.8304687160424
 30
0.0
 10
95.14768064027558
 20
-135.8304687160424
 30
0.0
 10
95.11081811858341
 20
-135.8304687160424
 30
0.0
 10
94.94717608303404
 20
-135.8304687160424
 30
0.0
 10
94.84485674712212
 20
-135.969995083195
 30
0.0
 10
94.84485674712212
 20
-135.969995083195
 30
0.0
 10
94.64159611349238
 20
-135.9493245102835
 30
0.0
 10
94.64159611349238
 20
-135.9493245102835
 30
0.0
 10
94.64159611349238
 20
-135.9493245102835
 30
0.0
 10
94.781122480645
 20
-135.0343071494011
 30
0.0
 10
94.781122480645
 20
-135.0343071494011
 30
0.0
 10
94.781122480645
 20
-135.0343071494011
 30
0.0
 10
95.68063691184373
 20
-135.0343071494011
 30
0.0
 10
95.68063691184373
 20
-135.0343071494011
 30
0.0
 10
95.68063691184373
 20
-135.0343071494011
 30
0.0
 10
95.68063691184373
 20
-135.2448024835499
 30
0.0
 10
95.68063691184373
 20
-135.2448024835499
 30
0.0
 10
95.68063691184373
 20
-135.2448024835499
 30
0.0
 10
94.96922469413964
 20
-135.2448024835499
 30
0.0
 10
94.96922469413964
 20
-135.2448024835499
 30
0.0
 10
94.96922469413964
 20
-135.2448024835499
 30
0.0
 10
94.89343259346414
 20
-135.7023111639911
 30
0.0
 10
94.89343259346414
 20
-135.7023111639911
 30
0.0
 10
94.96440156046029
 20
-135.6657931518475
 30
0.0
 10
95.05983070540171
 20
-135.6223849487333
 30
0.0
 10
95.19660099616613
 20
-135.6223849487333
 30
0.0
 10
95.4897786219609
 20
-135.6223849487333
 30
0.0
 10
95.76331920348973
 20
-135.8235785250719
 30
0.0
 10
95.76331920348973
 20
-136.1618869017234
 30
0.0
 10
95.76331920348973
 20
-136.5053629216028
 30
0.0
 10
95.50424802299894
 20
-136.7592664588657
 30
0.0
 10
95.1549153407946
 20
-136.7592664588657
 30
0.0
  0
HATCH
  5
121
330
107
100
AcDbEntity
  8
_U+30EC_U+30A4_U+30E4_U+30FC 1
 62
   179
420
  2234388
100
AcDbHatch
 10
0.0
 20
0.0
 30
0.0
210
0.0
220
0.0
230
1.0
  2
SOLID
 70
     1
 71
     0
 91
        1
 92
        1
 93
        1
 72
     4
 94
        3
 73
     0
 74
     1
 95
       53
 96
       49
 40
0.0
 40
0.0
 40
0.0
 40
0.0
 40
1.0
 40
1.0
 40
1.0
 40
2.0
 40
2.0
 40
2.0
 40
3.0
 40
3.0
 40
3.0
 40
4.0
 40
4.0
 40
4.0
 40
5.0
 40
5.0
 40
5.0
 40
6.0
 40
6.0
 40
6.0
 40
7.0
 40
7.0
 40
7.0
 40
8.0
 40
8.0
 40
8.0
 40
9.0
 40
9.0
 40
9.0
 40
10.0
 40
10.0
 40
10.0
 40
11.0
 40
11.0
 40
11.0
 40
12.0
 40
12.0
 40
12.0
 40
13.0
 40
13.0
 40
13.0
 40
14.0
 40
14.0
 40
14.0
 40
15.0
 40
15.0
 40
15.0
 40
16.0
 40
16.0
 40
16.0
 40
16.0
 10
95.1549153407946
 20
-136.7592664588657
 10
95.06465383908106
 20
-136.7592664588657
 10
94.94717608303404
 20
-136.7410074527939
 10
94.83004283653555
 20
-136.6724500526375
 10
94.62953827929401
 20
-136.5532497488478
 10
94.60507810134874
 20
-136.4113118148555
 10
94.58302949024313
 20
-136.2948675874541
 10
94.58302949024313
 20
-136.2948675874541
 10
94.83968910389424
 20
-136.2948675874541
 10
94.83968910389424
 20
-136.2948675874541
 10
94.90342337037137
 20
-136.5098415457337
 10
95.04983992849449
 20
-136.5418809337465
 10
95.15767141718281
 20
-136.5418809337465
 10
95.3189018858925
 20
-136.5418809337465
 10
95.49460175564025
 20
-136.4343939546067
 10
95.49460175564025
 20
-136.1825574746349
 10
95.49460175564025
 20
-135.9059163071693
 10
95.28720700742821
 20
-135.8304687160424
 10
95.14768064027558
 20
-135.8304687160424
 10
95.11081811858341
 20
-135.8304687160424
 10
94.94717608303404
 20
-135.8304687160424
 10
94.84485674712212
 20
-135.969995083195
 10
94.84485674712212
 20
-135.969995083195
 10
94.64159611349238
 20
-135.9493245102835
 10
94.64159611349238
 20
-135.9493245102835
 10
94.64159611349238
 20
-135.9493245102835
 10
94.781122480645
 20
-135.0343071494011
 10
94.781122480645
 20
-135.0343071494011
 10
94.781122480645
 20
-135.0343071494011
 10
95.68063691184373
 20
-135.0343071494011
 10
95.68063691184373
 20
-135.0343071494011
 10
95.68063691184373
 20
-135.0343071494011
 10
95.68063691184373
 20
-135.2448024835499
 10
95.68063691184373
 20
-135.2448024835499
 10
95.68063691184373
 20
-135.2448024835499
 10
94.96922469413964
 20
-135.2448024835499
 10
94.96922469413964
 20
-135.2448024835499
 10
94.96922469413964
 20
-135.2448024835499
 10
94.89343259346414
 20
-135.7023111639911
 10
94.89343259346414
 20
-135.7023111639911
 10
94.96440156046029
 20
-135.6657931518475
 10
95.05983070540171
 20
-135.6223849487333
 10
95.19660099616613
 20
-135.6223849487333
 10
95.4897786219609
 20
-135.6223849487333
 10
95.76331920348973
 20
-135.8235785250719
 10
95.76331920348973
 20
-136.1618869017234
 10
95.76331920348973
 20
-136.5053629216028
 10
95.50424802299894
 20
-136.7592664588657
 10
95.1549153407946
 20
-136.7592664588657
 97
        0
 97
        0
 75
     2
 76
     1
 98
        0
  0
SPLINE
  5
122
330
107
100
AcDbEntity
  8
_U+30EC_U+30A4_U+30E4_U+30FC 1
370
     0
100
AcDbSpline
210
0.0
220
0.0
230
1.0
 70
    11
 71
     3
 72
    29
 73
    25
 74
     0
 42
0.0000000001
 43
0.0000000001
 12
1.0
 22
0.0
 32
0.0
 13
1.0
 23
0.0
 33
0.0
 40
0.0
 40
0.0
 40
0.0
 40
0.0
 40
1.0
 40
1.0
 40
1.0
 40
2.0
 40
2.0
 40
2.0
 40
3.0
 40
3.0
 40
3.0
 40
4.0
 40
4.0
 40
4.0
 40
5.0
 40
5.0
 40
5.0
 40
6.0
 40
6.0
 40
6.0
 40
7.0
 40
7.0
 40
7.0
 40
8.0
 40
8.0
 40
8.0
 40
8.0
 10
96.99459632991802
 20
-136.5119086030248
 30
0.0
 10
96.8702283829005
 20
-136.7385958859543
 30
0.0
 10
96.66972382565896
 20
-136.7592664588657
 30
0.0
 10
96.53536510173421
 20
-136.7592664588657
 30
0.0
 10
96.34967445507925
 20
-136.7592664588657
 30
0.0
 10
96.18568790998135
 20
-136.7089680647811
 30
0.0
 10
96.07613387355042
 20
-136.5119086030248
 30
0.0
 10
95.95624455066373
 20
-136.3017577784246
 30
0.0
 10
95.93419593955812
 20
-136.045442674322
 30
0.0
 10
95.93419593955812
 20
-135.8690537854772
 30
0.0
 10
95.93419593955812
 20
-135.7136799790924
 30
0.0
 10
95.95383298382404
 20
-135.4415174357577
 30
0.0
 10
96.07613387355042
 20
-135.2261989679296
 30
0.0
 10
96.20050182056794
 20
-135.0067463855192
 30
0.0
 10
96.3861924672229
 20
-134.9815971884768
 30
0.0
 10
96.53536510173421
 20
-134.9815971884768
 30
0.0
 10
96.71864418154951
 20
-134.9815971884768
 30
0.0
 10
96.88504229348707
 20
-135.0298285252703
 30
0.0
 10
96.99459632991802
 20
-135.2261989679296
 30
0.0
 10
97.10966251912537
 20
-135.4346272447872
 30
0.0
 10
97.13653426391032
 20
-135.6816405910796
 30
0.0
 10
97.13653426391032
 20
-135.8690537854772
 30
0.0
 10
97.13653426391032
 20
-136.0543999225836
 30
0.0
 10
97.11207408596505
 20
-136.3038248357157
 30
0.0
 10
96.99459632991802
 20
-136.5119086030248
 30
0.0
  0
SPLINE
  5
123
330
107
100
AcDbEntity
  8
_U+30EC_U+30A4_U+30E4_U+30FC 1
370
     0
100
AcDbSpline
210
0.0
220
0.0
230
1.0
 70
    11
 71
     3
 72
    17
 73
    13
 74
     0
 42
0.0000000001
 43
0.0000000001
 12
1.0
 22
0.0
 32
0.0
 13
1.0
 23
0.0
 33
0.0
 40
0.0
 40
0.0
 40
0.0
 40
0.0
 40
1.0
 40
1.0
 40
1.0
 40
2.0
 40
2.0
 40
2.0
 40
3.0
 40
3.0
 40
3.0
 40
4.0
 40
4.0
 40
4.0
 40
4.0
 10
96.53536510173421
 20
-135.1896809557859
 30
0.0
 10
96.24701060961881
 20
-135.1896809557859
 30
0.0
 10
96.19326712004892
 20
-135.4962944539731
 30
0.0
 10
96.19326712004892
 20
-135.8690537854772
 30
0.0
 10
96.19326712004892
 20
-136.2149413721963
 30
0.0
 10
96.23460826587191
 20
-136.548771124717
 30
0.0
 10
96.53536510173421
 20
-136.548771124717
 30
0.0
 10
96.82130802700995
 20
-136.548771124717
 30
0.0
 10
96.87746308341953
 20
-136.2445691933694
 30
0.0
 10
96.87746308341953
 20
-135.8690537854772
 30
0.0
 10
96.87746308341953
 20
-135.5238552178552
 30
0.0
 10
96.83336586120834
 20
-135.1896809557859
 30
0.0
 10
96.53536510173421
 20
-135.1896809557859
 30
0.0
  0
HATCH
  5
124
330
107
100
AcDbEntity
  8
_U+30EC_U+30A4_U+30E4_U+30FC 1
 62
   179
420
  2234388
100
AcDbHatch
 10
0.0
 20
0.0
 30
0.0
210
0.0
220
0.0
230
1.0
  2
SOLID
 70
     1
 71
     0
 91
        2
 92
        1
 93
        1
 72
     4
 94
        3
 73
     0
 74
     1
 95
       29
 96
       25
 40
0.0
 40
0.0
 40
0.0
 40
0.0
 40
1.0
 40
1.0
 40
1.0
 40
2.0
 40
2.0
 40
2.0
 40
3.0
 40
3.0
 40
3.0
 40
4.0
 40
4.0
 40
4.0
 40
5.0
 40
5.0
 40
5.0
 40
6.0
 40
6.0
 40
6.0
 40
7.0
 40
7.0
 40
7.0
 40
8.0
 40
8.0
 40
8.0
 40
8.0
 10
96.99459632991802
 20
-136.5119086030248
 10
96.8702283829005
 20
-136.7385958859543
 10
96.66972382565896
 20
-136.7592664588657
 10
96.53536510173421
 20
-136.7592664588657
 10
96.34967445507925
 20
-136.7592664588657
 10
96.18568790998135
 20
-136.7089680647811
 10
96.07613387355042
 20
-136.5119086030248
 10
95.95624455066373
 20
-136.3017577784246
 10
95.93419593955812
 20
-136.045442674322
 10
95.93419593955812
 20
-135.8690537854772
 10
95.93419593955812
 20
-135.7136799790924
 10
95.95383298382404
 20
-135.4415174357577
 10
96.07613387355042
 20
-135.2261989679296
 10
96.20050182056794
 20
-135.0067463855192
 10
96.3861924672229
 20
-134.9815971884768
 10
96.53536510173421
 20
-134.9815971884768
 10
96.71864418154951
 20
-134.9815971884768
 10
96.88504229348707
 20
-135.0298285252703
 10
96.99459632991802
 20
-135.2261989679296
 10
97.10966251912537
 20
-135.4346272447872
 10
97.13653426391032
 20
-135.6816405910796
 10
97.13653426391032
 20
-135.8690537854772
 10
97.13653426391032
 20
-136.0543999225836
 10
97.11207408596505
 20
-136.3038248357157
 10
96.99459632991802
 20
-136.5119086030248
 97
        0
 97
        0
 92
        1
 93
        1
 72
     4
 94
        3
 73
     0
 74
     1
 95
       17
 96
       13
 40
0.0
 40
0.0
 40
0.0
 40
0.0
 40
1.0
 40
1.0
 40
1.0
 40
2.0
 40
2.0
 40
2.0
 40
3.0
 40
3.0
 40
3.0
 40
4.0
 40
4.0
 40
4.0
 40
4.0
 10
96.53536510173421
 20
-135.1896809557859
 10
96.24701060961881
 20
-135.1896809557859
 10
96.19326712004892
 20
-135.4962944539731
 10
96.19326712004892
 20
-135.8690537854772
 10
96.19326712004892
 20
-136.2149413721963
 10
96.23460826587191
 20
-136.548771124717
 10
96.53536510173421
 20
-136.548771124717
 10
96.82130802700995
 20
-136.548771124717
 10
96.87746308341953
 20
-136.2445691933694
 10
96.87746308341953
 20
-135.8690537854772
 10
96.87746308341953
 20
-135.5238552178552
 10
96.83336586120834
 20
-135.1896809557859
 10
96.53536510173421
 20
-135.1896809557859
 97
        0
 97
        0
 75
     2
 76
     1
 98
        0
  0
SPLINE
  5
125
330
107
100
AcDbEntity
  8
_U+30EC_U+30A4_U+30E4_U+30FC 1
370
     0
100
AcDbSpline
210
0.0
220
0.0
230
1.0
 70
    11
 71
     3
 72
    17
 73
    13
 74
     0
 42
0.0000000001
 43
0.0000000001
 12
1.0
 22
0.0
 32
0.0
 13
1.0
 23
0.0
 33
0.0
 40
0.0
 40
0.0
 40
0.0
 40
0.0
 40
1.0
 40
1.0
 40
1.0
 40
2.0
 40
2.0
 40
2.0
 40
3.0
 40
3.0
 40
3.0
 40
4.0
 40
4.0
 40
4.0
 40
4.0
 10
97.92580563958106
 20
-135.8349473401732
 30
0.0
 10
97.92580563958106
 20
-135.9586262680937
 30
0.0
 10
97.81831866044126
 20
-136.0568114894233
 30
0.0
 10
97.68878307019587
 20
-136.0568114894233
 30
0.0
 10
97.5568359131108
 20
-136.0568114894233
 30
0.0
 10
97.45176050081068
 20
-135.956214701254
 30
0.0
 10
97.45176050081068
 20
-135.8349473401732
 30
0.0
 10
97.45176050081068
 20
-135.7112684122527
 30
0.0
 10
97.55924747995047
 20
-135.6130831909231
 30
0.0
 10
97.68878307019587
 20
-135.6130831909231
 30
0.0
 10
97.81590709360158
 20
-135.6130831909231
 30
0.0
 10
97.92580563958106
 20
-135.7092013549616
 30
0.0
 10
97.92580563958106
 20
-135.8349473401732
 30
0.0
  0
HATCH
  5
126
330
107
100
AcDbEntity
  8
_U+30EC_U+30A4_U+30E4_U+30FC 1
 62
   179
420
  2234388
100
AcDbHatch
 10
0.0
 20
0.0
 30
0.0
210
0.0
220
0.0
230
1.0
  2
SOLID
 70
     1
 71
     0
 91
        1
 92
        1
 93
        1
 72
     4
 94
        3
 73
     0
 74
     1
 95
       17
 96
       13
 40
0.0
 40
0.0
 40
0.0
 40
0.0
 40
1.0
 40
1.0
 40
1.0
 40
2.0
 40
2.0
 40
2.0
 40
3.0
 40
3.0
 40
3.0
 40
4.0
 40
4.0
 40
4.0
 40
4.0
 10
97.92580563958106
 20
-135.8349473401732
 10
97.92580563958106
 20
-135.9586262680937
 10
97.81831866044126
 20
-136.0568114894233
 10
97.68878307019587
 20
-136.0568114894233
 10
97.5568359131108
 20
-136.0568114894233
 10
97.45176050081068
 20
-135.956214701254
 10
97.45176050081068
 20
-135.8349473401732
 10
97.45176050081068
 20
-135.7112684122527
 10
97.55924747995047
 20
-135.6130831909231
 10
97.68878307019587
 20
-135.6130831909231
 10
97.81590709360158
 20
-135.6130831909231
 10
97.92580563958106
 20
-135.7092013549616
 10
97.92580563958106
 20
-135.8349473401732
 97
        0
 97
        0
 75
     2
 76
     1
 98
        0
  0
SPLINE
  5
127
330
107
100
AcDbEntity
  8
_U+30EC_U+30A4_U+30E4_U+30FC 1
370
     0
100
AcDbSpline
210
0.0
220
0.0
230
1.0
 70
    11
 71
     3
 72
    44
 73
    40
 74
     0
 42
0.0000000001
 43
0.0000000001
 12
1.0
 22
0.0
 32
0.0
 13
1.0
 23
0.0
 33
0.0
 40
0.0
 40
0.0
 40
0.0
 40
0.0
 40
1.0
 40
1.0
 40
1.0
 40
2.0
 40
2.0
 40
2.0
 40
3.0
 40
3.0
 40
3.0
 40
4.0
 40
4.0
 40
4.0
 40
5.0
 40
5.0
 40
5.0
 40
6.0
 40
6.0
 40
6.0
 40
7.0
 40
7.0
 40
7.0
 40
8.0
 40
8.0
 40
8.0
 40
9.0
 40
9.0
 40
9.0
 40
10.0
 40
10.0
 40
10.0
 40
11.0
 40
11.0
 40
11.0
 40
12.0
 40
12.0
 40
12.0
 40
13.0
 40
13.0
 40
13.0
 40
13.0
 10
98.94934350824877
 20
-136.0750704954951
 30
0.0
 10
98.69750702827702
 20
-136.2466362506606
 30
0.0
 10
98.59002004913722
 20
-136.3269069754669
 30
0.0
 10
98.53386499272764
 20
-136.4822807818517
 30
0.0
 10
98.53386499272764
 20
-136.4822807818517
 30
0.0
 10
99.43303491437786
 20
-136.4822807818517
 30
0.0
 10
99.43303491437786
 20
-136.4822807818517
 30
0.0
 10
99.43303491437786
 20
-136.4822807818517
 30
0.0
 10
99.43303491437786
 20
-136.7041449311018
 30
0.0
 10
99.43303491437786
 20
-136.7041449311018
 30
0.0
 10
99.43303491437786
 20
-136.7041449311018
 30
0.0
 10
98.24516599106371
 20
-136.7041449311018
 30
0.0
 10
98.24516599106371
 20
-136.7041449311018
 30
0.0
 10
98.28202851275589
 20
-136.3176052176567
 30
0.0
 10
98.35782061343139
 20
-136.2328558687196
 30
0.0
 10
98.80258244057714
 20
-135.9103949313002
 30
0.0
 10
99.09817163321158
 20
-135.6954209730206
 30
0.0
 10
99.17396373388706
 20
-135.6223849487333
 30
0.0
 10
99.17396373388706
 20
-135.4735568237705
 30
0.0
 10
99.17396373388706
 20
-135.3453992717192
 30
0.0
 10
99.09093693269254
 20
-135.2034613377269
 30
0.0
 10
98.86390514021458
 20
-135.2034613377269
 30
0.0
 10
98.56314830435227
 20
-135.2034613377269
 30
0.0
 10
98.55315752744505
 20
-135.452886250859
 30
0.0
 10
98.5483343937657
 20
-135.5789767456191
 30
0.0
 10
98.5483343937657
 20
-135.5789767456191
 30
0.0
 10
98.28926321327491
 20
-135.5789767456191
 30
0.0
 10
98.28926321327491
 20
-135.5789767456191
 30
0.0
 10
98.29925399018214
 20
-135.4415174357577
 30
0.0
 10
98.31131182438051
 20
-135.3202500746769
 30
0.0
 10
98.40432940248226
 20
-135.1920925226256
 30
0.0
 10
98.53110891633945
 20
-135.0181152006205
 30
0.0
 10
98.74642738416756
 20
-134.9815971884768
 30
0.0
 10
98.88078610809231
 20
-134.9815971884768
 30
0.0
 10
99.20083547867202
 20
-134.9815971884768
 30
0.0
 10
99.4406141244454
 20
-135.1807237075243
 30
0.0
 10
99.4406141244454
 20
-135.4756238810617
 30
0.0
 10
99.4406141244454
 20
-135.7229817369026
 30
0.0
 10
99.30625540052067
 20
-135.8304687160424
 30
0.0
 10
98.94934350824877
 20
-136.0750704954951
 30
0.0
  0
HATCH
  5
128
330
107
100
AcDbEntity
  8
_U+30EC_U+30A4_U+30E4_U+30FC 1
 62
   179
420
  2234388
100
AcDbHatch
 10
0.0
 20
0.0
 30
0.0
210
0.0
220
0.0
230
1.0
  2
SOLID
 70
     1
 71
     0
 91
        1
 92
        1
 93
        1
 72
     4
 94
        3
 73
     0
 74
     1
 95
       44
 96
       40
 40
0.0
 40
0.0
 40
0.0
 40
0.0
 40
1.0
 40
1.0
 40
1.0
 40
2.0
 40
2.0
 40
2.0
 40
3.0
 40
3.0
 40
3.0
 40
4.0
 40
4.0
 40
4.0
 40
5.0
 40
5.0
 40
5.0
 40
6.0
 40
6.0
 40
6.0
 40
7.0
 40
7.0
 40
7.0
 40
8.0
 40
8.0
 40
8.0
 40
9.0
 40
9.0
 40
9.0
 40
10.0
 40
10.0
 40
10.0
 40
11.0
 40
11.0
 40
11.0
 40
12.0
 40
12.0
 40
12.0
 40
13.0
 40
13.0
 40
13.0
 40
13.0
 10
98.94934350824877
 20
-136.0750704954951
 10
98.69750702827702
 20
-136.2466362506606
 10
98.59002004913722
 20
-136.3269069754669
 10
98.53386499272764
 20
-136.4822807818517
 10
98.53386499272764
 20
-136.4822807818517
 10
99.43303491437786
 20
-136.4822807818517
 10
99.43303491437786
 20
-136.4822807818517
 10
99.43303491437786
 20
-136.4822807818517
 10
99.43303491437786
 20
-136.7041449311018
 10
99.43303491437786
 20
-136.7041449311018
 10
99.43303491437786
 20
-136.7041449311018
 10
98.24516599106371
 20
-136.7041449311018
 10
98.24516599106371
 20
-136.7041449311018
 10
98.28202851275589
 20
-136.3176052176567
 10
98.35782061343139
 20
-136.2328558687196
 10
98.80258244057714
 20
-135.9103949313002
 10
99.09817163321158
 20
-135.6954209730206
 10
99.17396373388706
 20
-135.6223849487333
 10
99.17396373388706
 20
-135.4735568237705
 10
99.17396373388706
 20
-135.3453992717192
 10
99.09093693269254
 20
-135.2034613377269
 10
98.86390514021458
 20
-135.2034613377269
 10
98.56314830435227
 20
-135.2034613377269
 10
98.55315752744505
 20
-135.452886250859
 10
98.5483343937657
 20
-135.5789767456191
 10
98.5483343937657
 20
-135.5789767456191
 10
98.28926321327491
 20
-135.5789767456191
 10
98.28926321327491
 20
-135.5789767456191
 10
98.29925399018214
 20
-135.4415174357577
 10
98.31131182438051
 20
-135.3202500746769
 10
98.40432940248226
 20
-135.1920925226256
 10
98.53110891633945
 20
-135.0181152006205
 10
98.74642738416756
 20
-134.9815971884768
 10
98.88078610809231
 20
-134.9815971884768
 10
99.20083547867202
 20
-134.9815971884768
 10
99.4406141244454
 20
-135.1807237075243
 10
99.4406141244454
 20
-135.4756238810617
 10
99.4406141244454
 20
-135.7229817369026
 10
99.30625540052067
 20
-135.8304687160424
 10
98.94934350824877
 20
-136.0750704954951
 97
        0
 97
        0
 75
     2
 76
     1
 98
        0
  0
SPLINE
  5
129
330
107
100
AcDbEntity
  8
_U+30EC_U+30A4_U+30E4_U+30FC 1
370
     0
100
AcDbSpline
210
0.0
220
0.0
230
1.0
 70
    11
 71
     3
 72
    29
 73
    25
 74
     0
 42
0.0000000001
 43
0.0000000001
 12
1.0
 22
0.0
 32
0.0
 13
1.0
 23
0.0
 33
0.0
 40
0.0
 40
0.0
 40
0.0
 40
0.0
 40
1.0
 40
1.0
 40
1.0
 40
2.0
 40
2.0
 40
2.0
 40
3.0
 40
3.0
 40
3.0
 40
4.0
 40
4.0
 40
4.0
 40
5.0
 40
5.0
 40
5.0
 40
6.0
 40
6.0
 40
6.0
 40
7.0
 40
7.0
 40
7.0
 40
8.0
 40
8.0
 40
8.0
 40
8.0
 10
100.6594889071268
 20
-136.5119086030248
 30
0.0
 10
100.5347764505608
 20
-136.7385958859543
 30
0.0
 10
100.3342718933192
 20
-136.7592664588657
 30
0.0
 10
100.1999131693945
 20
-136.7592664588657
 30
0.0
 10
100.014567032288
 20
-136.7592664588657
 30
0.0
 10
99.85058048719014
 20
-136.7089680647811
 30
0.0
 10
99.74068194121067
 20
-136.5119086030248
 30
0.0
 10
99.6211371278725
 20
-136.3017577784246
 30
0.0
 10
99.5990885167669
 20
-136.045442674322
 30
0.0
 10
99.5990885167669
 20
-135.8690537854772
 30
0.0
 10
99.5990885167669
 20
-135.7136799790924
 30
0.0
 10
99.61838105148429
 20
-135.4415174357577
 30
0.0
 10
99.74068194121067
 20
-135.2261989679296
 30
0.0
 10
99.86504988822819
 20
-135.0067463855192
 30
0.0
 10
100.0510850444317
 20
-134.9815971884768
 30
0.0
 10
100.1999131693945
 20
-134.9815971884768
 30
0.0
 10
100.3831922492098
 20
-134.9815971884768
 30
0.0
 10
100.5495903611473
 20
-135.0298285252703
 30
0.0
 10
100.6594889071268
 20
-135.2261989679296
 30
0.0
 10
100.7745550963341
 20
-135.4346272447872
 30
0.0
 10
100.8014268411191
 20
-135.6816405910796
 30
0.0
 10
100.8014268411191
 20
-135.8690537854772
 30
0.0
 10
100.8014268411191
 20
-136.0543999225836
 30
0.0
 10
100.7766221536253
 20
-136.3038248357157
 30
0.0
 10
100.6594889071268
 20
-136.5119086030248
 30
0.0
  0
SPLINE
  5
12A
330
107
100
AcDbEntity
  8
_U+30EC_U+30A4_U+30E4_U+30FC 1
370
     0
100
AcDbSpline
210
0.0
220
0.0
230
1.0
 70
    11
 71
     3
 72
    17
 73
    13
 74
     0
 42
0.0000000001
 43
0.0000000001
 12
1.0
 22
0.0
 32
0.0
 13
1.0
 23
0.0
 33
0.0
 40
0.0
 40
0.0
 40
0.0
 40
0.0
 40
1.0
 40
1.0
 40
1.0
 40
2.0
 40
2.0
 40
2.0
 40
3.0
 40
3.0
 40
3.0
 40
4.0
 40
4.0
 40
4.0
 40
4.0
 10
100.1999131693945
 20
-135.1896809557859
 30
0.0
 10
99.91190318682759
 20
-135.1896809557859
 30
0.0
 10
99.85815969725769
 20
-135.4962944539731
 30
0.0
 10
99.85815969725769
 20
-135.8690537854772
 30
0.0
 10
99.85815969725769
 20
-136.2149413721963
 30
0.0
 10
99.89950084308069
 20
-136.548771124717
 30
0.0
 10
100.1999131693945
 20
-136.548771124717
 30
0.0
 10
100.4858560946702
 20
-136.548771124717
 30
0.0
 10
100.5423556606283
 20
-136.2445691933694
 30
0.0
 10
100.5423556606283
 20
-135.8690537854772
 30
0.0
 10
100.5423556606283
 20
-135.5238552178552
 30
0.0
 10
100.4982584384171
 20
-135.1896809557859
 30
0.0
 10
100.1999131693945
 20
-135.1896809557859
 30
0.0
  0
HATCH
  5
12B
330
107
100
AcDbEntity
  8
_U+30EC_U+30A4_U+30E4_U+30FC 1
 62
   179
420
  2234388
100
AcDbHatch
 10
0.0
 20
0.0
 30
0.0
210
0.0
220
0.0
230
1.0
  2
SOLID
 70
     1
 71
     0
 91
        2
 92
        1
 93
        1
 72
     4
 94
        3
 73
     0
 74
     1
 95
       29
 96
       25
 40
0.0
 40
0.0
 40
0.0
 40
0.0
 40
1.0
 40
1.0
 40
1.0
 40
2.0
 40
2.0
 40
2.0
 40
3.0
 40
3.0
 40
3.0
 40
4.0
 40
4.0
 40
4.0
 40
5.0
 40
5.0
 40
5.0
 40
6.0
 40
6.0
 40
6.0
 40
7.0
 40
7.0
 40
7.0
 40
8.0
 40
8.0
 40
8.0
 40
8.0
 10
100.6594889071268
 20
-136.5119086030248
 10
100.5347764505608
 20
-136.7385958859543
 10
100.3342718933192
 20
-136.7592664588657
 10
100.1999131693945
 20
-136.7592664588657
 10
100.014567032288
 20
-136.7592664588657
 10
99.85058048719014
 20
-136.7089680647811
 10
99.74068194121067
 20
-136.5119086030248
 10
99.6211371278725
 20
-136.3017577784246
 10
99.5990885167669
 20
-136.045442674322
 10
99.5990885167669
 20
-135.8690537854772
 10
99.5990885167669
 20
-135.7136799790924
 10
99.61838105148429
 20
-135.4415174357577
 10
99.74068194121067
 20
-135.2261989679296
 10
99.86504988822819
 20
-135.0067463855192
 10
100.0510850444317
 20
-134.9815971884768
 10
100.1999131693945
 20
-134.9815971884768
 10
100.3831922492098
 20
-134.9815971884768
 10
100.5495903611473
 20
-135.0298285252703
 10
100.6594889071268
 20
-135.2261989679296
 10
100.7745550963341
 20
-135.4346272447872
 10
100.8014268411191
 20
-135.6816405910796
 10
100.8014268411191
 20
-135.8690537854772
 10
100.8014268411191
 20
-136.0543999225836
 10
100.7766221536253
 20
-136.3038248357157
 10
100.6594889071268
 20
-136.5119086030248
 97
        0
 97
        0
 92
        1
 93
        1
 72
     4
 94
        3
 73
     0
 74
     1
 95
       17
 96
       13
 40
0.0
 40
0.0
 40
0.0
 40
0.0
 40
1.0
 40
1.0
 40
1.0
 40
2.0
 40
2.0
 40
2.0
 40
3.0
 40
3.0
 40
3.0
 40
4.0
 40
4.0
 40
4.0
 40
4.0
 10
100.1999131693945
 20
-135.1896809557859
 10
99.91190318682759
 20
-135.1896809557859
 10
99.85815969725769
 20
-135.4962944539731
 10
99.85815969725769
 20
-135.8690537854772
 10
99.85815969725769
 20
-136.2149413721963
 10
99.89950084308069
 20
-136.548771124717
 10
100.1999131693945
 20
-136.548771124717
 10
100.4858560946702
 20
-136.548771124717
 10
100.5423556606283
 20
-136.2445691933694
 10
100.5423556606283
 20
-135.8690537854772
 10
100.5423556606283
 20
-135.5238552178552
 10
100.4982584384171
 20
-135.1896809557859
 10
100.1999131693945
 20
-135.1896809557859
 97
        0
 97
        0
 75
     2
 76
     1
 98
        0
  0
SPLINE
  5
12C
330
107
100
AcDbEntity
  8
_U+30EC_U+30A4_U+30E4_U+30FC 1
370
     0
100
AcDbSpline
210
0.0
220
0.0
230
1.0
 70
    11
 71
     3
 72
    29
 73
    25
 74
     0
 42
0.0000000001
 43
0.0000000001
 12
1.0
 22
0.0
 32
0.0
 13
1.0
 23
0.0
 33
0.0
 40
0.0
 40
0.0
 40
0.0
 40
0.0
 40
1.0
 40
1.0
 40
1.0
 40
2.0
 40
2.0
 40
2.0
 40
3.0
 40
3.0
 40
3.0
 40
4.0
 40
4.0
 40
4.0
 40
5.0
 40
5.0
 40
5.0
 40
6.0
 40
6.0
 40
6.0
 40
7.0
 40
7.0
 40
7.0
 40
8.0
 40
8.0
 40
8.0
 40
8.0
 10
102.0178900569608
 20
-136.5119086030248
 30
0.0
 10
101.8935221099433
 20
-136.7385958859543
 30
0.0
 10
101.6930175527017
 20
-136.7592664588657
 30
0.0
 10
101.558658828777
 20
-136.7592664588657
 30
0.0
 10
101.3726236725735
 20
-136.7592664588657
 30
0.0
 10
101.2089816370242
 20
-136.7089680647811
 30
0.0
 10
101.0990830910447
 20
-136.5119086030248
 30
0.0
 10
100.979193768158
 20
-136.3017577784246
 30
0.0
 10
100.9571451570524
 20
-136.045442674322
 30
0.0
 10
100.9571451570524
 20
-135.8690537854772
 30
0.0
 10
100.9571451570524
 20
-135.7136799790924
 30
0.0
 10
100.9767822013183
 20
-135.4415174357577
 30
0.0
 10
101.0990830910447
 20
-135.2261989679296
 30
0.0
 10
101.2237955476107
 20
-135.0067463855192
 30
0.0
 10
101.4094861942657
 20
-134.9815971884768
 30
0.0
 10
101.558658828777
 20
-134.9815971884768
 30
0.0
 10
101.7419379085923
 20
-134.9815971884768
 30
0.0
 10
101.9079915109813
 20
-135.0298285252703
 30
0.0
 10
102.0178900569608
 20
-135.2261989679296
 30
0.0
 10
102.1326117366196
 20
-135.4346272447872
 30
0.0
 10
102.1594834814046
 20
-135.6816405910796
 30
0.0
 10
102.1594834814046
 20
-135.8690537854772
 30
0.0
 10
102.1594834814046
 20
-136.0543999225836
 30
0.0
 10
102.1353678130078
 20
-136.3038248357157
 30
0.0
 10
102.0178900569608
 20
-136.5119086030248
 30
0.0
  0
SPLINE
  5
12D
330
107
100
AcDbEntity
  8
_U+30EC_U+30A4_U+30E4_U+30FC 1
370
     0
100
AcDbSpline
210
0.0
220
0.0
230
1.0
 70
    11
 71
     3
 72
    17
 73
    13
 74
     0
 42
0.0000000001
 43
0.0000000001
 12
1.0
 22
0.0
 32
0.0
 13
1.0
 23
0.0
 33
0.0
 40
0.0
 40
0.0
 40
0.0
 40
0.0
 40
1.0
 40
1.0
 40
1.0
 40
2.0
 40
2.0
 40
2.0
 40
3.0
 40
3.0
 40
3.0
 40
4.0
 40
4.0
 40
4.0
 40
4.0
 10
101.558658828777
 20
-135.1896809557859
 30
0.0
 10
101.2699598271131
 20
-135.1896809557859
 30
0.0
 10
101.2162163375432
 20
-135.4962944539731
 30
0.0
 10
101.2162163375432
 20
-135.8690537854772
 30
0.0
 10
101.2162163375432
 20
-136.2149413721963
 30
0.0
 10
101.2579019929147
 20
-136.548771124717
 30
0.0
 10
101.558658828777
 20
-136.548771124717
 30
0.0
 10
101.8446017540527
 20
-136.548771124717
 30
0.0
 10
101.9004123009138
 20
-136.2445691933694
 30
0.0
 10
101.9004123009138
 20
-135.8690537854772
 30
0.0
 10
101.9004123009138
 20
-135.5238552178552
 30
0.0
 10
101.8566595882511
 20
-135.1896809557859
 30
0.0
 10
101.558658828777
 20
-135.1896809557859
 30
0.0
  0
HATCH
  5
12E
330
107
100
AcDbEntity
  8
_U+30EC_U+30A4_U+30E4_U+30FC 1
 62
   179
420
  2234388
100
AcDbHatch
 10
0.0
 20
0.0
 30
0.0
210
0.0
220
0.0
230
1.0
  2
SOLID
 70
     1
 71
     0
 91
        2
 92
        1
 93
        1
 72
     4
 94
        3
 73
     0
 74
     1
 95
       29
 96
       25
 40
0.0
 40
0.0
 40
0.0
 40
0.0
 40
1.0
 40
1.0
 40
1.0
 40
2.0
 40
2.0
 40
2.0
 40
3.0
 40
3.0
 40
3.0
 40
4.0
 40
4.0
 40
4.0
 40
5.0
 40
5.0
 40
5.0
 40
6.0
 40
6.0
 40
6.0
 40
7.0
 40
7.0
 40
7.0
 40
8.0
 40
8.0
 40
8.0
 40
8.0
 10
102.0178900569608
 20
-136.5119086030248
 10
101.8935221099433
 20
-136.7385958859543
 10
101.6930175527017
 20
-136.7592664588657
 10
101.558658828777
 20
-136.7592664588657
 10
101.3726236725735
 20
-136.7592664588657
 10
101.2089816370242
 20
-136.7089680647811
 10
101.0990830910447
 20
-136.5119086030248
 10
100.979193768158
 20
-136.3017577784246
 10
100.9571451570524
 20
-136.045442674322
 10
100.9571451570524
 20
-135.8690537854772
 10
100.9571451570524
 20
-135.7136799790924
 10
100.9767822013183
 20
-135.4415174357577
 10
101.0990830910447
 20
-135.2261989679296
 10
101.2237955476107
 20
-135.0067463855192
 10
101.4094861942657
 20
-134.9815971884768
 10
101.558658828777
 20
-134.9815971884768
 10
101.7419379085923
 20
-134.9815971884768
 10
101.9079915109813
 20
-135.0298285252703
 10
102.0178900569608
 20
-135.2261989679296
 10
102.1326117366196
 20
-135.4346272447872
 10
102.1594834814046
 20
-135.6816405910796
 10
102.1594834814046
 20
-135.8690537854772
 10
102.1594834814046
 20
-136.0543999225836
 10
102.1353678130078
 20
-136.3038248357157
 10
102.0178900569608
 20
-136.5119086030248
 97
        0
 97
        0
 92
        1
 93
        1
 72
     4
 94
        3
 73
     0
 74
     1
 95
       17
 96
       13
 40
0.0
 40
0.0
 40
0.0
 40
0.0
 40
1.0
 40
1.0
 40
1.0
 40
2.0
 40
2.0
 40
2.0
 40
3.0
 40
3.0
 40
3.0
 40
4.0
 40
4.0
 40
4.0
 40
4.0
 10
101.558658828777
 20
-135.1896809557859
 10
101.2699598271131
 20
-135.1896809557859
 10
101.2162163375432
 20
-135.4962944539731
 10
101.2162163375432
 20
-135.8690537854772
 10
101.2162163375432
 20
-136.2149413721963
 10
101.2579019929147
 20
-136.548771124717
 10
101.558658828777
 20
-136.548771124717
 10
101.8446017540527
 20
-136.548771124717
 10
101.9004123009138
 20
-136.2445691933694
 10
101.9004123009138
 20
-135.8690537854772
 10
101.9004123009138
 20
-135.5238552178552
 10
101.8566595882511
 20
-135.1896809557859
 10
101.558658828777
 20
-135.1896809557859
 97
        0
 97
        0
 75
     2
 76
     1
 98
        0
  0
ENDBLK
  5
10A
330
107
100
AcDbEntity
  8
0
100
AcDbBlockEnd
  0
BLOCK
  5
139
330
137
100
AcDbEntity
  8
0
100
AcDbBlockBegin
  2
block 4
 70
     0
 10
0.0
 20
0.0
 30
0.0
  3
block 4
  1

  0
SPLINE
  5
13B
330
137
100
AcDbEntity
  8
_U+30EC_U+30A4_U+30E4_U+30FC 1
370
     0
100
AcDbSpline
210
0.0
220
0.0
230
1.0
 70
    11
 71
     3
 72
    53
 73
    49
 74
     0
 42
0.0000000001
 43
0.0000000001
 12
1.0
 22
0.0
 32
0.0
 13
1.0
 23
0.0
 33
0.0
 40
0.0
 40
0.0
 40
0.0
 40
0.0
 40
1.0
 40
1.0
 40
1.0
 40
2.0
 40
2.0
 40
2.0
 40
3.0
 40
3.0
 40
3.0
 40
4.0
 40
4.0
 40
4.0
 40
5.0
 40
5.0
 40
5.0
 40
6.0
 40
6.0
 40
6.0
 40
7.0
 40
7.0
 40
7.0
 40
8.0
 40
8.0
 40
8.0
 40
9.0
 40
9.0
 40
9.0
 40
10.0
 40
10.0
 40
10.0
 40
11.0
 40
11.0
 40
11.0
 40
12.0
 40
12.0
 40
12.0
 40
13.0
 40
13.0
 40
13.0
 40
14.0
 40
14.0
 40
14.0
 40
15.0
 40
15.0
 40
15.0
 40
16.0
 40
16.0
 40
16.0
 40
16.0
 10
128.2030273116993
 20
-137.3766275698225
 30
0.0
 10
128.1127658099857
 20
-137.3766275698225
 30
0.0
 10
127.9956325634872
 20
-137.3583685637507
 30
0.0
 10
127.8778102978917
 20
-137.2898111635942
 30
0.0
 10
127.6776502501987
 20
-137.1706108598046
 30
0.0
 10
127.6531900722534
 20
-137.0286729258123
 30
0.0
 10
127.6311414611478
 20
-136.9122286984108
 30
0.0
 10
127.6311414611478
 20
-136.9122286984108
 30
0.0
 10
127.8878010747989
 20
-136.9122286984108
 30
0.0
 10
127.8878010747989
 20
-136.9122286984108
 30
0.0
 10
127.951535341276
 20
-137.1272026566904
 30
0.0
 10
128.0979518993991
 20
-137.1592420447033
 30
0.0
 10
128.2057833880874
 20
-137.1592420447033
 30
0.0
 10
128.3670138567971
 20
-137.1592420447033
 30
0.0
 10
128.5427137265449
 20
-137.0517550655635
 30
0.0
 10
128.5427137265449
 20
-136.7999185855917
 30
0.0
 10
128.5427137265449
 20
-136.5232774181261
 30
0.0
 10
128.3353189783329
 20
-136.4478298269992
 30
0.0
 10
128.1957926111802
 20
-136.4478298269992
 30
0.0
 10
128.1589300894881
 20
-136.4478298269992
 30
0.0
 10
127.9956325634872
 20
-136.4478298269992
 30
0.0
 10
127.8929687180268
 20
-136.5873561941518
 30
0.0
 10
127.8929687180268
 20
-136.5873561941518
 30
0.0
 10
127.689708084397
 20
-136.5666856212403
 30
0.0
 10
127.689708084397
 20
-136.5666856212403
 30
0.0
 10
127.689708084397
 20
-136.5666856212403
 30
0.0
 10
127.8292344515496
 20
-135.6516682603579
 30
0.0
 10
127.8292344515496
 20
-135.6516682603579
 30
0.0
 10
127.8292344515496
 20
-135.6516682603579
 30
0.0
 10
128.7287488827484
 20
-135.6516682603579
 30
0.0
 10
128.7287488827484
 20
-135.6516682603579
 30
0.0
 10
128.7287488827484
 20
-135.6516682603579
 30
0.0
 10
128.7287488827484
 20
-135.8621635945067
 30
0.0
 10
128.7287488827484
 20
-135.8621635945067
 30
0.0
 10
128.7287488827484
 20
-135.8621635945067
 30
0.0
 10
128.0173366650443
 20
-135.8621635945067
 30
0.0
 10
128.0173366650443
 20
-135.8621635945067
 30
0.0
 10
128.0173366650443
 20
-135.8621635945067
 30
0.0
 10
127.9415445643688
 20
-136.3196722749479
 30
0.0
 10
127.9415445643688
 20
-136.3196722749479
 30
0.0
 10
128.0125135313649
 20
-136.2831542628042
 30
0.0
 10
128.1079426763064
 20
-136.2397460596901
 30
0.0
 10
128.2447129670708
 20
-136.2397460596901
 30
0.0
 10
128.5378905928655
 20
-136.2397460596901
 30
0.0
 10
128.8114311743944
 20
-136.4409396360287
 30
0.0
 10
128.8114311743944
 20
-136.7792480126802
 30
0.0
 10
128.8114311743944
 20
-137.1227240325596
 30
0.0
 10
128.5523599939036
 20
-137.3766275698225
 30
0.0
 10
128.2030273116993
 20
-137.3766275698225
 30
0.0
  0
HATCH
  5
13C
330
137
100
AcDbEntity
  8
_U+30EC_U+30A4_U+30E4_U+30FC 1
 62
   179
420
  2234388
100
AcDbHatch
 10
0.0
 20
0.0
 30
0.0
210
0.0
220
0.0
230
1.0
  2
SOLID
 70
     1
 71
     0
 91
        1
 92
        1
 93
        1
 72
     4
 94
        3
 73
     0
 74
     1
 95
       53
 96
       49
 40
0.0
 40
0.0
 40
0.0
 40
0.0
 40
1.0
 40
1.0
 40
1.0
 40
2.0
 40
2.0
 40
2.0
 40
3.0
 40
3.0
 40
3.0
 40
4.0
 40
4.0
 40
4.0
 40
5.0
 40
5.0
 40
5.0
 40
6.0
 40
6.0
 40
6.0
 40
7.0
 40
7.0
 40
7.0
 40
8.0
 40
8.0
 40
8.0
 40
9.0
 40
9.0
 40
9.0
 40
10.0
 40
10.0
 40
10.0
 40
11.0
 40
11.0
 40
11.0
 40
12.0
 40
12.0
 40
12.0
 40
13.0
 40
13.0
 40
13.0
 40
14.0
 40
14.0
 40
14.0
 40
15.0
 40
15.0
 40
15.0
 40
16.0
 40
16.0
 40
16.0
 40
16.0
 10
128.2030273116993
 20
-137.3766275698225
 10
128.1127658099857
 20
-137.3766275698225
 10
127.9956325634872
 20
-137.3583685637507
 10
127.8778102978917
 20
-137.2898111635942
 10
127.6776502501987
 20
-137.1706108598046
 10
127.6531900722534
 20
-137.0286729258123
 10
127.6311414611478
 20
-136.9122286984108
 10
127.6311414611478
 20
-136.9122286984108
 10
127.8878010747989
 20
-136.9122286984108
 10
127.8878010747989
 20
-136.9122286984108
 10
127.951535341276
 20
-137.1272026566904
 10
128.0979518993991
 20
-137.1592420447033
 10
128.2057833880874
 20
-137.1592420447033
 10
128.3670138567971
 20
-137.1592420447033
 10
128.5427137265449
 20
-137.0517550655635
 10
128.5427137265449
 20
-136.7999185855917
 10
128.5427137265449
 20
-136.5232774181261
 10
128.3353189783329
 20
-136.4478298269992
 10
128.1957926111802
 20
-136.4478298269992
 10
128.1589300894881
 20
-136.4478298269992
 10
127.9956325634872
 20
-136.4478298269992
 10
127.8929687180268
 20
-136.5873561941518
 10
127.8929687180268
 20
-136.5873561941518
 10
127.689708084397
 20
-136.5666856212403
 10
127.689708084397
 20
-136.5666856212403
 10
127.689708084397
 20
-136.5666856212403
 10
127.8292344515496
 20
-135.6516682603579
 10
127.8292344515496
 20
-135.6516682603579
 10
127.8292344515496
 20
-135.6516682603579
 10
128.7287488827484
 20
-135.6516682603579
 10
128.7287488827484
 20
-135.6516682603579
 10
128.7287488827484
 20
-135.6516682603579
 10
128.7287488827484
 20
-135.8621635945067
 10
128.7287488827484
 20
-135.8621635945067
 10
128.7287488827484
 20
-135.8621635945067
 10
128.0173366650443
 20
-135.8621635945067
 10
128.0173366650443
 20
-135.8621635945067
 10
128.0173366650443
 20
-135.8621635945067
 10
127.9415445643688
 20
-136.3196722749479
 10
127.9415445643688
 20
-136.3196722749479
 10
128.0125135313649
 20
-136.2831542628042
 10
128.1079426763064
 20
-136.2397460596901
 10
128.2447129670708
 20
-136.2397460596901
 10
128.5378905928655
 20
-136.2397460596901
 10
128.8114311743944
 20
-136.4409396360287
 10
128.8114311743944
 20
-136.7792480126802
 10
128.8114311743944
 20
-137.1227240325596
 10
128.5523599939036
 20
-137.3766275698225
 10
128.2030273116993
 20
-137.3766275698225
 97
        0
 97
        0
 75
     2
 76
     1
 98
        0
  0
ENDBLK
  5
13A
330
137
100
AcDbEntity
  8
0
100
AcDbBlockEnd
  0
BLOCK
  5
14B
330
149
100
AcDbEntity
  8
0
100
AcDbBlockBegin
  2
block 5
 70
     0
 10
0.0
 20
0.0
 30
0.0
  3
block 5
  1

  0
SPLINE
  5
14D
330
149
100
AcDbEntity
  8
_U+30EC_U+30A4_U+30E4_U+30FC 1
370
     0
100
AcDbSpline
210
0.0
220
0.0
230
1.0
 70
    11
 71
     3
 72
    26
 73
    22
 74
     0
 42
0.0000000001
 43
0.0000000001
 12
1.0
 22
0.0
 32
0.0
 13
1.0
 23
0.0
 33
0.0
 40
0.0
 40
0.0
 40
0.0
 40
0.0
 40
1.0
 40
1.0
 40
1.0
 40
2.0
 40
2.0
 40
2.0
 40
3.0
 40
3.0
 40
3.0
 40
4.0
 40
4.0
 40
4.0
 40
5.0
 40
5.0
 40
5.0
 40
6.0
 40
6.0
 40
6.0
 40
7.0
 40
7.0
 40
7.0
 40
7.0
 10
126.1301133582244
 20
-124.1043972128975
 30
0.0
 10
126.1301133582244
 20
-124.1043972128975
 30
0.0
 10
126.1301133582244
 20
-122.9101548629357
 30
0.0
 10
126.1301133582244
 20
-122.9101548629357
 30
0.0
 10
126.1301133582244
 20
-122.9101548629357
 30
0.0
 10
125.7487412880073
 20
-122.9101548629357
 30
0.0
 10
125.7487412880073
 20
-122.9101548629357
 30
0.0
 10
125.7487412880073
 20
-122.9101548629357
 30
0.0
 10
125.7487412880073
 20
-122.7501301776458
 30
0.0
 10
125.7487412880073
 20
-122.7501301776458
 30
0.0
 10
126.1325249250641
 20
-122.7341104836394
 30
0.0
 10
126.186268414634
 20
-122.5578938495689
 30
0.0
 10
126.2207193694865
 20
-122.4343871764227
 30
0.0
 10
126.2207193694865
 20
-122.4343871764227
 30
0.0
 10
126.3891845387152
 20
-122.4343871764227
 30
0.0
 10
126.3891845387152
 20
-122.4343871764227
 30
0.0
 10
126.3891845387152
 20
-122.4343871764227
 30
0.0
 10
126.3891845387152
 20
-124.1043972128975
 30
0.0
 10
126.3891845387152
 20
-124.1043972128975
 30
0.0
 10
126.3891845387152
 20
-124.1043972128975
 30
0.0
 10
126.1301133582244
 20
-124.1043972128975
 30
0.0
 10
126.1301133582244
 20
-124.1043972128975
 30
0.0
  0
HATCH
  5
14E
330
149
100
AcDbEntity
  8
_U+30EC_U+30A4_U+30E4_U+30FC 1
 62
   179
420
  2234388
100
AcDbHatch
 10
0.0
 20
0.0
 30
0.0
210
0.0
220
0.0
230
1.0
  2
SOLID
 70
     1
 71
     0
 91
        1
 92
        1
 93
        1
 72
     4
 94
        3
 73
     0
 74
     1
 95
       26
 96
       22
 40
0.0
 40
0.0
 40
0.0
 40
0.0
 40
1.0
 40
1.0
 40
1.0
 40
2.0
 40
2.0
 40
2.0
 40
3.0
 40
3.0
 40
3.0
 40
4.0
 40
4.0
 40
4.0
 40
5.0
 40
5.0
 40
5.0
 40
6.0
 40
6.0
 40
6.0
 40
7.0
 40
7.0
 40
7.0
 40
7.0
 10
126.1301133582244
 20
-124.1043972128975
 10
126.1301133582244
 20
-124.1043972128975
 10
126.1301133582244
 20
-122.9101548629357
 10
126.1301133582244
 20
-122.9101548629357
 10
126.1301133582244
 20
-122.9101548629357
 10
125.7487412880073
 20
-122.9101548629357
 10
125.7487412880073
 20
-122.9101548629357
 10
125.7487412880073
 20
-122.9101548629357
 10
125.7487412880073
 20
-122.7501301776458
 10
125.7487412880073
 20
-122.7501301776458
 10
126.1325249250641
 20
-122.7341104836394
 10
126.186268414634
 20
-122.5578938495689
 10
126.2207193694865
 20
-122.4343871764227
 10
126.2207193694865
 20
-122.4343871764227
 10
126.3891845387152
 20
-122.4343871764227
 10
126.3891845387152
 20
-122.4343871764227
 10
126.3891845387152
 20
-122.4343871764227
 10
126.3891845387152
 20
-124.1043972128975
 10
126.3891845387152
 20
-124.1043972128975
 10
126.3891845387152
 20
-124.1043972128975
 10
126.1301133582244
 20
-124.1043972128975
 10
126.1301133582244
 20
-124.1043972128975
 97
        0
 97
        0
 75
     2
 76
     1
 98
        0
  0
POLYLINE
  5
14F
330
149
100
AcDbEntity
  8
_U+30EC_U+30A4_U+30E4_U+30FC 1
370
     0
100
AcDb2dPolyline
 66
     1
 10
0.0
 20
0.0
 30
0.0
  0
VERTEX
  5
150
330
14F
100
AcDbEntity
  8
_U+30EC_U+30A4_U+30E4_U+30FC 1
370
     0
100
AcDbVertex
100
AcDb2dVertex
 10
127.9284532015248
 20
-123.7292263145538
 30
0.0
  0
VERTEX
  5
151
330
14F
100
AcDbEntity
  8
_U+30EC_U+30A4_U+30E4_U+30FC 1
370
     0
100
AcDbVertex
100
AcDb2dVertex
 10
127.9284532015248
 20
-124.1043972128975
 30
0.0
  0
VERTEX
  5
152
330
14F
100
AcDbEntity
  8
_U+30EC_U+30A4_U+30E4_U+30FC 1
370
     0
100
AcDbVertex
100
AcDb2dVertex
 10
127.6766167215531
 20
-124.1043972128975
 30
0.0
  0
VERTEX
  5
153
330
14F
100
AcDbEntity
  8
_U+30EC_U+30A4_U+30E4_U+30FC 1
370
     0
100
AcDbVertex
100
AcDb2dVertex
 10
127.6766167215531
 20
-123.7292263145538
 30
0.0
  0
VERTEX
  5
154
330
14F
100
AcDbEntity
  8
_U+30EC_U+30A4_U+30E4_U+30FC 1
370
     0
100
AcDbVertex
100
AcDb2dVertex
 10
126.9190402243466
 20
-123.7292263145538
 30
0.0
  0
VERTEX
  5
155
330
14F
100
AcDbEntity
  8
_U+30EC_U+30A4_U+30E4_U+30FC 1
370
     0
100
AcDbVertex
100
AcDb2dVertex
 10
126.9190402243466
 20
-123.4866915923922
 30
0.0
  0
VERTEX
  5
156
330
14F
100
AcDbEntity
  8
_U+30EC_U+30A4_U+30E4_U+30FC 1
370
     0
100
AcDbVertex
100
AcDb2dVertex
 10
127.703488466338
 20
-122.4343871764227
 30
0.0
  0
VERTEX
  5
157
330
14F
100
AcDbEntity
  8
_U+30EC_U+30A4_U+30E4_U+30FC 1
370
     0
100
AcDbVertex
100
AcDb2dVertex
 10
127.9284532015248
 20
-122.4343871764227
 30
0.0
  0
VERTEX
  5
158
330
14F
100
AcDbEntity
  8
_U+30EC_U+30A4_U+30E4_U+30FC 1
370
     0
100
AcDbVertex
100
AcDb2dVertex
 10
127.9284532015248
 20
-123.5140801015
 30
0.0
  0
VERTEX
  5
159
330
14F
100
AcDbEntity
  8
_U+30EC_U+30A4_U+30E4_U+30FC 1
370
     0
100
AcDbVertex
100
AcDb2dVertex
 10
128.1678873377497
 20
-123.5140801015
 30
0.0
  0
VERTEX
  5
15A
330
14F
100
AcDbEntity
  8
_U+30EC_U+30A4_U+30E4_U+30FC 1
370
     0
100
AcDbVertex
100
AcDb2dVertex
 10
128.1678873377497
 20
-123.7292263145538
 30
0.0
  0
VERTEX
  5
15B
330
14F
100
AcDbEntity
  8
_U+30EC_U+30A4_U+30E4_U+30FC 1
370
     0
100
AcDbVertex
100
AcDb2dVertex
 10
127.9284532015248
 20
-123.7292263145538
 30
0.0
  0
SEQEND
  5
15C
330
14F
100
AcDbEntity
  8
_U+30EC_U+30A4_U+30E4_U+30FC 1
370
     0
  0
POLYLINE
  5
15D
330
149
100
AcDbEntity
  8
_U+30EC_U+30A4_U+30E4_U+30FC 1
370
     0
100
AcDb2dPolyline
 66
     1
 10
0.0
 20
0.0
 30
0.0
  0
VERTEX
  5
15E
330
15D
100
AcDbEntity
  8
_U+30EC_U+30A4_U+30E4_U+30FC 1
370
     0
100
AcDbVertex
100
AcDb2dVertex
 10
127.6766167215531
 20
-122.8049071958613
 30
0.0
  0
VERTEX
  5
15F
330
15D
100
AcDbEntity
  8
_U+30EC_U+30A4_U+30E4_U+30FC 1
370
     0
100
AcDbVertex
100
AcDb2dVertex
 10
127.1488280932128
 20
-123.5140801015
 30
0.0
  0
VERTEX
  5
160
330
15D
100
AcDbEntity
  8
_U+30EC_U+30A4_U+30E4_U+30FC 1
370
     0
100
AcDbVertex
100
AcDb2dVertex
 10
127.6766167215531
 20
-123.5140801015
 30
0.0
  0
VERTEX
  5
161
330
15D
100
AcDbEntity
  8
_U+30EC_U+30A4_U+30E4_U+30FC 1
370
     0
100
AcDbVertex
100
AcDb2dVertex
 10
127.6766167215531
 20
-122.8049071958613
 30
0.0
  0
SEQEND
  5
162
330
15D
100
AcDbEntity
  8
_U+30EC_U+30A4_U+30E4_U+30FC 1
370
     0
  0
HATCH
  5
163
330
149
100
AcDbEntity
  8
_U+30EC_U+30A4_U+30E4_U+30FC 1
 62
   179
420
  2234388
100
AcDbHatch
 10
0.0
 20
0.0
 30
0.0
210
0.0
220
0.0
230
1.0
  2
SOLID
 70
     1
 71
     0
 91
        2
 92
        1
 93
       11
 72
     1
 10
127.9284532015248
 20
-123.7292263145538
 11
127.9284532015248
 21
-124.1043972128975
 72
     1
 10
127.9284532015248
 20
-124.1043972128975
 11
127.6766167215531
 21
-124.1043972128975
 72
     1
 10
127.6766167215531
 20
-124.1043972128975
 11
127.6766167215531
 21
-123.7292263145538
 72
     1
 10
127.6766167215531
 20
-123.7292263145538
 11
126.9190402243466
 21
-123.7292263145538
 72
     1
 10
126.9190402243466
 20
-123.7292263145538
 11
126.9190402243466
 21
-123.4866915923922
 72
     1
 10
126.9190402243466
 20
-123.4866915923922
 11
127.703488466338
 21
-122.4343871764227
 72
     1
 10
127.703488466338
 20
-122.4343871764227
 11
127.9284532015248
 21
-122.4343871764227
 72
     1
 10
127.9284532015248
 20
-122.4343871764227
 11
127.9284532015248
 21
-123.5140801015
 72
     1
 10
127.9284532015248
 20
-123.5140801015
 11
128.1678873377497
 21
-123.5140801015
 72
     1
 10
128.1678873377497
 20
-123.5140801015
 11
128.1678873377497
 21
-123.7292263145538
 72
     1
 10
128.1678873377497
 20
-123.7292263145538
 11
127.9284532015248
 21
-123.7292263145538
 97
        0
 92
        1
 93
        3
 72
     1
 10
127.6766167215531
 20
-122.8049071958613
 11
127.1488280932128
 21
-123.5140801015
 72
     1
 10
127.1488280932128
 20
-123.5140801015
 11
127.6766167215531
 21
-123.5140801015
 72
     1
 10
127.6766167215531
 20
-123.5140801015
 11
127.6766167215531
 21
-122.8049071958613
 97
        0
 75
     2
 76
     1
 98
        0
  0
ENDBLK
  5
14C
330
149
100
AcDbEntity
  8
0
100
AcDbBlockEnd
  0
BLOCK
  5
16E
330
16C
100
AcDbEntity
  8
0
100
AcDbBlockBegin
  2
block 6
 70
     0
 10
0.0
 20
0.0
 30
0.0
  3
block 6
  1

  0
SPLINE
  5
170
330
16C
100
AcDbEntity
  8
_U+30EC_U+30A4_U+30E4_U+30FC 1
370
     0
100
AcDbSpline
210
0.0
220
0.0
230
1.0
 70
    11
 71
     3
 72
    26
 73
    22
 74
     0
 42
0.0000000001
 43
0.0000000001
 12
1.0
 22
0.0
 32
0.0
 13
1.0
 23
0.0
 33
0.0
 40
0.0
 40
0.0
 40
0.0
 40
0.0
 40
1.0
 40
1.0
 40
1.0
 40
2.0
 40
2.0
 40
2.0
 40
3.0
 40
3.0
 40
3.0
 40
4.0
 40
4.0
 40
4.0
 40
5.0
 40
5.0
 40
5.0
 40
6.0
 40
6.0
 40
6.0
 40
7.0
 40
7.0
 40
7.0
 40
7.0
 10
118.9302083036008
 20
-124.1925916573199
 30
0.0
 10
118.9302083036008
 20
-124.1925916573199
 30
0.0
 10
118.9302083036008
 20
-122.9983493073581
 30
0.0
 10
118.9302083036008
 20
-122.9983493073581
 30
0.0
 10
118.9302083036008
 20
-122.9983493073581
 30
0.0
 10
118.5488362333836
 20
-122.9983493073581
 30
0.0
 10
118.5488362333836
 20
-122.9983493073581
 30
0.0
 10
118.5488362333836
 20
-122.9983493073581
 30
0.0
 10
118.5488362333836
 20
-122.8383246220682
 30
0.0
 10
118.5488362333836
 20
-122.8383246220682
 30
0.0
 10
118.9322753608919
 20
-122.8223049280618
 30
0.0
 10
118.9860188504618
 20
-122.6460882939913
 30
0.0
 10
119.0204698053143
 20
-122.5225816208451
 30
0.0
 10
119.0204698053143
 20
-122.5225816208451
 30
0.0
 10
119.1892794840916
 20
-122.5225816208451
 30
0.0
 10
119.1892794840916
 20
-122.5225816208451
 30
0.0
 10
119.1892794840916
 20
-122.5225816208451
 30
0.0
 10
119.1892794840916
 20
-124.1925916573199
 30
0.0
 10
119.1892794840916
 20
-124.1925916573199
 30
0.0
 10
119.1892794840916
 20
-124.1925916573199
 30
0.0
 10
118.9302083036008
 20
-124.1925916573199
 30
0.0
 10
118.9302083036008
 20
-124.1925916573199
 30
0.0
  0
HATCH
  5
171
330
16C
100
AcDbEntity
  8
_U+30EC_U+30A4_U+30E4_U+30FC 1
 62
   179
420
  2234388
100
AcDbHatch
 10
0.0
 20
0.0
 30
0.0
210
0.0
220
0.0
230
1.0
  2
SOLID
 70
     1
 71
     0
 91
        1
 92
        1
 93
        1
 72
     4
 94
        3
 73
     0
 74
     1
 95
       26
 96
       22
 40
0.0
 40
0.0
 40
0.0
 40
0.0
 40
1.0
 40
1.0
 40
1.0
 40
2.0
 40
2.0
 40
2.0
 40
3.0
 40
3.0
 40
3.0
 40
4.0
 40
4.0
 40
4.0
 40
5.0
 40
5.0
 40
5.0
 40
6.0
 40
6.0
 40
6.0
 40
7.0
 40
7.0
 40
7.0
 40
7.0
 10
118.9302083036008
 20
-124.1925916573199
 10
118.9302083036008
 20
-124.1925916573199
 10
118.9302083036008
 20
-122.9983493073581
 10
118.9302083036008
 20
-122.9983493073581
 10
118.9302083036008
 20
-122.9983493073581
 10
118.5488362333836
 20
-122.9983493073581
 10
118.5488362333836
 20
-122.9983493073581
 10
118.5488362333836
 20
-122.9983493073581
 10
118.5488362333836
 20
-122.8383246220682
 10
118.5488362333836
 20
-122.8383246220682
 10
118.9322753608919
 20
-122.8223049280618
 10
118.9860188504618
 20
-122.6460882939913
 10
119.0204698053143
 20
-122.5225816208451
 10
119.0204698053143
 20
-122.5225816208451
 10
119.1892794840916
 20
-122.5225816208451
 10
119.1892794840916
 20
-122.5225816208451
 10
119.1892794840916
 20
-122.5225816208451
 10
119.1892794840916
 20
-124.1925916573199
 10
119.1892794840916
 20
-124.1925916573199
 10
119.1892794840916
 20
-124.1925916573199
 10
118.9302083036008
 20
-124.1925916573199
 10
118.9302083036008
 20
-124.1925916573199
 97
        0
 97
        0
 75
     2
 76
     1
 98
        0
  0
SPLINE
  5
172
330
16C
100
AcDbEntity
  8
_U+30EC_U+30A4_U+30E4_U+30FC 1
370
     0
100
AcDbSpline
210
0.0
220
0.0
230
1.0
 70
    11
 71
     3
 72
    26
 73
    22
 74
     0
 42
0.0000000001
 43
0.0000000001
 12
1.0
 22
0.0
 32
0.0
 13
1.0
 23
0.0
 33
0.0
 40
0.0
 40
0.0
 40
0.0
 40
0.0
 40
1.0
 40
1.0
 40
1.0
 40
2.0
 40
2.0
 40
2.0
 40
3.0
 40
3.0
 40
3.0
 40
4.0
 40
4.0
 40
4.0
 40
5.0
 40
5.0
 40
5.0
 40
6.0
 40
6.0
 40
6.0
 40
7.0
 40
7.0
 40
7.0
 40
7.0
 10
120.2882649438863
 20
-124.1925916573199
 30
0.0
 10
120.2882649438863
 20
-124.1925916573199
 30
0.0
 10
120.2882649438863
 20
-122.9983493073581
 30
0.0
 10
120.2882649438863
 20
-122.9983493073581
 30
0.0
 10
120.2882649438863
 20
-122.9983493073581
 30
0.0
 10
119.9072373832176
 20
-122.9983493073581
 30
0.0
 10
119.9072373832176
 20
-122.9983493073581
 30
0.0
 10
119.9072373832176
 20
-122.9983493073581
 30
0.0
 10
119.9072373832176
 20
-122.8383246220682
 30
0.0
 10
119.9072373832176
 20
-122.8383246220682
 30
0.0
 10
120.2910210202745
 20
-122.8223049280618
 30
0.0
 10
120.3447645098444
 20
-122.6460882939913
 30
0.0
 10
120.3788709551483
 20
-122.5225816208451
 30
0.0
 10
120.3788709551483
 20
-122.5225816208451
 30
0.0
 10
120.5473361243771
 20
-122.5225816208451
 30
0.0
 10
120.5473361243771
 20
-122.5225816208451
 30
0.0
 10
120.5473361243771
 20
-122.5225816208451
 30
0.0
 10
120.5473361243771
 20
-124.1925916573199
 30
0.0
 10
120.5473361243771
 20
-124.1925916573199
 30
0.0
 10
120.5473361243771
 20
-124.1925916573199
 30
0.0
 10
120.2882649438863
 20
-124.1925916573199
 30
0.0
 10
120.2882649438863
 20
-124.1925916573199
 30
0.0
  0
HATCH
  5
173
330
16C
100
AcDbEntity
  8
_U+30EC_U+30A4_U+30E4_U+30FC 1
 62
   179
420
  2234388
100
AcDbHatch
 10
0.0
 20
0.0
 30
0.0
210
0.0
220
0.0
230
1.0
  2
SOLID
 70
     1
 71
     0
 91
        1
 92
        1
 93
        1
 72
     4
 94
        3
 73
     0
 74
     1
 95
       26
 96
       22
 40
0.0
 40
0.0
 40
0.0
 40
0.0
 40
1.0
 40
1.0
 40
1.0
 40
2.0
 40
2.0
 40
2.0
 40
3.0
 40
3.0
 40
3.0
 40
4.0
 40
4.0
 40
4.0
 40
5.0
 40
5.0
 40
5.0
 40
6.0
 40
6.0
 40
6.0
 40
7.0
 40
7.0
 40
7.0
 40
7.0
 10
120.2882649438863
 20
-124.1925916573199
 10
120.2882649438863
 20
-124.1925916573199
 10
120.2882649438863
 20
-122.9983493073581
 10
120.2882649438863
 20
-122.9983493073581
 10
120.2882649438863
 20
-122.9983493073581
 10
119.9072373832176
 20
-122.9983493073581
 10
119.9072373832176
 20
-122.9983493073581
 10
119.9072373832176
 20
-122.9983493073581
 10
119.9072373832176
 20
-122.8383246220682
 10
119.9072373832176
 20
-122.8383246220682
 10
120.2910210202745
 20
-122.8223049280618
 10
120.3447645098444
 20
-122.6460882939913
 10
120.3788709551483
 20
-122.5225816208451
 10
120.3788709551483
 20
-122.5225816208451
 10
120.5473361243771
 20
-122.5225816208451
 10
120.5473361243771
 20
-122.5225816208451
 10
120.5473361243771
 20
-122.5225816208451
 10
120.5473361243771
 20
-124.1925916573199
 10
120.5473361243771
 20
-124.1925916573199
 10
120.5473361243771
 20
-124.1925916573199
 10
120.2882649438863
 20
-124.1925916573199
 10
120.2882649438863
 20
-124.1925916573199
 97
        0
 97
        0
 75
     2
 76
     1
 98
        0
  0
ENDBLK
  5
16F
330
16C
100
AcDbEntity
  8
0
100
AcDbBlockEnd
  0
BLOCK
  5
182
330
180
100
AcDbEntity
  8
0
100
AcDbBlockBegin
  2
block 7
 70
     0
 10
0.0
 20
0.0
 30
0.0
  3
block 7
  1

  0
SPLINE
  5
184
330
180
100
AcDbEntity
  8
_U+30EC_U+30A4_U+30E4_U+30FC 1
370
     0
100
AcDbSpline
210
0.0
220
0.0
230
1.0
 70
    11
 71
     3
 72
    44
 73
    40
 74
     0
 42
0.0000000001
 43
0.0000000001
 12
1.0
 22
0.0
 32
0.0
 13
1.0
 23
0.0
 33
0.0
 40
0.0
 40
0.0
 40
0.0
 40
0.0
 40
1.0
 40
1.0
 40
1.0
 40
2.0
 40
2.0
 40
2.0
 40
3.0
 40
3.0
 40
3.0
 40
4.0
 40
4.0
 40
4.0
 40
5.0
 40
5.0
 40
5.0
 40
6.0
 40
6.0
 40
6.0
 40
7.0
 40
7.0
 40
7.0
 40
8.0
 40
8.0
 40
8.0
 40
9.0
 40
9.0
 40
9.0
 40
10.0
 40
10.0
 40
10.0
 40
11.0
 40
11.0
 40
11.0
 40
12.0
 40
12.0
 40
12.0
 40
13.0
 40
13.0
 40
13.0
 40
13.0
 10
123.2937662452182
 20
-120.8107136742244
 30
0.0
 10
123.042274274795
 20
-120.9822794293898
 30
0.0
 10
122.9347872956552
 20
-121.0623778994219
 30
0.0
 10
122.8782877296971
 20
-121.2179239605809
 30
0.0
 10
122.8782877296971
 20
-121.2179239605809
 30
0.0
 10
123.7778021608958
 20
-121.2179239605809
 30
0.0
 10
123.7778021608958
 20
-121.2179239605809
 30
0.0
 10
123.7778021608958
 20
-121.2179239605809
 30
0.0
 10
123.7778021608958
 20
-121.439788109831
 30
0.0
 10
123.7778021608958
 20
-121.439788109831
 30
0.0
 10
123.7778021608958
 20
-121.439788109831
 30
0.0
 10
122.5899332375817
 20
-121.439788109831
 30
0.0
 10
122.5899332375817
 20
-121.439788109831
 30
0.0
 10
122.6267957592739
 20
-121.0530761416117
 30
0.0
 10
122.7025878599494
 20
-120.9684990474489
 30
0.0
 10
123.1470051775466
 20
-120.6458658552552
 30
0.0
 10
123.4429388797296
 20
-120.4308918969756
 30
0.0
 10
123.518730980405
 20
-120.3576836179141
 30
0.0
 10
123.518730980405
 20
-120.2090277477255
 30
0.0
 10
123.518730980405
 20
-120.0808701956742
 30
0.0
 10
123.4357041792105
 20
-119.9389322616819
 30
0.0
 10
123.208327877184
 20
-119.9389322616819
 30
0.0
 10
122.9079155508702
 20
-119.9389322616819
 30
0.0
 10
122.897924773963
 20
-120.188357174814
 30
0.0
 10
122.8931016402837
 20
-120.3142754147999
 30
0.0
 10
122.8931016402837
 20
-120.3142754147999
 30
0.0
 10
122.6340304597929
 20
-120.3142754147999
 30
0.0
 10
122.6340304597929
 20
-120.3142754147999
 30
0.0
 10
122.6436767271516
 20
-120.1769883597127
 30
0.0
 10
122.65573456135
 20
-120.0557209986319
 30
0.0
 10
122.7487521394517
 20
-119.9275634465806
 30
0.0
 10
122.8758761628574
 20
-119.7537583793498
 30
0.0
 10
123.0911946306855
 20
-119.7170681124318
 30
0.0
 10
123.2255533546103
 20
-119.7170681124318
 30
0.0
 10
123.54560272519
 20
-119.7170681124318
 30
0.0
 10
123.7850368614149
 20
-119.9161946314793
 30
0.0
 10
123.7850368614149
 20
-120.2112670597909
 30
0.0
 10
123.7850368614149
 20
-120.4582804060833
 30
0.0
 10
123.6506781374901
 20
-120.5659396399974
 30
0.0
 10
123.2937662452182
 20
-120.8107136742244
 30
0.0
  0
HATCH
  5
185
330
180
100
AcDbEntity
  8
_U+30EC_U+30A4_U+30E4_U+30FC 1
 62
   179
420
  2234388
100
AcDbHatch
 10
0.0
 20
0.0
 30
0.0
210
0.0
220
0.0
230
1.0
  2
SOLID
 70
     1
 71
     0
 91
        1
 92
        1
 93
        1
 72
     4
 94
        3
 73
     0
 74
     1
 95
       44
 96
       40
 40
0.0
 40
0.0
 40
0.0
 40
0.0
 40
1.0
 40
1.0
 40
1.0
 40
2.0
 40
2.0
 40
2.0
 40
3.0
 40
3.0
 40
3.0
 40
4.0
 40
4.0
 40
4.0
 40
5.0
 40
5.0
 40
5.0
 40
6.0
 40
6.0
 40
6.0
 40
7.0
 40
7.0
 40
7.0
 40
8.0
 40
8.0
 40
8.0
 40
9.0
 40
9.0
 40
9.0
 40
10.0
 40
10.0
 40
10.0
 40
11.0
 40
11.0
 40
11.0
 40
12.0
 40
12.0
 40
12.0
 40
13.0
 40
13.0
 40
13.0
 40
13.0
 10
123.2937662452182
 20
-120.8107136742244
 10
123.042274274795
 20
-120.9822794293898
 10
122.9347872956552
 20
-121.0623778994219
 10
122.8782877296971
 20
-121.2179239605809
 10
122.8782877296971
 20
-121.2179239605809
 10
123.7778021608958
 20
-121.2179239605809
 10
123.7778021608958
 20
-121.2179239605809
 10
123.7778021608958
 20
-121.2179239605809
 10
123.7778021608958
 20
-121.439788109831
 10
123.7778021608958
 20
-121.439788109831
 10
123.7778021608958
 20
-121.439788109831
 10
122.5899332375817
 20
-121.439788109831
 10
122.5899332375817
 20
-121.439788109831
 10
122.6267957592739
 20
-121.0530761416117
 10
122.7025878599494
 20
-120.9684990474489
 10
123.1470051775466
 20
-120.6458658552552
 10
123.4429388797296
 20
-120.4308918969756
 10
123.518730980405
 20
-120.3576836179141
 10
123.518730980405
 20
-120.2090277477255
 10
123.518730980405
 20
-120.0808701956742
 10
123.4357041792105
 20
-119.9389322616819
 10
123.208327877184
 20
-119.9389322616819
 10
122.9079155508702
 20
-119.9389322616819
 10
122.897924773963
 20
-120.188357174814
 10
122.8931016402837
 20
-120.3142754147999
 10
122.8931016402837
 20
-120.3142754147999
 10
122.6340304597929
 20
-120.3142754147999
 10
122.6340304597929
 20
-120.3142754147999
 10
122.6436767271516
 20
-120.1769883597127
 10
122.65573456135
 20
-120.0557209986319
 10
122.7487521394517
 20
-119.9275634465806
 10
122.8758761628574
 20
-119.7537583793498
 10
123.0911946306855
 20
-119.7170681124318
 10
123.2255533546103
 20
-119.7170681124318
 10
123.54560272519
 20
-119.7170681124318
 10
123.7850368614149
 20
-119.9161946314793
 10
123.7850368614149
 20
-120.2112670597909
 10
123.7850368614149
 20
-120.4582804060833
 10
123.6506781374901
 20
-120.5659396399974
 10
123.2937662452182
 20
-120.8107136742244
 97
        0
 97
        0
 75
     2
 76
     1
 98
        0
  0
SPLINE
  5
186
330
180
100
AcDbEntity
  8
_U+30EC_U+30A4_U+30E4_U+30FC 1
370
     0
100
AcDbSpline
210
0.0
220
0.0
230
1.0
 70
    11
 71
     3
 72
    53
 73
    49
 74
     0
 42
0.0000000001
 43
0.0000000001
 12
1.0
 22
0.0
 32
0.0
 13
1.0
 23
0.0
 33
0.0
 40
0.0
 40
0.0
 40
0.0
 40
0.0
 40
1.0
 40
1.0
 40
1.0
 40
2.0
 40
2.0
 40
2.0
 40
3.0
 40
3.0
 40
3.0
 40
4.0
 40
4.0
 40
4.0
 40
5.0
 40
5.0
 40
5.0
 40
6.0
 40
6.0
 40
6.0
 40
7.0
 40
7.0
 40
7.0
 40
8.0
 40
8.0
 40
8.0
 40
9.0
 40
9.0
 40
9.0
 40
10.0
 40
10.0
 40
10.0
 40
11.0
 40
11.0
 40
11.0
 40
12.0
 40
12.0
 40
12.0
 40
13.0
 40
13.0
 40
13.0
 40
14.0
 40
14.0
 40
14.0
 40
15.0
 40
15.0
 40
15.0
 40
16.0
 40
16.0
 40
16.0
 40
16.0
 10
124.5226318048068
 20
-121.4947373828208
 30
0.0
 10
124.4323703030933
 20
-121.4947373828208
 30
0.0
 10
124.3148925470463
 20
-121.4764783767489
 30
0.0
 10
124.1977593005478
 20
-121.4077487218182
 30
0.0
 10
123.9972547433062
 20
-121.2887206728028
 30
0.0
 10
123.972794565361
 20
-121.1469549935848
 30
0.0
 10
123.9510904638039
 20
-121.0303385114091
 30
0.0
 10
123.9510904638039
 20
-121.0303385114091
 30
0.0
 10
124.2074055679065
 20
-121.0303385114091
 30
0.0
 10
124.2074055679065
 20
-121.0303385114091
 30
0.0
 10
124.2707953248351
 20
-121.2453124696887
 30
0.0
 10
124.4175563925067
 20
-121.2773518577015
 30
0.0
 10
124.5250433716465
 20
-121.2773518577015
 30
0.0
 10
124.6862738403562
 20
-121.2773518577015
 30
0.0
 10
124.8623182196525
 20
-121.1698648785617
 30
0.0
 10
124.8623182196525
 20
-120.9182006533642
 30
0.0
 10
124.8623182196525
 20
-120.6413872311244
 30
0.0
 10
124.6545789618919
 20
-120.5659396399974
 30
0.0
 10
124.5153971042878
 20
-120.5659396399974
 30
0.0
 10
124.4788790921442
 20
-120.5659396399974
 30
0.0
 10
124.3148925470463
 20
-120.5659396399974
 30
0.0
 10
124.2122287015858
 20
-120.70546600715
 30
0.0
 10
124.2122287015858
 20
-120.70546600715
 30
0.0
 10
124.0096570870531
 20
-120.6847954342385
 30
0.0
 10
124.0096570870531
 20
-120.6847954342385
 30
0.0
 10
124.0096570870531
 20
-120.6847954342385
 30
0.0
 10
124.1488389446572
 20
-119.7697780733562
 30
0.0
 10
124.1488389446572
 20
-119.7697780733562
 30
0.0
 10
124.1488389446572
 20
-119.7697780733562
 30
0.0
 10
125.0480088663074
 20
-119.7697780733562
 30
0.0
 10
125.0480088663074
 20
-119.7697780733562
 30
0.0
 10
125.0480088663074
 20
-119.7697780733562
 30
0.0
 10
125.0480088663074
 20
-119.9802734075049
 30
0.0
 10
125.0480088663074
 20
-119.9802734075049
 30
0.0
 10
125.0480088663074
 20
-119.9802734075049
 30
0.0
 10
124.3369411581519
 20
-119.9802734075049
 30
0.0
 10
124.3369411581519
 20
-119.9802734075049
 30
0.0
 10
124.3369411581519
 20
-119.9802734075049
 30
0.0
 10
124.2611490574764
 20
-120.4377820879461
 30
0.0
 10
124.2611490574764
 20
-120.4377820879461
 30
0.0
 10
124.3321180244725
 20
-120.4010918210282
 30
0.0
 10
124.4272026598654
 20
-120.3576836179141
 30
0.0
 10
124.5643174601784
 20
-120.3576836179141
 30
0.0
 10
124.8574950859731
 20
-120.3576836179141
 30
0.0
 10
125.1313801770505
 20
-120.5590494490269
 30
0.0
 10
125.1313801770505
 20
-120.8975300804527
 30
0.0
 10
125.1313801770505
 20
-121.2408338455579
 30
0.0
 10
124.8723089965597
 20
-121.4947373828208
 30
0.0
 10
124.5226318048068
 20
-121.4947373828208
 30
0.0
  0
HATCH
  5
187
330
180
100
AcDbEntity
  8
_U+30EC_U+30A4_U+30E4_U+30FC 1
 62
   179
420
  2234388
100
AcDbHatch
 10
0.0
 20
0.0
 30
0.0
210
0.0
220
0.0
230
1.0
  2
SOLID
 70
     1
 71
     0
 91
        1
 92
        1
 93
        1
 72
     4
 94
        3
 73
     0
 74
     1
 95
       53
 96
       49
 40
0.0
 40
0.0
 40
0.0
 40
0.0
 40
1.0
 40
1.0
 40
1.0
 40
2.0
 40
2.0
 40
2.0
 40
3.0
 40
3.0
 40
3.0
 40
4.0
 40
4.0
 40
4.0
 40
5.0
 40
5.0
 40
5.0
 40
6.0
 40
6.0
 40
6.0
 40
7.0
 40
7.0
 40
7.0
 40
8.0
 40
8.0
 40
8.0
 40
9.0
 40
9.0
 40
9.0
 40
10.0
 40
10.0
 40
10.0
 40
11.0
 40
11.0
 40
11.0
 40
12.0
 40
12.0
 40
12.0
 40
13.0
 40
13.0
 40
13.0
 40
14.0
 40
14.0
 40
14.0
 40
15.0
 40
15.0
 40
15.0
 40
16.0
 40
16.0
 40
16.0
 40
16.0
 10
124.5226318048068
 20
-121.4947373828208
 10
124.4323703030933
 20
-121.4947373828208
 10
124.3148925470463
 20
-121.4764783767489
 10
124.1977593005478
 20
-121.4077487218182
 10
123.9972547433062
 20
-121.2887206728028
 10
123.972794565361
 20
-121.1469549935848
 10
123.9510904638039
 20
-121.0303385114091
 10
123.9510904638039
 20
-121.0303385114091
 10
124.2074055679065
 20
-121.0303385114091
 10
124.2074055679065
 20
-121.0303385114091
 10
124.2707953248351
 20
-121.2453124696887
 10
124.4175563925067
 20
-121.2773518577015
 10
124.5250433716465
 20
-121.2773518577015
 10
124.6862738403562
 20
-121.2773518577015
 10
124.8623182196525
 20
-121.1698648785617
 10
124.8623182196525
 20
-120.9182006533642
 10
124.8623182196525
 20
-120.6413872311244
 10
124.6545789618919
 20
-120.5659396399974
 10
124.5153971042878
 20
-120.5659396399974
 10
124.4788790921442
 20
-120.5659396399974
 10
124.3148925470463
 20
-120.5659396399974
 10
124.2122287015858
 20
-120.70546600715
 10
124.2122287015858
 20
-120.70546600715
 10
124.0096570870531
 20
-120.6847954342385
 10
124.0096570870531
 20
-120.6847954342385
 10
124.0096570870531
 20
-120.6847954342385
 10
124.1488389446572
 20
-119.7697780733562
 10
124.1488389446572
 20
-119.7697780733562
 10
124.1488389446572
 20
-119.7697780733562
 10
125.0480088663074
 20
-119.7697780733562
 10
125.0480088663074
 20
-119.7697780733562
 10
125.0480088663074
 20
-119.7697780733562
 10
125.0480088663074
 20
-119.9802734075049
 10
125.0480088663074
 20
-119.9802734075049
 10
125.0480088663074
 20
-119.9802734075049
 10
124.3369411581519
 20
-119.9802734075049
 10
124.3369411581519
 20
-119.9802734075049
 10
124.3369411581519
 20
-119.9802734075049
 10
124.2611490574764
 20
-120.4377820879461
 10
124.2611490574764
 20
-120.4377820879461
 10
124.3321180244725
 20
-120.4010918210282
 10
124.4272026598654
 20
-120.3576836179141
 10
124.5643174601784
 20
-120.3576836179141
 10
124.8574950859731
 20
-120.3576836179141
 10
125.1313801770505
 20
-120.5590494490269
 10
125.1313801770505
 20
-120.8975300804527
 10
125.1313801770505
 20
-121.2408338455579
 10
124.8723089965597
 20
-121.4947373828208
 10
124.5226318048068
 20
-121.4947373828208
 97
        0
 97
        0
 75
     2
 76
     1
 98
        0
  0
ENDBLK
  5
183
330
180
100
AcDbEntity
  8
0
100
AcDbBlockEnd
  0
BLOCK
  5
196
330
194
100
AcDbEntity
  8
0
100
AcDbBlockBegin
  2
block 8
 70
     0
 10
0.0
 20
0.0
 30
0.0
  3
block 8
  1

  0
SPLINE
  5
198
330
194
100
AcDbEntity
  8
_U+30EC_U+30A4_U+30E4_U+30FC 1
370
     0
100
AcDbSpline
210
0.0
220
0.0
230
1.0
 70
    11
 71
     3
 72
    62
 73
    58
 74
     0
 42
0.0000000001
 43
0.0000000001
 12
1.0
 22
0.0
 32
0.0
 13
1.0
 23
0.0
 33
0.0
 40
0.0
 40
0.0
 40
0.0
 40
0.0
 40
1.0
 40
1.0
 40
1.0
 40
2.0
 40
2.0
 40
2.0
 40
3.0
 40
3.0
 40
3.0
 40
4.0
 40
4.0
 40
4.0
 40
5.0
 40
5.0
 40
5.0
 40
6.0
 40
6.0
 40
6.0
 40
7.0
 40
7.0
 40
7.0
 40
8.0
 40
8.0
 40
8.0
 40
9.0
 40
9.0
 40
9.0
 40
10.0
 40
10.0
 40
10.0
 40
11.0
 40
11.0
 40
11.0
 40
12.0
 40
12.0
 40
12.0
 40
13.0
 40
13.0
 40
13.0
 40
14.0
 40
14.0
 40
14.0
 40
15.0
 40
15.0
 40
15.0
 40
16.0
 40
16.0
 40
16.0
 40
17.0
 40
17.0
 40
17.0
 40
18.0
 40
18.0
 40
18.0
 40
19.0
 40
19.0
 40
19.0
 40
19.0
 10
113.1679415949719
 20
-129.5011392905414
 30
0.0
 10
113.1679415949719
 20
-129.6110378365209
 30
0.0
 10
113.1452039647693
 20
-129.8628743164926
 30
0.0
 10
112.9440103884307
 20
-130.0068793077761
 30
0.0
 10
112.8227430273499
 20
-130.0923176758102
 30
0.0
 10
112.7152560482101
 20
-130.0971408094896
 30
0.0
 10
112.6236165083024
 20
-130.1023084527175
 30
0.0
 10
112.6236165083024
 20
-130.1023084527175
 30
0.0
 10
112.6236165083024
 20
-129.848060405906
 30
0.0
 10
112.6236165083024
 20
-129.848060405906
 30
0.0
 10
112.7035427235602
 20
-129.8456488390664
 30
0.0
 10
112.9577907703717
 20
-129.8332464953195
 30
0.0
 10
112.9577907703717
 20
-129.5059624242207
 30
0.0
 10
112.9577907703717
 20
-129.3471435223507
 30
0.0
 10
112.8819986696962
 20
-129.1710991430544
 30
0.0
 10
112.6349853234038
 20
-129.1710991430544
 30
0.0
 10
112.5092393381921
 20
-129.1710991430544
 30
0.0
 10
112.4565293772678
 20
-129.2151963652657
 30
0.0
 10
112.4224229319638
 20
-129.2517143774093
 30
0.0
 10
112.3421522071575
 20
-129.3371527454435
 30
0.0
 10
112.328716334765
 20
-129.4715114693682
 30
0.0
 10
112.328716334765
 20
-129.5352457358454
 30
0.0
 10
112.328716334765
 20
-129.557294346951
 30
0.0
 10
112.3307833920562
 20
-129.5989800023225
 30
0.0
 10
112.335262016187
 20
-129.6306748807868
 30
0.0
 10
112.335262016187
 20
-129.6306748807868
 30
0.0
 10
112.1247666820383
 20
-129.6306748807868
 30
0.0
 10
112.1247666820383
 20
-129.6306748807868
 30
0.0
 10
112.1316568730088
 20
-129.5865776585756
 30
0.0
 10
112.1340684398484
 20
-129.537657302685
 30
0.0
 10
112.1340684398484
 20
-129.530422602166
 30
0.0
 10
112.1340684398484
 20
-129.4546305014905
 30
0.0
 10
112.1109863000973
 20
-129.2248426326244
 30
0.0
 10
111.8546711959947
 20
-129.2248426326244
 30
0.0
 10
111.6627793774663
 20
-129.2248426326244
 30
0.0
 10
111.6031792255714
 20
-129.3764268339753
 30
0.0
 10
111.6031792255714
 20
-129.5035508573811
 30
0.0
 10
111.6031792255714
 20
-129.8091308269227
 30
0.0
 10
111.8546711959947
 20
-129.8187770942814
 30
0.0
 10
111.9325303539613
 20
-129.8236002279608
 30
0.0
 10
111.9325303539613
 20
-129.8236002279608
 30
0.0
 10
111.9325303539613
 20
-130.0582112305063
 30
0.0
 10
111.9325303539613
 20
-130.0582112305063
 30
0.0
 10
111.7974826109395
 20
-130.0485649631476
 30
0.0
 10
111.390272324583
 20
-130.0165255751348
 30
0.0
 10
111.390272324583
 20
-129.4887369467945
 30
0.0
 10
111.390272324583
 20
-129.2296657663037
 30
0.0
 10
111.5277316344445
 20
-128.9513020510955
 30
0.0
 10
111.8477810050242
 20
-128.9513020510955
 30
0.0
 10
112.0493190909113
 20
-128.9513020510955
 30
0.0
 10
112.1385470639793
 20
-129.061200597075
 30
0.0
 10
112.2046928972961
 20
-129.1759222767338
 30
0.0
 10
112.2346652280177
 20
-129.1049533097377
 30
0.0
 10
112.3218261437946
 20
-128.8948024851374
 30
0.0
 10
112.6215494510113
 20
-128.8948024851374
 30
0.0
 10
112.9874185915448
 20
-128.8948024851374
 30
0.0
 10
113.1679415949719
 20
-129.1807454104132
 30
0.0
 10
113.1679415949719
 20
-129.5011392905414
 30
0.0
  0
HATCH
  5
199
330
194
100
AcDbEntity
  8
_U+30EC_U+30A4_U+30E4_U+30FC 1
 62
   179
420
  2234388
100
AcDbHatch
 10
0.0
 20
0.0
 30
0.0
210
0.0
220
0.0
230
1.0
  2
SOLID
 70
     1
 71
     0
 91
        1
 92
        1
 93
        1
 72
     4
 94
        3
 73
     0
 74
     1
 95
       62
 96
       58
 40
0.0
 40
0.0
 40
0.0
 40
0.0
 40
1.0
 40
1.0
 40
1.0
 40
2.0
 40
2.0
 40
2.0
 40
3.0
 40
3.0
 40
3.0
 40
4.0
 40
4.0
 40
4.0
 40
5.0
 40
5.0
 40
5.0
 40
6.0
 40
6.0
 40
6.0
 40
7.0
 40
7.0
 40
7.0
 40
8.0
 40
8.0
 40
8.0
 40
9.0
 40
9.0
 40
9.0
 40
10.0
 40
10.0
 40
10.0
 40
11.0
 40
11.0
 40
11.0
 40
12.0
 40
12.0
 40
12.0
 40
13.0
 40
13.0
 40
13.0
 40
14.0
 40
14.0
 40
14.0
 40
15.0
 40
15.0
 40
15.0
 40
16.0
 40
16.0
 40
16.0
 40
17.0
 40
17.0
 40
17.0
 40
18.0
 40
18.0
 40
18.0
 40
19.0
 40
19.0
 40
19.0
 40
19.0
 10
113.1679415949719
 20
-129.5011392905414
 10
113.1679415949719
 20
-129.6110378365209
 10
113.1452039647693
 20
-129.8628743164926
 10
112.9440103884307
 20
-130.0068793077761
 10
112.8227430273499
 20
-130.0923176758102
 10
112.7152560482101
 20
-130.0971408094896
 10
112.6236165083024
 20
-130.1023084527175
 10
112.6236165083024
 20
-130.1023084527175
 10
112.6236165083024
 20
-129.848060405906
 10
112.6236165083024
 20
-129.848060405906
 10
112.7035427235602
 20
-129.8456488390664
 10
112.9577907703717
 20
-129.8332464953195
 10
112.9577907703717
 20
-129.5059624242207
 10
112.9577907703717
 20
-129.3471435223507
 10
112.8819986696962
 20
-129.1710991430544
 10
112.6349853234038
 20
-129.1710991430544
 10
112.5092393381921
 20
-129.1710991430544
 10
112.4565293772678
 20
-129.2151963652657
 10
112.4224229319638
 20
-129.2517143774093
 10
112.3421522071575
 20
-129.3371527454435
 10
112.328716334765
 20
-129.4715114693682
 10
112.328716334765
 20
-129.5352457358454
 10
112.328716334765
 20
-129.557294346951
 10
112.3307833920562
 20
-129.5989800023225
 10
112.335262016187
 20
-129.6306748807868
 10
112.335262016187
 20
-129.6306748807868
 10
112.1247666820383
 20
-129.6306748807868
 10
112.1247666820383
 20
-129.6306748807868
 10
112.1316568730088
 20
-129.5865776585756
 10
112.1340684398484
 20
-129.537657302685
 10
112.1340684398484
 20
-129.530422602166
 10
112.1340684398484
 20
-129.4546305014905
 10
112.1109863000973
 20
-129.2248426326244
 10
111.8546711959947
 20
-129.2248426326244
 10
111.6627793774663
 20
-129.2248426326244
 10
111.6031792255714
 20
-129.3764268339753
 10
111.6031792255714
 20
-129.5035508573811
 10
111.6031792255714
 20
-129.8091308269227
 10
111.8546711959947
 20
-129.8187770942814
 10
111.9325303539613
 20
-129.8236002279608
 10
111.9325303539613
 20
-129.8236002279608
 10
111.9325303539613
 20
-130.0582112305063
 10
111.9325303539613
 20
-130.0582112305063
 10
111.7974826109395
 20
-130.0485649631476
 10
111.390272324583
 20
-130.0165255751348
 10
111.390272324583
 20
-129.4887369467945
 10
111.390272324583
 20
-129.2296657663037
 10
111.5277316344445
 20
-128.9513020510955
 10
111.8477810050242
 20
-128.9513020510955
 10
112.0493190909113
 20
-128.9513020510955
 10
112.1385470639793
 20
-129.061200597075
 10
112.2046928972961
 20
-129.1759222767338
 10
112.2346652280177
 20
-129.1049533097377
 10
112.3218261437946
 20
-128.8948024851374
 10
112.6215494510113
 20
-128.8948024851374
 10
112.9874185915448
 20
-128.8948024851374
 10
113.1679415949719
 20
-129.1807454104132
 10
113.1679415949719
 20
-129.5011392905414
 97
        0
 97
        0
 75
     2
 76
     1
 98
        0
  0
ENDBLK
  5
197
330
194
100
AcDbEntity
  8
0
100
AcDbBlockEnd
  0
BLOCK
  5
1A0
330
19E
100
AcDbEntity
  8
0
100
AcDbBlockBegin
  2
block 9
 70
     0
 10
0.0
 20
0.0
 30
0.0
  3
block 9
  1

  0
SPLINE
  5
1A2
330
19E
100
AcDbEntity
  8
_U+30EC_U+30A4_U+30E4_U+30FC 1
370
     0
100
AcDbSpline
210
0.0
220
0.0
230
1.0
 70
    11
 71
     3
 72
    26
 73
    22
 74
     0
 42
0.0000000001
 43
0.0000000001
 12
1.0
 22
0.0
 32
0.0
 13
1.0
 23
0.0
 33
0.0
 40
0.0
 40
0.0
 40
0.0
 40
0.0
 40
1.0
 40
1.0
 40
1.0
 40
2.0
 40
2.0
 40
2.0
 40
3.0
 40
3.0
 40
3.0
 40
4.0
 40
4.0
 40
4.0
 40
5.0
 40
5.0
 40
5.0
 40
6.0
 40
6.0
 40
6.0
 40
7.0
 40
7.0
 40
7.0
 40
7.0
 10
132.9135063686813
 20
-131.4266031572475
 30
0.0
 10
132.9135063686813
 20
-131.4266031572475
 30
0.0
 10
131.7190917639452
 20
-131.4266031572475
 30
0.0
 10
131.7190917639452
 20
-131.4266031572475
 30
0.0
 10
131.7190917639452
 20
-131.4266031572475
 30
0.0
 10
131.7190917639452
 20
-131.8079752274647
 30
0.0
 10
131.7190917639452
 20
-131.8079752274647
 30
0.0
 10
131.7190917639452
 20
-131.8079752274647
 30
0.0
 10
131.5592393334296
 20
-131.8079752274647
 30
0.0
 10
131.5592393334296
 20
-131.8079752274647
 30
0.0
 10
131.5433918941975
 20
-131.4241915904078
 30
0.0
 10
131.3670030053527
 20
-131.370448100838
 30
0.0
 10
131.2436685869808
 20
-131.3359971459855
 30
0.0
 10
131.2436685869808
 20
-131.3359971459855
 30
0.0
 10
131.2436685869808
 20
-131.1675319767567
 30
0.0
 10
131.2436685869808
 20
-131.1675319767567
 30
0.0
 10
131.2436685869808
 20
-131.1675319767567
 30
0.0
 10
132.9135063686813
 20
-131.1675319767567
 30
0.0
 10
132.9135063686813
 20
-131.1675319767567
 30
0.0
 10
132.9135063686813
 20
-131.1675319767567
 30
0.0
 10
132.9135063686813
 20
-131.4266031572475
 30
0.0
 10
132.9135063686813
 20
-131.4266031572475
 30
0.0
  0
HATCH
  5
1A3
330
19E
100
AcDbEntity
  8
_U+30EC_U+30A4_U+30E4_U+30FC 1
 62
   179
420
  2234388
100
AcDbHatch
 10
0.0
 20
0.0
 30
0.0
210
0.0
220
0.0
230
1.0
  2
SOLID
 70
     1
 71
     0
 91
        1
 92
        1
 93
        1
 72
     4
 94
        3
 73
     0
 74
     1
 95
       26
 96
       22
 40
0.0
 40
0.0
 40
0.0
 40
0.0
 40
1.0
 40
1.0
 40
1.0
 40
2.0
 40
2.0
 40
2.0
 40
3.0
 40
3.0
 40
3.0
 40
4.0
 40
4.0
 40
4.0
 40
5.0
 40
5.0
 40
5.0
 40
6.0
 40
6.0
 40
6.0
 40
7.0
 40
7.0
 40
7.0
 40
7.0
 10
132.9135063686813
 20
-131.4266031572475
 10
132.9135063686813
 20
-131.4266031572475
 10
131.7190917639452
 20
-131.4266031572475
 10
131.7190917639452
 20
-131.4266031572475
 10
131.7190917639452
 20
-131.4266031572475
 10
131.7190917639452
 20
-131.8079752274647
 10
131.7190917639452
 20
-131.8079752274647
 10
131.7190917639452
 20
-131.8079752274647
 10
131.5592393334296
 20
-131.8079752274647
 10
131.5592393334296
 20
-131.8079752274647
 10
131.5433918941975
 20
-131.4241915904078
 10
131.3670030053527
 20
-131.370448100838
 10
131.2436685869808
 20
-131.3359971459855
 10
131.2436685869808
 20
-131.3359971459855
 10
131.2436685869808
 20
-131.1675319767567
 10
131.2436685869808
 20
-131.1675319767567
 10
131.2436685869808
 20
-131.1675319767567
 10
132.9135063686813
 20
-131.1675319767567
 10
132.9135063686813
 20
-131.1675319767567
 10
132.9135063686813
 20
-131.1675319767567
 10
132.9135063686813
 20
-131.4266031572475
 10
132.9135063686813
 20
-131.4266031572475
 97
        0
 97
        0
 75
     2
 76
     1
 98
        0
  0
SPLINE
  5
1A4
330
19E
100
AcDbEntity
  8
_U+30EC_U+30A4_U+30E4_U+30FC 1
370
     0
100
AcDbSpline
210
0.0
220
0.0
230
1.0
 70
    11
 71
     3
 72
    62
 73
    58
 74
     0
 42
0.0000000001
 43
0.0000000001
 12
1.0
 22
0.0
 32
0.0
 13
1.0
 23
0.0
 33
0.0
 40
0.0
 40
0.0
 40
0.0
 40
0.0
 40
1.0
 40
1.0
 40
1.0
 40
2.0
 40
2.0
 40
2.0
 40
3.0
 40
3.0
 40
3.0
 40
4.0
 40
4.0
 40
4.0
 40
5.0
 40
5.0
 40
5.0
 40
6.0
 40
6.0
 40
6.0
 40
7.0
 40
7.0
 40
7.0
 40
8.0
 40
8.0
 40
8.0
 40
9.0
 40
9.0
 40
9.0
 40
10.0
 40
10.0
 40
10.0
 40
11.0
 40
11.0
 40
11.0
 40
12.0
 40
12.0
 40
12.0
 40
13.0
 40
13.0
 40
13.0
 40
14.0
 40
14.0
 40
14.0
 40
15.0
 40
15.0
 40
15.0
 40
16.0
 40
16.0
 40
16.0
 40
17.0
 40
17.0
 40
17.0
 40
18.0
 40
18.0
 40
18.0
 40
19.0
 40
19.0
 40
19.0
 40
19.0
 10
132.9682833868968
 20
-130.0220377279112
 30
0.0
 10
132.9682833868968
 20
-130.1315917643421
 30
0.0
 10
132.9455457566942
 20
-130.3834282443139
 30
0.0
 10
132.7443521803556
 20
-130.5277777451458
 30
0.0
 10
132.6230848192748
 20
-130.61321611318
 30
0.0
 10
132.515597840135
 20
-130.6180392468594
 30
0.0
 10
132.4239583002274
 20
-130.6228623805387
 30
0.0
 10
132.4239583002274
 20
-130.6228623805387
 30
0.0
 10
132.4239583002274
 20
-130.3686143337273
 30
0.0
 10
132.4239583002274
 20
-130.3686143337273
 30
0.0
 10
132.5038845154851
 20
-130.3665472764361
 30
0.0
 10
132.7581325622966
 20
-130.3541449326893
 30
0.0
 10
132.7581325622966
 20
-130.0268608615905
 30
0.0
 10
132.7581325622966
 20
-129.867697450172
 30
0.0
 10
132.6823404616211
 20
-129.6919975804242
 30
0.0
 10
132.4353271153287
 20
-129.6919975804242
 30
0.0
 10
132.3095811301171
 20
-129.6919975804242
 30
0.0
 10
132.2568711691927
 20
-129.7360948026354
 30
0.0
 10
132.2227647238888
 20
-129.7726128147791
 30
0.0
 10
132.1424939990824
 20
-129.8580511828133
 30
0.0
 10
132.12905812669
 20
-129.992409906738
 30
0.0
 10
132.12905812669
 20
-130.0557996636666
 30
0.0
 10
132.12905812669
 20
-130.0778482747722
 30
0.0
 10
132.1311251839811
 20
-130.1195339301437
 30
0.0
 10
132.1356038081119
 20
-130.1515733181566
 30
0.0
 10
132.1356038081119
 20
-130.1515733181566
 30
0.0
 10
131.9251084739632
 20
-130.1515733181566
 30
0.0
 10
131.9251084739632
 20
-130.1515733181566
 30
0.0
 10
131.9319986649337
 20
-130.1074760959454
 30
0.0
 10
131.9344102317733
 20
-130.0585557400548
 30
0.0
 10
131.9344102317733
 20
-130.0509765299873
 30
0.0
 10
131.9344102317733
 20
-129.9751844293118
 30
0.0
 10
131.9113280920222
 20
-129.7457410699941
 30
0.0
 10
131.6550129879196
 20
-129.7457410699941
 30
0.0
 10
131.4631211693912
 20
-129.7457410699941
 30
0.0
 10
131.4035210174964
 20
-129.8973252713451
 30
0.0
 10
131.4035210174964
 20
-130.0241047852023
 30
0.0
 10
131.4035210174964
 20
-130.329684754744
 30
0.0
 10
131.6550129879196
 20
-130.3396755316512
 30
0.0
 10
131.7328721458862
 20
-130.3444986653305
 30
0.0
 10
131.7328721458862
 20
-130.3444986653305
 30
0.0
 10
131.7328721458862
 20
-130.5787651583275
 30
0.0
 10
131.7328721458862
 20
-130.5787651583275
 30
0.0
 10
131.5978244028644
 20
-130.5691188909688
 30
0.0
 10
131.1906141165079
 20
-130.5374240125045
 30
0.0
 10
131.1906141165079
 20
-130.0096353841643
 30
0.0
 10
131.1906141165079
 20
-129.7505642036735
 30
0.0
 10
131.3280734263694
 20
-129.4718559789168
 30
0.0
 10
131.6481227969491
 20
-129.4718559789168
 30
0.0
 10
131.8496608828362
 20
-129.4718559789168
 30
0.0
 10
131.9388888559042
 20
-129.5817545248962
 30
0.0
 10
132.005034689221
 20
-129.6968207141036
 30
0.0
 10
132.0350070199426
 20
-129.6258517471074
 30
0.0
 10
132.1221679357195
 20
-129.4157009225072
 30
0.0
 10
132.4218912429362
 20
-129.4157009225072
 30
0.0
 10
132.7877603834697
 20
-129.4157009225072
 30
0.0
 10
132.9682833868968
 20
-129.7016438477829
 30
0.0
 10
132.9682833868968
 20
-130.0220377279112
 30
0.0
  0
HATCH
  5
1A5
330
19E
100
AcDbEntity
  8
_U+30EC_U+30A4_U+30E4_U+30FC 1
 62
   179
420
  2234388
100
AcDbHatch
 10
0.0
 20
0.0
 30
0.0
210
0.0
220
0.0
230
1.0
  2
SOLID
 70
     1
 71
     0
 91
        1
 92
        1
 93
        1
 72
     4
 94
        3
 73
     0
 74
     1
 95
       62
 96
       58
 40
0.0
 40
0.0
 40
0.0
 40
0.0
 40
1.0
 40
1.0
 40
1.0
 40
2.0
 40
2.0
 40
2.0
 40
3.0
 40
3.0
 40
3.0
 40
4.0
 40
4.0
 40
4.0
 40
5.0
 40
5.0
 40
5.0
 40
6.0
 40
6.0
 40
6.0
 40
7.0
 40
7.0
 40
7.0
 40
8.0
 40
8.0
 40
8.0
 40
9.0
 40
9.0
 40
9.0
 40
10.0
 40
10.0
 40
10.0
 40
11.0
 40
11.0
 40
11.0
 40
12.0
 40
12.0
 40
12.0
 40
13.0
 40
13.0
 40
13.0
 40
14.0
 40
14.0
 40
14.0
 40
15.0
 40
15.0
 40
15.0
 40
16.0
 40
16.0
 40
16.0
 40
17.0
 40
17.0
 40
17.0
 40
18.0
 40
18.0
 40
18.0
 40
19.0
 40
19.0
 40
19.0
 40
19.0
 10
132.9682833868968
 20
-130.0220377279112
 10
132.9682833868968
 20
-130.1315917643421
 10
132.9455457566942
 20
-130.3834282443139
 10
132.7443521803556
 20
-130.5277777451458
 10
132.6230848192748
 20
-130.61321611318
 10
132.515597840135
 20
-130.6180392468594
 10
132.4239583002274
 20
-130.6228623805387
 10
132.4239583002274
 20
-130.6228623805387
 10
132.4239583002274
 20
-130.3686143337273
 10
132.4239583002274
 20
-130.3686143337273
 10
132.5038845154851
 20
-130.3665472764361
 10
132.7581325622966
 20
-130.3541449326893
 10
132.7581325622966
 20
-130.0268608615905
 10
132.7581325622966
 20
-129.867697450172
 10
132.6823404616211
 20
-129.6919975804242
 10
132.4353271153287
 20
-129.6919975804242
 10
132.3095811301171
 20
-129.6919975804242
 10
132.2568711691927
 20
-129.7360948026354
 10
132.2227647238888
 20
-129.7726128147791
 10
132.1424939990824
 20
-129.8580511828133
 10
132.12905812669
 20
-129.992409906738
 10
132.12905812669
 20
-130.0557996636666
 10
132.12905812669
 20
-130.0778482747722
 10
132.1311251839811
 20
-130.1195339301437
 10
132.1356038081119
 20
-130.1515733181566
 10
132.1356038081119
 20
-130.1515733181566
 10
131.9251084739632
 20
-130.1515733181566
 10
131.9251084739632
 20
-130.1515733181566
 10
131.9319986649337
 20
-130.1074760959454
 10
131.9344102317733
 20
-130.0585557400548
 10
131.9344102317733
 20
-130.0509765299873
 10
131.9344102317733
 20
-129.9751844293118
 10
131.9113280920222
 20
-129.7457410699941
 10
131.6550129879196
 20
-129.7457410699941
 10
131.4631211693912
 20
-129.7457410699941
 10
131.4035210174964
 20
-129.8973252713451
 10
131.4035210174964
 20
-130.0241047852023
 10
131.4035210174964
 20
-130.329684754744
 10
131.6550129879196
 20
-130.3396755316512
 10
131.7328721458862
 20
-130.3444986653305
 10
131.7328721458862
 20
-130.3444986653305
 10
131.7328721458862
 20
-130.5787651583275
 10
131.7328721458862
 20
-130.5787651583275
 10
131.5978244028644
 20
-130.5691188909688
 10
131.1906141165079
 20
-130.5374240125045
 10
131.1906141165079
 20
-130.0096353841643
 10
131.1906141165079
 20
-129.7505642036735
 10
131.3280734263694
 20
-129.4718559789168
 10
131.6481227969491
 20
-129.4718559789168
 10
131.8496608828362
 20
-129.4718559789168
 10
131.9388888559042
 20
-129.5817545248962
 10
132.005034689221
 20
-129.6968207141036
 10
132.0350070199426
 20
-129.6258517471074
 10
132.1221679357195
 20
-129.4157009225072
 10
132.4218912429362
 20
-129.4157009225072
 10
132.7877603834697
 20
-129.4157009225072
 10
132.9682833868968
 20
-129.7016438477829
 10
132.9682833868968
 20
-130.0220377279112
 97
        0
 97
        0
 75
     2
 76
     1
 98
        0
  0
ENDBLK
  5
1A1
330
19E
100
AcDbEntity
  8
0
100
AcDbBlockEnd
  0
BLOCK
  5
1B4
330
1B2
100
AcDbEntity
  8
0
100
AcDbBlockBegin
  2
block 10
 70
     0
 10
0.0
 20
0.0
 30
0.0
  3
block 10
  1

  0
SPLINE
  5
1B6
330
1B2
100
AcDbEntity
  8
_U+30EC_U+30A4_U+30E4_U+30FC 1
370
     0
100
AcDbSpline
210
0.0
220
0.0
230
1.0
 70
    11
 71
     3
 72
    29
 73
    25
 74
     0
 42
0.0000000001
 43
0.0000000001
 12
1.0
 22
0.0
 32
0.0
 13
1.0
 23
0.0
 33
0.0
 40
0.0
 40
0.0
 40
0.0
 40
0.0
 40
1.0
 40
1.0
 40
1.0
 40
2.0
 40
2.0
 40
2.0
 40
3.0
 40
3.0
 40
3.0
 40
4.0
 40
4.0
 40
4.0
 40
5.0
 40
5.0
 40
5.0
 40
6.0
 40
6.0
 40
6.0
 40
7.0
 40
7.0
 40
7.0
 40
8.0
 40
8.0
 40
8.0
 40
8.0
 10
50.76847736360997
 20
-132.4411837776536
 30
0.0
 10
50.76847736360997
 20
-132.7291937602205
 30
0.0
 10
50.61964923864717
 20
-133.0041123799434
 30
0.0
 10
50.24223902823805
 20
-133.0041123799434
 30
0.0
 10
49.96542560599823
 20
-133.0041123799434
 30
0.0
 10
49.86241725098926
 20
-132.8504611213013
 30
0.0
 10
49.7960991628982
 20
-132.736083951191
 30
0.0
 10
49.73202038687256
 20
-132.8711316942128
 30
0.0
 10
49.60851371372635
 20
-132.9538139858588
 30
0.0
 10
49.43470864649549
 20
-132.9538139858588
 30
0.0
 10
49.13722465134417
 20
-132.9538139858588
 30
0.0
 10
48.99080809322105
 20
-132.7384955180306
 30
0.0
 10
48.99080809322105
 20
-132.4411837776536
 30
0.0
 10
48.99080809322105
 20
-132.1345702794664
 30
0.0
 10
49.14635415438008
 20
-131.9285535694484
 30
0.0
 10
49.43470864649549
 20
-131.9285535694484
 30
0.0
 10
49.60851371372635
 20
-131.9285535694484
 30
0.0
 10
49.73202038687256
 20
-132.0133029183856
 30
0.0
 10
49.7960991628982
 20
-132.1483506614074
 30
0.0
 10
49.85104843588793
 20
-132.0522324973689
 30
0.0
 10
49.95405679089691
 20
-131.8806667422035
 30
0.0
 10
50.23758814933296
 20
-131.8806667422035
 30
0.0
 10
50.64255912362408
 20
-131.8806667422035
 30
0.0
 10
50.76847736360997
 20
-132.1828016162599
 30
0.0
 10
50.76847736360997
 20
-132.4411837776536
 30
0.0
  0
SPLINE
  5
1B7
330
1B2
100
AcDbEntity
  8
_U+30EC_U+30A4_U+30E4_U+30FC 1
370
     0
100
AcDbSpline
210
0.0
220
0.0
230
1.0
 70
    11
 71
     3
 72
    17
 73
    13
 74
     0
 42
0.0000000001
 43
0.0000000001
 12
1.0
 22
0.0
 32
0.0
 13
1.0
 23
0.0
 33
0.0
 40
0.0
 40
0.0
 40
0.0
 40
0.0
 40
1.0
 40
1.0
 40
1.0
 40
2.0
 40
2.0
 40
2.0
 40
3.0
 40
3.0
 40
3.0
 40
4.0
 40
4.0
 40
4.0
 40
4.0
 10
49.1990641153044
 20
-132.4411837776536
 30
0.0
 10
49.1990641153044
 20
-132.6196397237895
 30
0.0
 10
49.30190021553911
 20
-132.7112792636972
 30
0.0
 10
49.44831677366223
 20
-132.7112792636972
 30
0.0
 10
49.58112520461861
 20
-132.7112792636972
 30
0.0
 10
49.70928275666991
 20
-132.6334201057306
 30
0.0
 10
49.70928275666991
 20
-132.4411837776536
 30
0.0
 10
49.70928275666991
 20
-132.2489474495767
 30
0.0
 10
49.58112520461861
 20
-132.17108829161
 30
0.0
 10
49.44831677366223
 20
-132.17108829161
 30
0.0
 10
49.30190021553911
 20
-132.17108829161
 30
0.0
 10
49.1990641153044
 20
-132.2647948888088
 30
0.0
 10
49.1990641153044
 20
-132.4411837776536
 30
0.0
  0
SPLINE
  5
1B8
330
1B2
100
AcDbEntity
  8
_U+30EC_U+30A4_U+30E4_U+30FC 1
370
     0
100
AcDbSpline
210
0.0
220
0.0
230
1.0
 70
    11
 71
     3
 72
    17
 73
    13
 74
     0
 42
0.0000000001
 43
0.0000000001
 12
1.0
 22
0.0
 32
0.0
 13
1.0
 23
0.0
 33
0.0
 40
0.0
 40
0.0
 40
0.0
 40
0.0
 40
1.0
 40
1.0
 40
1.0
 40
2.0
 40
2.0
 40
2.0
 40
3.0
 40
3.0
 40
3.0
 40
4.0
 40
4.0
 40
4.0
 40
4.0
 10
49.91288789984817
 20
-132.4411837776536
 30
0.0
 10
49.91288789984817
 20
-132.5969020935869
 30
0.0
 10
50.00659449704696
 20
-132.7615776577818
 30
0.0
 10
50.22621933423164
 20
-132.7615776577818
 30
0.0
 10
50.44808348348173
 20
-132.7615776577818
 30
0.0
 10
50.5579820294612
 20
-132.6241183479204
 30
0.0
 10
50.5579820294612
 20
-132.4411837776536
 30
0.0
 10
50.5579820294612
 20
-132.239990201315
 30
0.0
 10
50.42534585327908
 20
-132.1207898975254
 30
0.0
 10
50.23310952520214
 20
-132.1207898975254
 30
0.0
 10
49.99281411510596
 20
-132.1207898975254
 30
0.0
 10
49.91288789984817
 20
-132.2971787863702
 30
0.0
 10
49.91288789984817
 20
-132.4411837776536
 30
0.0
  0
HATCH
  5
1B9
330
1B2
100
AcDbEntity
  8
_U+30EC_U+30A4_U+30E4_U+30FC 1
 62
   179
420
  2234388
100
AcDbHatch
 10
0.0
 20
0.0
 30
0.0
210
0.0
220
0.0
230
1.0
  2
SOLID
 70
     1
 71
     0
 91
        3
 92
        1
 93
        1
 72
     4
 94
        3
 73
     0
 74
     1
 95
       29
 96
       25
 40
0.0
 40
0.0
 40
0.0
 40
0.0
 40
1.0
 40
1.0
 40
1.0
 40
2.0
 40
2.0
 40
2.0
 40
3.0
 40
3.0
 40
3.0
 40
4.0
 40
4.0
 40
4.0
 40
5.0
 40
5.0
 40
5.0
 40
6.0
 40
6.0
 40
6.0
 40
7.0
 40
7.0
 40
7.0
 40
8.0
 40
8.0
 40
8.0
 40
8.0
 10
50.76847736360997
 20
-132.4411837776536
 10
50.76847736360997
 20
-132.7291937602205
 10
50.61964923864717
 20
-133.0041123799434
 10
50.24223902823805
 20
-133.0041123799434
 10
49.96542560599823
 20
-133.0041123799434
 10
49.86241725098926
 20
-132.8504611213013
 10
49.7960991628982
 20
-132.736083951191
 10
49.73202038687256
 20
-132.8711316942128
 10
49.60851371372635
 20
-132.9538139858588
 10
49.43470864649549
 20
-132.9538139858588
 10
49.13722465134417
 20
-132.9538139858588
 10
48.99080809322105
 20
-132.7384955180306
 10
48.99080809322105
 20
-132.4411837776536
 10
48.99080809322105
 20
-132.1345702794664
 10
49.14635415438008
 20
-131.9285535694484
 10
49.43470864649549
 20
-131.9285535694484
 10
49.60851371372635
 20
-131.9285535694484
 10
49.73202038687256
 20
-132.0133029183856
 10
49.7960991628982
 20
-132.1483506614074
 10
49.85104843588793
 20
-132.0522324973689
 10
49.95405679089691
 20
-131.8806667422035
 10
50.23758814933296
 20
-131.8806667422035
 10
50.64255912362408
 20
-131.8806667422035
 10
50.76847736360997
 20
-132.1828016162599
 10
50.76847736360997
 20
-132.4411837776536
 97
        0
 97
        0
 92
        1
 93
        1
 72
     4
 94
        3
 73
     0
 74
     1
 95
       17
 96
       13
 40
0.0
 40
0.0
 40
0.0
 40
0.0
 40
1.0
 40
1.0
 40
1.0
 40
2.0
 40
2.0
 40
2.0
 40
3.0
 40
3.0
 40
3.0
 40
4.0
 40
4.0
 40
4.0
 40
4.0
 10
49.1990641153044
 20
-132.4411837776536
 10
49.1990641153044
 20
-132.6196397237895
 10
49.30190021553911
 20
-132.7112792636972
 10
49.44831677366223
 20
-132.7112792636972
 10
49.58112520461861
 20
-132.7112792636972
 10
49.70928275666991
 20
-132.6334201057306
 10
49.70928275666991
 20
-132.4411837776536
 10
49.70928275666991
 20
-132.2489474495767
 10
49.58112520461861
 20
-132.17108829161
 10
49.44831677366223
 20
-132.17108829161
 10
49.30190021553911
 20
-132.17108829161
 10
49.1990641153044
 20
-132.2647948888088
 10
49.1990641153044
 20
-132.4411837776536
 97
        0
 97
        0
 92
        1
 93
        1
 72
     4
 94
        3
 73
     0
 74
     1
 95
       17
 96
       13
 40
0.0
 40
0.0
 40
0.0
 40
0.0
 40
1.0
 40
1.0
 40
1.0
 40
2.0
 40
2.0
 40
2.0
 40
3.0
 40
3.0
 40
3.0
 40
4.0
 40
4.0
 40
4.0
 40
4.0
 10
49.91288789984817
 20
-132.4411837776536
 10
49.91288789984817
 20
-132.5969020935869
 10
50.00659449704696
 20
-132.7615776577818
 10
50.22621933423164
 20
-132.7615776577818
 10
50.44808348348173
 20
-132.7615776577818
 10
50.5579820294612
 20
-132.6241183479204
 10
50.5579820294612
 20
-132.4411837776536
 10
50.5579820294612
 20
-132.239990201315
 10
50.42534585327908
 20
-132.1207898975254
 10
50.23310952520214
 20
-132.1207898975254
 10
49.99281411510596
 20
-132.1207898975254
 10
49.91288789984817
 20
-132.2971787863702
 10
49.91288789984817
 20
-132.4411837776536
 97
        0
 97
        0
 75
     2
 76
     1
 98
        0
  0
ENDBLK
  5
1B5
330
1B2
100
AcDbEntity
  8
0
100
AcDbBlockEnd
  0
BLOCK
  5
1C8
330
1C6
100
AcDbEntity
  8
0
100
AcDbBlockBegin
  2
block 11
 70
     0
 10
0.0
 20
0.0
 30
0.0
  3
block 11
  1

  0
SPLINE
  5
1CA
330
1C6
100
AcDbEntity
  8
_U+30EC_U+30A4_U+30E4_U+30FC 1
370
     0
100
AcDbSpline
210
0.0
220
0.0
230
1.0
 70
    11
 71
     3
 72
    26
 73
    22
 74
     0
 42
0.0000000001
 43
0.0000000001
 12
1.0
 22
0.0
 32
0.0
 13
1.0
 23
0.0
 33
0.0
 40
0.0
 40
0.0
 40
0.0
 40
0.0
 40
1.0
 40
1.0
 40
1.0
 40
2.0
 40
2.0
 40
2.0
 40
3.0
 40
3.0
 40
3.0
 40
4.0
 40
4.0
 40
4.0
 40
5.0
 40
5.0
 40
5.0
 40
6.0
 40
6.0
 40
6.0
 40
7.0
 40
7.0
 40
7.0
 40
7.0
 10
61.0696573740555
 20
-126.8398030281859
 30
0.0
 10
61.0696573740555
 20
-126.8398030281859
 30
0.0
 10
60.81351452472718
 20
-126.8398030281859
 30
0.0
 10
60.81351452472718
 20
-126.8398030281859
 30
0.0
 10
60.84090303383491
 20
-126.5058010208909
 30
0.0
 10
61.04915905591827
 20
-125.9452839854408
 30
0.0
 10
61.48840873028762
 20
-125.3985473319316
 30
0.0
 10
61.48840873028762
 20
-125.3985473319316
 30
0.0
 10
60.58234861766692
 20
-125.3985473319316
 30
0.0
 10
60.58234861766692
 20
-125.3985473319316
 30
0.0
 10
60.58234861766692
 20
-125.3985473319316
 30
0.0
 10
60.58234861766692
 20
-125.169792991711
 30
0.0
 10
60.58234861766692
 20
-125.169792991711
 30
0.0
 10
60.58234861766692
 20
-125.169792991711
 30
0.0
 10
61.74455157961595
 20
-125.169792991711
 30
0.0
 10
61.74455157961595
 20
-125.169792991711
 30
0.0
 10
61.74455157961595
 20
-125.169792991711
 30
0.0
 10
61.74455157961595
 20
-125.3985473319316
 30
0.0
 10
61.74455157961595
 20
-125.3985473319316
 30
0.0
 10
61.39452987831456
 20
-125.7118787663151
 30
0.0
 10
61.10634764097342
 20
-126.3524942717973
 30
0.0
 10
61.0696573740555
 20
-126.8398030281859
 30
0.0
  0
HATCH
  5
1CB
330
1C6
100
AcDbEntity
  8
_U+30EC_U+30A4_U+30E4_U+30FC 1
 62
   179
420
  2234388
100
AcDbHatch
 10
0.0
 20
0.0
 30
0.0
210
0.0
220
0.0
230
1.0
  2
SOLID
 70
     1
 71
     0
 91
        1
 92
        1
 93
        1
 72
     4
 94
        3
 73
     0
 74
     1
 95
       26
 96
       22
 40
0.0
 40
0.0
 40
0.0
 40
0.0
 40
1.0
 40
1.0
 40
1.0
 40
2.0
 40
2.0
 40
2.0
 40
3.0
 40
3.0
 40
3.0
 40
4.0
 40
4.0
 40
4.0
 40
5.0
 40
5.0
 40
5.0
 40
6.0
 40
6.0
 40
6.0
 40
7.0
 40
7.0
 40
7.0
 40
7.0
 10
61.0696573740555
 20
-126.8398030281859
 10
61.0696573740555
 20
-126.8398030281859
 10
60.81351452472718
 20
-126.8398030281859
 10
60.81351452472718
 20
-126.8398030281859
 10
60.84090303383491
 20
-126.5058010208909
 10
61.04915905591827
 20
-125.9452839854408
 10
61.48840873028762
 20
-125.3985473319316
 10
61.48840873028762
 20
-125.3985473319316
 10
60.58234861766692
 20
-125.3985473319316
 10
60.58234861766692
 20
-125.3985473319316
 10
60.58234861766692
 20
-125.3985473319316
 10
60.58234861766692
 20
-125.169792991711
 10
60.58234861766692
 20
-125.169792991711
 10
60.58234861766692
 20
-125.169792991711
 10
61.74455157961595
 20
-125.169792991711
 10
61.74455157961595
 20
-125.169792991711
 10
61.74455157961595
 20
-125.169792991711
 10
61.74455157961595
 20
-125.3985473319316
 10
61.74455157961595
 20
-125.3985473319316
 10
61.39452987831456
 20
-125.7118787663151
 10
61.10634764097342
 20
-126.3524942717973
 10
61.0696573740555
 20
-126.8398030281859
 97
        0
 97
        0
 75
     2
 76
     1
 98
        0
  0
ENDBLK
  5
1C9
330
1C6
100
AcDbEntity
  8
0
100
AcDbBlockEnd
  0
BLOCK
  5
1D6
330
1D4
100
AcDbEntity
  8
0
100
AcDbBlockBegin
  2
block 12
 70
     0
 10
0.0
 20
0.0
 30
0.0
  3
block 12
  1

  0
SPLINE
  5
1D8
330
1D4
100
AcDbEntity
  8
_U+30EC_U+30A4_U+30E4_U+30FC 1
370
     0
100
AcDbSpline
210
0.0
220
0.0
230
1.0
 70
    11
 71
     3
 72
    26
 73
    22
 74
     0
 42
0.0000000001
 43
0.0000000001
 12
1.0
 22
0.0
 32
0.0
 13
1.0
 23
0.0
 33
0.0
 40
0.0
 40
0.0
 40
0.0
 40
0.0
 40
1.0
 40
1.0
 40
1.0
 40
2.0
 40
2.0
 40
2.0
 40
3.0
 40
3.0
 40
3.0
 40
4.0
 40
4.0
 40
4.0
 40
5.0
 40
5.0
 40
5.0
 40
6.0
 40
6.0
 40
6.0
 40
7.0
 40
7.0
 40
7.0
 40
7.0
 10
57.43008624866332
 20
-136.7041449311018
 30
0.0
 10
57.43008624866332
 20
-136.7041449311018
 30
0.0
 10
57.43008624866332
 20
-135.5100748359142
 30
0.0
 10
57.43008624866332
 20
-135.5100748359142
 30
0.0
 10
57.43008624866332
 20
-135.5100748359142
 30
0.0
 10
57.04888643322042
 20
-135.5100748359142
 30
0.0
 10
57.04888643322042
 20
-135.5100748359142
 30
0.0
 10
57.04888643322042
 20
-135.5100748359142
 30
0.0
 10
57.04888643322042
 20
-135.34987789585
 30
0.0
 10
57.04888643322042
 20
-135.34987789585
 30
0.0
 10
57.43249781550299
 20
-135.3340304566179
 30
0.0
 10
57.48624130507289
 20
-135.1579860773216
 30
0.0
 10
57.52052000515112
 20
-135.0343071494011
 30
0.0
 10
57.52052000515112
 20
-135.0343071494011
 30
0.0
 10
57.6891574291541
 20
-135.0343071494011
 30
0.0
 10
57.6891574291541
 20
-135.0343071494011
 30
0.0
 10
57.6891574291541
 20
-135.0343071494011
 30
0.0
 10
57.6891574291541
 20
-136.7041449311018
 30
0.0
 10
57.6891574291541
 20
-136.7041449311018
 30
0.0
 10
57.6891574291541
 20
-136.7041449311018
 30
0.0
 10
57.43008624866332
 20
-136.7041449311018
 30
0.0
 10
57.43008624866332
 20
-136.7041449311018
 30
0.0
  0
HATCH
  5
1D9
330
1D4
100
AcDbEntity
  8
_U+30EC_U+30A4_U+30E4_U+30FC 1
 62
   179
420
  2234388
100
AcDbHatch
 10
0.0
 20
0.0
 30
0.0
210
0.0
220
0.0
230
1.0
  2
SOLID
 70
     1
 71
     0
 91
        1
 92
        1
 93
        1
 72
     4
 94
        3
 73
     0
 74
     1
 95
       26
 96
       22
 40
0.0
 40
0.0
 40
0.0
 40
0.0
 40
1.0
 40
1.0
 40
1.0
 40
2.0
 40
2.0
 40
2.0
 40
3.0
 40
3.0
 40
3.0
 40
4.0
 40
4.0
 40
4.0
 40
5.0
 40
5.0
 40
5.0
 40
6.0
 40
6.0
 40
6.0
 40
7.0
 40
7.0
 40
7.0
 40
7.0
 10
57.43008624866332
 20
-136.7041449311018
 10
57.43008624866332
 20
-136.7041449311018
 10
57.43008624866332
 20
-135.5100748359142
 10
57.43008624866332
 20
-135.5100748359142
 10
57.43008624866332
 20
-135.5100748359142
 10
57.04888643322042
 20
-135.5100748359142
 10
57.04888643322042
 20
-135.5100748359142
 10
57.04888643322042
 20
-135.5100748359142
 10
57.04888643322042
 20
-135.34987789585
 10
57.04888643322042
 20
-135.34987789585
 10
57.43249781550299
 20
-135.3340304566179
 10
57.48624130507289
 20
-135.1579860773216
 10
57.52052000515112
 20
-135.0343071494011
 10
57.52052000515112
 20
-135.0343071494011
 10
57.6891574291541
 20
-135.0343071494011
 10
57.6891574291541
 20
-135.0343071494011
 10
57.6891574291541
 20
-135.0343071494011
 10
57.6891574291541
 20
-136.7041449311018
 10
57.6891574291541
 20
-136.7041449311018
 10
57.6891574291541
 20
-136.7041449311018
 10
57.43008624866332
 20
-136.7041449311018
 10
57.43008624866332
 20
-136.7041449311018
 97
        0
 97
        0
 75
     2
 76
     1
 98
        0
  0
SPLINE
  5
1DA
330
1D4
100
AcDbEntity
  8
_U+30EC_U+30A4_U+30E4_U+30FC 1
370
     0
100
AcDbSpline
210
0.0
220
0.0
230
1.0
 70
    11
 71
     3
 72
    32
 73
    28
 74
     0
 42
0.0000000001
 43
0.0000000001
 12
1.0
 22
0.0
 32
0.0
 13
1.0
 23
0.0
 33
0.0
 40
0.0
 40
0.0
 40
0.0
 40
0.0
 40
1.0
 40
1.0
 40
1.0
 40
2.0
 40
2.0
 40
2.0
 40
3.0
 40
3.0
 40
3.0
 40
4.0
 40
4.0
 40
4.0
 40
5.0
 40
5.0
 40
5.0
 40
6.0
 40
6.0
 40
6.0
 40
7.0
 40
7.0
 40
7.0
 40
8.0
 40
8.0
 40
8.0
 40
9.0
 40
9.0
 40
9.0
 40
9.0
 10
58.84946558858625
 20
-136.7592664588657
 30
0.0
 10
58.25329181486376
 20
-136.7592664588657
 30
0.0
 10
58.2434732927308
 20
-136.1598198444323
 30
0.0
 10
58.2434732927308
 20
-135.9289984469205
 30
0.0
 10
58.2434732927308
 20
-135.6795735337884
 30
0.0
 10
58.2655219038364
 20
-134.9795301311857
 30
0.0
 10
58.89356281079745
 20
-134.9795301311857
 30
0.0
 10
59.09389511326472
 20
-134.9795301311857
 30
0.0
 10
59.37742647170079
 20
-135.0546332127641
 30
0.0
 10
59.42135143913772
 20
-135.4139566718757
 30
0.0
 10
59.42135143913772
 20
-135.4139566718757
 30
0.0
 10
59.17451034761957
 20
-135.4139566718757
 30
0.0
 10
59.17451034761957
 20
-135.4139566718757
 30
0.0
 10
59.16228025864693
 20
-135.3522894626897
 30
0.0
 10
59.12576224650329
 20
-135.1920925226256
 30
0.0
 10
58.89115124395777
 20
-135.1920925226256
 30
0.0
 10
58.55387639595181
 20
-135.1920925226256
 30
0.0
 10
58.50736760690094
 20
-135.5465928480578
 30
0.0
 10
58.49272595108863
 20
-135.7684569973079
 30
0.0
 10
58.60021293022842
 20
-135.6840521579193
 30
0.0
 10
58.67841659774359
 20
-135.6199733818936
 30
0.0
 10
58.8887396771181
 20
-135.6199733818936
 30
0.0
 10
59.0963066801044
 20
-135.6199733818936
 30
0.0
 10
59.445811617083
 20
-135.7367621188436
 30
0.0
 10
59.445811617083
 20
-136.1756672836644
 30
0.0
 10
59.445811617083
 20
-136.521210360835
 30
0.0
 10
59.21619600299109
 20
-136.7592664588657
 30
0.0
 10
58.84946558858625
 20
-136.7592664588657
 30
0.0
  0
SPLINE
  5
1DB
330
1D4
100
AcDbEntity
  8
_U+30EC_U+30A4_U+30E4_U+30FC 1
370
     0
100
AcDbSpline
210
0.0
220
0.0
230
1.0
 70
    11
 71
     3
 72
    17
 73
    13
 74
     0
 42
0.0000000001
 43
0.0000000001
 12
1.0
 22
0.0
 32
0.0
 13
1.0
 23
0.0
 33
0.0
 40
0.0
 40
0.0
 40
0.0
 40
0.0
 40
1.0
 40
1.0
 40
1.0
 40
2.0
 40
2.0
 40
2.0
 40
3.0
 40
3.0
 40
3.0
 40
4.0
 40
4.0
 40
4.0
 40
4.0
 10
58.86910263285217
 20
-135.8304687160424
 30
0.0
 10
58.56610648492445
 20
-135.8304687160424
 30
0.0
 10
58.52200926271325
 20
-136.059223056263
 30
0.0
 10
58.52200926271325
 20
-136.1849690414746
 30
0.0
 10
58.52200926271325
 20
-136.3747938027118
 30
0.0
 10
58.63208006346698
 20
-136.5511826915566
 30
0.0
 10
58.8446424549069
 20
-136.5511826915566
 30
0.0
 10
58.98399656728525
 20
-136.5511826915566
 30
0.0
 10
59.18674043659221
 20
-136.487103915531
 30
0.0
 10
59.18674043659221
 20
-136.1780788505041
 30
0.0
 10
59.18674043659221
 20
-135.9355441283425
 30
0.0
 10
59.02550996788251
 20
-135.8304687160424
 30
0.0
 10
58.86910263285217
 20
-135.8304687160424
 30
0.0
  0
HATCH
  5
1DC
330
1D4
100
AcDbEntity
  8
_U+30EC_U+30A4_U+30E4_U+30FC 1
 62
   179
420
  2234388
100
AcDbHatch
 10
0.0
 20
0.0
 30
0.0
210
0.0
220
0.0
230
1.0
  2
SOLID
 70
     1
 71
     0
 91
        2
 92
        1
 93
        1
 72
     4
 94
        3
 73
     0
 74
     1
 95
       32
 96
       28
 40
0.0
 40
0.0
 40
0.0
 40
0.0
 40
1.0
 40
1.0
 40
1.0
 40
2.0
 40
2.0
 40
2.0
 40
3.0
 40
3.0
 40
3.0
 40
4.0
 40
4.0
 40
4.0
 40
5.0
 40
5.0
 40
5.0
 40
6.0
 40
6.0
 40
6.0
 40
7.0
 40
7.0
 40
7.0
 40
8.0
 40
8.0
 40
8.0
 40
9.0
 40
9.0
 40
9.0
 40
9.0
 10
58.84946558858625
 20
-136.7592664588657
 10
58.25329181486376
 20
-136.7592664588657
 10
58.2434732927308
 20
-136.1598198444323
 10
58.2434732927308
 20
-135.9289984469205
 10
58.2434732927308
 20
-135.6795735337884
 10
58.2655219038364
 20
-134.9795301311857
 10
58.89356281079745
 20
-134.9795301311857
 10
59.09389511326472
 20
-134.9795301311857
 10
59.37742647170079
 20
-135.0546332127641
 10
59.42135143913772
 20
-135.4139566718757
 10
59.42135143913772
 20
-135.4139566718757
 10
59.17451034761957
 20
-135.4139566718757
 10
59.17451034761957
 20
-135.4139566718757
 10
59.16228025864693
 20
-135.3522894626897
 10
59.12576224650329
 20
-135.1920925226256
 10
58.89115124395777
 20
-135.1920925226256
 10
58.55387639595181
 20
-135.1920925226256
 10
58.50736760690094
 20
-135.5465928480578
 10
58.49272595108863
 20
-135.7684569973079
 10
58.60021293022842
 20
-135.6840521579193
 10
58.67841659774359
 20
-135.6199733818936
 10
58.8887396771181
 20
-135.6199733818936
 10
59.0963066801044
 20
-135.6199733818936
 10
59.445811617083
 20
-135.7367621188436
 10
59.445811617083
 20
-136.1756672836644
 10
59.445811617083
 20
-136.521210360835
 10
59.21619600299109
 20
-136.7592664588657
 10
58.84946558858625
 20
-136.7592664588657
 97
        0
 97
        0
 92
        1
 93
        1
 72
     4
 94
        3
 73
     0
 74
     1
 95
       17
 96
       13
 40
0.0
 40
0.0
 40
0.0
 40
0.0
 40
1.0
 40
1.0
 40
1.0
 40
2.0
 40
2.0
 40
2.0
 40
3.0
 40
3.0
 40
3.0
 40
4.0
 40
4.0
 40
4.0
 40
4.0
 10
58.86910263285217
 20
-135.8304687160424
 10
58.56610648492445
 20
-135.8304687160424
 10
58.52200926271325
 20
-136.059223056263
 10
58.52200926271325
 20
-136.1849690414746
 10
58.52200926271325
 20
-136.3747938027118
 10
58.63208006346698
 20
-136.5511826915566
 10
58.8446424549069
 20
-136.5511826915566
 10
58.98399656728525
 20
-136.5511826915566
 10
59.18674043659221
 20
-136.487103915531
 10
59.18674043659221
 20
-136.1780788505041
 10
59.18674043659221
 20
-135.9355441283425
 10
59.02550996788251
 20
-135.8304687160424
 10
58.86910263285217
 20
-135.8304687160424
 97
        0
 97
        0
 75
     2
 76
     1
 98
        0
  0
ENDBLK
  5
1D7
330
1D4
100
AcDbEntity
  8
0
100
AcDbBlockEnd
  0
ENDSEC
  0
SECTION
  2
ENTITIES
  0
INSERT
  5
42
330
1F
100
AcDbEntity
  8
_U+30EC_U+30A4_U+30E4_U+30FC 1
100
AcDbBlockReference
  2
block 2
 10
0.0
 20
0.0
 30
0.0
  0
SPLINE
  5
5D
330
1F
100
AcDbEntity
  8
_U+30EC_U+30A4_U+30E4_U+30FC 1
370
     0
100
AcDbSpline
210
0.0
220
0.0
230
1.0
 70
    11
 71
     3
 72
   104
 73
   100
 74
     0
 42
0.0000000001
 43
0.0000000001
 12
1.0
 22
0.0
 32
0.0
 13
1.0
 23
0.0
 33
0.0
 40
0.0
 40
0.0
 40
0.0
 40
0.0
 40
1.0
 40
1.0
 40
1.0
 40
2.0
 40
2.0
 40
2.0
 40
3.0
 40
3.0
 40
3.0
 40
4.0
 40
4.0
 40
4.0
 40
5.0
 40
5.0
 40
5.0
 40
6.0
 40
6.0
 40
6.0
 40
7.0
 40
7.0
 40
7.0
 40
8.0
 40
8.0
 40
8.0
 40
9.0
 40
9.0
 40
9.0
 40
10.0
 40
10.0
 40
10.0
 40
11.0
 40
11.0
 40
11.0
 40
12.0
 40
12.0
 40
12.0
 40
13.0
 40
13.0
 40
13.0
 40
14.0
 40
14.0
 40
14.0
 40
15.0
 40
15.0
 40
15.0
 40
16.0
 40
16.0
 40
16.0
 40
17.0
 40
17.0
 40
17.0
 40
18.0
 40
18.0
 40
18.0
 40
19.0
 40
19.0
 40
19.0
 40
20.0
 40
20.0
 40
20.0
 40
21.0
 40
21.0
 40
21.0
 40
22.0
 40
22.0
 40
22.0
 40
23.0
 40
23.0
 40
23.0
 40
24.0
 40
24.0
 40
24.0
 40
25.0
 40
25.0
 40
25.0
 40
26.0
 40
26.0
 40
26.0
 40
27.0
 40
27.0
 40
27.0
 40
28.0
 40
28.0
 40
28.0
 40
29.0
 40
29.0
 40
29.0
 40
30.0
 40
30.0
 40
30.0
 40
31.0
 40
31.0
 40
31.0
 40
32.0
 40
32.0
 40
32.0
 40
33.0
 40
33.0
 40
33.0
 40
33.0
 10
53.73987224009275
 20
-129.8222221897667
 30
0.0
 10
53.73987224009275
 20
-129.8222221897667
 30
0.0
 10
53.73987224009275
 20
-130.410302745175
 30
0.0
 10
53.73987224009275
 20
-130.410302745175
 30
0.0
 10
53.73987224009275
 20
-130.410302745175
 30
0.0
 10
58.44363609650033
 20
-130.4692166340496
 30
0.0
 10
58.44363609650033
 20
-130.4692166340496
 30
0.0
 10
58.44363609650033
 20
-130.4692166340496
 30
0.0
 10
58.85532776306389
 20
-129.0577527455135
 30
0.0
 10
59.67835831841388
 20
-130.351388856301
 30
0.0
 10
59.67835831841388
 20
-130.351388856301
 30
0.0
 10
62.61805553990104
 20
-130.351388856301
 30
0.0
 10
62.61805553990104
 20
-130.351388856301
 30
0.0
 10
62.61805553990104
 20
-130.351388856301
 30
0.0
 10
62.67696942877534
 20
-134.2908582997604
 30
0.0
 10
62.67696942877534
 20
-134.2908582997604
 30
0.0
 10
62.67696942877534
 20
-134.2908582997604
 30
0.0
 10
62.97083331759062
 20
-134.64363607745
 30
0.0
 10
62.97083331759062
 20
-134.64363607745
 30
0.0
 10
62.97083331759062
 20
-134.64363607745
 30
0.0
 10
79.31626047647362
 20
-134.64363607745
 30
0.0
 10
79.31626047647362
 20
-134.64363607745
 30
0.0
 10
79.31626047647362
 20
-134.64363607745
 30
0.0
 10
117.71030274835
 20
-134.64363607745
 30
0.0
 10
117.71030274835
 20
-134.64363607745
 30
0.0
 10
117.71030274835
 20
-134.64363607745
 30
0.0
 10
122.2964138583146
 20
-134.64363607745
 30
0.0
 10
122.2964138583146
 20
-134.64363607745
 30
0.0
 10
122.2964138583146
 20
-134.64363607745
 30
0.0
 10
122.7081055248788
 20
-134.3497721886351
 30
0.0
 10
122.7081055248788
 20
-134.3497721886351
 30
0.0
 10
122.7081055248788
 20
-134.3497721886351
 30
0.0
 10
122.7081055248788
 20
-130.7630805228646
 30
0.0
 10
122.7081055248788
 20
-130.7630805228646
 30
0.0
 10
122.7081055248788
 20
-130.7630805228646
 30
0.0
 10
122.5902777471302
 20
-130.4692166340496
 30
0.0
 10
122.5902777471302
 20
-130.4692166340496
 30
0.0
 10
122.5902777471302
 20
-130.4692166340496
 30
0.0
 10
117.4749999706313
 20
-130.410302745175
 30
0.0
 10
117.4749999706313
 20
-130.410302745175
 30
0.0
 10
117.4749999706313
 20
-130.410302745175
 30
0.0
 10
116.5930555264073
 20
-129.9400499675153
 30
0.0
 10
116.7108833041559
 20
-129.4108833009809
 30
0.0
 10
116.7108833041559
 20
-129.4108833009809
 30
0.0
 10
116.6519694152813
 20
-128.7638888566979
 30
0.0
 10
117.416438859535
 20
-128.6464138567274
 30
0.0
 10
117.416438859535
 20
-128.6464138567274
 30
0.0
 10
122.825580524849
 20
-128.6464138567274
 30
0.0
 10
122.825580524849
 20
-128.6464138567274
 30
0.0
 10
122.825580524849
 20
-128.6464138567274
 30
0.0
 10
124.8833333021125
 20
-127.470429134799
 30
0.0
 10
124.8833333021125
 20
-127.470429134799
 30
0.0
 10
124.8833333021125
 20
-127.470429134799
 30
0.0
 10
130.998383300584
 20
-127.470429134799
 30
0.0
 10
130.998383300584
 20
-127.470429134799
 30
0.0
 10
130.998383300584
 20
-127.470429134799
 30
0.0
 10
130.998383300584
 20
-126.8236110794052
 30
0.0
 10
130.998383300584
 20
-126.8236110794052
 30
0.0
 10
130.998383300584
 20
-126.8236110794052
 30
0.0
 10
124.7658583021417
 20
-126.8236110794052
 30
0.0
 10
124.7658583021417
 20
-126.8236110794052
 30
0.0
 10
124.7658583021417
 20
-126.8236110794052
 30
0.0
 10
122.7081055248788
 20
-127.9995958013333
 30
0.0
 10
122.7081055248788
 20
-127.9995958013333
 30
0.0
 10
122.7081055248788
 20
-127.9995958013333
 30
0.0
 10
117.4749999706313
 20
-127.9995958013333
 30
0.0
 10
117.4749999706313
 20
-127.9995958013333
 30
0.0
 10
117.4749999706313
 20
-127.9995958013333
 30
0.0
 10
116.1813638598437
 20
-128.176161079067
 30
0.0
 10
116.0638888598729
 20
-129.3519694121063
 30
0.0
 10
116.0638888598729
 20
-129.3519694121063
 30
0.0
 10
115.8874999710281
 20
-130.6452527451167
 30
0.0
 10
117.4749999706313
 20
-131.0569444116802
 30
0.0
 10
117.4749999706313
 20
-131.0569444116802
 30
0.0
 10
122.0025499694996
 20
-131.0569444116802
 30
0.0
 10
122.0025499694996
 20
-131.0569444116802
 30
0.0
 10
122.0025499694996
 20
-131.0569444116802
 30
0.0
 10
122.0025499694996
 20
-133.9380805220709
 30
0.0
 10
122.0025499694996
 20
-133.9380805220709
 30
0.0
 10
122.0025499694996
 20
-133.9380805220709
 30
0.0
 10
95.89699442047046
 20
-133.9969944109455
 30
0.0
 10
95.89699442047046
 20
-133.9969944109455
 30
0.0
 10
95.89699442047046
 20
-133.9969944109455
 30
0.0
 10
63.26487199708976
 20
-133.9969944109455
 30
0.0
 10
63.26487199708976
 20
-133.9969944109455
 30
0.0
 10
63.26487199708976
 20
-133.9969944109455
 30
0.0
 10
63.20613609530971
 20
-130.11643885636
 30
0.0
 10
63.20613609530971
 20
-130.11643885636
 30
0.0
 10
63.20613609530971
 20
-130.11643885636
 30
0.0
 10
63.08848311270093
 20
-129.8222221897667
 30
0.0
 10
63.08848311270093
 20
-129.8222221897667
 30
0.0
 10
63.08848311270093
 20
-129.8222221897667
 30
0.0
 10
60.08987207809076
 20
-129.8222221897667
 30
0.0
 10
60.08987207809076
 20
-129.8222221897667
 30
0.0
 10
60.08987207809076
 20
-129.8222221897667
 30
0.0
 10
59.03153877175776
 20
-128.2934596901489
 30
0.0
 10
57.97320546542475
 20
-129.8222221897667
 30
0.0
 10
57.97320546542475
 20
-129.8222221897667
 30
0.0
 10
53.73987224009275
 20
-129.8222221897667
 30
0.0
 10
53.73987224009275
 20
-129.8222221897667
 30
0.0
  0
HATCH
  5
5E
330
1F
100
AcDbEntity
  8
_U+30EC_U+30A4_U+30E4_U+30FC 1
 62
   253
420
 10066329
100
AcDbHatch
 10
0.0
 20
0.0
 30
0.0
210
0.0
220
0.0
230
1.0
  2
SOLID
 70
     1
 71
     0
 91
        1
 92
        1
 93
        1
 72
     4
 94
        3
 73
     0
 74
     1
 95
      104
 96
      100
 40
0.0
 40
0.0
 40
0.0
 40
0.0
 40
1.0
 40
1.0
 40
1.0
 40
2.0
 40
2.0
 40
2.0
 40
3.0
 40
3.0
 40
3.0
 40
4.0
 40
4.0
 40
4.0
 40
5.0
 40
5.0
 40
5.0
 40
6.0
 40
6.0
 40
6.0
 40
7.0
 40
7.0
 40
7.0
 40
8.0
 40
8.0
 40
8.0
 40
9.0
 40
9.0
 40
9.0
 40
10.0
 40
10.0
 40
10.0
 40
11.0
 40
11.0
 40
11.0
 40
12.0
 40
12.0
 40
12.0
 40
13.0
 40
13.0
 40
13.0
 40
14.0
 40
14.0
 40
14.0
 40
15.0
 40
15.0
 40
15.0
 40
16.0
 40
16.0
 40
16.0
 40
17.0
 40
17.0
 40
17.0
 40
18.0
 40
18.0
 40
18.0
 40
19.0
 40
19.0
 40
19.0
 40
20.0
 40
20.0
 40
20.0
 40
21.0
 40
21.0
 40
21.0
 40
22.0
 40
22.0
 40
22.0
 40
23.0
 40
23.0
 40
23.0
 40
24.0
 40
24.0
 40
24.0
 40
25.0
 40
25.0
 40
25.0
 40
26.0
 40
26.0
 40
26.0
 40
27.0
 40
27.0
 40
27.0
 40
28.0
 40
28.0
 40
28.0
 40
29.0
 40
29.0
 40
29.0
 40
30.0
 40
30.0
 40
30.0
 40
31.0
 40
31.0
 40
31.0
 40
32.0
 40
32.0
 40
32.0
 40
33.0
 40
33.0
 40
33.0
 40
33.0
 10
53.73987224009275
 20
-129.8222221897667
 10
53.73987224009275
 20
-129.8222221897667
 10
53.73987224009275
 20
-130.410302745175
 10
53.73987224009275
 20
-130.410302745175
 10
53.73987224009275
 20
-130.410302745175
 10
58.44363609650033
 20
-130.4692166340496
 10
58.44363609650033
 20
-130.4692166340496
 10
58.44363609650033
 20
-130.4692166340496
 10
58.85532776306389
 20
-129.0577527455135
 10
59.67835831841388
 20
-130.351388856301
 10
59.67835831841388
 20
-130.351388856301
 10
62.61805553990104
 20
-130.351388856301
 10
62.61805553990104
 20
-130.351388856301
 10
62.61805553990104
 20
-130.351388856301
 10
62.67696942877534
 20
-134.2908582997604
 10
62.67696942877534
 20
-134.2908582997604
 10
62.67696942877534
 20
-134.2908582997604
 10
62.97083331759062
 20
-134.64363607745
 10
62.97083331759062
 20
-134.64363607745
 10
62.97083331759062
 20
-134.64363607745
 10
79.31626047647362
 20
-134.64363607745
 10
79.31626047647362
 20
-134.64363607745
 10
79.31626047647362
 20
-134.64363607745
 10
117.71030274835
 20
-134.64363607745
 10
117.71030274835
 20
-134.64363607745
 10
117.71030274835
 20
-134.64363607745
 10
122.2964138583146
 20
-134.64363607745
 10
122.2964138583146
 20
-134.64363607745
 10
122.2964138583146
 20
-134.64363607745
 10
122.7081055248788
 20
-134.3497721886351
 10
122.7081055248788
 20
-134.3497721886351
 10
122.7081055248788
 20
-134.3497721886351
 10
122.7081055248788
 20
-130.7630805228646
 10
122.7081055248788
 20
-130.7630805228646
 10
122.7081055248788
 20
-130.7630805228646
 10
122.5902777471302
 20
-130.4692166340496
 10
122.5902777471302
 20
-130.4692166340496
 10
122.5902777471302
 20
-130.4692166340496
 10
117.4749999706313
 20
-130.410302745175
 10
117.4749999706313
 20
-130.410302745175
 10
117.4749999706313
 20
-130.410302745175
 10
116.5930555264073
 20
-129.9400499675153
 10
116.7108833041559
 20
-129.4108833009809
 10
116.7108833041559
 20
-129.4108833009809
 10
116.6519694152813
 20
-128.7638888566979
 10
117.416438859535
 20
-128.6464138567274
 10
117.416438859535
 20
-128.6464138567274
 10
122.825580524849
 20
-128.6464138567274
 10
122.825580524849
 20
-128.6464138567274
 10
122.825580524849
 20
-128.6464138567274
 10
124.8833333021125
 20
-127.470429134799
 10
124.8833333021125
 20
-127.470429134799
 10
124.8833333021125
 20
-127.470429134799
 10
130.998383300584
 20
-127.470429134799
 10
130.998383300584
 20
-127.470429134799
 10
130.998383300584
 20
-127.470429134799
 10
130.998383300584
 20
-126.8236110794052
 10
130.998383300584
 20
-126.8236110794052
 10
130.998383300584
 20
-126.8236110794052
 10
124.7658583021417
 20
-126.8236110794052
 10
124.7658583021417
 20
-126.8236110794052
 10
124.7658583021417
 20
-126.8236110794052
 10
122.7081055248788
 20
-127.9995958013333
 10
122.7081055248788
 20
-127.9995958013333
 10
122.7081055248788
 20
-127.9995958013333
 10
117.4749999706313
 20
-127.9995958013333
 10
117.4749999706313
 20
-127.9995958013333
 10
117.4749999706313
 20
-127.9995958013333
 10
116.1813638598437
 20
-128.176161079067
 10
116.0638888598729
 20
-129.3519694121063
 10
116.0638888598729
 20
-129.3519694121063
 10
115.8874999710281
 20
-130.6452527451167
 10
117.4749999706313
 20
-131.0569444116802
 10
117.4749999706313
 20
-131.0569444116802
 10
122.0025499694996
 20
-131.0569444116802
 10
122.0025499694996
 20
-131.0569444116802
 10
122.0025499694996
 20
-131.0569444116802
 10
122.0025499694996
 20
-133.9380805220709
 10
122.0025499694996
 20
-133.9380805220709
 10
122.0025499694996
 20
-133.9380805220709
 10
95.89699442047046
 20
-133.9969944109455
 10
95.89699442047046
 20
-133.9969944109455
 10
95.89699442047046
 20
-133.9969944109455
 10
63.26487199708976
 20
-133.9969944109455
 10
63.26487199708976
 20
-133.9969944109455
 10
63.26487199708976
 20
-133.9969944109455
 10
63.20613609530971
 20
-130.11643885636
 10
63.20613609530971
 20
-130.11643885636
 10
63.20613609530971
 20
-130.11643885636
 10
63.08848311270093
 20
-129.8222221897667
 10
63.08848311270093
 20
-129.8222221897667
 10
63.08848311270093
 20
-129.8222221897667
 10
60.08987207809076
 20
-129.8222221897667
 10
60.08987207809076
 20
-129.8222221897667
 10
60.08987207809076
 20
-129.8222221897667
 10
59.03153877175776
 20
-128.2934596901489
 10
57.97320546542475
 20
-129.8222221897667
 10
57.97320546542475
 20
-129.8222221897667
 10
53.73987224009275
 20
-129.8222221897667
 10
53.73987224009275
 20
-129.8222221897667
 97
        0
 97
        0
 75
     2
 76
     1
 98
        0
  0
POLYLINE
  5
5F
330
1F
100
AcDbEntity
  8
_U+30EC_U+30A4_U+30E4_U+30FC 1
 62
   179
420
  2234388
370
    25
100
AcDb2dPolyline
 66
     1
 10
0.0
 20
0.0
 30
0.0
  0
VERTEX
  5
60
330
5F
100
AcDbEntity
  8
_U+30EC_U+30A4_U+30E4_U+30FC 1
 62
   179
420
  2234388
370
    25
100
AcDbVertex
100
AcDb2dVertex
 10
62.96515200473625
 20
-134.5916013552411
 30
0.0
  0
VERTEX
  5
61
330
5F
100
AcDbEntity
  8
_U+30EC_U+30A4_U+30E4_U+30FC 1
 62
   179
420
  2234388
370
    25
100
AcDbVertex
100
AcDb2dVertex
 10
122.364955489321
 20
-134.5916013552411
 30
0.0
  0
SEQEND
  5
62
330
5F
100
AcDbEntity
  8
_U+30EC_U+30A4_U+30E4_U+30FC 1
 62
   179
420
  2234388
370
    25
  0
POLYLINE
  5
63
330
1F
100
AcDbEntity
  8
_U+30EC_U+30A4_U+30E4_U+30FC 1
 62
   179
420
  2234388
370
    25
100
AcDb2dPolyline
 66
     1
 10
0.0
 20
0.0
 30
0.0
  0
VERTEX
  5
64
330
63
100
AcDbEntity
  8
_U+30EC_U+30A4_U+30E4_U+30FC 1
 62
   179
420
  2234388
370
    25
100
AcDbVertex
100
AcDb2dVertex
 10
62.66525562349836
 20
-130.3913585785136
 30
0.0
  0
VERTEX
  5
65
330
63
100
AcDbEntity
  8
_U+30EC_U+30A4_U+30E4_U+30FC 1
 62
   179
420
  2234388
370
    25
100
AcDbVertex
100
AcDb2dVertex
 10
62.66525562349836
 20
-134.2915285775384
 30
0.0
  0
SEQEND
  5
66
330
63
100
AcDbEntity
  8
_U+30EC_U+30A4_U+30E4_U+30FC 1
 62
   179
420
  2234388
370
    25
  0
POLYLINE
  5
67
330
1F
100
AcDbEntity
  8
_U+30EC_U+30A4_U+30E4_U+30FC 1
 62
   179
420
  2234388
370
    25
100
AcDb2dPolyline
 66
     1
 10
0.0
 20
0.0
 30
0.0
  0
VERTEX
  5
68
330
67
100
AcDbEntity
  8
_U+30EC_U+30A4_U+30E4_U+30FC 1
 62
   179
420
  2234388
370
    25
100
AcDbVertex
100
AcDb2dVertex
 10
122.6650282594433
 20
-130.6917488562159
 30
0.0
  0
VERTEX
  5
69
330
67
100
AcDbEntity
  8
_U+30EC_U+30A4_U+30E4_U+30FC 1
 62
   179
420
  2234388
370
    25
100
AcDbVertex
100
AcDb2dVertex
 10
122.6650282594433
 20
-134.2915285775384
 30
0.0
  0
SEQEND
  5
6A
330
67
100
AcDbEntity
  8
_U+30EC_U+30A4_U+30E4_U+30FC 1
 62
   179
420
  2234388
370
    25
  0
POLYLINE
  5
6B
330
1F
100
AcDbEntity
  8
_U+30EC_U+30A4_U+30E4_U+30FC 1
 62
   179
420
  2234388
370
    25
100
AcDb2dPolyline
 66
     1
 10
0.0
 20
0.0
 30
0.0
  0
VERTEX
  5
6C
330
6B
100
AcDbEntity
  8
_U+30EC_U+30A4_U+30E4_U+30FC 1
 62
   179
420
  2234388
370
    25
100
AcDbVertex
100
AcDb2dVertex
 10
63.26522477485854
 20
-133.9914910776133
 30
0.0
  0
VERTEX
  5
6D
330
6B
100
AcDbEntity
  8
_U+30EC_U+30A4_U+30E4_U+30FC 1
 62
   179
420
  2234388
370
    25
100
AcDbVertex
100
AcDb2dVertex
 10
122.0652354969675
 20
-133.9914910776133
 30
0.0
  0
SEQEND
  5
6E
330
6B
100
AcDbEntity
  8
_U+30EC_U+30A4_U+30E4_U+30FC 1
 62
   179
420
  2234388
370
    25
  0
POLYLINE
  5
6F
330
1F
100
AcDbEntity
  8
_U+30EC_U+30A4_U+30E4_U+30FC 1
 62
   179
420
  2234388
370
    25
100
AcDb2dPolyline
 66
     1
 10
0.0
 20
0.0
 30
0.0
  0
VERTEX
  5
70
330
6F
100
AcDbEntity
  8
_U+30EC_U+30A4_U+30E4_U+30FC 1
 62
   179
420
  2234388
370
    25
100
AcDbVertex
100
AcDb2dVertex
 10
63.26522477485854
 20
-130.091638578588
 30
0.0
  0
VERTEX
  5
71
330
6F
100
AcDbEntity
  8
_U+30EC_U+30A4_U+30E4_U+30FC 1
 62
   179
420
  2234388
370
    25
100
AcDbVertex
100
AcDb2dVertex
 10
63.26522477485854
 20
-133.9914910776133
 30
0.0
  0
SEQEND
  5
72
330
6F
100
AcDbEntity
  8
_U+30EC_U+30A4_U+30E4_U+30FC 1
 62
   179
420
  2234388
370
    25
  0
POLYLINE
  5
73
330
1F
100
AcDbEntity
  8
_U+30EC_U+30A4_U+30E4_U+30FC 1
 62
   179
420
  2234388
370
    25
100
AcDb2dPolyline
 66
     1
 10
0.0
 20
0.0
 30
0.0
  0
VERTEX
  5
74
330
73
100
AcDbEntity
  8
_U+30EC_U+30A4_U+30E4_U+30FC 1
 62
   179
420
  2234388
370
    25
100
AcDbVertex
100
AcDb2dVertex
 10
53.66511863088876
 20
-129.7915658008854
 30
0.0
  0
VERTEX
  5
75
330
73
100
AcDbEntity
  8
_U+30EC_U+30A4_U+30E4_U+30FC 1
 62
   179
420
  2234388
370
    25
100
AcDbVertex
100
AcDb2dVertex
 10
58.02591046408014
 20
-129.7915658008854
 30
0.0
  0
SEQEND
  5
76
330
73
100
AcDbEntity
  8
_U+30EC_U+30A4_U+30E4_U+30FC 1
 62
   179
420
  2234388
370
    25
  0
POLYLINE
  5
77
330
1F
100
AcDbEntity
  8
_U+30EC_U+30A4_U+30E4_U+30FC 1
 62
   179
420
  2234388
370
    25
100
AcDb2dPolyline
 66
     1
 10
0.0
 20
0.0
 30
0.0
  0
VERTEX
  5
78
330
77
100
AcDbEntity
  8
_U+30EC_U+30A4_U+30E4_U+30FC 1
 62
   179
420
  2234388
370
    25
100
AcDbVertex
100
AcDb2dVertex
 10
53.66511863088876
 20
-129.7915658008854
 30
0.0
  0
VERTEX
  5
79
330
77
100
AcDbEntity
  8
_U+30EC_U+30A4_U+30E4_U+30FC 1
 62
   179
420
  2234388
370
    25
100
AcDbVertex
100
AcDb2dVertex
 10
53.66511863088876
 20
-130.3913585785136
 30
0.0
  0
SEQEND
  5
7A
330
77
100
AcDbEntity
  8
_U+30EC_U+30A4_U+30E4_U+30FC 1
 62
   179
420
  2234388
370
    25
  0
POLYLINE
  5
7B
330
1F
100
AcDbEntity
  8
_U+30EC_U+30A4_U+30E4_U+30FC 1
 62
   179
420
  2234388
370
    25
100
AcDb2dPolyline
 66
     1
 10
0.0
 20
0.0
 30
0.0
  0
VERTEX
  5
7C
330
7B
100
AcDbEntity
  8
_U+30EC_U+30A4_U+30E4_U+30FC 1
 62
   179
420
  2234388
370
    25
100
AcDbVertex
100
AcDb2dVertex
 10
53.66511863088876
 20
-130.3913585785136
 30
0.0
  0
VERTEX
  5
7D
330
7B
100
AcDbEntity
  8
_U+30EC_U+30A4_U+30E4_U+30FC 1
 62
   179
420
  2234388
370
    25
100
AcDbVertex
100
AcDb2dVertex
 10
58.46515554093929
 20
-130.3913585785136
 30
0.0
  0
SEQEND
  5
7E
330
7B
100
AcDbEntity
  8
_U+30EC_U+30A4_U+30E4_U+30FC 1
 62
   179
420
  2234388
370
    25
  0
POLYLINE
  5
7F
330
1F
100
AcDbEntity
  8
_U+30EC_U+30A4_U+30E4_U+30FC 1
 62
   179
420
  2234388
370
    25
100
AcDb2dPolyline
 66
     1
 10
0.0
 20
0.0
 30
0.0
  0
VERTEX
  5
80
330
7F
100
AcDbEntity
  8
_U+30EC_U+30A4_U+30E4_U+30FC 1
 62
   179
420
  2234388
370
    25
100
AcDbVertex
100
AcDb2dVertex
 10
60.10433596661064
 20
-129.7915658008854
 30
0.0
  0
VERTEX
  5
81
330
7F
100
AcDbEntity
  8
_U+30EC_U+30A4_U+30E4_U+30FC 1
 62
   179
420
  2234388
370
    25
100
AcDbVertex
100
AcDb2dVertex
 10
62.96515200473625
 20
-129.7915658008854
 30
0.0
  0
SEQEND
  5
82
330
7F
100
AcDbEntity
  8
_U+30EC_U+30A4_U+30E4_U+30FC 1
 62
   179
420
  2234388
370
    25
  0
POLYLINE
  5
83
330
1F
100
AcDbEntity
  8
_U+30EC_U+30A4_U+30E4_U+30FC 1
 62
   179
420
  2234388
370
    25
100
AcDb2dPolyline
 66
     1
 10
0.0
 20
0.0
 30
0.0
  0
VERTEX
  5
84
330
83
100
AcDbEntity
  8
_U+30EC_U+30A4_U+30E4_U+30FC 1
 62
   179
420
  2234388
370
    25
100
AcDbVertex
100
AcDb2dVertex
 10
59.66526875558996
 20
-130.3913585785136
 30
0.0
  0
VERTEX
  5
85
330
83
100
AcDbEntity
  8
_U+30EC_U+30A4_U+30E4_U+30FC 1
 62
   179
420
  2234388
370
    25
100
AcDbVertex
100
AcDb2dVertex
 10
62.66525562349836
 20
-130.3913585785136
 30
0.0
  0
SEQEND
  5
86
330
83
100
AcDbEntity
  8
_U+30EC_U+30A4_U+30E4_U+30FC 1
 62
   179
420
  2234388
370
    25
  0
POLYLINE
  5
87
330
1F
100
AcDbEntity
  8
_U+30EC_U+30A4_U+30E4_U+30FC 1
 62
   179
420
  2234388
370
    25
100
AcDb2dPolyline
 66
     1
 10
0.0
 20
0.0
 30
0.0
  0
VERTEX
  5
88
330
87
100
AcDbEntity
  8
_U+30EC_U+30A4_U+30E4_U+30FC 1
 62
   179
420
  2234388
370
    25
100
AcDbVertex
100
AcDb2dVertex
 10
122.0652354969675
 20
-130.9915041339189
 30
0.0
  0
VERTEX
  5
89
330
87
100
AcDbEntity
  8
_U+30EC_U+30A4_U+30E4_U+30FC 1
 62
   179
420
  2234388
370
    25
100
AcDbVertex
100
AcDb2dVertex
 10
122.0652354969675
 20
-133.9914910776133
 30
0.0
  0
SEQEND
  5
8A
330
87
100
AcDbEntity
  8
_U+30EC_U+30A4_U+30E4_U+30FC 1
 62
   179
420
  2234388
370
    25
  0
POLYLINE
  5
8B
330
1F
100
AcDbEntity
  8
_U+30EC_U+30A4_U+30E4_U+30FC 1
 62
   179
420
  2234388
370
    25
100
AcDb2dPolyline
 66
     1
 10
0.0
 20
0.0
 30
0.0
  0
VERTEX
  5
8C
330
8B
100
AcDbEntity
  8
_U+30EC_U+30A4_U+30E4_U+30FC 1
 62
   179
420
  2234388
370
    25
100
AcDbVertex
100
AcDb2dVertex
 10
124.7438065397426
 20
-126.791578857191
 30
0.0
  0
VERTEX
  5
8D
330
8B
100
AcDbEntity
  8
_U+30EC_U+30A4_U+30E4_U+30FC 1
 62
   179
420
  2234388
370
    25
100
AcDbVertex
100
AcDb2dVertex
 10
131.0651961006927
 20
-126.791578857191
 30
0.0
  0
SEQEND
  5
8E
330
8B
100
AcDbEntity
  8
_U+30EC_U+30A4_U+30E4_U+30FC 1
 62
   179
420
  2234388
370
    25
  0
POLYLINE
  5
8F
330
1F
100
AcDbEntity
  8
_U+30EC_U+30A4_U+30E4_U+30FC 1
 62
   179
420
  2234388
370
    25
100
AcDb2dPolyline
 66
     1
 10
0.0
 20
0.0
 30
0.0
  0
VERTEX
  5
90
330
8F
100
AcDbEntity
  8
_U+30EC_U+30A4_U+30E4_U+30FC 1
 62
   179
420
  2234388
370
    25
100
AcDbVertex
100
AcDb2dVertex
 10
117.5652728339933
 20
-130.3913585785136
 30
0.0
  0
VERTEX
  5
91
330
8F
100
AcDbEntity
  8
_U+30EC_U+30A4_U+30E4_U+30FC 1
 62
   179
420
  2234388
370
    25
100
AcDbVertex
100
AcDb2dVertex
 10
122.364955489321
 20
-130.3913585785136
 30
0.0
  0
SEQEND
  5
92
330
8F
100
AcDbEntity
  8
_U+30EC_U+30A4_U+30E4_U+30FC 1
 62
   179
420
  2234388
370
    25
  0
POLYLINE
  5
93
330
1F
100
AcDbEntity
  8
_U+30EC_U+30A4_U+30E4_U+30FC 1
 62
   179
420
  2234388
370
    25
100
AcDb2dPolyline
 66
     1
 10
0.0
 20
0.0
 30
0.0
  0
VERTEX
  5
94
330
93
100
AcDbEntity
  8
_U+30EC_U+30A4_U+30E4_U+30FC 1
 62
   179
420
  2234388
370
    25
100
AcDbVertex
100
AcDb2dVertex
 10
117.5652728339933
 20
-130.9915041339189
 30
0.0
  0
VERTEX
  5
95
330
93
100
AcDbEntity
  8
_U+30EC_U+30A4_U+30E4_U+30FC 1
 62
   179
420
  2234388
370
    25
100
AcDbVertex
100
AcDb2dVertex
 10
122.0652354969675
 20
-130.9915041339189
 30
0.0
  0
SEQEND
  5
96
330
93
100
AcDbEntity
  8
_U+30EC_U+30A4_U+30E4_U+30FC 1
 62
   179
420
  2234388
370
    25
  0
POLYLINE
  5
97
330
1F
100
AcDbEntity
  8
_U+30EC_U+30A4_U+30E4_U+30FC 1
 62
   179
420
  2234388
370
    25
100
AcDb2dPolyline
 66
     1
 10
0.0
 20
0.0
 30
0.0
  0
VERTEX
  5
98
330
97
100
AcDbEntity
  8
_U+30EC_U+30A4_U+30E4_U+30FC 1
 62
   179
420
  2234388
370
    25
100
AcDbVertex
100
AcDb2dVertex
 10
117.5652728339933
 20
-128.5916274678521
 30
0.0
  0
VERTEX
  5
99
330
97
100
AcDbEntity
  8
_U+30EC_U+30A4_U+30E4_U+30FC 1
 62
   179
420
  2234388
370
    25
100
AcDbVertex
100
AcDb2dVertex
 10
122.8259333026267
 20
-128.5916274678521
 30
0.0
  0
SEQEND
  5
9A
330
97
100
AcDbEntity
  8
_U+30EC_U+30A4_U+30E4_U+30FC 1
 62
   179
420
  2234388
370
    25
  0
POLYLINE
  5
9B
330
1F
100
AcDbEntity
  8
_U+30EC_U+30A4_U+30E4_U+30FC 1
 62
   179
420
  2234388
370
    25
100
AcDb2dPolyline
 66
     1
 10
0.0
 20
0.0
 30
0.0
  0
VERTEX
  5
9C
330
9B
100
AcDbEntity
  8
_U+30EC_U+30A4_U+30E4_U+30FC 1
 62
   179
420
  2234388
370
    25
100
AcDbVertex
100
AcDb2dVertex
 10
117.5652728339933
 20
-127.9916583013353
 30
0.0
  0
VERTEX
  5
9D
330
9B
100
AcDbEntity
  8
_U+30EC_U+30A4_U+30E4_U+30FC 1
 62
   179
420
  2234388
370
    25
100
AcDbVertex
100
AcDb2dVertex
 10
122.6650282594433
 20
-127.9916583013353
 30
0.0
  0
SEQEND
  5
9E
330
9B
100
AcDbEntity
  8
_U+30EC_U+30A4_U+30E4_U+30FC 1
 62
   179
420
  2234388
370
    25
  0
POLYLINE
  5
9F
330
1F
100
AcDbEntity
  8
_U+30EC_U+30A4_U+30E4_U+30FC 1
 62
   179
420
  2234388
370
    25
100
AcDb2dPolyline
 66
     1
 10
0.0
 20
0.0
 30
0.0
  0
VERTEX
  5
A0
330
9F
100
AcDbEntity
  8
_U+30EC_U+30A4_U+30E4_U+30FC 1
 62
   179
420
  2234388
370
    25
100
AcDbVertex
100
AcDb2dVertex
 10
131.0651961006927
 20
-126.791578857191
 30
0.0
  0
VERTEX
  5
A1
330
9F
100
AcDbEntity
  8
_U+30EC_U+30A4_U+30E4_U+30FC 1
 62
   179
420
  2234388
370
    25
100
AcDbVertex
100
AcDb2dVertex
 10
131.0651961006927
 20
-127.3917244125964
 30
0.0
  0
SEQEND
  5
A2
330
9F
100
AcDbEntity
  8
_U+30EC_U+30A4_U+30E4_U+30FC 1
 62
   179
420
  2234388
370
    25
  0
POLYLINE
  5
A3
330
1F
100
AcDbEntity
  8
_U+30EC_U+30A4_U+30E4_U+30FC 1
 62
   179
420
  2234388
370
    25
100
AcDb2dPolyline
 66
     1
 10
0.0
 20
0.0
 30
0.0
  0
VERTEX
  5
A4
330
A3
100
AcDbEntity
  8
_U+30EC_U+30A4_U+30E4_U+30FC 1
 62
   179
420
  2234388
370
    25
100
AcDbVertex
100
AcDb2dVertex
 10
124.9043557023133
 20
-127.3917244125964
 30
0.0
  0
VERTEX
  5
A5
330
A3
100
AcDbEntity
  8
_U+30EC_U+30A4_U+30E4_U+30FC 1
 62
   179
420
  2234388
370
    25
100
AcDbVertex
100
AcDb2dVertex
 10
131.0651961006927
 20
-127.3917244125964
 30
0.0
  0
SEQEND
  5
A6
330
A3
100
AcDbEntity
  8
_U+30EC_U+30A4_U+30E4_U+30FC 1
 62
   179
420
  2234388
370
    25
  0
POLYLINE
  5
A7
330
1F
100
AcDbEntity
  8
_U+30EC_U+30A4_U+30E4_U+30FC 1
 62
   179
420
  2234388
370
    25
100
AcDb2dPolyline
 66
     1
 10
0.0
 20
0.0
 30
0.0
  0
VERTEX
  5
A8
330
A7
100
AcDbEntity
  8
_U+30EC_U+30A4_U+30E4_U+30FC 1
 62
   179
420
  2234388
370
    25
100
AcDbVertex
100
AcDb2dVertex
 10
122.6650282594433
 20
-127.9916583013353
 30
0.0
  0
VERTEX
  5
A9
330
A7
100
AcDbEntity
  8
_U+30EC_U+30A4_U+30E4_U+30FC 1
 62
   179
420
  2234388
370
    25
100
AcDbVertex
100
AcDb2dVertex
 10
124.7438065397426
 20
-126.791578857191
 30
0.0
  0
SEQEND
  5
AA
330
A7
100
AcDbEntity
  8
_U+30EC_U+30A4_U+30E4_U+30FC 1
 62
   179
420
  2234388
370
    25
  0
POLYLINE
  5
AB
330
1F
100
AcDbEntity
  8
_U+30EC_U+30A4_U+30E4_U+30FC 1
 62
   179
420
  2234388
370
    25
100
AcDb2dPolyline
 66
     1
 10
0.0
 20
0.0
 30
0.0
  0
VERTEX
  5
AC
330
AB
100
AcDbEntity
  8
_U+30EC_U+30A4_U+30E4_U+30FC 1
 62
   179
420
  2234388
370
    25
100
AcDbVertex
100
AcDb2dVertex
 10
122.8259333026267
 20
-128.5916274678521
 30
0.0
  0
VERTEX
  5
AD
330
AB
100
AcDbEntity
  8
_U+30EC_U+30A4_U+30E4_U+30FC 1
 62
   179
420
  2234388
370
    25
100
AcDbVertex
100
AcDb2dVertex
 10
124.9043557023133
 20
-127.3917244125964
 30
0.0
  0
SEQEND
  5
AE
330
AB
100
AcDbEntity
  8
_U+30EC_U+30A4_U+30E4_U+30FC 1
 62
   179
420
  2234388
370
    25
  0
POLYLINE
  5
AF
330
1F
100
AcDbEntity
  8
_U+30EC_U+30A4_U+30E4_U+30FC 1
  6
AI-Linetype-1
 62
   179
420
  2234388
370
    25
100
AcDb2dPolyline
 66
     1
 10
0.0
 20
0.0
 30
0.0
  0
VERTEX
  5
B0
330
AF
100
AcDbEntity
  8
_U+30EC_U+30A4_U+30E4_U+30FC 1
  6
AI-Linetype-1
 62
   179
420
  2234388
370
    25
100
AcDbVertex
100
AcDb2dVertex
 10
122.2550652143468
 20
-130.3913585785136
 30
0.0
  0
VERTEX
  5
B1
330
AF
100
AcDbEntity
  8
_U+30EC_U+30A4_U+30E4_U+30FC 1
  6
AI-Linetype-1
 62
   179
420
  2234388
370
    25
100
AcDbVertex
100
AcDb2dVertex
 10
122.6650282594433
 20
-130.3913585785136
 30
0.0
  0
SEQEND
  5
B3
330
AF
100
AcDbEntity
  8
_U+30EC_U+30A4_U+30E4_U+30FC 1
  6
AI-Linetype-1
 62
   179
420
  2234388
370
    25
  0
POLYLINE
  5
B4
330
1F
100
AcDbEntity
  8
_U+30EC_U+30A4_U+30E4_U+30FC 1
  6
AI-Linetype-2
 62
   179
420
  2234388
370
    25
100
AcDb2dPolyline
 66
     1
 10
0.0
 20
0.0
 30
0.0
  0
VERTEX
  5
B5
330
B4
100
AcDbEntity
  8
_U+30EC_U+30A4_U+30E4_U+30FC 1
  6
AI-Linetype-2
 62
   179
420
  2234388
370
    25
100
AcDbVertex
100
AcDb2dVertex
 10
124.3045629398375
 20
-129.7915658008854
 30
0.0
  0
VERTEX
  5
B6
330
B4
100
AcDbEntity
  8
_U+30EC_U+30A4_U+30E4_U+30FC 1
  6
AI-Linetype-2
 62
   179
420
  2234388
370
    25
100
AcDbVertex
100
AcDb2dVertex
 10
127.1653789779631
 20
-129.7915658008854
 30
0.0
  0
SEQEND
  5
B8
330
B4
100
AcDbEntity
  8
_U+30EC_U+30A4_U+30E4_U+30FC 1
  6
AI-Linetype-2
 62
   179
420
  2234388
370
    25
  0
POLYLINE
  5
B9
330
1F
100
AcDbEntity
  8
_U+30EC_U+30A4_U+30E4_U+30FC 1
  6
AI-Linetype-3
 62
   179
420
  2234388
370
    25
100
AcDb2dPolyline
 66
     1
 10
0.0
 20
0.0
 30
0.0
  0
VERTEX
  5
BA
330
B9
100
AcDbEntity
  8
_U+30EC_U+30A4_U+30E4_U+30FC 1
  6
AI-Linetype-3
 62
   179
420
  2234388
370
    25
100
AcDbVertex
100
AcDb2dVertex
 10
127.4650989703166
 20
-133.9914910776133
 30
0.0
  0
VERTEX
  5
BB
330
B9
100
AcDbEntity
  8
_U+30EC_U+30A4_U+30E4_U+30FC 1
  6
AI-Linetype-3
 62
   179
420
  2234388
370
    25
100
AcDbVertex
100
AcDb2dVertex
 10
135.0718696095851
 20
-133.9914910776133
 30
0.0
  0
SEQEND
  5
BD
330
B9
100
AcDbEntity
  8
_U+30EC_U+30A4_U+30E4_U+30FC 1
  6
AI-Linetype-3
 62
   179
420
  2234388
370
    25
  0
POLYLINE
  5
BE
330
1F
100
AcDbEntity
  8
_U+30EC_U+30A4_U+30E4_U+30FC 1
  6
AI-Linetype-4
 62
   179
420
  2234388
370
    25
100
AcDb2dPolyline
 66
     1
 10
0.0
 20
0.0
 30
0.0
  0
VERTEX
  5
BF
330
BE
100
AcDbEntity
  8
_U+30EC_U+30A4_U+30E4_U+30FC 1
  6
AI-Linetype-4
 62
   179
420
  2234388
370
    25
100
AcDbVertex
100
AcDb2dVertex
 10
117.8649928263468
 20
-129.7915658008854
 30
0.0
  0
VERTEX
  5
C0
330
BE
100
AcDbEntity
  8
_U+30EC_U+30A4_U+30E4_U+30FC 1
  6
AI-Linetype-4
 62
   179
420
  2234388
370
    25
100
AcDbVertex
100
AcDb2dVertex
 10
122.226137437307
 20
-129.7915658008854
 30
0.0
  0
SEQEND
  5
C2
330
BE
100
AcDbEntity
  8
_U+30EC_U+30A4_U+30E4_U+30FC 1
  6
AI-Linetype-4
 62
   179
420
  2234388
370
    25
  0
POLYLINE
  5
C3
330
1F
100
AcDbEntity
  8
_U+30EC_U+30A4_U+30E4_U+30FC 1
  6
AI-Linetype-5
 62
   179
420
  2234388
370
    25
100
AcDb2dPolyline
 66
     1
 10
0.0
 20
0.0
 30
0.0
  0
VERTEX
  5
C4
330
C3
100
AcDbEntity
  8
_U+30EC_U+30A4_U+30E4_U+30FC 1
  6
AI-Linetype-5
 62
   179
420
  2234388
370
    25
100
AcDbVertex
100
AcDb2dVertex
 10
127.4650989703166
 20
-130.091638578588
 30
0.0
  0
VERTEX
  5
C5
330
C3
100
AcDbEntity
  8
_U+30EC_U+30A4_U+30E4_U+30FC 1
  6
AI-Linetype-5
 62
   179
420
  2234388
370
    25
100
AcDbVertex
100
AcDb2dVertex
 10
127.4650989703166
 20
-133.9914910776133
 30
0.0
  0
SEQEND
  5
C7
330
C3
100
AcDbEntity
  8
_U+30EC_U+30A4_U+30E4_U+30FC 1
  6
AI-Linetype-5
 62
   179
420
  2234388
370
    25
  0
POLYLINE
  5
C8
330
1F
100
AcDbEntity
  8
_U+30EC_U+30A4_U+30E4_U+30FC 1
  6
AI-Linetype-6
 62
   179
420
  2234388
370
    25
100
AcDb2dPolyline
 66
     1
 10
0.0
 20
0.0
 30
0.0
  0
VERTEX
  5
C9
330
C8
100
AcDbEntity
  8
_U+30EC_U+30A4_U+30E4_U+30FC 1
  6
AI-Linetype-6
 62
   179
420
  2234388
370
    25
100
AcDbVertex
100
AcDb2dVertex
 10
117.8649928263468
 20
-129.7915658008854
 30
0.0
  0
VERTEX
  5
CA
330
C8
100
AcDbEntity
  8
_U+30EC_U+30A4_U+30E4_U+30FC 1
  6
AI-Linetype-6
 62
   179
420
  2234388
370
    25
100
AcDbVertex
100
AcDb2dVertex
 10
117.8649928263468
 20
-130.3913585785136
 30
0.0
  0
SEQEND
  5
CC
330
C8
100
AcDbEntity
  8
_U+30EC_U+30A4_U+30E4_U+30FC 1
  6
AI-Linetype-6
 62
   179
420
  2234388
370
    25
  0
POLYLINE
  5
CD
330
1F
100
AcDbEntity
  8
_U+30EC_U+30A4_U+30E4_U+30FC 1
  6
AI-Linetype-7
 62
   179
420
  2234388
370
    25
100
AcDb2dPolyline
 66
     1
 10
0.0
 20
0.0
 30
0.0
  0
VERTEX
  5
CE
330
CD
100
AcDbEntity
  8
_U+30EC_U+30A4_U+30E4_U+30FC 1
  6
AI-Linetype-7
 62
   179
420
  2234388
370
    25
100
AcDbVertex
100
AcDb2dVertex
 10
126.8649534300721
 20
-130.3913585785136
 30
0.0
  0
VERTEX
  5
CF
330
CD
100
AcDbEntity
  8
_U+30EC_U+30A4_U+30E4_U+30FC 1
  6
AI-Linetype-7
 62
   179
420
  2234388
370
    25
100
AcDbVertex
100
AcDb2dVertex
 10
126.8649534300721
 20
-134.2915285775384
 30
0.0
  0
SEQEND
  5
D1
330
CD
100
AcDbEntity
  8
_U+30EC_U+30A4_U+30E4_U+30FC 1
  6
AI-Linetype-7
 62
   179
420
  2234388
370
    25
  0
POLYLINE
  5
D2
330
1F
100
AcDbEntity
  8
_U+30EC_U+30A4_U+30E4_U+30FC 1
  6
AI-Linetype-8
 62
   179
420
  2234388
370
    25
100
AcDb2dPolyline
 66
     1
 10
0.0
 20
0.0
 30
0.0
  0
VERTEX
  5
D3
330
D2
100
AcDbEntity
  8
_U+30EC_U+30A4_U+30E4_U+30FC 1
  6
AI-Linetype-8
 62
   179
420
  2234388
370
    25
100
AcDbVertex
100
AcDb2dVertex
 10
127.1653789779631
 20
-134.5916013552411
 30
0.0
  0
VERTEX
  5
D4
330
D2
100
AcDbEntity
  8
_U+30EC_U+30A4_U+30E4_U+30FC 1
  6
AI-Linetype-8
 62
   179
420
  2234388
370
    25
100
AcDbVertex
100
AcDb2dVertex
 10
135.2241284945895
 20
-134.5916013552411
 30
0.0
  0
SEQEND
  5
D6
330
D2
100
AcDbEntity
  8
_U+30EC_U+30A4_U+30E4_U+30FC 1
  6
AI-Linetype-8
 62
   179
420
  2234388
370
    25
  0
POLYLINE
  5
D7
330
1F
100
AcDbEntity
  8
_U+30EC_U+30A4_U+30E4_U+30FC 1
  6
AI-Linetype-9
 62
   179
420
  2234388
370
    25
100
AcDb2dPolyline
 66
     1
 10
0.0
 20
0.0
 30
0.0
  0
VERTEX
  5
D8
330
D7
100
AcDbEntity
  8
_U+30EC_U+30A4_U+30E4_U+30FC 1
  6
AI-Linetype-9
 62
   179
420
  2234388
370
    25
100
AcDbVertex
100
AcDb2dVertex
 10
123.8653193399324
 20
-130.3913585785136
 30
0.0
  0
VERTEX
  5
D9
330
D7
100
AcDbEntity
  8
_U+30EC_U+30A4_U+30E4_U+30FC 1
  6
AI-Linetype-9
 62
   179
420
  2234388
370
    25
100
AcDbVertex
100
AcDb2dVertex
 10
126.8649534300721
 20
-130.3913585785136
 30
0.0
  0
SEQEND
  5
DB
330
D7
100
AcDbEntity
  8
_U+30EC_U+30A4_U+30E4_U+30FC 1
  6
AI-Linetype-9
 62
   179
420
  2234388
370
    25
  0
SPLINE
  5
DC
330
1F
100
AcDbEntity
  8
_U+30EC_U+30A4_U+30E4_U+30FC 1
 62
   179
420
  2234388
370
    25
100
AcDbSpline
210
0.0
220
0.0
230
1.0
 70
     8
 71
     3
 72
     8
 73
     4
 74
     0
 42
0.0000000001
 43
0.0000000001
 12
1.0
 22
0.0
 32
0.0
 13
1.0
 23
0.0
 33
0.0
 40
0.0
 40
0.0
 40
0.0
 40
0.0
 40
1.0
 40
1.0
 40
1.0
 40
1.0
 10
62.66525562349836
 20
-134.2915285775384
 30
0.0
 10
62.66525562349836
 20
-134.4572635774966
 30
0.0
 10
62.79945228674138
 20
-134.5916013552411
 30
0.0
 10
62.96515200473625
 20
-134.5916013552411
 30
0.0
  0
SPLINE
  5
DD
330
1F
100
AcDbEntity
  8
_U+30EC_U+30A4_U+30E4_U+30FC 1
 62
   179
420
  2234388
370
    25
100
AcDbSpline
210
0.0
220
0.0
230
1.0
 70
     8
 71
     3
 72
    11
 73
     7
 74
     0
 42
0.0000000001
 43
0.0000000001
 12
1.0
 22
0.0
 32
0.0
 13
1.0
 23
0.0
 33
0.0
 40
0.0
 40
0.0
 40
0.0
 40
0.0
 40
1.0
 40
1.0
 40
1.0
 40
2.0
 40
2.0
 40
2.0
 40
2.0
 10
59.66526875558996
 20
-130.3913585785136
 30
0.0
 10
59.66526875558996
 20
-130.0602766341518
 30
0.0
 10
59.39655792911201
 20
-129.7915658008854
 30
0.0
 10
59.06512321534539
 20
-129.7915658008854
 30
0.0
 10
58.73386489046316
 20
-129.7915658008854
 30
0.0
 10
58.46515554093929
 20
-130.0602766341518
 30
0.0
 10
58.46515554093929
 20
-130.3913585785136
 30
0.0
  0
SPLINE
  5
DE
330
1F
100
AcDbEntity
  8
_U+30EC_U+30A4_U+30E4_U+30FC 1
 62
   179
420
  2234388
370
    25
100
AcDbSpline
210
0.0
220
0.0
230
1.0
 70
     8
 71
     3
 72
    11
 73
     7
 74
     0
 42
0.0000000001
 43
0.0000000001
 12
1.0
 22
0.0
 32
0.0
 13
1.0
 23
0.0
 33
0.0
 40
0.0
 40
0.0
 40
0.0
 40
0.0
 40
1.0
 40
1.0
 40
1.0
 40
2.0
 40
2.0
 40
2.0
 40
2.0
 10
60.10433596661064
 20
-129.7915658008854
 30
0.0
 10
59.77307764172841
 20
-129.2175963565843
 30
0.0
 10
59.03912498524006
 20
-129.0208874677445
 30
0.0
 10
58.46515554093929
 20
-129.352322189884
 30
0.0
 10
58.28273267975028
 20
-129.4577321898578
 30
0.0
 10
58.13132046139091
 20
-129.6093208009313
 30
0.0
 10
58.02591046408014
 20
-129.7915658008854
 30
0.0
  0
SPLINE
  5
DF
330
1F
100
AcDbEntity
  8
_U+30EC_U+30A4_U+30E4_U+30FC 1
 62
   179
420
  2234388
370
    25
100
AcDbSpline
210
0.0
220
0.0
230
1.0
 70
     8
 71
     3
 72
     8
 73
     4
 74
     0
 42
0.0000000001
 43
0.0000000001
 12
1.0
 22
0.0
 32
0.0
 13
1.0
 23
0.0
 33
0.0
 40
0.0
 40
0.0
 40
0.0
 40
0.0
 40
1.0
 40
1.0
 40
1.0
 40
1.0
 10
63.26522477485854
 20
-130.091638578588
 30
0.0
 10
63.26522477485854
 20
-129.9259035786299
 30
0.0
 10
63.13085172273112
 20
-129.7915658008854
 30
0.0
 10
62.96515200473625
 20
-129.7915658008854
 30
0.0
  0
SPLINE
  5
E0
330
1F
100
AcDbEntity
  8
_U+30EC_U+30A4_U+30E4_U+30FC 1
 62
   179
420
  2234388
370
    25
100
AcDbSpline
210
0.0
220
0.0
230
1.0
 70
     8
 71
     3
 72
     8
 73
     4
 74
     0
 42
0.0000000001
 43
0.0000000001
 12
1.0
 22
0.0
 32
0.0
 13
1.0
 23
0.0
 33
0.0
 40
0.0
 40
0.0
 40
0.0
 40
0.0
 40
1.0
 40
1.0
 40
1.0
 40
1.0
 10
122.364955489321
 20
-134.5916013552411
 30
0.0
 10
122.5310110804785
 20
-134.5916013552411
 30
0.0
 10
122.6650282594433
 20
-134.4572635774966
 30
0.0
 10
122.6650282594433
 20
-134.2915285775384
 30
0.0
  0
SPLINE
  5
E1
330
1F
100
AcDbEntity
  8
_U+30EC_U+30A4_U+30E4_U+30FC 1
 62
   179
420
  2234388
370
    25
100
AcDbSpline
210
0.0
220
0.0
230
1.0
 70
     8
 71
     3
 72
     8
 73
     4
 74
     0
 42
0.0000000001
 43
0.0000000001
 12
1.0
 22
0.0
 32
0.0
 13
1.0
 23
0.0
 33
0.0
 40
0.0
 40
0.0
 40
0.0
 40
0.0
 40
1.0
 40
1.0
 40
1.0
 40
1.0
 10
122.6650282594433
 20
-130.6917488562159
 30
0.0
 10
122.6650282594433
 20
-130.5256963562574
 30
0.0
 10
122.5310110804785
 20
-130.3913585785136
 30
0.0
 10
122.364955489321
 20
-130.3913585785136
 30
0.0
  0
SPLINE
  5
E2
330
1F
100
AcDbEntity
  8
_U+30EC_U+30A4_U+30E4_U+30FC 1
 62
   179
420
  2234388
370
    25
100
AcDbSpline
210
0.0
220
0.0
230
1.0
 70
     8
 71
     3
 72
    11
 73
     7
 74
     0
 42
0.0000000001
 43
0.0000000001
 12
1.0
 22
0.0
 32
0.0
 13
1.0
 23
0.0
 33
0.0
 40
0.0
 40
0.0
 40
0.0
 40
0.0
 40
1.0
 40
1.0
 40
1.0
 40
2.0
 40
2.0
 40
2.0
 40
2.0
 10
117.5652728339933
 20
-128.5916274678521
 30
0.0
 10
117.0681384022319
 20
-128.5916274678521
 30
0.0
 10
116.6654073013953
 20
-128.9947113566403
 30
0.0
 10
116.6654073013953
 20
-129.4914930231827
 30
0.0
 10
116.6654073013953
 20
-129.9886274675029
 30
0.0
 10
117.0681384022319
 20
-130.3913585785136
 30
0.0
 10
117.5652728339933
 20
-130.3913585785136
 30
0.0
  0
SPLINE
  5
E3
330
1F
100
AcDbEntity
  8
_U+30EC_U+30A4_U+30E4_U+30FC 1
 62
   179
420
  2234388
370
    25
100
AcDbSpline
210
0.0
220
0.0
230
1.0
 70
     8
 71
     3
 72
    11
 73
     7
 74
     0
 42
0.0000000001
 43
0.0000000001
 12
1.0
 22
0.0
 32
0.0
 13
1.0
 23
0.0
 33
0.0
 40
0.0
 40
0.0
 40
0.0
 40
0.0
 40
1.0
 40
1.0
 40
1.0
 40
2.0
 40
2.0
 40
2.0
 40
2.0
 10
117.5652728339933
 20
-127.9916583013353
 30
0.0
 10
116.7367036884652
 20
-127.9916583013353
 30
0.0
 10
116.0652617611507
 20
-128.6631355233897
 30
0.0
 10
116.0652617611507
 20
-129.4914930231827
 30
0.0
 10
116.0652617611507
 20
-130.3200269118642
 30
0.0
 10
116.7367036884652
 20
-130.9915041339189
 30
0.0
 10
117.5652728339933
 20
-130.9915041339189
 30
0.0
  0
SPLINE
  5
E4
330
1F
100
AcDbEntity
  8
_U+30EC_U+30A4_U+30E4_U+30FC 1
  6
AI-Linetype-10
 62
   179
420
  2234388
370
    25
100
AcDbSpline
210
0.0
220
0.0
230
1.0
 70
     8
 71
     3
 72
     8
 73
     4
 74
     0
 42
0.0000000001
 43
0.0000000001
 12
1.0
 22
0.0
 32
0.0
 13
1.0
 23
0.0
 33
0.0
 40
0.0
 40
0.0
 40
0.0
 40
0.0
 40
1.0
 40
1.0
 40
1.0
 40
1.0
 10
127.4650989703166
 20
-130.091638578588
 30
0.0
 10
127.4650989703166
 20
-129.9259035786299
 30
0.0
 10
127.3307259181892
 20
-129.7915658008854
 30
0.0
 10
127.1653789779631
 20
-129.7915658008854
 30
0.0
  0
SPLINE
  5
E6
330
1F
100
AcDbEntity
  8
_U+30EC_U+30A4_U+30E4_U+30FC 1
  6
AI-Linetype-11
 62
   179
420
  2234388
370
    25
100
AcDbSpline
210
0.0
220
0.0
230
1.0
 70
     8
 71
     3
 72
    11
 73
     7
 74
     0
 42
0.0000000001
 43
0.0000000001
 12
1.0
 22
0.0
 32
0.0
 13
1.0
 23
0.0
 33
0.0
 40
0.0
 40
0.0
 40
0.0
 40
0.0
 40
1.0
 40
1.0
 40
1.0
 40
2.0
 40
2.0
 40
2.0
 40
2.0
 10
124.3045629398375
 20
-129.7915658008854
 30
0.0
 10
123.9731282260709
 20
-129.2175963565843
 30
0.0
 10
123.2393151892365
 20
-129.0208874677445
 30
0.0
 10
122.6650282594433
 20
-129.352322189884
 30
0.0
 10
122.4827832640928
 20
-129.4577321898578
 30
0.0
 10
122.331194656849
 20
-129.6093208009313
 30
0.0
 10
122.226137437307
 20
-129.7915658008854
 30
0.0
  0
SPLINE
  5
E8
330
1F
100
AcDbEntity
  8
_U+30EC_U+30A4_U+30E4_U+30FC 1
  6
AI-Linetype-12
 62
   179
420
  2234388
370
    25
100
AcDbSpline
210
0.0
220
0.0
230
1.0
 70
     8
 71
     3
 72
     8
 73
     4
 74
     0
 42
0.0000000001
 43
0.0000000001
 12
1.0
 22
0.0
 32
0.0
 13
1.0
 23
0.0
 33
0.0
 40
0.0
 40
0.0
 40
0.0
 40
0.0
 40
1.0
 40
1.0
 40
1.0
 40
1.0
 10
126.8649534300721
 20
-134.2915285775384
 30
0.0
 10
126.8649534300721
 20
-134.4572635774966
 30
0.0
 10
126.9992944126945
 20
-134.5916013552411
 30
0.0
 10
127.1653789779631
 20
-134.5916013552411
 30
0.0
  0
SPLINE
  5
EA
330
1F
100
AcDbEntity
  8
_U+30EC_U+30A4_U+30E4_U+30FC 1
  6
AI-Linetype-13
 62
   179
420
  2234388
370
    25
100
AcDbSpline
210
0.0
220
0.0
230
1.0
 70
     8
 71
     3
 72
    11
 73
     7
 74
     0
 42
0.0000000001
 43
0.0000000001
 12
1.0
 22
0.0
 32
0.0
 13
1.0
 23
0.0
 33
0.0
 40
0.0
 40
0.0
 40
0.0
 40
0.0
 40
1.0
 40
1.0
 40
1.0
 40
2.0
 40
2.0
 40
2.0
 40
2.0
 10
123.8653193399324
 20
-130.3913585785136
 30
0.0
 10
123.8653193399324
 20
-130.0602766341518
 30
0.0
 10
123.5965732356776
 20
-129.7915658008854
 30
0.0
 10
123.2651737996879
 20
-129.7915658008854
 30
0.0
 10
122.9337390859212
 20
-129.7915658008854
 30
0.0
 10
122.6650282594433
 20
-130.0602766341518
 30
0.0
 10
122.6650282594433
 20
-130.3913585785136
 30
0.0
  0
SPLINE
  5
EC
330
1F
100
AcDbEntity
  8
_U+30EC_U+30A4_U+30E4_U+30FC 1
 62
   179
420
  2234388
370
     9
100
AcDbSpline
210
0.0
220
0.0
230
1.0
 70
    11
 71
     3
 72
    17
 73
    13
 74
     0
 42
0.0000000001
 43
0.0000000001
 12
1.0
 22
0.0
 32
0.0
 13
1.0
 23
0.0
 33
0.0
 40
0.0
 40
0.0
 40
0.0
 40
0.0
 40
1.0
 40
1.0
 40
1.0
 40
2.0
 40
2.0
 40
2.0
 40
3.0
 40
3.0
 40
3.0
 40
4.0
 40
4.0
 40
4.0
 40
4.0
 10
131.1251683213849
 20
-124.3915610800131
 30
0.0
 10
131.1251683213849
 20
-124.358470524466
 30
0.0
 10
131.0982866554041
 20
-124.3315888578059
 30
0.0
 10
131.0651961006927
 20
-124.3315888578059
 30
0.0
 10
131.0321408237583
 20
-124.3315888578059
 30
0.0
 10
131.0052591577774
 20
-124.358470524466
 30
0.0
 10
131.0052591577774
 20
-124.3915610800131
 30
0.0
 10
131.0052591577774
 20
-124.4246163577828
 30
0.0
 10
131.0321408237583
 20
-124.4514980244426
 30
0.0
 10
131.0651961006927
 20
-124.4514980244426
 30
0.0
 10
131.0982866554041
 20
-124.4514980244426
 30
0.0
 10
131.1251683213849
 20
-124.4246163577828
 30
0.0
 10
131.1251683213849
 20
-124.3915610800131
 30
0.0
  0
SPLINE
  5
ED
330
1F
100
AcDbEntity
  8
_U+30EC_U+30A4_U+30E4_U+30FC 1
 62
   179
420
  2234388
370
     9
100
AcDbSpline
210
0.0
220
0.0
230
1.0
 70
    11
 71
     3
 72
    17
 73
    13
 74
     0
 42
0.0000000001
 43
0.0000000001
 12
1.0
 22
0.0
 32
0.0
 13
1.0
 23
0.0
 33
0.0
 40
0.0
 40
0.0
 40
0.0
 40
0.0
 40
1.0
 40
1.0
 40
1.0
 40
2.0
 40
2.0
 40
2.0
 40
3.0
 40
3.0
 40
3.0
 40
4.0
 40
4.0
 40
4.0
 40
4.0
 10
131.1251683213849
 20
-121.9915080250578
 30
0.0
 10
131.1251683213849
 20
-121.9584527472881
 30
0.0
 10
131.0982866554041
 20
-121.9315710806283
 30
0.0
 10
131.0651961006927
 20
-121.9315710806283
 30
0.0
 10
131.0321408237583
 20
-121.9315710806283
 30
0.0
 10
131.0052591577774
 20
-121.9584527472881
 30
0.0
 10
131.0052591577774
 20
-121.9915080250578
 30
0.0
 10
131.0052591577774
 20
-122.0247749694938
 30
0.0
 10
131.0321408237583
 20
-122.051621358376
 30
0.0
 10
131.0651961006927
 20
-122.051621358376
 30
0.0
 10
131.0982866554041
 20
-122.051621358376
 30
0.0
 10
131.1251683213849
 20
-122.0247749694938
 30
0.0
 10
131.1251683213849
 20
-121.9915080250578
 30
0.0
  0
SPLINE
  5
EE
330
1F
100
AcDbEntity
  8
_U+30EC_U+30A4_U+30E4_U+30FC 1
 62
   179
420
  2234388
370
     9
100
AcDbSpline
210
0.0
220
0.0
230
1.0
 70
    11
 71
     3
 72
    17
 73
    13
 74
     0
 42
0.0000000001
 43
0.0000000001
 12
1.0
 22
0.0
 32
0.0
 13
1.0
 23
0.0
 33
0.0
 40
0.0
 40
0.0
 40
0.0
 40
0.0
 40
1.0
 40
1.0
 40
1.0
 40
2.0
 40
2.0
 40
2.0
 40
3.0
 40
3.0
 40
3.0
 40
4.0
 40
4.0
 40
4.0
 40
4.0
 10
122.7253179801274
 20
-124.3915610800131
 30
0.0
 10
122.7253179801274
 20
-124.358470524466
 30
0.0
 10
122.6984363141465
 20
-124.3315888578059
 30
0.0
 10
122.6650282594433
 20
-124.3315888578059
 30
0.0
 10
122.6319729825088
 20
-124.3315888578059
 30
0.0
 10
122.605094413793
 20
-124.358470524466
 30
0.0
 10
122.605094413793
 20
-124.3915610800131
 30
0.0
 10
122.605094413793
 20
-124.4246163577828
 30
0.0
 10
122.6319729825088
 20
-124.4514980244426
 30
0.0
 10
122.6650282594433
 20
-124.4514980244426
 30
0.0
 10
122.6984363141465
 20
-124.4514980244426
 30
0.0
 10
122.7253179801274
 20
-124.4246163577828
 30
0.0
 10
122.7253179801274
 20
-124.3915610800131
 30
0.0
  0
SPLINE
  5
EF
330
1F
100
AcDbEntity
  8
_U+30EC_U+30A4_U+30E4_U+30FC 1
 62
   179
420
  2234388
370
     9
100
AcDbSpline
210
0.0
220
0.0
230
1.0
 70
    11
 71
     3
 72
    17
 73
    13
 74
     0
 42
0.0000000001
 43
0.0000000001
 12
1.0
 22
0.0
 32
0.0
 13
1.0
 23
0.0
 33
0.0
 40
0.0
 40
0.0
 40
0.0
 40
0.0
 40
1.0
 40
1.0
 40
1.0
 40
2.0
 40
2.0
 40
2.0
 40
3.0
 40
3.0
 40
3.0
 40
4.0
 40
4.0
 40
4.0
 40
4.0
 10
116.7253471930409
 20
-124.3915610800131
 30
0.0
 10
116.7253471930409
 20
-124.358470524466
 30
0.0
 10
116.6984625783297
 20
-124.3315888578059
 30
0.0
 10
116.6654073013953
 20
-124.3315888578059
 30
0.0
 10
116.631999246692
 20
-124.3315888578059
 30
0.0
 10
116.6051175807112
 20
-124.358470524466
 30
0.0
 10
116.6051175807112
 20
-124.3915610800131
 30
0.0
 10
116.6051175807112
 20
-124.4246163577828
 30
0.0
 10
116.631999246692
 20
-124.4514980244426
 30
0.0
 10
116.6654073013953
 20
-124.4514980244426
 30
0.0
 10
116.6984625783297
 20
-124.4514980244426
 30
0.0
 10
116.7253471930409
 20
-124.4246163577828
 30
0.0
 10
116.7253471930409
 20
-124.3915610800131
 30
0.0
  0
SPLINE
  5
F0
330
1F
100
AcDbEntity
  8
_U+30EC_U+30A4_U+30E4_U+30FC 1
 62
   179
420
  2234388
370
     9
100
AcDbSpline
210
0.0
220
0.0
230
1.0
 70
    11
 71
     3
 72
    17
 73
    13
 74
     0
 42
0.0000000001
 43
0.0000000001
 12
1.0
 22
0.0
 32
0.0
 13
1.0
 23
0.0
 33
0.0
 40
0.0
 40
0.0
 40
0.0
 40
0.0
 40
1.0
 40
1.0
 40
1.0
 40
2.0
 40
2.0
 40
2.0
 40
3.0
 40
3.0
 40
3.0
 40
4.0
 40
4.0
 40
4.0
 40
4.0
 10
116.7253471930409
 20
-121.9915080250578
 30
0.0
 10
116.7253471930409
 20
-121.9584527472881
 30
0.0
 10
116.6984625783297
 20
-121.9315710806283
 30
0.0
 10
116.6654073013953
 20
-121.9315710806283
 30
0.0
 10
116.631999246692
 20
-121.9315710806283
 30
0.0
 10
116.6051175807112
 20
-121.9584527472881
 30
0.0
 10
116.6051175807112
 20
-121.9915080250578
 30
0.0
 10
116.6051175807112
 20
-122.0247749694938
 30
0.0
 10
116.631999246692
 20
-122.051621358376
 30
0.0
 10
116.6654073013953
 20
-122.051621358376
 30
0.0
 10
116.6984625783297
 20
-122.051621358376
 30
0.0
 10
116.7253471930409
 20
-122.0247749694938
 30
0.0
 10
116.7253471930409
 20
-121.9915080250578
 30
0.0
  0
SPLINE
  5
F1
330
1F
100
AcDbEntity
  8
_U+30EC_U+30A4_U+30E4_U+30FC 1
 62
   179
420
  2234388
370
     9
100
AcDbSpline
210
0.0
220
0.0
230
1.0
 70
    11
 71
     3
 72
    17
 73
    13
 74
     0
 42
0.0000000001
 43
0.0000000001
 12
1.0
 22
0.0
 32
0.0
 13
1.0
 23
0.0
 33
0.0
 40
0.0
 40
0.0
 40
0.0
 40
0.0
 40
1.0
 40
1.0
 40
1.0
 40
2.0
 40
2.0
 40
2.0
 40
3.0
 40
3.0
 40
3.0
 40
4.0
 40
4.0
 40
4.0
 40
4.0
 10
113.7253573764022
 20
-128.5916274678521
 30
0.0
 10
113.7253573764022
 20
-128.5585721900825
 30
0.0
 10
113.6984757104213
 20
-128.5316905234227
 30
0.0
 10
113.6650676557181
 20
-128.5316905234227
 30
0.0
 10
113.6319771010067
 20
-128.5316905234227
 30
0.0
 10
113.6051307128028
 20
-128.5585721900825
 30
0.0
 10
113.6051307128028
 20
-128.5916274678521
 30
0.0
 10
113.6051307128028
 20
-128.6247180233993
 30
0.0
 10
113.6319771010067
 20
-128.6515644122815
 30
0.0
 10
113.6650676557181
 20
-128.6515644122815
 30
0.0
 10
113.6984757104213
 20
-128.6515644122815
 30
0.0
 10
113.7253573764022
 20
-128.6247180233993
 30
0.0
 10
113.7253573764022
 20
-128.5916274678521
 30
0.0
  0
SPLINE
  5
F2
330
1F
100
AcDbEntity
  8
_U+30EC_U+30A4_U+30E4_U+30FC 1
 62
   179
420
  2234388
370
     9
100
AcDbSpline
210
0.0
220
0.0
230
1.0
 70
    11
 71
     3
 72
    17
 73
    13
 74
     0
 42
0.0000000001
 43
0.0000000001
 12
1.0
 22
0.0
 32
0.0
 13
1.0
 23
0.0
 33
0.0
 40
0.0
 40
0.0
 40
0.0
 40
0.0
 40
1.0
 40
1.0
 40
1.0
 40
2.0
 40
2.0
 40
2.0
 40
3.0
 40
3.0
 40
3.0
 40
4.0
 40
4.0
 40
4.0
 40
4.0
 10
113.7253573764022
 20
-130.3913585785136
 30
0.0
 10
113.7253573764022
 20
-130.3582680229661
 30
0.0
 10
113.6984757104213
 20
-130.3314216340839
 30
0.0
 10
113.6650676557181
 20
-130.3314216340839
 30
0.0
 10
113.6319771010067
 20
-130.3314216340839
 30
0.0
 10
113.6051307128028
 20
-130.3582680229661
 30
0.0
 10
113.6051307128028
 20
-130.3913585785136
 30
0.0
 10
113.6051307128028
 20
-130.4247666340607
 30
0.0
 10
113.6319771010067
 20
-130.4516483007204
 30
0.0
 10
113.6650676557181
 20
-130.4516483007204
 30
0.0
 10
113.6984757104213
 20
-130.4516483007204
 30
0.0
 10
113.7253573764022
 20
-130.4247666340607
 30
0.0
 10
113.7253573764022
 20
-130.3913585785136
 30
0.0
  0
SPLINE
  5
F3
330
1F
100
AcDbEntity
  8
_U+30EC_U+30A4_U+30E4_U+30FC 1
 62
   179
420
  2234388
370
     9
100
AcDbSpline
210
0.0
220
0.0
230
1.0
 70
    11
 71
     3
 72
    17
 73
    13
 74
     0
 42
0.0000000001
 43
0.0000000001
 12
1.0
 22
0.0
 32
0.0
 13
1.0
 23
0.0
 33
0.0
 40
0.0
 40
0.0
 40
0.0
 40
0.0
 40
1.0
 40
1.0
 40
1.0
 40
2.0
 40
2.0
 40
2.0
 40
3.0
 40
3.0
 40
3.0
 40
4.0
 40
4.0
 40
4.0
 40
4.0
 10
126.9248903729874
 20
-136.9914780213076
 30
0.0
 10
126.9248903729874
 20
-136.9583874657602
 30
0.0
 10
126.8980087070065
 20
-136.9315057991004
 30
0.0
 10
126.8649534300721
 20
-136.9315057991004
 30
0.0
 10
126.8318628753607
 20
-136.9315057991004
 30
0.0
 10
126.8050164871567
 20
-136.9583874657602
 30
0.0
 10
126.8050164871567
 20
-136.9914780213076
 30
0.0
 10
126.8050164871567
 20
-137.0245332990769
 30
0.0
 10
126.8318628753607
 20
-137.0514149657374
 30
0.0
 10
126.8649534300721
 20
-137.0514149657374
 30
0.0
 10
126.8980087070065
 20
-137.0514149657374
 30
0.0
 10
126.9248903729874
 20
-137.0245332990769
 30
0.0
 10
126.9248903729874
 20
-136.9914780213076
 30
0.0
  0
SPLINE
  5
F4
330
1F
100
AcDbEntity
  8
_U+30EC_U+30A4_U+30E4_U+30FC 1
 62
   179
420
  2234388
370
     9
100
AcDbSpline
210
0.0
220
0.0
230
1.0
 70
    11
 71
     3
 72
    17
 73
    13
 74
     0
 42
0.0000000001
 43
0.0000000001
 12
1.0
 22
0.0
 32
0.0
 13
1.0
 23
0.0
 33
0.0
 40
0.0
 40
0.0
 40
0.0
 40
0.0
 40
1.0
 40
1.0
 40
1.0
 40
2.0
 40
2.0
 40
2.0
 40
3.0
 40
3.0
 40
3.0
 40
4.0
 40
4.0
 40
4.0
 40
4.0
 10
122.7253179801274
 20
-136.9914780213076
 30
0.0
 10
122.7253179801274
 20
-136.9583874657602
 30
0.0
 10
122.6984363141465
 20
-136.9315057991004
 30
0.0
 10
122.6650282594433
 20
-136.9315057991004
 30
0.0
 10
122.6319729825088
 20
-136.9315057991004
 30
0.0
 10
122.605094413793
 20
-136.9583874657602
 30
0.0
 10
122.605094413793
 20
-136.9914780213076
 30
0.0
 10
122.605094413793
 20
-137.0245332990769
 30
0.0
 10
122.6319729825088
 20
-137.0514149657374
 30
0.0
 10
122.6650282594433
 20
-137.0514149657374
 30
0.0
 10
122.6984363141465
 20
-137.0514149657374
 30
0.0
 10
122.7253179801274
 20
-137.0245332990769
 30
0.0
 10
122.7253179801274
 20
-136.9914780213076
 30
0.0
  0
SPLINE
  5
F5
330
1F
100
AcDbEntity
  8
_U+30EC_U+30A4_U+30E4_U+30FC 1
 62
   179
420
  2234388
370
     9
100
AcDbSpline
210
0.0
220
0.0
230
1.0
 70
    11
 71
     3
 72
    17
 73
    13
 74
     0
 42
0.0000000001
 43
0.0000000001
 12
1.0
 22
0.0
 32
0.0
 13
1.0
 23
0.0
 33
0.0
 40
0.0
 40
0.0
 40
0.0
 40
0.0
 40
1.0
 40
1.0
 40
1.0
 40
2.0
 40
2.0
 40
2.0
 40
3.0
 40
3.0
 40
3.0
 40
4.0
 40
4.0
 40
4.0
 40
4.0
 10
62.72519256641369
 20
-136.9914780213076
 30
0.0
 10
62.72519256641369
 20
-136.9583874657602
 30
0.0
 10
62.69831090043283
 20
-136.9315057991004
 30
0.0
 10
62.66525562349836
 20
-136.9315057991004
 30
0.0
 10
62.63202395767951
 20
-136.9315057991004
 30
0.0
 10
62.60514229169865
 20
-136.9583874657602
 30
0.0
 10
62.60514229169865
 20
-136.9914780213076
 30
0.0
 10
62.60514229169865
 20
-137.0245332990769
 30
0.0
 10
62.63202395767951
 20
-137.0514149657374
 30
0.0
 10
62.66525562349836
 20
-137.0514149657374
 30
0.0
 10
62.69831090043283
 20
-137.0514149657374
 30
0.0
 10
62.72519256641369
 20
-137.0245332990769
 30
0.0
 10
62.72519256641369
 20
-136.9914780213076
 30
0.0
  0
SPLINE
  5
F6
330
1F
100
AcDbEntity
  8
_U+30EC_U+30A4_U+30E4_U+30FC 1
 62
   179
420
  2234388
370
     9
100
AcDbSpline
210
0.0
220
0.0
230
1.0
 70
    11
 71
     3
 72
    17
 73
    13
 74
     0
 42
0.0000000001
 43
0.0000000001
 12
1.0
 22
0.0
 32
0.0
 13
1.0
 23
0.0
 33
0.0
 40
0.0
 40
0.0
 40
0.0
 40
0.0
 40
1.0
 40
1.0
 40
1.0
 40
2.0
 40
2.0
 40
2.0
 40
3.0
 40
3.0
 40
3.0
 40
4.0
 40
4.0
 40
4.0
 40
4.0
 10
51.32521424614025
 20
-130.3913585785136
 30
0.0
 10
51.32521424614025
 20
-130.3582680229661
 30
0.0
 10
51.2983325801594
 20
-130.3314216340839
 30
0.0
 10
51.26524202544805
 20
-130.3314216340839
 30
0.0
 10
51.23201035962919
 20
-130.3314216340839
 30
0.0
 10
51.20512869364833
 20
-130.3582680229661
 30
0.0
 10
51.20512869364833
 20
-130.3913585785136
 30
0.0
 10
51.20512869364833
 20
-130.4244138562829
 30
0.0
 10
51.23201035962919
 20
-130.4512955229427
 30
0.0
 10
51.26524202544805
 20
-130.4512955229427
 30
0.0
 10
51.2983325801594
 20
-130.4512955229427
 30
0.0
 10
51.32521424614025
 20
-130.4244138562829
 30
0.0
 10
51.32521424614025
 20
-130.3913585785136
 30
0.0
  0
SPLINE
  5
F7
330
1F
100
AcDbEntity
  8
_U+30EC_U+30A4_U+30E4_U+30FC 1
 62
   179
420
  2234388
370
     9
100
AcDbSpline
210
0.0
220
0.0
230
1.0
 70
    11
 71
     3
 72
    17
 73
    13
 74
     0
 42
0.0000000001
 43
0.0000000001
 12
1.0
 22
0.0
 32
0.0
 13
1.0
 23
0.0
 33
0.0
 40
0.0
 40
0.0
 40
0.0
 40
0.0
 40
1.0
 40
1.0
 40
1.0
 40
2.0
 40
2.0
 40
2.0
 40
3.0
 40
3.0
 40
3.0
 40
4.0
 40
4.0
 40
4.0
 40
4.0
 10
51.32521424614025
 20
-134.5916013552411
 30
0.0
 10
51.32521424614025
 20
-134.5585460774718
 30
0.0
 10
51.2983325801594
 20
-134.5316644108114
 30
0.0
 10
51.26524202544805
 20
-134.5316644108114
 30
0.0
 10
51.23201035962919
 20
-134.5316644108114
 30
0.0
 10
51.20512869364833
 20
-134.5585460774718
 30
0.0
 10
51.20512869364833
 20
-134.5916013552411
 30
0.0
 10
51.20512869364833
 20
-134.6246919107886
 30
0.0
 10
51.23201035962919
 20
-134.6515735774484
 30
0.0
 10
51.26524202544805
 20
-134.6515735774484
 30
0.0
 10
51.2983325801594
 20
-134.6515735774484
 30
0.0
 10
51.32521424614025
 20
-134.6246919107886
 30
0.0
 10
51.32521424614025
 20
-134.5916013552411
 30
0.0
  0
SPLINE
  5
F8
330
1F
100
AcDbEntity
  8
_U+30EC_U+30A4_U+30E4_U+30FC 1
 62
   179
420
  2234388
370
     9
100
AcDbSpline
210
0.0
220
0.0
230
1.0
 70
    11
 71
     3
 72
    17
 73
    13
 74
     0
 42
0.0000000001
 43
0.0000000001
 12
1.0
 22
0.0
 32
0.0
 13
1.0
 23
0.0
 33
0.0
 40
0.0
 40
0.0
 40
0.0
 40
0.0
 40
1.0
 40
1.0
 40
1.0
 40
2.0
 40
2.0
 40
2.0
 40
3.0
 40
3.0
 40
3.0
 40
4.0
 40
4.0
 40
4.0
 40
4.0
 10
59.12523654714511
 20
-127.3917244125964
 30
0.0
 10
59.12523654714511
 20
-127.3584574681603
 30
0.0
 10
59.09835488116425
 20
-127.3315758015005
 30
0.0
 10
59.06512321534539
 20
-127.3315758015005
 30
0.0
 10
59.03206942968644
 20
-127.3315758015005
 30
0.0
 10
59.00518627243007
 20
-127.3584574681603
 30
0.0
 10
59.00518627243007
 20
-127.3917244125964
 30
0.0
 10
59.00518627243007
 20
-127.424779690366
 30
0.0
 10
59.03206942968644
 20
-127.4516613570261
 30
0.0
 10
59.06512321534539
 20
-127.4516613570261
 30
0.0
 10
59.09835488116425
 20
-127.4516613570261
 30
0.0
 10
59.12523654714511
 20
-127.424779690366
 30
0.0
 10
59.12523654714511
 20
-127.3917244125964
 30
0.0
  0
SPLINE
  5
F9
330
1F
100
AcDbEntity
  8
_U+30EC_U+30A4_U+30E4_U+30FC 1
 62
   179
420
  2234388
370
     9
100
AcDbSpline
210
0.0
220
0.0
230
1.0
 70
    11
 71
     3
 72
    17
 73
    13
 74
     0
 42
0.0000000001
 43
0.0000000001
 12
1.0
 22
0.0
 32
0.0
 13
1.0
 23
0.0
 33
0.0
 40
0.0
 40
0.0
 40
0.0
 40
0.0
 40
1.0
 40
1.0
 40
1.0
 40
2.0
 40
2.0
 40
2.0
 40
3.0
 40
3.0
 40
3.0
 40
4.0
 40
4.0
 40
4.0
 40
4.0
 10
63.32516171777387
 20
-127.3917244125964
 30
0.0
 10
63.32516171777387
 20
-127.3584574681603
 30
0.0
 10
63.29828005179301
 20
-127.3315758015005
 30
0.0
 10
63.26522477485854
 20
-127.3315758015005
 30
0.0
 10
63.2319578312628
 20
-127.3315758015005
 30
0.0
 10
63.20511144305883
 20
-127.3584574681603
 30
0.0
 10
63.20511144305883
 20
-127.3917244125964
 30
0.0
 10
63.20511144305883
 20
-127.424779690366
 30
0.0
 10
63.2319578312628
 20
-127.4516613570261
 30
0.0
 10
63.26522477485854
 20
-127.4516613570261
 30
0.0
 10
63.29828005179301
 20
-127.4516613570261
 30
0.0
 10
63.32516171777387
 20
-127.424779690366
 30
0.0
 10
63.32516171777387
 20
-127.3917244125964
 30
0.0
  0
SPLINE
  5
FA
330
1F
100
AcDbEntity
  8
_U+30EC_U+30A4_U+30E4_U+30FC 1
 62
   179
420
  2234388
370
     9
100
AcDbSpline
210
0.0
220
0.0
230
1.0
 70
    11
 71
     3
 72
    17
 73
    13
 74
     0
 42
0.0000000001
 43
0.0000000001
 12
1.0
 22
0.0
 32
0.0
 13
1.0
 23
0.0
 33
0.0
 40
0.0
 40
0.0
 40
0.0
 40
0.0
 40
1.0
 40
1.0
 40
1.0
 40
2.0
 40
2.0
 40
2.0
 40
3.0
 40
3.0
 40
3.0
 40
4.0
 40
4.0
 40
4.0
 40
4.0
 10
53.72523331990216
 20
-136.9914780213076
 30
0.0
 10
53.72523331990216
 20
-136.9583874657602
 30
0.0
 10
53.69835029670762
 20
-136.9315057991004
 30
0.0
 10
53.66511863088876
 20
-136.9315057991004
 30
0.0
 10
53.63202807617742
 20
-136.9315057991004
 30
0.0
 10
53.60518168797343
 20
-136.9583874657602
 30
0.0
 10
53.60518168797343
 20
-136.9914780213076
 30
0.0
 10
53.60518168797343
 20
-137.0245332990769
 30
0.0
 10
53.63202807617742
 20
-137.0514149657374
 30
0.0
 10
53.66511863088876
 20
-137.0514149657374
 30
0.0
 10
53.69835029670762
 20
-137.0514149657374
 30
0.0
 10
53.72523331990216
 20
-137.0245332990769
 30
0.0
 10
53.72523331990216
 20
-136.9914780213076
 30
0.0
  0
POLYLINE
  5
FB
330
1F
100
AcDbEntity
  8
_U+30EC_U+30A4_U+30E4_U+30FC 1
 62
   179
420
  2234388
370
     9
100
AcDb2dPolyline
 66
     1
 10
0.0
 20
0.0
 30
0.0
  0
VERTEX
  5
FC
330
FB
100
AcDbEntity
  8
_U+30EC_U+30A4_U+30E4_U+30FC 1
 62
   179
420
  2234388
370
     9
100
AcDbVertex
100
AcDb2dVertex
 10
122.6650282594433
 20
-136.9914780213076
 30
0.0
  0
VERTEX
  5
FD
330
FB
100
AcDbEntity
  8
_U+30EC_U+30A4_U+30E4_U+30FC 1
 62
   179
420
  2234388
370
     9
100
AcDbVertex
100
AcDb2dVertex
 10
62.66525562349836
 20
-136.9914780213076
 30
0.0
  0
SEQEND
  5
FE
330
FB
100
AcDbEntity
  8
_U+30EC_U+30A4_U+30E4_U+30FC 1
 62
   179
420
  2234388
370
     9
  0
POLYLINE
  5
FF
330
1F
100
AcDbEntity
  8
_U+30EC_U+30A4_U+30E4_U+30FC 1
 62
   179
420
  2234388
370
     9
100
AcDb2dPolyline
 66
     1
 10
0.0
 20
0.0
 30
0.0
  0
VERTEX
  5
100
330
FF
100
AcDbEntity
  8
_U+30EC_U+30A4_U+30E4_U+30FC 1
 62
   179
420
  2234388
370
     9
100
AcDbVertex
100
AcDb2dVertex
 10
122.6650282594433
 20
-135.8153169104909
 30
0.0
  0
VERTEX
  5
101
330
FF
100
AcDbEntity
  8
_U+30EC_U+30A4_U+30E4_U+30FC 1
 62
   179
420
  2234388
370
     9
100
AcDbVertex
100
AcDb2dVertex
 10
122.6650282594433
 20
-137.5915882989354
 30
0.0
  0
SEQEND
  5
102
330
FF
100
AcDbEntity
  8
_U+30EC_U+30A4_U+30E4_U+30FC 1
 62
   179
420
  2234388
370
     9
  0
POLYLINE
  5
103
330
1F
100
AcDbEntity
  8
_U+30EC_U+30A4_U+30E4_U+30FC 1
 62
   179
420
  2234388
370
     9
100
AcDb2dPolyline
 66
     1
 10
0.0
 20
0.0
 30
0.0
  0
VERTEX
  5
104
330
103
100
AcDbEntity
  8
_U+30EC_U+30A4_U+30E4_U+30FC 1
 62
   179
420
  2234388
370
     9
100
AcDbVertex
100
AcDb2dVertex
 10
62.66525562349836
 20
-135.8153169104909
 30
0.0
  0
VERTEX
  5
105
330
103
100
AcDbEntity
  8
_U+30EC_U+30A4_U+30E4_U+30FC 1
 62
   179
420
  2234388
370
     9
100
AcDbVertex
100
AcDb2dVertex
 10
62.66525562349836
 20
-137.5915882989354
 30
0.0
  0
SEQEND
  5
106
330
103
100
AcDbEntity
  8
_U+30EC_U+30A4_U+30E4_U+30FC 1
 62
   179
420
  2234388
370
     9
  0
INSERT
  5
108
330
1F
100
AcDbEntity
  8
_U+30EC_U+30A4_U+30E4_U+30FC 1
100
AcDbBlockReference
  2
block 3
 10
0.0
 20
0.0
 30
0.0
  0
POLYLINE
  5
12F
330
1F
100
AcDbEntity
  8
_U+30EC_U+30A4_U+30E4_U+30FC 1
 62
   179
420
  2234388
370
     9
100
AcDb2dPolyline
 66
     1
 10
0.0
 20
0.0
 30
0.0
  0
VERTEX
  5
130
330
12F
100
AcDbEntity
  8
_U+30EC_U+30A4_U+30E4_U+30FC 1
 62
   179
420
  2234388
370
     9
100
AcDbVertex
100
AcDb2dVertex
 10
122.6650282594433
 20
-136.9914780213076
 30
0.0
  0
VERTEX
  5
131
330
12F
100
AcDbEntity
  8
_U+30EC_U+30A4_U+30E4_U+30FC 1
 62
   179
420
  2234388
370
     9
100
AcDbVertex
100
AcDb2dVertex
 10
126.8649534300721
 20
-136.9914780213076
 30
0.0
  0
SEQEND
  5
132
330
12F
100
AcDbEntity
  8
_U+30EC_U+30A4_U+30E4_U+30FC 1
 62
   179
420
  2234388
370
     9
  0
POLYLINE
  5
133
330
1F
100
AcDbEntity
  8
_U+30EC_U+30A4_U+30E4_U+30FC 1
 62
   179
420
  2234388
370
     9
100
AcDb2dPolyline
 66
     1
 10
0.0
 20
0.0
 30
0.0
  0
VERTEX
  5
134
330
133
100
AcDbEntity
  8
_U+30EC_U+30A4_U+30E4_U+30FC 1
 62
   179
420
  2234388
370
     9
100
AcDbVertex
100
AcDb2dVertex
 10
126.8649534300721
 20
-135.8153169104909
 30
0.0
  0
VERTEX
  5
135
330
133
100
AcDbEntity
  8
_U+30EC_U+30A4_U+30E4_U+30FC 1
 62
   179
420
  2234388
370
     9
100
AcDbVertex
100
AcDb2dVertex
 10
126.8649534300721
 20
-137.5915882989354
 30
0.0
  0
SEQEND
  5
136
330
133
100
AcDbEntity
  8
_U+30EC_U+30A4_U+30E4_U+30FC 1
 62
   179
420
  2234388
370
     9
  0
INSERT
  5
138
330
1F
100
AcDbEntity
  8
_U+30EC_U+30A4_U+30E4_U+30FC 1
100
AcDbBlockReference
  2
block 4
 10
0.0
 20
0.0
 30
0.0
  0
POLYLINE
  5
13D
330
1F
100
AcDbEntity
  8
_U+30EC_U+30A4_U+30E4_U+30FC 1
 62
   179
420
  2234388
370
     9
100
AcDb2dPolyline
 66
     1
 10
0.0
 20
0.0
 30
0.0
  0
VERTEX
  5
13E
330
13D
100
AcDbEntity
  8
_U+30EC_U+30A4_U+30E4_U+30FC 1
 62
   179
420
  2234388
370
     9
100
AcDbVertex
100
AcDb2dVertex
 10
131.0651961006927
 20
-124.3915610800131
 30
0.0
  0
VERTEX
  5
13F
330
13D
100
AcDbEntity
  8
_U+30EC_U+30A4_U+30E4_U+30FC 1
 62
   179
420
  2234388
370
     9
100
AcDbVertex
100
AcDb2dVertex
 10
122.6650282594433
 20
-124.3915610800131
 30
0.0
  0
SEQEND
  5
140
330
13D
100
AcDbEntity
  8
_U+30EC_U+30A4_U+30E4_U+30FC 1
 62
   179
420
  2234388
370
     9
  0
POLYLINE
  5
141
330
1F
100
AcDbEntity
  8
_U+30EC_U+30A4_U+30E4_U+30FC 1
 62
   179
420
  2234388
370
     9
100
AcDb2dPolyline
 66
     1
 10
0.0
 20
0.0
 30
0.0
  0
VERTEX
  5
142
330
141
100
AcDbEntity
  8
_U+30EC_U+30A4_U+30E4_U+30FC 1
 62
   179
420
  2234388
370
     9
100
AcDbVertex
100
AcDb2dVertex
 10
131.0651961006927
 20
-125.2676494131275
 30
0.0
  0
VERTEX
  5
143
330
141
100
AcDbEntity
  8
_U+30EC_U+30A4_U+30E4_U+30FC 1
 62
   179
420
  2234388
370
     9
100
AcDbVertex
100
AcDb2dVertex
 10
131.0651961006927
 20
-123.7915919134967
 30
0.0
  0
SEQEND
  5
144
330
141
100
AcDbEntity
  8
_U+30EC_U+30A4_U+30E4_U+30FC 1
 62
   179
420
  2234388
370
     9
  0
POLYLINE
  5
145
330
1F
100
AcDbEntity
  8
_U+30EC_U+30A4_U+30E4_U+30FC 1
 62
   179
420
  2234388
370
     9
100
AcDb2dPolyline
 66
     1
 10
0.0
 20
0.0
 30
0.0
  0
VERTEX
  5
146
330
145
100
AcDbEntity
  8
_U+30EC_U+30A4_U+30E4_U+30FC 1
 62
   179
420
  2234388
370
     9
100
AcDbVertex
100
AcDb2dVertex
 10
122.6650282594433
 20
-126.4675524683832
 30
0.0
  0
VERTEX
  5
147
330
145
100
AcDbEntity
  8
_U+30EC_U+30A4_U+30E4_U+30FC 1
 62
   179
420
  2234388
370
     9
100
AcDbVertex
100
AcDb2dVertex
 10
122.6650282594433
 20
-123.7915919134967
 30
0.0
  0
SEQEND
  5
148
330
145
100
AcDbEntity
  8
_U+30EC_U+30A4_U+30E4_U+30FC 1
 62
   179
420
  2234388
370
     9
  0
INSERT
  5
14A
330
1F
100
AcDbEntity
  8
_U+30EC_U+30A4_U+30E4_U+30FC 1
100
AcDbBlockReference
  2
block 5
 10
0.0
 20
0.0
 30
0.0
  0
POLYLINE
  5
164
330
1F
100
AcDbEntity
  8
_U+30EC_U+30A4_U+30E4_U+30FC 1
 62
   179
420
  2234388
370
     9
100
AcDb2dPolyline
 66
     1
 10
0.0
 20
0.0
 30
0.0
  0
VERTEX
  5
165
330
164
100
AcDbEntity
  8
_U+30EC_U+30A4_U+30E4_U+30FC 1
 62
   179
420
  2234388
370
     9
100
AcDbVertex
100
AcDb2dVertex
 10
122.6650282594433
 20
-124.3915610800131
 30
0.0
  0
VERTEX
  5
166
330
164
100
AcDbEntity
  8
_U+30EC_U+30A4_U+30E4_U+30FC 1
 62
   179
420
  2234388
370
     9
100
AcDbVertex
100
AcDb2dVertex
 10
116.6654073013953
 20
-124.3915610800131
 30
0.0
  0
SEQEND
  5
167
330
164
100
AcDbEntity
  8
_U+30EC_U+30A4_U+30E4_U+30FC 1
 62
   179
420
  2234388
370
     9
  0
POLYLINE
  5
168
330
1F
100
AcDbEntity
  8
_U+30EC_U+30A4_U+30E4_U+30FC 1
 62
   179
420
  2234388
370
     9
100
AcDb2dPolyline
 66
     1
 10
0.0
 20
0.0
 30
0.0
  0
VERTEX
  5
169
330
168
100
AcDbEntity
  8
_U+30EC_U+30A4_U+30E4_U+30FC 1
 62
   179
420
  2234388
370
     9
100
AcDbVertex
100
AcDb2dVertex
 10
116.6654073013953
 20
-127.9675635791191
 30
0.0
  0
VERTEX
  5
16A
330
168
100
AcDbEntity
  8
_U+30EC_U+30A4_U+30E4_U+30FC 1
 62
   179
420
  2234388
370
     9
100
AcDbVertex
100
AcDb2dVertex
 10
116.6654073013953
 20
-123.7915919134967
 30
0.0
  0
SEQEND
  5
16B
330
168
100
AcDbEntity
  8
_U+30EC_U+30A4_U+30E4_U+30FC 1
 62
   179
420
  2234388
370
     9
  0
INSERT
  5
16D
330
1F
100
AcDbEntity
  8
_U+30EC_U+30A4_U+30E4_U+30FC 1
100
AcDbBlockReference
  2
block 6
 10
0.0
 20
0.0
 30
0.0
  0
POLYLINE
  5
174
330
1F
100
AcDbEntity
  8
_U+30EC_U+30A4_U+30E4_U+30FC 1
 62
   179
420
  2234388
370
     9
100
AcDb2dPolyline
 66
     1
 10
0.0
 20
0.0
 30
0.0
  0
VERTEX
  5
175
330
174
100
AcDbEntity
  8
_U+30EC_U+30A4_U+30E4_U+30FC 1
 62
   179
420
  2234388
370
     9
100
AcDbVertex
100
AcDb2dVertex
 10
131.0651961006927
 20
-121.9915080250578
 30
0.0
  0
VERTEX
  5
176
330
174
100
AcDbEntity
  8
_U+30EC_U+30A4_U+30E4_U+30FC 1
 62
   179
420
  2234388
370
     9
100
AcDbVertex
100
AcDb2dVertex
 10
116.6654073013953
 20
-121.9915080250578
 30
0.0
  0
SEQEND
  5
177
330
174
100
AcDbEntity
  8
_U+30EC_U+30A4_U+30E4_U+30FC 1
 62
   179
420
  2234388
370
     9
  0
POLYLINE
  5
178
330
1F
100
AcDbEntity
  8
_U+30EC_U+30A4_U+30E4_U+30FC 1
 62
   179
420
  2234388
370
     9
100
AcDb2dPolyline
 66
     1
 10
0.0
 20
0.0
 30
0.0
  0
VERTEX
  5
179
330
178
100
AcDbEntity
  8
_U+30EC_U+30A4_U+30E4_U+30FC 1
 62
   179
420
  2234388
370
     9
100
AcDbVertex
100
AcDb2dVertex
 10
131.0651961006927
 20
-125.2676494131275
 30
0.0
  0
VERTEX
  5
17A
330
178
100
AcDbEntity
  8
_U+30EC_U+30A4_U+30E4_U+30FC 1
 62
   179
420
  2234388
370
     9
100
AcDbVertex
100
AcDb2dVertex
 10
131.0651961006927
 20
-121.3915741363188
 30
0.0
  0
SEQEND
  5
17B
330
178
100
AcDbEntity
  8
_U+30EC_U+30A4_U+30E4_U+30FC 1
 62
   179
420
  2234388
370
     9
  0
POLYLINE
  5
17C
330
1F
100
AcDbEntity
  8
_U+30EC_U+30A4_U+30E4_U+30FC 1
 62
   179
420
  2234388
370
     9
100
AcDb2dPolyline
 66
     1
 10
0.0
 20
0.0
 30
0.0
  0
VERTEX
  5
17D
330
17C
100
AcDbEntity
  8
_U+30EC_U+30A4_U+30E4_U+30FC 1
 62
   179
420
  2234388
370
     9
100
AcDbVertex
100
AcDb2dVertex
 10
116.6654073013953
 20
-127.9675635791191
 30
0.0
  0
VERTEX
  5
17E
330
17C
100
AcDbEntity
  8
_U+30EC_U+30A4_U+30E4_U+30FC 1
 62
   179
420
  2234388
370
     9
100
AcDbVertex
100
AcDb2dVertex
 10
116.6654073013953
 20
-121.3915741363188
 30
0.0
  0
SEQEND
  5
17F
330
17C
100
AcDbEntity
  8
_U+30EC_U+30A4_U+30E4_U+30FC 1
 62
   179
420
  2234388
370
     9
  0
INSERT
  5
181
330
1F
100
AcDbEntity
  8
_U+30EC_U+30A4_U+30E4_U+30FC 1
100
AcDbBlockReference
  2
block 7
 10
0.0
 20
0.0
 30
0.0
  0
POLYLINE
  5
188
330
1F
100
AcDbEntity
  8
_U+30EC_U+30A4_U+30E4_U+30FC 1
 62
   179
420
  2234388
370
     9
100
AcDb2dPolyline
 66
     1
 10
0.0
 20
0.0
 30
0.0
  0
VERTEX
  5
189
330
188
100
AcDbEntity
  8
_U+30EC_U+30A4_U+30E4_U+30FC 1
 62
   179
420
  2234388
370
     9
100
AcDbVertex
100
AcDb2dVertex
 10
113.6650676557181
 20
-128.5916274678521
 30
0.0
  0
VERTEX
  5
18A
330
188
100
AcDbEntity
  8
_U+30EC_U+30A4_U+30E4_U+30FC 1
 62
   179
420
  2234388
370
     9
100
AcDbVertex
100
AcDb2dVertex
 10
113.6650676557181
 20
-130.3913585785136
 30
0.0
  0
SEQEND
  5
18B
330
188
100
AcDbEntity
  8
_U+30EC_U+30A4_U+30E4_U+30FC 1
 62
   179
420
  2234388
370
     9
  0
POLYLINE
  5
18C
330
1F
100
AcDbEntity
  8
_U+30EC_U+30A4_U+30E4_U+30FC 1
 62
   179
420
  2234388
370
     9
100
AcDb2dPolyline
 66
     1
 10
0.0
 20
0.0
 30
0.0
  0
VERTEX
  5
18D
330
18C
100
AcDbEntity
  8
_U+30EC_U+30A4_U+30E4_U+30FC 1
 62
   179
420
  2234388
370
     9
100
AcDbVertex
100
AcDb2dVertex
 10
116.0411317617663
 20
-128.5916274678521
 30
0.0
  0
VERTEX
  5
18E
330
18C
100
AcDbEntity
  8
_U+30EC_U+30A4_U+30E4_U+30FC 1
 62
   179
420
  2234388
370
     9
100
AcDbVertex
100
AcDb2dVertex
 10
113.0652777495115
 20
-128.5916274678521
 30
0.0
  0
SEQEND
  5
18F
330
18C
100
AcDbEntity
  8
_U+30EC_U+30A4_U+30E4_U+30FC 1
 62
   179
420
  2234388
370
     9
  0
POLYLINE
  5
190
330
1F
100
AcDbEntity
  8
_U+30EC_U+30A4_U+30E4_U+30FC 1
 62
   179
420
  2234388
370
     9
100
AcDb2dPolyline
 66
     1
 10
0.0
 20
0.0
 30
0.0
  0
VERTEX
  5
191
330
190
100
AcDbEntity
  8
_U+30EC_U+30A4_U+30E4_U+30FC 1
 62
   179
420
  2234388
370
     9
100
AcDbVertex
100
AcDb2dVertex
 10
116.0411317617663
 20
-130.3913585785136
 30
0.0
  0
VERTEX
  5
192
330
190
100
AcDbEntity
  8
_U+30EC_U+30A4_U+30E4_U+30FC 1
 62
   179
420
  2234388
370
     9
100
AcDbVertex
100
AcDb2dVertex
 10
113.0652777495115
 20
-130.3913585785136
 30
0.0
  0
SEQEND
  5
193
330
190
100
AcDbEntity
  8
_U+30EC_U+30A4_U+30E4_U+30FC 1
 62
   179
420
  2234388
370
     9
  0
INSERT
  5
195
330
1F
100
AcDbEntity
  8
_U+30EC_U+30A4_U+30E4_U+30FC 1
100
AcDbBlockReference
  2
block 8
 10
0.0
 20
0.0
 30
0.0
  0
POLYLINE
  5
19A
330
1F
100
AcDbEntity
  8
_U+30EC_U+30A4_U+30E4_U+30FC 1
 62
   179
420
  2234388
370
     9
100
AcDb2dPolyline
 66
     1
 10
0.0
 20
0.0
 30
0.0
  0
VERTEX
  5
19B
330
19A
100
AcDbEntity
  8
_U+30EC_U+30A4_U+30E4_U+30FC 1
 62
   179
420
  2234388
370
     9
100
AcDbVertex
100
AcDb2dVertex
 10
132.5893371729198
 20
-126.791578857191
 30
0.0
  0
VERTEX
  5
19C
330
19A
100
AcDbEntity
  8
_U+30EC_U+30A4_U+30E4_U+30FC 1
 62
   179
420
  2234388
370
     9
100
AcDbVertex
100
AcDb2dVertex
 10
134.0651829686011
 20
-126.791578857191
 30
0.0
  0
SEQEND
  5
19D
330
19A
100
AcDbEntity
  8
_U+30EC_U+30A4_U+30E4_U+30FC 1
 62
   179
420
  2234388
370
     9
  0
INSERT
  5
19F
330
1F
100
AcDbEntity
  8
_U+30EC_U+30A4_U+30E4_U+30FC 1
100
AcDbBlockReference
  2
block 9
 10
0.0
 20
0.0
 30
0.0
  0
POLYLINE
  5
1A6
330
1F
100
AcDbEntity
  8
_U+30EC_U+30A4_U+30E4_U+30FC 1
 62
   179
420
  2234388
370
     9
100
AcDb2dPolyline
 66
     1
 10
0.0
 20
0.0
 30
0.0
  0
VERTEX
  5
1A7
330
1A6
100
AcDbEntity
  8
_U+30EC_U+30A4_U+30E4_U+30FC 1
 62
   179
420
  2234388
370
     9
100
AcDbVertex
100
AcDb2dVertex
 10
51.26524202544805
 20
-130.3913585785136
 30
0.0
  0
VERTEX
  5
1A8
330
1A6
100
AcDbEntity
  8
_U+30EC_U+30A4_U+30E4_U+30FC 1
 62
   179
420
  2234388
370
     9
100
AcDbVertex
100
AcDb2dVertex
 10
51.26524202544805
 20
-134.5916013552411
 30
0.0
  0
SEQEND
  5
1A9
330
1A6
100
AcDbEntity
  8
_U+30EC_U+30A4_U+30E4_U+30FC 1
 62
   179
420
  2234388
370
     9
  0
POLYLINE
  5
1AA
330
1F
100
AcDbEntity
  8
_U+30EC_U+30A4_U+30E4_U+30FC 1
 62
   179
420
  2234388
370
     9
100
AcDb2dPolyline
 66
     1
 10
0.0
 20
0.0
 30
0.0
  0
VERTEX
  5
1AB
330
1AA
100
AcDbEntity
  8
_U+30EC_U+30A4_U+30E4_U+30FC 1
 62
   179
420
  2234388
370
     9
100
AcDbVertex
100
AcDb2dVertex
 10
52.141189225323
 20
-130.3913585785136
 30
0.0
  0
VERTEX
  5
1AC
330
1AA
100
AcDbEntity
  8
_U+30EC_U+30A4_U+30E4_U+30FC 1
 62
   179
420
  2234388
370
     9
100
AcDbVertex
100
AcDb2dVertex
 10
50.66513176298036
 20
-130.3913585785136
 30
0.0
  0
SEQEND
  5
1AD
330
1AA
100
AcDbEntity
  8
_U+30EC_U+30A4_U+30E4_U+30FC 1
 62
   179
420
  2234388
370
     9
  0
POLYLINE
  5
1AE
330
1F
100
AcDbEntity
  8
_U+30EC_U+30A4_U+30E4_U+30FC 1
 62
   179
420
  2234388
370
     9
100
AcDb2dPolyline
 66
     1
 10
0.0
 20
0.0
 30
0.0
  0
VERTEX
  5
1AF
330
1AE
100
AcDbEntity
  8
_U+30EC_U+30A4_U+30E4_U+30FC 1
 62
   179
420
  2234388
370
     9
100
AcDbVertex
100
AcDb2dVertex
 10
61.44122259917049
 20
-134.5916013552411
 30
0.0
  0
VERTEX
  5
1B0
330
1AE
100
AcDbEntity
  8
_U+30EC_U+30A4_U+30E4_U+30FC 1
 62
   179
420
  2234388
370
     9
100
AcDbVertex
100
AcDb2dVertex
 10
50.66513176298036
 20
-134.5916013552411
 30
0.0
  0
SEQEND
  5
1B1
330
1AE
100
AcDbEntity
  8
_U+30EC_U+30A4_U+30E4_U+30FC 1
 62
   179
420
  2234388
370
     9
  0
INSERT
  5
1B3
330
1F
100
AcDbEntity
  8
_U+30EC_U+30A4_U+30E4_U+30FC 1
100
AcDbBlockReference
  2
block 10
 10
0.0
 20
0.0
 30
0.0
  0
POLYLINE
  5
1BA
330
1F
100
AcDbEntity
  8
_U+30EC_U+30A4_U+30E4_U+30FC 1
 62
   179
420
  2234388
370
     9
100
AcDb2dPolyline
 66
     1
 10
0.0
 20
0.0
 30
0.0
  0
VERTEX
  5
1BB
330
1BA
100
AcDbEntity
  8
_U+30EC_U+30A4_U+30E4_U+30FC 1
 62
   179
420
  2234388
370
     9
100
AcDbVertex
100
AcDb2dVertex
 10
63.26522477485854
 20
-127.3917244125964
 30
0.0
  0
VERTEX
  5
1BC
330
1BA
100
AcDbEntity
  8
_U+30EC_U+30A4_U+30E4_U+30FC 1
 62
   179
420
  2234388
370
     9
100
AcDbVertex
100
AcDb2dVertex
 10
59.06512321534539
 20
-127.3917244125964
 30
0.0
  0
SEQEND
  5
1BD
330
1BA
100
AcDbEntity
  8
_U+30EC_U+30A4_U+30E4_U+30FC 1
 62
   179
420
  2234388
370
     9
  0
POLYLINE
  5
1BE
330
1F
100
AcDbEntity
  8
_U+30EC_U+30A4_U+30E4_U+30FC 1
 62
   179
420
  2234388
370
     9
100
AcDb2dPolyline
 66
     1
 10
0.0
 20
0.0
 30
0.0
  0
VERTEX
  5
1BF
330
1BE
100
AcDbEntity
  8
_U+30EC_U+30A4_U+30E4_U+30FC 1
 62
   179
420
  2234388
370
     9
100
AcDbVertex
100
AcDb2dVertex
 10
63.26522477485854
 20
-128.5675327456359
 30
0.0
  0
VERTEX
  5
1C0
330
1BE
100
AcDbEntity
  8
_U+30EC_U+30A4_U+30E4_U+30FC 1
 62
   179
420
  2234388
370
     9
100
AcDbVertex
100
AcDb2dVertex
 10
63.26522477485854
 20
-126.791578857191
 30
0.0
  0
SEQEND
  5
1C1
330
1BE
100
AcDbEntity
  8
_U+30EC_U+30A4_U+30E4_U+30FC 1
 62
   179
420
  2234388
370
     9
  0
POLYLINE
  5
1C2
330
1F
100
AcDbEntity
  8
_U+30EC_U+30A4_U+30E4_U+30FC 1
 62
   179
420
  2234388
370
     9
100
AcDb2dPolyline
 66
     1
 10
0.0
 20
0.0
 30
0.0
  0
VERTEX
  5
1C3
330
1C2
100
AcDbEntity
  8
_U+30EC_U+30A4_U+30E4_U+30FC 1
 62
   179
420
  2234388
370
     9
100
AcDbVertex
100
AcDb2dVertex
 10
59.06512321534539
 20
-128.8675702455611
 30
0.0
  0
VERTEX
  5
1C4
330
1C2
100
AcDbEntity
  8
_U+30EC_U+30A4_U+30E4_U+30FC 1
 62
   179
420
  2234388
370
     9
100
AcDbVertex
100
AcDb2dVertex
 10
59.06512321534539
 20
-126.791578857191
 30
0.0
  0
SEQEND
  5
1C5
330
1C2
100
AcDbEntity
  8
_U+30EC_U+30A4_U+30E4_U+30FC 1
 62
   179
420
  2234388
370
     9
  0
INSERT
  5
1C7
330
1F
100
AcDbEntity
  8
_U+30EC_U+30A4_U+30E4_U+30FC 1
100
AcDbBlockReference
  2
block 11
 10
0.0
 20
0.0
 30
0.0
  0
POLYLINE
  5
1CC
330
1F
100
AcDbEntity
  8
_U+30EC_U+30A4_U+30E4_U+30FC 1
 62
   179
420
  2234388
370
     9
100
AcDb2dPolyline
 66
     1
 10
0.0
 20
0.0
 30
0.0
  0
VERTEX
  5
1CD
330
1CC
100
AcDbEntity
  8
_U+30EC_U+30A4_U+30E4_U+30FC 1
 62
   179
420
  2234388
370
     9
100
AcDbVertex
100
AcDb2dVertex
 10
62.66525562349836
 20
-136.9914780213076
 30
0.0
  0
VERTEX
  5
1CE
330
1CC
100
AcDbEntity
  8
_U+30EC_U+30A4_U+30E4_U+30FC 1
 62
   179
420
  2234388
370
     9
100
AcDbVertex
100
AcDb2dVertex
 10
53.66511863088876
 20
-136.9914780213076
 30
0.0
  0
SEQEND
  5
1CF
330
1CC
100
AcDbEntity
  8
_U+30EC_U+30A4_U+30E4_U+30FC 1
 62
   179
420
  2234388
370
     9
  0
POLYLINE
  5
1D0
330
1F
100
AcDbEntity
  8
_U+30EC_U+30A4_U+30E4_U+30FC 1
 62
   179
420
  2234388
370
     9
100
AcDb2dPolyline
 66
     1
 10
0.0
 20
0.0
 30
0.0
  0
VERTEX
  5
1D1
330
1D0
100
AcDbEntity
  8
_U+30EC_U+30A4_U+30E4_U+30FC 1
 62
   179
420
  2234388
370
     9
100
AcDbVertex
100
AcDb2dVertex
 10
53.66511863088876
 20
-131.9154644114657
 30
0.0
  0
VERTEX
  5
1D2
330
1D0
100
AcDbEntity
  8
_U+30EC_U+30A4_U+30E4_U+30FC 1
 62
   179
420
  2234388
370
     9
100
AcDbVertex
100
AcDb2dVertex
 10
53.66511863088876
 20
-137.5915882989354
 30
0.0
  0
SEQEND
  5
1D3
330
1D0
100
AcDbEntity
  8
_U+30EC_U+30A4_U+30E4_U+30FC 1
 62
   179
420
  2234388
370
     9
  0
INSERT
  5
1D5
330
1F
100
AcDbEntity
  8
_U+30EC_U+30A4_U+30E4_U+30FC 1
100
AcDbBlockReference
  2
block 12
 10
0.0
 20
0.0
 30
0.0
  0
ENDSEC
  0
SECTION
  2
OBJECTS
  0
DICTIONARY
  5
C
330
0
100
AcDbDictionary
281
     1
  3
ACAD_GROUP
350
D
  3
ACAD_LAYOUT
350
1A
  3
ACAD_MATERIAL
350
3B
  3
ACAD_MLEADERSTYLE
350
1DE
  3
ACAD_MLINESTYLE
350
17
  3
ACAD_PLOTSETTINGS
350
19
  3
ACAD_PLOTSTYLENAME
350
E
  3
ACAD_TABLESTYLE
350
1DD
  3
ACAD_VISUALSTYLE
350
2A
  0
SUN
  5
3F
330
29
100
AcDbSun
 90
        1
290
     0
 63
     7
421
 16777215
 40
1.0
291
     1
 91
  2455826
 92
 54000000
292
     0
 70
     2
 71
   256
280
     1
  0
DICTIONARY
  5
D
102
{ACAD_REACTORS
330
C
102
}
330
C
100
AcDbDictionary
281
     1
  0
DICTIONARY
  5
1A
102
{ACAD_REACTORS
330
C
102
}
330
C
100
AcDbDictionary
281
     1
  3
Layout1
350
1E
  3
Layout2
350
26
  3
Model
350
22
  0
DICTIONARY
  5
3B
102
{ACAD_REACTORS
330
C
102
}
330
C
100
AcDbDictionary
281
     1
  3
ByBlock
350
3D
  3
ByLayer
350
3C
  3
Global
350
3E
  0
DICTIONARY
  5
1DE
102
{ACAD_REACTORS
330
C
102
}
330
C
100
AcDbDictionary
281
     1
  0
DICTIONARY
  5
17
102
{ACAD_REACTORS
330
C
102
}
330
C
100
AcDbDictionary
281
     1
  3
Standard
350
18
  0
DICTIONARY
  5
19
102
{ACAD_REACTORS
330
C
102
}
330
C
100
AcDbDictionary
281
     1
  0
ACDBDICTIONARYWDFLT
  5
E
102
{ACAD_REACTORS
330
C
102
}
330
C
100
AcDbDictionary
281
     1
  3
Normal
350
F
100
AcDbDictionaryWithDefault
340
F
  0
DICTIONARY
  5
1DD
102
{ACAD_REACTORS
330
C
102
}
330
C
100
AcDbDictionary
281
     1
  0
DICTIONARY
  5
2A
102
{ACAD_REACTORS
330
C
102
}
330
C
100
AcDbDictionary
281
     1
  3
2dWireframe
350
2F
  3
3D Hidden
350
31
  3
3dWireframe
350
30
  3
Basic
350
32
  3
Brighten
350
36
  3
ColorChange
350
3A
  3
Conceptual
350
34
  3
Dim
350
35
  3
Facepattern
350
39
  3
Flat
350
2B
  3
FlatWithEdges
350
2C
  3
Gouraud
350
2D
  3
GouraudWithEdges
350
2E
  3
Linepattern
350
38
  3
Realistic
350
33
  3
Thicken
350
37
  0
LAYOUT
  5
1E
102
{ACAD_REACTORS
330
1A
102
}
330
1A
100
AcDbPlotSettings
  1

  2
none_device
  4

  6

 40
0.0
 41
0.0
 42
0.0
 43
0.0
 44
0.0
 45
0.0
 46
0.0
 47
0.0
 48
0.0
 49
0.0
140
0.0
141
0.0
142
1.0
143
1.0
 70
   688
 72
     0
 73
     0
 74
     5
  7

 75
    16
 76
     0
 77
     2
 78
   300
147
1.0
148
0.0
149
0.0
100
AcDbLayout
  1
Layout1
 70
     1
 71
     1
 10
0.0
 20
0.0
 11
12.0
 21
9.0
 12
0.0
 22
0.0
 32
0.0
 14
1.000000000000000E+20
 24
1.000000000000000E+20
 34
1.000000000000000E+20
 15
-1.000000000000000E+20
 25
-1.000000000000000E+20
 35
-1.000000000000000E+20
146
0.0
 13
0.0
 23
0.0
 33
0.0
 16
1.0
 26
0.0
 36
0.0
 17
0.0
 27
1.0
 37
0.0
 76
     0
330
1B
  0
LAYOUT
  5
26
102
{ACAD_REACTORS
330
1A
102
}
330
1A
100
AcDbPlotSettings
  1

  2
none_device
  4

  6

 40
0.0
 41
0.0
 42
0.0
 43
0.0
 44
0.0
 45
0.0
 46
0.0
 47
0.0
 48
0.0
 49
0.0
140
0.0
141
0.0
142
1.0
143
1.0
 70
   688
 72
     0
 73
     0
 74
     5
  7

 75
    16
 76
     0
 77
     2
 78
   300
147
1.0
148
0.0
149
0.0
100
AcDbLayout
  1
Layout2
 70
     1
 71
     2
 10
0.0
 20
0.0
 11
0.0
 21
0.0
 12
0.0
 22
0.0
 32
0.0
 14
0.0
 24
0.0
 34
0.0
 15
0.0
 25
0.0
 35
0.0
146
0.0
 13
0.0
 23
0.0
 33
0.0
 16
1.0
 26
0.0
 36
0.0
 17
0.0
 27
1.0
 37
0.0
 76
     0
330
23
  0
LAYOUT
  5
22
102
{ACAD_REACTORS
330
1A
102
}
330
1A
100
AcDbPlotSettings
  1

  2
none_device
  4

  6

 40
0.0
 41
0.0
 42
0.0
 43
0.0
 44
0.0
 45
0.0
 46
0.0
 47
0.0
 48
0.0
 49
0.0
140
0.0
141
0.0
142
1.0
143
1.0
 70
  1712
 72
     0
 73
     0
 74
     0
  7

 75
     0
 76
     0
 77
     2
 78
   300
147
1.0
148
0.0
149
0.0
100
AcDbLayout
  1
Model
 70
     1
 71
     0
 10
0.0
 20
0.0
 11
12.0
 21
9.0
 12
0.0
 22
0.0
 32
0.0
 14
1.000000000000000E+20
 24
1.000000000000000E+20
 34
1.000000000000000E+20
 15
-1.000000000000000E+20
 25
-1.000000000000000E+20
 35
-1.000000000000000E+20
146
0.0
 13
0.0
 23
0.0
 33
0.0
 16
1.0
 26
0.0
 36
0.0
 17
0.0
 27
1.0
 37
0.0
 76
     0
330
1F
331
29
  0
MATERIAL
  5
3D
102
{ACAD_REACTORS
330
3B
102
}
330
3B
100
AcDbMaterial
  1
ByBlock
 72
     1
 94
      127
  0
MATERIAL
  5
3C
102
{ACAD_REACTORS
330
3B
102
}
330
3B
100
AcDbMaterial
  1
ByLayer
 72
     1
 94
      127
  0
MATERIAL
  5
3E
102
{ACAD_REACTORS
330
3B
102
}
330
3B
100
AcDbMaterial
  1
Global
 72
     1
 94
      127
  0
MLINESTYLE
  5
18
102
{ACAD_REACTORS
330
17
102
}
330
17
100
AcDbMlineStyle
  2
Standard
 70
     0
  3

 62
   256
 51
90.0
 52
90.0
 71
     2
 49
0.5
 62
   256
  6
BYLAYER
 49
-0.5
 62
   256
  6
BYLAYER
  0
ACDBPLACEHOLDER
  5
F
102
{ACAD_REACTORS
330
E
102
}
330
E
  0
VISUALSTYLE
  5
2F
102
{ACAD_REACTORS
330
2A
102
}
330
2A
100
AcDbVisualStyle
  2
2dWireframe
 70
     4
177
     2
291
     0
 71
     0
176
     1
 72
     2
176
     1
 73
     0
176
     1
 90
        0
176
     1
 40
-0.6
176
     1
 41
-30.0
176
     1
 62
     5
 63
     7
421
 16777215
176
     1
 74
     1
176
     1
 91
        4
176
     1
 64
     7
176
     1
 65
   257
176
     1
 75
     1
176
     1
175
     1
176
     1
 42
1.0
176
     1
 92
        0
176
     1
 66
   257
176
     1
 43
1.0
176
     1
 76
     1
176
     1
 77
     6
176
     1
 78
     2
176
     1
 67
     7
176
     1
 79
     5
176
     1
170
     0
176
     1
171
     0
176
     1
290
     0
176
     1
 93
        1
176
     1
 44
0.0
176
     1
173
     0
176
     1
  0
VISUALSTYLE
  5
31
102
{ACAD_REACTORS
330
2A
102
}
330
2A
100
AcDbVisualStyle
  2
3D Hidden
 70
     6
177
     2
291
     0
 71
     1
176
     1
 72
     2
176
     1
 73
     2
176
     1
 90
        0
176
     1
 40
-0.6
176
     1
 41
-30.0
176
     1
 62
     5
 63
     7
421
 16777215
176
     1
 74
     2
176
     1
 91
        2
176
     1
 64
     7
176
     1
 65
   257
176
     1
 75
     2
176
     1
175
     1
176
     1
 42
40.0
176
     1
 92
        0
176
     1
 66
   257
176
     1
 43
1.0
176
     1
 76
     1
176
     1
 77
     6
176
     1
 78
     2
176
     1
 67
     7
176
     1
 79
     3
176
     1
170
     0
176
     1
171
     0
176
     1
290
     0
176
     1
 93
        1
176
     1
 44
0.0
176
     1
173
     0
176
     1
  0
VISUALSTYLE
  5
30
102
{ACAD_REACTORS
330
2A
102
}
330
2A
100
AcDbVisualStyle
  2
3dWireframe
 70
     5
177
     2
291
     0
 71
     0
176
     1
 72
     2
176
     1
 73
     0
176
     1
 90
        0
176
     1
 40
-0.6
176
     1
 41
-30.0
176
     1
 62
     5
 63
     7
421
 16777215
176
     1
 74
     1
176
     1
 91
        4
176
     1
 64
     7
176
     1
 65
   257
176
     1
 75
     1
176
     1
175
     1
176
     1
 42
1.0
176
     1
 92
        0
176
     1
 66
   257
176
     1
 43
1.0
176
     1
 76
     1
176
     1
 77
     6
176
     1
 78
     2
176
     1
 67
     7
176
     1
 79
     5
176
     1
170
     0
176
     1
171
     0
176
     1
290
     0
176
     1
 93
        1
176
     1
 44
0.0
176
     1
173
     0
176
     1
  0
VISUALSTYLE
  5
32
102
{ACAD_REACTORS
330
2A
102
}
330
2A
100
AcDbVisualStyle
  2
Basic
 70
     7
177
     2
291
     1
 71
     1
176
     1
 72
     0
176
     1
 73
     1
176
     1
 90
        0
176
     1
 40
-0.6
176
     1
 41
-30.0
176
     1
 62
     5
 63
     7
421
 16777215
176
     1
 74
     0
176
     1
 91
        4
176
     1
 64
     7
176
     1
 65
   257
176
     1
 75
     1
176
     1
175
     1
176
     1
 42
1.0
176
     1
 92
        8
176
     1
 66
     7
176
     1
 43
1.0
176
     1
 76
     1
176
     1
 77
     6
176
     1
 78
     2
176
     1
 67
     7
176
     1
 79
     5
176
     1
170
     0
176
     1
171
     0
176
     1
290
     0
176
     1
 93
        1
176
     1
 44
0.0
176
     1
173
     0
176
     1
  0
VISUALSTYLE
  5
36
102
{ACAD_REACTORS
330
2A
102
}
330
2A
100
AcDbVisualStyle
  2
Brighten
 70
    12
177
     2
291
     1
 71
     2
176
     1
 72
     2
176
     1
 73
     0
176
     1
 90
        0
176
     1
 40
-0.6
176
     1
 41
-30.0
176
     1
 62
     5
 63
     7
421
 16777215
176
     1
 74
     1
176
     1
 91
        4
176
     1
 64
     7
176
     1
 65
   257
176
     1
 75
     1
176
     1
175
     1
176
     1
 42
1.0
176
     1
 92
        8
176
     1
 66
     7
176
     1
 43
1.0
176
     1
 76
     1
176
     1
 77
     6
176
     1
 78
     2
176
     1
 67
     7
176
     1
 79
     5
176
     1
170
     0
176
     1
171
     0
176
     1
290
     0
176
     1
 93
        1
176
     1
 44
50.0
176
     1
173
     0
176
     1
  0
VISUALSTYLE
  5
3A
102
{ACAD_REACTORS
330
2A
102
}
330
2A
100
AcDbVisualStyle
  2
ColorChange
 70
    16
177
     2
291
     1
 71
     2
176
     1
 72
     2
176
     1
 73
     3
176
     1
 90
        0
176
     1
 40
-0.6
176
     1
 41
-30.0
176
     1
 62
     5
 63
     8
421
  8421504
176
     1
 74
     1
176
     1
 91
        4
176
     1
 64
     7
176
     1
 65
   257
176
     1
 75
     1
176
     1
175
     1
176
     1
 42
1.0
176
     1
 92
        8
176
     1
 66
     8
424
  8421504
176
     1
 43
1.0
176
     1
 76
     1
176
     1
 77
     6
176
     1
 78
     2
176
     1
 67
     7
176
     1
 79
     5
176
     1
170
     0
176
     1
171
     0
176
     1
290
     0
176
     1
 93
        1
176
     1
 44
0.0
176
     1
173
     0
176
     1
  0
VISUALSTYLE
  5
34
102
{ACAD_REACTORS
330
2A
102
}
330
2A
100
AcDbVisualStyle
  2
Conceptual
 70
     9
177
     2
291
     0
 71
     3
176
     1
 72
     2
176
     1
 73
     0
176
     1
 90
        0
176
     1
 40
-0.6
176
     1
 41
-30.0
176
     1
 62
     5
 63
     7
421
 16777215
176
     1
 74
     2
176
     1
 91
        2
176
     1
 64
     7
176
     1
 65
   257
176
     1
 75
     1
176
     1
175
     1
176
     1
 42
40.0
176
     1
 92
        8
176
     1
 66
     7
176
     1
 43
1.0
176
     1
 76
     1
176
     1
 77
     6
176
     1
 78
     2
176
     1
 67
     7
176
     1
 79
     3
176
     1
170
     0
176
     1
171
     0
176
     1
290
     0
176
     1
 93
        1
176
     1
 44
0.0
176
     1
173
     0
176
     1
  0
VISUALSTYLE
  5
35
102
{ACAD_REACTORS
330
2A
102
}
330
2A
100
AcDbVisualStyle
  2
Dim
 70
    11
177
     2
291
     1
 71
     2
176
     1
 72
     2
176
     1
 73
     0
176
     1
 90
        0
176
     1
 40
-0.6
176
     1
 41
-30.0
176
     1
 62
     5
 63
     7
421
 16777215
176
     1
 74
     1
176
     1
 91
        4
176
     1
 64
     7
176
     1
 65
   257
176
     1
 75
     1
176
     1
175
     1
176
     1
 42
1.0
176
     1
 92
        8
176
     1
 66
     7
176
     1
 43
1.0
176
     1
 76
     1
176
     1
 77
     6
176
     1
 78
     2
176
     1
 67
     7
176
     1
 79
     5
176
     1
170
     0
176
     1
171
     0
176
     1
290
     0
176
     1
 93
        1
176
     1
 44
-50.0
176
     1
173
     0
176
     1
  0
VISUALSTYLE
  5
39
102
{ACAD_REACTORS
330
2A
102
}
330
2A
100
AcDbVisualStyle
  2
Facepattern
 70
    15
177
     2
291
     1
 71
     2
176
     1
 72
     2
176
     1
 73
     0
176
     1
 90
        0
176
     1
 40
-0.6
176
     1
 41
-30.0
176
     1
 62
     5
 63
     7
421
 16777215
176
     1
 74
     1
176
     1
 91
        4
176
     1
 64
     7
176
     1
 65
   257
176
     1
 75
     1
176
     1
175
     1
176
     1
 42
1.0
176
     1
 92
        8
176
     1
 66
     7
176
     1
 43
1.0
176
     1
 76
     1
176
     1
 77
     6
176
     1
 78
     2
176
     1
 67
     7
176
     1
 79
     5
176
     1
170
     0
176
     1
171
     0
176
     1
290
     0
176
     1
 93
        1
176
     1
 44
0.0
176
     1
173
     0
176
     1
  0
VISUALSTYLE
  5
2B
102
{ACAD_REACTORS
330
2A
102
}
330
2A
100
AcDbVisualStyle
  2
Flat
 70
     0
177
     2
291
     1
 71
     2
176
     1
 72
     1
176
     1
 73
     1
176
     1
 90
        2
176
     1
 40
-0.6
176
     1
 41
30.0
176
     1
 62
     5
 63
     7
421
 16777215
176
     1
 74
     0
176
     1
 91
        4
176
     1
 64
     7
176
     1
 65
   257
176
     1
 75
     1
176
     1
175
     1
176
     1
 42
1.0
176
     1
 92
        8
176
     1
 66
     7
176
     1
 43
1.0
176
     1
 76
     1
176
     1
 77
     6
176
     1
 78
     2
176
     1
 67
     7
176
     1
 79
     5
176
     1
170
     0
176
     1
171
     0
176
     1
290
     0
176
     1
 93
       13
176
     1
 44
0.0
176
     1
173
     0
176
     1
  0
VISUALSTYLE
  5
2C
102
{ACAD_REACTORS
330
2A
102
}
330
2A
100
AcDbVisualStyle
  2
FlatWithEdges
 70
     1
177
     2
291
     1
 71
     2
176
     1
 72
     1
176
     1
 73
     1
176
     1
 90
        2
176
     1
 40
-0.6
176
     1
 41
30.0
176
     1
 62
     5
 63
     7
421
 16777215
176
     1
 74
     1
176
     1
 91
        4
176
     1
 64
     7
176
     1
 65
   257
176
     1
 75
     1
176
     1
175
     1
176
     1
 42
1.0
176
     1
 92
        0
176
     1
 66
   257
176
     1
 43
1.0
176
     1
 76
     1
176
     1
 77
     6
176
     1
 78
     2
176
     1
 67
     7
176
     1
 79
     5
176
     1
170
     0
176
     1
171
     0
176
     1
290
     0
176
     1
 93
       13
176
     1
 44
0.0
176
     1
173
     0
176
     1
  0
VISUALSTYLE
  5
2D
102
{ACAD_REACTORS
330
2A
102
}
330
2A
100
AcDbVisualStyle
  2
Gouraud
 70
     2
177
     2
291
     1
 71
     2
176
     1
 72
     2
176
     1
 73
     1
176
     1
 90
        2
176
     1
 40
-0.6
176
     1
 41
30.0
176
     1
 62
     5
 63
     7
421
 16777215
176
     1
 74
     0
176
     1
 91
        4
176
     1
 64
     7
176
     1
 65
   257
176
     1
 75
     1
176
     1
175
     1
176
     1
 42
1.0
176
     1
 92
        0
176
     1
 66
     7
176
     1
 43
1.0
176
     1
 76
     1
176
     1
 77
     6
176
     1
 78
     2
176
     1
 67
     7
176
     1
 79
     5
176
     1
170
     0
176
     1
171
     0
176
     1
290
     0
176
     1
 93
       13
176
     1
 44
0.0
176
     1
173
     0
176
     1
  0
VISUALSTYLE
  5
2E
102
{ACAD_REACTORS
330
2A
102
}
330
2A
100
AcDbVisualStyle
  2
GouraudWithEdges
 70
     3
177
     2
291
     1
 71
     2
176
     1
 72
     2
176
     1
 73
     1
176
     1
 90
        2
176
     1
 40
-0.6
176
     1
 41
30.0
176
     1
 62
     5
 63
     7
421
 16777215
176
     1
 74
     1
176
     1
 91
        4
176
     1
 64
     7
176
     1
 65
   257
176
     1
 75
     1
176
     1
175
     1
176
     1
 42
1.0
176
     1
 92
        0
176
     1
 66
   257
176
     1
 43
1.0
176
     1
 76
     1
176
     1
 77
     6
176
     1
 78
     2
176
     1
 67
     7
176
     1
 79
     5
176
     1
170
     0
176
     1
171
     0
176
     1
290
     0
176
     1
 93
       13
176
     1
 44
0.0
176
     1
173
     0
176
     1
  0
VISUALSTYLE
  5
38
102
{ACAD_REACTORS
330
2A
102
}
330
2A
100
AcDbVisualStyle
  2
Linepattern
 70
    14
177
     2
291
     1
 71
     2
176
     1
 72
     2
176
     1
 73
     0
176
     1
 90
        0
176
     1
 40
-0.6
176
     1
 41
-30.0
176
     1
 62
     5
 63
     7
421
 16777215
176
     1
 74
     1
176
     1
 91
        4
176
     1
 64
     7
176
     1
 65
   257
176
     1
 75
     7
176
     1
175
     7
176
     1
 42
1.0
176
     1
 92
        8
176
     1
 66
     7
176
     1
 43
1.0
176
     1
 76
     1
176
     1
 77
     6
176
     1
 78
     2
176
     1
 67
     7
176
     1
 79
     5
176
     1
170
     0
176
     1
171
     0
176
     1
290
     0
176
     1
 93
        1
176
     1
 44
0.0
176
     1
173
     0
176
     1
  0
VISUALSTYLE
  5
33
102
{ACAD_REACTORS
330
2A
102
}
330
2A
100
AcDbVisualStyle
  2
Realistic
 70
     8
177
     2
291
     0
 71
     2
176
     1
 72
     2
176
     1
 73
     0
176
     1
 90
        0
176
     1
 40
-0.6
176
     1
 41
-30.0
176
     1
 62
     5
 63
     7
421
 16777215
176
     1
 74
     1
176
     1
 91
        0
176
     1
 64
     7
176
     1
 65
   257
176
     1
 75
     1
176
     1
175
     1
176
     1
 42
1.0
176
     1
 92
        8
176
     1
 66
     8
424
  7895160
176
     1
 43
1.0
176
     1
 76
     1
176
     1
 77
     6
176
     1
 78
     2
176
     1
 67
     7
176
     1
 79
     5
176
     1
170
     0
176
     1
171
     0
176
     1
290
     0
176
     1
 93
       13
176
     1
 44
0.0
176
     1
173
     0
176
     1
  0
VISUALSTYLE
  5
37
102
{ACAD_REACTORS
330
2A
102
}
330
2A
100
AcDbVisualStyle
  2
Thicken
 70
    13
177
     2
291
     1
 71
     2
176
     1
 72
     2
176
     1
 73
     0
176
     1
 90
        0
176
     1
 40
-0.6
176
     1
 41
-30.0
176
     1
 62
     5
 63
     7
421
 16777215
176
     1
 74
     1
176
     1
 91
        4
176
     1
 64
     7
176
     1
 65
   257
176
     1
 75
     1
176
     1
175
     1
176
     1
 42
1.0
176
     1
 92
       12
176
     1
 66
     7
176
     1
 43
1.0
176
     1
 76
     1
176
     1
 77
     6
176
     1
 78
     2
176
     1
 67
     7
176
     1
 79
     5
176
     1
170
     0
176
     1
171
     0
176
     1
290
     0
176
     1
 93
        1
176
     1
 44
0.0
176
     1
173
     0
176
     1
  0
ENDSEC
  0
EOF
