  0
SECTION
  2
HEADER
  9
$ACADVER
  1
AC1024
  9
$ACADMAINTVER
 70
     6
  9
$DWGCODEPAGE
  3
UNDEFINED
  9
$INSBASE
 10
0.0
 20
0.0
 30
0.0
  9
$EXTMIN
 10
1.000000000000000E+20
 20
1.000000000000000E+20
 30
1.000000000000000E+20
  9
$EXTMAX
 10
-1.000000000000000E+20
 20
-1.000000000000000E+20
 30
-1.000000000000000E+20
  9
$LIMMIN
 10
0.0
 20
0.0
  9
$LIMMAX
 10
12.0
 20
9.0
  9
$ORTHOMODE
 70
     0
  9
$REGENMODE
 70
     1
  9
$FILLMODE
 70
     1
  9
$QTEXTMODE
 70
     0
  9
$MIRRTEXT
 70
     1
  9
$LTSCALE
 40
1.0
  9
$ATTMODE
 70
     1
  9
$TEXTSIZE
 40
0.2
  9
$TRACEWID
 40
0.05
  9
$TEXTSTYLE
  7
Standard
  9
$CLAYER
  8
0
  9
$CELTYPE
  6
ByLayer
  9
$CECOLOR
 62
   256
  9
$CELTSCALE
 40
1.0
  9
$DISPSILH
 70
     0
  9
$DIMSCALE
 40
1.0
  9
$DIMASZ
 40
0.18
  9
$DIMEXO
 40
0.0625
  9
$DIMDLI
 40
0.38
  9
$DIMRND
 40
0.0
  9
$DIMDLE
 40
0.0
  9
$DIMEXE
 40
0.18
  9
$DIMTP
 40
0.0
  9
$DIMTM
 40
0.0
  9
$DIMTXT
 40
0.18
  9
$DIMCEN
 40
0.09
  9
$DIMTSZ
 40
0.0
  9
$DIMTOL
 70
     0
  9
$DIMLIM
 70
     0
  9
$DIMTIH
 70
     1
  9
$DIMTOH
 70
     1
  9
$DIMSE1
 70
     0
  9
$DIMSE2
 70
     0
  9
$DIMTAD
 70
     0
  9
$DIMZIN
 70
     0
  9
$DIMBLK
  1

  9
$DIMASO
 70
     1
  9
$DIMSHO
 70
     1
  9
$DIMPOST
  1

  9
$DIMAPOST
  1

  9
$DIMALT
 70
     0
  9
$DIMALTD
 70
     2
  9
$DIMALTF
 40
25.4
  9
$DIMLFAC
 40
1.0
  9
$DIMTOFL
 70
     0
  9
$DIMTVP
 40
0.0
  9
$DIMTIX
 70
     0
  9
$DIMSOXD
 70
     0
  9
$DIMSAH
 70
     0
  9
$DIMBLK1
  1

  9
$DIMBLK2
  1

  9
$DIMSTYLE
  2
Standard
  9
$DIMCLRD
 70
     0
  9
$DIMCLRE
 70
     0
  9
$DIMCLRT
 70
     0
  9
$DIMTFAC
 40
1.0
  9
$DIMGAP
 40
0.09
  9
$DIMJUST
 70
     0
  9
$DIMSD1
 70
     0
  9
$DIMSD2
 70
     0
  9
$DIMTOLJ
 70
     1
  9
$DIMTZIN
 70
     0
  9
$DIMALTZ
 70
     0
  9
$DIMALTTZ
 70
     0
  9
$DIMUPT
 70
     0
  9
$DIMDEC
 70
     4
  9
$DIMTDEC
 70
     4
  9
$DIMALTU
 70
     2
  9
$DIMALTTD
 70
     2
  9
$DIMTXSTY
  7
Standard
  9
$DIMAUNIT
 70
     0
  9
$DIMADEC
 70
     0
  9
$DIMALTRND
 40
0.0
  9
$DIMAZIN
 70
     0
  9
$DIMDSEP
 70
    46
  9
$DIMATFIT
 70
     3
  9
$DIMFRAC
 70
     0
  9
$DIMLDRBLK
  1

  9
$DIMLUNIT
 70
     2
  9
$DIMLWD
 70
    -2
  9
$DIMLWE
 70
    -2
  9
$DIMTMOVE
 70
     0
  9
$DIMFXL
 40
1.0
  9
$DIMFXLON
 70
     0
  9
$DIMJOGANG
 40
0.7853981633974483
  9
$DIMTFILL
 70
     0
  9
$DIMTFILLCLR
 70
     0
  9
$DIMARCSYM
 70
     0
  9
$DIMLTYPE
  6

  9
$DIMLTEX1
  6

  9
$DIMLTEX2
  6

  9
$DIMTXTDIRECTION
 70
     0
  9
$LUNITS
 70
     2
  9
$LUPREC
 70
     4
  9
$SKETCHINC
 40
0.1
  9
$FILLETRAD
 40
0.5
  9
$AUNITS
 70
     0
  9
$AUPREC
 70
     0
  9
$MENU
  1
.
  9
$ELEVATION
 40
0.0
  9
$PELEVATION
 40
0.0
  9
$THICKNESS
 40
0.0
  9
$LIMCHECK
 70
     0
  9
$CHAMFERA
 40
0.5
  9
$CHAMFERB
 40
0.5
  9
$CHAMFERC
 40
1.0
  9
$CHAMFERD
 40
0.0
  9
$SKPOLY
 70
     0
  9
$TDCREATE
 40
2457917.626145822
  9
$TDUCREATE
 40
2457917.251145833
  9
$TDUPDATE
 40
2457917.626145822
  9
$TDUUPDATE
 40
2457917.251145833
  9
$TDINDWG
 40
0.0000000116
  9
$TDUSRTIMER
 40
0.0000000116
  9
$USRTIMER
 70
     1
  9
$ANGBASE
 50
0.0
  9
$ANGDIR
 70
     0
  9
$PDMODE
 70
     0
  9
$PDSIZE
 40
0.0
  9
$PLINEWID
 40
0.0
  9
$SPLFRAME
 70
     0
  9
$SPLINETYPE
 70
     6
  9
$SPLINESEGS
 70
     8
  9
$HANDSEED
  5
F8
  9
$SURFTAB1
 70
     6
  9
$SURFTAB2
 70
     6
  9
$SURFTYPE
 70
     6
  9
$SURFU
 70
     6
  9
$SURFV
 70
     6
  9
$UCSBASE
  2

  9
$UCSNAME
  2

  9
$UCSORG
 10
0.0
 20
0.0
 30
0.0
  9
$UCSXDIR
 10
1.0
 20
0.0
 30
0.0
  9
$UCSYDIR
 10
0.0
 20
1.0
 30
0.0
  9
$UCSORTHOREF
  2

  9
$UCSORTHOVIEW
 70
     0
  9
$UCSORGTOP
 10
0.0
 20
0.0
 30
0.0
  9
$UCSORGBOTTOM
 10
0.0
 20
0.0
 30
0.0
  9
$UCSORGLEFT
 10
0.0
 20
0.0
 30
0.0
  9
$UCSORGRIGHT
 10
0.0
 20
0.0
 30
0.0
  9
$UCSORGFRONT
 10
0.0
 20
0.0
 30
0.0
  9
$UCSORGBACK
 10
0.0
 20
0.0
 30
0.0
  9
$PUCSBASE
  2

  9
$PUCSNAME
  2

  9
$PUCSORG
 10
0.0
 20
0.0
 30
0.0
  9
$PUCSXDIR
 10
1.0
 20
0.0
 30
0.0
  9
$PUCSYDIR
 10
0.0
 20
1.0
 30
0.0
  9
$PUCSORTHOREF
  2

  9
$PUCSORTHOVIEW
 70
     0
  9
$PUCSORGTOP
 10
0.0
 20
0.0
 30
0.0
  9
$PUCSORGBOTTOM
 10
0.0
 20
0.0
 30
0.0
  9
$PUCSORGLEFT
 10
0.0
 20
0.0
 30
0.0
  9
$PUCSORGRIGHT
 10
0.0
 20
0.0
 30
0.0
  9
$PUCSORGFRONT
 10
0.0
 20
0.0
 30
0.0
  9
$PUCSORGBACK
 10
0.0
 20
0.0
 30
0.0
  9
$USERI1
 70
     0
  9
$USERI2
 70
     0
  9
$USERI3
 70
     0
  9
$USERI4
 70
     0
  9
$USERI5
 70
     0
  9
$USERR1
 40
0.0
  9
$USERR2
 40
0.0
  9
$USERR3
 40
0.0
  9
$USERR4
 40
0.0
  9
$USERR5
 40
0.0
  9
$WORLDVIEW
 70
     1
  9
$SHADEDGE
 70
     3
  9
$SHADEDIF
 70
    70
  9
$TILEMODE
 70
     1
  9
$MAXACTVP
 70
    64
  9
$PINSBASE
 10
0.0
 20
0.0
 30
0.0
  9
$PLIMCHECK
 70
     0
  9
$PEXTMIN
 10
1.000000000000000E+20
 20
1.000000000000000E+20
 30
1.000000000000000E+20
  9
$PEXTMAX
 10
-1.000000000000000E+20
 20
-1.000000000000000E+20
 30
-1.000000000000000E+20
  9
$PLIMMIN
 10
0.0
 20
0.0
  9
$PLIMMAX
 10
12.0
 20
9.0
  9
$UNITMODE
 70
     0
  9
$VISRETAIN
 70
     1
  9
$PLINEGEN
 70
     0
  9
$PSLTSCALE
 70
     1
  9
$TREEDEPTH
 70
  3020
  9
$CMLSTYLE
  2
Standard
  9
$CMLJUST
 70
     0
  9
$CMLSCALE
 40
1.0
  9
$PROXYGRAPHICS
 70
     1
  9
$MEASUREMENT
 70
     0
  9
$CELWEIGHT
370
    -1
  9
$ENDCAPS
280
     0
  9
$JOINSTYLE
280
     0
  9
$LWDISPLAY
290
     1
  9
$INSUNITS
 70
     1
  9
$HYPERLINKBASE
  1

  9
$STYLESHEET
  1

  9
$XEDIT
290
     1
  9
$CEPSNTYPE
380
     0
  9
$PSTYLEMODE
290
     1
  9
$FINGERPRINTGUID
  2
{78A49082-2373-3E48-CDB4-65EDD6B126DE}
  9
$VERSIONGUID
  2
{FAEB1C32-E019-11D5-929B-00C0DF256EC4}
  9
$EXTNAMES
290
     1
  9
$PSVPSCALE
 40
0.0
  9
$OLESTARTUP
290
     0
  9
$SORTENTS
280
   127
  9
$INDEXCTL
280
     0
  9
$HIDETEXT
280
     1
  9
$XCLIPFRAME
280
     2
  9
$HALOGAP
280
     0
  9
$OBSCOLOR
 70
   257
  9
$OBSLTYPE
280
     0
  9
$INTERSECTIONDISPLAY
280
     0
  9
$INTERSECTIONCOLOR
 70
   257
  9
$DIMASSOC
280
     2
  9
$PROJECTNAME
  1

  9
$CAMERADISPLAY
290
     0
  9
$LENSLENGTH
 40
50.0
  9
$CAMERAHEIGHT
 40
0.0
  9
$STEPSPERSEC
 40
2.0
  9
$STEPSIZE
 40
6.0
  9
$3DDWFPREC
 40
2.0
  9
$PSOLWIDTH
 40
0.25
  9
$PSOLHEIGHT
 40
4.0
  9
$LOFTANG1
 40
1.570796326794897
  9
$LOFTANG2
 40
1.570796326794897
  9
$LOFTMAG1
 40
0.0
  9
$LOFTMAG2
 40
0.0
  9
$LOFTPARAM
 70
     7
  9
$LOFTNORMALS
280
     1
  9
$LATITUDE
 40
37.795
  9
$LONGITUDE
 40
-122.394
  9
$NORTHDIRECTION
 40
0.0
  9
$TIMEZONE
 70
 -8000
  9
$LIGHTGLYPHDISPLAY
280
     1
  9
$TILEMODELIGHTSYNCH
280
     1
  9
$CMATERIAL
347
3C
  9
$SOLIDHIST
280
     1
  9
$SHOWHIST
280
     1
  9
$DWFFRAME
280
     2
  9
$DGNFRAME
280
     2
  9
$REALWORLDSCALE
290
     1
  9
$INTERFERECOLOR
 62
   256
  9
$CSHADOW
280
     0
  9
$SHADOWPLANELOCATION
 40
0.0
  0
ENDSEC
  0
SECTION
  2
CLASSES
  0
CLASS
  1
ACDBDICTIONARYWDFLT
  2
AcDbDictionaryWithDefault
  3
ObjectDBX Classes
 90
        0
 91
        4
280
     0
281
     0
  0
CLASS
  1
VISUALSTYLE
  2
AcDbVisualStyle
  3
ObjectDBX Classes
 90
     4095
 91
        4
280
     0
281
     0
  0
CLASS
  1
MATERIAL
  2
AcDbMaterial
  3
ObjectDBX Classes
 90
     1153
 91
        4
280
     0
281
     0
  0
CLASS
  1
SUN
  2
AcDbSun
  3
SCENEOE
 90
     1024
 91
        4
280
     0
281
     0
  0
ENDSEC
  0
SECTION
  2
TABLES
  0
TABLE
  2
VPORT
  5
8
330
0
100
AcDbSymbolTable
 70
     1
  0
VPORT
  5
29
330
8
100
AcDbSymbolTableRecord
100
AcDbViewportTableRecord
  2
*Active
 70
     0
 10
0.0
 20
0.0
 11
1.0
 21
1.0
 12
0.0
 22
0.0
 13
0.0
 23
0.0
 14
0.5
 24
0.5
 15
0.5
 25
0.5
 16
0.0
 26
0.0
 36
1.0
 17
91.00082462281999
 27
-128.4993055234307
 37
0.0
 40
256.9986110468615
 41
0.7081814508812795
 42
50.0
 43
0.0
 44
0.0
 50
0.0
 51
0.0
 71
     0
 72
   100
 73
     1
 74
     3
 75
     0
 76
     0
 77
     0
 78
     0
281
     0
 65
     1
110
0.0
120
0.0
130
0.0
111
1.0
121
0.0
131
0.0
112
0.0
122
1.0
132
0.0
 79
     0
146
0.0
 60
     3
 61
     5
292
     1
282
     1
141
0.0
142
0.0
 63
   250
361
3F
  0
ENDTAB
  0
TABLE
  2
LTYPE
  5
5
330
0
100
AcDbSymbolTable
 70
     1
  0
LTYPE
  5
14
330
5
100
AcDbSymbolTableRecord
100
AcDbLinetypeTableRecord
  2
ByBlock
 70
     0
  3

 72
    65
 73
     0
 40
0.0
  0
LTYPE
  5
15
330
5
100
AcDbSymbolTableRecord
100
AcDbLinetypeTableRecord
  2
ByLayer
 70
     0
  3

 72
    65
 73
     0
 40
0.0
  0
LTYPE
  5
16
330
5
100
AcDbSymbolTableRecord
100
AcDbLinetypeTableRecord
  2
Continuous
 70
     0
  3
Solid line
 72
    65
 73
     0
 40
0.0
  0
ENDTAB
  0
TABLE
  2
LAYER
  5
2
330
0
100
AcDbSymbolTable
 70
     2
  0
LAYER
  5
10
330
2
100
AcDbSymbolTableRecord
100
AcDbLayerTableRecord
  2
0
 70
     0
 62
     7
  6
Continuous
370
    -3
390
F
347
3E
  0
LAYER
  5
40
330
2
100
AcDbSymbolTableRecord
100
AcDbLayerTableRecord
  2
_U+30EC_U+30A4_U+30E4_U+30FC 1
 70
     0
 62
     7
  6
Continuous
370
    -3
390
F
347
3E
  0
ENDTAB
  0
TABLE
  2
STYLE
  5
3
330
0
100
AcDbSymbolTable
 70
     1
  0
STYLE
  5
11
330
3
100
AcDbSymbolTableRecord
100
AcDbTextStyleTableRecord
  2
Standard
 70
     0
 40
0.0
 41
1.0
 50
0.0
 71
     0
 42
0.2
  3
txt
  4

  0
ENDTAB
  0
TABLE
  2
VIEW
  5
6
330
0
100
AcDbSymbolTable
 70
     0
  0
ENDTAB
  0
TABLE
  2
UCS
  5
7
330
0
100
AcDbSymbolTable
 70
     0
  0
ENDTAB
  0
TABLE
  2
APPID
  5
9
330
0
100
AcDbSymbolTable
 70
     1
  0
APPID
  5
12
330
9
100
AcDbSymbolTableRecord
100
AcDbRegAppTableRecord
  2
ACAD
 70
     0
  0
ENDTAB
  0
TABLE
  2
DIMSTYLE
  5
A
330
0
100
AcDbSymbolTable
 70
     1
100
AcDbDimStyleTable
  0
DIMSTYLE
105
27
330
A
100
AcDbSymbolTableRecord
100
AcDbDimStyleTableRecord
  2
Standard
 70
     0
178
     0
340
11
  0
ENDTAB
  0
TABLE
  2
BLOCK_RECORD
  5
1
330
0
100
AcDbSymbolTable
 70
     7
  0
BLOCK_RECORD
  5
1F
330
1
100
AcDbSymbolTableRecord
100
AcDbBlockTableRecord
  2
*Model_Space
340
22
 70
     0
280
     1
281
     0
  0
BLOCK_RECORD
  5
1B
330
1
100
AcDbSymbolTableRecord
100
AcDbBlockTableRecord
  2
*Paper_Space
340
1E
 70
     0
280
     1
281
     0
  0
BLOCK_RECORD
  5
23
330
1
100
AcDbSymbolTableRecord
100
AcDbBlockTableRecord
  2
*Paper_Space0
340
26
 70
     0
280
     1
281
     0
  0
BLOCK_RECORD
  5
8C
330
1
100
AcDbSymbolTableRecord
100
AcDbBlockTableRecord
  2
block 2
340
0
102
{BLKREFS
331
8D
102
}
 70
     0
280
     1
281
     0
  0
BLOCK_RECORD
  5
A1
330
1
100
AcDbSymbolTableRecord
100
AcDbBlockTableRecord
  2
block 3
340
0
102
{BLKREFS
331
A2
102
}
 70
     0
280
     1
281
     0
  0
BLOCK_RECORD
  5
B1
330
1
100
AcDbSymbolTableRecord
100
AcDbBlockTableRecord
  2
block 4
340
0
102
{BLKREFS
331
B2
102
}
 70
     0
280
     1
281
     0
  0
BLOCK_RECORD
  5
C1
330
1
100
AcDbSymbolTableRecord
100
AcDbBlockTableRecord
  2
block 5
340
0
102
{BLKREFS
331
C2
102
}
 70
     0
280
     1
281
     0
  0
BLOCK_RECORD
  5
D5
330
1
100
AcDbSymbolTableRecord
100
AcDbBlockTableRecord
  2
block 6
340
0
102
{BLKREFS
331
D6
102
}
 70
     0
280
     1
281
     0
  0
BLOCK_RECORD
  5
ED
330
1
100
AcDbSymbolTableRecord
100
AcDbBlockTableRecord
  2
block 7
340
0
102
{BLKREFS
331
EE
102
}
 70
     0
280
     1
281
     0
  0
ENDTAB
  0
ENDSEC
  0
SECTION
  2
BLOCKS
  0
BLOCK
  5
20
330
1F
100
AcDbEntity
  8
0
100
AcDbBlockBegin
  2
*Model_Space
 70
     0
 10
0.0
 20
0.0
 30
0.0
  3
*Model_Space
  1

  0
ENDBLK
  5
21
330
1F
100
AcDbEntity
  8
0
100
AcDbBlockEnd
  0
BLOCK
  5
1C
330
1B
100
AcDbEntity
 67
     1
  8
0
100
AcDbBlockBegin
  2
*Paper_Space
 70
     0
 10
0.0
 20
0.0
 30
0.0
  3
*Paper_Space
  1

  0
ENDBLK
  5
1D
330
1B
100
AcDbEntity
 67
     1
  8
0
100
AcDbBlockEnd
  0
BLOCK
  5
24
330
23
100
AcDbEntity
  8
0
100
AcDbBlockBegin
  2
*Paper_Space0
 70
     0
 10
0.0
 20
0.0
 30
0.0
  3
*Paper_Space0
  1

  0
ENDBLK
  5
25
330
23
100
AcDbEntity
  8
0
100
AcDbBlockEnd
  0
BLOCK
  5
8E
330
8C
100
AcDbEntity
  8
0
100
AcDbBlockBegin
  2
block 2
 70
     0
 10
0.0
 20
0.0
 30
0.0
  3
block 2
  1

  0
SPLINE
  5
90
330
8C
100
AcDbEntity
  8
_U+30EC_U+30A4_U+30E4_U+30FC 1
370
     0
100
AcDbSpline
210
0.0
220
0.0
230
1.0
 70
    11
 71
     3
 72
    44
 73
    40
 74
     0
 42
0.0000000001
 43
0.0000000001
 12
1.0
 22
0.0
 32
0.0
 13
1.0
 23
0.0
 33
0.0
 40
0.0
 40
0.0
 40
0.0
 40
0.0
 40
1.0
 40
1.0
 40
1.0
 40
2.0
 40
2.0
 40
2.0
 40
3.0
 40
3.0
 40
3.0
 40
4.0
 40
4.0
 40
4.0
 40
5.0
 40
5.0
 40
5.0
 40
6.0
 40
6.0
 40
6.0
 40
7.0
 40
7.0
 40
7.0
 40
8.0
 40
8.0
 40
8.0
 40
9.0
 40
9.0
 40
9.0
 40
10.0
 40
10.0
 40
10.0
 40
11.0
 40
11.0
 40
11.0
 40
12.0
 40
12.0
 40
12.0
 40
13.0
 40
13.0
 40
13.0
 40
13.0
 10
78.23949650821791
 20
-152.3641709688534
 30
0.0
 10
78.21434731117559
 20
-152.3162841416084
 30
0.0
 10
78.19160968097293
 20
-152.2590955565533
 30
0.0
 10
78.18937036890752
 20
-152.0103596625183
 30
0.0
 10
78.18471949000244
 20
-151.7478433865422
 30
0.0
 10
78.12081296875105
 20
-151.6727403049638
 30
0.0
 10
77.92909340499689
 20
-151.6727403049638
 30
0.0
 10
77.92909340499689
 20
-151.6727403049638
 30
0.0
 10
77.4886379472077
 20
-151.6727403049638
 30
0.0
 10
77.4886379472077
 20
-151.6727403049638
 30
0.0
 10
77.4886379472077
 20
-151.6727403049638
 30
0.0
 10
77.4886379472077
 20
-152.3641709688534
 30
0.0
 10
77.4886379472077
 20
-152.3641709688534
 30
0.0
 10
77.4886379472077
 20
-152.3641709688534
 30
0.0
 10
77.23525117426757
 20
-152.3641709688534
 30
0.0
 10
77.23525117426757
 20
-152.3641709688534
 30
0.0
 10
77.23525117426757
 20
-152.3641709688534
 30
0.0
 10
77.23525117426757
 20
-150.6981227921866
 30
0.0
 10
77.23525117426757
 20
-150.6981227921866
 30
0.0
 10
77.23525117426757
 20
-150.6981227921866
 30
0.0
 10
77.96337210507514
 20
-150.6981227921866
 30
0.0
 10
77.96337210507514
 20
-150.6981227921866
 30
0.0
 10
78.29427352643339
 20
-150.6981227921866
 30
0.0
 10
78.47462427508621
 20
-150.882779910196
 30
0.0
 10
78.47462427508621
 20
-151.159076568113
 30
0.0
 10
78.47462427508621
 20
-151.2138535863285
 30
0.0
 10
78.46549477205029
 20
-151.3027370498479
 30
0.0
 10
78.41760794480533
 20
-151.3895534560762
 30
0.0
 10
78.35370142355394
 20
-151.5015190593469
 30
0.0
 10
78.28290471133205
 20
-151.5218451227098
 30
0.0
 10
78.21675887801526
 20
-151.5401041287816
 30
0.0
 10
78.36507023865526
 20
-151.5859238987355
 30
0.0
 10
78.43810626294255
 20
-151.6382893501113
 30
0.0
 10
78.44275714184765
 20
-151.9783202745054
 30
0.0
 10
78.44723576597848
 20
-152.2704643716546
 30
0.0
 10
78.48599309018753
 20
-152.3049153265071
 30
0.0
 10
78.55902911447482
 20
-152.3641709688534
 30
0.0
 10
78.55902911447482
 20
-152.3641709688534
 30
0.0
 10
78.23949650821791
 20
-152.3641709688534
 30
0.0
 10
78.23949650821791
 20
-152.3641709688534
 30
0.0
  0
SPLINE
  5
91
330
8C
100
AcDbEntity
  8
_U+30EC_U+30A4_U+30E4_U+30FC 1
370
     0
100
AcDbSpline
210
0.0
220
0.0
230
1.0
 70
    11
 71
     3
 72
    20
 73
    16
 74
     0
 42
0.0000000001
 43
0.0000000001
 12
1.0
 22
0.0
 32
0.0
 13
1.0
 23
0.0
 33
0.0
 40
0.0
 40
0.0
 40
0.0
 40
0.0
 40
1.0
 40
1.0
 40
1.0
 40
2.0
 40
2.0
 40
2.0
 40
3.0
 40
3.0
 40
3.0
 40
4.0
 40
4.0
 40
4.0
 40
5.0
 40
5.0
 40
5.0
 40
5.0
 10
77.96802298398022
 20
-150.9261881133101
 30
0.0
 10
77.96802298398022
 20
-150.9261881133101
 30
0.0
 10
77.4886379472077
 20
-150.9261881133101
 30
0.0
 10
77.4886379472077
 20
-150.9261881133101
 30
0.0
 10
77.4886379472077
 20
-150.9261881133101
 30
0.0
 10
77.4886379472077
 20
-151.4443304742917
 30
0.0
 10
77.4886379472077
 20
-151.4443304742917
 30
0.0
 10
77.4886379472077
 20
-151.4443304742917
 30
0.0
 10
77.96561141714055
 20
-151.4443304742917
 30
0.0
 10
77.96561141714055
 20
-151.4443304742917
 30
0.0
 10
78.07292614150607
 20
-151.4443304742917
 30
0.0
 10
78.21899819008067
 20
-151.3623372017427
 30
0.0
 10
78.21899819008067
 20
-151.1773355741848
 30
0.0
 10
78.21899819008067
 20
-151.0929307347962
 30
0.0
 10
78.18248017793702
 20
-150.9261881133101
 30
0.0
 10
77.96802298398022
 20
-150.9261881133101
 30
0.0
  0
HATCH
  5
92
330
8C
100
AcDbEntity
  8
_U+30EC_U+30A4_U+30E4_U+30FC 1
 62
   179
420
  2234388
100
AcDbHatch
 10
0.0
 20
0.0
 30
0.0
210
0.0
220
0.0
230
1.0
  2
SOLID
 70
     1
 71
     0
 91
        2
 92
        1
 93
        1
 72
     4
 94
        3
 73
     0
 74
     1
 95
       44
 96
       40
 40
0.0
 40
0.0
 40
0.0
 40
0.0
 40
1.0
 40
1.0
 40
1.0
 40
2.0
 40
2.0
 40
2.0
 40
3.0
 40
3.0
 40
3.0
 40
4.0
 40
4.0
 40
4.0
 40
5.0
 40
5.0
 40
5.0
 40
6.0
 40
6.0
 40
6.0
 40
7.0
 40
7.0
 40
7.0
 40
8.0
 40
8.0
 40
8.0
 40
9.0
 40
9.0
 40
9.0
 40
10.0
 40
10.0
 40
10.0
 40
11.0
 40
11.0
 40
11.0
 40
12.0
 40
12.0
 40
12.0
 40
13.0
 40
13.0
 40
13.0
 40
13.0
 10
78.23949650821791
 20
-152.3641709688534
 10
78.21434731117559
 20
-152.3162841416084
 10
78.19160968097293
 20
-152.2590955565533
 10
78.18937036890752
 20
-152.0103596625183
 10
78.18471949000244
 20
-151.7478433865422
 10
78.12081296875105
 20
-151.6727403049638
 10
77.92909340499689
 20
-151.6727403049638
 10
77.92909340499689
 20
-151.6727403049638
 10
77.4886379472077
 20
-151.6727403049638
 10
77.4886379472077
 20
-151.6727403049638
 10
77.4886379472077
 20
-151.6727403049638
 10
77.4886379472077
 20
-152.3641709688534
 10
77.4886379472077
 20
-152.3641709688534
 10
77.4886379472077
 20
-152.3641709688534
 10
77.23525117426757
 20
-152.3641709688534
 10
77.23525117426757
 20
-152.3641709688534
 10
77.23525117426757
 20
-152.3641709688534
 10
77.23525117426757
 20
-150.6981227921866
 10
77.23525117426757
 20
-150.6981227921866
 10
77.23525117426757
 20
-150.6981227921866
 10
77.96337210507514
 20
-150.6981227921866
 10
77.96337210507514
 20
-150.6981227921866
 10
78.29427352643339
 20
-150.6981227921866
 10
78.47462427508621
 20
-150.882779910196
 10
78.47462427508621
 20
-151.159076568113
 10
78.47462427508621
 20
-151.2138535863285
 10
78.46549477205029
 20
-151.3027370498479
 10
78.41760794480533
 20
-151.3895534560762
 10
78.35370142355394
 20
-151.5015190593469
 10
78.28290471133205
 20
-151.5218451227098
 10
78.21675887801526
 20
-151.5401041287816
 10
78.36507023865526
 20
-151.5859238987355
 10
78.43810626294255
 20
-151.6382893501113
 10
78.44275714184765
 20
-151.9783202745054
 10
78.44723576597848
 20
-152.2704643716546
 10
78.48599309018753
 20
-152.3049153265071
 10
78.55902911447482
 20
-152.3641709688534
 10
78.55902911447482
 20
-152.3641709688534
 10
78.23949650821791
 20
-152.3641709688534
 10
78.23949650821791
 20
-152.3641709688534
 97
        0
 97
        0
 92
        1
 93
        1
 72
     4
 94
        3
 73
     0
 74
     1
 95
       20
 96
       16
 40
0.0
 40
0.0
 40
0.0
 40
0.0
 40
1.0
 40
1.0
 40
1.0
 40
2.0
 40
2.0
 40
2.0
 40
3.0
 40
3.0
 40
3.0
 40
4.0
 40
4.0
 40
4.0
 40
5.0
 40
5.0
 40
5.0
 40
5.0
 10
77.96802298398022
 20
-150.9261881133101
 10
77.96802298398022
 20
-150.9261881133101
 10
77.4886379472077
 20
-150.9261881133101
 10
77.4886379472077
 20
-150.9261881133101
 10
77.4886379472077
 20
-150.9261881133101
 10
77.4886379472077
 20
-151.4443304742917
 10
77.4886379472077
 20
-151.4443304742917
 10
77.4886379472077
 20
-151.4443304742917
 10
77.96561141714055
 20
-151.4443304742917
 10
77.96561141714055
 20
-151.4443304742917
 10
78.07292614150607
 20
-151.4443304742917
 10
78.21899819008067
 20
-151.3623372017427
 10
78.21899819008067
 20
-151.1773355741848
 10
78.21899819008067
 20
-151.0929307347962
 10
78.18248017793702
 20
-150.9261881133101
 10
77.96802298398022
 20
-150.9261881133101
 97
        0
 97
        0
 75
     2
 76
     1
 98
        0
  0
SPLINE
  5
93
330
8C
100
AcDbEntity
  8
_U+30EC_U+30A4_U+30E4_U+30FC 1
370
     0
100
AcDbSpline
210
0.0
220
0.0
230
1.0
 70
    11
 71
     3
 72
    26
 73
    22
 74
     0
 42
0.0000000001
 43
0.0000000001
 12
1.0
 22
0.0
 32
0.0
 13
1.0
 23
0.0
 33
0.0
 40
0.0
 40
0.0
 40
0.0
 40
0.0
 40
1.0
 40
1.0
 40
1.0
 40
2.0
 40
2.0
 40
2.0
 40
3.0
 40
3.0
 40
3.0
 40
4.0
 40
4.0
 40
4.0
 40
5.0
 40
5.0
 40
5.0
 40
6.0
 40
6.0
 40
6.0
 40
7.0
 40
7.0
 40
7.0
 40
7.0
 10
79.19757756266588
 20
-152.3641709688534
 30
0.0
 10
79.19757756266588
 20
-152.3641709688534
 30
0.0
 10
79.19757756266588
 20
-151.172856950054
 30
0.0
 10
79.19757756266588
 20
-151.172856950054
 30
0.0
 10
79.19757756266588
 20
-151.172856950054
 30
0.0
 10
78.84152694426531
 20
-151.172856950054
 30
0.0
 10
78.84152694426531
 20
-151.172856950054
 30
0.0
 10
78.84152694426531
 20
-151.172856950054
 30
0.0
 10
78.84152694426531
 20
-151.0130045195384
 30
0.0
 10
78.84152694426531
 20
-151.0130045195384
 30
0.0
 10
79.1998168747313
 20
-150.9971570803063
 30
0.0
 10
79.24994301404169
 20
-150.82111270101
 30
0.0
 10
79.28198240205451
 20
-150.6981227921866
 30
0.0
 10
79.28198240205451
 20
-150.6981227921866
 30
0.0
 10
79.43942326573043
 20
-150.6981227921866
 30
0.0
 10
79.43942326573043
 20
-150.6981227921866
 30
0.0
 10
79.43942326573043
 20
-150.6981227921866
 30
0.0
 10
79.43942326573043
 20
-152.3641709688534
 30
0.0
 10
79.43942326573043
 20
-152.3641709688534
 30
0.0
 10
79.43942326573043
 20
-152.3641709688534
 30
0.0
 10
79.19757756266588
 20
-152.3641709688534
 30
0.0
 10
79.19757756266588
 20
-152.3641709688534
 30
0.0
  0
HATCH
  5
94
330
8C
100
AcDbEntity
  8
_U+30EC_U+30A4_U+30E4_U+30FC 1
 62
   179
420
  2234388
100
AcDbHatch
 10
0.0
 20
0.0
 30
0.0
210
0.0
220
0.0
230
1.0
  2
SOLID
 70
     1
 71
     0
 91
        1
 92
        1
 93
        1
 72
     4
 94
        3
 73
     0
 74
     1
 95
       26
 96
       22
 40
0.0
 40
0.0
 40
0.0
 40
0.0
 40
1.0
 40
1.0
 40
1.0
 40
2.0
 40
2.0
 40
2.0
 40
3.0
 40
3.0
 40
3.0
 40
4.0
 40
4.0
 40
4.0
 40
5.0
 40
5.0
 40
5.0
 40
6.0
 40
6.0
 40
6.0
 40
7.0
 40
7.0
 40
7.0
 40
7.0
 10
79.19757756266588
 20
-152.3641709688534
 10
79.19757756266588
 20
-152.3641709688534
 10
79.19757756266588
 20
-151.172856950054
 10
79.19757756266588
 20
-151.172856950054
 10
79.19757756266588
 20
-151.172856950054
 10
78.84152694426531
 20
-151.172856950054
 10
78.84152694426531
 20
-151.172856950054
 10
78.84152694426531
 20
-151.172856950054
 10
78.84152694426531
 20
-151.0130045195384
 10
78.84152694426531
 20
-151.0130045195384
 10
79.1998168747313
 20
-150.9971570803063
 10
79.24994301404169
 20
-150.82111270101
 10
79.28198240205451
 20
-150.6981227921866
 10
79.28198240205451
 20
-150.6981227921866
 10
79.43942326573043
 20
-150.6981227921866
 10
79.43942326573043
 20
-150.6981227921866
 10
79.43942326573043
 20
-150.6981227921866
 10
79.43942326573043
 20
-152.3641709688534
 10
79.43942326573043
 20
-152.3641709688534
 10
79.43942326573043
 20
-152.3641709688534
 10
79.19757756266588
 20
-152.3641709688534
 10
79.19757756266588
 20
-152.3641709688534
 97
        0
 97
        0
 75
     2
 76
     1
 98
        0
  0
ENDBLK
  5
8F
330
8C
100
AcDbEntity
  8
0
100
AcDbBlockEnd
  0
BLOCK
  5
A3
330
A1
100
AcDbEntity
  8
0
100
AcDbBlockBegin
  2
block 3
 70
     0
 10
0.0
 20
0.0
 30
0.0
  3
block 3
  1

  0
SPLINE
  5
A5
330
A1
100
AcDbEntity
  8
_U+30EC_U+30A4_U+30E4_U+30FC 1
370
     0
100
AcDbSpline
210
0.0
220
0.0
230
1.0
 70
    11
 71
     3
 72
    44
 73
    40
 74
     0
 42
0.0000000001
 43
0.0000000001
 12
1.0
 22
0.0
 32
0.0
 13
1.0
 23
0.0
 33
0.0
 40
0.0
 40
0.0
 40
0.0
 40
0.0
 40
1.0
 40
1.0
 40
1.0
 40
2.0
 40
2.0
 40
2.0
 40
3.0
 40
3.0
 40
3.0
 40
4.0
 40
4.0
 40
4.0
 40
5.0
 40
5.0
 40
5.0
 40
6.0
 40
6.0
 40
6.0
 40
7.0
 40
7.0
 40
7.0
 40
8.0
 40
8.0
 40
8.0
 40
9.0
 40
9.0
 40
9.0
 40
10.0
 40
10.0
 40
10.0
 40
11.0
 40
11.0
 40
11.0
 40
12.0
 40
12.0
 40
12.0
 40
13.0
 40
13.0
 40
13.0
 40
13.0
 10
60.26643336166951
 20
-101.7717379845397
 30
0.0
 10
60.0313055948012
 20
-101.9429592301566
 30
0.0
 10
59.93088106140617
 20
-102.0228854454144
 30
0.0
 10
59.87834335525611
 20
-102.1780869970249
 30
0.0
 10
59.87834335525611
 20
-102.1780869970249
 30
0.0
 10
60.71825763456002
 20
-102.1780869970249
 30
0.0
 10
60.71825763456002
 20
-102.1780869970249
 30
0.0
 10
60.71825763456002
 20
-102.1780869970249
 30
0.0
 10
60.71825763456002
 20
-102.3994343819522
 30
0.0
 10
60.71825763456002
 20
-102.3994343819522
 30
0.0
 10
60.71825763456002
 20
-102.3994343819522
 30
0.0
 10
59.60910914308383
 20
-102.3994343819522
 30
0.0
 10
59.60910914308383
 20
-102.3994343819522
 30
0.0
 10
59.64321558838781
 20
-102.0137559423785
 30
0.0
 10
59.7140123006097
 20
-101.9291788482156
 30
0.0
 10
60.12931856135656
 20
-101.6074069298933
 30
0.0
 10
60.4056152192736
 20
-101.3929497359365
 30
0.0
 10
60.47623967672122
 20
-101.3199137116492
 30
0.0
 10
60.47623967672122
 20
-101.1716023510092
 30
0.0
 10
60.47623967672122
 20
-101.0437893085064
 30
0.0
 10
60.3987250283031
 20
-100.9021958840626
 30
0.0
 10
60.18650714641171
 20
-100.9021958840626
 30
0.0
 10
59.90573186436385
 20
-100.9021958840626
 30
0.0
 10
59.89660236132794
 20
-101.1509317780977
 30
0.0
 10
59.89195148242285
 20
-101.276505508535
 30
0.0
 10
59.89195148242285
 20
-101.276505508535
 30
0.0
 10
59.65010577935831
 20
-101.276505508535
 30
0.0
 10
59.65010577935831
 20
-101.276505508535
 30
0.0
 10
59.65923528239422
 20
-101.1395629629964
 30
0.0
 10
59.67060409749555
 20
-101.0186401114641
 30
0.0
 10
59.75742050372384
 20
-100.8908270689613
 30
0.0
 10
59.8761040431907
 20
-100.717366511279
 30
0.0
 10
60.07695310998076
 20
-100.6808484991354
 30
0.0
 10
60.20235458564386
 20
-100.6808484991354
 30
0.0
 10
60.50138887376355
 20
-100.6808484991354
 30
0.0
 10
60.72514782553052
 20
-100.87945825386
 30
0.0
 10
60.72514782553052
 20
-101.1738416630746
 30
0.0
 10
60.72514782553052
 20
-101.4203382450442
 30
0.0
 10
60.59957409509317
 20
-101.5274807146355
 30
0.0
 10
60.26643336166951
 20
-101.7717379845397
 30
0.0
  0
HATCH
  5
A6
330
A1
100
AcDbEntity
  8
_U+30EC_U+30A4_U+30E4_U+30FC 1
 62
   179
420
  2234388
100
AcDbHatch
 10
0.0
 20
0.0
 30
0.0
210
0.0
220
0.0
230
1.0
  2
SOLID
 70
     1
 71
     0
 91
        1
 92
        1
 93
        1
 72
     4
 94
        3
 73
     0
 74
     1
 95
       44
 96
       40
 40
0.0
 40
0.0
 40
0.0
 40
0.0
 40
1.0
 40
1.0
 40
1.0
 40
2.0
 40
2.0
 40
2.0
 40
3.0
 40
3.0
 40
3.0
 40
4.0
 40
4.0
 40
4.0
 40
5.0
 40
5.0
 40
5.0
 40
6.0
 40
6.0
 40
6.0
 40
7.0
 40
7.0
 40
7.0
 40
8.0
 40
8.0
 40
8.0
 40
9.0
 40
9.0
 40
9.0
 40
10.0
 40
10.0
 40
10.0
 40
11.0
 40
11.0
 40
11.0
 40
12.0
 40
12.0
 40
12.0
 40
13.0
 40
13.0
 40
13.0
 40
13.0
 10
60.26643336166951
 20
-101.7717379845397
 10
60.0313055948012
 20
-101.9429592301566
 10
59.93088106140617
 20
-102.0228854454144
 10
59.87834335525611
 20
-102.1780869970249
 10
59.87834335525611
 20
-102.1780869970249
 10
60.71825763456002
 20
-102.1780869970249
 10
60.71825763456002
 20
-102.1780869970249
 10
60.71825763456002
 20
-102.1780869970249
 10
60.71825763456002
 20
-102.3994343819522
 10
60.71825763456002
 20
-102.3994343819522
 10
60.71825763456002
 20
-102.3994343819522
 10
59.60910914308383
 20
-102.3994343819522
 10
59.60910914308383
 20
-102.3994343819522
 10
59.64321558838781
 20
-102.0137559423785
 10
59.7140123006097
 20
-101.9291788482156
 10
60.12931856135656
 20
-101.6074069298933
 10
60.4056152192736
 20
-101.3929497359365
 10
60.47623967672122
 20
-101.3199137116492
 10
60.47623967672122
 20
-101.1716023510092
 10
60.47623967672122
 20
-101.0437893085064
 10
60.3987250283031
 20
-100.9021958840626
 10
60.18650714641171
 20
-100.9021958840626
 10
59.90573186436385
 20
-100.9021958840626
 10
59.89660236132794
 20
-101.1509317780977
 10
59.89195148242285
 20
-101.276505508535
 10
59.89195148242285
 20
-101.276505508535
 10
59.65010577935831
 20
-101.276505508535
 10
59.65010577935831
 20
-101.276505508535
 10
59.65923528239422
 20
-101.1395629629964
 10
59.67060409749555
 20
-101.0186401114641
 10
59.75742050372384
 20
-100.8908270689613
 10
59.8761040431907
 20
-100.717366511279
 10
60.07695310998076
 20
-100.6808484991354
 10
60.20235458564386
 20
-100.6808484991354
 10
60.50138887376355
 20
-100.6808484991354
 10
60.72514782553052
 20
-100.87945825386
 10
60.72514782553052
 20
-101.1738416630746
 10
60.72514782553052
 20
-101.4203382450442
 10
60.59957409509317
 20
-101.5274807146355
 10
60.26643336166951
 20
-101.7717379845397
 97
        0
 97
        0
 75
     2
 76
     1
 98
        0
  0
SPLINE
  5
A7
330
A1
100
AcDbEntity
  8
_U+30EC_U+30A4_U+30E4_U+30FC 1
370
     0
100
AcDbSpline
210
0.0
220
0.0
230
1.0
 70
    11
 71
     3
 72
    53
 73
    49
 74
     0
 42
0.0000000001
 43
0.0000000001
 12
1.0
 22
0.0
 32
0.0
 13
1.0
 23
0.0
 33
0.0
 40
0.0
 40
0.0
 40
0.0
 40
0.0
 40
1.0
 40
1.0
 40
1.0
 40
2.0
 40
2.0
 40
2.0
 40
3.0
 40
3.0
 40
3.0
 40
4.0
 40
4.0
 40
4.0
 40
5.0
 40
5.0
 40
5.0
 40
6.0
 40
6.0
 40
6.0
 40
7.0
 40
7.0
 40
7.0
 40
8.0
 40
8.0
 40
8.0
 40
9.0
 40
9.0
 40
9.0
 40
10.0
 40
10.0
 40
10.0
 40
11.0
 40
11.0
 40
11.0
 40
12.0
 40
12.0
 40
12.0
 40
13.0
 40
13.0
 40
13.0
 40
14.0
 40
14.0
 40
14.0
 40
15.0
 40
15.0
 40
15.0
 40
16.0
 40
16.0
 40
16.0
 40
16.0
 10
61.41571721554885
 20
-102.4542114001677
 30
0.0
 10
61.33131237616023
 20
-102.4542114001677
 30
0.0
 10
61.22175833972928
 20
-102.4359523940959
 30
0.0
 10
61.11220430329834
 20
-102.3673949939394
 30
0.0
 10
60.92513561844927
 20
-102.2488837092468
 30
0.0
 10
60.90222573347236
 20
-102.107290284803
 30
0.0
 10
60.88172741533513
 20
-101.9908460574016
 30
0.0
 10
60.88172741533513
 20
-101.9908460574016
 30
0.0
 10
61.12133380633426
 20
-101.9908460574016
 30
0.0
 10
61.12133380633426
 20
-101.9908460574016
 30
0.0
 10
61.18076170345481
 20
-102.2054755061327
 30
0.0
 10
61.31753199421923
 20
-102.2373426393712
 30
0.0
 10
61.41812878238853
 20
-102.2373426393712
 30
0.0
 10
61.56867945509394
 20
-102.2373426393712
 30
0.0
 10
61.73301050974036
 20
-102.1300279150057
 30
0.0
 10
61.73301050974036
 20
-101.8790527089052
 30
0.0
 10
61.73301050974036
 20
-101.6029283057625
 30
0.0
 10
61.53905163392079
 20
-101.5274807146355
 30
0.0
 10
61.40882702457835
 20
-101.5274807146355
 30
0.0
 10
61.37472057927438
 20
-101.5274807146355
 30
0.0
 10
61.22175833972928
 20
-101.5274807146355
 30
0.0
 10
61.12598468523934
 20
-101.6668348270139
 30
0.0
 10
61.12598468523934
 20
-101.6668348270139
 30
0.0
 10
60.9365044335506
 20
-101.6463365088766
 30
0.0
 10
60.9365044335506
 20
-101.6463365088766
 30
0.0
 10
60.9365044335506
 20
-101.6463365088766
 30
0.0
 10
61.06655678811878
 20
-100.7333862052854
 30
0.0
 10
61.06655678811878
 20
-100.7333862052854
 30
0.0
 10
61.06655678811878
 20
-100.7333862052854
 30
0.0
 10
61.90647106742269
 20
-100.7333862052854
 30
0.0
 10
61.90647106742269
 20
-100.7333862052854
 30
0.0
 10
61.90647106742269
 20
-100.7333862052854
 30
0.0
 10
61.90647106742269
 20
-100.9431925203371
 30
0.0
 10
61.90647106742269
 20
-100.9431925203371
 30
0.0
 10
61.90647106742269
 20
-100.9431925203371
 30
0.0
 10
61.24225665786652
 20
-100.9431925203371
 30
0.0
 10
61.24225665786652
 20
-100.9431925203371
 30
0.0
 10
61.24225665786652
 20
-100.9431925203371
 30
0.0
 10
61.17145994564464
 20
-101.3996676721327
 30
0.0
 10
61.17145994564464
 20
-101.3996676721327
 30
0.0
 10
61.23777803373569
 20
-101.3631496599891
 30
0.0
 10
61.32683375202941
 20
-101.3199137116492
 30
0.0
 10
61.45464679453217
 20
-101.3199137116492
 30
0.0
 10
61.72853188560953
 20
-101.3199137116492
 30
0.0
 10
61.98415797061507
 20
-101.5207627784393
 30
0.0
 10
61.98415797061507
 20
-101.858554390768
 30
0.0
 10
61.98415797061507
 20
-102.2008246272276
 30
0.0
 10
61.74214001277628
 20
-102.4542114001677
 30
0.0
 10
61.41571721554885
 20
-102.4542114001677
 30
0.0
  0
HATCH
  5
A8
330
A1
100
AcDbEntity
  8
_U+30EC_U+30A4_U+30E4_U+30FC 1
 62
   179
420
  2234388
100
AcDbHatch
 10
0.0
 20
0.0
 30
0.0
210
0.0
220
0.0
230
1.0
  2
SOLID
 70
     1
 71
     0
 91
        1
 92
        1
 93
        1
 72
     4
 94
        3
 73
     0
 74
     1
 95
       53
 96
       49
 40
0.0
 40
0.0
 40
0.0
 40
0.0
 40
1.0
 40
1.0
 40
1.0
 40
2.0
 40
2.0
 40
2.0
 40
3.0
 40
3.0
 40
3.0
 40
4.0
 40
4.0
 40
4.0
 40
5.0
 40
5.0
 40
5.0
 40
6.0
 40
6.0
 40
6.0
 40
7.0
 40
7.0
 40
7.0
 40
8.0
 40
8.0
 40
8.0
 40
9.0
 40
9.0
 40
9.0
 40
10.0
 40
10.0
 40
10.0
 40
11.0
 40
11.0
 40
11.0
 40
12.0
 40
12.0
 40
12.0
 40
13.0
 40
13.0
 40
13.0
 40
14.0
 40
14.0
 40
14.0
 40
15.0
 40
15.0
 40
15.0
 40
16.0
 40
16.0
 40
16.0
 40
16.0
 10
61.41571721554885
 20
-102.4542114001677
 10
61.33131237616023
 20
-102.4542114001677
 10
61.22175833972928
 20
-102.4359523940959
 10
61.11220430329834
 20
-102.3673949939394
 10
60.92513561844927
 20
-102.2488837092468
 10
60.90222573347236
 20
-102.107290284803
 10
60.88172741533513
 20
-101.9908460574016
 10
60.88172741533513
 20
-101.9908460574016
 10
61.12133380633426
 20
-101.9908460574016
 10
61.12133380633426
 20
-101.9908460574016
 10
61.18076170345481
 20
-102.2054755061327
 10
61.31753199421923
 20
-102.2373426393712
 10
61.41812878238853
 20
-102.2373426393712
 10
61.56867945509394
 20
-102.2373426393712
 10
61.73301050974036
 20
-102.1300279150057
 10
61.73301050974036
 20
-101.8790527089052
 10
61.73301050974036
 20
-101.6029283057625
 10
61.53905163392079
 20
-101.5274807146355
 10
61.40882702457835
 20
-101.5274807146355
 10
61.37472057927438
 20
-101.5274807146355
 10
61.22175833972928
 20
-101.5274807146355
 10
61.12598468523934
 20
-101.6668348270139
 10
61.12598468523934
 20
-101.6668348270139
 10
60.9365044335506
 20
-101.6463365088766
 10
60.9365044335506
 20
-101.6463365088766
 10
60.9365044335506
 20
-101.6463365088766
 10
61.06655678811878
 20
-100.7333862052854
 10
61.06655678811878
 20
-100.7333862052854
 10
61.06655678811878
 20
-100.7333862052854
 10
61.90647106742269
 20
-100.7333862052854
 10
61.90647106742269
 20
-100.7333862052854
 10
61.90647106742269
 20
-100.7333862052854
 10
61.90647106742269
 20
-100.9431925203371
 10
61.90647106742269
 20
-100.9431925203371
 10
61.90647106742269
 20
-100.9431925203371
 10
61.24225665786652
 20
-100.9431925203371
 10
61.24225665786652
 20
-100.9431925203371
 10
61.24225665786652
 20
-100.9431925203371
 10
61.17145994564464
 20
-101.3996676721327
 10
61.17145994564464
 20
-101.3996676721327
 10
61.23777803373569
 20
-101.3631496599891
 10
61.32683375202941
 20
-101.3199137116492
 10
61.45464679453217
 20
-101.3199137116492
 10
61.72853188560953
 20
-101.3199137116492
 10
61.98415797061507
 20
-101.5207627784393
 10
61.98415797061507
 20
-101.858554390768
 10
61.98415797061507
 20
-102.2008246272276
 10
61.74214001277628
 20
-102.4542114001677
 10
61.41571721554885
 20
-102.4542114001677
 97
        0
 97
        0
 75
     2
 76
     1
 98
        0
  0
ENDBLK
  5
A4
330
A1
100
AcDbEntity
  8
0
100
AcDbBlockEnd
  0
BLOCK
  5
B3
330
B1
100
AcDbEntity
  8
0
100
AcDbBlockBegin
  2
block 4
 70
     0
 10
0.0
 20
0.0
 30
0.0
  3
block 4
  1

  0
SPLINE
  5
B5
330
B1
100
AcDbEntity
  8
_U+30EC_U+30A4_U+30E4_U+30FC 1
370
     0
100
AcDbSpline
210
0.0
220
0.0
230
1.0
 70
    11
 71
     3
 72
    44
 73
    40
 74
     0
 42
0.0000000001
 43
0.0000000001
 12
1.0
 22
0.0
 32
0.0
 13
1.0
 23
0.0
 33
0.0
 40
0.0
 40
0.0
 40
0.0
 40
0.0
 40
1.0
 40
1.0
 40
1.0
 40
2.0
 40
2.0
 40
2.0
 40
3.0
 40
3.0
 40
3.0
 40
4.0
 40
4.0
 40
4.0
 40
5.0
 40
5.0
 40
5.0
 40
6.0
 40
6.0
 40
6.0
 40
7.0
 40
7.0
 40
7.0
 40
8.0
 40
8.0
 40
8.0
 40
9.0
 40
9.0
 40
9.0
 40
10.0
 40
10.0
 40
10.0
 40
11.0
 40
11.0
 40
11.0
 40
12.0
 40
12.0
 40
12.0
 40
13.0
 40
13.0
 40
13.0
 40
13.0
 10
85.266457769482
 20
-101.7717379845397
 30
0.0
 10
85.0313300026137
 20
-101.9429592301566
 30
0.0
 10
84.93090546921867
 20
-102.0228854454144
 30
0.0
 10
84.87836776306861
 20
-102.1780869970249
 30
0.0
 10
84.87836776306861
 20
-102.1780869970249
 30
0.0
 10
85.71828204237252
 20
-102.1780869970249
 30
0.0
 10
85.71828204237252
 20
-102.1780869970249
 30
0.0
 10
85.71828204237252
 20
-102.1780869970249
 30
0.0
 10
85.71828204237252
 20
-102.3994343819522
 30
0.0
 10
85.71828204237252
 20
-102.3994343819522
 30
0.0
 10
85.71828204237252
 20
-102.3994343819522
 30
0.0
 10
84.60913355089633
 20
-102.3994343819522
 30
0.0
 10
84.60913355089633
 20
-102.3994343819522
 30
0.0
 10
84.64323999620031
 20
-102.0137559423785
 30
0.0
 10
84.71403670842219
 20
-101.9291788482156
 30
0.0
 10
85.12934296916906
 20
-101.6074069298933
 30
0.0
 10
85.40563962708609
 20
-101.3929497359365
 30
0.0
 10
85.47626408453371
 20
-101.3199137116492
 30
0.0
 10
85.47626408453371
 20
-101.1716023510092
 30
0.0
 10
85.47626408453371
 20
-101.0437893085064
 30
0.0
 10
85.3987494361156
 20
-100.9021958840626
 30
0.0
 10
85.1865315542242
 20
-100.9021958840626
 30
0.0
 10
84.90575627217635
 20
-100.9021958840626
 30
0.0
 10
84.89662676914043
 20
-101.1509317780977
 30
0.0
 10
84.89197589023534
 20
-101.276505508535
 30
0.0
 10
84.89197589023534
 20
-101.276505508535
 30
0.0
 10
84.6501301871708
 20
-101.276505508535
 30
0.0
 10
84.6501301871708
 20
-101.276505508535
 30
0.0
 10
84.65925969020671
 20
-101.1395629629964
 30
0.0
 10
84.67062850530804
 20
-101.0186401114641
 30
0.0
 10
84.75744491153634
 20
-100.8908270689613
 30
0.0
 10
84.8761284510032
 20
-100.717366511279
 30
0.0
 10
85.07697751779325
 20
-100.6808484991354
 30
0.0
 10
85.20237899345635
 20
-100.6808484991354
 30
0.0
 10
85.50141328157603
 20
-100.6808484991354
 30
0.0
 10
85.72517223334302
 20
-100.87945825386
 30
0.0
 10
85.72517223334302
 20
-101.1738416630746
 30
0.0
 10
85.72517223334302
 20
-101.4203382450442
 30
0.0
 10
85.59959850290566
 20
-101.5274807146355
 30
0.0
 10
85.266457769482
 20
-101.7717379845397
 30
0.0
  0
HATCH
  5
B6
330
B1
100
AcDbEntity
  8
_U+30EC_U+30A4_U+30E4_U+30FC 1
 62
   179
420
  2234388
100
AcDbHatch
 10
0.0
 20
0.0
 30
0.0
210
0.0
220
0.0
230
1.0
  2
SOLID
 70
     1
 71
     0
 91
        1
 92
        1
 93
        1
 72
     4
 94
        3
 73
     0
 74
     1
 95
       44
 96
       40
 40
0.0
 40
0.0
 40
0.0
 40
0.0
 40
1.0
 40
1.0
 40
1.0
 40
2.0
 40
2.0
 40
2.0
 40
3.0
 40
3.0
 40
3.0
 40
4.0
 40
4.0
 40
4.0
 40
5.0
 40
5.0
 40
5.0
 40
6.0
 40
6.0
 40
6.0
 40
7.0
 40
7.0
 40
7.0
 40
8.0
 40
8.0
 40
8.0
 40
9.0
 40
9.0
 40
9.0
 40
10.0
 40
10.0
 40
10.0
 40
11.0
 40
11.0
 40
11.0
 40
12.0
 40
12.0
 40
12.0
 40
13.0
 40
13.0
 40
13.0
 40
13.0
 10
85.266457769482
 20
-101.7717379845397
 10
85.0313300026137
 20
-101.9429592301566
 10
84.93090546921867
 20
-102.0228854454144
 10
84.87836776306861
 20
-102.1780869970249
 10
84.87836776306861
 20
-102.1780869970249
 10
85.71828204237252
 20
-102.1780869970249
 10
85.71828204237252
 20
-102.1780869970249
 10
85.71828204237252
 20
-102.1780869970249
 10
85.71828204237252
 20
-102.3994343819522
 10
85.71828204237252
 20
-102.3994343819522
 10
85.71828204237252
 20
-102.3994343819522
 10
84.60913355089633
 20
-102.3994343819522
 10
84.60913355089633
 20
-102.3994343819522
 10
84.64323999620031
 20
-102.0137559423785
 10
84.71403670842219
 20
-101.9291788482156
 10
85.12934296916906
 20
-101.6074069298933
 10
85.40563962708609
 20
-101.3929497359365
 10
85.47626408453371
 20
-101.3199137116492
 10
85.47626408453371
 20
-101.1716023510092
 10
85.47626408453371
 20
-101.0437893085064
 10
85.3987494361156
 20
-100.9021958840626
 10
85.1865315542242
 20
-100.9021958840626
 10
84.90575627217635
 20
-100.9021958840626
 10
84.89662676914043
 20
-101.1509317780977
 10
84.89197589023534
 20
-101.276505508535
 10
84.89197589023534
 20
-101.276505508535
 10
84.6501301871708
 20
-101.276505508535
 10
84.6501301871708
 20
-101.276505508535
 10
84.65925969020671
 20
-101.1395629629964
 10
84.67062850530804
 20
-101.0186401114641
 10
84.75744491153634
 20
-100.8908270689613
 10
84.8761284510032
 20
-100.717366511279
 10
85.07697751779325
 20
-100.6808484991354
 10
85.20237899345635
 20
-100.6808484991354
 10
85.50141328157603
 20
-100.6808484991354
 10
85.72517223334302
 20
-100.87945825386
 10
85.72517223334302
 20
-101.1738416630746
 10
85.72517223334302
 20
-101.4203382450442
 10
85.59959850290566
 20
-101.5274807146355
 10
85.266457769482
 20
-101.7717379845397
 97
        0
 97
        0
 75
     2
 76
     1
 98
        0
  0
SPLINE
  5
B7
330
B1
100
AcDbEntity
  8
_U+30EC_U+30A4_U+30E4_U+30FC 1
370
     0
100
AcDbSpline
210
0.0
220
0.0
230
1.0
 70
    11
 71
     3
 72
    53
 73
    49
 74
     0
 42
0.0000000001
 43
0.0000000001
 12
1.0
 22
0.0
 32
0.0
 13
1.0
 23
0.0
 33
0.0
 40
0.0
 40
0.0
 40
0.0
 40
0.0
 40
1.0
 40
1.0
 40
1.0
 40
2.0
 40
2.0
 40
2.0
 40
3.0
 40
3.0
 40
3.0
 40
4.0
 40
4.0
 40
4.0
 40
5.0
 40
5.0
 40
5.0
 40
6.0
 40
6.0
 40
6.0
 40
7.0
 40
7.0
 40
7.0
 40
8.0
 40
8.0
 40
8.0
 40
9.0
 40
9.0
 40
9.0
 40
10.0
 40
10.0
 40
10.0
 40
11.0
 40
11.0
 40
11.0
 40
12.0
 40
12.0
 40
12.0
 40
13.0
 40
13.0
 40
13.0
 40
14.0
 40
14.0
 40
14.0
 40
15.0
 40
15.0
 40
15.0
 40
16.0
 40
16.0
 40
16.0
 40
16.0
 10
86.41574162336134
 20
-102.4542114001677
 30
0.0
 10
86.33133678397273
 20
-102.4542114001677
 30
0.0
 10
86.22178274754178
 20
-102.4359523940959
 30
0.0
 10
86.11222871111083
 20
-102.3673949939394
 30
0.0
 10
85.92516002626176
 20
-102.2488837092468
 30
0.0
 10
85.90225014128485
 20
-102.107290284803
 30
0.0
 10
85.88175182314762
 20
-101.9908460574016
 30
0.0
 10
85.88175182314762
 20
-101.9908460574016
 30
0.0
 10
86.12118595937248
 20
-101.9908460574016
 30
0.0
 10
86.12118595937248
 20
-101.9908460574016
 30
0.0
 10
86.18078611126731
 20
-102.2054755061327
 30
0.0
 10
86.31755640203173
 20
-102.2373426393712
 30
0.0
 10
86.41815319020102
 20
-102.2373426393712
 30
0.0
 10
86.56870386290645
 20
-102.2373426393712
 30
0.0
 10
86.73303491755286
 20
-102.1300279150057
 30
0.0
 10
86.73303491755286
 20
-101.8790527089052
 30
0.0
 10
86.73303491755286
 20
-101.6029283057625
 30
0.0
 10
86.5390760417333
 20
-101.5274807146355
 30
0.0
 10
86.40885143239085
 20
-101.5274807146355
 30
0.0
 10
86.37474498708687
 20
-101.5274807146355
 30
0.0
 10
86.22178274754178
 20
-101.5274807146355
 30
0.0
 10
86.12600909305183
 20
-101.6668348270139
 30
0.0
 10
86.12600909305183
 20
-101.6668348270139
 30
0.0
 10
85.9365288413631
 20
-101.6463365088766
 30
0.0
 10
85.9365288413631
 20
-101.6463365088766
 30
0.0
 10
85.9365288413631
 20
-101.6463365088766
 30
0.0
 10
86.06675345070553
 20
-100.7333862052854
 30
0.0
 10
86.06675345070553
 20
-100.7333862052854
 30
0.0
 10
86.06675345070553
 20
-100.7333862052854
 30
0.0
 10
86.90666773000945
 20
-100.7333862052854
 30
0.0
 10
86.90666773000945
 20
-100.7333862052854
 30
0.0
 10
86.90666773000945
 20
-100.7333862052854
 30
0.0
 10
86.90666773000945
 20
-100.9431925203371
 30
0.0
 10
86.90666773000945
 20
-100.9431925203371
 30
0.0
 10
86.90666773000945
 20
-100.9431925203371
 30
0.0
 10
86.24245332045328
 20
-100.9431925203371
 30
0.0
 10
86.24245332045328
 20
-100.9431925203371
 30
0.0
 10
86.24245332045328
 20
-100.9431925203371
 30
0.0
 10
86.17148435345713
 20
-101.3996676721327
 30
0.0
 10
86.17148435345713
 20
-101.3996676721327
 30
0.0
 10
86.23763018677393
 20
-101.3631496599891
 30
0.0
 10
86.3268581598419
 20
-101.3199137116492
 30
0.0
 10
86.45467120234467
 20
-101.3199137116492
 30
0.0
 10
86.72855629342203
 20
-101.3199137116492
 30
0.0
 10
86.98418237842758
 20
-101.5207627784393
 30
0.0
 10
86.98418237842758
 20
-101.858554390768
 30
0.0
 10
86.98418237842758
 20
-102.2008246272276
 30
0.0
 10
86.74199216581451
 20
-102.4542114001677
 30
0.0
 10
86.41574162336134
 20
-102.4542114001677
 30
0.0
  0
HATCH
  5
B8
330
B1
100
AcDbEntity
  8
_U+30EC_U+30A4_U+30E4_U+30FC 1
 62
   179
420
  2234388
100
AcDbHatch
 10
0.0
 20
0.0
 30
0.0
210
0.0
220
0.0
230
1.0
  2
SOLID
 70
     1
 71
     0
 91
        1
 92
        1
 93
        1
 72
     4
 94
        3
 73
     0
 74
     1
 95
       53
 96
       49
 40
0.0
 40
0.0
 40
0.0
 40
0.0
 40
1.0
 40
1.0
 40
1.0
 40
2.0
 40
2.0
 40
2.0
 40
3.0
 40
3.0
 40
3.0
 40
4.0
 40
4.0
 40
4.0
 40
5.0
 40
5.0
 40
5.0
 40
6.0
 40
6.0
 40
6.0
 40
7.0
 40
7.0
 40
7.0
 40
8.0
 40
8.0
 40
8.0
 40
9.0
 40
9.0
 40
9.0
 40
10.0
 40
10.0
 40
10.0
 40
11.0
 40
11.0
 40
11.0
 40
12.0
 40
12.0
 40
12.0
 40
13.0
 40
13.0
 40
13.0
 40
14.0
 40
14.0
 40
14.0
 40
15.0
 40
15.0
 40
15.0
 40
16.0
 40
16.0
 40
16.0
 40
16.0
 10
86.41574162336134
 20
-102.4542114001677
 10
86.33133678397273
 20
-102.4542114001677
 10
86.22178274754178
 20
-102.4359523940959
 10
86.11222871111083
 20
-102.3673949939394
 10
85.92516002626176
 20
-102.2488837092468
 10
85.90225014128485
 20
-102.107290284803
 10
85.88175182314762
 20
-101.9908460574016
 10
85.88175182314762
 20
-101.9908460574016
 10
86.12118595937248
 20
-101.9908460574016
 10
86.12118595937248
 20
-101.9908460574016
 10
86.18078611126731
 20
-102.2054755061327
 10
86.31755640203173
 20
-102.2373426393712
 10
86.41815319020102
 20
-102.2373426393712
 10
86.56870386290645
 20
-102.2373426393712
 10
86.73303491755286
 20
-102.1300279150057
 10
86.73303491755286
 20
-101.8790527089052
 10
86.73303491755286
 20
-101.6029283057625
 10
86.5390760417333
 20
-101.5274807146355
 10
86.40885143239085
 20
-101.5274807146355
 10
86.37474498708687
 20
-101.5274807146355
 10
86.22178274754178
 20
-101.5274807146355
 10
86.12600909305183
 20
-101.6668348270139
 10
86.12600909305183
 20
-101.6668348270139
 10
85.9365288413631
 20
-101.6463365088766
 10
85.9365288413631
 20
-101.6463365088766
 10
85.9365288413631
 20
-101.6463365088766
 10
86.06675345070553
 20
-100.7333862052854
 10
86.06675345070553
 20
-100.7333862052854
 10
86.06675345070553
 20
-100.7333862052854
 10
86.90666773000945
 20
-100.7333862052854
 10
86.90666773000945
 20
-100.7333862052854
 10
86.90666773000945
 20
-100.7333862052854
 10
86.90666773000945
 20
-100.9431925203371
 10
86.90666773000945
 20
-100.9431925203371
 10
86.90666773000945
 20
-100.9431925203371
 10
86.24245332045328
 20
-100.9431925203371
 10
86.24245332045328
 20
-100.9431925203371
 10
86.24245332045328
 20
-100.9431925203371
 10
86.17148435345713
 20
-101.3996676721327
 10
86.17148435345713
 20
-101.3996676721327
 10
86.23763018677393
 20
-101.3631496599891
 10
86.3268581598419
 20
-101.3199137116492
 10
86.45467120234467
 20
-101.3199137116492
 10
86.72855629342203
 20
-101.3199137116492
 10
86.98418237842758
 20
-101.5207627784393
 10
86.98418237842758
 20
-101.858554390768
 10
86.98418237842758
 20
-102.2008246272276
 10
86.74199216581451
 20
-102.4542114001677
 10
86.41574162336134
 20
-102.4542114001677
 97
        0
 97
        0
 75
     2
 76
     1
 98
        0
  0
ENDBLK
  5
B4
330
B1
100
AcDbEntity
  8
0
100
AcDbBlockEnd
  0
BLOCK
  5
C3
330
C1
100
AcDbEntity
  8
0
100
AcDbBlockBegin
  2
block 5
 70
     0
 10
0.0
 20
0.0
 30
0.0
  3
block 5
  1

  0
SPLINE
  5
C5
330
C1
100
AcDbEntity
  8
_U+30EC_U+30A4_U+30E4_U+30FC 1
370
     0
100
AcDbSpline
210
0.0
220
0.0
230
1.0
 70
    11
 71
     3
 72
    44
 73
    40
 74
     0
 42
0.0000000001
 43
0.0000000001
 12
1.0
 22
0.0
 32
0.0
 13
1.0
 23
0.0
 33
0.0
 40
0.0
 40
0.0
 40
0.0
 40
0.0
 40
1.0
 40
1.0
 40
1.0
 40
2.0
 40
2.0
 40
2.0
 40
3.0
 40
3.0
 40
3.0
 40
4.0
 40
4.0
 40
4.0
 40
5.0
 40
5.0
 40
5.0
 40
6.0
 40
6.0
 40
6.0
 40
7.0
 40
7.0
 40
7.0
 40
8.0
 40
8.0
 40
8.0
 40
9.0
 40
9.0
 40
9.0
 40
10.0
 40
10.0
 40
10.0
 40
11.0
 40
11.0
 40
11.0
 40
12.0
 40
12.0
 40
12.0
 40
13.0
 40
13.0
 40
13.0
 40
13.0
 10
110.266137667746
 20
-101.7717379845397
 30
0.0
 10
110.0311821556519
 20
-101.9429592301566
 30
0.0
 10
109.9305853674826
 20
-102.0228854454144
 30
0.0
 10
109.8782199161068
 20
-102.1780869970249
 30
0.0
 10
109.8782199161068
 20
-102.1780869970249
 30
0.0
 10
110.7181341954108
 20
-102.1780869970249
 30
0.0
 10
110.7181341954108
 20
-102.1780869970249
 30
0.0
 10
110.7181341954108
 20
-102.1780869970249
 30
0.0
 10
110.7181341954108
 20
-102.3994343819522
 30
0.0
 10
110.7181341954108
 20
-102.3994343819522
 30
0.0
 10
110.7181341954108
 20
-102.3994343819522
 30
0.0
 10
109.6088134491603
 20
-102.3994343819522
 30
0.0
 10
109.6088134491603
 20
-102.3994343819522
 30
0.0
 10
109.6432644040128
 20
-102.0137559423785
 30
0.0
 10
109.7138888614604
 20
-101.9291788482156
 30
0.0
 10
110.1293673769815
 20
-101.6074069298933
 30
0.0
 10
110.4053195253501
 20
-101.3929497359365
 30
0.0
 10
110.4762884923462
 20
-101.3199137116492
 30
0.0
 10
110.4762884923462
 20
-101.1716023510092
 30
0.0
 10
110.4762884923462
 20
-101.0437893085064
 30
0.0
 10
110.3987738439281
 20
-100.9021958840626
 30
0.0
 10
110.1862114524882
 20
-100.9021958840626
 30
0.0
 10
109.9054361704403
 20
-100.9021958840626
 30
0.0
 10
109.8964789221787
 20
-101.1509317780977
 30
0.0
 10
109.8920002980478
 20
-101.276505508535
 30
0.0
 10
109.8920002980478
 20
-101.276505508535
 30
0.0
 10
109.6498100854348
 20
-101.276505508535
 30
0.0
 10
109.6498100854348
 20
-101.276505508535
 30
0.0
 10
109.6591118432449
 20
-101.1395629629964
 30
0.0
 10
109.6704806583463
 20
-101.0186401114641
 30
0.0
 10
109.7572970645746
 20
-100.8908270689613
 30
0.0
 10
109.8758083492672
 20
-100.717366511279
 30
0.0
 10
110.0766574160572
 20
-100.6808484991354
 30
0.0
 10
110.2024034012689
 20
-100.6808484991354
 30
0.0
 10
110.5014376893885
 20
-100.6808484991354
 30
0.0
 10
110.7250243863812
 20
-100.87945825386
 30
0.0
 10
110.7250243863812
 20
-101.1738416630746
 30
0.0
 10
110.7250243863812
 20
-101.4203382450442
 30
0.0
 10
110.5992784011696
 20
-101.5274807146355
 30
0.0
 10
110.266137667746
 20
-101.7717379845397
 30
0.0
  0
HATCH
  5
C6
330
C1
100
AcDbEntity
  8
_U+30EC_U+30A4_U+30E4_U+30FC 1
 62
   179
420
  2234388
100
AcDbHatch
 10
0.0
 20
0.0
 30
0.0
210
0.0
220
0.0
230
1.0
  2
SOLID
 70
     1
 71
     0
 91
        1
 92
        1
 93
        1
 72
     4
 94
        3
 73
     0
 74
     1
 95
       44
 96
       40
 40
0.0
 40
0.0
 40
0.0
 40
0.0
 40
1.0
 40
1.0
 40
1.0
 40
2.0
 40
2.0
 40
2.0
 40
3.0
 40
3.0
 40
3.0
 40
4.0
 40
4.0
 40
4.0
 40
5.0
 40
5.0
 40
5.0
 40
6.0
 40
6.0
 40
6.0
 40
7.0
 40
7.0
 40
7.0
 40
8.0
 40
8.0
 40
8.0
 40
9.0
 40
9.0
 40
9.0
 40
10.0
 40
10.0
 40
10.0
 40
11.0
 40
11.0
 40
11.0
 40
12.0
 40
12.0
 40
12.0
 40
13.0
 40
13.0
 40
13.0
 40
13.0
 10
110.266137667746
 20
-101.7717379845397
 10
110.0311821556519
 20
-101.9429592301566
 10
109.9305853674826
 20
-102.0228854454144
 10
109.8782199161068
 20
-102.1780869970249
 10
109.8782199161068
 20
-102.1780869970249
 10
110.7181341954108
 20
-102.1780869970249
 10
110.7181341954108
 20
-102.1780869970249
 10
110.7181341954108
 20
-102.1780869970249
 10
110.7181341954108
 20
-102.3994343819522
 10
110.7181341954108
 20
-102.3994343819522
 10
110.7181341954108
 20
-102.3994343819522
 10
109.6088134491603
 20
-102.3994343819522
 10
109.6088134491603
 20
-102.3994343819522
 10
109.6432644040128
 20
-102.0137559423785
 10
109.7138888614604
 20
-101.9291788482156
 10
110.1293673769815
 20
-101.6074069298933
 10
110.4053195253501
 20
-101.3929497359365
 10
110.4762884923462
 20
-101.3199137116492
 10
110.4762884923462
 20
-101.1716023510092
 10
110.4762884923462
 20
-101.0437893085064
 10
110.3987738439281
 20
-100.9021958840626
 10
110.1862114524882
 20
-100.9021958840626
 10
109.9054361704403
 20
-100.9021958840626
 10
109.8964789221787
 20
-101.1509317780977
 10
109.8920002980478
 20
-101.276505508535
 10
109.8920002980478
 20
-101.276505508535
 10
109.6498100854348
 20
-101.276505508535
 10
109.6498100854348
 20
-101.276505508535
 10
109.6591118432449
 20
-101.1395629629964
 10
109.6704806583463
 20
-101.0186401114641
 10
109.7572970645746
 20
-100.8908270689613
 10
109.8758083492672
 20
-100.717366511279
 10
110.0766574160572
 20
-100.6808484991354
 10
110.2024034012689
 20
-100.6808484991354
 10
110.5014376893885
 20
-100.6808484991354
 10
110.7250243863812
 20
-100.87945825386
 10
110.7250243863812
 20
-101.1738416630746
 10
110.7250243863812
 20
-101.4203382450442
 10
110.5992784011696
 20
-101.5274807146355
 10
110.266137667746
 20
-101.7717379845397
 97
        0
 97
        0
 75
     2
 76
     1
 98
        0
  0
SPLINE
  5
C7
330
C1
100
AcDbEntity
  8
_U+30EC_U+30A4_U+30E4_U+30FC 1
370
     0
100
AcDbSpline
210
0.0
220
0.0
230
1.0
 70
    11
 71
     3
 72
    53
 73
    49
 74
     0
 42
0.0000000001
 43
0.0000000001
 12
1.0
 22
0.0
 32
0.0
 13
1.0
 23
0.0
 33
0.0
 40
0.0
 40
0.0
 40
0.0
 40
0.0
 40
1.0
 40
1.0
 40
1.0
 40
2.0
 40
2.0
 40
2.0
 40
3.0
 40
3.0
 40
3.0
 40
4.0
 40
4.0
 40
4.0
 40
5.0
 40
5.0
 40
5.0
 40
6.0
 40
6.0
 40
6.0
 40
7.0
 40
7.0
 40
7.0
 40
8.0
 40
8.0
 40
8.0
 40
9.0
 40
9.0
 40
9.0
 40
10.0
 40
10.0
 40
10.0
 40
11.0
 40
11.0
 40
11.0
 40
12.0
 40
12.0
 40
12.0
 40
13.0
 40
13.0
 40
13.0
 40
14.0
 40
14.0
 40
14.0
 40
15.0
 40
15.0
 40
15.0
 40
16.0
 40
16.0
 40
16.0
 40
16.0
 10
111.4154215216253
 20
-102.4542114001677
 30
0.0
 10
111.3310166822367
 20
-102.4542114001677
 30
0.0
 10
111.2214626458057
 20
-102.4359523940959
 30
0.0
 10
111.1119086093748
 20
-102.3673949939394
 30
0.0
 10
110.9248399245257
 20
-102.2488837092468
 30
0.0
 10
110.9017577847746
 20
-102.107290284803
 30
0.0
 10
110.8814317214116
 20
-101.9908460574016
 30
0.0
 10
110.8814317214116
 20
-101.9908460574016
 30
0.0
 10
111.1208658576365
 20
-101.9908460574016
 30
0.0
 10
111.1208658576365
 20
-101.9908460574016
 30
0.0
 10
111.1804660095313
 20
-102.2054755061327
 30
0.0
 10
111.3172363002957
 20
-102.2373426393712
 30
0.0
 10
111.417833088465
 20
-102.2373426393712
 30
0.0
 10
111.5683837611704
 20
-102.2373426393712
 30
0.0
 10
111.7327148158168
 20
-102.1300279150057
 30
0.0
 10
111.7327148158168
 20
-101.8790527089052
 30
0.0
 10
111.7327148158168
 20
-101.6029283057625
 30
0.0
 10
111.5387559399973
 20
-101.5274807146355
 30
0.0
 10
111.4085313306548
 20
-101.5274807146355
 30
0.0
 10
111.3744248853508
 20
-101.5274807146355
 30
0.0
 10
111.2214626458057
 20
-101.5274807146355
 30
0.0
 10
111.1256889913158
 20
-101.6668348270139
 30
0.0
 10
111.1256889913158
 20
-101.6668348270139
 30
0.0
 10
110.9362087396271
 20
-101.6463365088766
 30
0.0
 10
110.9362087396271
 20
-101.6463365088766
 30
0.0
 10
110.9362087396271
 20
-101.6463365088766
 30
0.0
 10
111.0664333489695
 20
-100.7333862052854
 30
0.0
 10
111.0664333489695
 20
-100.7333862052854
 30
0.0
 10
111.0664333489695
 20
-100.7333862052854
 30
0.0
 10
111.9063476282734
 20
-100.7333862052854
 30
0.0
 10
111.9063476282734
 20
-100.7333862052854
 30
0.0
 10
111.9063476282734
 20
-100.7333862052854
 30
0.0
 10
111.9063476282734
 20
-100.9431925203371
 30
0.0
 10
111.9063476282734
 20
-100.9431925203371
 30
0.0
 10
111.9063476282734
 20
-100.9431925203371
 30
0.0
 10
111.2421332187172
 20
-100.9431925203371
 30
0.0
 10
111.2421332187172
 20
-100.9431925203371
 30
0.0
 10
111.2421332187172
 20
-100.9431925203371
 30
0.0
 10
111.1711642517211
 20
-101.3996676721327
 30
0.0
 10
111.1711642517211
 20
-101.3996676721327
 30
0.0
 10
111.2373100850379
 20
-101.3631496599891
 30
0.0
 10
111.3265380581059
 20
-101.3199137116492
 30
0.0
 10
111.4543511006086
 20
-101.3199137116492
 30
0.0
 10
111.728236191686
 20
-101.3199137116492
 30
0.0
 10
111.9838622766915
 20
-101.5207627784393
 30
0.0
 10
111.9838622766915
 20
-101.858554390768
 30
0.0
 10
111.9838622766915
 20
-102.2008246272276
 30
0.0
 10
111.7416720640785
 20
-102.4542114001677
 30
0.0
 10
111.4154215216253
 20
-102.4542114001677
 30
0.0
  0
HATCH
  5
C8
330
C1
100
AcDbEntity
  8
_U+30EC_U+30A4_U+30E4_U+30FC 1
 62
   179
420
  2234388
100
AcDbHatch
 10
0.0
 20
0.0
 30
0.0
210
0.0
220
0.0
230
1.0
  2
SOLID
 70
     1
 71
     0
 91
        1
 92
        1
 93
        1
 72
     4
 94
        3
 73
     0
 74
     1
 95
       53
 96
       49
 40
0.0
 40
0.0
 40
0.0
 40
0.0
 40
1.0
 40
1.0
 40
1.0
 40
2.0
 40
2.0
 40
2.0
 40
3.0
 40
3.0
 40
3.0
 40
4.0
 40
4.0
 40
4.0
 40
5.0
 40
5.0
 40
5.0
 40
6.0
 40
6.0
 40
6.0
 40
7.0
 40
7.0
 40
7.0
 40
8.0
 40
8.0
 40
8.0
 40
9.0
 40
9.0
 40
9.0
 40
10.0
 40
10.0
 40
10.0
 40
11.0
 40
11.0
 40
11.0
 40
12.0
 40
12.0
 40
12.0
 40
13.0
 40
13.0
 40
13.0
 40
14.0
 40
14.0
 40
14.0
 40
15.0
 40
15.0
 40
15.0
 40
16.0
 40
16.0
 40
16.0
 40
16.0
 10
111.4154215216253
 20
-102.4542114001677
 10
111.3310166822367
 20
-102.4542114001677
 10
111.2214626458057
 20
-102.4359523940959
 10
111.1119086093748
 20
-102.3673949939394
 10
110.9248399245257
 20
-102.2488837092468
 10
110.9017577847746
 20
-102.107290284803
 10
110.8814317214116
 20
-101.9908460574016
 10
110.8814317214116
 20
-101.9908460574016
 10
111.1208658576365
 20
-101.9908460574016
 10
111.1208658576365
 20
-101.9908460574016
 10
111.1804660095313
 20
-102.2054755061327
 10
111.3172363002957
 20
-102.2373426393712
 10
111.417833088465
 20
-102.2373426393712
 10
111.5683837611704
 20
-102.2373426393712
 10
111.7327148158168
 20
-102.1300279150057
 10
111.7327148158168
 20
-101.8790527089052
 10
111.7327148158168
 20
-101.6029283057625
 10
111.5387559399973
 20
-101.5274807146355
 10
111.4085313306548
 20
-101.5274807146355
 10
111.3744248853508
 20
-101.5274807146355
 10
111.2214626458057
 20
-101.5274807146355
 10
111.1256889913158
 20
-101.6668348270139
 10
111.1256889913158
 20
-101.6668348270139
 10
110.9362087396271
 20
-101.6463365088766
 10
110.9362087396271
 20
-101.6463365088766
 10
110.9362087396271
 20
-101.6463365088766
 10
111.0664333489695
 20
-100.7333862052854
 10
111.0664333489695
 20
-100.7333862052854
 10
111.0664333489695
 20
-100.7333862052854
 10
111.9063476282734
 20
-100.7333862052854
 10
111.9063476282734
 20
-100.7333862052854
 10
111.9063476282734
 20
-100.7333862052854
 10
111.9063476282734
 20
-100.9431925203371
 10
111.9063476282734
 20
-100.9431925203371
 10
111.9063476282734
 20
-100.9431925203371
 10
111.2421332187172
 20
-100.9431925203371
 10
111.2421332187172
 20
-100.9431925203371
 10
111.2421332187172
 20
-100.9431925203371
 10
111.1711642517211
 20
-101.3996676721327
 10
111.1711642517211
 20
-101.3996676721327
 10
111.2373100850379
 20
-101.3631496599891
 10
111.3265380581059
 20
-101.3199137116492
 10
111.4543511006086
 20
-101.3199137116492
 10
111.728236191686
 20
-101.3199137116492
 10
111.9838622766915
 20
-101.5207627784393
 10
111.9838622766915
 20
-101.858554390768
 10
111.9838622766915
 20
-102.2008246272276
 10
111.7416720640785
 20
-102.4542114001677
 10
111.4154215216253
 20
-102.4542114001677
 97
        0
 97
        0
 75
     2
 76
     1
 98
        0
  0
ENDBLK
  5
C4
330
C1
100
AcDbEntity
  8
0
100
AcDbBlockEnd
  0
BLOCK
  5
D7
330
D5
100
AcDbEntity
  8
0
100
AcDbBlockBegin
  2
block 6
 70
     0
 10
0.0
 20
0.0
 30
0.0
  3
block 6
  1

  0
SPLINE
  5
D9
330
D5
100
AcDbEntity
  8
_U+30EC_U+30A4_U+30E4_U+30FC 1
370
     0
100
AcDbSpline
210
0.0
220
0.0
230
1.0
 70
    11
 71
     3
 72
    26
 73
    22
 74
     0
 42
0.0000000001
 43
0.0000000001
 12
1.0
 22
0.0
 32
0.0
 13
1.0
 23
0.0
 33
0.0
 40
0.0
 40
0.0
 40
0.0
 40
0.0
 40
1.0
 40
1.0
 40
1.0
 40
2.0
 40
2.0
 40
2.0
 40
3.0
 40
3.0
 40
3.0
 40
4.0
 40
4.0
 40
4.0
 40
5.0
 40
5.0
 40
5.0
 40
6.0
 40
6.0
 40
6.0
 40
7.0
 40
7.0
 40
7.0
 40
7.0
 10
130.8016628362232
 20
-109.115820285221
 30
0.0
 10
130.8016628362232
 20
-109.115820285221
 30
0.0
 10
129.6103488174238
 20
-109.115820285221
 30
0.0
 10
129.6103488174238
 20
-109.115820285221
 30
0.0
 10
129.6103488174238
 20
-109.115820285221
 30
0.0
 10
129.6103488174238
 20
-109.4716986488474
 30
0.0
 10
129.6103488174238
 20
-109.4716986488474
 30
0.0
 10
129.6103488174238
 20
-109.4716986488474
 30
0.0
 10
129.4504963869082
 20
-109.4716986488474
 30
0.0
 10
129.4504963869082
 20
-109.4716986488474
 30
0.0
 10
129.4346489476761
 20
-109.1134087183814
 30
0.0
 10
129.2586045683798
 20
-109.0631103242967
 30
0.0
 10
129.1356146595564
 20
-109.0310709362839
 30
0.0
 10
129.1356146595564
 20
-109.0310709362839
 30
0.0
 10
129.1356146595564
 20
-108.873630072608
 30
0.0
 10
129.1356146595564
 20
-108.873630072608
 30
0.0
 10
129.1356146595564
 20
-108.873630072608
 30
0.0
 10
130.8016628362232
 20
-108.873630072608
 30
0.0
 10
130.8016628362232
 20
-108.873630072608
 30
0.0
 10
130.8016628362232
 20
-108.873630072608
 30
0.0
 10
130.8016628362232
 20
-109.115820285221
 30
0.0
 10
130.8016628362232
 20
-109.115820285221
 30
0.0
  0
HATCH
  5
DA
330
D5
100
AcDbEntity
  8
_U+30EC_U+30A4_U+30E4_U+30FC 1
 62
   179
420
  2234388
100
AcDbHatch
 10
0.0
 20
0.0
 30
0.0
210
0.0
220
0.0
230
1.0
  2
SOLID
 70
     1
 71
     0
 91
        1
 92
        1
 93
        1
 72
     4
 94
        3
 73
     0
 74
     1
 95
       26
 96
       22
 40
0.0
 40
0.0
 40
0.0
 40
0.0
 40
1.0
 40
1.0
 40
1.0
 40
2.0
 40
2.0
 40
2.0
 40
3.0
 40
3.0
 40
3.0
 40
4.0
 40
4.0
 40
4.0
 40
5.0
 40
5.0
 40
5.0
 40
6.0
 40
6.0
 40
6.0
 40
7.0
 40
7.0
 40
7.0
 40
7.0
 10
130.8016628362232
 20
-109.115820285221
 10
130.8016628362232
 20
-109.115820285221
 10
129.6103488174238
 20
-109.115820285221
 10
129.6103488174238
 20
-109.115820285221
 10
129.6103488174238
 20
-109.115820285221
 10
129.6103488174238
 20
-109.4716986488474
 10
129.6103488174238
 20
-109.4716986488474
 10
129.6103488174238
 20
-109.4716986488474
 10
129.4504963869082
 20
-109.4716986488474
 10
129.4504963869082
 20
-109.4716986488474
 10
129.4346489476761
 20
-109.1134087183814
 10
129.2586045683798
 20
-109.0631103242967
 10
129.1356146595564
 20
-109.0310709362839
 10
129.1356146595564
 20
-109.0310709362839
 10
129.1356146595564
 20
-108.873630072608
 10
129.1356146595564
 20
-108.873630072608
 10
129.1356146595564
 20
-108.873630072608
 10
130.8016628362232
 20
-108.873630072608
 10
130.8016628362232
 20
-108.873630072608
 10
130.8016628362232
 20
-108.873630072608
 10
130.8016628362232
 20
-109.115820285221
 10
130.8016628362232
 20
-109.115820285221
 97
        0
 97
        0
 75
     2
 76
     1
 98
        0
  0
POLYLINE
  5
DB
330
D5
100
AcDbEntity
  8
_U+30EC_U+30A4_U+30E4_U+30FC 1
370
     0
100
AcDb2dPolyline
 66
     1
 10
0.0
 20
0.0
 30
0.0
  0
VERTEX
  5
DC
330
DB
100
AcDbEntity
  8
_U+30EC_U+30A4_U+30E4_U+30FC 1
370
     0
100
AcDbVertex
100
AcDb2dVertex
 10
130.8016628362232
 20
-108.2676377767525
 30
0.0
  0
VERTEX
  5
DD
330
DB
100
AcDbEntity
  8
_U+30EC_U+30A4_U+30E4_U+30FC 1
370
     0
100
AcDbVertex
100
AcDb2dVertex
 10
130.5301893119855
 20
-108.2676377767525
 30
0.0
  0
VERTEX
  5
DE
330
DB
100
AcDbEntity
  8
_U+30EC_U+30A4_U+30E4_U+30FC 1
370
     0
100
AcDbVertex
100
AcDb2dVertex
 10
130.5301893119855
 20
-107.9961642525149
 30
0.0
  0
VERTEX
  5
DF
330
DB
100
AcDbEntity
  8
_U+30EC_U+30A4_U+30E4_U+30FC 1
370
     0
100
AcDbVertex
100
AcDb2dVertex
 10
130.8016628362232
 20
-107.9961642525149
 30
0.0
  0
VERTEX
  5
E0
330
DB
100
AcDbEntity
  8
_U+30EC_U+30A4_U+30E4_U+30FC 1
370
     0
100
AcDbVertex
100
AcDb2dVertex
 10
130.8016628362232
 20
-108.2676377767525
 30
0.0
  0
SEQEND
  5
E1
330
DB
100
AcDbEntity
  8
_U+30EC_U+30A4_U+30E4_U+30FC 1
370
     0
  0
HATCH
  5
E2
330
D5
100
AcDbEntity
  8
_U+30EC_U+30A4_U+30E4_U+30FC 1
 62
   179
420
  2234388
100
AcDbHatch
 10
0.0
 20
0.0
 30
0.0
210
0.0
220
0.0
230
1.0
  2
SOLID
 70
     1
 71
     0
 91
        1
 92
        1
 93
        4
 72
     1
 10
130.8016628362232
 20
-108.2676377767525
 11
130.5301893119855
 21
-108.2676377767525
 72
     1
 10
130.5301893119855
 20
-108.2676377767525
 11
130.5301893119855
 21
-107.9961642525149
 72
     1
 10
130.5301893119855
 20
-107.9961642525149
 11
130.8016628362232
 21
-107.9961642525149
 72
     1
 10
130.8016628362232
 20
-107.9961642525149
 11
130.8016628362232
 21
-108.2676377767525
 97
        0
 75
     2
 76
     1
 98
        0
  0
SPLINE
  5
E3
330
D5
100
AcDbEntity
  8
_U+30EC_U+30A4_U+30E4_U+30FC 1
370
     0
100
AcDbSpline
210
0.0
220
0.0
230
1.0
 70
    11
 71
     3
 72
    44
 73
    40
 74
     0
 42
0.0000000001
 43
0.0000000001
 12
1.0
 22
0.0
 32
0.0
 13
1.0
 23
0.0
 33
0.0
 40
0.0
 40
0.0
 40
0.0
 40
0.0
 40
1.0
 40
1.0
 40
1.0
 40
2.0
 40
2.0
 40
2.0
 40
3.0
 40
3.0
 40
3.0
 40
4.0
 40
4.0
 40
4.0
 40
5.0
 40
5.0
 40
5.0
 40
6.0
 40
6.0
 40
6.0
 40
7.0
 40
7.0
 40
7.0
 40
8.0
 40
8.0
 40
8.0
 40
9.0
 40
9.0
 40
9.0
 40
10.0
 40
10.0
 40
10.0
 40
11.0
 40
11.0
 40
11.0
 40
12.0
 40
12.0
 40
12.0
 40
13.0
 40
13.0
 40
13.0
 40
13.0
 10
130.1739664388107
 20
-107.1007839358984
 30
0.0
 10
130.3451876844276
 20
-107.3357394479925
 30
0.0
 10
130.4251138996854
 20
-107.4363362361618
 30
0.0
 10
130.5801431965216
 20
-107.4887016875376
 30
0.0
 10
130.5801431965216
 20
-107.4887016875376
 30
0.0
 10
130.5801431965216
 20
-106.6487874082336
 30
0.0
 10
130.5801431965216
 20
-106.6487874082336
 30
0.0
 10
130.5801431965216
 20
-106.6487874082336
 30
0.0
 10
130.8016628362232
 20
-106.6487874082336
 30
0.0
 10
130.8016628362232
 20
-106.6487874082336
 30
0.0
 10
130.8016628362232
 20
-106.6487874082336
 30
0.0
 10
130.8016628362232
 20
-107.7581081544841
 30
0.0
 10
130.8016628362232
 20
-107.7581081544841
 30
0.0
 10
130.4158121418752
 20
-107.7236571996316
 30
0.0
 10
130.3314073024866
 20
-107.653032742184
 30
0.0
 10
130.0096353841643
 20
-107.2375542266628
 30
0.0
 10
129.7950059354332
 20
-106.9616020782943
 30
0.0
 10
129.7219699111459
 20
-106.8906331112982
 30
0.0
 10
129.5738308052802
 20
-106.8906331112982
 30
0.0
 10
129.4460177627774
 20
-106.8906331112982
 30
0.0
 10
129.3044243383336
 20
-106.9681477597163
 30
0.0
 10
129.3044243383336
 20
-107.1807101511562
 30
0.0
 10
129.3044243383336
 20
-107.4614854332041
 30
0.0
 10
129.5531602323687
 20
-107.4704426814657
 30
0.0
 10
129.6789062175803
 20
-107.4749213055966
 30
0.0
 10
129.6789062175803
 20
-107.4749213055966
 30
0.0
 10
129.6789062175803
 20
-107.7171115182096
 30
0.0
 10
129.6789062175803
 20
-107.7171115182096
 30
0.0
 10
129.5417914172673
 20
-107.7078097603994
 30
0.0
 10
129.4208685657351
 20
-107.6964409452981
 30
0.0
 10
129.2930555232323
 20
-107.6096245390698
 30
0.0
 10
129.1194227107757
 20
-107.4911132543772
 30
0.0
 10
129.0829046986321
 20
-107.2902641875872
 30
0.0
 10
129.0829046986321
 20
-107.1645182023755
 30
0.0
 10
129.0829046986321
 20
-106.8654839142559
 30
0.0
 10
129.281686708131
 20
-106.6418972172631
 30
0.0
 10
129.5758978625713
 20
-106.6418972172631
 30
0.0
 10
129.8225666993152
 20
-106.6418972172631
 30
0.0
 10
129.9297091689065
 20
-106.7676432024748
 30
0.0
 10
130.1739664388107
 20
-107.1007839358984
 30
0.0
  0
HATCH
  5
E4
330
D5
100
AcDbEntity
  8
_U+30EC_U+30A4_U+30E4_U+30FC 1
 62
   179
420
  2234388
100
AcDbHatch
 10
0.0
 20
0.0
 30
0.0
210
0.0
220
0.0
230
1.0
  2
SOLID
 70
     1
 71
     0
 91
        1
 92
        1
 93
        1
 72
     4
 94
        3
 73
     0
 74
     1
 95
       44
 96
       40
 40
0.0
 40
0.0
 40
0.0
 40
0.0
 40
1.0
 40
1.0
 40
1.0
 40
2.0
 40
2.0
 40
2.0
 40
3.0
 40
3.0
 40
3.0
 40
4.0
 40
4.0
 40
4.0
 40
5.0
 40
5.0
 40
5.0
 40
6.0
 40
6.0
 40
6.0
 40
7.0
 40
7.0
 40
7.0
 40
8.0
 40
8.0
 40
8.0
 40
9.0
 40
9.0
 40
9.0
 40
10.0
 40
10.0
 40
10.0
 40
11.0
 40
11.0
 40
11.0
 40
12.0
 40
12.0
 40
12.0
 40
13.0
 40
13.0
 40
13.0
 40
13.0
 10
130.1739664388107
 20
-107.1007839358984
 10
130.3451876844276
 20
-107.3357394479925
 10
130.4251138996854
 20
-107.4363362361618
 10
130.5801431965216
 20
-107.4887016875376
 10
130.5801431965216
 20
-107.4887016875376
 10
130.5801431965216
 20
-106.6487874082336
 10
130.5801431965216
 20
-106.6487874082336
 10
130.5801431965216
 20
-106.6487874082336
 10
130.8016628362232
 20
-106.6487874082336
 10
130.8016628362232
 20
-106.6487874082336
 10
130.8016628362232
 20
-106.6487874082336
 10
130.8016628362232
 20
-107.7581081544841
 10
130.8016628362232
 20
-107.7581081544841
 10
130.4158121418752
 20
-107.7236571996316
 10
130.3314073024866
 20
-107.653032742184
 10
130.0096353841643
 20
-107.2375542266628
 10
129.7950059354332
 20
-106.9616020782943
 10
129.7219699111459
 20
-106.8906331112982
 10
129.5738308052802
 20
-106.8906331112982
 10
129.4460177627774
 20
-106.8906331112982
 10
129.3044243383336
 20
-106.9681477597163
 10
129.3044243383336
 20
-107.1807101511562
 10
129.3044243383336
 20
-107.4614854332041
 10
129.5531602323687
 20
-107.4704426814657
 10
129.6789062175803
 20
-107.4749213055966
 10
129.6789062175803
 20
-107.4749213055966
 10
129.6789062175803
 20
-107.7171115182096
 10
129.6789062175803
 20
-107.7171115182096
 10
129.5417914172673
 20
-107.7078097603994
 10
129.4208685657351
 20
-107.6964409452981
 10
129.2930555232323
 20
-107.6096245390698
 10
129.1194227107757
 20
-107.4911132543772
 10
129.0829046986321
 20
-107.2902641875872
 10
129.0829046986321
 20
-107.1645182023755
 10
129.0829046986321
 20
-106.8654839142559
 10
129.281686708131
 20
-106.6418972172631
 10
129.5758978625713
 20
-106.6418972172631
 10
129.8225666993152
 20
-106.6418972172631
 10
129.9297091689065
 20
-106.7676432024748
 10
130.1739664388107
 20
-107.1007839358984
 97
        0
 97
        0
 75
     2
 76
     1
 98
        0
  0
ENDBLK
  5
D8
330
D5
100
AcDbEntity
  8
0
100
AcDbBlockEnd
  0
BLOCK
  5
EF
330
ED
100
AcDbEntity
  8
0
100
AcDbBlockBegin
  2
block 7
 70
     0
 10
0.0
 20
0.0
 30
0.0
  3
block 7
  1

  0
SPLINE
  5
F1
330
ED
100
AcDbEntity
  8
_U+30EC_U+30A4_U+30E4_U+30FC 1
370
     0
100
AcDbSpline
210
0.0
220
0.0
230
1.0
 70
    11
 71
     3
 72
    53
 73
    49
 74
     0
 42
0.0000000001
 43
0.0000000001
 12
1.0
 22
0.0
 32
0.0
 13
1.0
 23
0.0
 33
0.0
 40
0.0
 40
0.0
 40
0.0
 40
0.0
 40
1.0
 40
1.0
 40
1.0
 40
2.0
 40
2.0
 40
2.0
 40
3.0
 40
3.0
 40
3.0
 40
4.0
 40
4.0
 40
4.0
 40
5.0
 40
5.0
 40
5.0
 40
6.0
 40
6.0
 40
6.0
 40
7.0
 40
7.0
 40
7.0
 40
8.0
 40
8.0
 40
8.0
 40
9.0
 40
9.0
 40
9.0
 40
10.0
 40
10.0
 40
10.0
 40
11.0
 40
11.0
 40
11.0
 40
12.0
 40
12.0
 40
12.0
 40
13.0
 40
13.0
 40
13.0
 40
14.0
 40
14.0
 40
14.0
 40
15.0
 40
15.0
 40
15.0
 40
16.0
 40
16.0
 40
16.0
 40
16.0
 10
126.8580620342577
 20
-133.7544541766308
 30
0.0
 10
126.8580620342577
 20
-133.8388590160195
 30
0.0
 10
126.8398030281859
 20
-133.9484130524504
 30
0.0
 10
126.7712456280294
 20
-134.0579670888814
 30
0.0
 10
126.6527343433368
 20
-134.2450357737304
 30
0.0
 10
126.511140918893
 20
-134.2677734039331
 30
0.0
 10
126.3946966914916
 20
-134.2884439768446
 30
0.0
 10
126.3946966914916
 20
-134.2884439768446
 30
0.0
 10
126.3946966914916
 20
-134.0486653310712
 30
0.0
 10
126.3946966914916
 20
-134.0486653310712
 30
0.0
 10
126.6093261402227
 20
-133.9894096887249
 30
0.0
 10
126.6413655282355
 20
-133.8526393979604
 30
0.0
 10
126.6413655282355
 20
-133.7520426097912
 30
0.0
 10
126.6413655282355
 20
-133.6014919370857
 30
0.0
 10
126.5338785490957
 20
-133.4371608824393
 30
0.0
 10
126.282731088221
 20
-133.4371608824393
 30
0.0
 10
126.0067789398525
 20
-133.4371608824393
 30
0.0
 10
125.9313313487255
 20
-133.6311197582589
 30
0.0
 10
125.9313313487255
 20
-133.7613443676013
 30
0.0
 10
125.9313313487255
 20
-133.7954508129053
 30
0.0
 10
125.9313313487255
 20
-133.9484130524504
 30
0.0
 10
126.0705132063296
 20
-134.0441867069403
 30
0.0
 10
126.0705132063296
 20
-134.0441867069403
 30
0.0
 10
126.0501871429666
 20
-134.2336669586291
 30
0.0
 10
126.0501871429666
 20
-134.2336669586291
 30
0.0
 10
126.0501871429666
 20
-134.2336669586291
 30
0.0
 10
125.1372368393754
 20
-134.1037868588352
 30
0.0
 10
125.1372368393754
 20
-134.1037868588352
 30
0.0
 10
125.1372368393754
 20
-134.1037868588352
 30
0.0
 10
125.1372368393754
 20
-133.2638725795313
 30
0.0
 10
125.1372368393754
 20
-133.2638725795313
 30
0.0
 10
125.1372368393754
 20
-133.2638725795313
 30
0.0
 10
125.3470431544271
 20
-133.2638725795313
 30
0.0
 10
125.3470431544271
 20
-133.2638725795313
 30
0.0
 10
125.3470431544271
 20
-133.2638725795313
 30
0.0
 10
125.3470431544271
 20
-133.9277424795389
 30
0.0
 10
125.3470431544271
 20
-133.9277424795389
 30
0.0
 10
125.3470431544271
 20
-133.9277424795389
 30
0.0
 10
125.8035183062227
 20
-133.9987114465351
 30
0.0
 10
125.8035183062227
 20
-133.9987114465351
 30
0.0
 10
125.7670002940791
 20
-133.9325656132183
 30
0.0
 10
125.7235920909649
 20
-133.8433376401503
 30
0.0
 10
125.7235920909649
 20
-133.7155245976475
 30
0.0
 10
125.7235920909649
 20
-133.4416395065701
 30
0.0
 10
125.924441157755
 20
-133.1860134215646
 30
0.0
 10
126.262405024858
 20
-133.1860134215646
 30
0.0
 10
126.6048475160919
 20
-133.1860134215646
 30
0.0
 10
126.8580620342577
 20
-133.4278591246292
 30
0.0
 10
126.8580620342577
 20
-133.7544541766308
 30
0.0
  0
HATCH
  5
F2
330
ED
100
AcDbEntity
  8
_U+30EC_U+30A4_U+30E4_U+30FC 1
 62
   179
420
  2234388
100
AcDbHatch
 10
0.0
 20
0.0
 30
0.0
210
0.0
220
0.0
230
1.0
  2
SOLID
 70
     1
 71
     0
 91
        1
 92
        1
 93
        1
 72
     4
 94
        3
 73
     0
 74
     1
 95
       53
 96
       49
 40
0.0
 40
0.0
 40
0.0
 40
0.0
 40
1.0
 40
1.0
 40
1.0
 40
2.0
 40
2.0
 40
2.0
 40
3.0
 40
3.0
 40
3.0
 40
4.0
 40
4.0
 40
4.0
 40
5.0
 40
5.0
 40
5.0
 40
6.0
 40
6.0
 40
6.0
 40
7.0
 40
7.0
 40
7.0
 40
8.0
 40
8.0
 40
8.0
 40
9.0
 40
9.0
 40
9.0
 40
10.0
 40
10.0
 40
10.0
 40
11.0
 40
11.0
 40
11.0
 40
12.0
 40
12.0
 40
12.0
 40
13.0
 40
13.0
 40
13.0
 40
14.0
 40
14.0
 40
14.0
 40
15.0
 40
15.0
 40
15.0
 40
16.0
 40
16.0
 40
16.0
 40
16.0
 10
126.8580620342577
 20
-133.7544541766308
 10
126.8580620342577
 20
-133.8388590160195
 10
126.8398030281859
 20
-133.9484130524504
 10
126.7712456280294
 20
-134.0579670888814
 10
126.6527343433368
 20
-134.2450357737304
 10
126.511140918893
 20
-134.2677734039331
 10
126.3946966914916
 20
-134.2884439768446
 10
126.3946966914916
 20
-134.2884439768446
 10
126.3946966914916
 20
-134.0486653310712
 10
126.3946966914916
 20
-134.0486653310712
 10
126.6093261402227
 20
-133.9894096887249
 10
126.6413655282355
 20
-133.8526393979604
 10
126.6413655282355
 20
-133.7520426097912
 10
126.6413655282355
 20
-133.6014919370857
 10
126.5338785490957
 20
-133.4371608824393
 10
126.282731088221
 20
-133.4371608824393
 10
126.0067789398525
 20
-133.4371608824393
 10
125.9313313487255
 20
-133.6311197582589
 10
125.9313313487255
 20
-133.7613443676013
 10
125.9313313487255
 20
-133.7954508129053
 10
125.9313313487255
 20
-133.9484130524504
 10
126.0705132063296
 20
-134.0441867069403
 10
126.0705132063296
 20
-134.0441867069403
 10
126.0501871429666
 20
-134.2336669586291
 10
126.0501871429666
 20
-134.2336669586291
 10
126.0501871429666
 20
-134.2336669586291
 10
125.1372368393754
 20
-134.1037868588352
 10
125.1372368393754
 20
-134.1037868588352
 10
125.1372368393754
 20
-134.1037868588352
 10
125.1372368393754
 20
-133.2638725795313
 10
125.1372368393754
 20
-133.2638725795313
 10
125.1372368393754
 20
-133.2638725795313
 10
125.3470431544271
 20
-133.2638725795313
 10
125.3470431544271
 20
-133.2638725795313
 10
125.3470431544271
 20
-133.2638725795313
 10
125.3470431544271
 20
-133.9277424795389
 10
125.3470431544271
 20
-133.9277424795389
 10
125.3470431544271
 20
-133.9277424795389
 10
125.8035183062227
 20
-133.9987114465351
 10
125.8035183062227
 20
-133.9987114465351
 10
125.7670002940791
 20
-133.9325656132183
 10
125.7235920909649
 20
-133.8433376401503
 10
125.7235920909649
 20
-133.7155245976475
 10
125.7235920909649
 20
-133.4416395065701
 10
125.924441157755
 20
-133.1860134215646
 10
126.262405024858
 20
-133.1860134215646
 10
126.6048475160919
 20
-133.1860134215646
 10
126.8580620342577
 20
-133.4278591246292
 10
126.8580620342577
 20
-133.7544541766308
 97
        0
 97
        0
 75
     2
 76
     1
 98
        0
  0
SPLINE
  5
F3
330
ED
100
AcDbEntity
  8
_U+30EC_U+30A4_U+30E4_U+30FC 1
370
     0
100
AcDbSpline
210
0.0
220
0.0
230
1.0
 70
    11
 71
     3
 72
    29
 73
    25
 74
     0
 42
0.0000000001
 43
0.0000000001
 12
1.0
 22
0.0
 32
0.0
 13
1.0
 23
0.0
 33
0.0
 40
0.0
 40
0.0
 40
0.0
 40
0.0
 40
1.0
 40
1.0
 40
1.0
 40
2.0
 40
2.0
 40
2.0
 40
3.0
 40
3.0
 40
3.0
 40
4.0
 40
4.0
 40
4.0
 40
5.0
 40
5.0
 40
5.0
 40
6.0
 40
6.0
 40
6.0
 40
7.0
 40
7.0
 40
7.0
 40
8.0
 40
8.0
 40
8.0
 40
8.0
 10
126.6113931975138
 20
-132.0346625103941
 30
0.0
 10
126.8373914613462
 20
-132.1511067377956
 30
0.0
 10
126.8580620342577
 20
-132.3381754226446
 30
0.0
 10
126.8580620342577
 20
-132.4635768983077
 30
0.0
 10
126.8580620342577
 20
-132.6372097107643
 30
0.0
 10
126.8077636401731
 20
-132.7901719503094
 30
0.0
 10
126.6113931975138
 20
-132.8928357957699
 30
0.0
 10
126.4015868824621
 20
-133.0044568894919
 30
0.0
 10
126.1459607974566
 20
-133.0251274624034
 30
0.0
 10
125.9702609277088
 20
-133.0251274624034
 30
0.0
 10
125.8148871213241
 20
-133.0251274624034
 30
0.0
 10
125.5434135970864
 20
-133.0068684563316
 30
0.0
 10
125.3287841483553
 20
-132.8928357957699
 30
0.0
 10
125.1096760754934
 20
-132.7763915683684
 30
0.0
 10
125.0845268784511
 20
-132.6027587559118
 30
0.0
 10
125.0845268784511
 20
-132.4635768983077
 30
0.0
 10
125.0845268784511
 20
-132.2923556526908
 30
0.0
 10
125.1327582152446
 20
-132.1373263558546
 30
0.0
 10
125.3287841483553
 20
-132.0346625103941
 30
0.0
 10
125.5365234061159
 20
-131.9271755312543
 30
0.0
 10
125.7831922428598
 20
-131.9023708437605
 30
0.0
 10
125.9702609277088
 20
-131.9023708437605
 30
0.0
 10
126.1552625552667
 20
-131.9023708437605
 30
0.0
 10
126.4039984493018
 20
-131.9251084739632
 30
0.0
 10
126.6113931975138
 20
-132.0346625103941
 30
0.0
  0
SPLINE
  5
F4
330
ED
100
AcDbEntity
  8
_U+30EC_U+30A4_U+30E4_U+30FC 1
370
     0
100
AcDbSpline
210
0.0
220
0.0
230
1.0
 70
    11
 71
     3
 72
    17
 73
    13
 74
     0
 42
0.0000000001
 43
0.0000000001
 12
1.0
 22
0.0
 32
0.0
 13
1.0
 23
0.0
 33
0.0
 40
0.0
 40
0.0
 40
0.0
 40
0.0
 40
1.0
 40
1.0
 40
1.0
 40
2.0
 40
2.0
 40
2.0
 40
3.0
 40
3.0
 40
3.0
 40
4.0
 40
4.0
 40
4.0
 40
4.0
 10
125.2922661362117
 20
-132.4635768983077
 30
0.0
 10
125.2922661362117
 20
-132.7329833652543
 30
0.0
 10
125.5981906153018
 20
-132.7832817593389
 30
0.0
 10
125.9702609277088
 20
-132.7832817593389
 30
0.0
 10
126.3147704762338
 20
-132.7832817593389
 30
0.0
 10
126.6479112096575
 20
-132.7443521803556
 30
0.0
 10
126.6479112096575
 20
-132.4635768983077
 30
0.0
 10
126.6479112096575
 20
-132.1965819982009
 30
0.0
 10
126.344398297407
 20
-132.144216546825
 30
0.0
 10
125.9702609277088
 20
-132.144216546825
 30
0.0
 10
125.6254068696353
 20
-132.144216546825
 30
0.0
 10
125.2922661362117
 20
-132.1852131830995
 30
0.0
 10
125.2922661362117
 20
-132.4635768983077
 30
0.0
  0
HATCH
  5
F5
330
ED
100
AcDbEntity
  8
_U+30EC_U+30A4_U+30E4_U+30FC 1
 62
   179
420
  2234388
100
AcDbHatch
 10
0.0
 20
0.0
 30
0.0
210
0.0
220
0.0
230
1.0
  2
SOLID
 70
     1
 71
     0
 91
        2
 92
        1
 93
        1
 72
     4
 94
        3
 73
     0
 74
     1
 95
       29
 96
       25
 40
0.0
 40
0.0
 40
0.0
 40
0.0
 40
1.0
 40
1.0
 40
1.0
 40
2.0
 40
2.0
 40
2.0
 40
3.0
 40
3.0
 40
3.0
 40
4.0
 40
4.0
 40
4.0
 40
5.0
 40
5.0
 40
5.0
 40
6.0
 40
6.0
 40
6.0
 40
7.0
 40
7.0
 40
7.0
 40
8.0
 40
8.0
 40
8.0
 40
8.0
 10
126.6113931975138
 20
-132.0346625103941
 10
126.8373914613462
 20
-132.1511067377956
 10
126.8580620342577
 20
-132.3381754226446
 10
126.8580620342577
 20
-132.4635768983077
 10
126.8580620342577
 20
-132.6372097107643
 10
126.8077636401731
 20
-132.7901719503094
 10
126.6113931975138
 20
-132.8928357957699
 10
126.4015868824621
 20
-133.0044568894919
 10
126.1459607974566
 20
-133.0251274624034
 10
125.9702609277088
 20
-133.0251274624034
 10
125.8148871213241
 20
-133.0251274624034
 10
125.5434135970864
 20
-133.0068684563316
 10
125.3287841483553
 20
-132.8928357957699
 10
125.1096760754934
 20
-132.7763915683684
 10
125.0845268784511
 20
-132.6027587559118
 10
125.0845268784511
 20
-132.4635768983077
 10
125.0845268784511
 20
-132.2923556526908
 10
125.1327582152446
 20
-132.1373263558546
 10
125.3287841483553
 20
-132.0346625103941
 10
125.5365234061159
 20
-131.9271755312543
 10
125.7831922428598
 20
-131.9023708437605
 10
125.9702609277088
 20
-131.9023708437605
 10
126.1552625552667
 20
-131.9023708437605
 10
126.4039984493018
 20
-131.9251084739632
 10
126.6113931975138
 20
-132.0346625103941
 97
        0
 97
        0
 92
        1
 93
        1
 72
     4
 94
        3
 73
     0
 74
     1
 95
       17
 96
       13
 40
0.0
 40
0.0
 40
0.0
 40
0.0
 40
1.0
 40
1.0
 40
1.0
 40
2.0
 40
2.0
 40
2.0
 40
3.0
 40
3.0
 40
3.0
 40
4.0
 40
4.0
 40
4.0
 40
4.0
 10
125.2922661362117
 20
-132.4635768983077
 10
125.2922661362117
 20
-132.7329833652543
 10
125.5981906153018
 20
-132.7832817593389
 10
125.9702609277088
 20
-132.7832817593389
 10
126.3147704762338
 20
-132.7832817593389
 10
126.6479112096575
 20
-132.7443521803556
 10
126.6479112096575
 20
-132.4635768983077
 10
126.6479112096575
 20
-132.1965819982009
 10
126.344398297407
 20
-132.144216546825
 10
125.9702609277088
 20
-132.144216546825
 10
125.6254068696353
 20
-132.144216546825
 10
125.2922661362117
 20
-132.1852131830995
 10
125.2922661362117
 20
-132.4635768983077
 97
        0
 97
        0
 75
     2
 76
     1
 98
        0
  0
ENDBLK
  5
F0
330
ED
100
AcDbEntity
  8
0
100
AcDbBlockEnd
  0
ENDSEC
  0
SECTION
  2
ENTITIES
  0
SPLINE
  5
41
330
1F
100
AcDbEntity
  8
_U+30EC_U+30A4_U+30E4_U+30FC 1
370
     0
100
AcDbSpline
210
0.0
220
0.0
230
1.0
 70
    11
 71
     3
 72
    47
 73
    43
 74
     0
 42
0.0000000001
 43
0.0000000001
 12
1.0
 22
0.0
 32
0.0
 13
1.0
 23
0.0
 33
0.0
 40
0.0
 40
0.0
 40
0.0
 40
0.0
 40
1.0
 40
1.0
 40
1.0
 40
2.0
 40
2.0
 40
2.0
 40
3.0
 40
3.0
 40
3.0
 40
4.0
 40
4.0
 40
4.0
 40
5.0
 40
5.0
 40
5.0
 40
6.0
 40
6.0
 40
6.0
 40
7.0
 40
7.0
 40
7.0
 40
8.0
 40
8.0
 40
8.0
 40
9.0
 40
9.0
 40
9.0
 40
10.0
 40
10.0
 40
10.0
 40
11.0
 40
11.0
 40
11.0
 40
12.0
 40
12.0
 40
12.0
 40
13.0
 40
13.0
 40
13.0
 40
14.0
 40
14.0
 40
14.0
 40
14.0
 10
98.30166638100445
 20
-155.8974741276923
 30
0.0
 10
98.30166638100445
 20
-156.4493596831096
 30
0.0
 10
97.8538150035412
 20
-156.8972110718867
 30
0.0
 10
97.30122390652787
 20
-156.8972110718867
 30
0.0
 10
97.30122390652787
 20
-156.8972110718867
 30
0.0
 10
74.30159504885283
 20
-156.8972110718867
 30
0.0
 10
74.30159504885283
 20
-156.8972110718867
 30
0.0
 10
73.74896867406261
 20
-156.8972110718867
 30
0.0
 10
73.30111729659937
 20
-156.4493596831096
 30
0.0
 10
73.30111729659937
 20
-155.8974741276923
 30
0.0
 10
73.30111729659937
 20
-155.8974741276923
 30
0.0
 10
73.30111729659937
 20
-106.8971699732756
 30
0.0
 10
73.30111729659937
 20
-106.8971699732756
 30
0.0
 10
73.30111729659937
 20
-106.8971699732756
 30
0.0
 10
48.30127498792481
 20
-106.8971699732756
 30
0.0
 10
48.30127498792481
 20
-106.8971699732756
 30
0.0
 10
48.30127498792481
 20
-106.8971699732756
 30
0.0
 10
48.30127498792481
 20
-108.0974610840866
 30
0.0
 10
48.30127498792481
 20
-108.0974610840866
 30
0.0
 10
48.30127498792481
 20
-108.0974610840866
 30
0.0
 10
72.10170816053218
 20
-108.0974610840866
 30
0.0
 10
72.10170816053218
 20
-108.0974610840866
 30
0.0
 10
72.10170816053218
 20
-108.0974610840866
 30
0.0
 10
72.10170816053218
 20
-158.097502182698
 30
0.0
 10
72.10170816053218
 20
-158.097502182698
 30
0.0
 10
72.10170816053218
 20
-158.097502182698
 30
0.0
 10
99.50125190595602
 20
-158.097502182698
 30
0.0
 10
99.50125190595602
 20
-158.097502182698
 30
0.0
 10
99.50125190595602
 20
-158.097502182698
 30
0.0
 10
99.50125190595602
 20
-108.0974610840866
 30
0.0
 10
99.50125190595602
 20
-108.0974610840866
 30
0.0
 10
99.50125190595602
 20
-108.0974610840866
 30
0.0
 10
123.3013335209876
 20
-108.0974610840866
 30
0.0
 10
123.3013335209876
 20
-108.0974610840866
 30
0.0
 10
123.3013335209876
 20
-108.0974610840866
 30
0.0
 10
123.3013335209876
 20
-106.8971699732756
 30
0.0
 10
123.3013335209876
 20
-106.8971699732756
 30
0.0
 10
123.3013335209876
 20
-106.8971699732756
 30
0.0
 10
98.30166638100445
 20
-106.8971699732756
 30
0.0
 10
98.30166638100445
 20
-106.8971699732756
 30
0.0
 10
98.30166638100445
 20
-106.8971699732756
 30
0.0
 10
98.30166638100445
 20
-155.8974741276923
 30
0.0
 10
98.30166638100445
 20
-155.8974741276923
 30
0.0
  0
HATCH
  5
42
330
1F
100
AcDbEntity
  8
_U+30EC_U+30A4_U+30E4_U+30FC 1
 62
   253
420
 11711154
100
AcDbHatch
 10
0.0
 20
0.0
 30
0.0
210
0.0
220
0.0
230
1.0
  2
SOLID
 70
     1
 71
     0
 91
        1
 92
        1
 93
        1
 72
     4
 94
        3
 73
     0
 74
     1
 95
       47
 96
       43
 40
0.0
 40
0.0
 40
0.0
 40
0.0
 40
1.0
 40
1.0
 40
1.0
 40
2.0
 40
2.0
 40
2.0
 40
3.0
 40
3.0
 40
3.0
 40
4.0
 40
4.0
 40
4.0
 40
5.0
 40
5.0
 40
5.0
 40
6.0
 40
6.0
 40
6.0
 40
7.0
 40
7.0
 40
7.0
 40
8.0
 40
8.0
 40
8.0
 40
9.0
 40
9.0
 40
9.0
 40
10.0
 40
10.0
 40
10.0
 40
11.0
 40
11.0
 40
11.0
 40
12.0
 40
12.0
 40
12.0
 40
13.0
 40
13.0
 40
13.0
 40
14.0
 40
14.0
 40
14.0
 40
14.0
 10
98.30166638100445
 20
-155.8974741276923
 10
98.30166638100445
 20
-156.4493596831096
 10
97.8538150035412
 20
-156.8972110718867
 10
97.30122390652787
 20
-156.8972110718867
 10
97.30122390652787
 20
-156.8972110718867
 10
74.30159504885283
 20
-156.8972110718867
 10
74.30159504885283
 20
-156.8972110718867
 10
73.74896867406261
 20
-156.8972110718867
 10
73.30111729659937
 20
-156.4493596831096
 10
73.30111729659937
 20
-155.8974741276923
 10
73.30111729659937
 20
-155.8974741276923
 10
73.30111729659937
 20
-106.8971699732756
 10
73.30111729659937
 20
-106.8971699732756
 10
73.30111729659937
 20
-106.8971699732756
 10
48.30127498792481
 20
-106.8971699732756
 10
48.30127498792481
 20
-106.8971699732756
 10
48.30127498792481
 20
-106.8971699732756
 10
48.30127498792481
 20
-108.0974610840866
 10
48.30127498792481
 20
-108.0974610840866
 10
48.30127498792481
 20
-108.0974610840866
 10
72.10170816053218
 20
-108.0974610840866
 10
72.10170816053218
 20
-108.0974610840866
 10
72.10170816053218
 20
-108.0974610840866
 10
72.10170816053218
 20
-158.097502182698
 10
72.10170816053218
 20
-158.097502182698
 10
72.10170816053218
 20
-158.097502182698
 10
99.50125190595602
 20
-158.097502182698
 10
99.50125190595602
 20
-158.097502182698
 10
99.50125190595602
 20
-158.097502182698
 10
99.50125190595602
 20
-108.0974610840866
 10
99.50125190595602
 20
-108.0974610840866
 10
99.50125190595602
 20
-108.0974610840866
 10
123.3013335209876
 20
-108.0974610840866
 10
123.3013335209876
 20
-108.0974610840866
 10
123.3013335209876
 20
-108.0974610840866
 10
123.3013335209876
 20
-106.8971699732756
 10
123.3013335209876
 20
-106.8971699732756
 10
123.3013335209876
 20
-106.8971699732756
 10
98.30166638100445
 20
-106.8971699732756
 10
98.30166638100445
 20
-106.8971699732756
 10
98.30166638100445
 20
-106.8971699732756
 10
98.30166638100445
 20
-155.8974741276923
 10
98.30166638100445
 20
-155.8974741276923
 97
        0
 97
        0
 75
     2
 76
     1
 98
        0
  0
POLYLINE
  5
43
330
1F
100
AcDbEntity
  8
_U+30EC_U+30A4_U+30E4_U+30FC 1
 62
   179
420
  2234388
370
    25
100
AcDb2dPolyline
 66
     1
 10
0.0
 20
0.0
 30
0.0
  0
VERTEX
  5
44
330
43
100
AcDbEntity
  8
_U+30EC_U+30A4_U+30E4_U+30FC 1
 62
   179
420
  2234388
370
    25
100
AcDbVertex
100
AcDb2dVertex
 10
72.10170816053218
 20
-158.097502182698
 30
0.0
  0
VERTEX
  5
45
330
43
100
AcDbEntity
  8
_U+30EC_U+30A4_U+30E4_U+30FC 1
 62
   179
420
  2234388
370
    25
100
AcDbVertex
100
AcDb2dVertex
 10
99.50125190595602
 20
-158.097502182698
 30
0.0
  0
SEQEND
  5
46
330
43
100
AcDbEntity
  8
_U+30EC_U+30A4_U+30E4_U+30FC 1
 62
   179
420
  2234388
370
    25
  0
POLYLINE
  5
47
330
1F
100
AcDbEntity
  8
_U+30EC_U+30A4_U+30E4_U+30FC 1
 62
   179
420
  2234388
370
    25
100
AcDb2dPolyline
 66
     1
 10
0.0
 20
0.0
 30
0.0
  0
VERTEX
  5
48
330
47
100
AcDbEntity
  8
_U+30EC_U+30A4_U+30E4_U+30FC 1
 62
   179
420
  2234388
370
    25
100
AcDbVertex
100
AcDb2dVertex
 10
48.30127498792481
 20
-108.0974610840866
 30
0.0
  0
VERTEX
  5
49
330
47
100
AcDbEntity
  8
_U+30EC_U+30A4_U+30E4_U+30FC 1
 62
   179
420
  2234388
370
    25
100
AcDbVertex
100
AcDb2dVertex
 10
72.10170816053218
 20
-108.0974610840866
 30
0.0
  0
SEQEND
  5
4A
330
47
100
AcDbEntity
  8
_U+30EC_U+30A4_U+30E4_U+30FC 1
 62
   179
420
  2234388
370
    25
  0
POLYLINE
  5
4B
330
1F
100
AcDbEntity
  8
_U+30EC_U+30A4_U+30E4_U+30FC 1
 62
   179
420
  2234388
370
    25
100
AcDb2dPolyline
 66
     1
 10
0.0
 20
0.0
 30
0.0
  0
VERTEX
  5
4C
330
4B
100
AcDbEntity
  8
_U+30EC_U+30A4_U+30E4_U+30FC 1
 62
   179
420
  2234388
370
    25
100
AcDbVertex
100
AcDb2dVertex
 10
48.30127498792481
 20
-106.8971699732756
 30
0.0
  0
VERTEX
  5
4D
330
4B
100
AcDbEntity
  8
_U+30EC_U+30A4_U+30E4_U+30FC 1
 62
   179
420
  2234388
370
    25
100
AcDbVertex
100
AcDb2dVertex
 10
73.30111729659937
 20
-106.8971699732756
 30
0.0
  0
SEQEND
  5
4E
330
4B
100
AcDbEntity
  8
_U+30EC_U+30A4_U+30E4_U+30FC 1
 62
   179
420
  2234388
370
    25
  0
POLYLINE
  5
4F
330
1F
100
AcDbEntity
  8
_U+30EC_U+30A4_U+30E4_U+30FC 1
 62
   179
420
  2234388
370
    25
100
AcDb2dPolyline
 66
     1
 10
0.0
 20
0.0
 30
0.0
  0
VERTEX
  5
50
330
4F
100
AcDbEntity
  8
_U+30EC_U+30A4_U+30E4_U+30FC 1
 62
   179
420
  2234388
370
    25
100
AcDbVertex
100
AcDb2dVertex
 10
98.30166638100445
 20
-106.8971699732756
 30
0.0
  0
VERTEX
  5
51
330
4F
100
AcDbEntity
  8
_U+30EC_U+30A4_U+30E4_U+30FC 1
 62
   179
420
  2234388
370
    25
100
AcDbVertex
100
AcDb2dVertex
 10
98.30166638100445
 20
-155.8974741276923
 30
0.0
  0
SEQEND
  5
52
330
4F
100
AcDbEntity
  8
_U+30EC_U+30A4_U+30E4_U+30FC 1
 62
   179
420
  2234388
370
    25
  0
POLYLINE
  5
53
330
1F
100
AcDbEntity
  8
_U+30EC_U+30A4_U+30E4_U+30FC 1
 62
   179
420
  2234388
370
    25
100
AcDb2dPolyline
 66
     1
 10
0.0
 20
0.0
 30
0.0
  0
VERTEX
  5
54
330
53
100
AcDbEntity
  8
_U+30EC_U+30A4_U+30E4_U+30FC 1
 62
   179
420
  2234388
370
    25
100
AcDbVertex
100
AcDb2dVertex
 10
73.30111729659937
 20
-106.8971699732756
 30
0.0
  0
VERTEX
  5
55
330
53
100
AcDbEntity
  8
_U+30EC_U+30A4_U+30E4_U+30FC 1
 62
   179
420
  2234388
370
    25
100
AcDbVertex
100
AcDb2dVertex
 10
73.30111729659937
 20
-155.8974741276923
 30
0.0
  0
SEQEND
  5
56
330
53
100
AcDbEntity
  8
_U+30EC_U+30A4_U+30E4_U+30FC 1
 62
   179
420
  2234388
370
    25
  0
POLYLINE
  5
57
330
1F
100
AcDbEntity
  8
_U+30EC_U+30A4_U+30E4_U+30FC 1
 62
   179
420
  2234388
370
    25
100
AcDb2dPolyline
 66
     1
 10
0.0
 20
0.0
 30
0.0
  0
VERTEX
  5
58
330
57
100
AcDbEntity
  8
_U+30EC_U+30A4_U+30E4_U+30FC 1
 62
   179
420
  2234388
370
    25
100
AcDbVertex
100
AcDb2dVertex
 10
123.3013335209876
 20
-106.8971699732756
 30
0.0
  0
VERTEX
  5
59
330
57
100
AcDbEntity
  8
_U+30EC_U+30A4_U+30E4_U+30FC 1
 62
   179
420
  2234388
370
    25
100
AcDbVertex
100
AcDb2dVertex
 10
123.3013335209876
 20
-108.0974610840866
 30
0.0
  0
SEQEND
  5
5A
330
57
100
AcDbEntity
  8
_U+30EC_U+30A4_U+30E4_U+30FC 1
 62
   179
420
  2234388
370
    25
  0
POLYLINE
  5
5B
330
1F
100
AcDbEntity
  8
_U+30EC_U+30A4_U+30E4_U+30FC 1
 62
   179
420
  2234388
370
    25
100
AcDb2dPolyline
 66
     1
 10
0.0
 20
0.0
 30
0.0
  0
VERTEX
  5
5C
330
5B
100
AcDbEntity
  8
_U+30EC_U+30A4_U+30E4_U+30FC 1
 62
   179
420
  2234388
370
    25
100
AcDbVertex
100
AcDb2dVertex
 10
48.30127498792481
 20
-106.8971699732756
 30
0.0
  0
VERTEX
  5
5D
330
5B
100
AcDbEntity
  8
_U+30EC_U+30A4_U+30E4_U+30FC 1
 62
   179
420
  2234388
370
    25
100
AcDbVertex
100
AcDb2dVertex
 10
48.30127498792481
 20
-108.0974610840866
 30
0.0
  0
SEQEND
  5
5E
330
5B
100
AcDbEntity
  8
_U+30EC_U+30A4_U+30E4_U+30FC 1
 62
   179
420
  2234388
370
    25
  0
POLYLINE
  5
5F
330
1F
100
AcDbEntity
  8
_U+30EC_U+30A4_U+30E4_U+30FC 1
 62
   179
420
  2234388
370
    25
100
AcDb2dPolyline
 66
     1
 10
0.0
 20
0.0
 30
0.0
  0
VERTEX
  5
60
330
5F
100
AcDbEntity
  8
_U+30EC_U+30A4_U+30E4_U+30FC 1
 62
   179
420
  2234388
370
    25
100
AcDbVertex
100
AcDb2dVertex
 10
99.50125190595602
 20
-108.0974610840866
 30
0.0
  0
VERTEX
  5
61
330
5F
100
AcDbEntity
  8
_U+30EC_U+30A4_U+30E4_U+30FC 1
 62
   179
420
  2234388
370
    25
100
AcDbVertex
100
AcDb2dVertex
 10
99.50125190595602
 20
-158.097502182698
 30
0.0
  0
SEQEND
  5
62
330
5F
100
AcDbEntity
  8
_U+30EC_U+30A4_U+30E4_U+30FC 1
 62
   179
420
  2234388
370
    25
  0
POLYLINE
  5
63
330
1F
100
AcDbEntity
  8
_U+30EC_U+30A4_U+30E4_U+30FC 1
 62
   179
420
  2234388
370
    25
100
AcDb2dPolyline
 66
     1
 10
0.0
 20
0.0
 30
0.0
  0
VERTEX
  5
64
330
63
100
AcDbEntity
  8
_U+30EC_U+30A4_U+30E4_U+30FC 1
 62
   179
420
  2234388
370
    25
100
AcDbVertex
100
AcDb2dVertex
 10
99.50125190595602
 20
-108.0974610840866
 30
0.0
  0
VERTEX
  5
65
330
63
100
AcDbEntity
  8
_U+30EC_U+30A4_U+30E4_U+30FC 1
 62
   179
420
  2234388
370
    25
100
AcDbVertex
100
AcDb2dVertex
 10
123.3013335209876
 20
-108.0974610840866
 30
0.0
  0
SEQEND
  5
66
330
63
100
AcDbEntity
  8
_U+30EC_U+30A4_U+30E4_U+30FC 1
 62
   179
420
  2234388
370
    25
  0
POLYLINE
  5
67
330
1F
100
AcDbEntity
  8
_U+30EC_U+30A4_U+30E4_U+30FC 1
 62
   179
420
  2234388
370
    25
100
AcDb2dPolyline
 66
     1
 10
0.0
 20
0.0
 30
0.0
  0
VERTEX
  5
68
330
67
100
AcDbEntity
  8
_U+30EC_U+30A4_U+30E4_U+30FC 1
 62
   179
420
  2234388
370
    25
100
AcDbVertex
100
AcDb2dVertex
 10
98.30166638100445
 20
-106.8971699732756
 30
0.0
  0
VERTEX
  5
69
330
67
100
AcDbEntity
  8
_U+30EC_U+30A4_U+30E4_U+30FC 1
 62
   179
420
  2234388
370
    25
100
AcDbVertex
100
AcDb2dVertex
 10
123.3013335209876
 20
-106.8971699732756
 30
0.0
  0
SEQEND
  5
6A
330
67
100
AcDbEntity
  8
_U+30EC_U+30A4_U+30E4_U+30FC 1
 62
   179
420
  2234388
370
    25
  0
POLYLINE
  5
6B
330
1F
100
AcDbEntity
  8
_U+30EC_U+30A4_U+30E4_U+30FC 1
 62
   179
420
  2234388
370
    25
100
AcDb2dPolyline
 66
     1
 10
0.0
 20
0.0
 30
0.0
  0
VERTEX
  5
6C
330
6B
100
AcDbEntity
  8
_U+30EC_U+30A4_U+30E4_U+30FC 1
 62
   179
420
  2234388
370
    25
100
AcDbVertex
100
AcDb2dVertex
 10
72.10170816053218
 20
-108.0974610840866
 30
0.0
  0
VERTEX
  5
6D
330
6B
100
AcDbEntity
  8
_U+30EC_U+30A4_U+30E4_U+30FC 1
 62
   179
420
  2234388
370
    25
100
AcDbVertex
100
AcDb2dVertex
 10
72.10170816053218
 20
-158.097502182698
 30
0.0
  0
SEQEND
  5
6E
330
6B
100
AcDbEntity
  8
_U+30EC_U+30A4_U+30E4_U+30FC 1
 62
   179
420
  2234388
370
    25
  0
POLYLINE
  5
6F
330
1F
100
AcDbEntity
  8
_U+30EC_U+30A4_U+30E4_U+30FC 1
 62
   179
420
  2234388
370
    25
100
AcDb2dPolyline
 66
     1
 10
0.0
 20
0.0
 30
0.0
  0
VERTEX
  5
70
330
6F
100
AcDbEntity
  8
_U+30EC_U+30A4_U+30E4_U+30FC 1
 62
   179
420
  2234388
370
    25
100
AcDbVertex
100
AcDb2dVertex
 10
74.30159504885283
 20
-156.8972110718867
 30
0.0
  0
VERTEX
  5
71
330
6F
100
AcDbEntity
  8
_U+30EC_U+30A4_U+30E4_U+30FC 1
 62
   179
420
  2234388
370
    25
100
AcDbVertex
100
AcDb2dVertex
 10
97.30122390652787
 20
-156.8972110718867
 30
0.0
  0
SEQEND
  5
72
330
6F
100
AcDbEntity
  8
_U+30EC_U+30A4_U+30E4_U+30FC 1
 62
   179
420
  2234388
370
    25
  0
POLYLINE
  5
73
330
1F
100
AcDbEntity
  8
_U+30EC_U+30A4_U+30E4_U+30FC 1
 62
   179
420
  2234388
370
     9
100
AcDb2dPolyline
 66
     1
 10
0.0
 20
0.0
 30
0.0
  0
VERTEX
  5
74
330
73
100
AcDbEntity
  8
_U+30EC_U+30A4_U+30E4_U+30FC 1
 62
   179
420
  2234388
370
     9
100
AcDbVertex
100
AcDb2dVertex
 10
73.59462840022239
 20
-156.6044055164043
 30
0.0
  0
VERTEX
  5
75
330
73
100
AcDbEntity
  8
_U+30EC_U+30A4_U+30E4_U+30FC 1
 62
   179
420
  2234388
370
     9
100
AcDbVertex
100
AcDb2dVertex
 10
74.09419699858844
 20
-155.7383007943989
 30
0.0
  0
SEQEND
  5
76
330
73
100
AcDbEntity
  8
_U+30EC_U+30A4_U+30E4_U+30FC 1
 62
   179
420
  2234388
370
     9
  0
POLYLINE
  5
77
330
1F
100
AcDbEntity
  8
_U+30EC_U+30A4_U+30E4_U+30FC 1
 62
   179
420
  2234388
370
     9
100
AcDb2dPolyline
 66
     1
 10
0.0
 20
0.0
 30
0.0
  0
VERTEX
  5
78
330
77
100
AcDbEntity
  8
_U+30EC_U+30A4_U+30E4_U+30FC 1
 62
   179
420
  2234388
370
     9
100
AcDbVertex
100
AcDb2dVertex
 10
73.59462840022239
 20
-156.6044055164043
 30
0.0
  0
VERTEX
  5
79
330
77
100
AcDbEntity
  8
_U+30EC_U+30A4_U+30E4_U+30FC 1
 62
   179
420
  2234388
370
     9
100
AcDbVertex
100
AcDb2dVertex
 10
74.46006282258776
 20
-156.1041666276406
 30
0.0
  0
SEQEND
  5
7A
330
77
100
AcDbEntity
  8
_U+30EC_U+30A4_U+30E4_U+30FC 1
 62
   179
420
  2234388
370
     9
  0
SPLINE
  5
7B
330
1F
100
AcDbEntity
  8
_U+30EC_U+30A4_U+30E4_U+30FC 1
 62
   179
420
  2234388
370
    25
100
AcDbSpline
210
0.0
220
0.0
230
1.0
 70
     8
 71
     3
 72
     8
 73
     4
 74
     0
 42
0.0000000001
 43
0.0000000001
 12
1.0
 22
0.0
 32
0.0
 13
1.0
 23
0.0
 33
0.0
 40
0.0
 40
0.0
 40
0.0
 40
0.0
 40
1.0
 40
1.0
 40
1.0
 40
1.0
 10
73.30111729659937
 20
-155.8974741276923
 30
0.0
 10
73.30111729659937
 20
-156.4493596831096
 30
0.0
 10
73.74896867406261
 20
-156.8972110718867
 30
0.0
 10
74.30159504885283
 20
-156.8972110718867
 30
0.0
  0
SPLINE
  5
7C
330
1F
100
AcDbEntity
  8
_U+30EC_U+30A4_U+30E4_U+30FC 1
 62
   179
420
  2234388
370
    25
100
AcDbSpline
210
0.0
220
0.0
230
1.0
 70
     8
 71
     3
 72
     8
 73
     4
 74
     0
 42
0.0000000001
 43
0.0000000001
 12
1.0
 22
0.0
 32
0.0
 13
1.0
 23
0.0
 33
0.0
 40
0.0
 40
0.0
 40
0.0
 40
0.0
 40
1.0
 40
1.0
 40
1.0
 40
1.0
 10
97.30122390652787
 20
-156.8972110718867
 30
0.0
 10
97.8538150035412
 20
-156.8972110718867
 30
0.0
 10
98.30166638100445
 20
-156.4493596831096
 30
0.0
 10
98.30166638100445
 20
-155.8974741276923
 30
0.0
  0
SPLINE
  5
7D
330
1F
100
AcDbEntity
  8
_U+30EC_U+30A4_U+30E4_U+30FC 1
 62
   179
420
  2234388
370
     9
100
AcDbSpline
210
0.0
220
0.0
230
1.0
 70
    11
 71
     3
 72
    17
 73
    13
 74
     0
 42
0.0000000001
 43
0.0000000001
 12
1.0
 22
0.0
 32
0.0
 13
1.0
 23
0.0
 33
0.0
 40
0.0
 40
0.0
 40
0.0
 40
0.0
 40
1.0
 40
1.0
 40
1.0
 40
2.0
 40
2.0
 40
2.0
 40
3.0
 40
3.0
 40
3.0
 40
4.0
 40
4.0
 40
4.0
 40
4.0
 10
127.4017048052673
 20
-108.0974610840866
 30
0.0
 10
127.4017048052673
 20
-108.0423219174339
 30
0.0
 10
127.3569020286325
 20
-107.997554417445
 30
0.0
 10
127.3017981411494
 20
-107.997554417445
 30
0.0
 10
127.2459886981288
 20
-107.997554417445
 30
0.0
 10
127.2011859214941
 20
-108.0423219174339
 30
0.0
 10
127.2011859214941
 20
-108.0974610840866
 30
0.0
 10
127.2011859214941
 20
-108.1525649729619
 30
0.0
 10
127.2459886981288
 20
-108.1973677507286
 30
0.0
 10
127.3017981411494
 20
-108.1973677507286
 30
0.0
 10
127.3569020286325
 20
-108.1973677507286
 30
0.0
 10
127.4017048052673
 20
-108.1525649729619
 30
0.0
 10
127.4017048052673
 20
-108.0974610840866
 30
0.0
  0
SPLINE
  5
7E
330
1F
100
AcDbEntity
  8
_U+30EC_U+30A4_U+30E4_U+30FC 1
 62
   179
420
  2234388
370
     9
100
AcDbSpline
210
0.0
220
0.0
230
1.0
 70
    11
 71
     3
 72
    17
 73
    13
 74
     0
 42
0.0000000001
 43
0.0000000001
 12
1.0
 22
0.0
 32
0.0
 13
1.0
 23
0.0
 33
0.0
 40
0.0
 40
0.0
 40
0.0
 40
0.0
 40
1.0
 40
1.0
 40
1.0
 40
2.0
 40
2.0
 40
2.0
 40
3.0
 40
3.0
 40
3.0
 40
4.0
 40
4.0
 40
4.0
 40
4.0
 10
127.4017048052673
 20
-106.8971699732756
 30
0.0
 10
127.4017048052673
 20
-106.8420660844007
 30
0.0
 10
127.3569020286325
 20
-106.797263306634
 30
0.0
 10
127.3017981411494
 20
-106.797263306634
 30
0.0
 10
127.2459886981288
 20
-106.797263306634
 30
0.0
 10
127.2011859214941
 20
-106.8420660844007
 30
0.0
 10
127.2011859214941
 20
-106.8971699732756
 30
0.0
 10
127.2011859214941
 20
-106.9523091399287
 30
0.0
 10
127.2459886981288
 20
-106.9970766399176
 30
0.0
 10
127.3017981411494
 20
-106.9970766399176
 30
0.0
 10
127.3569020286325
 20
-106.9970766399176
 30
0.0
 10
127.4017048052673
 20
-106.9523091399287
 30
0.0
 10
127.4017048052673
 20
-106.8971699732756
 30
0.0
  0
SPLINE
  5
7F
330
1F
100
AcDbEntity
  8
_U+30EC_U+30A4_U+30E4_U+30FC 1
 62
   179
420
  2234388
370
     9
100
AcDbSpline
210
0.0
220
0.0
230
1.0
 70
    11
 71
     3
 72
    17
 73
    13
 74
     0
 42
0.0000000001
 43
0.0000000001
 12
1.0
 22
0.0
 32
0.0
 13
1.0
 23
0.0
 33
0.0
 40
0.0
 40
0.0
 40
0.0
 40
0.0
 40
1.0
 40
1.0
 40
1.0
 40
2.0
 40
2.0
 40
2.0
 40
3.0
 40
3.0
 40
3.0
 40
4.0
 40
4.0
 40
4.0
 40
4.0
 10
123.4012401851054
 20
-102.8972344187202
 30
0.0
 10
123.4012401851054
 20
-102.8421305298449
 30
0.0
 10
123.3564726862475
 20
-102.7973277520785
 30
0.0
 10
123.3013335209876
 20
-102.7973277520785
 30
0.0
 10
123.2462296335045
 20
-102.7973277520785
 30
0.0
 10
123.2014268568697
 20
-102.8421305298449
 30
0.0
 10
123.2014268568697
 20
-102.8972344187202
 30
0.0
 10
123.2014268568697
 20
-102.9527263631507
 30
0.0
 10
123.2462296335045
 20
-102.9974938631396
 30
0.0
 10
123.3013335209876
 20
-102.9974938631396
 30
0.0
 10
123.3564726862475
 20
-102.9974938631396
 30
0.0
 10
123.4012401851054
 20
-102.9527263631507
 30
0.0
 10
123.4012401851054
 20
-102.8972344187202
 30
0.0
  0
SPLINE
  5
80
330
1F
100
AcDbEntity
  8
_U+30EC_U+30A4_U+30E4_U+30FC 1
 62
   179
420
  2234388
370
     9
100
AcDbSpline
210
0.0
220
0.0
230
1.0
 70
    11
 71
     3
 72
    17
 73
    13
 74
     0
 42
0.0000000001
 43
0.0000000001
 12
1.0
 22
0.0
 32
0.0
 13
1.0
 23
0.0
 33
0.0
 40
0.0
 40
0.0
 40
0.0
 40
0.0
 40
1.0
 40
1.0
 40
1.0
 40
2.0
 40
2.0
 40
2.0
 40
3.0
 40
3.0
 40
3.0
 40
4.0
 40
4.0
 40
4.0
 40
4.0
 10
127.4017048052673
 20
-158.097502182698
 30
0.0
 10
127.4017048052673
 20
-158.0423630160449
 30
0.0
 10
127.3569020286325
 20
-157.9975955160564
 30
0.0
 10
127.3017981411494
 20
-157.9975955160564
 30
0.0
 10
127.2459886981288
 20
-157.9975955160564
 30
0.0
 10
127.2011859214941
 20
-158.0423630160449
 30
0.0
 10
127.2011859214941
 20
-158.097502182698
 30
0.0
 10
127.2011859214941
 20
-158.1526060715729
 30
0.0
 10
127.2459886981288
 20
-158.1974088493396
 30
0.0
 10
127.3017981411494
 20
-158.1974088493396
 30
0.0
 10
127.3569020286325
 20
-158.1974088493396
 30
0.0
 10
127.4017048052673
 20
-158.1526060715729
 30
0.0
 10
127.4017048052673
 20
-158.097502182698
 30
0.0
  0
SPLINE
  5
81
330
1F
100
AcDbEntity
  8
_U+30EC_U+30A4_U+30E4_U+30FC 1
 62
   179
420
  2234388
370
     9
100
AcDbSpline
210
0.0
220
0.0
230
1.0
 70
    11
 71
     3
 72
    17
 73
    13
 74
     0
 42
0.0000000001
 43
0.0000000001
 12
1.0
 22
0.0
 32
0.0
 13
1.0
 23
0.0
 33
0.0
 40
0.0
 40
0.0
 40
0.0
 40
0.0
 40
1.0
 40
1.0
 40
1.0
 40
2.0
 40
2.0
 40
2.0
 40
3.0
 40
3.0
 40
3.0
 40
4.0
 40
4.0
 40
4.0
 40
4.0
 10
98.40157304512228
 20
-102.8972344187202
 30
0.0
 10
98.40157304512228
 20
-102.8421305298449
 30
0.0
 10
98.35677026848752
 20
-102.7973277520785
 30
0.0
 10
98.30166638100445
 20
-102.7973277520785
 30
0.0
 10
98.24652721574449
 20
-102.7973277520785
 30
0.0
 10
98.20175971688661
 20
-102.8421305298449
 30
0.0
 10
98.20175971688661
 20
-102.8972344187202
 30
0.0
 10
98.20175971688661
 20
-102.9527263631507
 30
0.0
 10
98.24652721574449
 20
-102.9974938631396
 30
0.0
 10
98.30166638100445
 20
-102.9974938631396
 30
0.0
 10
98.35677026848752
 20
-102.9974938631396
 30
0.0
 10
98.40157304512228
 20
-102.9527263631507
 30
0.0
 10
98.40157304512228
 20
-102.8972344187202
 30
0.0
  0
SPLINE
  5
82
330
1F
100
AcDbEntity
  8
_U+30EC_U+30A4_U+30E4_U+30FC 1
 62
   179
420
  2234388
370
     9
100
AcDbSpline
210
0.0
220
0.0
230
1.0
 70
    11
 71
     3
 72
    17
 73
    13
 74
     0
 42
0.0000000001
 43
0.0000000001
 12
1.0
 22
0.0
 32
0.0
 13
1.0
 23
0.0
 33
0.0
 40
0.0
 40
0.0
 40
0.0
 40
0.0
 40
1.0
 40
1.0
 40
1.0
 40
2.0
 40
2.0
 40
2.0
 40
3.0
 40
3.0
 40
3.0
 40
4.0
 40
4.0
 40
4.0
 40
4.0
 10
73.40172951625476
 20
-102.8972344187202
 30
0.0
 10
73.40172951625476
 20
-102.8421305298449
 30
0.0
 10
73.35692673962
 20
-102.7973277520785
 30
0.0
 10
73.30111729659937
 20
-102.7973277520785
 30
0.0
 10
73.2460134091163
 20
-102.7973277520785
 30
0.0
 10
73.20121063248153
 20
-102.8421305298449
 30
0.0
 10
73.20121063248153
 20
-102.8972344187202
 30
0.0
 10
73.20121063248153
 20
-102.9527263631507
 30
0.0
 10
73.2460134091163
 20
-102.9974938631396
 30
0.0
 10
73.30111729659937
 20
-102.9974938631396
 30
0.0
 10
73.35692673962
 20
-102.9974938631396
 30
0.0
 10
73.40172951625476
 20
-102.9527263631507
 30
0.0
 10
73.40172951625476
 20
-102.8972344187202
 30
0.0
  0
SPLINE
  5
83
330
1F
100
AcDbEntity
  8
_U+30EC_U+30A4_U+30E4_U+30FC 1
 62
   179
420
  2234388
370
     9
100
AcDbSpline
210
0.0
220
0.0
230
1.0
 70
    11
 71
     3
 72
    17
 73
    13
 74
     0
 42
0.0000000001
 43
0.0000000001
 12
1.0
 22
0.0
 32
0.0
 13
1.0
 23
0.0
 33
0.0
 40
0.0
 40
0.0
 40
0.0
 40
0.0
 40
1.0
 40
1.0
 40
1.0
 40
2.0
 40
2.0
 40
2.0
 40
3.0
 40
3.0
 40
3.0
 40
4.0
 40
4.0
 40
4.0
 40
4.0
 10
48.40153320961846
 20
-102.8972344187202
 30
0.0
 10
48.40153320961846
 20
-102.8421305298449
 30
0.0
 10
48.3567304329837
 20
-102.7973277520785
 30
0.0
 10
48.30127498792481
 20
-102.7973277520785
 30
0.0
 10
48.2461346024719
 20
-102.7973277520785
 30
0.0
 10
48.20136710361401
 20
-102.8421305298449
 30
0.0
 10
48.20136710361401
 20
-102.8972344187202
 30
0.0
 10
48.20136710361401
 20
-102.9527263631507
 30
0.0
 10
48.2461346024719
 20
-102.9974938631396
 30
0.0
 10
48.30127498792481
 20
-102.9974938631396
 30
0.0
 10
48.3567304329837
 20
-102.9974938631396
 30
0.0
 10
48.40153320961846
 20
-102.9527263631507
 30
0.0
 10
48.40153320961846
 20
-102.8972344187202
 30
0.0
  0
POLYLINE
  5
84
330
1F
100
AcDbEntity
  8
_U+30EC_U+30A4_U+30E4_U+30FC 1
 62
   179
420
  2234388
370
     9
100
AcDb2dPolyline
 66
     1
 10
0.0
 20
0.0
 30
0.0
  0
VERTEX
  5
85
330
84
100
AcDbEntity
  8
_U+30EC_U+30A4_U+30E4_U+30FC 1
 62
   179
420
  2234388
370
     9
100
AcDbVertex
100
AcDb2dVertex
 10
73.59462840022239
 20
-156.6044055164043
 30
0.0
  0
VERTEX
  5
86
330
84
100
AcDbEntity
  8
_U+30EC_U+30A4_U+30E4_U+30FC 1
 62
   179
420
  2234388
370
     9
100
AcDbVertex
100
AcDb2dVertex
 10
77.33738886029217
 20
-152.8616449617847
 30
0.0
  0
SEQEND
  5
87
330
84
100
AcDbEntity
  8
_U+30EC_U+30A4_U+30E4_U+30FC 1
 62
   179
420
  2234388
370
     9
  0
POLYLINE
  5
88
330
1F
100
AcDbEntity
  8
_U+30EC_U+30A4_U+30E4_U+30FC 1
 62
   179
420
  2234388
370
     9
100
AcDb2dPolyline
 66
     1
 10
0.0
 20
0.0
 30
0.0
  0
VERTEX
  5
89
330
88
100
AcDbEntity
  8
_U+30EC_U+30A4_U+30E4_U+30FC 1
 62
   179
420
  2234388
370
     9
100
AcDbVertex
100
AcDb2dVertex
 10
77.33738886029217
 20
-152.8616449617847
 30
0.0
  0
VERTEX
  5
8A
330
88
100
AcDbEntity
  8
_U+30EC_U+30A4_U+30E4_U+30FC 1
 62
   179
420
  2234388
370
     9
100
AcDbVertex
100
AcDb2dVertex
 10
79.98184629282643
 20
-152.8616449617847
 30
0.0
  0
SEQEND
  5
8B
330
88
100
AcDbEntity
  8
_U+30EC_U+30A4_U+30E4_U+30FC 1
 62
   179
420
  2234388
370
     9
  0
INSERT
  5
8D
330
1F
100
AcDbEntity
  8
_U+30EC_U+30A4_U+30E4_U+30FC 1
100
AcDbBlockReference
  2
block 2
 10
0.0
 20
0.0
 30
0.0
  0
POLYLINE
  5
95
330
1F
100
AcDbEntity
  8
_U+30EC_U+30A4_U+30E4_U+30FC 1
 62
   179
420
  2234388
370
     9
100
AcDb2dPolyline
 66
     1
 10
0.0
 20
0.0
 30
0.0
  0
VERTEX
  5
96
330
95
100
AcDbEntity
  8
_U+30EC_U+30A4_U+30E4_U+30FC 1
 62
   179
420
  2234388
370
     9
100
AcDbVertex
100
AcDb2dVertex
 10
48.30127498792481
 20
-102.8972344187202
 30
0.0
  0
VERTEX
  5
97
330
95
100
AcDbEntity
  8
_U+30EC_U+30A4_U+30E4_U+30FC 1
 62
   179
420
  2234388
370
     9
100
AcDbVertex
100
AcDb2dVertex
 10
73.30111729659937
 20
-102.8972344187202
 30
0.0
  0
SEQEND
  5
98
330
95
100
AcDbEntity
  8
_U+30EC_U+30A4_U+30E4_U+30FC 1
 62
   179
420
  2234388
370
     9
  0
POLYLINE
  5
99
330
1F
100
AcDbEntity
  8
_U+30EC_U+30A4_U+30E4_U+30FC 1
 62
   179
420
  2234388
370
     9
100
AcDb2dPolyline
 66
     1
 10
0.0
 20
0.0
 30
0.0
  0
VERTEX
  5
9A
330
99
100
AcDbEntity
  8
_U+30EC_U+30A4_U+30E4_U+30FC 1
 62
   179
420
  2234388
370
     9
100
AcDbVertex
100
AcDb2dVertex
 10
48.30127498792481
 20
-104.3574521961328
 30
0.0
  0
VERTEX
  5
9B
330
99
100
AcDbEntity
  8
_U+30EC_U+30A4_U+30E4_U+30FC 1
 62
   179
420
  2234388
370
     9
100
AcDbVertex
100
AcDb2dVertex
 10
48.30127498792481
 20
-101.897144696748
 30
0.0
  0
SEQEND
  5
9C
330
99
100
AcDbEntity
  8
_U+30EC_U+30A4_U+30E4_U+30FC 1
 62
   179
420
  2234388
370
     9
  0
POLYLINE
  5
9D
330
1F
100
AcDbEntity
  8
_U+30EC_U+30A4_U+30E4_U+30FC 1
 62
   179
420
  2234388
370
     9
100
AcDb2dPolyline
 66
     1
 10
0.0
 20
0.0
 30
0.0
  0
VERTEX
  5
9E
330
9D
100
AcDbEntity
  8
_U+30EC_U+30A4_U+30E4_U+30FC 1
 62
   179
420
  2234388
370
     9
100
AcDbVertex
100
AcDb2dVertex
 10
73.30111729659937
 20
-104.3574521961328
 30
0.0
  0
VERTEX
  5
9F
330
9D
100
AcDbEntity
  8
_U+30EC_U+30A4_U+30E4_U+30FC 1
 62
   179
420
  2234388
370
     9
100
AcDbVertex
100
AcDb2dVertex
 10
73.30111729659937
 20
-101.897144696748
 30
0.0
  0
SEQEND
  5
A0
330
9D
100
AcDbEntity
  8
_U+30EC_U+30A4_U+30E4_U+30FC 1
 62
   179
420
  2234388
370
     9
  0
INSERT
  5
A2
330
1F
100
AcDbEntity
  8
_U+30EC_U+30A4_U+30E4_U+30FC 1
100
AcDbBlockReference
  2
block 3
 10
0.0
 20
0.0
 30
0.0
  0
POLYLINE
  5
A9
330
1F
100
AcDbEntity
  8
_U+30EC_U+30A4_U+30E4_U+30FC 1
 62
   179
420
  2234388
370
     9
100
AcDb2dPolyline
 66
     1
 10
0.0
 20
0.0
 30
0.0
  0
VERTEX
  5
AA
330
A9
100
AcDbEntity
  8
_U+30EC_U+30A4_U+30E4_U+30FC 1
 62
   179
420
  2234388
370
     9
100
AcDbVertex
100
AcDb2dVertex
 10
73.30111729659937
 20
-102.8972344187202
 30
0.0
  0
VERTEX
  5
AB
330
A9
100
AcDbEntity
  8
_U+30EC_U+30A4_U+30E4_U+30FC 1
 62
   179
420
  2234388
370
     9
100
AcDbVertex
100
AcDb2dVertex
 10
98.30166638100445
 20
-102.8972344187202
 30
0.0
  0
SEQEND
  5
AC
330
A9
100
AcDbEntity
  8
_U+30EC_U+30A4_U+30E4_U+30FC 1
 62
   179
420
  2234388
370
     9
  0
POLYLINE
  5
AD
330
1F
100
AcDbEntity
  8
_U+30EC_U+30A4_U+30E4_U+30FC 1
 62
   179
420
  2234388
370
     9
100
AcDb2dPolyline
 66
     1
 10
0.0
 20
0.0
 30
0.0
  0
VERTEX
  5
AE
330
AD
100
AcDbEntity
  8
_U+30EC_U+30A4_U+30E4_U+30FC 1
 62
   179
420
  2234388
370
     9
100
AcDbVertex
100
AcDb2dVertex
 10
98.30166638100445
 20
-104.3574521961328
 30
0.0
  0
VERTEX
  5
AF
330
AD
100
AcDbEntity
  8
_U+30EC_U+30A4_U+30E4_U+30FC 1
 62
   179
420
  2234388
370
     9
100
AcDbVertex
100
AcDb2dVertex
 10
98.30166638100445
 20
-101.897144696748
 30
0.0
  0
SEQEND
  5
B0
330
AD
100
AcDbEntity
  8
_U+30EC_U+30A4_U+30E4_U+30FC 1
 62
   179
420
  2234388
370
     9
  0
INSERT
  5
B2
330
1F
100
AcDbEntity
  8
_U+30EC_U+30A4_U+30E4_U+30FC 1
100
AcDbBlockReference
  2
block 4
 10
0.0
 20
0.0
 30
0.0
  0
POLYLINE
  5
B9
330
1F
100
AcDbEntity
  8
_U+30EC_U+30A4_U+30E4_U+30FC 1
 62
   179
420
  2234388
370
     9
100
AcDb2dPolyline
 66
     1
 10
0.0
 20
0.0
 30
0.0
  0
VERTEX
  5
BA
330
B9
100
AcDbEntity
  8
_U+30EC_U+30A4_U+30E4_U+30FC 1
 62
   179
420
  2234388
370
     9
100
AcDbVertex
100
AcDb2dVertex
 10
98.30166638100445
 20
-102.8972344187202
 30
0.0
  0
VERTEX
  5
BB
330
B9
100
AcDbEntity
  8
_U+30EC_U+30A4_U+30E4_U+30FC 1
 62
   179
420
  2234388
370
     9
100
AcDbVertex
100
AcDb2dVertex
 10
123.3013335209876
 20
-102.8972344187202
 30
0.0
  0
SEQEND
  5
BC
330
B9
100
AcDbEntity
  8
_U+30EC_U+30A4_U+30E4_U+30FC 1
 62
   179
420
  2234388
370
     9
  0
POLYLINE
  5
BD
330
1F
100
AcDbEntity
  8
_U+30EC_U+30A4_U+30E4_U+30FC 1
 62
   179
420
  2234388
370
     9
100
AcDb2dPolyline
 66
     1
 10
0.0
 20
0.0
 30
0.0
  0
VERTEX
  5
BE
330
BD
100
AcDbEntity
  8
_U+30EC_U+30A4_U+30E4_U+30FC 1
 62
   179
420
  2234388
370
     9
100
AcDbVertex
100
AcDb2dVertex
 10
123.3013335209876
 20
-104.3574521961328
 30
0.0
  0
VERTEX
  5
BF
330
BD
100
AcDbEntity
  8
_U+30EC_U+30A4_U+30E4_U+30FC 1
 62
   179
420
  2234388
370
     9
100
AcDbVertex
100
AcDb2dVertex
 10
123.3013335209876
 20
-101.897144696748
 30
0.0
  0
SEQEND
  5
C0
330
BD
100
AcDbEntity
  8
_U+30EC_U+30A4_U+30E4_U+30FC 1
 62
   179
420
  2234388
370
     9
  0
INSERT
  5
C2
330
1F
100
AcDbEntity
  8
_U+30EC_U+30A4_U+30E4_U+30FC 1
100
AcDbBlockReference
  2
block 5
 10
0.0
 20
0.0
 30
0.0
  0
POLYLINE
  5
C9
330
1F
100
AcDbEntity
  8
_U+30EC_U+30A4_U+30E4_U+30FC 1
 62
   179
420
  2234388
370
     9
100
AcDb2dPolyline
 66
     1
 10
0.0
 20
0.0
 30
0.0
  0
VERTEX
  5
CA
330
C9
100
AcDbEntity
  8
_U+30EC_U+30A4_U+30E4_U+30FC 1
 62
   179
420
  2234388
370
     9
100
AcDbVertex
100
AcDb2dVertex
 10
127.3017981411494
 20
-108.0974610840866
 30
0.0
  0
VERTEX
  5
CB
330
C9
100
AcDbEntity
  8
_U+30EC_U+30A4_U+30E4_U+30FC 1
 62
   179
420
  2234388
370
     9
100
AcDbVertex
100
AcDb2dVertex
 10
127.3017981411494
 20
-106.8971699732756
 30
0.0
  0
SEQEND
  5
CC
330
C9
100
AcDbEntity
  8
_U+30EC_U+30A4_U+30E4_U+30FC 1
 62
   179
420
  2234388
370
     9
  0
POLYLINE
  5
CD
330
1F
100
AcDbEntity
  8
_U+30EC_U+30A4_U+30E4_U+30FC 1
 62
   179
420
  2234388
370
     9
100
AcDb2dPolyline
 66
     1
 10
0.0
 20
0.0
 30
0.0
  0
VERTEX
  5
CE
330
CD
100
AcDbEntity
  8
_U+30EC_U+30A4_U+30E4_U+30FC 1
 62
   179
420
  2234388
370
     9
100
AcDbVertex
100
AcDb2dVertex
 10
125.8417567895093
 20
-108.0974610840866
 30
0.0
  0
VERTEX
  5
CF
330
CD
100
AcDbEntity
  8
_U+30EC_U+30A4_U+30E4_U+30FC 1
 62
   179
420
  2234388
370
     9
100
AcDbVertex
100
AcDb2dVertex
 10
128.3015703378653
 20
-108.0974610840866
 30
0.0
  0
SEQEND
  5
D0
330
CD
100
AcDbEntity
  8
_U+30EC_U+30A4_U+30E4_U+30FC 1
 62
   179
420
  2234388
370
     9
  0
POLYLINE
  5
D1
330
1F
100
AcDbEntity
  8
_U+30EC_U+30A4_U+30E4_U+30FC 1
 62
   179
420
  2234388
370
     9
100
AcDb2dPolyline
 66
     1
 10
0.0
 20
0.0
 30
0.0
  0
VERTEX
  5
D2
330
D1
100
AcDbEntity
  8
_U+30EC_U+30A4_U+30E4_U+30FC 1
 62
   179
420
  2234388
370
     9
100
AcDbVertex
100
AcDb2dVertex
 10
125.8417567895093
 20
-106.8971699732756
 30
0.0
  0
VERTEX
  5
D3
330
D1
100
AcDbEntity
  8
_U+30EC_U+30A4_U+30E4_U+30FC 1
 62
   179
420
  2234388
370
     9
100
AcDbVertex
100
AcDb2dVertex
 10
128.3015703378653
 20
-106.8971699732756
 30
0.0
  0
SEQEND
  5
D4
330
D1
100
AcDbEntity
  8
_U+30EC_U+30A4_U+30E4_U+30FC 1
 62
   179
420
  2234388
370
     9
  0
INSERT
  5
D6
330
1F
100
AcDbEntity
  8
_U+30EC_U+30A4_U+30E4_U+30FC 1
100
AcDbBlockReference
  2
block 6
 10
0.0
 20
0.0
 30
0.0
  0
POLYLINE
  5
E5
330
1F
100
AcDbEntity
  8
_U+30EC_U+30A4_U+30E4_U+30FC 1
 62
   179
420
  2234388
370
     9
100
AcDb2dPolyline
 66
     1
 10
0.0
 20
0.0
 30
0.0
  0
VERTEX
  5
E6
330
E5
100
AcDbEntity
  8
_U+30EC_U+30A4_U+30E4_U+30FC 1
 62
   179
420
  2234388
370
     9
100
AcDbVertex
100
AcDb2dVertex
 10
127.3017981411494
 20
-158.097502182698
 30
0.0
  0
VERTEX
  5
E7
330
E5
100
AcDbEntity
  8
_U+30EC_U+30A4_U+30E4_U+30FC 1
 62
   179
420
  2234388
370
     9
100
AcDbVertex
100
AcDb2dVertex
 10
127.3017981411494
 20
-108.0974610840866
 30
0.0
  0
SEQEND
  5
E8
330
E5
100
AcDbEntity
  8
_U+30EC_U+30A4_U+30E4_U+30FC 1
 62
   179
420
  2234388
370
     9
  0
POLYLINE
  5
E9
330
1F
100
AcDbEntity
  8
_U+30EC_U+30A4_U+30E4_U+30FC 1
 62
   179
420
  2234388
370
     9
100
AcDb2dPolyline
 66
     1
 10
0.0
 20
0.0
 30
0.0
  0
VERTEX
  5
EA
330
E9
100
AcDbEntity
  8
_U+30EC_U+30A4_U+30E4_U+30FC 1
 62
   179
420
  2234388
370
     9
100
AcDbVertex
100
AcDb2dVertex
 10
102.0416777522675
 20
-158.097502182698
 30
0.0
  0
VERTEX
  5
EB
330
E9
100
AcDbEntity
  8
_U+30EC_U+30A4_U+30E4_U+30FC 1
 62
   179
420
  2234388
370
     9
100
AcDbVertex
100
AcDb2dVertex
 10
128.3015703378653
 20
-158.097502182698
 30
0.0
  0
SEQEND
  5
EC
330
E9
100
AcDbEntity
  8
_U+30EC_U+30A4_U+30E4_U+30FC 1
 62
   179
420
  2234388
370
     9
  0
INSERT
  5
EE
330
1F
100
AcDbEntity
  8
_U+30EC_U+30A4_U+30E4_U+30FC 1
100
AcDbBlockReference
  2
block 7
 10
0.0
 20
0.0
 30
0.0
  0
ENDSEC
  0
SECTION
  2
OBJECTS
  0
DICTIONARY
  5
C
330
0
100
AcDbDictionary
281
     1
  3
ACAD_GROUP
350
D
  3
ACAD_LAYOUT
350
1A
  3
ACAD_MATERIAL
350
3B
  3
ACAD_MLEADERSTYLE
350
F7
  3
ACAD_MLINESTYLE
350
17
  3
ACAD_PLOTSETTINGS
350
19
  3
ACAD_PLOTSTYLENAME
350
E
  3
ACAD_TABLESTYLE
350
F6
  3
ACAD_VISUALSTYLE
350
2A
  0
SUN
  5
3F
330
29
100
AcDbSun
 90
        1
290
     0
 63
     7
421
 16777215
 40
1.0
291
     1
 91
  2455826
 92
 54000000
292
     0
 70
     2
 71
   256
280
     1
  0
DICTIONARY
  5
D
102
{ACAD_REACTORS
330
C
102
}
330
C
100
AcDbDictionary
281
     1
  0
DICTIONARY
  5
1A
102
{ACAD_REACTORS
330
C
102
}
330
C
100
AcDbDictionary
281
     1
  3
Layout1
350
1E
  3
Layout2
350
26
  3
Model
350
22
  0
DICTIONARY
  5
3B
102
{ACAD_REACTORS
330
C
102
}
330
C
100
AcDbDictionary
281
     1
  3
ByBlock
350
3D
  3
ByLayer
350
3C
  3
Global
350
3E
  0
DICTIONARY
  5
F7
102
{ACAD_REACTORS
330
C
102
}
330
C
100
AcDbDictionary
281
     1
  0
DICTIONARY
  5
17
102
{ACAD_REACTORS
330
C
102
}
330
C
100
AcDbDictionary
281
     1
  3
Standard
350
18
  0
DICTIONARY
  5
19
102
{ACAD_REACTORS
330
C
102
}
330
C
100
AcDbDictionary
281
     1
  0
ACDBDICTIONARYWDFLT
  5
E
102
{ACAD_REACTORS
330
C
102
}
330
C
100
AcDbDictionary
281
     1
  3
Normal
350
F
100
AcDbDictionaryWithDefault
340
F
  0
DICTIONARY
  5
F6
102
{ACAD_REACTORS
330
C
102
}
330
C
100
AcDbDictionary
281
     1
  0
DICTIONARY
  5
2A
102
{ACAD_REACTORS
330
C
102
}
330
C
100
AcDbDictionary
281
     1
  3
2dWireframe
350
2F
  3
3D Hidden
350
31
  3
3dWireframe
350
30
  3
Basic
350
32
  3
Brighten
350
36
  3
ColorChange
350
3A
  3
Conceptual
350
34
  3
Dim
350
35
  3
Facepattern
350
39
  3
Flat
350
2B
  3
FlatWithEdges
350
2C
  3
Gouraud
350
2D
  3
GouraudWithEdges
350
2E
  3
Linepattern
350
38
  3
Realistic
350
33
  3
Thicken
350
37
  0
LAYOUT
  5
1E
102
{ACAD_REACTORS
330
1A
102
}
330
1A
100
AcDbPlotSettings
  1

  2
none_device
  4

  6

 40
0.0
 41
0.0
 42
0.0
 43
0.0
 44
0.0
 45
0.0
 46
0.0
 47
0.0
 48
0.0
 49
0.0
140
0.0
141
0.0
142
1.0
143
1.0
 70
   688
 72
     0
 73
     0
 74
     5
  7

 75
    16
 76
     0
 77
     2
 78
   300
147
1.0
148
0.0
149
0.0
100
AcDbLayout
  1
Layout1
 70
     1
 71
     1
 10
0.0
 20
0.0
 11
12.0
 21
9.0
 12
0.0
 22
0.0
 32
0.0
 14
1.000000000000000E+20
 24
1.000000000000000E+20
 34
1.000000000000000E+20
 15
-1.000000000000000E+20
 25
-1.000000000000000E+20
 35
-1.000000000000000E+20
146
0.0
 13
0.0
 23
0.0
 33
0.0
 16
1.0
 26
0.0
 36
0.0
 17
0.0
 27
1.0
 37
0.0
 76
     0
330
1B
  0
LAYOUT
  5
26
102
{ACAD_REACTORS
330
1A
102
}
330
1A
100
AcDbPlotSettings
  1

  2
none_device
  4

  6

 40
0.0
 41
0.0
 42
0.0
 43
0.0
 44
0.0
 45
0.0
 46
0.0
 47
0.0
 48
0.0
 49
0.0
140
0.0
141
0.0
142
1.0
143
1.0
 70
   688
 72
     0
 73
     0
 74
     5
  7

 75
    16
 76
     0
 77
     2
 78
   300
147
1.0
148
0.0
149
0.0
100
AcDbLayout
  1
Layout2
 70
     1
 71
     2
 10
0.0
 20
0.0
 11
0.0
 21
0.0
 12
0.0
 22
0.0
 32
0.0
 14
0.0
 24
0.0
 34
0.0
 15
0.0
 25
0.0
 35
0.0
146
0.0
 13
0.0
 23
0.0
 33
0.0
 16
1.0
 26
0.0
 36
0.0
 17
0.0
 27
1.0
 37
0.0
 76
     0
330
23
  0
LAYOUT
  5
22
102
{ACAD_REACTORS
330
1A
102
}
330
1A
100
AcDbPlotSettings
  1

  2
none_device
  4

  6

 40
0.0
 41
0.0
 42
0.0
 43
0.0
 44
0.0
 45
0.0
 46
0.0
 47
0.0
 48
0.0
 49
0.0
140
0.0
141
0.0
142
1.0
143
1.0
 70
  1712
 72
     0
 73
     0
 74
     0
  7

 75
     0
 76
     0
 77
     2
 78
   300
147
1.0
148
0.0
149
0.0
100
AcDbLayout
  1
Model
 70
     1
 71
     0
 10
0.0
 20
0.0
 11
12.0
 21
9.0
 12
0.0
 22
0.0
 32
0.0
 14
1.000000000000000E+20
 24
1.000000000000000E+20
 34
1.000000000000000E+20
 15
-1.000000000000000E+20
 25
-1.000000000000000E+20
 35
-1.000000000000000E+20
146
0.0
 13
0.0
 23
0.0
 33
0.0
 16
1.0
 26
0.0
 36
0.0
 17
0.0
 27
1.0
 37
0.0
 76
     0
330
1F
331
29
  0
MATERIAL
  5
3D
102
{ACAD_REACTORS
330
3B
102
}
330
3B
100
AcDbMaterial
  1
ByBlock
 72
     1
 94
      127
  0
MATERIAL
  5
3C
102
{ACAD_REACTORS
330
3B
102
}
330
3B
100
AcDbMaterial
  1
ByLayer
 72
     1
 94
      127
  0
MATERIAL
  5
3E
102
{ACAD_REACTORS
330
3B
102
}
330
3B
100
AcDbMaterial
  1
Global
 72
     1
 94
      127
  0
MLINESTYLE
  5
18
102
{ACAD_REACTORS
330
17
102
}
330
17
100
AcDbMlineStyle
  2
Standard
 70
     0
  3

 62
   256
 51
90.0
 52
90.0
 71
     2
 49
0.5
 62
   256
  6
BYLAYER
 49
-0.5
 62
   256
  6
BYLAYER
  0
ACDBPLACEHOLDER
  5
F
102
{ACAD_REACTORS
330
E
102
}
330
E
  0
VISUALSTYLE
  5
2F
102
{ACAD_REACTORS
330
2A
102
}
330
2A
100
AcDbVisualStyle
  2
2dWireframe
 70
     4
177
     2
291
     0
 71
     0
176
     1
 72
     2
176
     1
 73
     0
176
     1
 90
        0
176
     1
 40
-0.6
176
     1
 41
-30.0
176
     1
 62
     5
 63
     7
421
 16777215
176
     1
 74
     1
176
     1
 91
        4
176
     1
 64
     7
176
     1
 65
   257
176
     1
 75
     1
176
     1
175
     1
176
     1
 42
1.0
176
     1
 92
        0
176
     1
 66
   257
176
     1
 43
1.0
176
     1
 76
     1
176
     1
 77
     6
176
     1
 78
     2
176
     1
 67
     7
176
     1
 79
     5
176
     1
170
     0
176
     1
171
     0
176
     1
290
     0
176
     1
 93
        1
176
     1
 44
0.0
176
     1
173
     0
176
     1
  0
VISUALSTYLE
  5
31
102
{ACAD_REACTORS
330
2A
102
}
330
2A
100
AcDbVisualStyle
  2
3D Hidden
 70
     6
177
     2
291
     0
 71
     1
176
     1
 72
     2
176
     1
 73
     2
176
     1
 90
        0
176
     1
 40
-0.6
176
     1
 41
-30.0
176
     1
 62
     5
 63
     7
421
 16777215
176
     1
 74
     2
176
     1
 91
        2
176
     1
 64
     7
176
     1
 65
   257
176
     1
 75
     2
176
     1
175
     1
176
     1
 42
40.0
176
     1
 92
        0
176
     1
 66
   257
176
     1
 43
1.0
176
     1
 76
     1
176
     1
 77
     6
176
     1
 78
     2
176
     1
 67
     7
176
     1
 79
     3
176
     1
170
     0
176
     1
171
     0
176
     1
290
     0
176
     1
 93
        1
176
     1
 44
0.0
176
     1
173
     0
176
     1
  0
VISUALSTYLE
  5
30
102
{ACAD_REACTORS
330
2A
102
}
330
2A
100
AcDbVisualStyle
  2
3dWireframe
 70
     5
177
     2
291
     0
 71
     0
176
     1
 72
     2
176
     1
 73
     0
176
     1
 90
        0
176
     1
 40
-0.6
176
     1
 41
-30.0
176
     1
 62
     5
 63
     7
421
 16777215
176
     1
 74
     1
176
     1
 91
        4
176
     1
 64
     7
176
     1
 65
   257
176
     1
 75
     1
176
     1
175
     1
176
     1
 42
1.0
176
     1
 92
        0
176
     1
 66
   257
176
     1
 43
1.0
176
     1
 76
     1
176
     1
 77
     6
176
     1
 78
     2
176
     1
 67
     7
176
     1
 79
     5
176
     1
170
     0
176
     1
171
     0
176
     1
290
     0
176
     1
 93
        1
176
     1
 44
0.0
176
     1
173
     0
176
     1
  0
VISUALSTYLE
  5
32
102
{ACAD_REACTORS
330
2A
102
}
330
2A
100
AcDbVisualStyle
  2
Basic
 70
     7
177
     2
291
     1
 71
     1
176
     1
 72
     0
176
     1
 73
     1
176
     1
 90
        0
176
     1
 40
-0.6
176
     1
 41
-30.0
176
     1
 62
     5
 63
     7
421
 16777215
176
     1
 74
     0
176
     1
 91
        4
176
     1
 64
     7
176
     1
 65
   257
176
     1
 75
     1
176
     1
175
     1
176
     1
 42
1.0
176
     1
 92
        8
176
     1
 66
     7
176
     1
 43
1.0
176
     1
 76
     1
176
     1
 77
     6
176
     1
 78
     2
176
     1
 67
     7
176
     1
 79
     5
176
     1
170
     0
176
     1
171
     0
176
     1
290
     0
176
     1
 93
        1
176
     1
 44
0.0
176
     1
173
     0
176
     1
  0
VISUALSTYLE
  5
36
102
{ACAD_REACTORS
330
2A
102
}
330
2A
100
AcDbVisualStyle
  2
Brighten
 70
    12
177
     2
291
     1
 71
     2
176
     1
 72
     2
176
     1
 73
     0
176
     1
 90
        0
176
     1
 40
-0.6
176
     1
 41
-30.0
176
     1
 62
     5
 63
     7
421
 16777215
176
     1
 74
     1
176
     1
 91
        4
176
     1
 64
     7
176
     1
 65
   257
176
     1
 75
     1
176
     1
175
     1
176
     1
 42
1.0
176
     1
 92
        8
176
     1
 66
     7
176
     1
 43
1.0
176
     1
 76
     1
176
     1
 77
     6
176
     1
 78
     2
176
     1
 67
     7
176
     1
 79
     5
176
     1
170
     0
176
     1
171
     0
176
     1
290
     0
176
     1
 93
        1
176
     1
 44
50.0
176
     1
173
     0
176
     1
  0
VISUALSTYLE
  5
3A
102
{ACAD_REACTORS
330
2A
102
}
330
2A
100
AcDbVisualStyle
  2
ColorChange
 70
    16
177
     2
291
     1
 71
     2
176
     1
 72
     2
176
     1
 73
     3
176
     1
 90
        0
176
     1
 40
-0.6
176
     1
 41
-30.0
176
     1
 62
     5
 63
     8
421
  8421504
176
     1
 74
     1
176
     1
 91
        4
176
     1
 64
     7
176
     1
 65
   257
176
     1
 75
     1
176
     1
175
     1
176
     1
 42
1.0
176
     1
 92
        8
176
     1
 66
     8
424
  8421504
176
     1
 43
1.0
176
     1
 76
     1
176
     1
 77
     6
176
     1
 78
     2
176
     1
 67
     7
176
     1
 79
     5
176
     1
170
     0
176
     1
171
     0
176
     1
290
     0
176
     1
 93
        1
176
     1
 44
0.0
176
     1
173
     0
176
     1
  0
VISUALSTYLE
  5
34
102
{ACAD_REACTORS
330
2A
102
}
330
2A
100
AcDbVisualStyle
  2
Conceptual
 70
     9
177
     2
291
     0
 71
     3
176
     1
 72
     2
176
     1
 73
     0
176
     1
 90
        0
176
     1
 40
-0.6
176
     1
 41
-30.0
176
     1
 62
     5
 63
     7
421
 16777215
176
     1
 74
     2
176
     1
 91
        2
176
     1
 64
     7
176
     1
 65
   257
176
     1
 75
     1
176
     1
175
     1
176
     1
 42
40.0
176
     1
 92
        8
176
     1
 66
     7
176
     1
 43
1.0
176
     1
 76
     1
176
     1
 77
     6
176
     1
 78
     2
176
     1
 67
     7
176
     1
 79
     3
176
     1
170
     0
176
     1
171
     0
176
     1
290
     0
176
     1
 93
        1
176
     1
 44
0.0
176
     1
173
     0
176
     1
  0
VISUALSTYLE
  5
35
102
{ACAD_REACTORS
330
2A
102
}
330
2A
100
AcDbVisualStyle
  2
Dim
 70
    11
177
     2
291
     1
 71
     2
176
     1
 72
     2
176
     1
 73
     0
176
     1
 90
        0
176
     1
 40
-0.6
176
     1
 41
-30.0
176
     1
 62
     5
 63
     7
421
 16777215
176
     1
 74
     1
176
     1
 91
        4
176
     1
 64
     7
176
     1
 65
   257
176
     1
 75
     1
176
     1
175
     1
176
     1
 42
1.0
176
     1
 92
        8
176
     1
 66
     7
176
     1
 43
1.0
176
     1
 76
     1
176
     1
 77
     6
176
     1
 78
     2
176
     1
 67
     7
176
     1
 79
     5
176
     1
170
     0
176
     1
171
     0
176
     1
290
     0
176
     1
 93
        1
176
     1
 44
-50.0
176
     1
173
     0
176
     1
  0
VISUALSTYLE
  5
39
102
{ACAD_REACTORS
330
2A
102
}
330
2A
100
AcDbVisualStyle
  2
Facepattern
 70
    15
177
     2
291
     1
 71
     2
176
     1
 72
     2
176
     1
 73
     0
176
     1
 90
        0
176
     1
 40
-0.6
176
     1
 41
-30.0
176
     1
 62
     5
 63
     7
421
 16777215
176
     1
 74
     1
176
     1
 91
        4
176
     1
 64
     7
176
     1
 65
   257
176
     1
 75
     1
176
     1
175
     1
176
     1
 42
1.0
176
     1
 92
        8
176
     1
 66
     7
176
     1
 43
1.0
176
     1
 76
     1
176
     1
 77
     6
176
     1
 78
     2
176
     1
 67
     7
176
     1
 79
     5
176
     1
170
     0
176
     1
171
     0
176
     1
290
     0
176
     1
 93
        1
176
     1
 44
0.0
176
     1
173
     0
176
     1
  0
VISUALSTYLE
  5
2B
102
{ACAD_REACTORS
330
2A
102
}
330
2A
100
AcDbVisualStyle
  2
Flat
 70
     0
177
     2
291
     1
 71
     2
176
     1
 72
     1
176
     1
 73
     1
176
     1
 90
        2
176
     1
 40
-0.6
176
     1
 41
30.0
176
     1
 62
     5
 63
     7
421
 16777215
176
     1
 74
     0
176
     1
 91
        4
176
     1
 64
     7
176
     1
 65
   257
176
     1
 75
     1
176
     1
175
     1
176
     1
 42
1.0
176
     1
 92
        8
176
     1
 66
     7
176
     1
 43
1.0
176
     1
 76
     1
176
     1
 77
     6
176
     1
 78
     2
176
     1
 67
     7
176
     1
 79
     5
176
     1
170
     0
176
     1
171
     0
176
     1
290
     0
176
     1
 93
       13
176
     1
 44
0.0
176
     1
173
     0
176
     1
  0
VISUALSTYLE
  5
2C
102
{ACAD_REACTORS
330
2A
102
}
330
2A
100
AcDbVisualStyle
  2
FlatWithEdges
 70
     1
177
     2
291
     1
 71
     2
176
     1
 72
     1
176
     1
 73
     1
176
     1
 90
        2
176
     1
 40
-0.6
176
     1
 41
30.0
176
     1
 62
     5
 63
     7
421
 16777215
176
     1
 74
     1
176
     1
 91
        4
176
     1
 64
     7
176
     1
 65
   257
176
     1
 75
     1
176
     1
175
     1
176
     1
 42
1.0
176
     1
 92
        0
176
     1
 66
   257
176
     1
 43
1.0
176
     1
 76
     1
176
     1
 77
     6
176
     1
 78
     2
176
     1
 67
     7
176
     1
 79
     5
176
     1
170
     0
176
     1
171
     0
176
     1
290
     0
176
     1
 93
       13
176
     1
 44
0.0
176
     1
173
     0
176
     1
  0
VISUALSTYLE
  5
2D
102
{ACAD_REACTORS
330
2A
102
}
330
2A
100
AcDbVisualStyle
  2
Gouraud
 70
     2
177
     2
291
     1
 71
     2
176
     1
 72
     2
176
     1
 73
     1
176
     1
 90
        2
176
     1
 40
-0.6
176
     1
 41
30.0
176
     1
 62
     5
 63
     7
421
 16777215
176
     1
 74
     0
176
     1
 91
        4
176
     1
 64
     7
176
     1
 65
   257
176
     1
 75
     1
176
     1
175
     1
176
     1
 42
1.0
176
     1
 92
        0
176
     1
 66
     7
176
     1
 43
1.0
176
     1
 76
     1
176
     1
 77
     6
176
     1
 78
     2
176
     1
 67
     7
176
     1
 79
     5
176
     1
170
     0
176
     1
171
     0
176
     1
290
     0
176
     1
 93
       13
176
     1
 44
0.0
176
     1
173
     0
176
     1
  0
VISUALSTYLE
  5
2E
102
{ACAD_REACTORS
330
2A
102
}
330
2A
100
AcDbVisualStyle
  2
GouraudWithEdges
 70
     3
177
     2
291
     1
 71
     2
176
     1
 72
     2
176
     1
 73
     1
176
     1
 90
        2
176
     1
 40
-0.6
176
     1
 41
30.0
176
     1
 62
     5
 63
     7
421
 16777215
176
     1
 74
     1
176
     1
 91
        4
176
     1
 64
     7
176
     1
 65
   257
176
     1
 75
     1
176
     1
175
     1
176
     1
 42
1.0
176
     1
 92
        0
176
     1
 66
   257
176
     1
 43
1.0
176
     1
 76
     1
176
     1
 77
     6
176
     1
 78
     2
176
     1
 67
     7
176
     1
 79
     5
176
     1
170
     0
176
     1
171
     0
176
     1
290
     0
176
     1
 93
       13
176
     1
 44
0.0
176
     1
173
     0
176
     1
  0
VISUALSTYLE
  5
38
102
{ACAD_REACTORS
330
2A
102
}
330
2A
100
AcDbVisualStyle
  2
Linepattern
 70
    14
177
     2
291
     1
 71
     2
176
     1
 72
     2
176
     1
 73
     0
176
     1
 90
        0
176
     1
 40
-0.6
176
     1
 41
-30.0
176
     1
 62
     5
 63
     7
421
 16777215
176
     1
 74
     1
176
     1
 91
        4
176
     1
 64
     7
176
     1
 65
   257
176
     1
 75
     7
176
     1
175
     7
176
     1
 42
1.0
176
     1
 92
        8
176
     1
 66
     7
176
     1
 43
1.0
176
     1
 76
     1
176
     1
 77
     6
176
     1
 78
     2
176
     1
 67
     7
176
     1
 79
     5
176
     1
170
     0
176
     1
171
     0
176
     1
290
     0
176
     1
 93
        1
176
     1
 44
0.0
176
     1
173
     0
176
     1
  0
VISUALSTYLE
  5
33
102
{ACAD_REACTORS
330
2A
102
}
330
2A
100
AcDbVisualStyle
  2
Realistic
 70
     8
177
     2
291
     0
 71
     2
176
     1
 72
     2
176
     1
 73
     0
176
     1
 90
        0
176
     1
 40
-0.6
176
     1
 41
-30.0
176
     1
 62
     5
 63
     7
421
 16777215
176
     1
 74
     1
176
     1
 91
        0
176
     1
 64
     7
176
     1
 65
   257
176
     1
 75
     1
176
     1
175
     1
176
     1
 42
1.0
176
     1
 92
        8
176
     1
 66
     8
424
  7895160
176
     1
 43
1.0
176
     1
 76
     1
176
     1
 77
     6
176
     1
 78
     2
176
     1
 67
     7
176
     1
 79
     5
176
     1
170
     0
176
     1
171
     0
176
     1
290
     0
176
     1
 93
       13
176
     1
 44
0.0
176
     1
173
     0
176
     1
  0
VISUALSTYLE
  5
37
102
{ACAD_REACTORS
330
2A
102
}
330
2A
100
AcDbVisualStyle
  2
Thicken
 70
    13
177
     2
291
     1
 71
     2
176
     1
 72
     2
176
     1
 73
     0
176
     1
 90
        0
176
     1
 40
-0.6
176
     1
 41
-30.0
176
     1
 62
     5
 63
     7
421
 16777215
176
     1
 74
     1
176
     1
 91
        4
176
     1
 64
     7
176
     1
 65
   257
176
     1
 75
     1
176
     1
175
     1
176
     1
 42
1.0
176
     1
 92
       12
176
     1
 66
     7
176
     1
 43
1.0
176
     1
 76
     1
176
     1
 77
     6
176
     1
 78
     2
176
     1
 67
     7
176
     1
 79
     5
176
     1
170
     0
176
     1
171
     0
176
     1
290
     0
176
     1
 93
        1
176
     1
 44
0.0
176
     1
173
     0
176
     1
  0
ENDSEC
  0
EOF
