  0
SECTION
  2
HEADER
  9
$ACADVER
  1
AC1024
  9
$ACADMAINTVER
 70
     6
  9
$DWGCODEPAGE
  3
UNDEFINED
  9
$INSBASE
 10
0.0
 20
0.0
 30
0.0
  9
$EXTMIN
 10
1.000000000000000E+20
 20
1.000000000000000E+20
 30
1.000000000000000E+20
  9
$EXTMAX
 10
-1.000000000000000E+20
 20
-1.000000000000000E+20
 30
-1.000000000000000E+20
  9
$LIMMIN
 10
0.0
 20
0.0
  9
$LIMMAX
 10
12.0
 20
9.0
  9
$ORTHOMODE
 70
     0
  9
$REGENMODE
 70
     1
  9
$FILLMODE
 70
     1
  9
$QTEXTMODE
 70
     0
  9
$MIRRTEXT
 70
     1
  9
$LTSCALE
 40
1.0
  9
$ATTMODE
 70
     1
  9
$TEXTSIZE
 40
0.2
  9
$TRACEWID
 40
0.05
  9
$TEXTSTYLE
  7
Standard
  9
$CLAYER
  8
0
  9
$CELTYPE
  6
ByLayer
  9
$CECOLOR
 62
   256
  9
$CELTSCALE
 40
1.0
  9
$DISPSILH
 70
     0
  9
$DIMSCALE
 40
1.0
  9
$DIMASZ
 40
0.18
  9
$DIMEXO
 40
0.0625
  9
$DIMDLI
 40
0.38
  9
$DIMRND
 40
0.0
  9
$DIMDLE
 40
0.0
  9
$DIMEXE
 40
0.18
  9
$DIMTP
 40
0.0
  9
$DIMTM
 40
0.0
  9
$DIMTXT
 40
0.18
  9
$DIMCEN
 40
0.09
  9
$DIMTSZ
 40
0.0
  9
$DIMTOL
 70
     0
  9
$DIMLIM
 70
     0
  9
$DIMTIH
 70
     1
  9
$DIMTOH
 70
     1
  9
$DIMSE1
 70
     0
  9
$DIMSE2
 70
     0
  9
$DIMTAD
 70
     0
  9
$DIMZIN
 70
     0
  9
$DIMBLK
  1

  9
$DIMASO
 70
     1
  9
$DIMSHO
 70
     1
  9
$DIMPOST
  1

  9
$DIMAPOST
  1

  9
$DIMALT
 70
     0
  9
$DIMALTD
 70
     2
  9
$DIMALTF
 40
25.4
  9
$DIMLFAC
 40
1.0
  9
$DIMTOFL
 70
     0
  9
$DIMTVP
 40
0.0
  9
$DIMTIX
 70
     0
  9
$DIMSOXD
 70
     0
  9
$DIMSAH
 70
     0
  9
$DIMBLK1
  1

  9
$DIMBLK2
  1

  9
$DIMSTYLE
  2
Standard
  9
$DIMCLRD
 70
     0
  9
$DIMCLRE
 70
     0
  9
$DIMCLRT
 70
     0
  9
$DIMTFAC
 40
1.0
  9
$DIMGAP
 40
0.09
  9
$DIMJUST
 70
     0
  9
$DIMSD1
 70
     0
  9
$DIMSD2
 70
     0
  9
$DIMTOLJ
 70
     1
  9
$DIMTZIN
 70
     0
  9
$DIMALTZ
 70
     0
  9
$DIMALTTZ
 70
     0
  9
$DIMUPT
 70
     0
  9
$DIMDEC
 70
     4
  9
$DIMTDEC
 70
     4
  9
$DIMALTU
 70
     2
  9
$DIMALTTD
 70
     2
  9
$DIMTXSTY
  7
Standard
  9
$DIMAUNIT
 70
     0
  9
$DIMADEC
 70
     0
  9
$DIMALTRND
 40
0.0
  9
$DIMAZIN
 70
     0
  9
$DIMDSEP
 70
    46
  9
$DIMATFIT
 70
     3
  9
$DIMFRAC
 70
     0
  9
$DIMLDRBLK
  1

  9
$DIMLUNIT
 70
     2
  9
$DIMLWD
 70
    -2
  9
$DIMLWE
 70
    -2
  9
$DIMTMOVE
 70
     0
  9
$DIMFXL
 40
1.0
  9
$DIMFXLON
 70
     0
  9
$DIMJOGANG
 40
0.7853981633974483
  9
$DIMTFILL
 70
     0
  9
$DIMTFILLCLR
 70
     0
  9
$DIMARCSYM
 70
     0
  9
$DIMLTYPE
  6

  9
$DIMLTEX1
  6

  9
$DIMLTEX2
  6

  9
$DIMTXTDIRECTION
 70
     0
  9
$LUNITS
 70
     2
  9
$LUPREC
 70
     4
  9
$SKETCHINC
 40
0.1
  9
$FILLETRAD
 40
0.5
  9
$AUNITS
 70
     0
  9
$AUPREC
 70
     0
  9
$MENU
  1
.
  9
$ELEVATION
 40
0.0
  9
$PELEVATION
 40
0.0
  9
$THICKNESS
 40
0.0
  9
$LIMCHECK
 70
     0
  9
$CHAMFERA
 40
0.5
  9
$CHAMFERB
 40
0.5
  9
$CHAMFERC
 40
1.0
  9
$CHAMFERD
 40
0.0
  9
$SKPOLY
 70
     0
  9
$TDCREATE
 40
2457917.626099537
  9
$TDUCREATE
 40
2457917.251099537
  9
$TDUPDATE
 40
2457917.626099537
  9
$TDUUPDATE
 40
2457917.251099537
  9
$TDINDWG
 40
0.0000000116
  9
$TDUSRTIMER
 40
0.0000000116
  9
$USRTIMER
 70
     1
  9
$ANGBASE
 50
0.0
  9
$ANGDIR
 70
     0
  9
$PDMODE
 70
     0
  9
$PDSIZE
 40
0.0
  9
$PLINEWID
 40
0.0
  9
$SPLFRAME
 70
     0
  9
$SPLINETYPE
 70
     6
  9
$SPLINESEGS
 70
     8
  9
$HANDSEED
  5
A3
  9
$SURFTAB1
 70
     6
  9
$SURFTAB2
 70
     6
  9
$SURFTYPE
 70
     6
  9
$SURFU
 70
     6
  9
$SURFV
 70
     6
  9
$UCSBASE
  2

  9
$UCSNAME
  2

  9
$UCSORG
 10
0.0
 20
0.0
 30
0.0
  9
$UCSXDIR
 10
1.0
 20
0.0
 30
0.0
  9
$UCSYDIR
 10
0.0
 20
1.0
 30
0.0
  9
$UCSORTHOREF
  2

  9
$UCSORTHOVIEW
 70
     0
  9
$UCSORGTOP
 10
0.0
 20
0.0
 30
0.0
  9
$UCSORGBOTTOM
 10
0.0
 20
0.0
 30
0.0
  9
$UCSORGLEFT
 10
0.0
 20
0.0
 30
0.0
  9
$UCSORGRIGHT
 10
0.0
 20
0.0
 30
0.0
  9
$UCSORGFRONT
 10
0.0
 20
0.0
 30
0.0
  9
$UCSORGBACK
 10
0.0
 20
0.0
 30
0.0
  9
$PUCSBASE
  2

  9
$PUCSNAME
  2

  9
$PUCSORG
 10
0.0
 20
0.0
 30
0.0
  9
$PUCSXDIR
 10
1.0
 20
0.0
 30
0.0
  9
$PUCSYDIR
 10
0.0
 20
1.0
 30
0.0
  9
$PUCSORTHOREF
  2

  9
$PUCSORTHOVIEW
 70
     0
  9
$PUCSORGTOP
 10
0.0
 20
0.0
 30
0.0
  9
$PUCSORGBOTTOM
 10
0.0
 20
0.0
 30
0.0
  9
$PUCSORGLEFT
 10
0.0
 20
0.0
 30
0.0
  9
$PUCSORGRIGHT
 10
0.0
 20
0.0
 30
0.0
  9
$PUCSORGFRONT
 10
0.0
 20
0.0
 30
0.0
  9
$PUCSORGBACK
 10
0.0
 20
0.0
 30
0.0
  9
$USERI1
 70
     0
  9
$USERI2
 70
     0
  9
$USERI3
 70
     0
  9
$USERI4
 70
     0
  9
$USERI5
 70
     0
  9
$USERR1
 40
0.0
  9
$USERR2
 40
0.0
  9
$USERR3
 40
0.0
  9
$USERR4
 40
0.0
  9
$USERR5
 40
0.0
  9
$WORLDVIEW
 70
     1
  9
$SHADEDGE
 70
     3
  9
$SHADEDIF
 70
    70
  9
$TILEMODE
 70
     1
  9
$MAXACTVP
 70
    64
  9
$PINSBASE
 10
0.0
 20
0.0
 30
0.0
  9
$PLIMCHECK
 70
     0
  9
$PEXTMIN
 10
1.000000000000000E+20
 20
1.000000000000000E+20
 30
1.000000000000000E+20
  9
$PEXTMAX
 10
-1.000000000000000E+20
 20
-1.000000000000000E+20
 30
-1.000000000000000E+20
  9
$PLIMMIN
 10
0.0
 20
0.0
  9
$PLIMMAX
 10
12.0
 20
9.0
  9
$UNITMODE
 70
     0
  9
$VISRETAIN
 70
     1
  9
$PLINEGEN
 70
     0
  9
$PSLTSCALE
 70
     1
  9
$TREEDEPTH
 70
  3020
  9
$CMLSTYLE
  2
Standard
  9
$CMLJUST
 70
     0
  9
$CMLSCALE
 40
1.0
  9
$PROXYGRAPHICS
 70
     1
  9
$MEASUREMENT
 70
     0
  9
$CELWEIGHT
370
    -1
  9
$ENDCAPS
280
     0
  9
$JOINSTYLE
280
     0
  9
$LWDISPLAY
290
     1
  9
$INSUNITS
 70
     1
  9
$HYPERLINKBASE
  1

  9
$STYLESHEET
  1

  9
$XEDIT
290
     1
  9
$CEPSNTYPE
380
     0
  9
$PSTYLEMODE
290
     1
  9
$FINGERPRINTGUID
  2
{9E4A1679-DFD7-1F7F-CBD8-F5C1162516E1}
  9
$VERSIONGUID
  2
{FAEB1C32-E019-11D5-929B-00C0DF256EC4}
  9
$EXTNAMES
290
     1
  9
$PSVPSCALE
 40
0.0
  9
$OLESTARTUP
290
     0
  9
$SORTENTS
280
   127
  9
$INDEXCTL
280
     0
  9
$HIDETEXT
280
     1
  9
$XCLIPFRAME
280
     2
  9
$HALOGAP
280
     0
  9
$OBSCOLOR
 70
   257
  9
$OBSLTYPE
280
     0
  9
$INTERSECTIONDISPLAY
280
     0
  9
$INTERSECTIONCOLOR
 70
   257
  9
$DIMASSOC
280
     2
  9
$PROJECTNAME
  1

  9
$CAMERADISPLAY
290
     0
  9
$LENSLENGTH
 40
50.0
  9
$CAMERAHEIGHT
 40
0.0
  9
$STEPSPERSEC
 40
2.0
  9
$STEPSIZE
 40
6.0
  9
$3DDWFPREC
 40
2.0
  9
$PSOLWIDTH
 40
0.25
  9
$PSOLHEIGHT
 40
4.0
  9
$LOFTANG1
 40
1.570796326794897
  9
$LOFTANG2
 40
1.570796326794897
  9
$LOFTMAG1
 40
0.0
  9
$LOFTMAG2
 40
0.0
  9
$LOFTPARAM
 70
     7
  9
$LOFTNORMALS
280
     1
  9
$LATITUDE
 40
37.795
  9
$LONGITUDE
 40
-122.394
  9
$NORTHDIRECTION
 40
0.0
  9
$TIMEZONE
 70
 -8000
  9
$LIGHTGLYPHDISPLAY
280
     1
  9
$TILEMODELIGHTSYNCH
280
     1
  9
$CMATERIAL
347
3C
  9
$SOLIDHIST
280
     1
  9
$SHOWHIST
280
     1
  9
$DWFFRAME
280
     2
  9
$DGNFRAME
280
     2
  9
$REALWORLDSCALE
290
     1
  9
$INTERFERECOLOR
 62
   256
  9
$CSHADOW
280
     0
  9
$SHADOWPLANELOCATION
 40
0.0
  0
ENDSEC
  0
SECTION
  2
CLASSES
  0
CLASS
  1
ACDBDICTIONARYWDFLT
  2
AcDbDictionaryWithDefault
  3
ObjectDBX Classes
 90
        0
 91
        4
280
     0
281
     0
  0
CLASS
  1
VISUALSTYLE
  2
AcDbVisualStyle
  3
ObjectDBX Classes
 90
     4095
 91
        4
280
     0
281
     0
  0
CLASS
  1
MATERIAL
  2
AcDbMaterial
  3
ObjectDBX Classes
 90
     1153
 91
        4
280
     0
281
     0
  0
CLASS
  1
SUN
  2
AcDbSun
  3
SCENEOE
 90
     1024
 91
        4
280
     0
281
     0
  0
ENDSEC
  0
SECTION
  2
TABLES
  0
TABLE
  2
VPORT
  5
8
330
0
100
AcDbSymbolTable
 70
     1
  0
VPORT
  5
29
330
8
100
AcDbSymbolTableRecord
100
AcDbViewportTableRecord
  2
*Active
 70
     0
 10
0.0
 20
0.0
 11
1.0
 21
1.0
 12
0.0
 22
0.0
 13
0.0
 23
0.0
 14
0.5
 24
0.5
 15
0.5
 25
0.5
 16
0.0
 26
0.0
 36
1.0
 17
91.00082462281999
 27
-128.4993055234307
 37
0.0
 40
256.9986110468615
 41
0.7081814508812795
 42
50.0
 43
0.0
 44
0.0
 50
0.0
 51
0.0
 71
     0
 72
   100
 73
     1
 74
     3
 75
     0
 76
     0
 77
     0
 78
     0
281
     0
 65
     1
110
0.0
120
0.0
130
0.0
111
1.0
121
0.0
131
0.0
112
0.0
122
1.0
132
0.0
 79
     0
146
0.0
 60
     3
 61
     5
292
     1
282
     1
141
0.0
142
0.0
 63
   250
361
3F
  0
ENDTAB
  0
TABLE
  2
LTYPE
  5
5
330
0
100
AcDbSymbolTable
 70
     2
  0
LTYPE
  5
14
330
5
100
AcDbSymbolTableRecord
100
AcDbLinetypeTableRecord
  2
ByBlock
 70
     0
  3

 72
    65
 73
     0
 40
0.0
  0
LTYPE
  5
15
330
5
100
AcDbSymbolTableRecord
100
AcDbLinetypeTableRecord
  2
ByLayer
 70
     0
  3

 72
    65
 73
     0
 40
0.0
  0
LTYPE
  5
16
330
5
100
AcDbSymbolTableRecord
100
AcDbLinetypeTableRecord
  2
Continuous
 70
     0
  3
Solid line
 72
    65
 73
     0
 40
0.0
  0
LTYPE
  5
9F
330
5
100
AcDbSymbolTableRecord
100
AcDbLinetypeTableRecord
  2
AI-Linetype-1
 70
     0
  3
Adobe Illustrator Linetype No. 1
 72
    65
 73
     2
 40
1.411111110758333
 49
0.7055555553791667
 74
     0
 49
-0.7055555553791667
 74
     0
  0
ENDTAB
  0
TABLE
  2
LAYER
  5
2
330
0
100
AcDbSymbolTable
 70
     2
  0
LAYER
  5
10
330
2
100
AcDbSymbolTableRecord
100
AcDbLayerTableRecord
  2
0
 70
     0
 62
     7
  6
Continuous
370
    -3
390
F
347
3E
  0
LAYER
  5
40
330
2
100
AcDbSymbolTableRecord
100
AcDbLayerTableRecord
  2
_U+30EC_U+30A4_U+30E4_U+30FC 1
 70
     0
 62
     7
  6
Continuous
370
    -3
390
F
347
3E
  0
ENDTAB
  0
TABLE
  2
STYLE
  5
3
330
0
100
AcDbSymbolTable
 70
     1
  0
STYLE
  5
11
330
3
100
AcDbSymbolTableRecord
100
AcDbTextStyleTableRecord
  2
Standard
 70
     0
 40
0.0
 41
1.0
 50
0.0
 71
     0
 42
0.2
  3
txt
  4

  0
ENDTAB
  0
TABLE
  2
VIEW
  5
6
330
0
100
AcDbSymbolTable
 70
     0
  0
ENDTAB
  0
TABLE
  2
UCS
  5
7
330
0
100
AcDbSymbolTable
 70
     0
  0
ENDTAB
  0
TABLE
  2
APPID
  5
9
330
0
100
AcDbSymbolTable
 70
     1
  0
APPID
  5
12
330
9
100
AcDbSymbolTableRecord
100
AcDbRegAppTableRecord
  2
ACAD
 70
     0
  0
ENDTAB
  0
TABLE
  2
DIMSTYLE
  5
A
330
0
100
AcDbSymbolTable
 70
     1
100
AcDbDimStyleTable
  0
DIMSTYLE
105
27
330
A
100
AcDbSymbolTableRecord
100
AcDbDimStyleTableRecord
  2
Standard
 70
     0
178
     0
340
11
  0
ENDTAB
  0
TABLE
  2
BLOCK_RECORD
  5
1
330
0
100
AcDbSymbolTable
 70
     4
  0
BLOCK_RECORD
  5
1F
330
1
100
AcDbSymbolTableRecord
100
AcDbBlockTableRecord
  2
*Model_Space
340
22
 70
     0
280
     1
281
     0
  0
BLOCK_RECORD
  5
1B
330
1
100
AcDbSymbolTableRecord
100
AcDbBlockTableRecord
  2
*Paper_Space
340
1E
 70
     0
280
     1
281
     0
  0
BLOCK_RECORD
  5
23
330
1
100
AcDbSymbolTableRecord
100
AcDbBlockTableRecord
  2
*Paper_Space0
340
26
 70
     0
280
     1
281
     0
  0
BLOCK_RECORD
  5
54
330
1
100
AcDbSymbolTableRecord
100
AcDbBlockTableRecord
  2
block 2
340
0
102
{BLKREFS
331
55
102
}
 70
     0
280
     1
281
     0
  0
BLOCK_RECORD
  5
5C
330
1
100
AcDbSymbolTableRecord
100
AcDbBlockTableRecord
  2
block 3
340
0
102
{BLKREFS
331
5D
102
}
 70
     0
280
     1
281
     0
  0
BLOCK_RECORD
  5
64
330
1
100
AcDbSymbolTableRecord
100
AcDbBlockTableRecord
  2
block 4
340
0
102
{BLKREFS
331
65
102
}
 70
     0
280
     1
281
     0
  0
ENDTAB
  0
ENDSEC
  0
SECTION
  2
BLOCKS
  0
BLOCK
  5
20
330
1F
100
AcDbEntity
  8
0
100
AcDbBlockBegin
  2
*Model_Space
 70
     0
 10
0.0
 20
0.0
 30
0.0
  3
*Model_Space
  1

  0
ENDBLK
  5
21
330
1F
100
AcDbEntity
  8
0
100
AcDbBlockEnd
  0
BLOCK
  5
1C
330
1B
100
AcDbEntity
 67
     1
  8
0
100
AcDbBlockBegin
  2
*Paper_Space
 70
     0
 10
0.0
 20
0.0
 30
0.0
  3
*Paper_Space
  1

  0
ENDBLK
  5
1D
330
1B
100
AcDbEntity
 67
     1
  8
0
100
AcDbBlockEnd
  0
BLOCK
  5
24
330
23
100
AcDbEntity
  8
0
100
AcDbBlockBegin
  2
*Paper_Space0
 70
     0
 10
0.0
 20
0.0
 30
0.0
  3
*Paper_Space0
  1

  0
ENDBLK
  5
25
330
23
100
AcDbEntity
  8
0
100
AcDbBlockEnd
  0
BLOCK
  5
56
330
54
100
AcDbEntity
  8
0
100
AcDbBlockBegin
  2
block 2
 70
     0
 10
0.0
 20
0.0
 30
0.0
  3
block 2
  1

  0
SPLINE
  5
58
330
54
100
AcDbEntity
  8
_U+30EC_U+30A4_U+30E4_U+30FC 1
370
     0
100
AcDbSpline
210
0.0
220
0.0
230
1.0
 70
    11
 71
     3
 72
    44
 73
    40
 74
     0
 42
0.0000000001
 43
0.0000000001
 12
1.0
 22
0.0
 32
0.0
 13
1.0
 23
0.0
 33
0.0
 40
0.0
 40
0.0
 40
0.0
 40
0.0
 40
1.0
 40
1.0
 40
1.0
 40
2.0
 40
2.0
 40
2.0
 40
3.0
 40
3.0
 40
3.0
 40
4.0
 40
4.0
 40
4.0
 40
5.0
 40
5.0
 40
5.0
 40
6.0
 40
6.0
 40
6.0
 40
7.0
 40
7.0
 40
7.0
 40
8.0
 40
8.0
 40
8.0
 40
9.0
 40
9.0
 40
9.0
 40
10.0
 40
10.0
 40
10.0
 40
11.0
 40
11.0
 40
11.0
 40
12.0
 40
12.0
 40
12.0
 40
13.0
 40
13.0
 40
13.0
 40
13.0
 10
75.36990422377906
 20
-158.5215901296404
 30
0.0
 10
75.13701576897617
 20
-158.6804090315105
 30
0.0
 10
75.0376247642267
 20
-158.7544785844433
 30
0.0
 10
74.98560382239944
 20
-158.8981390661783
 30
0.0
 10
74.98560382239944
 20
-158.8981390661783
 30
0.0
 10
75.81759438208726
 20
-158.8981390661783
 30
0.0
 10
75.81759438208726
 20
-158.8981390661783
 30
0.0
 10
75.81759438208726
 20
-158.8981390661783
 30
0.0
 10
75.81759438208726
 20
-159.1034667570991
 30
0.0
 10
75.81759438208726
 20
-159.1034667570991
 30
0.0
 10
75.81759438208726
 20
-159.1034667570991
 30
0.0
 10
74.71878117706683
 20
-159.1034667570991
 30
0.0
 10
74.71878117706683
 20
-159.1034667570991
 30
0.0
 10
74.75271536759655
 20
-158.7458658457302
 30
0.0
 10
74.82282306072138
 20
-158.667662178215
 30
0.0
 10
75.23433971643448
 20
-158.3693169091924
 30
0.0
 10
75.50788029796331
 20
-158.1705348996935
 30
0.0
 10
75.57798799108815
 20
-158.1026665186341
 30
0.0
 10
75.57798799108815
 20
-157.9652072087726
 30
0.0
 10
75.57798799108815
 20
-157.84669592408
 30
0.0
 10
75.50099010699282
 20
-157.7157822956405
 30
0.0
 10
75.29083928239257
 20
-157.7157822956405
 30
0.0
 10
75.01282007673291
 20
-157.7157822956405
 30
0.0
 10
75.003690573697
 20
-157.9462591836037
 30
0.0
 10
74.99921194956617
 20
-158.0627034110052
 30
0.0
 10
74.99921194956617
 20
-158.0627034110052
 30
0.0
 10
74.75960555856705
 20
-158.0627034110052
 30
0.0
 10
74.75960555856705
 20
-158.0627034110052
 30
0.0
 10
74.7685628068287
 20
-157.9355793875994
 30
0.0
 10
74.77993162193002
 20
-157.8236137843288
 30
0.0
 10
74.86571449951275
 20
-157.7051024996362
 30
0.0
 10
74.98336451033403
 20
-157.5442165404751
 30
0.0
 10
75.1823187746072
 20
-157.5104546047196
 30
0.0
 10
75.30668672162471
 20
-157.5104546047196
 30
0.0
 10
75.60279267858195
 20
-157.5104546047196
 30
0.0
 10
75.8243123182835
 20
-157.6944227036319
 30
0.0
 10
75.8243123182835
 20
-157.9672742660638
 30
0.0
 10
75.8243123182835
 20
-158.1960286062843
 30
0.0
 10
75.70011662604026
 20
-158.2952473562595
 30
0.0
 10
75.36990422377906
 20
-158.5215901296404
 30
0.0
  0
HATCH
  5
59
330
54
100
AcDbEntity
  8
_U+30EC_U+30A4_U+30E4_U+30FC 1
 62
     7
420
 16777215
100
AcDbHatch
 10
0.0
 20
0.0
 30
0.0
210
0.0
220
0.0
230
1.0
  2
SOLID
 70
     1
 71
     0
 91
        1
 92
        1
 93
        1
 72
     4
 94
        3
 73
     0
 74
     1
 95
       44
 96
       40
 40
0.0
 40
0.0
 40
0.0
 40
0.0
 40
1.0
 40
1.0
 40
1.0
 40
2.0
 40
2.0
 40
2.0
 40
3.0
 40
3.0
 40
3.0
 40
4.0
 40
4.0
 40
4.0
 40
5.0
 40
5.0
 40
5.0
 40
6.0
 40
6.0
 40
6.0
 40
7.0
 40
7.0
 40
7.0
 40
8.0
 40
8.0
 40
8.0
 40
9.0
 40
9.0
 40
9.0
 40
10.0
 40
10.0
 40
10.0
 40
11.0
 40
11.0
 40
11.0
 40
12.0
 40
12.0
 40
12.0
 40
13.0
 40
13.0
 40
13.0
 40
13.0
 10
75.36990422377906
 20
-158.5215901296404
 10
75.13701576897617
 20
-158.6804090315105
 10
75.0376247642267
 20
-158.7544785844433
 10
74.98560382239944
 20
-158.8981390661783
 10
74.98560382239944
 20
-158.8981390661783
 10
75.81759438208726
 20
-158.8981390661783
 10
75.81759438208726
 20
-158.8981390661783
 10
75.81759438208726
 20
-158.8981390661783
 10
75.81759438208726
 20
-159.1034667570991
 10
75.81759438208726
 20
-159.1034667570991
 10
75.81759438208726
 20
-159.1034667570991
 10
74.71878117706683
 20
-159.1034667570991
 10
74.71878117706683
 20
-159.1034667570991
 10
74.75271536759655
 20
-158.7458658457302
 10
74.82282306072138
 20
-158.667662178215
 10
75.23433971643448
 20
-158.3693169091924
 10
75.50788029796331
 20
-158.1705348996935
 10
75.57798799108815
 20
-158.1026665186341
 10
75.57798799108815
 20
-157.9652072087726
 10
75.57798799108815
 20
-157.84669592408
 10
75.50099010699282
 20
-157.7157822956405
 10
75.29083928239257
 20
-157.7157822956405
 10
75.01282007673291
 20
-157.7157822956405
 10
75.003690573697
 20
-157.9462591836037
 10
74.99921194956617
 20
-158.0627034110052
 10
74.99921194956617
 20
-158.0627034110052
 10
74.75960555856705
 20
-158.0627034110052
 10
74.75960555856705
 20
-158.0627034110052
 10
74.7685628068287
 20
-157.9355793875994
 10
74.77993162193002
 20
-157.8236137843288
 10
74.86571449951275
 20
-157.7051024996362
 10
74.98336451033403
 20
-157.5442165404751
 10
75.1823187746072
 20
-157.5104546047196
 10
75.30668672162471
 20
-157.5104546047196
 10
75.60279267858195
 20
-157.5104546047196
 10
75.8243123182835
 20
-157.6944227036319
 10
75.8243123182835
 20
-157.9672742660638
 10
75.8243123182835
 20
-158.1960286062843
 10
75.70011662604026
 20
-158.2952473562595
 10
75.36990422377906
 20
-158.5215901296404
 97
        0
 97
        0
 75
     2
 76
     1
 98
        0
  0
SPLINE
  5
5A
330
54
100
AcDbEntity
  8
_U+30EC_U+30A4_U+30E4_U+30FC 1
370
     0
100
AcDbSpline
210
0.0
220
0.0
230
1.0
 70
    11
 71
     3
 72
    53
 73
    49
 74
     0
 42
0.0000000001
 43
0.0000000001
 12
1.0
 22
0.0
 32
0.0
 13
1.0
 23
0.0
 33
0.0
 40
0.0
 40
0.0
 40
0.0
 40
0.0
 40
1.0
 40
1.0
 40
1.0
 40
2.0
 40
2.0
 40
2.0
 40
3.0
 40
3.0
 40
3.0
 40
4.0
 40
4.0
 40
4.0
 40
5.0
 40
5.0
 40
5.0
 40
6.0
 40
6.0
 40
6.0
 40
7.0
 40
7.0
 40
7.0
 40
8.0
 40
8.0
 40
8.0
 40
9.0
 40
9.0
 40
9.0
 40
10.0
 40
10.0
 40
10.0
 40
11.0
 40
11.0
 40
11.0
 40
12.0
 40
12.0
 40
12.0
 40
13.0
 40
13.0
 40
13.0
 40
14.0
 40
14.0
 40
14.0
 40
15.0
 40
15.0
 40
15.0
 40
16.0
 40
16.0
 40
16.0
 40
16.0
 10
76.50799151733133
 20
-159.1541096607323
 30
0.0
 10
76.42427569703977
 20
-159.1541096607323
 30
0.0
 10
76.3157551892544
 20
-159.1372286928546
 30
0.0
 10
76.20723468146903
 20
-159.073838935926
 30
0.0
 10
76.02188854436258
 20
-158.9639403899465
 30
0.0
 10
75.99915091415994
 20
-158.8326822519585
 30
0.0
 10
75.97882485079697
 20
-158.7248507632702
 30
0.0
 10
75.97882485079697
 20
-158.7248507632702
 30
0.0
 10
76.21619192973068
 20
-158.7248507632702
 30
0.0
 10
76.21619192973068
 20
-158.7248507632702
 30
0.0
 10
76.27510306252844
 20
-158.9236327727691
 30
0.0
 10
76.41066756987303
 20
-158.9532605939422
 30
0.0
 10
76.51023082939675
 20
-158.9532605939422
 30
0.0
 10
76.65940346390806
 20
-158.9532605939422
 30
0.0
 10
76.82218422558613
 20
-158.8536973344185
 30
0.0
 10
76.82218422558613
 20
-158.6211533891642
 30
0.0
 10
76.82218422558613
 20
-158.3651827946101
 30
0.0
 10
76.62994789750918
 20
-158.2952473562595
 30
0.0
 10
76.50110132636084
 20
-158.2952473562595
 30
0.0
 10
76.46716713583113
 20
-158.2952473562595
 30
0.0
 10
76.3157551892544
 20
-158.2952473562595
 30
0.0
 10
76.22084280863577
 20
-158.4244384369564
 30
0.0
 10
76.22084280863577
 20
-158.4244384369564
 30
0.0
 10
76.03308510468965
 20
-158.4054904117875
 30
0.0
 10
76.03308510468965
 20
-158.4054904117875
 30
0.0
 10
76.03308510468965
 20
-158.4054904117875
 30
0.0
 10
76.16210393061226
 20
-157.5590304510616
 30
0.0
 10
76.16210393061226
 20
-157.5590304510616
 30
0.0
 10
76.16210393061226
 20
-157.5590304510616
 30
0.0
 10
76.99409449030009
 20
-157.5590304510616
 30
0.0
 10
76.99409449030009
 20
-157.5590304510616
 30
0.0
 10
76.99409449030009
 20
-157.5590304510616
 30
0.0
 10
76.99409449030009
 20
-157.7536783459782
 30
0.0
 10
76.99409449030009
 20
-157.7536783459782
 30
0.0
 10
76.99409449030009
 20
-157.7536783459782
 30
0.0
 10
76.33608125261738
 20
-157.7536783459782
 30
0.0
 10
76.33608125261738
 20
-157.7536783459782
 30
0.0
 10
76.33608125261738
 20
-157.7536783459782
 30
0.0
 10
76.26597355949254
 20
-158.1767360715669
 30
0.0
 10
76.26597355949254
 20
-158.1767360715669
 30
0.0
 10
76.33160262848655
 20
-158.1429741358115
 30
0.0
 10
76.41979707290895
 20
-158.1026665186341
 30
0.0
 10
76.54640433199188
 20
-158.1026665186341
 30
0.0
 10
76.8177056014553
 20
-158.1026665186341
 30
0.0
 10
77.07092011962116
 20
-158.2890461843861
 30
0.0
 10
77.07092011962116
 20
-158.6022053639953
 30
0.0
 10
77.07092011962116
 20
-158.9194986581868
 30
0.0
 10
76.83114147384778
 20
-159.1541096607323
 30
0.0
 10
76.50799151733133
 20
-159.1541096607323
 30
0.0
  0
HATCH
  5
5B
330
54
100
AcDbEntity
  8
_U+30EC_U+30A4_U+30E4_U+30FC 1
 62
     7
420
 16777215
100
AcDbHatch
 10
0.0
 20
0.0
 30
0.0
210
0.0
220
0.0
230
1.0
  2
SOLID
 70
     1
 71
     0
 91
        1
 92
        1
 93
        1
 72
     4
 94
        3
 73
     0
 74
     1
 95
       53
 96
       49
 40
0.0
 40
0.0
 40
0.0
 40
0.0
 40
1.0
 40
1.0
 40
1.0
 40
2.0
 40
2.0
 40
2.0
 40
3.0
 40
3.0
 40
3.0
 40
4.0
 40
4.0
 40
4.0
 40
5.0
 40
5.0
 40
5.0
 40
6.0
 40
6.0
 40
6.0
 40
7.0
 40
7.0
 40
7.0
 40
8.0
 40
8.0
 40
8.0
 40
9.0
 40
9.0
 40
9.0
 40
10.0
 40
10.0
 40
10.0
 40
11.0
 40
11.0
 40
11.0
 40
12.0
 40
12.0
 40
12.0
 40
13.0
 40
13.0
 40
13.0
 40
14.0
 40
14.0
 40
14.0
 40
15.0
 40
15.0
 40
15.0
 40
16.0
 40
16.0
 40
16.0
 40
16.0
 10
76.50799151733133
 20
-159.1541096607323
 10
76.42427569703977
 20
-159.1541096607323
 10
76.3157551892544
 20
-159.1372286928546
 10
76.20723468146903
 20
-159.073838935926
 10
76.02188854436258
 20
-158.9639403899465
 10
75.99915091415994
 20
-158.8326822519585
 10
75.97882485079697
 20
-158.7248507632702
 10
75.97882485079697
 20
-158.7248507632702
 10
76.21619192973068
 20
-158.7248507632702
 10
76.21619192973068
 20
-158.7248507632702
 10
76.27510306252844
 20
-158.9236327727691
 10
76.41066756987303
 20
-158.9532605939422
 10
76.51023082939675
 20
-158.9532605939422
 10
76.65940346390806
 20
-158.9532605939422
 10
76.82218422558613
 20
-158.8536973344185
 10
76.82218422558613
 20
-158.6211533891642
 10
76.82218422558613
 20
-158.3651827946101
 10
76.62994789750918
 20
-158.2952473562595
 10
76.50110132636084
 20
-158.2952473562595
 10
76.46716713583113
 20
-158.2952473562595
 10
76.3157551892544
 20
-158.2952473562595
 10
76.22084280863577
 20
-158.4244384369564
 10
76.22084280863577
 20
-158.4244384369564
 10
76.03308510468965
 20
-158.4054904117875
 10
76.03308510468965
 20
-158.4054904117875
 10
76.03308510468965
 20
-158.4054904117875
 10
76.16210393061226
 20
-157.5590304510616
 10
76.16210393061226
 20
-157.5590304510616
 10
76.16210393061226
 20
-157.5590304510616
 10
76.99409449030009
 20
-157.5590304510616
 10
76.99409449030009
 20
-157.5590304510616
 10
76.99409449030009
 20
-157.5590304510616
 10
76.99409449030009
 20
-157.7536783459782
 10
76.99409449030009
 20
-157.7536783459782
 10
76.99409449030009
 20
-157.7536783459782
 10
76.33608125261738
 20
-157.7536783459782
 10
76.33608125261738
 20
-157.7536783459782
 10
76.33608125261738
 20
-157.7536783459782
 10
76.26597355949254
 20
-158.1767360715669
 10
76.26597355949254
 20
-158.1767360715669
 10
76.33160262848655
 20
-158.1429741358115
 10
76.41979707290895
 20
-158.1026665186341
 10
76.54640433199188
 20
-158.1026665186341
 10
76.8177056014553
 20
-158.1026665186341
 10
77.07092011962116
 20
-158.2890461843861
 10
77.07092011962116
 20
-158.6022053639953
 10
77.07092011962116
 20
-158.9194986581868
 10
76.83114147384778
 20
-159.1541096607323
 10
76.50799151733133
 20
-159.1541096607323
 97
        0
 97
        0
 75
     2
 76
     1
 98
        0
  0
ENDBLK
  5
57
330
54
100
AcDbEntity
  8
0
100
AcDbBlockEnd
  0
BLOCK
  5
5E
330
5C
100
AcDbEntity
  8
0
100
AcDbBlockBegin
  2
block 3
 70
     0
 10
0.0
 20
0.0
 30
0.0
  3
block 3
  1

  0
SPLINE
  5
60
330
5C
100
AcDbEntity
  8
_U+30EC_U+30A4_U+30E4_U+30FC 1
370
     0
100
AcDbSpline
210
0.0
220
0.0
230
1.0
 70
    11
 71
     3
 72
    53
 73
    49
 74
     0
 42
0.0000000001
 43
0.0000000001
 12
1.0
 22
0.0
 32
0.0
 13
1.0
 23
0.0
 33
0.0
 40
0.0
 40
0.0
 40
0.0
 40
0.0
 40
1.0
 40
1.0
 40
1.0
 40
2.0
 40
2.0
 40
2.0
 40
3.0
 40
3.0
 40
3.0
 40
4.0
 40
4.0
 40
4.0
 40
5.0
 40
5.0
 40
5.0
 40
6.0
 40
6.0
 40
6.0
 40
7.0
 40
7.0
 40
7.0
 40
8.0
 40
8.0
 40
8.0
 40
9.0
 40
9.0
 40
9.0
 40
10.0
 40
10.0
 40
10.0
 40
11.0
 40
11.0
 40
11.0
 40
12.0
 40
12.0
 40
12.0
 40
13.0
 40
13.0
 40
13.0
 40
14.0
 40
14.0
 40
14.0
 40
15.0
 40
15.0
 40
15.0
 40
16.0
 40
16.0
 40
16.0
 40
16.0
 10
116.8049288987502
 20
-130.398586664449
 30
0.0
 10
116.8049288987502
 20
-130.4823024847405
 30
0.0
 10
116.7880479308724
 20
-130.5904784829774
 30
0.0
 10
116.7246581739438
 20
-130.6993435003113
 30
0.0
 10
116.6147596279644
 20
-130.8846896374177
 30
0.0
 10
116.4835014899763
 20
-130.9070827580719
 30
0.0
 10
116.375670001288
 20
-130.9274088214348
 30
0.0
 10
116.375670001288
 20
-130.9274088214348
 30
0.0
 10
116.375670001288
 20
-130.6900417425011
 30
0.0
 10
116.375670001288
 20
-130.6900417425011
 30
0.0
 10
116.5744520107869
 20
-130.6314751192519
 30
0.0
 10
116.6040798319601
 20
-130.495738357133
 30
0.0
 10
116.6040798319601
 20
-130.3961750976093
 30
0.0
 10
116.6040798319601
 20
-130.247002463098
 30
0.0
 10
116.5045165724364
 20
-130.0840494466457
 30
0.0
 10
116.271972627182
 20
-130.0840494466457
 30
0.0
 10
116.016002032628
 20
-130.0840494466457
 30
0.0
 10
115.9460665942774
 20
-130.2762857747226
 30
0.0
 10
115.9460665942774
 20
-130.405132345871
 30
0.0
 10
115.9460665942774
 20
-130.4392387911749
 30
0.0
 10
115.9460665942774
 20
-130.5904784829774
 30
0.0
 10
116.0752576749743
 20
-130.6855631183703
 30
0.0
 10
116.0752576749743
 20
-130.6855631183703
 30
0.0
 10
116.0563096498054
 20
-130.8733208223164
 30
0.0
 10
116.0563096498054
 20
-130.8733208223164
 30
0.0
 10
116.0563096498054
 20
-130.8733208223164
 30
0.0
 10
115.2098496890795
 20
-130.744474251168
 30
0.0
 10
115.2098496890795
 20
-130.744474251168
 30
0.0
 10
115.2098496890795
 20
-130.744474251168
 30
0.0
 10
115.2098496890795
 20
-129.9124836914802
 30
0.0
 10
115.2098496890795
 20
-129.9124836914802
 30
0.0
 10
115.2098496890795
 20
-129.9124836914802
 30
0.0
 10
115.4044975839961
 20
-129.9124836914802
 30
0.0
 10
115.4044975839961
 20
-129.9124836914802
 30
0.0
 10
115.4044975839961
 20
-129.9124836914802
 30
0.0
 10
115.4044975839961
 20
-130.5701524196144
 30
0.0
 10
115.4044975839961
 20
-130.5701524196144
 30
0.0
 10
115.4044975839961
 20
-130.5701524196144
 30
0.0
 10
115.8275553095848
 20
-130.6404323675135
 30
0.0
 10
115.8275553095848
 20
-130.6404323675135
 30
0.0
 10
115.7937933738293
 20
-130.5749755532938
 30
0.0
 10
115.7534857566519
 20
-130.4867811088714
 30
0.0
 10
115.7534857566519
 20
-130.3600015950142
 30
0.0
 10
115.7534857566519
 20
-130.088872580325
 30
0.0
 10
115.9398654224039
 20
-129.8356580621592
 30
0.0
 10
116.2530246020131
 20
-129.8356580621592
 30
0.0
 10
116.5703178962046
 20
-129.8356580621592
 30
0.0
 10
116.8049288987502
 20
-130.075092198384
 30
0.0
 10
116.8049288987502
 20
-130.398586664449
 30
0.0
  0
HATCH
  5
61
330
5C
100
AcDbEntity
  8
_U+30EC_U+30A4_U+30E4_U+30FC 1
 62
     7
420
 16777215
100
AcDbHatch
 10
0.0
 20
0.0
 30
0.0
210
0.0
220
0.0
230
1.0
  2
SOLID
 70
     1
 71
     0
 91
        1
 92
        1
 93
        1
 72
     4
 94
        3
 73
     0
 74
     1
 95
       53
 96
       49
 40
0.0
 40
0.0
 40
0.0
 40
0.0
 40
1.0
 40
1.0
 40
1.0
 40
2.0
 40
2.0
 40
2.0
 40
3.0
 40
3.0
 40
3.0
 40
4.0
 40
4.0
 40
4.0
 40
5.0
 40
5.0
 40
5.0
 40
6.0
 40
6.0
 40
6.0
 40
7.0
 40
7.0
 40
7.0
 40
8.0
 40
8.0
 40
8.0
 40
9.0
 40
9.0
 40
9.0
 40
10.0
 40
10.0
 40
10.0
 40
11.0
 40
11.0
 40
11.0
 40
12.0
 40
12.0
 40
12.0
 40
13.0
 40
13.0
 40
13.0
 40
14.0
 40
14.0
 40
14.0
 40
15.0
 40
15.0
 40
15.0
 40
16.0
 40
16.0
 40
16.0
 40
16.0
 10
116.8049288987502
 20
-130.398586664449
 10
116.8049288987502
 20
-130.4823024847405
 10
116.7880479308724
 20
-130.5904784829774
 10
116.7246581739438
 20
-130.6993435003113
 10
116.6147596279644
 20
-130.8846896374177
 10
116.4835014899763
 20
-130.9070827580719
 10
116.375670001288
 20
-130.9274088214348
 10
116.375670001288
 20
-130.9274088214348
 10
116.375670001288
 20
-130.6900417425011
 10
116.375670001288
 20
-130.6900417425011
 10
116.5744520107869
 20
-130.6314751192519
 10
116.6040798319601
 20
-130.495738357133
 10
116.6040798319601
 20
-130.3961750976093
 10
116.6040798319601
 20
-130.247002463098
 10
116.5045165724364
 20
-130.0840494466457
 10
116.271972627182
 20
-130.0840494466457
 10
116.016002032628
 20
-130.0840494466457
 10
115.9460665942774
 20
-130.2762857747226
 10
115.9460665942774
 20
-130.405132345871
 10
115.9460665942774
 20
-130.4392387911749
 10
115.9460665942774
 20
-130.5904784829774
 10
116.0752576749743
 20
-130.6855631183703
 10
116.0752576749743
 20
-130.6855631183703
 10
116.0563096498054
 20
-130.8733208223164
 10
116.0563096498054
 20
-130.8733208223164
 10
116.0563096498054
 20
-130.8733208223164
 10
115.2098496890795
 20
-130.744474251168
 10
115.2098496890795
 20
-130.744474251168
 10
115.2098496890795
 20
-130.744474251168
 10
115.2098496890795
 20
-129.9124836914802
 10
115.2098496890795
 20
-129.9124836914802
 10
115.2098496890795
 20
-129.9124836914802
 10
115.4044975839961
 20
-129.9124836914802
 10
115.4044975839961
 20
-129.9124836914802
 10
115.4044975839961
 20
-129.9124836914802
 10
115.4044975839961
 20
-130.5701524196144
 10
115.4044975839961
 20
-130.5701524196144
 10
115.4044975839961
 20
-130.5701524196144
 10
115.8275553095848
 20
-130.6404323675135
 10
115.8275553095848
 20
-130.6404323675135
 10
115.7937933738293
 20
-130.5749755532938
 10
115.7534857566519
 20
-130.4867811088714
 10
115.7534857566519
 20
-130.3600015950142
 10
115.7534857566519
 20
-130.088872580325
 10
115.9398654224039
 20
-129.8356580621592
 10
116.2530246020131
 20
-129.8356580621592
 10
116.5703178962046
 20
-129.8356580621592
 10
116.8049288987502
 20
-130.075092198384
 10
116.8049288987502
 20
-130.398586664449
 97
        0
 97
        0
 75
     2
 76
     1
 98
        0
  0
SPLINE
  5
62
330
5C
100
AcDbEntity
  8
_U+30EC_U+30A4_U+30E4_U+30FC 1
370
     0
100
AcDbSpline
210
0.0
220
0.0
230
1.0
 70
    11
 71
     3
 72
    26
 73
    22
 74
     0
 42
0.0000000001
 43
0.0000000001
 12
1.0
 22
0.0
 32
0.0
 13
1.0
 23
0.0
 33
0.0
 40
0.0
 40
0.0
 40
0.0
 40
0.0
 40
1.0
 40
1.0
 40
1.0
 40
2.0
 40
2.0
 40
2.0
 40
3.0
 40
3.0
 40
3.0
 40
4.0
 40
4.0
 40
4.0
 40
5.0
 40
5.0
 40
5.0
 40
6.0
 40
6.0
 40
6.0
 40
7.0
 40
7.0
 40
7.0
 40
7.0
 10
116.754285995117
 20
-129.1724771812486
 30
0.0
 10
116.754285995117
 20
-129.1724771812486
 30
0.0
 10
115.6501328920944
 20
-129.1724771812486
 30
0.0
 10
115.6501328920944
 20
-129.1724771812486
 30
0.0
 10
115.6501328920944
 20
-129.1724771812486
 30
0.0
 10
115.6501328920944
 20
-129.5249104493896
 30
0.0
 10
115.6501328920944
 20
-129.5249104493896
 30
0.0
 10
115.6501328920944
 20
-129.5249104493896
 30
0.0
 10
115.5019937862287
 20
-129.5249104493896
 30
0.0
 10
115.5019937862287
 20
-129.5249104493896
 30
0.0
 10
115.4871798756421
 20
-129.1700656144089
 30
0.0
 10
115.3242268591898
 20
-129.1204562394213
 30
0.0
 10
115.2098496890795
 20
-129.088761360957
 30
0.0
 10
115.2098496890795
 20
-129.088761360957
 30
0.0
 10
115.2098496890795
 20
-128.9326985354752
 30
0.0
 10
115.2098496890795
 20
-128.9326985354752
 30
0.0
 10
115.2098496890795
 20
-128.9326985354752
 30
0.0
 10
116.754285995117
 20
-128.9326985354752
 30
0.0
 10
116.754285995117
 20
-128.9326985354752
 30
0.0
 10
116.754285995117
 20
-128.9326985354752
 30
0.0
 10
116.754285995117
 20
-129.1724771812486
 30
0.0
 10
116.754285995117
 20
-129.1724771812486
 30
0.0
  0
HATCH
  5
63
330
5C
100
AcDbEntity
  8
_U+30EC_U+30A4_U+30E4_U+30FC 1
 62
     7
420
 16777215
100
AcDbHatch
 10
0.0
 20
0.0
 30
0.0
210
0.0
220
0.0
230
1.0
  2
SOLID
 70
     1
 71
     0
 91
        1
 92
        1
 93
        1
 72
     4
 94
        3
 73
     0
 74
     1
 95
       26
 96
       22
 40
0.0
 40
0.0
 40
0.0
 40
0.0
 40
1.0
 40
1.0
 40
1.0
 40
2.0
 40
2.0
 40
2.0
 40
3.0
 40
3.0
 40
3.0
 40
4.0
 40
4.0
 40
4.0
 40
5.0
 40
5.0
 40
5.0
 40
6.0
 40
6.0
 40
6.0
 40
7.0
 40
7.0
 40
7.0
 40
7.0
 10
116.754285995117
 20
-129.1724771812486
 10
116.754285995117
 20
-129.1724771812486
 10
115.6501328920944
 20
-129.1724771812486
 10
115.6501328920944
 20
-129.1724771812486
 10
115.6501328920944
 20
-129.1724771812486
 10
115.6501328920944
 20
-129.5249104493896
 10
115.6501328920944
 20
-129.5249104493896
 10
115.6501328920944
 20
-129.5249104493896
 10
115.5019937862287
 20
-129.5249104493896
 10
115.5019937862287
 20
-129.5249104493896
 10
115.4871798756421
 20
-129.1700656144089
 10
115.3242268591898
 20
-129.1204562394213
 10
115.2098496890795
 20
-129.088761360957
 10
115.2098496890795
 20
-129.088761360957
 10
115.2098496890795
 20
-128.9326985354752
 10
115.2098496890795
 20
-128.9326985354752
 10
115.2098496890795
 20
-128.9326985354752
 10
116.754285995117
 20
-128.9326985354752
 10
116.754285995117
 20
-128.9326985354752
 10
116.754285995117
 20
-128.9326985354752
 10
116.754285995117
 20
-129.1724771812486
 10
116.754285995117
 20
-129.1724771812486
 97
        0
 97
        0
 75
     2
 76
     1
 98
        0
  0
ENDBLK
  5
5F
330
5C
100
AcDbEntity
  8
0
100
AcDbBlockEnd
  0
BLOCK
  5
66
330
64
100
AcDbEntity
  8
0
100
AcDbBlockBegin
  2
block 4
 70
     0
 10
0.0
 20
0.0
 30
0.0
  3
block 4
  1

  0
SPLINE
  5
68
330
64
100
AcDbEntity
  8
_U+30EC_U+30A4_U+30E4_U+30FC 1
370
     0
100
AcDbSpline
210
0.0
220
0.0
230
1.0
 70
    11
 71
     3
 72
    53
 73
    49
 74
     0
 42
0.0000000001
 43
0.0000000001
 12
1.0
 22
0.0
 32
0.0
 13
1.0
 23
0.0
 33
0.0
 40
0.0
 40
0.0
 40
0.0
 40
0.0
 40
1.0
 40
1.0
 40
1.0
 40
2.0
 40
2.0
 40
2.0
 40
3.0
 40
3.0
 40
3.0
 40
4.0
 40
4.0
 40
4.0
 40
5.0
 40
5.0
 40
5.0
 40
6.0
 40
6.0
 40
6.0
 40
7.0
 40
7.0
 40
7.0
 40
8.0
 40
8.0
 40
8.0
 40
9.0
 40
9.0
 40
9.0
 40
10.0
 40
10.0
 40
10.0
 40
11.0
 40
11.0
 40
11.0
 40
12.0
 40
12.0
 40
12.0
 40
13.0
 40
13.0
 40
13.0
 40
14.0
 40
14.0
 40
14.0
 40
15.0
 40
15.0
 40
15.0
 40
16.0
 40
16.0
 40
16.0
 40
16.0
 10
87.7500271047986
 20
-99.15415443484689
 30
0.0
 10
87.66665579405556
 20
-99.15415443484689
 30
0.0
 10
87.55779077672167
 20
-99.13710121219489
 30
0.0
 10
87.44961477848483
 20
-99.0737114552663
 30
0.0
 10
87.26392413182985
 20
-98.96364065451256
 30
0.0
 10
87.24153101117574
 20
-98.83255477129882
 30
0.0
 10
87.22120494781277
 20
-98.72472328261048
 30
0.0
 10
87.22120494781277
 20
-98.72472328261048
 30
0.0
 10
87.45857202674647
 20
-98.72472328261048
 30
0.0
 10
87.45857202674647
 20
-98.72472328261048
 30
0.0
 10
87.51713864999572
 20
-98.92350529210941
 30
0.0
 10
87.65287541211457
 20
-98.95313311328256
 30
0.0
 10
87.75243867163829
 20
-98.95313311328256
 30
0.0
 10
87.9016113061496
 20
-98.95313311328256
 30
0.0
 10
88.0642198130534
 20
-98.8537421085331
 30
0.0
 10
88.0642198130534
 20
-98.62102590850446
 30
0.0
 10
88.0642198130534
 20
-98.3650553139504
 30
0.0
 10
87.87232799452498
 20
-98.2952921303741
 30
0.0
 10
87.74348142337664
 20
-98.2952921303741
 30
0.0
 10
87.70937497807266
 20
-98.2952921303741
 30
0.0
 10
87.55779077672167
 20
-98.2952921303741
 30
0.0
 10
87.46305065087729
 20
-98.42431095629671
 30
0.0
 10
87.46305065087729
 20
-98.42431095629671
 30
0.0
 10
87.27529294693117
 20
-98.40519067635357
 30
0.0
 10
87.27529294693117
 20
-98.40519067635357
 30
0.0
 10
87.27529294693117
 20
-98.40519067635357
 30
0.0
 10
87.40413951807952
 20
-97.5590752251762
 30
0.0
 10
87.40413951807952
 20
-97.5590752251762
 30
0.0
 10
87.40413951807952
 20
-97.5590752251762
 30
0.0
 10
88.23613007776736
 20
-97.5590752251762
 30
0.0
 10
88.23613007776736
 20
-97.5590752251762
 30
0.0
 10
88.23613007776736
 20
-97.5590752251762
 30
0.0
 10
88.23613007776736
 20
-97.75372312009283
 30
0.0
 10
88.23613007776736
 20
-97.75372312009283
 30
0.0
 10
88.23613007776736
 20
-97.75372312009283
 30
0.0
 10
87.57846134963317
 20
-97.75372312009283
 30
0.0
 10
87.57846134963317
 20
-97.75372312009283
 30
0.0
 10
87.57846134963317
 20
-97.75372312009283
 30
0.0
 10
87.50818140173406
 20
-98.1767808456815
 30
0.0
 10
87.50818140173406
 20
-98.1767808456815
 30
0.0
 10
87.57363821595382
 20
-98.14284665515179
 30
0.0
 10
87.6618326603762
 20
-98.10271129274864
 30
0.0
 10
87.7886121742334
 20
-98.10271129274864
 30
0.0
 10
88.05974118892257
 20
-98.10271129274864
 30
0.0
 10
88.31295570708843
 20
-98.28891870372638
 30
0.0
 10
88.31295570708843
 20
-98.60190562856134
 30
0.0
 10
88.31295570708843
 20
-98.91937117752711
 30
0.0
 10
88.07352157086356
 20
-99.15415443484689
 30
0.0
 10
87.7500271047986
 20
-99.15415443484689
 30
0.0
  0
HATCH
  5
69
330
64
100
AcDbEntity
  8
_U+30EC_U+30A4_U+30E4_U+30FC 1
 62
     7
420
 16777215
100
AcDbHatch
 10
0.0
 20
0.0
 30
0.0
210
0.0
220
0.0
230
1.0
  2
SOLID
 70
     1
 71
     0
 91
        1
 92
        1
 93
        1
 72
     4
 94
        3
 73
     0
 74
     1
 95
       53
 96
       49
 40
0.0
 40
0.0
 40
0.0
 40
0.0
 40
1.0
 40
1.0
 40
1.0
 40
2.0
 40
2.0
 40
2.0
 40
3.0
 40
3.0
 40
3.0
 40
4.0
 40
4.0
 40
4.0
 40
5.0
 40
5.0
 40
5.0
 40
6.0
 40
6.0
 40
6.0
 40
7.0
 40
7.0
 40
7.0
 40
8.0
 40
8.0
 40
8.0
 40
9.0
 40
9.0
 40
9.0
 40
10.0
 40
10.0
 40
10.0
 40
11.0
 40
11.0
 40
11.0
 40
12.0
 40
12.0
 40
12.0
 40
13.0
 40
13.0
 40
13.0
 40
14.0
 40
14.0
 40
14.0
 40
15.0
 40
15.0
 40
15.0
 40
16.0
 40
16.0
 40
16.0
 40
16.0
 10
87.7500271047986
 20
-99.15415443484689
 10
87.66665579405556
 20
-99.15415443484689
 10
87.55779077672167
 20
-99.13710121219489
 10
87.44961477848483
 20
-99.0737114552663
 10
87.26392413182985
 20
-98.96364065451256
 10
87.24153101117574
 20
-98.83255477129882
 10
87.22120494781277
 20
-98.72472328261048
 10
87.22120494781277
 20
-98.72472328261048
 10
87.45857202674647
 20
-98.72472328261048
 10
87.45857202674647
 20
-98.72472328261048
 10
87.51713864999572
 20
-98.92350529210941
 10
87.65287541211457
 20
-98.95313311328256
 10
87.75243867163829
 20
-98.95313311328256
 10
87.9016113061496
 20
-98.95313311328256
 10
88.0642198130534
 20
-98.8537421085331
 10
88.0642198130534
 20
-98.62102590850446
 10
88.0642198130534
 20
-98.3650553139504
 10
87.87232799452498
 20
-98.2952921303741
 10
87.74348142337664
 20
-98.2952921303741
 10
87.70937497807266
 20
-98.2952921303741
 10
87.55779077672167
 20
-98.2952921303741
 10
87.46305065087729
 20
-98.42431095629671
 10
87.46305065087729
 20
-98.42431095629671
 10
87.27529294693117
 20
-98.40519067635357
 10
87.27529294693117
 20
-98.40519067635357
 10
87.27529294693117
 20
-98.40519067635357
 10
87.40413951807952
 20
-97.5590752251762
 10
87.40413951807952
 20
-97.5590752251762
 10
87.40413951807952
 20
-97.5590752251762
 10
88.23613007776736
 20
-97.5590752251762
 10
88.23613007776736
 20
-97.5590752251762
 10
88.23613007776736
 20
-97.5590752251762
 10
88.23613007776736
 20
-97.75372312009283
 10
88.23613007776736
 20
-97.75372312009283
 10
88.23613007776736
 20
-97.75372312009283
 10
87.57846134963317
 20
-97.75372312009283
 10
87.57846134963317
 20
-97.75372312009283
 10
87.57846134963317
 20
-97.75372312009283
 10
87.50818140173406
 20
-98.1767808456815
 10
87.50818140173406
 20
-98.1767808456815
 10
87.57363821595382
 20
-98.14284665515179
 10
87.6618326603762
 20
-98.10271129274864
 10
87.7886121742334
 20
-98.10271129274864
 10
88.05974118892257
 20
-98.10271129274864
 10
88.31295570708843
 20
-98.28891870372638
 10
88.31295570708843
 20
-98.60190562856134
 10
88.31295570708843
 20
-98.91937117752711
 10
88.07352157086356
 20
-99.15415443484689
 10
87.7500271047986
 20
-99.15415443484689
 97
        0
 97
        0
 75
     2
 76
     1
 98
        0
  0
SPLINE
  5
6A
330
64
100
AcDbEntity
  8
_U+30EC_U+30A4_U+30E4_U+30FC 1
370
     0
100
AcDbSpline
210
0.0
220
0.0
230
1.0
 70
    11
 71
     3
 72
    29
 73
    25
 74
     0
 42
0.0000000001
 43
0.0000000001
 12
1.0
 22
0.0
 32
0.0
 13
1.0
 23
0.0
 33
0.0
 40
0.0
 40
0.0
 40
0.0
 40
0.0
 40
1.0
 40
1.0
 40
1.0
 40
2.0
 40
2.0
 40
2.0
 40
3.0
 40
3.0
 40
3.0
 40
4.0
 40
4.0
 40
4.0
 40
5.0
 40
5.0
 40
5.0
 40
6.0
 40
6.0
 40
6.0
 40
7.0
 40
7.0
 40
7.0
 40
8.0
 40
8.0
 40
8.0
 40
8.0
 10
89.45328231270612
 20
-98.92557234940055
 30
0.0
 10
89.33787161395026
 20
-99.13503415490375
 30
0.0
 10
89.15252547684382
 20
-99.15415443484689
 30
0.0
 10
89.0281575298263
 20
-99.15415443484689
 30
0.0
 10
88.85659177466086
 20
-99.15415443484689
 30
0.0
 10
88.70500757330986
 20
-99.10764564579601
 30
0.0
 10
88.603377256495
 20
-98.92557234940055
 30
0.0
 10
88.49244518186995
 20
-98.73092445448394
 30
0.0
 10
88.47211911850698
 20
-98.494074139873
 30
0.0
 10
88.47211911850698
 20
-98.3311211234207
 30
0.0
 10
88.47211911850698
 20
-98.18728838691152
 30
0.0
 10
88.49003361503027
 20
-97.93562416171402
 30
0.0
 10
88.603377256495
 20
-97.73666989744083
 30
0.0
 10
88.71844344570233
 20
-97.53358151858536
 30
0.0
 10
88.8903537104163
 20
-97.51032712405993
 30
0.0
 10
89.0281575298263
 20
-97.51032712405993
 30
0.0
 10
89.19800073724912
 20
-97.51032712405993
 30
0.0
 10
89.35165199589126
 20
-97.55476885581965
 30
0.0
 10
89.45328231270612
 20
-97.73666989744083
 30
0.0
 10
89.55973576320035
 20
-97.9292507350663
 30
0.0
 10
89.58454045069415
 20
-98.15766056573837
 30
0.0
 10
89.58454045069415
 20
-98.3311211234207
 30
0.0
 10
89.58454045069415
 20
-98.50251462381188
 30
0.0
 10
89.5618028204915
 20
-98.73316376654935
 30
0.0
 10
89.45328231270612
 20
-98.92557234940055
 30
0.0
  0
SPLINE
  5
6B
330
64
100
AcDbEntity
  8
_U+30EC_U+30A4_U+30E4_U+30FC 1
370
     0
100
AcDbSpline
210
0.0
220
0.0
230
1.0
 70
    11
 71
     3
 72
    17
 73
    13
 74
     0
 42
0.0000000001
 43
0.0000000001
 12
1.0
 22
0.0
 32
0.0
 13
1.0
 23
0.0
 33
0.0
 40
0.0
 40
0.0
 40
0.0
 40
0.0
 40
1.0
 40
1.0
 40
1.0
 40
2.0
 40
2.0
 40
2.0
 40
3.0
 40
3.0
 40
3.0
 40
4.0
 40
4.0
 40
4.0
 40
4.0
 10
89.0281575298263
 20
-97.70290796168538
 30
0.0
 10
88.76150713926796
 20
-97.70290796168538
 30
0.0
 10
88.71189776428037
 20
-97.98643932012145
 30
0.0
 10
88.71189776428037
 20
-98.3311211234207
 30
0.0
 10
88.71189776428037
 20
-98.65065372967761
 30
0.0
 10
88.75013832416664
 20
-98.95950653993026
 30
0.0
 10
89.0281575298263
 20
-98.95950653993026
 30
0.0
 10
89.29274086309348
 20
-98.95950653993026
 30
0.0
 10
89.34476180492076
 20
-98.67804223878535
 30
0.0
 10
89.34476180492076
 20
-98.3311211234207
 30
0.0
 10
89.34476180492076
 20
-98.01176077193804
 30
0.0
 10
89.3041096781948
 20
-97.70290796168538
 30
0.0
 10
89.0281575298263
 20
-97.70290796168538
 30
0.0
  0
HATCH
  5
6C
330
64
100
AcDbEntity
  8
_U+30EC_U+30A4_U+30E4_U+30FC 1
 62
     7
420
 16777215
100
AcDbHatch
 10
0.0
 20
0.0
 30
0.0
210
0.0
220
0.0
230
1.0
  2
SOLID
 70
     1
 71
     0
 91
        2
 92
        1
 93
        1
 72
     4
 94
        3
 73
     0
 74
     1
 95
       29
 96
       25
 40
0.0
 40
0.0
 40
0.0
 40
0.0
 40
1.0
 40
1.0
 40
1.0
 40
2.0
 40
2.0
 40
2.0
 40
3.0
 40
3.0
 40
3.0
 40
4.0
 40
4.0
 40
4.0
 40
5.0
 40
5.0
 40
5.0
 40
6.0
 40
6.0
 40
6.0
 40
7.0
 40
7.0
 40
7.0
 40
8.0
 40
8.0
 40
8.0
 40
8.0
 10
89.45328231270612
 20
-98.92557234940055
 10
89.33787161395026
 20
-99.13503415490375
 10
89.15252547684382
 20
-99.15415443484689
 10
89.0281575298263
 20
-99.15415443484689
 10
88.85659177466086
 20
-99.15415443484689
 10
88.70500757330986
 20
-99.10764564579601
 10
88.603377256495
 20
-98.92557234940055
 10
88.49244518186995
 20
-98.73092445448394
 10
88.47211911850698
 20
-98.494074139873
 10
88.47211911850698
 20
-98.3311211234207
 10
88.47211911850698
 20
-98.18728838691152
 10
88.49003361503027
 20
-97.93562416171402
 10
88.603377256495
 20
-97.73666989744083
 10
88.71844344570233
 20
-97.53358151858536
 10
88.8903537104163
 20
-97.51032712405993
 10
89.0281575298263
 20
-97.51032712405993
 10
89.19800073724912
 20
-97.51032712405993
 10
89.35165199589126
 20
-97.55476885581965
 10
89.45328231270612
 20
-97.73666989744083
 10
89.55973576320035
 20
-97.9292507350663
 10
89.58454045069415
 20
-98.15766056573837
 10
89.58454045069415
 20
-98.3311211234207
 10
89.58454045069415
 20
-98.50251462381188
 10
89.5618028204915
 20
-98.73316376654935
 10
89.45328231270612
 20
-98.92557234940055
 97
        0
 97
        0
 92
        1
 93
        1
 72
     4
 94
        3
 73
     0
 74
     1
 95
       17
 96
       13
 40
0.0
 40
0.0
 40
0.0
 40
0.0
 40
1.0
 40
1.0
 40
1.0
 40
2.0
 40
2.0
 40
2.0
 40
3.0
 40
3.0
 40
3.0
 40
4.0
 40
4.0
 40
4.0
 40
4.0
 10
89.0281575298263
 20
-97.70290796168538
 10
88.76150713926796
 20
-97.70290796168538
 10
88.71189776428037
 20
-97.98643932012145
 10
88.71189776428037
 20
-98.3311211234207
 10
88.71189776428037
 20
-98.65065372967761
 10
88.75013832416664
 20
-98.95950653993026
 10
89.0281575298263
 20
-98.95950653993026
 10
89.29274086309348
 20
-98.95950653993026
 10
89.34476180492076
 20
-98.67804223878535
 10
89.34476180492076
 20
-98.3311211234207
 10
89.34476180492076
 20
-98.01176077193804
 10
89.3041096781948
 20
-97.70290796168538
 10
89.0281575298263
 20
-97.70290796168538
 97
        0
 97
        0
 75
     2
 76
     1
 98
        0
  0
ENDBLK
  5
67
330
64
100
AcDbEntity
  8
0
100
AcDbBlockEnd
  0
ENDSEC
  0
SECTION
  2
ENTITIES
  0
POLYLINE
  5
41
330
1F
100
AcDbEntity
  8
_U+30EC_U+30A4_U+30E4_U+30FC 1
 62
     7
420
 16777215
370
    25
100
AcDb2dPolyline
 66
     1
 10
0.0
 20
0.0
 30
0.0
  0
VERTEX
  5
42
330
41
100
AcDbEntity
  8
_U+30EC_U+30A4_U+30E4_U+30FC 1
 62
     7
420
 16777215
370
    25
100
AcDbVertex
100
AcDb2dVertex
 10
64.39986391257816
 20
-155.7496602388404
 30
0.0
  0
VERTEX
  5
43
330
41
100
AcDbEntity
  8
_U+30EC_U+30A4_U+30E4_U+30FC 1
 62
     7
420
 16777215
370
    25
100
AcDbVertex
100
AcDb2dVertex
 10
87.90022775580279
 20
-155.7496602388404
 30
0.0
  0
SEQEND
  5
44
330
41
100
AcDbEntity
  8
_U+30EC_U+30A4_U+30E4_U+30FC 1
 62
     7
420
 16777215
370
    25
  0
POLYLINE
  5
45
330
1F
100
AcDbEntity
  8
_U+30EC_U+30A4_U+30E4_U+30FC 1
 62
     7
420
 16777215
370
    25
100
AcDb2dPolyline
 66
     1
 10
0.0
 20
0.0
 30
0.0
  0
VERTEX
  5
46
330
45
100
AcDbEntity
  8
_U+30EC_U+30A4_U+30E4_U+30FC 1
 62
     7
420
 16777215
370
    25
100
AcDbVertex
100
AcDb2dVertex
 10
63.40009171586224
 20
-104.7490002515906
 30
0.0
  0
VERTEX
  5
47
330
45
100
AcDbEntity
  8
_U+30EC_U+30A4_U+30E4_U+30FC 1
 62
     7
420
 16777215
370
    25
100
AcDbVertex
100
AcDb2dVertex
 10
63.40009171586224
 20
-154.7498880168679
 30
0.0
  0
SEQEND
  5
48
330
45
100
AcDbEntity
  8
_U+30EC_U+30A4_U+30E4_U+30FC 1
 62
     7
420
 16777215
370
    25
  0
POLYLINE
  5
49
330
1F
100
AcDbEntity
  8
_U+30EC_U+30A4_U+30E4_U+30FC 1
 62
     7
420
 16777215
370
    25
100
AcDb2dPolyline
 66
     1
 10
0.0
 20
0.0
 30
0.0
  0
VERTEX
  5
4A
330
49
100
AcDbEntity
  8
_U+30EC_U+30A4_U+30E4_U+30FC 1
 62
     7
420
 16777215
370
    25
100
AcDbVertex
100
AcDb2dVertex
 10
64.39986391257816
 20
-103.7485224740628
 30
0.0
  0
VERTEX
  5
4B
330
49
100
AcDbEntity
  8
_U+30EC_U+30A4_U+30E4_U+30FC 1
 62
     7
420
 16777215
370
    25
100
AcDbVertex
100
AcDb2dVertex
 10
113.3997787735973
 20
-103.7485224740628
 30
0.0
  0
SEQEND
  5
4C
330
49
100
AcDbEntity
  8
_U+30EC_U+30A4_U+30E4_U+30FC 1
 62
     7
420
 16777215
370
    25
  0
POLYLINE
  5
4D
330
1F
100
AcDbEntity
  8
_U+30EC_U+30A4_U+30E4_U+30FC 1
 62
     7
420
 16777215
370
    25
100
AcDb2dPolyline
 66
     1
 10
0.0
 20
0.0
 30
0.0
  0
VERTEX
  5
4E
330
4D
100
AcDbEntity
  8
_U+30EC_U+30A4_U+30E4_U+30FC 1
 62
     7
420
 16777215
370
    25
100
AcDbVertex
100
AcDb2dVertex
 10
83.39955731674448
 20
-154.7498880168679
 30
0.0
  0
VERTEX
  5
4F
330
4D
100
AcDbEntity
  8
_U+30EC_U+30A4_U+30E4_U+30FC 1
 62
     7
420
 16777215
370
    25
100
AcDbVertex
100
AcDb2dVertex
 10
87.90022775580279
 20
-154.7498880168679
 30
0.0
  0
SEQEND
  5
50
330
4D
100
AcDbEntity
  8
_U+30EC_U+30A4_U+30E4_U+30FC 1
 62
     7
420
 16777215
370
    25
  0
SPLINE
  5
51
330
1F
100
AcDbEntity
  8
_U+30EC_U+30A4_U+30E4_U+30FC 1
 62
     7
420
 16777215
370
    25
100
AcDbSpline
210
0.0
220
0.0
230
1.0
 70
     8
 71
     3
 72
    11
 73
     7
 74
     0
 42
0.0000000001
 43
0.0000000001
 12
1.0
 22
0.0
 32
0.0
 13
1.0
 23
0.0
 33
0.0
 40
0.0
 40
0.0
 40
0.0
 40
0.0
 40
1.0
 40
1.0
 40
1.0
 40
2.0
 40
2.0
 40
2.0
 40
2.0
 10
87.90022775580279
 20
-155.7496602388404
 30
0.0
 10
88.17585080600219
 20
-155.7496602388404
 30
0.0
 10
88.39976108901129
 20
-155.5257521833406
 30
0.0
 10
88.39976108901129
 20
-155.2501269056322
 30
0.0
 10
88.39976108901129
 20
-154.9738313501451
 30
0.0
 10
88.17585080600219
 20
-154.7498880168679
 30
0.0
 10
87.90022775580279
 20
-154.7498880168679
 30
0.0
  0
SPLINE
  5
52
330
1F
100
AcDbEntity
  8
_U+30EC_U+30A4_U+30E4_U+30FC 1
 62
     7
420
 16777215
370
    25
100
AcDbSpline
210
0.0
220
0.0
230
1.0
 70
     8
 71
     3
 72
     8
 73
     4
 74
     0
 42
0.0000000001
 43
0.0000000001
 12
1.0
 22
0.0
 32
0.0
 13
1.0
 23
0.0
 33
0.0
 40
0.0
 40
0.0
 40
0.0
 40
0.0
 40
1.0
 40
1.0
 40
1.0
 40
1.0
 10
63.40009171586224
 20
-154.7498880168679
 30
0.0
 10
63.40009171586224
 20
-155.3024791278414
 30
0.0
 10
63.84727281556481
 20
-155.7496602388404
 30
0.0
 10
64.39986391257816
 20
-155.7496602388404
 30
0.0
  0
SPLINE
  5
53
330
1F
100
AcDbEntity
  8
_U+30EC_U+30A4_U+30E4_U+30FC 1
 62
     7
420
 16777215
370
    25
100
AcDbSpline
210
0.0
220
0.0
230
1.0
 70
     8
 71
     3
 72
     8
 73
     4
 74
     0
 42
0.0000000001
 43
0.0000000001
 12
1.0
 22
0.0
 32
0.0
 13
1.0
 23
0.0
 33
0.0
 40
0.0
 40
0.0
 40
0.0
 40
0.0
 40
1.0
 40
1.0
 40
1.0
 40
1.0
 10
64.39986391257816
 20
-103.7485224740628
 30
0.0
 10
63.84727281556481
 20
-103.7485224740628
 30
0.0
 10
63.40009171586224
 20
-104.1964091406177
 30
0.0
 10
63.40009171586224
 20
-104.7490002515906
 30
0.0
  0
INSERT
  5
55
330
1F
100
AcDbEntity
  8
_U+30EC_U+30A4_U+30E4_U+30FC 1
100
AcDbBlockReference
  2
block 2
 10
0.0
 20
0.0
 30
0.0
  0
INSERT
  5
5D
330
1F
100
AcDbEntity
  8
_U+30EC_U+30A4_U+30E4_U+30FC 1
100
AcDbBlockReference
  2
block 3
 10
0.0
 20
0.0
 30
0.0
  0
INSERT
  5
65
330
1F
100
AcDbEntity
  8
_U+30EC_U+30A4_U+30E4_U+30FC 1
100
AcDbBlockReference
  2
block 4
 10
0.0
 20
0.0
 30
0.0
  0
SPLINE
  5
6D
330
1F
100
AcDbEntity
  8
_U+30EC_U+30A4_U+30E4_U+30FC 1
 62
     7
420
 16777215
370
     9
100
AcDbSpline
210
0.0
220
0.0
230
1.0
 70
    11
 71
     3
 72
    17
 73
    13
 74
     0
 42
0.0000000001
 43
0.0000000001
 12
1.0
 22
0.0
 32
0.0
 13
1.0
 23
0.0
 33
0.0
 40
0.0
 40
0.0
 40
0.0
 40
0.0
 40
1.0
 40
1.0
 40
1.0
 40
2.0
 40
2.0
 40
2.0
 40
3.0
 40
3.0
 40
3.0
 40
4.0
 40
4.0
 40
4.0
 40
4.0
 10
63.499999984125
 20
-99.74876330839625
 30
0.0
 10
63.499999984125
 20
-99.69365941952101
 30
0.0
 10
63.45519720635829
 20
-99.64885664175429
 30
0.0
 10
63.40009171586224
 20
-99.64885664175429
 30
0.0
 10
63.34495255060229
 20
-99.64885664175429
 30
0.0
 10
63.30018505174441
 20
-99.69365941952101
 30
0.0
 10
63.30018505174441
 20
-99.74876330839625
 30
0.0
 10
63.30018505174441
 20
-99.80390247504901
 30
0.0
 10
63.34495255060229
 20
-99.8486699750379
 30
0.0
 10
63.40009171586224
 20
-99.8486699750379
 30
0.0
 10
63.45519720635829
 20
-99.8486699750379
 30
0.0
 10
63.499999984125
 20
-99.80390247504901
 30
0.0
 10
63.499999984125
 20
-99.74876330839625
 30
0.0
  0
SPLINE
  5
6E
330
1F
100
AcDbEntity
  8
_U+30EC_U+30A4_U+30E4_U+30FC 1
 62
     7
420
 16777215
370
     9
100
AcDbSpline
210
0.0
220
0.0
230
1.0
 70
    11
 71
     3
 72
    17
 73
    13
 74
     0
 42
0.0000000001
 43
0.0000000001
 12
1.0
 22
0.0
 32
0.0
 13
1.0
 23
0.0
 33
0.0
 40
0.0
 40
0.0
 40
0.0
 40
0.0
 40
1.0
 40
1.0
 40
1.0
 40
2.0
 40
2.0
 40
2.0
 40
3.0
 40
3.0
 40
3.0
 40
4.0
 40
4.0
 40
4.0
 40
4.0
 10
113.4996854377151
 20
-99.74876330839625
 30
0.0
 10
113.4996854377151
 20
-99.69365941952101
 30
0.0
 10
113.4549179388572
 20
-99.64885664175429
 30
0.0
 10
113.3997787735973
 20
-99.64885664175429
 30
0.0
 10
113.3446777494414
 20
-99.64885664175429
 30
0.0
 10
113.2998749716754
 20
-99.69365941952101
 30
0.0
 10
113.2998749716754
 20
-99.74876330839625
 30
0.0
 10
113.2998749716754
 20
-99.80390247504901
 30
0.0
 10
113.3446777494414
 20
-99.8486699750379
 30
0.0
 10
113.3997787735973
 20
-99.8486699750379
 30
0.0
 10
113.4549179388572
 20
-99.8486699750379
 30
0.0
 10
113.4996854377151
 20
-99.80390247504901
 30
0.0
 10
113.4996854377151
 20
-99.74876330839625
 30
0.0
  0
SPLINE
  5
6F
330
1F
100
AcDbEntity
  8
_U+30EC_U+30A4_U+30E4_U+30FC 1
 62
     7
420
 16777215
370
     9
100
AcDbSpline
210
0.0
220
0.0
230
1.0
 70
    11
 71
     3
 72
    17
 73
    13
 74
     0
 42
0.0000000001
 43
0.0000000001
 12
1.0
 22
0.0
 32
0.0
 13
1.0
 23
0.0
 33
0.0
 40
0.0
 40
0.0
 40
0.0
 40
0.0
 40
1.0
 40
1.0
 40
1.0
 40
2.0
 40
2.0
 40
2.0
 40
3.0
 40
3.0
 40
3.0
 40
4.0
 40
4.0
 40
4.0
 40
4.0
 10
117.4994445023394
 20
-103.7492280296183
 30
0.0
 10
117.4994445023394
 20
-103.6940888629653
 30
0.0
 10
117.4546770034815
 20
-103.6493213629767
 30
0.0
 10
117.3995378382216
 20
-103.6493213629767
 30
0.0
 10
117.3444339507385
 20
-103.6493213629767
 30
0.0
 10
117.2996311741038
 20
-103.6940888629653
 30
0.0
 10
117.2996311741038
 20
-103.7492280296183
 30
0.0
 10
117.2996311741038
 20
-103.8043319184933
 30
0.0
 10
117.3444339507385
 20
-103.84913469626
 30
0.0
 10
117.3995378382216
 20
-103.84913469626
 30
0.0
 10
117.4546770034815
 20
-103.84913469626
 30
0.0
 10
117.4994445023394
 20
-103.8043319184933
 30
0.0
 10
117.4994445023394
 20
-103.7492280296183
 30
0.0
  0
SPLINE
  5
70
330
1F
100
AcDbEntity
  8
_U+30EC_U+30A4_U+30E4_U+30FC 1
 62
     7
420
 16777215
370
     9
100
AcDbSpline
210
0.0
220
0.0
230
1.0
 70
    11
 71
     3
 72
    17
 73
    13
 74
     0
 42
0.0000000001
 43
0.0000000001
 12
1.0
 22
0.0
 32
0.0
 13
1.0
 23
0.0
 33
0.0
 40
0.0
 40
0.0
 40
0.0
 40
0.0
 40
1.0
 40
1.0
 40
1.0
 40
2.0
 40
2.0
 40
2.0
 40
3.0
 40
3.0
 40
3.0
 40
4.0
 40
4.0
 40
4.0
 40
4.0
 10
117.4994445023394
 20
-154.7498880168679
 30
0.0
 10
117.4994445023394
 20
-154.6947841279929
 30
0.0
 10
117.4546770034815
 20
-154.6499813502262
 30
0.0
 10
117.3995378382216
 20
-154.6499813502262
 30
0.0
 10
117.3444339507385
 20
-154.6499813502262
 30
0.0
 10
117.2996311741038
 20
-154.6947841279929
 30
0.0
 10
117.2996311741038
 20
-154.7498880168679
 30
0.0
 10
117.2996311741038
 20
-154.8050271835209
 30
0.0
 10
117.3444339507385
 20
-154.8497946835095
 30
0.0
 10
117.3995378382216
 20
-154.8497946835095
 30
0.0
 10
117.4546770034815
 20
-154.8497946835095
 30
0.0
 10
117.4994445023394
 20
-154.8050271835209
 30
0.0
 10
117.4994445023394
 20
-154.7498880168679
 30
0.0
  0
SPLINE
  5
71
330
1F
100
AcDbEntity
  8
_U+30EC_U+30A4_U+30E4_U+30FC 1
 62
     7
420
 16777215
370
     9
100
AcDbSpline
210
0.0
220
0.0
230
1.0
 70
    11
 71
     3
 72
    17
 73
    13
 74
     0
 42
0.0000000001
 43
0.0000000001
 12
1.0
 22
0.0
 32
0.0
 13
1.0
 23
0.0
 33
0.0
 40
0.0
 40
0.0
 40
0.0
 40
0.0
 40
1.0
 40
1.0
 40
1.0
 40
2.0
 40
2.0
 40
2.0
 40
3.0
 40
3.0
 40
3.0
 40
4.0
 40
4.0
 40
4.0
 40
4.0
 10
88.49966551996322
 20
-159.7501249600622
 30
0.0
 10
88.49966551996322
 20
-159.6949857934097
 30
0.0
 10
88.45489802110532
 20
-159.6502182934205
 30
0.0
 10
88.39976108901129
 20
-159.6502182934205
 30
0.0
 10
88.3446549683623
 20
-159.6502182934205
 30
0.0
 10
88.29985219172754
 20
-159.6949857934097
 30
0.0
 10
88.29985219172754
 20
-159.7501249600622
 30
0.0
 10
88.29985219172754
 20
-159.8052288489377
 30
0.0
 10
88.3446549683623
 20
-159.8500316267044
 30
0.0
 10
88.39976108901129
 20
-159.8500316267044
 30
0.0
 10
88.45489802110532
 20
-159.8500316267044
 30
0.0
 10
88.49966551996322
 20
-159.8052288489377
 30
0.0
 10
88.49966551996322
 20
-159.7501249600622
 30
0.0
  0
SPLINE
  5
72
330
1F
100
AcDbEntity
  8
_U+30EC_U+30A4_U+30E4_U+30FC 1
 62
     7
420
 16777215
370
     9
100
AcDbSpline
210
0.0
220
0.0
230
1.0
 70
    11
 71
     3
 72
    17
 73
    13
 74
     0
 42
0.0000000001
 43
0.0000000001
 12
1.0
 22
0.0
 32
0.0
 13
1.0
 23
0.0
 33
0.0
 40
0.0
 40
0.0
 40
0.0
 40
0.0
 40
1.0
 40
1.0
 40
1.0
 40
2.0
 40
2.0
 40
2.0
 40
3.0
 40
3.0
 40
3.0
 40
4.0
 40
4.0
 40
4.0
 40
4.0
 10
63.499999984125
 20
-159.7501249600622
 30
0.0
 10
63.499999984125
 20
-159.6949857934097
 30
0.0
 10
63.45519720635829
 20
-159.6502182934205
 30
0.0
 10
63.40009171586224
 20
-159.6502182934205
 30
0.0
 10
63.34495255060229
 20
-159.6502182934205
 30
0.0
 10
63.30018505174441
 20
-159.6949857934097
 30
0.0
 10
63.30018505174441
 20
-159.7501249600622
 30
0.0
 10
63.30018505174441
 20
-159.8052288489377
 30
0.0
 10
63.34495255060229
 20
-159.8500316267044
 30
0.0
 10
63.40009171586224
 20
-159.8500316267044
 30
0.0
 10
63.45519720635829
 20
-159.8500316267044
 30
0.0
 10
63.499999984125
 20
-159.8052288489377
 30
0.0
 10
63.499999984125
 20
-159.7501249600622
 30
0.0
  0
POLYLINE
  5
73
330
1F
100
AcDbEntity
  8
_U+30EC_U+30A4_U+30E4_U+30FC 1
 62
     7
420
 16777215
370
     9
100
AcDb2dPolyline
 66
     1
 10
0.0
 20
0.0
 30
0.0
  0
VERTEX
  5
74
330
73
100
AcDbEntity
  8
_U+30EC_U+30A4_U+30E4_U+30FC 1
 62
     7
420
 16777215
370
     9
100
AcDbVertex
100
AcDb2dVertex
 10
63.40009171586224
 20
-159.7501249600622
 30
0.0
  0
VERTEX
  5
75
330
73
100
AcDbEntity
  8
_U+30EC_U+30A4_U+30E4_U+30FC 1
 62
     7
420
 16777215
370
     9
100
AcDbVertex
100
AcDb2dVertex
 10
88.39976108901129
 20
-159.7501249600622
 30
0.0
  0
SEQEND
  5
76
330
73
100
AcDbEntity
  8
_U+30EC_U+30A4_U+30E4_U+30FC 1
 62
     7
420
 16777215
370
     9
  0
POLYLINE
  5
77
330
1F
100
AcDbEntity
  8
_U+30EC_U+30A4_U+30E4_U+30FC 1
 62
     7
420
 16777215
370
     9
100
AcDb2dPolyline
 66
     1
 10
0.0
 20
0.0
 30
0.0
  0
VERTEX
  5
78
330
77
100
AcDbEntity
  8
_U+30EC_U+30A4_U+30E4_U+30FC 1
 62
     7
420
 16777215
370
     9
100
AcDbVertex
100
AcDb2dVertex
 10
63.40009171586224
 20
-157.2896410717886
 30
0.0
  0
VERTEX
  5
79
330
77
100
AcDbEntity
  8
_U+30EC_U+30A4_U+30E4_U+30FC 1
 62
     7
420
 16777215
370
     9
100
AcDbVertex
100
AcDb2dVertex
 10
63.40009171586224
 20
-160.7498619042572
 30
0.0
  0
SEQEND
  5
7A
330
77
100
AcDbEntity
  8
_U+30EC_U+30A4_U+30E4_U+30FC 1
 62
     7
420
 16777215
370
     9
  0
POLYLINE
  5
7B
330
1F
100
AcDbEntity
  8
_U+30EC_U+30A4_U+30E4_U+30FC 1
 62
     7
420
 16777215
370
     9
100
AcDb2dPolyline
 66
     1
 10
0.0
 20
0.0
 30
0.0
  0
VERTEX
  5
7C
330
7B
100
AcDbEntity
  8
_U+30EC_U+30A4_U+30E4_U+30FC 1
 62
     7
420
 16777215
370
     9
100
AcDbVertex
100
AcDb2dVertex
 10
88.39976108901129
 20
-157.7898446827747
 30
0.0
  0
VERTEX
  5
7D
330
7B
100
AcDbEntity
  8
_U+30EC_U+30A4_U+30E4_U+30FC 1
 62
     7
420
 16777215
370
     9
100
AcDbVertex
100
AcDb2dVertex
 10
88.39976108901129
 20
-160.7498619042572
 30
0.0
  0
SEQEND
  5
7E
330
7B
100
AcDbEntity
  8
_U+30EC_U+30A4_U+30E4_U+30FC 1
 62
     7
420
 16777215
370
     9
  0
POLYLINE
  5
7F
330
1F
100
AcDbEntity
  8
_U+30EC_U+30A4_U+30E4_U+30FC 1
 62
     7
420
 16777215
370
     9
100
AcDb2dPolyline
 66
     1
 10
0.0
 20
0.0
 30
0.0
  0
VERTEX
  5
80
330
7F
100
AcDbEntity
  8
_U+30EC_U+30A4_U+30E4_U+30FC 1
 62
     7
420
 16777215
370
     9
100
AcDbVertex
100
AcDb2dVertex
 10
117.3995378382216
 20
-154.7498880168679
 30
0.0
  0
VERTEX
  5
81
330
7F
100
AcDbEntity
  8
_U+30EC_U+30A4_U+30E4_U+30FC 1
 62
     7
420
 16777215
370
     9
100
AcDbVertex
100
AcDb2dVertex
 10
117.3995378382216
 20
-103.7492280296183
 30
0.0
  0
SEQEND
  5
82
330
7F
100
AcDbEntity
  8
_U+30EC_U+30A4_U+30E4_U+30FC 1
 62
     7
420
 16777215
370
     9
  0
POLYLINE
  5
83
330
1F
100
AcDbEntity
  8
_U+30EC_U+30A4_U+30E4_U+30FC 1
 62
     7
420
 16777215
370
     9
100
AcDb2dPolyline
 66
     1
 10
0.0
 20
0.0
 30
0.0
  0
VERTEX
  5
84
330
83
100
AcDbEntity
  8
_U+30EC_U+30A4_U+30E4_U+30FC 1
 62
     7
420
 16777215
370
     9
100
AcDbVertex
100
AcDb2dVertex
 10
90.43994324824038
 20
-154.7498880168679
 30
0.0
  0
VERTEX
  5
85
330
83
100
AcDbEntity
  8
_U+30EC_U+30A4_U+30E4_U+30FC 1
 62
     7
420
 16777215
370
     9
100
AcDbVertex
100
AcDb2dVertex
 10
118.3993100349375
 20
-154.7498880168679
 30
0.0
  0
SEQEND
  5
86
330
83
100
AcDbEntity
  8
_U+30EC_U+30A4_U+30E4_U+30FC 1
 62
     7
420
 16777215
370
     9
  0
POLYLINE
  5
87
330
1F
100
AcDbEntity
  8
_U+30EC_U+30A4_U+30E4_U+30FC 1
 62
     7
420
 16777215
370
     9
100
AcDb2dPolyline
 66
     1
 10
0.0
 20
0.0
 30
0.0
  0
VERTEX
  5
88
330
87
100
AcDbEntity
  8
_U+30EC_U+30A4_U+30E4_U+30FC 1
 62
     7
420
 16777215
370
     9
100
AcDbVertex
100
AcDb2dVertex
 10
115.9395317643583
 20
-103.7492280296183
 30
0.0
  0
VERTEX
  5
89
330
87
100
AcDbEntity
  8
_U+30EC_U+30A4_U+30E4_U+30FC 1
 62
     7
420
 16777215
370
     9
100
AcDbVertex
100
AcDb2dVertex
 10
118.3993100349375
 20
-103.7492280296183
 30
0.0
  0
SEQEND
  5
8A
330
87
100
AcDbEntity
  8
_U+30EC_U+30A4_U+30E4_U+30FC 1
 62
     7
420
 16777215
370
     9
  0
POLYLINE
  5
8B
330
1F
100
AcDbEntity
  8
_U+30EC_U+30A4_U+30E4_U+30FC 1
 62
     7
420
 16777215
370
     9
100
AcDb2dPolyline
 66
     1
 10
0.0
 20
0.0
 30
0.0
  0
VERTEX
  5
8C
330
8B
100
AcDbEntity
  8
_U+30EC_U+30A4_U+30E4_U+30FC 1
 62
     7
420
 16777215
370
     9
100
AcDbVertex
100
AcDb2dVertex
 10
63.40009171586224
 20
-99.74876330839625
 30
0.0
  0
VERTEX
  5
8D
330
8B
100
AcDbEntity
  8
_U+30EC_U+30A4_U+30E4_U+30FC 1
 62
     7
420
 16777215
370
     9
100
AcDbVertex
100
AcDb2dVertex
 10
113.3997787735973
 20
-99.74876330839625
 30
0.0
  0
SEQEND
  5
8E
330
8B
100
AcDbEntity
  8
_U+30EC_U+30A4_U+30E4_U+30FC 1
 62
     7
420
 16777215
370
     9
  0
POLYLINE
  5
8F
330
1F
100
AcDbEntity
  8
_U+30EC_U+30A4_U+30E4_U+30FC 1
 62
     7
420
 16777215
370
     9
100
AcDb2dPolyline
 66
     1
 10
0.0
 20
0.0
 30
0.0
  0
VERTEX
  5
90
330
8F
100
AcDbEntity
  8
_U+30EC_U+30A4_U+30E4_U+30FC 1
 62
     7
420
 16777215
370
     9
100
AcDbVertex
100
AcDb2dVertex
 10
63.40009171586224
 20
-102.2092824744477
 30
0.0
  0
VERTEX
  5
91
330
8F
100
AcDbEntity
  8
_U+30EC_U+30A4_U+30E4_U+30FC 1
 62
     7
420
 16777215
370
     9
100
AcDbVertex
100
AcDb2dVertex
 10
63.40009171586224
 20
-98.74902636420155
 30
0.0
  0
SEQEND
  5
92
330
8F
100
AcDbEntity
  8
_U+30EC_U+30A4_U+30E4_U+30FC 1
 62
     7
420
 16777215
370
     9
  0
POLYLINE
  5
93
330
1F
100
AcDbEntity
  8
_U+30EC_U+30A4_U+30E4_U+30FC 1
 62
     7
420
 16777215
370
     9
100
AcDb2dPolyline
 66
     1
 10
0.0
 20
0.0
 30
0.0
  0
VERTEX
  5
94
330
93
100
AcDbEntity
  8
_U+30EC_U+30A4_U+30E4_U+30FC 1
 62
     7
420
 16777215
370
     9
100
AcDbVertex
100
AcDb2dVertex
 10
113.3997787735973
 20
-101.20880469692
 30
0.0
  0
VERTEX
  5
95
330
93
100
AcDbEntity
  8
_U+30EC_U+30A4_U+30E4_U+30FC 1
 62
     7
420
 16777215
370
     9
100
AcDbVertex
100
AcDb2dVertex
 10
113.3997787735973
 20
-98.74902636420155
 30
0.0
  0
SEQEND
  5
96
330
93
100
AcDbEntity
  8
_U+30EC_U+30A4_U+30E4_U+30FC 1
 62
     7
420
 16777215
370
     9
  0
POLYLINE
  5
97
330
1F
100
AcDbEntity
  8
_U+30EC_U+30A4_U+30E4_U+30FC 1
  6
AI-Linetype-1
 62
   251
420
  5855577
370
    25
100
AcDb2dPolyline
 66
     1
 10
0.0
 20
0.0
 30
0.0
  0
VERTEX
  5
98
330
97
100
AcDbEntity
  8
_U+30EC_U+30A4_U+30E4_U+30FC 1
  6
AI-Linetype-1
 62
   251
420
  5855577
370
    25
100
AcDbVertex
100
AcDb2dVertex
 10
113.3177932201334
 20
-102.7315346965395
 30
0.0
  0
VERTEX
  5
99
330
97
100
AcDbEntity
  8
_U+30EC_U+30A4_U+30E4_U+30FC 1
  6
AI-Linetype-1
 62
   251
420
  5855577
370
    25
100
AcDbVertex
100
AcDb2dVertex
 10
62.78273062050133
 20
-102.7315346965395
 30
0.0
  0
VERTEX
  5
9A
330
97
100
AcDbEntity
  8
_U+30EC_U+30A4_U+30E4_U+30FC 1
  6
AI-Linetype-1
 62
   251
420
  5855577
370
    25
100
AcDbVertex
100
AcDb2dVertex
 10
62.78273062050133
 20
-156.4428332942223
 30
0.0
  0
VERTEX
  5
9B
330
97
100
AcDbEntity
  8
_U+30EC_U+30A4_U+30E4_U+30FC 1
  6
AI-Linetype-1
 62
   251
420
  5855577
370
    25
100
AcDbVertex
100
AcDb2dVertex
 10
89.32925772102077
 20
-156.4428332942223
 30
0.0
  0
VERTEX
  5
9C
330
97
100
AcDbEntity
  8
_U+30EC_U+30A4_U+30E4_U+30FC 1
  6
AI-Linetype-1
 62
   251
420
  5855577
370
    25
100
AcDbVertex
100
AcDb2dVertex
 10
89.32925772102077
 20
-154.4143610725072
 30
0.0
  0
VERTEX
  5
9D
330
97
100
AcDbEntity
  8
_U+30EC_U+30A4_U+30E4_U+30FC 1
  6
AI-Linetype-1
 62
   251
420
  5855577
370
    25
100
AcDbVertex
100
AcDb2dVertex
 10
89.32925772102077
 20
-154.0567502392635
 30
0.0
  0
VERTEX
  5
9E
330
97
100
AcDbEntity
  8
_U+30EC_U+30A4_U+30E4_U+30FC 1
  6
AI-Linetype-1
 62
   251
420
  5855577
370
    25
100
AcDbVertex
100
AcDb2dVertex
 10
83.39955731674448
 20
-154.0567502392635
 30
0.0
  0
SEQEND
  5
A0
330
97
100
AcDbEntity
  8
_U+30EC_U+30A4_U+30E4_U+30FC 1
  6
AI-Linetype-1
 62
   251
420
  5855577
370
    25
  0
ENDSEC
  0
SECTION
  2
OBJECTS
  0
DICTIONARY
  5
C
330
0
100
AcDbDictionary
281
     1
  3
ACAD_GROUP
350
D
  3
ACAD_LAYOUT
350
1A
  3
ACAD_MATERIAL
350
3B
  3
ACAD_MLEADERSTYLE
350
A2
  3
ACAD_MLINESTYLE
350
17
  3
ACAD_PLOTSETTINGS
350
19
  3
ACAD_PLOTSTYLENAME
350
E
  3
ACAD_TABLESTYLE
350
A1
  3
ACAD_VISUALSTYLE
350
2A
  0
SUN
  5
3F
330
29
100
AcDbSun
 90
        1
290
     0
 63
     7
421
 16777215
 40
1.0
291
     1
 91
  2455826
 92
 54000000
292
     0
 70
     2
 71
   256
280
     1
  0
DICTIONARY
  5
D
102
{ACAD_REACTORS
330
C
102
}
330
C
100
AcDbDictionary
281
     1
  0
DICTIONARY
  5
1A
102
{ACAD_REACTORS
330
C
102
}
330
C
100
AcDbDictionary
281
     1
  3
Layout1
350
1E
  3
Layout2
350
26
  3
Model
350
22
  0
DICTIONARY
  5
3B
102
{ACAD_REACTORS
330
C
102
}
330
C
100
AcDbDictionary
281
     1
  3
ByBlock
350
3D
  3
ByLayer
350
3C
  3
Global
350
3E
  0
DICTIONARY
  5
A2
102
{ACAD_REACTORS
330
C
102
}
330
C
100
AcDbDictionary
281
     1
  0
DICTIONARY
  5
17
102
{ACAD_REACTORS
330
C
102
}
330
C
100
AcDbDictionary
281
     1
  3
Standard
350
18
  0
DICTIONARY
  5
19
102
{ACAD_REACTORS
330
C
102
}
330
C
100
AcDbDictionary
281
     1
  0
ACDBDICTIONARYWDFLT
  5
E
102
{ACAD_REACTORS
330
C
102
}
330
C
100
AcDbDictionary
281
     1
  3
Normal
350
F
100
AcDbDictionaryWithDefault
340
F
  0
DICTIONARY
  5
A1
102
{ACAD_REACTORS
330
C
102
}
330
C
100
AcDbDictionary
281
     1
  0
DICTIONARY
  5
2A
102
{ACAD_REACTORS
330
C
102
}
330
C
100
AcDbDictionary
281
     1
  3
2dWireframe
350
2F
  3
3D Hidden
350
31
  3
3dWireframe
350
30
  3
Basic
350
32
  3
Brighten
350
36
  3
ColorChange
350
3A
  3
Conceptual
350
34
  3
Dim
350
35
  3
Facepattern
350
39
  3
Flat
350
2B
  3
FlatWithEdges
350
2C
  3
Gouraud
350
2D
  3
GouraudWithEdges
350
2E
  3
Linepattern
350
38
  3
Realistic
350
33
  3
Thicken
350
37
  0
LAYOUT
  5
1E
102
{ACAD_REACTORS
330
1A
102
}
330
1A
100
AcDbPlotSettings
  1

  2
none_device
  4

  6

 40
0.0
 41
0.0
 42
0.0
 43
0.0
 44
0.0
 45
0.0
 46
0.0
 47
0.0
 48
0.0
 49
0.0
140
0.0
141
0.0
142
1.0
143
1.0
 70
   688
 72
     0
 73
     0
 74
     5
  7

 75
    16
 76
     0
 77
     2
 78
   300
147
1.0
148
0.0
149
0.0
100
AcDbLayout
  1
Layout1
 70
     1
 71
     1
 10
0.0
 20
0.0
 11
12.0
 21
9.0
 12
0.0
 22
0.0
 32
0.0
 14
1.000000000000000E+20
 24
1.000000000000000E+20
 34
1.000000000000000E+20
 15
-1.000000000000000E+20
 25
-1.000000000000000E+20
 35
-1.000000000000000E+20
146
0.0
 13
0.0
 23
0.0
 33
0.0
 16
1.0
 26
0.0
 36
0.0
 17
0.0
 27
1.0
 37
0.0
 76
     0
330
1B
  0
LAYOUT
  5
26
102
{ACAD_REACTORS
330
1A
102
}
330
1A
100
AcDbPlotSettings
  1

  2
none_device
  4

  6

 40
0.0
 41
0.0
 42
0.0
 43
0.0
 44
0.0
 45
0.0
 46
0.0
 47
0.0
 48
0.0
 49
0.0
140
0.0
141
0.0
142
1.0
143
1.0
 70
   688
 72
     0
 73
     0
 74
     5
  7

 75
    16
 76
     0
 77
     2
 78
   300
147
1.0
148
0.0
149
0.0
100
AcDbLayout
  1
Layout2
 70
     1
 71
     2
 10
0.0
 20
0.0
 11
0.0
 21
0.0
 12
0.0
 22
0.0
 32
0.0
 14
0.0
 24
0.0
 34
0.0
 15
0.0
 25
0.0
 35
0.0
146
0.0
 13
0.0
 23
0.0
 33
0.0
 16
1.0
 26
0.0
 36
0.0
 17
0.0
 27
1.0
 37
0.0
 76
     0
330
23
  0
LAYOUT
  5
22
102
{ACAD_REACTORS
330
1A
102
}
330
1A
100
AcDbPlotSettings
  1

  2
none_device
  4

  6

 40
0.0
 41
0.0
 42
0.0
 43
0.0
 44
0.0
 45
0.0
 46
0.0
 47
0.0
 48
0.0
 49
0.0
140
0.0
141
0.0
142
1.0
143
1.0
 70
  1712
 72
     0
 73
     0
 74
     0
  7

 75
     0
 76
     0
 77
     2
 78
   300
147
1.0
148
0.0
149
0.0
100
AcDbLayout
  1
Model
 70
     1
 71
     0
 10
0.0
 20
0.0
 11
12.0
 21
9.0
 12
0.0
 22
0.0
 32
0.0
 14
1.000000000000000E+20
 24
1.000000000000000E+20
 34
1.000000000000000E+20
 15
-1.000000000000000E+20
 25
-1.000000000000000E+20
 35
-1.000000000000000E+20
146
0.0
 13
0.0
 23
0.0
 33
0.0
 16
1.0
 26
0.0
 36
0.0
 17
0.0
 27
1.0
 37
0.0
 76
     0
330
1F
331
29
  0
MATERIAL
  5
3D
102
{ACAD_REACTORS
330
3B
102
}
330
3B
100
AcDbMaterial
  1
ByBlock
 72
     1
 94
      127
  0
MATERIAL
  5
3C
102
{ACAD_REACTORS
330
3B
102
}
330
3B
100
AcDbMaterial
  1
ByLayer
 72
     1
 94
      127
  0
MATERIAL
  5
3E
102
{ACAD_REACTORS
330
3B
102
}
330
3B
100
AcDbMaterial
  1
Global
 72
     1
 94
      127
  0
MLINESTYLE
  5
18
102
{ACAD_REACTORS
330
17
102
}
330
17
100
AcDbMlineStyle
  2
Standard
 70
     0
  3

 62
   256
 51
90.0
 52
90.0
 71
     2
 49
0.5
 62
   256
  6
BYLAYER
 49
-0.5
 62
   256
  6
BYLAYER
  0
ACDBPLACEHOLDER
  5
F
102
{ACAD_REACTORS
330
E
102
}
330
E
  0
VISUALSTYLE
  5
2F
102
{ACAD_REACTORS
330
2A
102
}
330
2A
100
AcDbVisualStyle
  2
2dWireframe
 70
     4
177
     2
291
     0
 71
     0
176
     1
 72
     2
176
     1
 73
     0
176
     1
 90
        0
176
     1
 40
-0.6
176
     1
 41
-30.0
176
     1
 62
     5
 63
     7
421
 16777215
176
     1
 74
     1
176
     1
 91
        4
176
     1
 64
     7
176
     1
 65
   257
176
     1
 75
     1
176
     1
175
     1
176
     1
 42
1.0
176
     1
 92
        0
176
     1
 66
   257
176
     1
 43
1.0
176
     1
 76
     1
176
     1
 77
     6
176
     1
 78
     2
176
     1
 67
     7
176
     1
 79
     5
176
     1
170
     0
176
     1
171
     0
176
     1
290
     0
176
     1
 93
        1
176
     1
 44
0.0
176
     1
173
     0
176
     1
  0
VISUALSTYLE
  5
31
102
{ACAD_REACTORS
330
2A
102
}
330
2A
100
AcDbVisualStyle
  2
3D Hidden
 70
     6
177
     2
291
     0
 71
     1
176
     1
 72
     2
176
     1
 73
     2
176
     1
 90
        0
176
     1
 40
-0.6
176
     1
 41
-30.0
176
     1
 62
     5
 63
     7
421
 16777215
176
     1
 74
     2
176
     1
 91
        2
176
     1
 64
     7
176
     1
 65
   257
176
     1
 75
     2
176
     1
175
     1
176
     1
 42
40.0
176
     1
 92
        0
176
     1
 66
   257
176
     1
 43
1.0
176
     1
 76
     1
176
     1
 77
     6
176
     1
 78
     2
176
     1
 67
     7
176
     1
 79
     3
176
     1
170
     0
176
     1
171
     0
176
     1
290
     0
176
     1
 93
        1
176
     1
 44
0.0
176
     1
173
     0
176
     1
  0
VISUALSTYLE
  5
30
102
{ACAD_REACTORS
330
2A
102
}
330
2A
100
AcDbVisualStyle
  2
3dWireframe
 70
     5
177
     2
291
     0
 71
     0
176
     1
 72
     2
176
     1
 73
     0
176
     1
 90
        0
176
     1
 40
-0.6
176
     1
 41
-30.0
176
     1
 62
     5
 63
     7
421
 16777215
176
     1
 74
     1
176
     1
 91
        4
176
     1
 64
     7
176
     1
 65
   257
176
     1
 75
     1
176
     1
175
     1
176
     1
 42
1.0
176
     1
 92
        0
176
     1
 66
   257
176
     1
 43
1.0
176
     1
 76
     1
176
     1
 77
     6
176
     1
 78
     2
176
     1
 67
     7
176
     1
 79
     5
176
     1
170
     0
176
     1
171
     0
176
     1
290
     0
176
     1
 93
        1
176
     1
 44
0.0
176
     1
173
     0
176
     1
  0
VISUALSTYLE
  5
32
102
{ACAD_REACTORS
330
2A
102
}
330
2A
100
AcDbVisualStyle
  2
Basic
 70
     7
177
     2
291
     1
 71
     1
176
     1
 72
     0
176
     1
 73
     1
176
     1
 90
        0
176
     1
 40
-0.6
176
     1
 41
-30.0
176
     1
 62
     5
 63
     7
421
 16777215
176
     1
 74
     0
176
     1
 91
        4
176
     1
 64
     7
176
     1
 65
   257
176
     1
 75
     1
176
     1
175
     1
176
     1
 42
1.0
176
     1
 92
        8
176
     1
 66
     7
176
     1
 43
1.0
176
     1
 76
     1
176
     1
 77
     6
176
     1
 78
     2
176
     1
 67
     7
176
     1
 79
     5
176
     1
170
     0
176
     1
171
     0
176
     1
290
     0
176
     1
 93
        1
176
     1
 44
0.0
176
     1
173
     0
176
     1
  0
VISUALSTYLE
  5
36
102
{ACAD_REACTORS
330
2A
102
}
330
2A
100
AcDbVisualStyle
  2
Brighten
 70
    12
177
     2
291
     1
 71
     2
176
     1
 72
     2
176
     1
 73
     0
176
     1
 90
        0
176
     1
 40
-0.6
176
     1
 41
-30.0
176
     1
 62
     5
 63
     7
421
 16777215
176
     1
 74
     1
176
     1
 91
        4
176
     1
 64
     7
176
     1
 65
   257
176
     1
 75
     1
176
     1
175
     1
176
     1
 42
1.0
176
     1
 92
        8
176
     1
 66
     7
176
     1
 43
1.0
176
     1
 76
     1
176
     1
 77
     6
176
     1
 78
     2
176
     1
 67
     7
176
     1
 79
     5
176
     1
170
     0
176
     1
171
     0
176
     1
290
     0
176
     1
 93
        1
176
     1
 44
50.0
176
     1
173
     0
176
     1
  0
VISUALSTYLE
  5
3A
102
{ACAD_REACTORS
330
2A
102
}
330
2A
100
AcDbVisualStyle
  2
ColorChange
 70
    16
177
     2
291
     1
 71
     2
176
     1
 72
     2
176
     1
 73
     3
176
     1
 90
        0
176
     1
 40
-0.6
176
     1
 41
-30.0
176
     1
 62
     5
 63
     8
421
  8421504
176
     1
 74
     1
176
     1
 91
        4
176
     1
 64
     7
176
     1
 65
   257
176
     1
 75
     1
176
     1
175
     1
176
     1
 42
1.0
176
     1
 92
        8
176
     1
 66
     8
424
  8421504
176
     1
 43
1.0
176
     1
 76
     1
176
     1
 77
     6
176
     1
 78
     2
176
     1
 67
     7
176
     1
 79
     5
176
     1
170
     0
176
     1
171
     0
176
     1
290
     0
176
     1
 93
        1
176
     1
 44
0.0
176
     1
173
     0
176
     1
  0
VISUALSTYLE
  5
34
102
{ACAD_REACTORS
330
2A
102
}
330
2A
100
AcDbVisualStyle
  2
Conceptual
 70
     9
177
     2
291
     0
 71
     3
176
     1
 72
     2
176
     1
 73
     0
176
     1
 90
        0
176
     1
 40
-0.6
176
     1
 41
-30.0
176
     1
 62
     5
 63
     7
421
 16777215
176
     1
 74
     2
176
     1
 91
        2
176
     1
 64
     7
176
     1
 65
   257
176
     1
 75
     1
176
     1
175
     1
176
     1
 42
40.0
176
     1
 92
        8
176
     1
 66
     7
176
     1
 43
1.0
176
     1
 76
     1
176
     1
 77
     6
176
     1
 78
     2
176
     1
 67
     7
176
     1
 79
     3
176
     1
170
     0
176
     1
171
     0
176
     1
290
     0
176
     1
 93
        1
176
     1
 44
0.0
176
     1
173
     0
176
     1
  0
VISUALSTYLE
  5
35
102
{ACAD_REACTORS
330
2A
102
}
330
2A
100
AcDbVisualStyle
  2
Dim
 70
    11
177
     2
291
     1
 71
     2
176
     1
 72
     2
176
     1
 73
     0
176
     1
 90
        0
176
     1
 40
-0.6
176
     1
 41
-30.0
176
     1
 62
     5
 63
     7
421
 16777215
176
     1
 74
     1
176
     1
 91
        4
176
     1
 64
     7
176
     1
 65
   257
176
     1
 75
     1
176
     1
175
     1
176
     1
 42
1.0
176
     1
 92
        8
176
     1
 66
     7
176
     1
 43
1.0
176
     1
 76
     1
176
     1
 77
     6
176
     1
 78
     2
176
     1
 67
     7
176
     1
 79
     5
176
     1
170
     0
176
     1
171
     0
176
     1
290
     0
176
     1
 93
        1
176
     1
 44
-50.0
176
     1
173
     0
176
     1
  0
VISUALSTYLE
  5
39
102
{ACAD_REACTORS
330
2A
102
}
330
2A
100
AcDbVisualStyle
  2
Facepattern
 70
    15
177
     2
291
     1
 71
     2
176
     1
 72
     2
176
     1
 73
     0
176
     1
 90
        0
176
     1
 40
-0.6
176
     1
 41
-30.0
176
     1
 62
     5
 63
     7
421
 16777215
176
     1
 74
     1
176
     1
 91
        4
176
     1
 64
     7
176
     1
 65
   257
176
     1
 75
     1
176
     1
175
     1
176
     1
 42
1.0
176
     1
 92
        8
176
     1
 66
     7
176
     1
 43
1.0
176
     1
 76
     1
176
     1
 77
     6
176
     1
 78
     2
176
     1
 67
     7
176
     1
 79
     5
176
     1
170
     0
176
     1
171
     0
176
     1
290
     0
176
     1
 93
        1
176
     1
 44
0.0
176
     1
173
     0
176
     1
  0
VISUALSTYLE
  5
2B
102
{ACAD_REACTORS
330
2A
102
}
330
2A
100
AcDbVisualStyle
  2
Flat
 70
     0
177
     2
291
     1
 71
     2
176
     1
 72
     1
176
     1
 73
     1
176
     1
 90
        2
176
     1
 40
-0.6
176
     1
 41
30.0
176
     1
 62
     5
 63
     7
421
 16777215
176
     1
 74
     0
176
     1
 91
        4
176
     1
 64
     7
176
     1
 65
   257
176
     1
 75
     1
176
     1
175
     1
176
     1
 42
1.0
176
     1
 92
        8
176
     1
 66
     7
176
     1
 43
1.0
176
     1
 76
     1
176
     1
 77
     6
176
     1
 78
     2
176
     1
 67
     7
176
     1
 79
     5
176
     1
170
     0
176
     1
171
     0
176
     1
290
     0
176
     1
 93
       13
176
     1
 44
0.0
176
     1
173
     0
176
     1
  0
VISUALSTYLE
  5
2C
102
{ACAD_REACTORS
330
2A
102
}
330
2A
100
AcDbVisualStyle
  2
FlatWithEdges
 70
     1
177
     2
291
     1
 71
     2
176
     1
 72
     1
176
     1
 73
     1
176
     1
 90
        2
176
     1
 40
-0.6
176
     1
 41
30.0
176
     1
 62
     5
 63
     7
421
 16777215
176
     1
 74
     1
176
     1
 91
        4
176
     1
 64
     7
176
     1
 65
   257
176
     1
 75
     1
176
     1
175
     1
176
     1
 42
1.0
176
     1
 92
        0
176
     1
 66
   257
176
     1
 43
1.0
176
     1
 76
     1
176
     1
 77
     6
176
     1
 78
     2
176
     1
 67
     7
176
     1
 79
     5
176
     1
170
     0
176
     1
171
     0
176
     1
290
     0
176
     1
 93
       13
176
     1
 44
0.0
176
     1
173
     0
176
     1
  0
VISUALSTYLE
  5
2D
102
{ACAD_REACTORS
330
2A
102
}
330
2A
100
AcDbVisualStyle
  2
Gouraud
 70
     2
177
     2
291
     1
 71
     2
176
     1
 72
     2
176
     1
 73
     1
176
     1
 90
        2
176
     1
 40
-0.6
176
     1
 41
30.0
176
     1
 62
     5
 63
     7
421
 16777215
176
     1
 74
     0
176
     1
 91
        4
176
     1
 64
     7
176
     1
 65
   257
176
     1
 75
     1
176
     1
175
     1
176
     1
 42
1.0
176
     1
 92
        0
176
     1
 66
     7
176
     1
 43
1.0
176
     1
 76
     1
176
     1
 77
     6
176
     1
 78
     2
176
     1
 67
     7
176
     1
 79
     5
176
     1
170
     0
176
     1
171
     0
176
     1
290
     0
176
     1
 93
       13
176
     1
 44
0.0
176
     1
173
     0
176
     1
  0
VISUALSTYLE
  5
2E
102
{ACAD_REACTORS
330
2A
102
}
330
2A
100
AcDbVisualStyle
  2
GouraudWithEdges
 70
     3
177
     2
291
     1
 71
     2
176
     1
 72
     2
176
     1
 73
     1
176
     1
 90
        2
176
     1
 40
-0.6
176
     1
 41
30.0
176
     1
 62
     5
 63
     7
421
 16777215
176
     1
 74
     1
176
     1
 91
        4
176
     1
 64
     7
176
     1
 65
   257
176
     1
 75
     1
176
     1
175
     1
176
     1
 42
1.0
176
     1
 92
        0
176
     1
 66
   257
176
     1
 43
1.0
176
     1
 76
     1
176
     1
 77
     6
176
     1
 78
     2
176
     1
 67
     7
176
     1
 79
     5
176
     1
170
     0
176
     1
171
     0
176
     1
290
     0
176
     1
 93
       13
176
     1
 44
0.0
176
     1
173
     0
176
     1
  0
VISUALSTYLE
  5
38
102
{ACAD_REACTORS
330
2A
102
}
330
2A
100
AcDbVisualStyle
  2
Linepattern
 70
    14
177
     2
291
     1
 71
     2
176
     1
 72
     2
176
     1
 73
     0
176
     1
 90
        0
176
     1
 40
-0.6
176
     1
 41
-30.0
176
     1
 62
     5
 63
     7
421
 16777215
176
     1
 74
     1
176
     1
 91
        4
176
     1
 64
     7
176
     1
 65
   257
176
     1
 75
     7
176
     1
175
     7
176
     1
 42
1.0
176
     1
 92
        8
176
     1
 66
     7
176
     1
 43
1.0
176
     1
 76
     1
176
     1
 77
     6
176
     1
 78
     2
176
     1
 67
     7
176
     1
 79
     5
176
     1
170
     0
176
     1
171
     0
176
     1
290
     0
176
     1
 93
        1
176
     1
 44
0.0
176
     1
173
     0
176
     1
  0
VISUALSTYLE
  5
33
102
{ACAD_REACTORS
330
2A
102
}
330
2A
100
AcDbVisualStyle
  2
Realistic
 70
     8
177
     2
291
     0
 71
     2
176
     1
 72
     2
176
     1
 73
     0
176
     1
 90
        0
176
     1
 40
-0.6
176
     1
 41
-30.0
176
     1
 62
     5
 63
     7
421
 16777215
176
     1
 74
     1
176
     1
 91
        0
176
     1
 64
     7
176
     1
 65
   257
176
     1
 75
     1
176
     1
175
     1
176
     1
 42
1.0
176
     1
 92
        8
176
     1
 66
     8
424
  7895160
176
     1
 43
1.0
176
     1
 76
     1
176
     1
 77
     6
176
     1
 78
     2
176
     1
 67
     7
176
     1
 79
     5
176
     1
170
     0
176
     1
171
     0
176
     1
290
     0
176
     1
 93
       13
176
     1
 44
0.0
176
     1
173
     0
176
     1
  0
VISUALSTYLE
  5
37
102
{ACAD_REACTORS
330
2A
102
}
330
2A
100
AcDbVisualStyle
  2
Thicken
 70
    13
177
     2
291
     1
 71
     2
176
     1
 72
     2
176
     1
 73
     0
176
     1
 90
        0
176
     1
 40
-0.6
176
     1
 41
-30.0
176
     1
 62
     5
 63
     7
421
 16777215
176
     1
 74
     1
176
     1
 91
        4
176
     1
 64
     7
176
     1
 65
   257
176
     1
 75
     1
176
     1
175
     1
176
     1
 42
1.0
176
     1
 92
       12
176
     1
 66
     7
176
     1
 43
1.0
176
     1
 76
     1
176
     1
 77
     6
176
     1
 78
     2
176
     1
 67
     7
176
     1
 79
     5
176
     1
170
     0
176
     1
171
     0
176
     1
290
     0
176
     1
 93
        1
176
     1
 44
0.0
176
     1
173
     0
176
     1
  0
ENDSEC
  0
EOF
