  0
SECTION
  2
HEADER
  9
$ACADVER
  1
AC1024
  9
$ACADMAINTVER
 70
     6
  9
$DWGCODEPAGE
  3
UNDEFINED
  9
$INSBASE
 10
0.0
 20
0.0
 30
0.0
  9
$EXTMIN
 10
1.000000000000000E+20
 20
1.000000000000000E+20
 30
1.000000000000000E+20
  9
$EXTMAX
 10
-1.000000000000000E+20
 20
-1.000000000000000E+20
 30
-1.000000000000000E+20
  9
$LIMMIN
 10
0.0
 20
0.0
  9
$LIMMAX
 10
12.0
 20
9.0
  9
$ORTHOMODE
 70
     0
  9
$REGENMODE
 70
     1
  9
$FILLMODE
 70
     1
  9
$QTEXTMODE
 70
     0
  9
$MIRRTEXT
 70
     1
  9
$LTSCALE
 40
1.0
  9
$ATTMODE
 70
     1
  9
$TEXTSIZE
 40
0.2
  9
$TRACEWID
 40
0.05
  9
$TEXTSTYLE
  7
Standard
  9
$CLAYER
  8
0
  9
$CELTYPE
  6
ByLayer
  9
$CECOLOR
 62
   256
  9
$CELTSCALE
 40
1.0
  9
$DISPSILH
 70
     0
  9
$DIMSCALE
 40
1.0
  9
$DIMASZ
 40
0.18
  9
$DIMEXO
 40
0.0625
  9
$DIMDLI
 40
0.38
  9
$DIMRND
 40
0.0
  9
$DIMDLE
 40
0.0
  9
$DIMEXE
 40
0.18
  9
$DIMTP
 40
0.0
  9
$DIMTM
 40
0.0
  9
$DIMTXT
 40
0.18
  9
$DIMCEN
 40
0.09
  9
$DIMTSZ
 40
0.0
  9
$DIMTOL
 70
     0
  9
$DIMLIM
 70
     0
  9
$DIMTIH
 70
     1
  9
$DIMTOH
 70
     1
  9
$DIMSE1
 70
     0
  9
$DIMSE2
 70
     0
  9
$DIMTAD
 70
     0
  9
$DIMZIN
 70
     0
  9
$DIMBLK
  1

  9
$DIMASO
 70
     1
  9
$DIMSHO
 70
     1
  9
$DIMPOST
  1

  9
$DIMAPOST
  1

  9
$DIMALT
 70
     0
  9
$DIMALTD
 70
     2
  9
$DIMALTF
 40
25.4
  9
$DIMLFAC
 40
1.0
  9
$DIMTOFL
 70
     0
  9
$DIMTVP
 40
0.0
  9
$DIMTIX
 70
     0
  9
$DIMSOXD
 70
     0
  9
$DIMSAH
 70
     0
  9
$DIMBLK1
  1

  9
$DIMBLK2
  1

  9
$DIMSTYLE
  2
Standard
  9
$DIMCLRD
 70
     0
  9
$DIMCLRE
 70
     0
  9
$DIMCLRT
 70
     0
  9
$DIMTFAC
 40
1.0
  9
$DIMGAP
 40
0.09
  9
$DIMJUST
 70
     0
  9
$DIMSD1
 70
     0
  9
$DIMSD2
 70
     0
  9
$DIMTOLJ
 70
     1
  9
$DIMTZIN
 70
     0
  9
$DIMALTZ
 70
     0
  9
$DIMALTTZ
 70
     0
  9
$DIMUPT
 70
     0
  9
$DIMDEC
 70
     4
  9
$DIMTDEC
 70
     4
  9
$DIMALTU
 70
     2
  9
$DIMALTTD
 70
     2
  9
$DIMTXSTY
  7
Standard
  9
$DIMAUNIT
 70
     0
  9
$DIMADEC
 70
     0
  9
$DIMALTRND
 40
0.0
  9
$DIMAZIN
 70
     0
  9
$DIMDSEP
 70
    46
  9
$DIMATFIT
 70
     3
  9
$DIMFRAC
 70
     0
  9
$DIMLDRBLK
  1

  9
$DIMLUNIT
 70
     2
  9
$DIMLWD
 70
    -2
  9
$DIMLWE
 70
    -2
  9
$DIMTMOVE
 70
     0
  9
$DIMFXL
 40
1.0
  9
$DIMFXLON
 70
     0
  9
$DIMJOGANG
 40
0.7853981633974483
  9
$DIMTFILL
 70
     0
  9
$DIMTFILLCLR
 70
     0
  9
$DIMARCSYM
 70
     0
  9
$DIMLTYPE
  6

  9
$DIMLTEX1
  6

  9
$DIMLTEX2
  6

  9
$DIMTXTDIRECTION
 70
     0
  9
$LUNITS
 70
     2
  9
$LUPREC
 70
     4
  9
$SKETCHINC
 40
0.1
  9
$FILLETRAD
 40
0.5
  9
$AUNITS
 70
     0
  9
$AUPREC
 70
     0
  9
$MENU
  1
.
  9
$ELEVATION
 40
0.0
  9
$PELEVATION
 40
0.0
  9
$THICKNESS
 40
0.0
  9
$LIMCHECK
 70
     0
  9
$CHAMFERA
 40
0.5
  9
$CHAMFERB
 40
0.5
  9
$CHAMFERC
 40
1.0
  9
$CHAMFERD
 40
0.0
  9
$SKPOLY
 70
     0
  9
$TDCREATE
 40
2457917.626087963
  9
$TDUCREATE
 40
2457917.251087963
  9
$TDUPDATE
 40
2457917.626087963
  9
$TDUUPDATE
 40
2457917.251087963
  9
$TDINDWG
 40
0.0000000116
  9
$TDUSRTIMER
 40
0.0000000116
  9
$USRTIMER
 70
     1
  9
$ANGBASE
 50
0.0
  9
$ANGDIR
 70
     0
  9
$PDMODE
 70
     0
  9
$PDSIZE
 40
0.0
  9
$PLINEWID
 40
0.0
  9
$SPLFRAME
 70
     0
  9
$SPLINETYPE
 70
     6
  9
$SPLINESEGS
 70
     8
  9
$HANDSEED
  5
B8
  9
$SURFTAB1
 70
     6
  9
$SURFTAB2
 70
     6
  9
$SURFTYPE
 70
     6
  9
$SURFU
 70
     6
  9
$SURFV
 70
     6
  9
$UCSBASE
  2

  9
$UCSNAME
  2

  9
$UCSORG
 10
0.0
 20
0.0
 30
0.0
  9
$UCSXDIR
 10
1.0
 20
0.0
 30
0.0
  9
$UCSYDIR
 10
0.0
 20
1.0
 30
0.0
  9
$UCSORTHOREF
  2

  9
$UCSORTHOVIEW
 70
     0
  9
$UCSORGTOP
 10
0.0
 20
0.0
 30
0.0
  9
$UCSORGBOTTOM
 10
0.0
 20
0.0
 30
0.0
  9
$UCSORGLEFT
 10
0.0
 20
0.0
 30
0.0
  9
$UCSORGRIGHT
 10
0.0
 20
0.0
 30
0.0
  9
$UCSORGFRONT
 10
0.0
 20
0.0
 30
0.0
  9
$UCSORGBACK
 10
0.0
 20
0.0
 30
0.0
  9
$PUCSBASE
  2

  9
$PUCSNAME
  2

  9
$PUCSORG
 10
0.0
 20
0.0
 30
0.0
  9
$PUCSXDIR
 10
1.0
 20
0.0
 30
0.0
  9
$PUCSYDIR
 10
0.0
 20
1.0
 30
0.0
  9
$PUCSORTHOREF
  2

  9
$PUCSORTHOVIEW
 70
     0
  9
$PUCSORGTOP
 10
0.0
 20
0.0
 30
0.0
  9
$PUCSORGBOTTOM
 10
0.0
 20
0.0
 30
0.0
  9
$PUCSORGLEFT
 10
0.0
 20
0.0
 30
0.0
  9
$PUCSORGRIGHT
 10
0.0
 20
0.0
 30
0.0
  9
$PUCSORGFRONT
 10
0.0
 20
0.0
 30
0.0
  9
$PUCSORGBACK
 10
0.0
 20
0.0
 30
0.0
  9
$USERI1
 70
     0
  9
$USERI2
 70
     0
  9
$USERI3
 70
     0
  9
$USERI4
 70
     0
  9
$USERI5
 70
     0
  9
$USERR1
 40
0.0
  9
$USERR2
 40
0.0
  9
$USERR3
 40
0.0
  9
$USERR4
 40
0.0
  9
$USERR5
 40
0.0
  9
$WORLDVIEW
 70
     1
  9
$SHADEDGE
 70
     3
  9
$SHADEDIF
 70
    70
  9
$TILEMODE
 70
     1
  9
$MAXACTVP
 70
    64
  9
$PINSBASE
 10
0.0
 20
0.0
 30
0.0
  9
$PLIMCHECK
 70
     0
  9
$PEXTMIN
 10
1.000000000000000E+20
 20
1.000000000000000E+20
 30
1.000000000000000E+20
  9
$PEXTMAX
 10
-1.000000000000000E+20
 20
-1.000000000000000E+20
 30
-1.000000000000000E+20
  9
$PLIMMIN
 10
0.0
 20
0.0
  9
$PLIMMAX
 10
12.0
 20
9.0
  9
$UNITMODE
 70
     0
  9
$VISRETAIN
 70
     1
  9
$PLINEGEN
 70
     0
  9
$PSLTSCALE
 70
     1
  9
$TREEDEPTH
 70
  3020
  9
$CMLSTYLE
  2
Standard
  9
$CMLJUST
 70
     0
  9
$CMLSCALE
 40
1.0
  9
$PROXYGRAPHICS
 70
     1
  9
$MEASUREMENT
 70
     0
  9
$CELWEIGHT
370
    -1
  9
$ENDCAPS
280
     0
  9
$JOINSTYLE
280
     0
  9
$LWDISPLAY
290
     1
  9
$INSUNITS
 70
     1
  9
$HYPERLINKBASE
  1

  9
$STYLESHEET
  1

  9
$XEDIT
290
     1
  9
$CEPSNTYPE
380
     0
  9
$PSTYLEMODE
290
     1
  9
$FINGERPRINTGUID
  2
{BD9D63B3-98E6-59AD-045C-4ECE2FC5F47F}
  9
$VERSIONGUID
  2
{FAEB1C32-E019-11D5-929B-00C0DF256EC4}
  9
$EXTNAMES
290
     1
  9
$PSVPSCALE
 40
0.0
  9
$OLESTARTUP
290
     0
  9
$SORTENTS
280
   127
  9
$INDEXCTL
280
     0
  9
$HIDETEXT
280
     1
  9
$XCLIPFRAME
280
     2
  9
$HALOGAP
280
     0
  9
$OBSCOLOR
 70
   257
  9
$OBSLTYPE
280
     0
  9
$INTERSECTIONDISPLAY
280
     0
  9
$INTERSECTIONCOLOR
 70
   257
  9
$DIMASSOC
280
     2
  9
$PROJECTNAME
  1

  9
$CAMERADISPLAY
290
     0
  9
$LENSLENGTH
 40
50.0
  9
$CAMERAHEIGHT
 40
0.0
  9
$STEPSPERSEC
 40
2.0
  9
$STEPSIZE
 40
6.0
  9
$3DDWFPREC
 40
2.0
  9
$PSOLWIDTH
 40
0.25
  9
$PSOLHEIGHT
 40
4.0
  9
$LOFTANG1
 40
1.570796326794897
  9
$LOFTANG2
 40
1.570796326794897
  9
$LOFTMAG1
 40
0.0
  9
$LOFTMAG2
 40
0.0
  9
$LOFTPARAM
 70
     7
  9
$LOFTNORMALS
280
     1
  9
$LATITUDE
 40
37.795
  9
$LONGITUDE
 40
-122.394
  9
$NORTHDIRECTION
 40
0.0
  9
$TIMEZONE
 70
 -8000
  9
$LIGHTGLYPHDISPLAY
280
     1
  9
$TILEMODELIGHTSYNCH
280
     1
  9
$CMATERIAL
347
3C
  9
$SOLIDHIST
280
     1
  9
$SHOWHIST
280
     1
  9
$DWFFRAME
280
     2
  9
$DGNFRAME
280
     2
  9
$REALWORLDSCALE
290
     1
  9
$INTERFERECOLOR
 62
   256
  9
$CSHADOW
280
     0
  9
$SHADOWPLANELOCATION
 40
0.0
  0
ENDSEC
  0
SECTION
  2
CLASSES
  0
CLASS
  1
ACDBDICTIONARYWDFLT
  2
AcDbDictionaryWithDefault
  3
ObjectDBX Classes
 90
        0
 91
        4
280
     0
281
     0
  0
CLASS
  1
VISUALSTYLE
  2
AcDbVisualStyle
  3
ObjectDBX Classes
 90
     4095
 91
        4
280
     0
281
     0
  0
CLASS
  1
MATERIAL
  2
AcDbMaterial
  3
ObjectDBX Classes
 90
     1153
 91
        4
280
     0
281
     0
  0
CLASS
  1
SUN
  2
AcDbSun
  3
SCENEOE
 90
     1024
 91
        4
280
     0
281
     0
  0
ENDSEC
  0
SECTION
  2
TABLES
  0
TABLE
  2
VPORT
  5
8
330
0
100
AcDbSymbolTable
 70
     1
  0
VPORT
  5
29
330
8
100
AcDbSymbolTableRecord
100
AcDbViewportTableRecord
  2
*Active
 70
     0
 10
0.0
 20
0.0
 11
1.0
 21
1.0
 12
0.0
 22
0.0
 13
0.0
 23
0.0
 14
0.5
 24
0.5
 15
0.5
 25
0.5
 16
0.0
 26
0.0
 36
1.0
 17
91.00082462281999
 27
-128.4993055234307
 37
0.0
 40
256.9986110468615
 41
0.7081814508812795
 42
50.0
 43
0.0
 44
0.0
 50
0.0
 51
0.0
 71
     0
 72
   100
 73
     1
 74
     3
 75
     0
 76
     0
 77
     0
 78
     0
281
     0
 65
     1
110
0.0
120
0.0
130
0.0
111
1.0
121
0.0
131
0.0
112
0.0
122
1.0
132
0.0
 79
     0
146
0.0
 60
     3
 61
     5
292
     1
282
     1
141
0.0
142
0.0
 63
   250
361
3F
  0
ENDTAB
  0
TABLE
  2
LTYPE
  5
5
330
0
100
AcDbSymbolTable
 70
     2
  0
LTYPE
  5
14
330
5
100
AcDbSymbolTableRecord
100
AcDbLinetypeTableRecord
  2
ByBlock
 70
     0
  3

 72
    65
 73
     0
 40
0.0
  0
LTYPE
  5
15
330
5
100
AcDbSymbolTableRecord
100
AcDbLinetypeTableRecord
  2
ByLayer
 70
     0
  3

 72
    65
 73
     0
 40
0.0
  0
LTYPE
  5
16
330
5
100
AcDbSymbolTableRecord
100
AcDbLinetypeTableRecord
  2
Continuous
 70
     0
  3
Solid line
 72
    65
 73
     0
 40
0.0
  0
LTYPE
  5
B4
330
5
100
AcDbSymbolTableRecord
100
AcDbLinetypeTableRecord
  2
AI-Linetype-1
 70
     0
  3
Adobe Illustrator Linetype No. 1
 72
    65
 73
     2
 40
1.411111110758333
 49
0.7055555553791667
 74
     0
 49
-0.7055555553791667
 74
     0
  0
ENDTAB
  0
TABLE
  2
LAYER
  5
2
330
0
100
AcDbSymbolTable
 70
     2
  0
LAYER
  5
10
330
2
100
AcDbSymbolTableRecord
100
AcDbLayerTableRecord
  2
0
 70
     0
 62
     7
  6
Continuous
370
    -3
390
F
347
3E
  0
LAYER
  5
40
330
2
100
AcDbSymbolTableRecord
100
AcDbLayerTableRecord
  2
_U+30EC_U+30A4_U+30E4_U+30FC 1
 70
     0
 62
     7
  6
Continuous
370
    -3
390
F
347
3E
  0
ENDTAB
  0
TABLE
  2
STYLE
  5
3
330
0
100
AcDbSymbolTable
 70
     1
  0
STYLE
  5
11
330
3
100
AcDbSymbolTableRecord
100
AcDbTextStyleTableRecord
  2
Standard
 70
     0
 40
0.0
 41
1.0
 50
0.0
 71
     0
 42
0.2
  3
txt
  4

  0
ENDTAB
  0
TABLE
  2
VIEW
  5
6
330
0
100
AcDbSymbolTable
 70
     0
  0
ENDTAB
  0
TABLE
  2
UCS
  5
7
330
0
100
AcDbSymbolTable
 70
     0
  0
ENDTAB
  0
TABLE
  2
APPID
  5
9
330
0
100
AcDbSymbolTable
 70
     1
  0
APPID
  5
12
330
9
100
AcDbSymbolTableRecord
100
AcDbRegAppTableRecord
  2
ACAD
 70
     0
  0
ENDTAB
  0
TABLE
  2
DIMSTYLE
  5
A
330
0
100
AcDbSymbolTable
 70
     1
100
AcDbDimStyleTable
  0
DIMSTYLE
105
27
330
A
100
AcDbSymbolTableRecord
100
AcDbDimStyleTableRecord
  2
Standard
 70
     0
178
     0
340
11
  0
ENDTAB
  0
TABLE
  2
BLOCK_RECORD
  5
1
330
0
100
AcDbSymbolTable
 70
     4
  0
BLOCK_RECORD
  5
1F
330
1
100
AcDbSymbolTableRecord
100
AcDbBlockTableRecord
  2
*Model_Space
340
22
 70
     0
280
     1
281
     0
  0
BLOCK_RECORD
  5
1B
330
1
100
AcDbSymbolTableRecord
100
AcDbBlockTableRecord
  2
*Paper_Space
340
1E
 70
     0
280
     1
281
     0
  0
BLOCK_RECORD
  5
23
330
1
100
AcDbSymbolTableRecord
100
AcDbBlockTableRecord
  2
*Paper_Space0
340
26
 70
     0
280
     1
281
     0
  0
BLOCK_RECORD
  5
7E
330
1
100
AcDbSymbolTableRecord
100
AcDbBlockTableRecord
  2
block 2
340
0
102
{BLKREFS
331
7F
102
}
 70
     0
280
     1
281
     0
  0
BLOCK_RECORD
  5
87
330
1
100
AcDbSymbolTableRecord
100
AcDbBlockTableRecord
  2
block 3
340
0
102
{BLKREFS
331
88
102
}
 70
     0
280
     1
281
     0
  0
BLOCK_RECORD
  5
A2
330
1
100
AcDbSymbolTableRecord
100
AcDbBlockTableRecord
  2
block 4
340
0
102
{BLKREFS
331
A3
102
}
 70
     0
280
     1
281
     0
  0
ENDTAB
  0
ENDSEC
  0
SECTION
  2
BLOCKS
  0
BLOCK
  5
20
330
1F
100
AcDbEntity
  8
0
100
AcDbBlockBegin
  2
*Model_Space
 70
     0
 10
0.0
 20
0.0
 30
0.0
  3
*Model_Space
  1

  0
ENDBLK
  5
21
330
1F
100
AcDbEntity
  8
0
100
AcDbBlockEnd
  0
BLOCK
  5
1C
330
1B
100
AcDbEntity
 67
     1
  8
0
100
AcDbBlockBegin
  2
*Paper_Space
 70
     0
 10
0.0
 20
0.0
 30
0.0
  3
*Paper_Space
  1

  0
ENDBLK
  5
1D
330
1B
100
AcDbEntity
 67
     1
  8
0
100
AcDbBlockEnd
  0
BLOCK
  5
24
330
23
100
AcDbEntity
  8
0
100
AcDbBlockBegin
  2
*Paper_Space0
 70
     0
 10
0.0
 20
0.0
 30
0.0
  3
*Paper_Space0
  1

  0
ENDBLK
  5
25
330
23
100
AcDbEntity
  8
0
100
AcDbBlockEnd
  0
BLOCK
  5
80
330
7E
100
AcDbEntity
  8
0
100
AcDbBlockBegin
  2
block 2
 70
     0
 10
0.0
 20
0.0
 30
0.0
  3
block 2
  1

  0
SPLINE
  5
82
330
7E
100
AcDbEntity
  8
_U+30EC_U+30A4_U+30E4_U+30FC 1
370
     0
100
AcDbSpline
210
0.0
220
0.0
230
1.0
 70
    11
 71
     3
 72
    44
 73
    40
 74
     0
 42
0.0000000001
 43
0.0000000001
 12
1.0
 22
0.0
 32
0.0
 13
1.0
 23
0.0
 33
0.0
 40
0.0
 40
0.0
 40
0.0
 40
0.0
 40
1.0
 40
1.0
 40
1.0
 40
2.0
 40
2.0
 40
2.0
 40
3.0
 40
3.0
 40
3.0
 40
4.0
 40
4.0
 40
4.0
 40
5.0
 40
5.0
 40
5.0
 40
6.0
 40
6.0
 40
6.0
 40
7.0
 40
7.0
 40
7.0
 40
8.0
 40
8.0
 40
8.0
 40
9.0
 40
9.0
 40
9.0
 40
10.0
 40
10.0
 40
10.0
 40
11.0
 40
11.0
 40
11.0
 40
12.0
 40
12.0
 40
12.0
 40
13.0
 40
13.0
 40
13.0
 40
13.0
 10
113.4225341513319
 20
-130.4316595811074
 30
0.0
 10
113.5813530532019
 20
-130.6645480359103
 30
0.0
 10
113.6554226061348
 20
-130.764111295434
 30
0.0
 10
113.7990830878697
 20
-130.8157877277127
 30
0.0
 10
113.7990830878697
 20
-130.8157877277127
 30
0.0
 10
113.7990830878697
 20
-129.9841416775734
 30
0.0
 10
113.7990830878697
 20
-129.9841416775734
 30
0.0
 10
113.7990830878697
 20
-129.9841416775734
 30
0.0
 10
114.0044107787906
 20
-129.9841416775734
 30
0.0
 10
114.0044107787906
 20
-129.9841416775734
 30
0.0
 10
114.0044107787906
 20
-129.9841416775734
 30
0.0
 10
114.0044107787906
 20
-131.0827826278196
 30
0.0
 10
114.0044107787906
 20
-131.0827826278196
 30
0.0
 10
113.6468098674216
 20
-131.0486761825156
 30
0.0
 10
113.5686061999065
 20
-130.978740744165
 30
0.0
 10
113.2702609308838
 20
-130.5673963432262
 30
0.0
 10
113.0714789213849
 20
-130.2938557616974
 30
0.0
 10
113.0036105403255
 20
-130.2235758137983
 30
0.0
 10
112.866151230464
 20
-130.2235758137983
 30
0.0
 10
112.7476399457714
 20
-130.2235758137983
 30
0.0
 10
112.6167263173319
 20
-130.3004014431193
 30
0.0
 10
112.6167263173319
 20
-130.5108967772681
 30
0.0
 10
112.6167263173319
 20
-130.7889159829278
 30
0.0
 10
112.8472032052951
 20
-130.7978732311894
 30
0.0
 10
112.9636474326966
 20
-130.8023518553202
 30
0.0
 10
112.9636474326966
 20
-130.8023518553202
 30
0.0
 10
112.9636474326966
 20
-131.0421305010937
 30
0.0
 10
112.9636474326966
 20
-131.0421305010937
 30
0.0
 10
112.8365234092909
 20
-131.0328287432835
 30
0.0
 10
112.7245578060203
 20
-131.0218044377307
 30
0.0
 10
112.6060465213277
 20
-130.9356770505994
 30
0.0
 10
112.4451605621665
 20
-130.8181992945524
 30
0.0
 10
112.411398626411
 20
-130.6194172850535
 30
0.0
 10
112.411398626411
 20
-130.495049338036
 30
0.0
 10
112.411398626411
 20
-130.1987711263045
 30
0.0
 10
112.5953667253234
 20
-129.9772514866029
 30
0.0
 10
112.8682182877552
 20
-129.9772514866029
 30
0.0
 10
113.0969726279758
 20
-129.9772514866029
 30
0.0
 10
113.196191377951
 20
-130.1016194336204
 30
0.0
 10
113.4225341513319
 20
-130.4316595811074
 30
0.0
  0
HATCH
  5
83
330
7E
100
AcDbEntity
  8
_U+30EC_U+30A4_U+30E4_U+30FC 1
 62
     7
420
 16777215
100
AcDbHatch
 10
0.0
 20
0.0
 30
0.0
210
0.0
220
0.0
230
1.0
  2
SOLID
 70
     1
 71
     0
 91
        1
 92
        1
 93
        1
 72
     4
 94
        3
 73
     0
 74
     1
 95
       44
 96
       40
 40
0.0
 40
0.0
 40
0.0
 40
0.0
 40
1.0
 40
1.0
 40
1.0
 40
2.0
 40
2.0
 40
2.0
 40
3.0
 40
3.0
 40
3.0
 40
4.0
 40
4.0
 40
4.0
 40
5.0
 40
5.0
 40
5.0
 40
6.0
 40
6.0
 40
6.0
 40
7.0
 40
7.0
 40
7.0
 40
8.0
 40
8.0
 40
8.0
 40
9.0
 40
9.0
 40
9.0
 40
10.0
 40
10.0
 40
10.0
 40
11.0
 40
11.0
 40
11.0
 40
12.0
 40
12.0
 40
12.0
 40
13.0
 40
13.0
 40
13.0
 40
13.0
 10
113.4225341513319
 20
-130.4316595811074
 10
113.5813530532019
 20
-130.6645480359103
 10
113.6554226061348
 20
-130.764111295434
 10
113.7990830878697
 20
-130.8157877277127
 10
113.7990830878697
 20
-130.8157877277127
 10
113.7990830878697
 20
-129.9841416775734
 10
113.7990830878697
 20
-129.9841416775734
 10
113.7990830878697
 20
-129.9841416775734
 10
114.0044107787906
 20
-129.9841416775734
 10
114.0044107787906
 20
-129.9841416775734
 10
114.0044107787906
 20
-129.9841416775734
 10
114.0044107787906
 20
-131.0827826278196
 10
114.0044107787906
 20
-131.0827826278196
 10
113.6468098674216
 20
-131.0486761825156
 10
113.5686061999065
 20
-130.978740744165
 10
113.2702609308838
 20
-130.5673963432262
 10
113.0714789213849
 20
-130.2938557616974
 10
113.0036105403255
 20
-130.2235758137983
 10
112.866151230464
 20
-130.2235758137983
 10
112.7476399457714
 20
-130.2235758137983
 10
112.6167263173319
 20
-130.3004014431193
 10
112.6167263173319
 20
-130.5108967772681
 10
112.6167263173319
 20
-130.7889159829278
 10
112.8472032052951
 20
-130.7978732311894
 10
112.9636474326966
 20
-130.8023518553202
 10
112.9636474326966
 20
-130.8023518553202
 10
112.9636474326966
 20
-131.0421305010937
 10
112.9636474326966
 20
-131.0421305010937
 10
112.8365234092909
 20
-131.0328287432835
 10
112.7245578060203
 20
-131.0218044377307
 10
112.6060465213277
 20
-130.9356770505994
 10
112.4451605621665
 20
-130.8181992945524
 10
112.411398626411
 20
-130.6194172850535
 10
112.411398626411
 20
-130.495049338036
 10
112.411398626411
 20
-130.1987711263045
 10
112.5953667253234
 20
-129.9772514866029
 10
112.8682182877552
 20
-129.9772514866029
 10
113.0969726279758
 20
-129.9772514866029
 10
113.196191377951
 20
-130.1016194336204
 10
113.4225341513319
 20
-130.4316595811074
 97
        0
 97
        0
 75
     2
 76
     1
 98
        0
  0
SPLINE
  5
84
330
7E
100
AcDbEntity
  8
_U+30EC_U+30A4_U+30E4_U+30FC 1
370
     0
100
AcDbSpline
210
0.0
220
0.0
230
1.0
 70
    11
 71
     3
 72
    32
 73
    28
 74
     0
 42
0.0000000001
 43
0.0000000001
 12
1.0
 22
0.0
 32
0.0
 13
1.0
 23
0.0
 33
0.0
 40
0.0
 40
0.0
 40
0.0
 40
0.0
 40
1.0
 40
1.0
 40
1.0
 40
2.0
 40
2.0
 40
2.0
 40
3.0
 40
3.0
 40
3.0
 40
4.0
 40
4.0
 40
4.0
 40
5.0
 40
5.0
 40
5.0
 40
6.0
 40
6.0
 40
6.0
 40
7.0
 40
7.0
 40
7.0
 40
8.0
 40
8.0
 40
8.0
 40
9.0
 40
9.0
 40
9.0
 40
9.0
 10
114.0550536824237
 20
-129.2689398548355
 30
0.0
 10
114.0550536824237
 20
-129.8204996420241
 30
0.0
 10
113.5010823283956
 20
-129.8294568902857
 30
0.0
 10
113.2871418987615
 20
-129.8294568902857
 30
0.0
 10
113.0566650107983
 20
-129.8294568902857
 30
0.0
 10
112.4093315691199
 20
-129.8091308269227
 30
0.0
 10
112.4093315691199
 20
-129.2279432185611
 30
0.0
 10
112.4093315691199
 20
-129.0425970814546
 30
0.0
 10
112.4792670074705
 20
-128.7804253150271
 30
0.0
 10
112.8113742122486
 20
-128.7397731883012
 30
0.0
 10
112.8113742122486
 20
-128.7397731883012
 30
0.0
 10
112.8113742122486
 20
-128.9681830189732
 30
0.0
 10
112.8113742122486
 20
-128.9681830189732
 30
0.0
 10
112.7541856271934
 20
-128.9795518340746
 30
0.0
 10
112.6060465213277
 20
-129.01331376983
 30
0.0
 10
112.6060465213277
 20
-129.2303547854007
 30
0.0
 10
112.6060465213277
 20
-129.5424804363644
 30
0.0
 10
112.9340196115234
 20
-129.5851996203815
 30
0.0
 10
113.1390027928958
 20
-129.5989800023225
 30
0.0
 10
113.0607991253806
 20
-129.4994167427988
 30
0.0
 10
113.0015434830343
 20
-129.4270697376085
 30
0.0
 10
113.0015434830343
 20
-129.2324218426919
 30
0.0
 10
113.0015434830343
 20
-129.0405300241635
 30
0.0
 10
113.1097194812712
 20
-128.7170355580985
 30
0.0
 10
113.5158962389821
 20
-128.7170355580985
 30
0.0
 10
113.8352565904648
 20
-128.7170355580985
 30
0.0
 10
114.0550536824237
 20
-128.9295979495384
 30
0.0
 10
114.0550536824237
 20
-129.2689398548355
 30
0.0
  0
SPLINE
  5
85
330
7E
100
AcDbEntity
  8
_U+30EC_U+30A4_U+30E4_U+30FC 1
370
     0
100
AcDbSpline
210
0.0
220
0.0
230
1.0
 70
    11
 71
     3
 72
    17
 73
    13
 74
     0
 42
0.0000000001
 43
0.0000000001
 12
1.0
 22
0.0
 32
0.0
 13
1.0
 23
0.0
 33
0.0
 40
0.0
 40
0.0
 40
0.0
 40
0.0
 40
1.0
 40
1.0
 40
1.0
 40
2.0
 40
2.0
 40
2.0
 40
3.0
 40
3.0
 40
3.0
 40
4.0
 40
4.0
 40
4.0
 40
4.0
 10
113.196191377951
 20
-129.2506808487637
 30
0.0
 10
113.196191377951
 20
-129.5311116212631
 30
0.0
 10
113.4077202407453
 20
-129.571763747989
 30
0.0
 10
113.5241644681467
 20
-129.571763747989
 30
0.0
 10
113.6998643378945
 20
-129.571763747989
 30
0.0
 10
113.8628173543468
 20
-129.4701334311741
 30
0.0
 10
113.8628173543468
 20
-129.2734184789664
 30
0.0
 10
113.8628173543468
 20
-129.144571907818
 30
0.0
 10
113.8035617120005
 20
-128.9568142038719
 30
0.0
 10
113.5179632962733
 20
-128.9568142038719
 30
0.0
 10
113.2936875801835
 20
-128.9568142038719
 30
0.0
 10
113.196191377951
 20
-129.1059868383832
 30
0.0
 10
113.196191377951
 20
-129.2506808487637
 30
0.0
  0
HATCH
  5
86
330
7E
100
AcDbEntity
  8
_U+30EC_U+30A4_U+30E4_U+30FC 1
 62
     7
420
 16777215
100
AcDbHatch
 10
0.0
 20
0.0
 30
0.0
210
0.0
220
0.0
230
1.0
  2
SOLID
 70
     1
 71
     0
 91
        2
 92
        1
 93
        1
 72
     4
 94
        3
 73
     0
 74
     1
 95
       32
 96
       28
 40
0.0
 40
0.0
 40
0.0
 40
0.0
 40
1.0
 40
1.0
 40
1.0
 40
2.0
 40
2.0
 40
2.0
 40
3.0
 40
3.0
 40
3.0
 40
4.0
 40
4.0
 40
4.0
 40
5.0
 40
5.0
 40
5.0
 40
6.0
 40
6.0
 40
6.0
 40
7.0
 40
7.0
 40
7.0
 40
8.0
 40
8.0
 40
8.0
 40
9.0
 40
9.0
 40
9.0
 40
9.0
 10
114.0550536824237
 20
-129.2689398548355
 10
114.0550536824237
 20
-129.8204996420241
 10
113.5010823283956
 20
-129.8294568902857
 10
113.2871418987615
 20
-129.8294568902857
 10
113.0566650107983
 20
-129.8294568902857
 10
112.4093315691199
 20
-129.8091308269227
 10
112.4093315691199
 20
-129.2279432185611
 10
112.4093315691199
 20
-129.0425970814546
 10
112.4792670074705
 20
-128.7804253150271
 10
112.8113742122486
 20
-128.7397731883012
 10
112.8113742122486
 20
-128.7397731883012
 10
112.8113742122486
 20
-128.9681830189732
 10
112.8113742122486
 20
-128.9681830189732
 10
112.7541856271934
 20
-128.9795518340746
 10
112.6060465213277
 20
-129.01331376983
 10
112.6060465213277
 20
-129.2303547854007
 10
112.6060465213277
 20
-129.5424804363644
 10
112.9340196115234
 20
-129.5851996203815
 10
113.1390027928958
 20
-129.5989800023225
 10
113.0607991253806
 20
-129.4994167427988
 10
113.0015434830343
 20
-129.4270697376085
 10
113.0015434830343
 20
-129.2324218426919
 10
113.0015434830343
 20
-129.0405300241635
 10
113.1097194812712
 20
-128.7170355580985
 10
113.5158962389821
 20
-128.7170355580985
 10
113.8352565904648
 20
-128.7170355580985
 10
114.0550536824237
 20
-128.9295979495384
 10
114.0550536824237
 20
-129.2689398548355
 97
        0
 97
        0
 92
        1
 93
        1
 72
     4
 94
        3
 73
     0
 74
     1
 95
       17
 96
       13
 40
0.0
 40
0.0
 40
0.0
 40
0.0
 40
1.0
 40
1.0
 40
1.0
 40
2.0
 40
2.0
 40
2.0
 40
3.0
 40
3.0
 40
3.0
 40
4.0
 40
4.0
 40
4.0
 40
4.0
 10
113.196191377951
 20
-129.2506808487637
 10
113.196191377951
 20
-129.5311116212631
 10
113.4077202407453
 20
-129.571763747989
 10
113.5241644681467
 20
-129.571763747989
 10
113.6998643378945
 20
-129.571763747989
 10
113.8628173543468
 20
-129.4701334311741
 10
113.8628173543468
 20
-129.2734184789664
 10
113.8628173543468
 20
-129.144571907818
 10
113.8035617120005
 20
-128.9568142038719
 10
113.5179632962733
 20
-128.9568142038719
 10
113.2936875801835
 20
-128.9568142038719
 10
113.196191377951
 20
-129.1059868383832
 10
113.196191377951
 20
-129.2506808487637
 97
        0
 97
        0
 75
     2
 76
     1
 98
        0
  0
ENDBLK
  5
81
330
7E
100
AcDbEntity
  8
0
100
AcDbBlockEnd
  0
BLOCK
  5
89
330
87
100
AcDbEntity
  8
0
100
AcDbBlockBegin
  2
block 3
 70
     0
 10
0.0
 20
0.0
 30
0.0
  3
block 3
  1

  0
POLYLINE
  5
8B
330
87
100
AcDbEntity
  8
_U+30EC_U+30A4_U+30E4_U+30FC 1
370
     0
100
AcDb2dPolyline
 66
     1
 10
0.0
 20
0.0
 30
0.0
  0
VERTEX
  5
8C
330
8B
100
AcDbEntity
  8
_U+30EC_U+30A4_U+30E4_U+30FC 1
370
     0
100
AcDbVertex
100
AcDb2dVertex
 10
87.87646210910728
 20
-111.4092203497519
 30
0.0
  0
VERTEX
  5
8D
330
8B
100
AcDbEntity
  8
_U+30EC_U+30A4_U+30E4_U+30FC 1
370
     0
100
AcDbVertex
100
AcDb2dVertex
 10
87.87646210910728
 20
-111.7561414651165
 30
0.0
  0
VERTEX
  5
8E
330
8B
100
AcDbEntity
  8
_U+30EC_U+30A4_U+30E4_U+30FC 1
370
     0
100
AcDbVertex
100
AcDb2dVertex
 10
87.64357365430439
 20
-111.7561414651165
 30
0.0
  0
VERTEX
  5
8F
330
8B
100
AcDbEntity
  8
_U+30EC_U+30A4_U+30E4_U+30FC 1
370
     0
100
AcDbVertex
100
AcDb2dVertex
 10
87.64357365430439
 20
-111.4092203497519
 30
0.0
  0
VERTEX
  5
90
330
8B
100
AcDbEntity
  8
_U+30EC_U+30A4_U+30E4_U+30FC 1
370
     0
100
AcDbVertex
100
AcDb2dVertex
 10
86.94249672305605
 20
-111.4092203497519
 30
0.0
  0
VERTEX
  5
91
330
8B
100
AcDbEntity
  8
_U+30EC_U+30A4_U+30E4_U+30FC 1
370
     0
100
AcDbVertex
100
AcDb2dVertex
 10
86.94249672305605
 20
-111.1849446336621
 30
0.0
  0
VERTEX
  5
92
330
8B
100
AcDbEntity
  8
_U+30EC_U+30A4_U+30E4_U+30FC 1
370
     0
100
AcDbVertex
100
AcDb2dVertex
 10
87.66837834179819
 20
-110.2118774138533
 30
0.0
  0
VERTEX
  5
93
330
8B
100
AcDbEntity
  8
_U+30EC_U+30A4_U+30E4_U+30FC 1
370
     0
100
AcDbVertex
100
AcDb2dVertex
 10
87.87646210910728
 20
-110.2118774138533
 30
0.0
  0
VERTEX
  5
94
330
8B
100
AcDbEntity
  8
_U+30EC_U+30A4_U+30E4_U+30FC 1
370
     0
100
AcDbVertex
100
AcDb2dVertex
 10
87.87646210910728
 20
-111.2102660854787
 30
0.0
  0
VERTEX
  5
95
330
8B
100
AcDbEntity
  8
_U+30EC_U+30A4_U+30E4_U+30FC 1
370
     0
100
AcDbVertex
100
AcDb2dVertex
 10
88.09798174880885
 20
-111.2102660854787
 30
0.0
  0
VERTEX
  5
96
330
8B
100
AcDbEntity
  8
_U+30EC_U+30A4_U+30E4_U+30FC 1
370
     0
100
AcDbVertex
100
AcDb2dVertex
 10
88.09798174880885
 20
-111.4092203497519
 30
0.0
  0
VERTEX
  5
97
330
8B
100
AcDbEntity
  8
_U+30EC_U+30A4_U+30E4_U+30FC 1
370
     0
100
AcDbVertex
100
AcDb2dVertex
 10
87.87646210910728
 20
-111.4092203497519
 30
0.0
  0
SEQEND
  5
98
330
8B
100
AcDbEntity
  8
_U+30EC_U+30A4_U+30E4_U+30FC 1
370
     0
  0
POLYLINE
  5
99
330
87
100
AcDbEntity
  8
_U+30EC_U+30A4_U+30E4_U+30FC 1
370
     0
100
AcDb2dPolyline
 66
     1
 10
0.0
 20
0.0
 30
0.0
  0
VERTEX
  5
9A
330
99
100
AcDbEntity
  8
_U+30EC_U+30A4_U+30E4_U+30FC 1
370
     0
100
AcDbVertex
100
AcDb2dVertex
 10
87.64357365430439
 20
-110.5544921598614
 30
0.0
  0
VERTEX
  5
9B
330
99
100
AcDbEntity
  8
_U+30EC_U+30A4_U+30E4_U+30FC 1
370
     0
100
AcDbVertex
100
AcDb2dVertex
 10
87.15505911449596
 20
-111.2102660854787
 30
0.0
  0
VERTEX
  5
9C
330
99
100
AcDbEntity
  8
_U+30EC_U+30A4_U+30E4_U+30FC 1
370
     0
100
AcDbVertex
100
AcDb2dVertex
 10
87.64357365430439
 20
-111.2102660854787
 30
0.0
  0
VERTEX
  5
9D
330
99
100
AcDbEntity
  8
_U+30EC_U+30A4_U+30E4_U+30FC 1
370
     0
100
AcDbVertex
100
AcDb2dVertex
 10
87.64357365430439
 20
-110.5544921598614
 30
0.0
  0
SEQEND
  5
9E
330
99
100
AcDbEntity
  8
_U+30EC_U+30A4_U+30E4_U+30FC 1
370
     0
  0
HATCH
  5
9F
330
87
100
AcDbEntity
  8
_U+30EC_U+30A4_U+30E4_U+30FC 1
 62
     7
420
 16777215
100
AcDbHatch
 10
0.0
 20
0.0
 30
0.0
210
0.0
220
0.0
230
1.0
  2
SOLID
 70
     1
 71
     0
 91
        2
 92
        1
 93
       11
 72
     1
 10
87.87646210910728
 20
-111.4092203497519
 11
87.87646210910728
 21
-111.7561414651165
 72
     1
 10
87.87646210910728
 20
-111.7561414651165
 11
87.64357365430439
 21
-111.7561414651165
 72
     1
 10
87.64357365430439
 20
-111.7561414651165
 11
87.64357365430439
 21
-111.4092203497519
 72
     1
 10
87.64357365430439
 20
-111.4092203497519
 11
86.94249672305605
 21
-111.4092203497519
 72
     1
 10
86.94249672305605
 20
-111.4092203497519
 11
86.94249672305605
 21
-111.1849446336621
 72
     1
 10
86.94249672305605
 20
-111.1849446336621
 11
87.66837834179819
 21
-110.2118774138533
 72
     1
 10
87.66837834179819
 20
-110.2118774138533
 11
87.87646210910728
 21
-110.2118774138533
 72
     1
 10
87.87646210910728
 20
-110.2118774138533
 11
87.87646210910728
 21
-111.2102660854787
 72
     1
 10
87.87646210910728
 20
-111.2102660854787
 11
88.09798174880885
 21
-111.2102660854787
 72
     1
 10
88.09798174880885
 20
-111.2102660854787
 11
88.09798174880885
 21
-111.4092203497519
 72
     1
 10
88.09798174880885
 20
-111.4092203497519
 11
87.87646210910728
 21
-111.4092203497519
 97
        0
 92
        1
 93
        3
 72
     1
 10
87.64357365430439
 20
-110.5544921598614
 11
87.15505911449596
 21
-111.2102660854787
 72
     1
 10
87.15505911449596
 20
-111.2102660854787
 11
87.64357365430439
 21
-111.2102660854787
 72
     1
 10
87.64357365430439
 20
-111.2102660854787
 11
87.64357365430439
 21
-110.5544921598614
 97
        0
 75
     2
 76
     1
 98
        0
  0
SPLINE
  5
A0
330
87
100
AcDbEntity
  8
_U+30EC_U+30A4_U+30E4_U+30FC 1
370
     0
100
AcDbSpline
210
0.0
220
0.0
230
1.0
 70
    11
 71
     3
 72
    53
 73
    49
 74
     0
 42
0.0000000001
 43
0.0000000001
 12
1.0
 22
0.0
 32
0.0
 13
1.0
 23
0.0
 33
0.0
 40
0.0
 40
0.0
 40
0.0
 40
0.0
 40
1.0
 40
1.0
 40
1.0
 40
2.0
 40
2.0
 40
2.0
 40
3.0
 40
3.0
 40
3.0
 40
4.0
 40
4.0
 40
4.0
 40
5.0
 40
5.0
 40
5.0
 40
6.0
 40
6.0
 40
6.0
 40
7.0
 40
7.0
 40
7.0
 40
8.0
 40
8.0
 40
8.0
 40
9.0
 40
9.0
 40
9.0
 40
10.0
 40
10.0
 40
10.0
 40
11.0
 40
11.0
 40
11.0
 40
12.0
 40
12.0
 40
12.0
 40
13.0
 40
13.0
 40
13.0
 40
14.0
 40
14.0
 40
14.0
 40
15.0
 40
15.0
 40
15.0
 40
16.0
 40
16.0
 40
16.0
 40
16.0
 10
88.75875106287977
 20
-111.806956623524
 30
0.0
 10
88.67537975213672
 20
-111.806956623524
 30
0.0
 10
88.56651473480282
 20
-111.789903400872
 30
0.0
 10
88.45833873656598
 20
-111.7265136439434
 30
0.0
 10
88.27264808991102
 20
-111.6164428431896
 30
0.0
 10
88.25025496925689
 20
-111.4853569599759
 30
0.0
 10
88.22992890589391
 20
-111.3775254712876
 30
0.0
 10
88.22992890589391
 20
-111.3775254712876
 30
0.0
 10
88.46729598482763
 20
-111.3775254712876
 30
0.0
 10
88.46729598482763
 20
-111.3775254712876
 30
0.0
 10
88.52586260807688
 20
-111.5763074807865
 30
0.0
 10
88.66159937019572
 20
-111.6059353019596
 30
0.0
 10
88.76116262971944
 20
-111.6059353019596
 30
0.0
 10
88.91033526423075
 20
-111.6059353019596
 30
0.0
 10
89.07294377113455
 20
-111.5065442972102
 30
0.0
 10
89.07294377113455
 20
-111.2738280971815
 30
0.0
 10
89.07294377113455
 20
-111.0178575026275
 30
0.0
 10
88.88105195260613
 20
-110.9480943190512
 30
0.0
 10
88.75220538145778
 20
-110.9480943190512
 30
0.0
 10
88.71809893615381
 20
-110.9480943190512
 30
0.0
 10
88.56651473480282
 20
-110.9480943190512
 30
0.0
 10
88.47177460895846
 20
-111.0771131449738
 30
0.0
 10
88.47177460895846
 20
-111.0771131449738
 30
0.0
 10
88.28401690501234
 20
-111.0579928650306
 30
0.0
 10
88.28401690501234
 20
-111.0579928650306
 30
0.0
 10
88.28401690501234
 20
-111.0579928650306
 30
0.0
 10
88.41286347616068
 20
-110.2118774138533
 30
0.0
 10
88.41286347616068
 20
-110.2118774138533
 30
0.0
 10
88.41286347616068
 20
-110.2118774138533
 30
0.0
 10
89.24485403584852
 20
-110.2118774138533
 30
0.0
 10
89.24485403584852
 20
-110.2118774138533
 30
0.0
 10
89.24485403584852
 20
-110.2118774138533
 30
0.0
 10
89.24485403584852
 20
-110.4065253087699
 30
0.0
 10
89.24485403584852
 20
-110.4065253087699
 30
0.0
 10
89.24485403584852
 20
-110.4065253087699
 30
0.0
 10
88.58718530771432
 20
-110.4065253087699
 30
0.0
 10
88.58718530771432
 20
-110.4065253087699
 30
0.0
 10
88.58718530771432
 20
-110.4065253087699
 30
0.0
 10
88.51690535981523
 20
-110.8295830343586
 30
0.0
 10
88.51690535981523
 20
-110.8295830343586
 30
0.0
 10
88.58236217403497
 20
-110.7956488438289
 30
0.0
 10
88.67055661845737
 20
-110.7555134814257
 30
0.0
 10
88.79733613231456
 20
-110.7555134814257
 30
0.0
 10
89.06846514700372
 20
-110.7555134814257
 30
0.0
 10
89.32167966516958
 20
-110.9417208924035
 30
0.0
 10
89.32167966516958
 20
-111.2547078172384
 30
0.0
 10
89.32167966516958
 20
-111.5721733662042
 30
0.0
 10
89.08224552894472
 20
-111.806956623524
 30
0.0
 10
88.75875106287977
 20
-111.806956623524
 30
0.0
  0
HATCH
  5
A1
330
87
100
AcDbEntity
  8
_U+30EC_U+30A4_U+30E4_U+30FC 1
 62
     7
420
 16777215
100
AcDbHatch
 10
0.0
 20
0.0
 30
0.0
210
0.0
220
0.0
230
1.0
  2
SOLID
 70
     1
 71
     0
 91
        1
 92
        1
 93
        1
 72
     4
 94
        3
 73
     0
 74
     1
 95
       53
 96
       49
 40
0.0
 40
0.0
 40
0.0
 40
0.0
 40
1.0
 40
1.0
 40
1.0
 40
2.0
 40
2.0
 40
2.0
 40
3.0
 40
3.0
 40
3.0
 40
4.0
 40
4.0
 40
4.0
 40
5.0
 40
5.0
 40
5.0
 40
6.0
 40
6.0
 40
6.0
 40
7.0
 40
7.0
 40
7.0
 40
8.0
 40
8.0
 40
8.0
 40
9.0
 40
9.0
 40
9.0
 40
10.0
 40
10.0
 40
10.0
 40
11.0
 40
11.0
 40
11.0
 40
12.0
 40
12.0
 40
12.0
 40
13.0
 40
13.0
 40
13.0
 40
14.0
 40
14.0
 40
14.0
 40
15.0
 40
15.0
 40
15.0
 40
16.0
 40
16.0
 40
16.0
 40
16.0
 10
88.75875106287977
 20
-111.806956623524
 10
88.67537975213672
 20
-111.806956623524
 10
88.56651473480282
 20
-111.789903400872
 10
88.45833873656598
 20
-111.7265136439434
 10
88.27264808991102
 20
-111.6164428431896
 10
88.25025496925689
 20
-111.4853569599759
 10
88.22992890589391
 20
-111.3775254712876
 10
88.22992890589391
 20
-111.3775254712876
 10
88.46729598482763
 20
-111.3775254712876
 10
88.46729598482763
 20
-111.3775254712876
 10
88.52586260807688
 20
-111.5763074807865
 10
88.66159937019572
 20
-111.6059353019596
 10
88.76116262971944
 20
-111.6059353019596
 10
88.91033526423075
 20
-111.6059353019596
 10
89.07294377113455
 20
-111.5065442972102
 10
89.07294377113455
 20
-111.2738280971815
 10
89.07294377113455
 20
-111.0178575026275
 10
88.88105195260613
 20
-110.9480943190512
 10
88.75220538145778
 20
-110.9480943190512
 10
88.71809893615381
 20
-110.9480943190512
 10
88.56651473480282
 20
-110.9480943190512
 10
88.47177460895846
 20
-111.0771131449738
 10
88.47177460895846
 20
-111.0771131449738
 10
88.28401690501234
 20
-111.0579928650306
 10
88.28401690501234
 20
-111.0579928650306
 10
88.28401690501234
 20
-111.0579928650306
 10
88.41286347616068
 20
-110.2118774138533
 10
88.41286347616068
 20
-110.2118774138533
 10
88.41286347616068
 20
-110.2118774138533
 10
89.24485403584852
 20
-110.2118774138533
 10
89.24485403584852
 20
-110.2118774138533
 10
89.24485403584852
 20
-110.2118774138533
 10
89.24485403584852
 20
-110.4065253087699
 10
89.24485403584852
 20
-110.4065253087699
 10
89.24485403584852
 20
-110.4065253087699
 10
88.58718530771432
 20
-110.4065253087699
 10
88.58718530771432
 20
-110.4065253087699
 10
88.58718530771432
 20
-110.4065253087699
 10
88.51690535981523
 20
-110.8295830343586
 10
88.51690535981523
 20
-110.8295830343586
 10
88.58236217403497
 20
-110.7956488438289
 10
88.67055661845737
 20
-110.7555134814257
 10
88.79733613231456
 20
-110.7555134814257
 10
89.06846514700372
 20
-110.7555134814257
 10
89.32167966516958
 20
-110.9417208924035
 10
89.32167966516958
 20
-111.2547078172384
 10
89.32167966516958
 20
-111.5721733662042
 10
89.08224552894472
 20
-111.806956623524
 10
88.75875106287977
 20
-111.806956623524
 97
        0
 97
        0
 75
     2
 76
     1
 98
        0
  0
ENDBLK
  5
8A
330
87
100
AcDbEntity
  8
0
100
AcDbBlockEnd
  0
BLOCK
  5
A4
330
A2
100
AcDbEntity
  8
0
100
AcDbBlockBegin
  2
block 4
 70
     0
 10
0.0
 20
0.0
 30
0.0
  3
block 4
  1

  0
SPLINE
  5
A6
330
A2
100
AcDbEntity
  8
_U+30EC_U+30A4_U+30E4_U+30FC 1
370
     0
100
AcDbSpline
210
0.0
220
0.0
230
1.0
 70
    11
 71
     3
 72
    44
 73
    40
 74
     0
 42
0.0000000001
 43
0.0000000001
 12
1.0
 22
0.0
 32
0.0
 13
1.0
 23
0.0
 33
0.0
 40
0.0
 40
0.0
 40
0.0
 40
0.0
 40
1.0
 40
1.0
 40
1.0
 40
2.0
 40
2.0
 40
2.0
 40
3.0
 40
3.0
 40
3.0
 40
4.0
 40
4.0
 40
4.0
 40
5.0
 40
5.0
 40
5.0
 40
6.0
 40
6.0
 40
6.0
 40
7.0
 40
7.0
 40
7.0
 40
8.0
 40
8.0
 40
8.0
 40
9.0
 40
9.0
 40
9.0
 40
10.0
 40
10.0
 40
10.0
 40
11.0
 40
11.0
 40
11.0
 40
12.0
 40
12.0
 40
12.0
 40
13.0
 40
13.0
 40
13.0
 40
13.0
 10
75.12099607496975
 20
-146.1747124200535
 30
0.0
 10
74.88810762016686
 20
-146.3335313219236
 30
0.0
 10
74.78871661541741
 20
-146.4076008748564
 30
0.0
 10
74.73669567359013
 20
-146.5512613565914
 30
0.0
 10
74.73669567359013
 20
-146.5512613565914
 30
0.0
 10
75.56868623327797
 20
-146.5512613565914
 30
0.0
 10
75.56868623327797
 20
-146.5512613565914
 30
0.0
 10
75.56868623327797
 20
-146.5512613565914
 30
0.0
 10
75.56868623327797
 20
-146.7565890475123
 30
0.0
 10
75.56868623327797
 20
-146.7565890475123
 30
0.0
 10
75.56868623327797
 20
-146.7565890475123
 30
0.0
 10
74.46987302825754
 20
-146.7565890475123
 30
0.0
 10
74.46987302825754
 20
-146.7565890475123
 30
0.0
 10
74.50380721878724
 20
-146.3989881361433
 30
0.0
 10
74.57391491191208
 20
-146.3207844686281
 30
0.0
 10
74.98543156762517
 20
-146.0224391996055
 30
0.0
 10
75.258972149154
 20
-145.8236571901066
 30
0.0
 10
75.32907984227884
 20
-145.7557888090472
 30
0.0
 10
75.32907984227884
 20
-145.6183294991857
 30
0.0
 10
75.32907984227884
 20
-145.4998182144931
 30
0.0
 10
75.25225421295778
 20
-145.3689045860536
 30
0.0
 10
75.04193113358328
 20
-145.3689045860536
 30
0.0
 10
74.76373967314935
 20
-145.3689045860536
 30
0.0
 10
74.7547824248877
 20
-145.5993814740168
 30
0.0
 10
74.75030380075687
 20
-145.7158257014183
 30
0.0
 10
74.75030380075687
 20
-145.7158257014183
 30
0.0
 10
74.51052515498348
 20
-145.7158257014183
 30
0.0
 10
74.51052515498348
 20
-145.7158257014183
 30
0.0
 10
74.51965465801939
 20
-145.5887016780125
 30
0.0
 10
74.53102347312073
 20
-145.4767360747419
 30
0.0
 10
74.61680635070344
 20
-145.3582247900493
 30
0.0
 10
74.73445636152472
 20
-145.1973388308882
 30
0.0
 10
74.9334106257979
 20
-145.1635768951327
 30
0.0
 10
75.05777857281542
 20
-145.1635768951327
 30
0.0
 10
75.35388452977264
 20
-145.1635768951327
 30
0.0
 10
75.57540416947421
 20
-145.3475449940451
 30
0.0
 10
75.57540416947421
 20
-145.6203965564769
 30
0.0
 10
75.57540416947421
 20
-145.8491508966974
 30
0.0
 10
75.4510362224567
 20
-145.9483696466726
 30
0.0
 10
75.12099607496975
 20
-146.1747124200535
 30
0.0
  0
HATCH
  5
A7
330
A2
100
AcDbEntity
  8
_U+30EC_U+30A4_U+30E4_U+30FC 1
 62
     7
420
 16777215
100
AcDbHatch
 10
0.0
 20
0.0
 30
0.0
210
0.0
220
0.0
230
1.0
  2
SOLID
 70
     1
 71
     0
 91
        1
 92
        1
 93
        1
 72
     4
 94
        3
 73
     0
 74
     1
 95
       44
 96
       40
 40
0.0
 40
0.0
 40
0.0
 40
0.0
 40
1.0
 40
1.0
 40
1.0
 40
2.0
 40
2.0
 40
2.0
 40
3.0
 40
3.0
 40
3.0
 40
4.0
 40
4.0
 40
4.0
 40
5.0
 40
5.0
 40
5.0
 40
6.0
 40
6.0
 40
6.0
 40
7.0
 40
7.0
 40
7.0
 40
8.0
 40
8.0
 40
8.0
 40
9.0
 40
9.0
 40
9.0
 40
10.0
 40
10.0
 40
10.0
 40
11.0
 40
11.0
 40
11.0
 40
12.0
 40
12.0
 40
12.0
 40
13.0
 40
13.0
 40
13.0
 40
13.0
 10
75.12099607496975
 20
-146.1747124200535
 10
74.88810762016686
 20
-146.3335313219236
 10
74.78871661541741
 20
-146.4076008748564
 10
74.73669567359013
 20
-146.5512613565914
 10
74.73669567359013
 20
-146.5512613565914
 10
75.56868623327797
 20
-146.5512613565914
 10
75.56868623327797
 20
-146.5512613565914
 10
75.56868623327797
 20
-146.5512613565914
 10
75.56868623327797
 20
-146.7565890475123
 10
75.56868623327797
 20
-146.7565890475123
 10
75.56868623327797
 20
-146.7565890475123
 10
74.46987302825754
 20
-146.7565890475123
 10
74.46987302825754
 20
-146.7565890475123
 10
74.50380721878724
 20
-146.3989881361433
 10
74.57391491191208
 20
-146.3207844686281
 10
74.98543156762517
 20
-146.0224391996055
 10
75.258972149154
 20
-145.8236571901066
 10
75.32907984227884
 20
-145.7557888090472
 10
75.32907984227884
 20
-145.6183294991857
 10
75.32907984227884
 20
-145.4998182144931
 10
75.25225421295778
 20
-145.3689045860536
 10
75.04193113358328
 20
-145.3689045860536
 10
74.76373967314935
 20
-145.3689045860536
 10
74.7547824248877
 20
-145.5993814740168
 10
74.75030380075687
 20
-145.7158257014183
 10
74.75030380075687
 20
-145.7158257014183
 10
74.51052515498348
 20
-145.7158257014183
 10
74.51052515498348
 20
-145.7158257014183
 10
74.51965465801939
 20
-145.5887016780125
 10
74.53102347312073
 20
-145.4767360747419
 10
74.61680635070344
 20
-145.3582247900493
 10
74.73445636152472
 20
-145.1973388308882
 10
74.9334106257979
 20
-145.1635768951327
 10
75.05777857281542
 20
-145.1635768951327
 10
75.35388452977264
 20
-145.1635768951327
 10
75.57540416947421
 20
-145.3475449940451
 10
75.57540416947421
 20
-145.6203965564769
 10
75.57540416947421
 20
-145.8491508966974
 10
75.4510362224567
 20
-145.9483696466726
 10
75.12099607496975
 20
-146.1747124200535
 97
        0
 97
        0
 75
     2
 76
     1
 98
        0
  0
SPLINE
  5
A8
330
A2
100
AcDbEntity
  8
_U+30EC_U+30A4_U+30E4_U+30FC 1
370
     0
100
AcDbSpline
210
0.0
220
0.0
230
1.0
 70
    11
 71
     3
 72
    29
 73
    25
 74
     0
 42
0.0000000001
 43
0.0000000001
 12
1.0
 22
0.0
 32
0.0
 13
1.0
 23
0.0
 33
0.0
 40
0.0
 40
0.0
 40
0.0
 40
0.0
 40
1.0
 40
1.0
 40
1.0
 40
2.0
 40
2.0
 40
2.0
 40
3.0
 40
3.0
 40
3.0
 40
4.0
 40
4.0
 40
4.0
 40
5.0
 40
5.0
 40
5.0
 40
6.0
 40
6.0
 40
6.0
 40
7.0
 40
7.0
 40
7.0
 40
8.0
 40
8.0
 40
8.0
 40
8.0
 10
76.70436195999058
 20
-146.5788221204733
 30
0.0
 10
76.58912351600897
 20
-146.7882839259765
 30
0.0
 10
76.40377737890253
 20
-146.8072319511454
 30
0.0
 10
76.27940943188501
 20
-146.8072319511454
 30
0.0
 10
76.10749916717104
 20
-146.8072319511454
 30
0.0
 10
75.95608722059431
 20
-146.7607231620945
 30
0.0
 10
75.85428464900518
 20
-146.5788221204733
 30
0.0
 10
75.7435248291544
 20
-146.3841742255567
 30
0.0
 10
75.72319876579142
 20
-146.1471516561716
 30
0.0
 10
75.72319876579142
 20
-145.9845431492678
 30
0.0
 10
75.72319876579142
 20
-145.8405381579843
 30
0.0
 10
75.74128551708898
 20
-145.5887016780125
 30
0.0
 10
75.85428464900518
 20
-145.3899196685136
 30
0.0
 10
75.96969534776105
 20
-145.1870035444324
 30
0.0
 10
76.14143335770076
 20
-145.1635768951327
 30
0.0
 10
76.27940943188501
 20
-145.1635768951327
 30
0.0
 10
76.4489081297593
 20
-145.1635768951327
 30
0.0
 10
76.60273164317572
 20
-145.2080186268925
 30
0.0
 10
76.70436195999058
 20
-145.3899196685136
 30
0.0
 10
76.81064315571054
 20
-145.5825005061391
 30
0.0
 10
76.8356200979786
 20
-145.8109103368112
 30
0.0
 10
76.8356200979786
 20
-145.9845431492678
 30
0.0
 10
76.8356200979786
 20
-146.1557643948847
 30
0.0
 10
76.81288246777595
 20
-146.3862412828479
 30
0.0
 10
76.70436195999058
 20
-146.5788221204733
 30
0.0
  0
SPLINE
  5
A9
330
A2
100
AcDbEntity
  8
_U+30EC_U+30A4_U+30E4_U+30FC 1
370
     0
100
AcDbSpline
210
0.0
220
0.0
230
1.0
 70
    11
 71
     3
 72
    17
 73
    13
 74
     0
 42
0.0000000001
 43
0.0000000001
 12
1.0
 22
0.0
 32
0.0
 13
1.0
 23
0.0
 33
0.0
 40
0.0
 40
0.0
 40
0.0
 40
0.0
 40
1.0
 40
1.0
 40
1.0
 40
2.0
 40
2.0
 40
2.0
 40
3.0
 40
3.0
 40
3.0
 40
4.0
 40
4.0
 40
4.0
 40
4.0
 10
76.27940943188501
 20
-145.3561577327582
 30
0.0
 10
76.01258678655242
 20
-145.3561577327582
 30
0.0
 10
75.96280515679055
 20
-145.6396890911942
 30
0.0
 10
75.96280515679055
 20
-145.9845431492678
 30
0.0
 10
75.96280515679055
 20
-146.3039035007504
 30
0.0
 10
76.00121797145108
 20
-146.6125840562288
 30
0.0
 10
76.27940943188501
 20
-146.6125840562288
 30
0.0
 10
76.54382051037794
 20
-146.6125840562288
 30
0.0
 10
76.5958414522052
 20
-146.3314642646324
 30
0.0
 10
76.5958414522052
 20
-145.9845431492678
 30
0.0
 10
76.5958414522052
 20
-145.6648382882366
 30
0.0
 10
76.55518932547926
 20
-145.3561577327582
 30
0.0
 10
76.27940943188501
 20
-145.3561577327582
 30
0.0
  0
HATCH
  5
AA
330
A2
100
AcDbEntity
  8
_U+30EC_U+30A4_U+30E4_U+30FC 1
 62
     7
420
 16777215
100
AcDbHatch
 10
0.0
 20
0.0
 30
0.0
210
0.0
220
0.0
230
1.0
  2
SOLID
 70
     1
 71
     0
 91
        2
 92
        1
 93
        1
 72
     4
 94
        3
 73
     0
 74
     1
 95
       29
 96
       25
 40
0.0
 40
0.0
 40
0.0
 40
0.0
 40
1.0
 40
1.0
 40
1.0
 40
2.0
 40
2.0
 40
2.0
 40
3.0
 40
3.0
 40
3.0
 40
4.0
 40
4.0
 40
4.0
 40
5.0
 40
5.0
 40
5.0
 40
6.0
 40
6.0
 40
6.0
 40
7.0
 40
7.0
 40
7.0
 40
8.0
 40
8.0
 40
8.0
 40
8.0
 10
76.70436195999058
 20
-146.5788221204733
 10
76.58912351600897
 20
-146.7882839259765
 10
76.40377737890253
 20
-146.8072319511454
 10
76.27940943188501
 20
-146.8072319511454
 10
76.10749916717104
 20
-146.8072319511454
 10
75.95608722059431
 20
-146.7607231620945
 10
75.85428464900518
 20
-146.5788221204733
 10
75.7435248291544
 20
-146.3841742255567
 10
75.72319876579142
 20
-146.1471516561716
 10
75.72319876579142
 20
-145.9845431492678
 10
75.72319876579142
 20
-145.8405381579843
 10
75.74128551708898
 20
-145.5887016780125
 10
75.85428464900518
 20
-145.3899196685136
 10
75.96969534776105
 20
-145.1870035444324
 10
76.14143335770076
 20
-145.1635768951327
 10
76.27940943188501
 20
-145.1635768951327
 10
76.4489081297593
 20
-145.1635768951327
 10
76.60273164317572
 20
-145.2080186268925
 10
76.70436195999058
 20
-145.3899196685136
 10
76.81064315571054
 20
-145.5825005061391
 10
76.8356200979786
 20
-145.8109103368112
 10
76.8356200979786
 20
-145.9845431492678
 10
76.8356200979786
 20
-146.1557643948847
 10
76.81288246777595
 20
-146.3862412828479
 10
76.70436195999058
 20
-146.5788221204733
 97
        0
 97
        0
 92
        1
 93
        1
 72
     4
 94
        3
 73
     0
 74
     1
 95
       17
 96
       13
 40
0.0
 40
0.0
 40
0.0
 40
0.0
 40
1.0
 40
1.0
 40
1.0
 40
2.0
 40
2.0
 40
2.0
 40
3.0
 40
3.0
 40
3.0
 40
4.0
 40
4.0
 40
4.0
 40
4.0
 10
76.27940943188501
 20
-145.3561577327582
 10
76.01258678655242
 20
-145.3561577327582
 10
75.96280515679055
 20
-145.6396890911942
 10
75.96280515679055
 20
-145.9845431492678
 10
75.96280515679055
 20
-146.3039035007504
 10
76.00121797145108
 20
-146.6125840562288
 10
76.27940943188501
 20
-146.6125840562288
 10
76.54382051037794
 20
-146.6125840562288
 10
76.5958414522052
 20
-146.3314642646324
 10
76.5958414522052
 20
-145.9845431492678
 10
76.5958414522052
 20
-145.6648382882366
 10
76.55518932547926
 20
-145.3561577327582
 10
76.27940943188501
 20
-145.3561577327582
 97
        0
 97
        0
 75
     2
 76
     1
 98
        0
  0
ENDBLK
  5
A5
330
A2
100
AcDbEntity
  8
0
100
AcDbBlockEnd
  0
ENDSEC
  0
SECTION
  2
ENTITIES
  0
POLYLINE
  5
41
330
1F
100
AcDbEntity
  8
_U+30EC_U+30A4_U+30E4_U+30FC 1
 62
     7
420
 16777215
370
    25
100
AcDb2dPolyline
 66
     1
 10
0.0
 20
0.0
 30
0.0
  0
VERTEX
  5
42
330
41
100
AcDbEntity
  8
_U+30EC_U+30A4_U+30E4_U+30FC 1
 62
     7
420
 16777215
370
    25
100
AcDbVertex
100
AcDb2dVertex
 10
66.65086829959469
 20
-143.4027907974827
 30
0.0
  0
VERTEX
  5
43
330
41
100
AcDbEntity
  8
_U+30EC_U+30A4_U+30E4_U+30FC 1
 62
     7
420
 16777215
370
    25
100
AcDbVertex
100
AcDb2dVertex
 10
85.15103053426766
 20
-143.4027907974827
 30
0.0
  0
SEQEND
  5
44
330
41
100
AcDbEntity
  8
_U+30EC_U+30A4_U+30E4_U+30FC 1
 62
     7
420
 16777215
370
    25
  0
POLYLINE
  5
45
330
1F
100
AcDbEntity
  8
_U+30EC_U+30A4_U+30E4_U+30FC 1
 62
     7
420
 16777215
370
    25
100
AcDb2dPolyline
 66
     1
 10
0.0
 20
0.0
 30
0.0
  0
VERTEX
  5
46
330
45
100
AcDbEntity
  8
_U+30EC_U+30A4_U+30E4_U+30FC 1
 62
     7
420
 16777215
370
    25
100
AcDbVertex
100
AcDb2dVertex
 10
65.65077860288687
 20
-117.4022924706493
 30
0.0
  0
VERTEX
  5
47
330
45
100
AcDbEntity
  8
_U+30EC_U+30A4_U+30E4_U+30FC 1
 62
     7
420
 16777215
370
    25
100
AcDbVertex
100
AcDb2dVertex
 10
65.65077860288687
 20
-142.4023482977329
 30
0.0
  0
SEQEND
  5
48
330
45
100
AcDbEntity
  8
_U+30EC_U+30A4_U+30E4_U+30FC 1
 62
     7
420
 16777215
370
    25
  0
POLYLINE
  5
49
330
1F
100
AcDbEntity
  8
_U+30EC_U+30A4_U+30E4_U+30FC 1
 62
     7
420
 16777215
370
    25
100
AcDb2dPolyline
 66
     1
 10
0.0
 20
0.0
 30
0.0
  0
VERTEX
  5
4A
330
49
100
AcDbEntity
  8
_U+30EC_U+30A4_U+30E4_U+30FC 1
 62
     7
420
 16777215
370
    25
100
AcDbVertex
100
AcDb2dVertex
 10
66.65086829959469
 20
-116.4025555264549
 30
0.0
  0
VERTEX
  5
4B
330
49
100
AcDbEntity
  8
_U+30EC_U+30A4_U+30E4_U+30FC 1
 62
     7
420
 16777215
370
    25
100
AcDbVertex
100
AcDb2dVertex
 10
110.6509696770586
 20
-116.4025555264549
 30
0.0
  0
SEQEND
  5
4C
330
49
100
AcDbEntity
  8
_U+30EC_U+30A4_U+30E4_U+30FC 1
 62
     7
420
 16777215
370
    25
  0
POLYLINE
  5
4D
330
1F
100
AcDbEntity
  8
_U+30EC_U+30A4_U+30E4_U+30FC 1
 62
     7
420
 16777215
370
    25
100
AcDb2dPolyline
 66
     1
 10
0.0
 20
0.0
 30
0.0
  0
VERTEX
  5
4E
330
4D
100
AcDbEntity
  8
_U+30EC_U+30A4_U+30E4_U+30FC 1
 62
     7
420
 16777215
370
    25
100
AcDbVertex
100
AcDb2dVertex
 10
80.6507129424289
 20
-142.4023482977329
 30
0.0
  0
VERTEX
  5
4F
330
4D
100
AcDbEntity
  8
_U+30EC_U+30A4_U+30E4_U+30FC 1
 62
     7
420
 16777215
370
    25
100
AcDbVertex
100
AcDb2dVertex
 10
85.15103053426766
 20
-142.4023482977329
 30
0.0
  0
SEQEND
  5
50
330
4D
100
AcDbEntity
  8
_U+30EC_U+30A4_U+30E4_U+30FC 1
 62
     7
420
 16777215
370
    25
  0
SPLINE
  5
51
330
1F
100
AcDbEntity
  8
_U+30EC_U+30A4_U+30E4_U+30FC 1
 62
     7
420
 16777215
370
    25
100
AcDbSpline
210
0.0
220
0.0
230
1.0
 70
     8
 71
     3
 72
    11
 73
     7
 74
     0
 42
0.0000000001
 43
0.0000000001
 12
1.0
 22
0.0
 32
0.0
 13
1.0
 23
0.0
 33
0.0
 40
0.0
 40
0.0
 40
0.0
 40
0.0
 40
1.0
 40
1.0
 40
1.0
 40
2.0
 40
2.0
 40
2.0
 40
2.0
 10
85.15103053426766
 20
-143.4027907974827
 30
0.0
 10
85.4270064316866
 20
-143.4027907974827
 30
0.0
 10
85.65059698153789
 20
-143.1788474642055
 30
0.0
 10
85.65059698153789
 20
-142.902551908719
 30
0.0
 10
85.65059698153789
 20
-142.6262563532326
 30
0.0
 10
85.4270064316866
 20
-142.4023482977329
 30
0.0
 10
85.15103053426766
 20
-142.4023482977329
 30
0.0
  0
SPLINE
  5
52
330
1F
100
AcDbEntity
  8
_U+30EC_U+30A4_U+30E4_U+30FC 1
 62
     7
420
 16777215
370
    25
100
AcDbSpline
210
0.0
220
0.0
230
1.0
 70
     8
 71
     3
 72
     8
 73
     4
 74
     0
 42
0.0000000001
 43
0.0000000001
 12
1.0
 22
0.0
 32
0.0
 13
1.0
 23
0.0
 33
0.0
 40
0.0
 40
0.0
 40
0.0
 40
0.0
 40
1.0
 40
1.0
 40
1.0
 40
1.0
 10
65.65077860288687
 20
-142.4023482977329
 30
0.0
 10
65.65077860288687
 20
-142.9549394087057
 30
0.0
 10
66.09827720258134
 20
-143.4027907974827
 30
0.0
 10
66.65086829959469
 20
-143.4027907974827
 30
0.0
  0
SPLINE
  5
53
330
1F
100
AcDbEntity
  8
_U+30EC_U+30A4_U+30E4_U+30FC 1
 62
     7
420
 16777215
370
    25
100
AcDbSpline
210
0.0
220
0.0
230
1.0
 70
     8
 71
     3
 72
     8
 73
     4
 74
     0
 42
0.0000000001
 43
0.0000000001
 12
1.0
 22
0.0
 32
0.0
 13
1.0
 23
0.0
 33
0.0
 40
0.0
 40
0.0
 40
0.0
 40
0.0
 40
1.0
 40
1.0
 40
1.0
 40
1.0
 10
66.65086829959469
 20
-116.4025555264549
 30
0.0
 10
66.09827720258134
 20
-116.4025555264549
 30
0.0
 10
65.65077860288687
 20
-116.850406915232
 30
0.0
 10
65.65077860288687
 20
-117.4022924706493
 30
0.0
  0
SPLINE
  5
54
330
1F
100
AcDbEntity
  8
_U+30EC_U+30A4_U+30E4_U+30FC 1
 62
     7
420
 16777215
370
     9
100
AcDbSpline
210
0.0
220
0.0
230
1.0
 70
    11
 71
     3
 72
    17
 73
    13
 74
     0
 42
0.0000000001
 43
0.0000000001
 12
1.0
 22
0.0
 32
0.0
 13
1.0
 23
0.0
 33
0.0
 40
0.0
 40
0.0
 40
0.0
 40
0.0
 40
1.0
 40
1.0
 40
1.0
 40
2.0
 40
2.0
 40
2.0
 40
3.0
 40
3.0
 40
3.0
 40
4.0
 40
4.0
 40
4.0
 40
4.0
 10
65.7510380447735
 20
-112.402796360788
 30
0.0
 10
65.7510380447735
 20
-112.3473044163575
 30
0.0
 10
65.70623526813873
 20
-112.302536916369
 30
0.0
 10
65.65077860288687
 20
-112.302536916369
 30
0.0
 10
65.59563943762693
 20
-112.302536916369
 30
0.0
 10
65.55087193876905
 20
-112.3473044163575
 30
0.0
 10
65.55087193876905
 20
-112.402796360788
 30
0.0
 10
65.55087193876905
 20
-112.4579002496633
 30
0.0
 10
65.59563943762693
 20
-112.50270302743
 30
0.0
 10
65.65077860288687
 20
-112.50270302743
 30
0.0
 10
65.70623526813873
 20
-112.50270302743
 30
0.0
 10
65.7510380447735
 20
-112.4579002496633
 30
0.0
 10
65.7510380447735
 20
-112.402796360788
 30
0.0
  0
SPLINE
  5
55
330
1F
100
AcDbEntity
  8
_U+30EC_U+30A4_U+30E4_U+30FC 1
 62
     7
420
 16777215
370
     9
100
AcDbSpline
210
0.0
220
0.0
230
1.0
 70
    11
 71
     3
 72
    17
 73
    13
 74
     0
 42
0.0000000001
 43
0.0000000001
 12
1.0
 22
0.0
 32
0.0
 13
1.0
 23
0.0
 33
0.0
 40
0.0
 40
0.0
 40
0.0
 40
0.0
 40
1.0
 40
1.0
 40
1.0
 40
2.0
 40
2.0
 40
2.0
 40
3.0
 40
3.0
 40
3.0
 40
4.0
 40
4.0
 40
4.0
 40
4.0
 10
110.7508763411764
 20
-112.402796360788
 30
0.0
 10
110.7508763411764
 20
-112.3473044163575
 30
0.0
 10
110.7060735645417
 20
-112.302536916369
 30
0.0
 10
110.6509696770586
 20
-112.302536916369
 30
0.0
 10
110.5954805279066
 20
-112.302536916369
 30
0.0
 10
110.550710235172
 20
-112.3473044163575
 30
0.0
 10
110.550710235172
 20
-112.402796360788
 30
0.0
 10
110.550710235172
 20
-112.4579002496633
 30
0.0
 10
110.5954805279066
 20
-112.50270302743
 30
0.0
 10
110.6509696770586
 20
-112.50270302743
 30
0.0
 10
110.7060735645417
 20
-112.50270302743
 30
0.0
 10
110.7508763411764
 20
-112.4579002496633
 30
0.0
 10
110.7508763411764
 20
-112.402796360788
 30
0.0
  0
SPLINE
  5
56
330
1F
100
AcDbEntity
  8
_U+30EC_U+30A4_U+30E4_U+30FC 1
 62
     7
420
 16777215
370
     9
100
AcDbSpline
210
0.0
220
0.0
230
1.0
 70
    11
 71
     3
 72
    17
 73
    13
 74
     0
 42
0.0000000001
 43
0.0000000001
 12
1.0
 22
0.0
 32
0.0
 13
1.0
 23
0.0
 33
0.0
 40
0.0
 40
0.0
 40
0.0
 40
0.0
 40
1.0
 40
1.0
 40
1.0
 40
2.0
 40
2.0
 40
2.0
 40
3.0
 40
3.0
 40
3.0
 40
4.0
 40
4.0
 40
4.0
 40
4.0
 10
114.7506001280238
 20
-116.4022027486772
 30
0.0
 10
114.7506001280238
 20
-116.3470635820244
 30
0.0
 10
114.7061854069347
 20
-116.3022960820355
 30
0.0
 10
114.650693463906
 20
-116.3022960820355
 30
0.0
 10
114.5955895764229
 20
-116.3022960820355
 30
0.0
 10
114.5507867997882
 20
-116.3470635820244
 30
0.0
 10
114.5507867997882
 20
-116.4022027486772
 30
0.0
 10
114.5507867997882
 20
-116.4573066375524
 30
0.0
 10
114.5955895764229
 20
-116.5021094153188
 30
0.0
 10
114.650693463906
 20
-116.5021094153188
 30
0.0
 10
114.7061854069347
 20
-116.5021094153188
 30
0.0
 10
114.7506001280238
 20
-116.4573066375524
 30
0.0
 10
114.7506001280238
 20
-116.4022027486772
 30
0.0
  0
SPLINE
  5
57
330
1F
100
AcDbEntity
  8
_U+30EC_U+30A4_U+30E4_U+30FC 1
 62
     7
420
 16777215
370
     9
100
AcDbSpline
210
0.0
220
0.0
230
1.0
 70
    11
 71
     3
 72
    17
 73
    13
 74
     0
 42
0.0000000001
 43
0.0000000001
 12
1.0
 22
0.0
 32
0.0
 13
1.0
 23
0.0
 33
0.0
 40
0.0
 40
0.0
 40
0.0
 40
0.0
 40
1.0
 40
1.0
 40
1.0
 40
2.0
 40
2.0
 40
2.0
 40
3.0
 40
3.0
 40
3.0
 40
4.0
 40
4.0
 40
4.0
 40
4.0
 10
114.7506001280238
 20
-142.4023482977329
 30
0.0
 10
114.7506001280238
 20
-142.3472091310798
 30
0.0
 10
114.7061854069347
 20
-142.3024416310912
 30
0.0
 10
114.650693463906
 20
-142.3024416310912
 30
0.0
 10
114.5955895764229
 20
-142.3024416310912
 30
0.0
 10
114.5507867997882
 20
-142.3472091310798
 30
0.0
 10
114.5507867997882
 20
-142.4023482977329
 30
0.0
 10
114.5507867997882
 20
-142.4581577421633
 30
0.0
 10
114.5955895764229
 20
-142.5029252421518
 30
0.0
 10
114.650693463906
 20
-142.5029252421518
 30
0.0
 10
114.7061854069347
 20
-142.5029252421518
 30
0.0
 10
114.7506001280238
 20
-142.4581577421633
 30
0.0
 10
114.7506001280238
 20
-142.4023482977329
 30
0.0
  0
SPLINE
  5
58
330
1F
100
AcDbEntity
  8
_U+30EC_U+30A4_U+30E4_U+30FC 1
 62
     7
420
 16777215
370
     9
100
AcDbSpline
210
0.0
220
0.0
230
1.0
 70
    11
 71
     3
 72
    17
 73
    13
 74
     0
 42
0.0000000001
 43
0.0000000001
 12
1.0
 22
0.0
 32
0.0
 13
1.0
 23
0.0
 33
0.0
 40
0.0
 40
0.0
 40
0.0
 40
0.0
 40
1.0
 40
1.0
 40
1.0
 40
2.0
 40
2.0
 40
2.0
 40
3.0
 40
3.0
 40
3.0
 40
4.0
 40
4.0
 40
4.0
 40
4.0
 10
85.75082114564763
 20
-147.4025499631496
 30
0.0
 10
85.75082114564763
 20
-147.3474107964965
 30
0.0
 10
85.70605364678974
 20
-147.302643296508
 30
0.0
 10
85.65059698153789
 20
-147.302643296508
 30
0.0
 10
85.59545781627794
 20
-147.302643296508
 30
0.0
 10
85.55069031742006
 20
-147.3474107964965
 30
0.0
 10
85.55069031742006
 20
-147.4025499631496
 30
0.0
 10
85.55069031742006
 20
-147.4576538520245
 30
0.0
 10
85.59545781627794
 20
-147.5024566297913
 30
0.0
 10
85.65059698153789
 20
-147.5024566297913
 30
0.0
 10
85.70605364678974
 20
-147.5024566297913
 30
0.0
 10
85.75082114564763
 20
-147.4576538520245
 30
0.0
 10
85.75082114564763
 20
-147.4025499631496
 30
0.0
  0
SPLINE
  5
59
330
1F
100
AcDbEntity
  8
_U+30EC_U+30A4_U+30E4_U+30FC 1
 62
     7
420
 16777215
370
     9
100
AcDbSpline
210
0.0
220
0.0
230
1.0
 70
    11
 71
     3
 72
    17
 73
    13
 74
     0
 42
0.0000000001
 43
0.0000000001
 12
1.0
 22
0.0
 32
0.0
 13
1.0
 23
0.0
 33
0.0
 40
0.0
 40
0.0
 40
0.0
 40
0.0
 40
1.0
 40
1.0
 40
1.0
 40
2.0
 40
2.0
 40
2.0
 40
3.0
 40
3.0
 40
3.0
 40
4.0
 40
4.0
 40
4.0
 40
4.0
 10
65.7510380447735
 20
-147.4025499631496
 30
0.0
 10
65.7510380447735
 20
-147.3474107964965
 30
0.0
 10
65.70623526813873
 20
-147.302643296508
 30
0.0
 10
65.65077860288687
 20
-147.302643296508
 30
0.0
 10
65.59563943762693
 20
-147.302643296508
 30
0.0
 10
65.55087193876905
 20
-147.3474107964965
 30
0.0
 10
65.55087193876905
 20
-147.4025499631496
 30
0.0
 10
65.55087193876905
 20
-147.4576538520245
 30
0.0
 10
65.59563943762693
 20
-147.5024566297913
 30
0.0
 10
65.65077860288687
 20
-147.5024566297913
 30
0.0
 10
65.70623526813873
 20
-147.5024566297913
 30
0.0
 10
65.7510380447735
 20
-147.4576538520245
 30
0.0
 10
65.7510380447735
 20
-147.4025499631496
 30
0.0
  0
POLYLINE
  5
5A
330
1F
100
AcDbEntity
  8
_U+30EC_U+30A4_U+30E4_U+30FC 1
 62
     7
420
 16777215
370
     9
100
AcDb2dPolyline
 66
     1
 10
0.0
 20
0.0
 30
0.0
  0
VERTEX
  5
5B
330
5A
100
AcDbEntity
  8
_U+30EC_U+30A4_U+30E4_U+30FC 1
 62
     7
420
 16777215
370
     9
100
AcDbVertex
100
AcDb2dVertex
 10
114.650693463906
 20
-142.4023482977329
 30
0.0
  0
VERTEX
  5
5C
330
5A
100
AcDbEntity
  8
_U+30EC_U+30A4_U+30E4_U+30FC 1
 62
     7
420
 16777215
370
     9
100
AcDbVertex
100
AcDb2dVertex
 10
114.650693463906
 20
-116.4022027486772
 30
0.0
  0
SEQEND
  5
5D
330
5A
100
AcDbEntity
  8
_U+30EC_U+30A4_U+30E4_U+30FC 1
 62
     7
420
 16777215
370
     9
  0
POLYLINE
  5
5E
330
1F
100
AcDbEntity
  8
_U+30EC_U+30A4_U+30E4_U+30FC 1
 62
     7
420
 16777215
370
     9
100
AcDb2dPolyline
 66
     1
 10
0.0
 20
0.0
 30
0.0
  0
VERTEX
  5
5F
330
5E
100
AcDbEntity
  8
_U+30EC_U+30A4_U+30E4_U+30FC 1
 62
     7
420
 16777215
370
     9
100
AcDbVertex
100
AcDb2dVertex
 10
87.6907813739329
 20
-142.4023482977329
 30
0.0
  0
VERTEX
  5
60
330
5E
100
AcDbEntity
  8
_U+30EC_U+30A4_U+30E4_U+30FC 1
 62
     7
420
 16777215
370
     9
100
AcDbVertex
100
AcDb2dVertex
 10
115.6508184383907
 20
-142.4023482977329
 30
0.0
  0
SEQEND
  5
61
330
5E
100
AcDbEntity
  8
_U+30EC_U+30A4_U+30E4_U+30FC 1
 62
     7
420
 16777215
370
     9
  0
POLYLINE
  5
62
330
1F
100
AcDbEntity
  8
_U+30EC_U+30A4_U+30E4_U+30FC 1
 62
     7
420
 16777215
370
     9
100
AcDb2dPolyline
 66
     1
 10
0.0
 20
0.0
 30
0.0
  0
VERTEX
  5
63
330
62
100
AcDbEntity
  8
_U+30EC_U+30A4_U+30E4_U+30FC 1
 62
     7
420
 16777215
370
     9
100
AcDbVertex
100
AcDb2dVertex
 10
113.1906873900428
 20
-116.4022027486772
 30
0.0
  0
VERTEX
  5
64
330
62
100
AcDbEntity
  8
_U+30EC_U+30A4_U+30E4_U+30FC 1
 62
     7
420
 16777215
370
     9
100
AcDbVertex
100
AcDb2dVertex
 10
115.6508184383907
 20
-116.4022027486772
 30
0.0
  0
SEQEND
  5
65
330
62
100
AcDbEntity
  8
_U+30EC_U+30A4_U+30E4_U+30FC 1
 62
     7
420
 16777215
370
     9
  0
POLYLINE
  5
66
330
1F
100
AcDbEntity
  8
_U+30EC_U+30A4_U+30E4_U+30FC 1
 62
     7
420
 16777215
370
     9
100
AcDb2dPolyline
 66
     1
 10
0.0
 20
0.0
 30
0.0
  0
VERTEX
  5
67
330
66
100
AcDbEntity
  8
_U+30EC_U+30A4_U+30E4_U+30FC 1
 62
     7
420
 16777215
370
     9
100
AcDbVertex
100
AcDb2dVertex
 10
65.65077860288687
 20
-112.402796360788
 30
0.0
  0
VERTEX
  5
68
330
66
100
AcDbEntity
  8
_U+30EC_U+30A4_U+30E4_U+30FC 1
 62
     7
420
 16777215
370
     9
100
AcDbVertex
100
AcDb2dVertex
 10
110.6509696770586
 20
-112.402796360788
 30
0.0
  0
SEQEND
  5
69
330
66
100
AcDbEntity
  8
_U+30EC_U+30A4_U+30E4_U+30FC 1
 62
     7
420
 16777215
370
     9
  0
POLYLINE
  5
6A
330
1F
100
AcDbEntity
  8
_U+30EC_U+30A4_U+30E4_U+30FC 1
 62
     7
420
 16777215
370
     9
100
AcDb2dPolyline
 66
     1
 10
0.0
 20
0.0
 30
0.0
  0
VERTEX
  5
6B
330
6A
100
AcDbEntity
  8
_U+30EC_U+30A4_U+30E4_U+30FC 1
 62
     7
420
 16777215
370
     9
100
AcDbVertex
100
AcDb2dVertex
 10
65.65077860288687
 20
-114.8625746935065
 30
0.0
  0
VERTEX
  5
6C
330
6A
100
AcDbEntity
  8
_U+30EC_U+30A4_U+30E4_U+30FC 1
 62
     7
420
 16777215
370
     9
100
AcDbVertex
100
AcDb2dVertex
 10
65.65077860288687
 20
-111.4023185832606
 30
0.0
  0
SEQEND
  5
6D
330
6A
100
AcDbEntity
  8
_U+30EC_U+30A4_U+30E4_U+30FC 1
 62
     7
420
 16777215
370
     9
  0
POLYLINE
  5
6E
330
1F
100
AcDbEntity
  8
_U+30EC_U+30A4_U+30E4_U+30FC 1
 62
     7
420
 16777215
370
     9
100
AcDb2dPolyline
 66
     1
 10
0.0
 20
0.0
 30
0.0
  0
VERTEX
  5
6F
330
6E
100
AcDbEntity
  8
_U+30EC_U+30A4_U+30E4_U+30FC 1
 62
     7
420
 16777215
370
     9
100
AcDbVertex
100
AcDb2dVertex
 10
110.6509696770586
 20
-113.8628024715342
 30
0.0
  0
VERTEX
  5
70
330
6E
100
AcDbEntity
  8
_U+30EC_U+30A4_U+30E4_U+30FC 1
 62
     7
420
 16777215
370
     9
100
AcDbVertex
100
AcDb2dVertex
 10
110.6509696770586
 20
-111.4023185832606
 30
0.0
  0
SEQEND
  5
71
330
6E
100
AcDbEntity
  8
_U+30EC_U+30A4_U+30E4_U+30FC 1
 62
     7
420
 16777215
370
     9
  0
POLYLINE
  5
72
330
1F
100
AcDbEntity
  8
_U+30EC_U+30A4_U+30E4_U+30FC 1
 62
     7
420
 16777215
370
     9
100
AcDb2dPolyline
 66
     1
 10
0.0
 20
0.0
 30
0.0
  0
VERTEX
  5
73
330
72
100
AcDbEntity
  8
_U+30EC_U+30A4_U+30E4_U+30FC 1
 62
     7
420
 16777215
370
     9
100
AcDbVertex
100
AcDb2dVertex
 10
65.65077860288687
 20
-147.4025499631496
 30
0.0
  0
VERTEX
  5
74
330
72
100
AcDbEntity
  8
_U+30EC_U+30A4_U+30E4_U+30FC 1
 62
     7
420
 16777215
370
     9
100
AcDbVertex
100
AcDb2dVertex
 10
85.65059698153789
 20
-147.4025499631496
 30
0.0
  0
SEQEND
  5
75
330
72
100
AcDbEntity
  8
_U+30EC_U+30A4_U+30E4_U+30FC 1
 62
     7
420
 16777215
370
     9
  0
POLYLINE
  5
76
330
1F
100
AcDbEntity
  8
_U+30EC_U+30A4_U+30E4_U+30FC 1
 62
     7
420
 16777215
370
     9
100
AcDb2dPolyline
 66
     1
 10
0.0
 20
0.0
 30
0.0
  0
VERTEX
  5
77
330
76
100
AcDbEntity
  8
_U+30EC_U+30A4_U+30E4_U+30FC 1
 62
     7
420
 16777215
370
     9
100
AcDbVertex
100
AcDb2dVertex
 10
65.65077860288687
 20
-144.9427363526534
 30
0.0
  0
VERTEX
  5
78
330
76
100
AcDbEntity
  8
_U+30EC_U+30A4_U+30E4_U+30FC 1
 62
     7
420
 16777215
370
     9
100
AcDbVertex
100
AcDb2dVertex
 10
65.65077860288687
 20
-148.4029924628995
 30
0.0
  0
SEQEND
  5
79
330
76
100
AcDbEntity
  8
_U+30EC_U+30A4_U+30E4_U+30FC 1
 62
     7
420
 16777215
370
     9
  0
POLYLINE
  5
7A
330
1F
100
AcDbEntity
  8
_U+30EC_U+30A4_U+30E4_U+30FC 1
 62
     7
420
 16777215
370
     9
100
AcDb2dPolyline
 66
     1
 10
0.0
 20
0.0
 30
0.0
  0
VERTEX
  5
7B
330
7A
100
AcDbEntity
  8
_U+30EC_U+30A4_U+30E4_U+30FC 1
 62
     7
420
 16777215
370
     9
100
AcDbVertex
100
AcDb2dVertex
 10
85.65059698153789
 20
-145.4429752414171
 30
0.0
  0
VERTEX
  5
7C
330
7A
100
AcDbEntity
  8
_U+30EC_U+30A4_U+30E4_U+30FC 1
 62
     7
420
 16777215
370
     9
100
AcDbVertex
100
AcDb2dVertex
 10
85.65059698153789
 20
-148.4029924628995
 30
0.0
  0
SEQEND
  5
7D
330
7A
100
AcDbEntity
  8
_U+30EC_U+30A4_U+30E4_U+30FC 1
 62
     7
420
 16777215
370
     9
  0
INSERT
  5
7F
330
1F
100
AcDbEntity
  8
_U+30EC_U+30A4_U+30E4_U+30FC 1
100
AcDbBlockReference
  2
block 2
 10
0.0
 20
0.0
 30
0.0
  0
INSERT
  5
88
330
1F
100
AcDbEntity
  8
_U+30EC_U+30A4_U+30E4_U+30FC 1
100
AcDbBlockReference
  2
block 3
 10
0.0
 20
0.0
 30
0.0
  0
INSERT
  5
A3
330
1F
100
AcDbEntity
  8
_U+30EC_U+30A4_U+30E4_U+30FC 1
100
AcDbBlockReference
  2
block 4
 10
0.0
 20
0.0
 30
0.0
  0
POLYLINE
  5
AB
330
1F
100
AcDbEntity
  8
_U+30EC_U+30A4_U+30E4_U+30FC 1
  6
AI-Linetype-1
 62
   251
420
  5855577
370
    25
100
AcDb2dPolyline
 66
     1
 10
0.0
 20
0.0
 30
0.0
  0
VERTEX
  5
AC
330
AB
100
AcDbEntity
  8
_U+30EC_U+30A4_U+30E4_U+30FC 1
  6
AI-Linetype-1
 62
   251
420
  5855577
370
    25
100
AcDbVertex
100
AcDb2dVertex
 10
110.7708435628892
 20
-115.7559138599501
 30
0.0
  0
VERTEX
  5
AD
330
AB
100
AcDbEntity
  8
_U+30EC_U+30A4_U+30E4_U+30FC 1
  6
AI-Linetype-1
 62
   251
420
  5855577
370
    25
100
AcDbVertex
100
AcDb2dVertex
 10
65.08612250618134
 20
-115.7559138599501
 30
0.0
  0
VERTEX
  5
AE
330
AB
100
AcDbEntity
  8
_U+30EC_U+30A4_U+30E4_U+30FC 1
  6
AI-Linetype-1
 62
   251
420
  5855577
370
    25
100
AcDbVertex
100
AcDb2dVertex
 10
65.08612250618134
 20
-144.1545249639615
 30
0.0
  0
VERTEX
  5
AF
330
AB
100
AcDbEntity
  8
_U+30EC_U+30A4_U+30E4_U+30FC 1
  6
AI-Linetype-1
 62
   251
420
  5855577
370
    25
100
AcDbVertex
100
AcDb2dVertex
 10
65.26251139057018
 20
-144.1545249639615
 30
0.0
  0
VERTEX
  5
B0
330
AB
100
AcDbEntity
  8
_U+30EC_U+30A4_U+30E4_U+30FC 1
  6
AI-Linetype-1
 62
   251
420
  5855577
370
    25
100
AcDbVertex
100
AcDb2dVertex
 10
86.4877386268473
 20
-144.1545249639615
 30
0.0
  0
VERTEX
  5
B1
330
AB
100
AcDbEntity
  8
_U+30EC_U+30A4_U+30E4_U+30FC 1
  6
AI-Linetype-1
 62
   251
420
  5855577
370
    25
100
AcDbVertex
100
AcDb2dVertex
 10
86.4877386268473
 20
-142.2731257977653
 30
0.0
  0
VERTEX
  5
B2
330
AB
100
AcDbEntity
  8
_U+30EC_U+30A4_U+30E4_U+30FC 1
  6
AI-Linetype-1
 62
   251
420
  5855577
370
    25
100
AcDbVertex
100
AcDb2dVertex
 10
86.4877386268473
 20
-141.6506141312541
 30
0.0
  0
VERTEX
  5
B3
330
AB
100
AcDbEntity
  8
_U+30EC_U+30A4_U+30E4_U+30FC 1
  6
AI-Linetype-1
 62
   251
420
  5855577
370
    25
100
AcDbVertex
100
AcDb2dVertex
 10
80.6507129424289
 20
-141.6506141312541
 30
0.0
  0
SEQEND
  5
B5
330
AB
100
AcDbEntity
  8
_U+30EC_U+30A4_U+30E4_U+30FC 1
  6
AI-Linetype-1
 62
   251
420
  5855577
370
    25
  0
ENDSEC
  0
SECTION
  2
OBJECTS
  0
DICTIONARY
  5
C
330
0
100
AcDbDictionary
281
     1
  3
ACAD_GROUP
350
D
  3
ACAD_LAYOUT
350
1A
  3
ACAD_MATERIAL
350
3B
  3
ACAD_MLEADERSTYLE
350
B7
  3
ACAD_MLINESTYLE
350
17
  3
ACAD_PLOTSETTINGS
350
19
  3
ACAD_PLOTSTYLENAME
350
E
  3
ACAD_TABLESTYLE
350
B6
  3
ACAD_VISUALSTYLE
350
2A
  0
SUN
  5
3F
330
29
100
AcDbSun
 90
        1
290
     0
 63
     7
421
 16777215
 40
1.0
291
     1
 91
  2455826
 92
 54000000
292
     0
 70
     2
 71
   256
280
     1
  0
DICTIONARY
  5
D
102
{ACAD_REACTORS
330
C
102
}
330
C
100
AcDbDictionary
281
     1
  0
DICTIONARY
  5
1A
102
{ACAD_REACTORS
330
C
102
}
330
C
100
AcDbDictionary
281
     1
  3
Layout1
350
1E
  3
Layout2
350
26
  3
Model
350
22
  0
DICTIONARY
  5
3B
102
{ACAD_REACTORS
330
C
102
}
330
C
100
AcDbDictionary
281
     1
  3
ByBlock
350
3D
  3
ByLayer
350
3C
  3
Global
350
3E
  0
DICTIONARY
  5
B7
102
{ACAD_REACTORS
330
C
102
}
330
C
100
AcDbDictionary
281
     1
  0
DICTIONARY
  5
17
102
{ACAD_REACTORS
330
C
102
}
330
C
100
AcDbDictionary
281
     1
  3
Standard
350
18
  0
DICTIONARY
  5
19
102
{ACAD_REACTORS
330
C
102
}
330
C
100
AcDbDictionary
281
     1
  0
ACDBDICTIONARYWDFLT
  5
E
102
{ACAD_REACTORS
330
C
102
}
330
C
100
AcDbDictionary
281
     1
  3
Normal
350
F
100
AcDbDictionaryWithDefault
340
F
  0
DICTIONARY
  5
B6
102
{ACAD_REACTORS
330
C
102
}
330
C
100
AcDbDictionary
281
     1
  0
DICTIONARY
  5
2A
102
{ACAD_REACTORS
330
C
102
}
330
C
100
AcDbDictionary
281
     1
  3
2dWireframe
350
2F
  3
3D Hidden
350
31
  3
3dWireframe
350
30
  3
Basic
350
32
  3
Brighten
350
36
  3
ColorChange
350
3A
  3
Conceptual
350
34
  3
Dim
350
35
  3
Facepattern
350
39
  3
Flat
350
2B
  3
FlatWithEdges
350
2C
  3
Gouraud
350
2D
  3
GouraudWithEdges
350
2E
  3
Linepattern
350
38
  3
Realistic
350
33
  3
Thicken
350
37
  0
LAYOUT
  5
1E
102
{ACAD_REACTORS
330
1A
102
}
330
1A
100
AcDbPlotSettings
  1

  2
none_device
  4

  6

 40
0.0
 41
0.0
 42
0.0
 43
0.0
 44
0.0
 45
0.0
 46
0.0
 47
0.0
 48
0.0
 49
0.0
140
0.0
141
0.0
142
1.0
143
1.0
 70
   688
 72
     0
 73
     0
 74
     5
  7

 75
    16
 76
     0
 77
     2
 78
   300
147
1.0
148
0.0
149
0.0
100
AcDbLayout
  1
Layout1
 70
     1
 71
     1
 10
0.0
 20
0.0
 11
12.0
 21
9.0
 12
0.0
 22
0.0
 32
0.0
 14
1.000000000000000E+20
 24
1.000000000000000E+20
 34
1.000000000000000E+20
 15
-1.000000000000000E+20
 25
-1.000000000000000E+20
 35
-1.000000000000000E+20
146
0.0
 13
0.0
 23
0.0
 33
0.0
 16
1.0
 26
0.0
 36
0.0
 17
0.0
 27
1.0
 37
0.0
 76
     0
330
1B
  0
LAYOUT
  5
26
102
{ACAD_REACTORS
330
1A
102
}
330
1A
100
AcDbPlotSettings
  1

  2
none_device
  4

  6

 40
0.0
 41
0.0
 42
0.0
 43
0.0
 44
0.0
 45
0.0
 46
0.0
 47
0.0
 48
0.0
 49
0.0
140
0.0
141
0.0
142
1.0
143
1.0
 70
   688
 72
     0
 73
     0
 74
     5
  7

 75
    16
 76
     0
 77
     2
 78
   300
147
1.0
148
0.0
149
0.0
100
AcDbLayout
  1
Layout2
 70
     1
 71
     2
 10
0.0
 20
0.0
 11
0.0
 21
0.0
 12
0.0
 22
0.0
 32
0.0
 14
0.0
 24
0.0
 34
0.0
 15
0.0
 25
0.0
 35
0.0
146
0.0
 13
0.0
 23
0.0
 33
0.0
 16
1.0
 26
0.0
 36
0.0
 17
0.0
 27
1.0
 37
0.0
 76
     0
330
23
  0
LAYOUT
  5
22
102
{ACAD_REACTORS
330
1A
102
}
330
1A
100
AcDbPlotSettings
  1

  2
none_device
  4

  6

 40
0.0
 41
0.0
 42
0.0
 43
0.0
 44
0.0
 45
0.0
 46
0.0
 47
0.0
 48
0.0
 49
0.0
140
0.0
141
0.0
142
1.0
143
1.0
 70
  1712
 72
     0
 73
     0
 74
     0
  7

 75
     0
 76
     0
 77
     2
 78
   300
147
1.0
148
0.0
149
0.0
100
AcDbLayout
  1
Model
 70
     1
 71
     0
 10
0.0
 20
0.0
 11
12.0
 21
9.0
 12
0.0
 22
0.0
 32
0.0
 14
1.000000000000000E+20
 24
1.000000000000000E+20
 34
1.000000000000000E+20
 15
-1.000000000000000E+20
 25
-1.000000000000000E+20
 35
-1.000000000000000E+20
146
0.0
 13
0.0
 23
0.0
 33
0.0
 16
1.0
 26
0.0
 36
0.0
 17
0.0
 27
1.0
 37
0.0
 76
     0
330
1F
331
29
  0
MATERIAL
  5
3D
102
{ACAD_REACTORS
330
3B
102
}
330
3B
100
AcDbMaterial
  1
ByBlock
 72
     1
 94
      127
  0
MATERIAL
  5
3C
102
{ACAD_REACTORS
330
3B
102
}
330
3B
100
AcDbMaterial
  1
ByLayer
 72
     1
 94
      127
  0
MATERIAL
  5
3E
102
{ACAD_REACTORS
330
3B
102
}
330
3B
100
AcDbMaterial
  1
Global
 72
     1
 94
      127
  0
MLINESTYLE
  5
18
102
{ACAD_REACTORS
330
17
102
}
330
17
100
AcDbMlineStyle
  2
Standard
 70
     0
  3

 62
   256
 51
90.0
 52
90.0
 71
     2
 49
0.5
 62
   256
  6
BYLAYER
 49
-0.5
 62
   256
  6
BYLAYER
  0
ACDBPLACEHOLDER
  5
F
102
{ACAD_REACTORS
330
E
102
}
330
E
  0
VISUALSTYLE
  5
2F
102
{ACAD_REACTORS
330
2A
102
}
330
2A
100
AcDbVisualStyle
  2
2dWireframe
 70
     4
177
     2
291
     0
 71
     0
176
     1
 72
     2
176
     1
 73
     0
176
     1
 90
        0
176
     1
 40
-0.6
176
     1
 41
-30.0
176
     1
 62
     5
 63
     7
421
 16777215
176
     1
 74
     1
176
     1
 91
        4
176
     1
 64
     7
176
     1
 65
   257
176
     1
 75
     1
176
     1
175
     1
176
     1
 42
1.0
176
     1
 92
        0
176
     1
 66
   257
176
     1
 43
1.0
176
     1
 76
     1
176
     1
 77
     6
176
     1
 78
     2
176
     1
 67
     7
176
     1
 79
     5
176
     1
170
     0
176
     1
171
     0
176
     1
290
     0
176
     1
 93
        1
176
     1
 44
0.0
176
     1
173
     0
176
     1
  0
VISUALSTYLE
  5
31
102
{ACAD_REACTORS
330
2A
102
}
330
2A
100
AcDbVisualStyle
  2
3D Hidden
 70
     6
177
     2
291
     0
 71
     1
176
     1
 72
     2
176
     1
 73
     2
176
     1
 90
        0
176
     1
 40
-0.6
176
     1
 41
-30.0
176
     1
 62
     5
 63
     7
421
 16777215
176
     1
 74
     2
176
     1
 91
        2
176
     1
 64
     7
176
     1
 65
   257
176
     1
 75
     2
176
     1
175
     1
176
     1
 42
40.0
176
     1
 92
        0
176
     1
 66
   257
176
     1
 43
1.0
176
     1
 76
     1
176
     1
 77
     6
176
     1
 78
     2
176
     1
 67
     7
176
     1
 79
     3
176
     1
170
     0
176
     1
171
     0
176
     1
290
     0
176
     1
 93
        1
176
     1
 44
0.0
176
     1
173
     0
176
     1
  0
VISUALSTYLE
  5
30
102
{ACAD_REACTORS
330
2A
102
}
330
2A
100
AcDbVisualStyle
  2
3dWireframe
 70
     5
177
     2
291
     0
 71
     0
176
     1
 72
     2
176
     1
 73
     0
176
     1
 90
        0
176
     1
 40
-0.6
176
     1
 41
-30.0
176
     1
 62
     5
 63
     7
421
 16777215
176
     1
 74
     1
176
     1
 91
        4
176
     1
 64
     7
176
     1
 65
   257
176
     1
 75
     1
176
     1
175
     1
176
     1
 42
1.0
176
     1
 92
        0
176
     1
 66
   257
176
     1
 43
1.0
176
     1
 76
     1
176
     1
 77
     6
176
     1
 78
     2
176
     1
 67
     7
176
     1
 79
     5
176
     1
170
     0
176
     1
171
     0
176
     1
290
     0
176
     1
 93
        1
176
     1
 44
0.0
176
     1
173
     0
176
     1
  0
VISUALSTYLE
  5
32
102
{ACAD_REACTORS
330
2A
102
}
330
2A
100
AcDbVisualStyle
  2
Basic
 70
     7
177
     2
291
     1
 71
     1
176
     1
 72
     0
176
     1
 73
     1
176
     1
 90
        0
176
     1
 40
-0.6
176
     1
 41
-30.0
176
     1
 62
     5
 63
     7
421
 16777215
176
     1
 74
     0
176
     1
 91
        4
176
     1
 64
     7
176
     1
 65
   257
176
     1
 75
     1
176
     1
175
     1
176
     1
 42
1.0
176
     1
 92
        8
176
     1
 66
     7
176
     1
 43
1.0
176
     1
 76
     1
176
     1
 77
     6
176
     1
 78
     2
176
     1
 67
     7
176
     1
 79
     5
176
     1
170
     0
176
     1
171
     0
176
     1
290
     0
176
     1
 93
        1
176
     1
 44
0.0
176
     1
173
     0
176
     1
  0
VISUALSTYLE
  5
36
102
{ACAD_REACTORS
330
2A
102
}
330
2A
100
AcDbVisualStyle
  2
Brighten
 70
    12
177
     2
291
     1
 71
     2
176
     1
 72
     2
176
     1
 73
     0
176
     1
 90
        0
176
     1
 40
-0.6
176
     1
 41
-30.0
176
     1
 62
     5
 63
     7
421
 16777215
176
     1
 74
     1
176
     1
 91
        4
176
     1
 64
     7
176
     1
 65
   257
176
     1
 75
     1
176
     1
175
     1
176
     1
 42
1.0
176
     1
 92
        8
176
     1
 66
     7
176
     1
 43
1.0
176
     1
 76
     1
176
     1
 77
     6
176
     1
 78
     2
176
     1
 67
     7
176
     1
 79
     5
176
     1
170
     0
176
     1
171
     0
176
     1
290
     0
176
     1
 93
        1
176
     1
 44
50.0
176
     1
173
     0
176
     1
  0
VISUALSTYLE
  5
3A
102
{ACAD_REACTORS
330
2A
102
}
330
2A
100
AcDbVisualStyle
  2
ColorChange
 70
    16
177
     2
291
     1
 71
     2
176
     1
 72
     2
176
     1
 73
     3
176
     1
 90
        0
176
     1
 40
-0.6
176
     1
 41
-30.0
176
     1
 62
     5
 63
     8
421
  8421504
176
     1
 74
     1
176
     1
 91
        4
176
     1
 64
     7
176
     1
 65
   257
176
     1
 75
     1
176
     1
175
     1
176
     1
 42
1.0
176
     1
 92
        8
176
     1
 66
     8
424
  8421504
176
     1
 43
1.0
176
     1
 76
     1
176
     1
 77
     6
176
     1
 78
     2
176
     1
 67
     7
176
     1
 79
     5
176
     1
170
     0
176
     1
171
     0
176
     1
290
     0
176
     1
 93
        1
176
     1
 44
0.0
176
     1
173
     0
176
     1
  0
VISUALSTYLE
  5
34
102
{ACAD_REACTORS
330
2A
102
}
330
2A
100
AcDbVisualStyle
  2
Conceptual
 70
     9
177
     2
291
     0
 71
     3
176
     1
 72
     2
176
     1
 73
     0
176
     1
 90
        0
176
     1
 40
-0.6
176
     1
 41
-30.0
176
     1
 62
     5
 63
     7
421
 16777215
176
     1
 74
     2
176
     1
 91
        2
176
     1
 64
     7
176
     1
 65
   257
176
     1
 75
     1
176
     1
175
     1
176
     1
 42
40.0
176
     1
 92
        8
176
     1
 66
     7
176
     1
 43
1.0
176
     1
 76
     1
176
     1
 77
     6
176
     1
 78
     2
176
     1
 67
     7
176
     1
 79
     3
176
     1
170
     0
176
     1
171
     0
176
     1
290
     0
176
     1
 93
        1
176
     1
 44
0.0
176
     1
173
     0
176
     1
  0
VISUALSTYLE
  5
35
102
{ACAD_REACTORS
330
2A
102
}
330
2A
100
AcDbVisualStyle
  2
Dim
 70
    11
177
     2
291
     1
 71
     2
176
     1
 72
     2
176
     1
 73
     0
176
     1
 90
        0
176
     1
 40
-0.6
176
     1
 41
-30.0
176
     1
 62
     5
 63
     7
421
 16777215
176
     1
 74
     1
176
     1
 91
        4
176
     1
 64
     7
176
     1
 65
   257
176
     1
 75
     1
176
     1
175
     1
176
     1
 42
1.0
176
     1
 92
        8
176
     1
 66
     7
176
     1
 43
1.0
176
     1
 76
     1
176
     1
 77
     6
176
     1
 78
     2
176
     1
 67
     7
176
     1
 79
     5
176
     1
170
     0
176
     1
171
     0
176
     1
290
     0
176
     1
 93
        1
176
     1
 44
-50.0
176
     1
173
     0
176
     1
  0
VISUALSTYLE
  5
39
102
{ACAD_REACTORS
330
2A
102
}
330
2A
100
AcDbVisualStyle
  2
Facepattern
 70
    15
177
     2
291
     1
 71
     2
176
     1
 72
     2
176
     1
 73
     0
176
     1
 90
        0
176
     1
 40
-0.6
176
     1
 41
-30.0
176
     1
 62
     5
 63
     7
421
 16777215
176
     1
 74
     1
176
     1
 91
        4
176
     1
 64
     7
176
     1
 65
   257
176
     1
 75
     1
176
     1
175
     1
176
     1
 42
1.0
176
     1
 92
        8
176
     1
 66
     7
176
     1
 43
1.0
176
     1
 76
     1
176
     1
 77
     6
176
     1
 78
     2
176
     1
 67
     7
176
     1
 79
     5
176
     1
170
     0
176
     1
171
     0
176
     1
290
     0
176
     1
 93
        1
176
     1
 44
0.0
176
     1
173
     0
176
     1
  0
VISUALSTYLE
  5
2B
102
{ACAD_REACTORS
330
2A
102
}
330
2A
100
AcDbVisualStyle
  2
Flat
 70
     0
177
     2
291
     1
 71
     2
176
     1
 72
     1
176
     1
 73
     1
176
     1
 90
        2
176
     1
 40
-0.6
176
     1
 41
30.0
176
     1
 62
     5
 63
     7
421
 16777215
176
     1
 74
     0
176
     1
 91
        4
176
     1
 64
     7
176
     1
 65
   257
176
     1
 75
     1
176
     1
175
     1
176
     1
 42
1.0
176
     1
 92
        8
176
     1
 66
     7
176
     1
 43
1.0
176
     1
 76
     1
176
     1
 77
     6
176
     1
 78
     2
176
     1
 67
     7
176
     1
 79
     5
176
     1
170
     0
176
     1
171
     0
176
     1
290
     0
176
     1
 93
       13
176
     1
 44
0.0
176
     1
173
     0
176
     1
  0
VISUALSTYLE
  5
2C
102
{ACAD_REACTORS
330
2A
102
}
330
2A
100
AcDbVisualStyle
  2
FlatWithEdges
 70
     1
177
     2
291
     1
 71
     2
176
     1
 72
     1
176
     1
 73
     1
176
     1
 90
        2
176
     1
 40
-0.6
176
     1
 41
30.0
176
     1
 62
     5
 63
     7
421
 16777215
176
     1
 74
     1
176
     1
 91
        4
176
     1
 64
     7
176
     1
 65
   257
176
     1
 75
     1
176
     1
175
     1
176
     1
 42
1.0
176
     1
 92
        0
176
     1
 66
   257
176
     1
 43
1.0
176
     1
 76
     1
176
     1
 77
     6
176
     1
 78
     2
176
     1
 67
     7
176
     1
 79
     5
176
     1
170
     0
176
     1
171
     0
176
     1
290
     0
176
     1
 93
       13
176
     1
 44
0.0
176
     1
173
     0
176
     1
  0
VISUALSTYLE
  5
2D
102
{ACAD_REACTORS
330
2A
102
}
330
2A
100
AcDbVisualStyle
  2
Gouraud
 70
     2
177
     2
291
     1
 71
     2
176
     1
 72
     2
176
     1
 73
     1
176
     1
 90
        2
176
     1
 40
-0.6
176
     1
 41
30.0
176
     1
 62
     5
 63
     7
421
 16777215
176
     1
 74
     0
176
     1
 91
        4
176
     1
 64
     7
176
     1
 65
   257
176
     1
 75
     1
176
     1
175
     1
176
     1
 42
1.0
176
     1
 92
        0
176
     1
 66
     7
176
     1
 43
1.0
176
     1
 76
     1
176
     1
 77
     6
176
     1
 78
     2
176
     1
 67
     7
176
     1
 79
     5
176
     1
170
     0
176
     1
171
     0
176
     1
290
     0
176
     1
 93
       13
176
     1
 44
0.0
176
     1
173
     0
176
     1
  0
VISUALSTYLE
  5
2E
102
{ACAD_REACTORS
330
2A
102
}
330
2A
100
AcDbVisualStyle
  2
GouraudWithEdges
 70
     3
177
     2
291
     1
 71
     2
176
     1
 72
     2
176
     1
 73
     1
176
     1
 90
        2
176
     1
 40
-0.6
176
     1
 41
30.0
176
     1
 62
     5
 63
     7
421
 16777215
176
     1
 74
     1
176
     1
 91
        4
176
     1
 64
     7
176
     1
 65
   257
176
     1
 75
     1
176
     1
175
     1
176
     1
 42
1.0
176
     1
 92
        0
176
     1
 66
   257
176
     1
 43
1.0
176
     1
 76
     1
176
     1
 77
     6
176
     1
 78
     2
176
     1
 67
     7
176
     1
 79
     5
176
     1
170
     0
176
     1
171
     0
176
     1
290
     0
176
     1
 93
       13
176
     1
 44
0.0
176
     1
173
     0
176
     1
  0
VISUALSTYLE
  5
38
102
{ACAD_REACTORS
330
2A
102
}
330
2A
100
AcDbVisualStyle
  2
Linepattern
 70
    14
177
     2
291
     1
 71
     2
176
     1
 72
     2
176
     1
 73
     0
176
     1
 90
        0
176
     1
 40
-0.6
176
     1
 41
-30.0
176
     1
 62
     5
 63
     7
421
 16777215
176
     1
 74
     1
176
     1
 91
        4
176
     1
 64
     7
176
     1
 65
   257
176
     1
 75
     7
176
     1
175
     7
176
     1
 42
1.0
176
     1
 92
        8
176
     1
 66
     7
176
     1
 43
1.0
176
     1
 76
     1
176
     1
 77
     6
176
     1
 78
     2
176
     1
 67
     7
176
     1
 79
     5
176
     1
170
     0
176
     1
171
     0
176
     1
290
     0
176
     1
 93
        1
176
     1
 44
0.0
176
     1
173
     0
176
     1
  0
VISUALSTYLE
  5
33
102
{ACAD_REACTORS
330
2A
102
}
330
2A
100
AcDbVisualStyle
  2
Realistic
 70
     8
177
     2
291
     0
 71
     2
176
     1
 72
     2
176
     1
 73
     0
176
     1
 90
        0
176
     1
 40
-0.6
176
     1
 41
-30.0
176
     1
 62
     5
 63
     7
421
 16777215
176
     1
 74
     1
176
     1
 91
        0
176
     1
 64
     7
176
     1
 65
   257
176
     1
 75
     1
176
     1
175
     1
176
     1
 42
1.0
176
     1
 92
        8
176
     1
 66
     8
424
  7895160
176
     1
 43
1.0
176
     1
 76
     1
176
     1
 77
     6
176
     1
 78
     2
176
     1
 67
     7
176
     1
 79
     5
176
     1
170
     0
176
     1
171
     0
176
     1
290
     0
176
     1
 93
       13
176
     1
 44
0.0
176
     1
173
     0
176
     1
  0
VISUALSTYLE
  5
37
102
{ACAD_REACTORS
330
2A
102
}
330
2A
100
AcDbVisualStyle
  2
Thicken
 70
    13
177
     2
291
     1
 71
     2
176
     1
 72
     2
176
     1
 73
     0
176
     1
 90
        0
176
     1
 40
-0.6
176
     1
 41
-30.0
176
     1
 62
     5
 63
     7
421
 16777215
176
     1
 74
     1
176
     1
 91
        4
176
     1
 64
     7
176
     1
 65
   257
176
     1
 75
     1
176
     1
175
     1
176
     1
 42
1.0
176
     1
 92
       12
176
     1
 66
     7
176
     1
 43
1.0
176
     1
 76
     1
176
     1
 77
     6
176
     1
 78
     2
176
     1
 67
     7
176
     1
 79
     5
176
     1
170
     0
176
     1
171
     0
176
     1
290
     0
176
     1
 93
        1
176
     1
 44
0.0
176
     1
173
     0
176
     1
  0
ENDSEC
  0
EOF
