  0
SECTION
  2
HEADER
  9
$ACADVER
  1
AC1024
  9
$ACADMAINTVER
 70
     6
  9
$DWGCODEPAGE
  3
UNDEFINED
  9
$INSBASE
 10
0.0
 20
0.0
 30
0.0
  9
$EXTMIN
 10
1.000000000000000E+20
 20
1.000000000000000E+20
 30
1.000000000000000E+20
  9
$EXTMAX
 10
-1.000000000000000E+20
 20
-1.000000000000000E+20
 30
-1.000000000000000E+20
  9
$LIMMIN
 10
0.0
 20
0.0
  9
$LIMMAX
 10
12.0
 20
9.0
  9
$ORTHOMODE
 70
     0
  9
$REGENMODE
 70
     1
  9
$FILLMODE
 70
     1
  9
$QTEXTMODE
 70
     0
  9
$MIRRTEXT
 70
     1
  9
$LTSCALE
 40
1.0
  9
$ATTMODE
 70
     1
  9
$TEXTSIZE
 40
0.2
  9
$TRACEWID
 40
0.05
  9
$TEXTSTYLE
  7
Standard
  9
$CLAYER
  8
0
  9
$CELTYPE
  6
ByLayer
  9
$CECOLOR
 62
   256
  9
$CELTSCALE
 40
1.0
  9
$DISPSILH
 70
     0
  9
$DIMSCALE
 40
1.0
  9
$DIMASZ
 40
0.18
  9
$DIMEXO
 40
0.0625
  9
$DIMDLI
 40
0.38
  9
$DIMRND
 40
0.0
  9
$DIMDLE
 40
0.0
  9
$DIMEXE
 40
0.18
  9
$DIMTP
 40
0.0
  9
$DIMTM
 40
0.0
  9
$DIMTXT
 40
0.18
  9
$DIMCEN
 40
0.09
  9
$DIMTSZ
 40
0.0
  9
$DIMTOL
 70
     0
  9
$DIMLIM
 70
     0
  9
$DIMTIH
 70
     1
  9
$DIMTOH
 70
     1
  9
$DIMSE1
 70
     0
  9
$DIMSE2
 70
     0
  9
$DIMTAD
 70
     0
  9
$DIMZIN
 70
     0
  9
$DIMBLK
  1

  9
$DIMASO
 70
     1
  9
$DIMSHO
 70
     1
  9
$DIMPOST
  1

  9
$DIMAPOST
  1

  9
$DIMALT
 70
     0
  9
$DIMALTD
 70
     2
  9
$DIMALTF
 40
25.4
  9
$DIMLFAC
 40
1.0
  9
$DIMTOFL
 70
     0
  9
$DIMTVP
 40
0.0
  9
$DIMTIX
 70
     0
  9
$DIMSOXD
 70
     0
  9
$DIMSAH
 70
     0
  9
$DIMBLK1
  1

  9
$DIMBLK2
  1

  9
$DIMSTYLE
  2
Standard
  9
$DIMCLRD
 70
     0
  9
$DIMCLRE
 70
     0
  9
$DIMCLRT
 70
     0
  9
$DIMTFAC
 40
1.0
  9
$DIMGAP
 40
0.09
  9
$DIMJUST
 70
     0
  9
$DIMSD1
 70
     0
  9
$DIMSD2
 70
     0
  9
$DIMTOLJ
 70
     1
  9
$DIMTZIN
 70
     0
  9
$DIMALTZ
 70
     0
  9
$DIMALTTZ
 70
     0
  9
$DIMUPT
 70
     0
  9
$DIMDEC
 70
     4
  9
$DIMTDEC
 70
     4
  9
$DIMALTU
 70
     2
  9
$DIMALTTD
 70
     2
  9
$DIMTXSTY
  7
Standard
  9
$DIMAUNIT
 70
     0
  9
$DIMADEC
 70
     0
  9
$DIMALTRND
 40
0.0
  9
$DIMAZIN
 70
     0
  9
$DIMDSEP
 70
    46
  9
$DIMATFIT
 70
     3
  9
$DIMFRAC
 70
     0
  9
$DIMLDRBLK
  1

  9
$DIMLUNIT
 70
     2
  9
$DIMLWD
 70
    -2
  9
$DIMLWE
 70
    -2
  9
$DIMTMOVE
 70
     0
  9
$DIMFXL
 40
1.0
  9
$DIMFXLON
 70
     0
  9
$DIMJOGANG
 40
0.7853981633974483
  9
$DIMTFILL
 70
     0
  9
$DIMTFILLCLR
 70
     0
  9
$DIMARCSYM
 70
     0
  9
$DIMLTYPE
  6

  9
$DIMLTEX1
  6

  9
$DIMLTEX2
  6

  9
$DIMTXTDIRECTION
 70
     0
  9
$LUNITS
 70
     2
  9
$LUPREC
 70
     4
  9
$SKETCHINC
 40
0.1
  9
$FILLETRAD
 40
0.5
  9
$AUNITS
 70
     0
  9
$AUPREC
 70
     0
  9
$MENU
  1
.
  9
$ELEVATION
 40
0.0
  9
$PELEVATION
 40
0.0
  9
$THICKNESS
 40
0.0
  9
$LIMCHECK
 70
     0
  9
$CHAMFERA
 40
0.5
  9
$CHAMFERB
 40
0.5
  9
$CHAMFERC
 40
1.0
  9
$CHAMFERD
 40
0.0
  9
$SKPOLY
 70
     0
  9
$TDCREATE
 40
2457917.626018519
  9
$TDUCREATE
 40
2457917.251018519
  9
$TDUPDATE
 40
2457917.626018519
  9
$TDUUPDATE
 40
2457917.251018519
  9
$TDINDWG
 40
0.0000000116
  9
$TDUSRTIMER
 40
0.0000000116
  9
$USRTIMER
 70
     1
  9
$ANGBASE
 50
0.0
  9
$ANGDIR
 70
     0
  9
$PDMODE
 70
     0
  9
$PDSIZE
 40
0.0
  9
$PLINEWID
 40
0.0
  9
$SPLFRAME
 70
     0
  9
$SPLINETYPE
 70
     6
  9
$SPLINESEGS
 70
     8
  9
$HANDSEED
  5
10E
  9
$SURFTAB1
 70
     6
  9
$SURFTAB2
 70
     6
  9
$SURFTYPE
 70
     6
  9
$SURFU
 70
     6
  9
$SURFV
 70
     6
  9
$UCSBASE
  2

  9
$UCSNAME
  2

  9
$UCSORG
 10
0.0
 20
0.0
 30
0.0
  9
$UCSXDIR
 10
1.0
 20
0.0
 30
0.0
  9
$UCSYDIR
 10
0.0
 20
1.0
 30
0.0
  9
$UCSORTHOREF
  2

  9
$UCSORTHOVIEW
 70
     0
  9
$UCSORGTOP
 10
0.0
 20
0.0
 30
0.0
  9
$UCSORGBOTTOM
 10
0.0
 20
0.0
 30
0.0
  9
$UCSORGLEFT
 10
0.0
 20
0.0
 30
0.0
  9
$UCSORGRIGHT
 10
0.0
 20
0.0
 30
0.0
  9
$UCSORGFRONT
 10
0.0
 20
0.0
 30
0.0
  9
$UCSORGBACK
 10
0.0
 20
0.0
 30
0.0
  9
$PUCSBASE
  2

  9
$PUCSNAME
  2

  9
$PUCSORG
 10
0.0
 20
0.0
 30
0.0
  9
$PUCSXDIR
 10
1.0
 20
0.0
 30
0.0
  9
$PUCSYDIR
 10
0.0
 20
1.0
 30
0.0
  9
$PUCSORTHOREF
  2

  9
$PUCSORTHOVIEW
 70
     0
  9
$PUCSORGTOP
 10
0.0
 20
0.0
 30
0.0
  9
$PUCSORGBOTTOM
 10
0.0
 20
0.0
 30
0.0
  9
$PUCSORGLEFT
 10
0.0
 20
0.0
 30
0.0
  9
$PUCSORGRIGHT
 10
0.0
 20
0.0
 30
0.0
  9
$PUCSORGFRONT
 10
0.0
 20
0.0
 30
0.0
  9
$PUCSORGBACK
 10
0.0
 20
0.0
 30
0.0
  9
$USERI1
 70
     0
  9
$USERI2
 70
     0
  9
$USERI3
 70
     0
  9
$USERI4
 70
     0
  9
$USERI5
 70
     0
  9
$USERR1
 40
0.0
  9
$USERR2
 40
0.0
  9
$USERR3
 40
0.0
  9
$USERR4
 40
0.0
  9
$USERR5
 40
0.0
  9
$WORLDVIEW
 70
     1
  9
$SHADEDGE
 70
     3
  9
$SHADEDIF
 70
    70
  9
$TILEMODE
 70
     1
  9
$MAXACTVP
 70
    64
  9
$PINSBASE
 10
0.0
 20
0.0
 30
0.0
  9
$PLIMCHECK
 70
     0
  9
$PEXTMIN
 10
1.000000000000000E+20
 20
1.000000000000000E+20
 30
1.000000000000000E+20
  9
$PEXTMAX
 10
-1.000000000000000E+20
 20
-1.000000000000000E+20
 30
-1.000000000000000E+20
  9
$PLIMMIN
 10
0.0
 20
0.0
  9
$PLIMMAX
 10
12.0
 20
9.0
  9
$UNITMODE
 70
     0
  9
$VISRETAIN
 70
     1
  9
$PLINEGEN
 70
     0
  9
$PSLTSCALE
 70
     1
  9
$TREEDEPTH
 70
  3020
  9
$CMLSTYLE
  2
Standard
  9
$CMLJUST
 70
     0
  9
$CMLSCALE
 40
1.0
  9
$PROXYGRAPHICS
 70
     1
  9
$MEASUREMENT
 70
     0
  9
$CELWEIGHT
370
    -1
  9
$ENDCAPS
280
     0
  9
$JOINSTYLE
280
     0
  9
$LWDISPLAY
290
     1
  9
$INSUNITS
 70
     1
  9
$HYPERLINKBASE
  1

  9
$STYLESHEET
  1

  9
$XEDIT
290
     1
  9
$CEPSNTYPE
380
     0
  9
$PSTYLEMODE
290
     1
  9
$FINGERPRINTGUID
  2
{DA9B40B7-58F8-4677-57A1-4DDAB16FDF90}
  9
$VERSIONGUID
  2
{FAEB1C32-E019-11D5-929B-00C0DF256EC4}
  9
$EXTNAMES
290
     1
  9
$PSVPSCALE
 40
0.0
  9
$OLESTARTUP
290
     0
  9
$SORTENTS
280
   127
  9
$INDEXCTL
280
     0
  9
$HIDETEXT
280
     1
  9
$XCLIPFRAME
280
     2
  9
$HALOGAP
280
     0
  9
$OBSCOLOR
 70
   257
  9
$OBSLTYPE
280
     0
  9
$INTERSECTIONDISPLAY
280
     0
  9
$INTERSECTIONCOLOR
 70
   257
  9
$DIMASSOC
280
     2
  9
$PROJECTNAME
  1

  9
$CAMERADISPLAY
290
     0
  9
$LENSLENGTH
 40
50.0
  9
$CAMERAHEIGHT
 40
0.0
  9
$STEPSPERSEC
 40
2.0
  9
$STEPSIZE
 40
6.0
  9
$3DDWFPREC
 40
2.0
  9
$PSOLWIDTH
 40
0.25
  9
$PSOLHEIGHT
 40
4.0
  9
$LOFTANG1
 40
1.570796326794897
  9
$LOFTANG2
 40
1.570796326794897
  9
$LOFTMAG1
 40
0.0
  9
$LOFTMAG2
 40
0.0
  9
$LOFTPARAM
 70
     7
  9
$LOFTNORMALS
280
     1
  9
$LATITUDE
 40
37.795
  9
$LONGITUDE
 40
-122.394
  9
$NORTHDIRECTION
 40
0.0
  9
$TIMEZONE
 70
 -8000
  9
$LIGHTGLYPHDISPLAY
280
     1
  9
$TILEMODELIGHTSYNCH
280
     1
  9
$CMATERIAL
347
3C
  9
$SOLIDHIST
280
     1
  9
$SHOWHIST
280
     1
  9
$DWFFRAME
280
     2
  9
$DGNFRAME
280
     2
  9
$REALWORLDSCALE
290
     1
  9
$INTERFERECOLOR
 62
   256
  9
$CSHADOW
280
     0
  9
$SHADOWPLANELOCATION
 40
0.0
  0
ENDSEC
  0
SECTION
  2
CLASSES
  0
CLASS
  1
ACDBDICTIONARYWDFLT
  2
AcDbDictionaryWithDefault
  3
ObjectDBX Classes
 90
        0
 91
        4
280
     0
281
     0
  0
CLASS
  1
VISUALSTYLE
  2
AcDbVisualStyle
  3
ObjectDBX Classes
 90
     4095
 91
        4
280
     0
281
     0
  0
CLASS
  1
MATERIAL
  2
AcDbMaterial
  3
ObjectDBX Classes
 90
     1153
 91
        4
280
     0
281
     0
  0
CLASS
  1
SUN
  2
AcDbSun
  3
SCENEOE
 90
     1024
 91
        4
280
     0
281
     0
  0
ENDSEC
  0
SECTION
  2
TABLES
  0
TABLE
  2
VPORT
  5
8
330
0
100
AcDbSymbolTable
 70
     1
  0
VPORT
  5
29
330
8
100
AcDbSymbolTableRecord
100
AcDbViewportTableRecord
  2
*Active
 70
     0
 10
0.0
 20
0.0
 11
1.0
 21
1.0
 12
0.0
 22
0.0
 13
0.0
 23
0.0
 14
0.5
 24
0.5
 15
0.5
 25
0.5
 16
0.0
 26
0.0
 36
1.0
 17
91.00082462281999
 27
-128.4993055234307
 37
0.0
 40
256.9986110468615
 41
0.7081814508812795
 42
50.0
 43
0.0
 44
0.0
 50
0.0
 51
0.0
 71
     0
 72
   100
 73
     1
 74
     3
 75
     0
 76
     0
 77
     0
 78
     0
281
     0
 65
     1
110
0.0
120
0.0
130
0.0
111
1.0
121
0.0
131
0.0
112
0.0
122
1.0
132
0.0
 79
     0
146
0.0
 60
     3
 61
     5
292
     1
282
     1
141
0.0
142
0.0
 63
   250
361
3F
  0
ENDTAB
  0
TABLE
  2
LTYPE
  5
5
330
0
100
AcDbSymbolTable
 70
     1
  0
LTYPE
  5
14
330
5
100
AcDbSymbolTableRecord
100
AcDbLinetypeTableRecord
  2
ByBlock
 70
     0
  3

 72
    65
 73
     0
 40
0.0
  0
LTYPE
  5
15
330
5
100
AcDbSymbolTableRecord
100
AcDbLinetypeTableRecord
  2
ByLayer
 70
     0
  3

 72
    65
 73
     0
 40
0.0
  0
LTYPE
  5
16
330
5
100
AcDbSymbolTableRecord
100
AcDbLinetypeTableRecord
  2
Continuous
 70
     0
  3
Solid line
 72
    65
 73
     0
 40
0.0
  0
ENDTAB
  0
TABLE
  2
LAYER
  5
2
330
0
100
AcDbSymbolTable
 70
     2
  0
LAYER
  5
10
330
2
100
AcDbSymbolTableRecord
100
AcDbLayerTableRecord
  2
0
 70
     0
 62
     7
  6
Continuous
370
    -3
390
F
347
3E
  0
LAYER
  5
40
330
2
100
AcDbSymbolTableRecord
100
AcDbLayerTableRecord
  2
_U+30EC_U+30A4_U+30E4_U+30FC 1
 70
     0
 62
     7
  6
Continuous
370
    -3
390
F
347
3E
  0
ENDTAB
  0
TABLE
  2
STYLE
  5
3
330
0
100
AcDbSymbolTable
 70
     1
  0
STYLE
  5
11
330
3
100
AcDbSymbolTableRecord
100
AcDbTextStyleTableRecord
  2
Standard
 70
     0
 40
0.0
 41
1.0
 50
0.0
 71
     0
 42
0.2
  3
txt
  4

  0
ENDTAB
  0
TABLE
  2
VIEW
  5
6
330
0
100
AcDbSymbolTable
 70
     0
  0
ENDTAB
  0
TABLE
  2
UCS
  5
7
330
0
100
AcDbSymbolTable
 70
     0
  0
ENDTAB
  0
TABLE
  2
APPID
  5
9
330
0
100
AcDbSymbolTable
 70
     1
  0
APPID
  5
12
330
9
100
AcDbSymbolTableRecord
100
AcDbRegAppTableRecord
  2
ACAD
 70
     0
  0
ENDTAB
  0
TABLE
  2
DIMSTYLE
  5
A
330
0
100
AcDbSymbolTable
 70
     1
100
AcDbDimStyleTable
  0
DIMSTYLE
105
27
330
A
100
AcDbSymbolTableRecord
100
AcDbDimStyleTableRecord
  2
Standard
 70
     0
178
     0
340
11
  0
ENDTAB
  0
TABLE
  2
BLOCK_RECORD
  5
1
330
0
100
AcDbSymbolTable
 70
     5
  0
BLOCK_RECORD
  5
1F
330
1
100
AcDbSymbolTableRecord
100
AcDbBlockTableRecord
  2
*Model_Space
340
22
 70
     0
280
     1
281
     0
  0
BLOCK_RECORD
  5
1B
330
1
100
AcDbSymbolTableRecord
100
AcDbBlockTableRecord
  2
*Paper_Space
340
1E
 70
     0
280
     1
281
     0
  0
BLOCK_RECORD
  5
23
330
1
100
AcDbSymbolTableRecord
100
AcDbBlockTableRecord
  2
*Paper_Space0
340
26
 70
     0
280
     1
281
     0
  0
BLOCK_RECORD
  5
B0
330
1
100
AcDbSymbolTableRecord
100
AcDbBlockTableRecord
  2
block 2
340
0
102
{BLKREFS
331
B1
102
}
 70
     0
280
     1
281
     0
  0
BLOCK_RECORD
  5
C4
330
1
100
AcDbSymbolTableRecord
100
AcDbBlockTableRecord
  2
block 3
340
0
102
{BLKREFS
331
C5
102
}
 70
     0
280
     1
281
     0
  0
BLOCK_RECORD
  5
EB
330
1
100
AcDbSymbolTableRecord
100
AcDbBlockTableRecord
  2
block 4
340
0
102
{BLKREFS
331
EC
102
}
 70
     0
280
     1
281
     0
  0
BLOCK_RECORD
  5
103
330
1
100
AcDbSymbolTableRecord
100
AcDbBlockTableRecord
  2
block 5
340
0
102
{BLKREFS
331
104
102
}
 70
     0
280
     1
281
     0
  0
ENDTAB
  0
ENDSEC
  0
SECTION
  2
BLOCKS
  0
BLOCK
  5
20
330
1F
100
AcDbEntity
  8
0
100
AcDbBlockBegin
  2
*Model_Space
 70
     0
 10
0.0
 20
0.0
 30
0.0
  3
*Model_Space
  1

  0
ENDBLK
  5
21
330
1F
100
AcDbEntity
  8
0
100
AcDbBlockEnd
  0
BLOCK
  5
1C
330
1B
100
AcDbEntity
 67
     1
  8
0
100
AcDbBlockBegin
  2
*Paper_Space
 70
     0
 10
0.0
 20
0.0
 30
0.0
  3
*Paper_Space
  1

  0
ENDBLK
  5
1D
330
1B
100
AcDbEntity
 67
     1
  8
0
100
AcDbBlockEnd
  0
BLOCK
  5
24
330
23
100
AcDbEntity
  8
0
100
AcDbBlockBegin
  2
*Paper_Space0
 70
     0
 10
0.0
 20
0.0
 30
0.0
  3
*Paper_Space0
  1

  0
ENDBLK
  5
25
330
23
100
AcDbEntity
  8
0
100
AcDbBlockEnd
  0
BLOCK
  5
B2
330
B0
100
AcDbEntity
  8
0
100
AcDbBlockBegin
  2
block 2
 70
     0
 10
0.0
 20
0.0
 30
0.0
  3
block 2
  1

  0
SPLINE
  5
B4
330
B0
100
AcDbEntity
  8
_U+30EC_U+30A4_U+30E4_U+30FC 1
370
     0
100
AcDbSpline
210
0.0
220
0.0
230
1.0
 70
    11
 71
     3
 72
    44
 73
    40
 74
     0
 42
0.0000000001
 43
0.0000000001
 12
1.0
 22
0.0
 32
0.0
 13
1.0
 23
0.0
 33
0.0
 40
0.0
 40
0.0
 40
0.0
 40
0.0
 40
1.0
 40
1.0
 40
1.0
 40
2.0
 40
2.0
 40
2.0
 40
3.0
 40
3.0
 40
3.0
 40
4.0
 40
4.0
 40
4.0
 40
5.0
 40
5.0
 40
5.0
 40
6.0
 40
6.0
 40
6.0
 40
7.0
 40
7.0
 40
7.0
 40
8.0
 40
8.0
 40
8.0
 40
9.0
 40
9.0
 40
9.0
 40
10.0
 40
10.0
 40
10.0
 40
11.0
 40
11.0
 40
11.0
 40
12.0
 40
12.0
 40
12.0
 40
13.0
 40
13.0
 40
13.0
 40
13.0
 10
85.08300643489245
 20
-98.30666094547543
 30
0.0
 10
84.84787866802415
 20
-98.47788219109233
 30
0.0
 10
84.74745413462911
 20
-98.55780840635013
 30
0.0
 10
84.69491642847905
 20
-98.71300995796064
 30
0.0
 10
84.69491642847905
 20
-98.71300995796064
 30
0.0
 10
85.53483070778296
 20
-98.71300995796064
 30
0.0
 10
85.53483070778296
 20
-98.71300995796064
 30
0.0
 10
85.53483070778296
 20
-98.71300995796064
 30
0.0
 10
85.53483070778296
 20
-98.93435734288795
 30
0.0
 10
85.53483070778296
 20
-98.93435734288795
 30
0.0
 10
85.53483070778296
 20
-98.93435734288795
 30
0.0
 10
84.42568221630678
 20
-98.93435734288795
 30
0.0
 10
84.42568221630678
 20
-98.93435734288795
 30
0.0
 10
84.45978866161074
 20
-98.54867890331423
 30
0.0
 10
84.53058537383264
 20
-98.46410180915134
 30
0.0
 10
84.9458916345795
 20
-98.142329890829
 30
0.0
 10
85.22218829249654
 20
-97.9278726968722
 30
0.0
 10
85.29281274994416
 20
-97.85483667258491
 30
0.0
 10
85.29281274994416
 20
-97.7065253119449
 30
0.0
 10
85.29281274994416
 20
-97.57871226944214
 30
0.0
 10
85.21529810152605
 20
-97.43711884499837
 30
0.0
 10
85.00308021963465
 20
-97.43711884499837
 30
0.0
 10
84.72230493758678
 20
-97.43711884499837
 30
0.0
 10
84.71317543455088
 20
-97.6858547390334
 30
0.0
 10
84.7085245556458
 20
-97.81142846947075
 30
0.0
 10
84.7085245556458
 20
-97.81142846947075
 30
0.0
 10
84.46667885258125
 20
-97.81142846947075
 30
0.0
 10
84.46667885258125
 20
-97.81142846947075
 30
0.0
 10
84.47580835561716
 20
-97.67448592393208
 30
0.0
 10
84.48717717071848
 20
-97.55356307239981
 30
0.0
 10
84.57399357694678
 20
-97.42575002989705
 30
0.0
 10
84.69267711641363
 20
-97.25228947221471
 30
0.0
 10
84.8935261832037
 20
-97.21577146007107
 30
0.0
 10
85.0189276588668
 20
-97.21577146007107
 30
0.0
 10
85.31796194698649
 20
-97.21577146007107
 30
0.0
 10
85.54172089875347
 20
-97.41438121479571
 30
0.0
 10
85.54172089875347
 20
-97.70876462401031
 30
0.0
 10
85.54172089875347
 20
-97.95526120597994
 30
0.0
 10
85.4161471683161
 20
-98.0624036755712
 30
0.0
 10
85.08300643489245
 20
-98.30666094547543
 30
0.0
  0
HATCH
  5
B5
330
B0
100
AcDbEntity
  8
_U+30EC_U+30A4_U+30E4_U+30FC 1
 62
   179
420
  2234388
100
AcDbHatch
 10
0.0
 20
0.0
 30
0.0
210
0.0
220
0.0
230
1.0
  2
SOLID
 70
     1
 71
     0
 91
        1
 92
        1
 93
        1
 72
     4
 94
        3
 73
     0
 74
     1
 95
       44
 96
       40
 40
0.0
 40
0.0
 40
0.0
 40
0.0
 40
1.0
 40
1.0
 40
1.0
 40
2.0
 40
2.0
 40
2.0
 40
3.0
 40
3.0
 40
3.0
 40
4.0
 40
4.0
 40
4.0
 40
5.0
 40
5.0
 40
5.0
 40
6.0
 40
6.0
 40
6.0
 40
7.0
 40
7.0
 40
7.0
 40
8.0
 40
8.0
 40
8.0
 40
9.0
 40
9.0
 40
9.0
 40
10.0
 40
10.0
 40
10.0
 40
11.0
 40
11.0
 40
11.0
 40
12.0
 40
12.0
 40
12.0
 40
13.0
 40
13.0
 40
13.0
 40
13.0
 10
85.08300643489245
 20
-98.30666094547543
 10
84.84787866802415
 20
-98.47788219109233
 10
84.74745413462911
 20
-98.55780840635013
 10
84.69491642847905
 20
-98.71300995796064
 10
84.69491642847905
 20
-98.71300995796064
 10
85.53483070778296
 20
-98.71300995796064
 10
85.53483070778296
 20
-98.71300995796064
 10
85.53483070778296
 20
-98.71300995796064
 10
85.53483070778296
 20
-98.93435734288795
 10
85.53483070778296
 20
-98.93435734288795
 10
85.53483070778296
 20
-98.93435734288795
 10
84.42568221630678
 20
-98.93435734288795
 10
84.42568221630678
 20
-98.93435734288795
 10
84.45978866161074
 20
-98.54867890331423
 10
84.53058537383264
 20
-98.46410180915134
 10
84.9458916345795
 20
-98.142329890829
 10
85.22218829249654
 20
-97.9278726968722
 10
85.29281274994416
 20
-97.85483667258491
 10
85.29281274994416
 20
-97.7065253119449
 10
85.29281274994416
 20
-97.57871226944214
 10
85.21529810152605
 20
-97.43711884499837
 10
85.00308021963465
 20
-97.43711884499837
 10
84.72230493758678
 20
-97.43711884499837
 10
84.71317543455088
 20
-97.6858547390334
 10
84.7085245556458
 20
-97.81142846947075
 10
84.7085245556458
 20
-97.81142846947075
 10
84.46667885258125
 20
-97.81142846947075
 10
84.46667885258125
 20
-97.81142846947075
 10
84.47580835561716
 20
-97.67448592393208
 10
84.48717717071848
 20
-97.55356307239981
 10
84.57399357694678
 20
-97.42575002989705
 10
84.69267711641363
 20
-97.25228947221471
 10
84.8935261832037
 20
-97.21577146007107
 10
85.0189276588668
 20
-97.21577146007107
 10
85.31796194698649
 20
-97.21577146007107
 10
85.54172089875347
 20
-97.41438121479571
 10
85.54172089875347
 20
-97.70876462401031
 10
85.54172089875347
 20
-97.95526120597994
 10
85.4161471683161
 20
-98.0624036755712
 10
85.08300643489245
 20
-98.30666094547543
 97
        0
 97
        0
 75
     2
 76
     1
 98
        0
  0
SPLINE
  5
B6
330
B0
100
AcDbEntity
  8
_U+30EC_U+30A4_U+30E4_U+30FC 1
370
     0
100
AcDbSpline
210
0.0
220
0.0
230
1.0
 70
    11
 71
     3
 72
    53
 73
    49
 74
     0
 42
0.0000000001
 43
0.0000000001
 12
1.0
 22
0.0
 32
0.0
 13
1.0
 23
0.0
 33
0.0
 40
0.0
 40
0.0
 40
0.0
 40
0.0
 40
1.0
 40
1.0
 40
1.0
 40
2.0
 40
2.0
 40
2.0
 40
3.0
 40
3.0
 40
3.0
 40
4.0
 40
4.0
 40
4.0
 40
5.0
 40
5.0
 40
5.0
 40
6.0
 40
6.0
 40
6.0
 40
7.0
 40
7.0
 40
7.0
 40
8.0
 40
8.0
 40
8.0
 40
9.0
 40
9.0
 40
9.0
 40
10.0
 40
10.0
 40
10.0
 40
11.0
 40
11.0
 40
11.0
 40
12.0
 40
12.0
 40
12.0
 40
13.0
 40
13.0
 40
13.0
 40
14.0
 40
14.0
 40
14.0
 40
15.0
 40
15.0
 40
15.0
 40
16.0
 40
16.0
 40
16.0
 40
16.0
 10
86.2322902887718
 20
-98.98913436110341
 30
0.0
 10
86.14788544938317
 20
-98.98913436110341
 30
0.0
 10
86.03833141295223
 20
-98.9708753550316
 30
0.0
 10
85.92877737652128
 20
-98.90231795487512
 30
0.0
 10
85.74170869167222
 20
-98.78380667018253
 30
0.0
 10
85.7187988066953
 20
-98.64221324573876
 30
0.0
 10
85.69830048855806
 20
-98.52576901833731
 30
0.0
 10
85.69830048855806
 20
-98.52576901833731
 30
0.0
 10
85.93807913433146
 20
-98.52576901833731
 30
0.0
 10
85.93807913433146
 20
-98.52576901833731
 30
0.0
 10
85.99733477667775
 20
-98.74039846706837
 30
0.0
 10
86.13410506744218
 20
-98.77226560030694
 30
0.0
 10
86.23470185561146
 20
-98.77226560030694
 30
0.0
 10
86.38525252831688
 20
-98.77226560030694
 30
0.0
 10
86.54958358296331
 20
-98.6649508759414
 30
0.0
 10
86.54958358296331
 20
-98.41397566984095
 30
0.0
 10
86.54958358296331
 20
-98.13785126669818
 30
0.0
 10
86.35562470714373
 20
-98.0624036755712
 30
0.0
 10
86.2254000978013
 20
-98.0624036755712
 30
0.0
 10
86.19129365249732
 20
-98.0624036755712
 30
0.0
 10
86.03833141295223
 20
-98.0624036755712
 30
0.0
 10
85.94255775846229
 20
-98.20175778794956
 30
0.0
 10
85.94255775846229
 20
-98.20175778794956
 30
0.0
 10
85.75307750677354
 20
-98.18125946981233
 30
0.0
 10
85.75307750677354
 20
-98.18125946981233
 30
0.0
 10
85.75307750677354
 20
-98.18125946981233
 30
0.0
 10
85.88295760656746
 20
-97.26830916622112
 30
0.0
 10
85.88295760656746
 20
-97.26830916622112
 30
0.0
 10
85.88295760656746
 20
-97.26830916622112
 30
0.0
 10
86.72287188587137
 20
-97.26830916622112
 30
0.0
 10
86.72287188587137
 20
-97.26830916622112
 30
0.0
 10
86.72287188587137
 20
-97.26830916622112
 30
0.0
 10
86.72287188587137
 20
-97.47811548127284
 30
0.0
 10
86.72287188587137
 20
-97.47811548127284
 30
0.0
 10
86.72287188587137
 20
-97.47811548127284
 30
0.0
 10
86.05900198586373
 20
-97.47811548127284
 30
0.0
 10
86.05900198586373
 20
-97.47811548127284
 30
0.0
 10
86.05900198586373
 20
-97.47811548127284
 30
0.0
 10
85.98803301886758
 20
-97.93459063306844
 30
0.0
 10
85.98803301886758
 20
-97.93459063306844
 30
0.0
 10
86.05417885218438
 20
-97.8980726209248
 30
0.0
 10
86.14340682525234
 20
-97.85483667258491
 30
0.0
 10
86.27121986775512
 20
-97.85483667258491
 30
0.0
 10
86.54510495883248
 20
-97.85483667258491
 30
0.0
 10
86.80073104383801
 20
-98.05568573937497
 30
0.0
 10
86.80073104383801
 20
-98.39347735170372
 30
0.0
 10
86.80073104383801
 20
-98.73574758816329
 30
0.0
 10
86.55888534077347
 20
-98.98913436110341
 30
0.0
 10
86.2322902887718
 20
-98.98913436110341
 30
0.0
  0
HATCH
  5
B7
330
B0
100
AcDbEntity
  8
_U+30EC_U+30A4_U+30E4_U+30FC 1
 62
   179
420
  2234388
100
AcDbHatch
 10
0.0
 20
0.0
 30
0.0
210
0.0
220
0.0
230
1.0
  2
SOLID
 70
     1
 71
     0
 91
        1
 92
        1
 93
        1
 72
     4
 94
        3
 73
     0
 74
     1
 95
       53
 96
       49
 40
0.0
 40
0.0
 40
0.0
 40
0.0
 40
1.0
 40
1.0
 40
1.0
 40
2.0
 40
2.0
 40
2.0
 40
3.0
 40
3.0
 40
3.0
 40
4.0
 40
4.0
 40
4.0
 40
5.0
 40
5.0
 40
5.0
 40
6.0
 40
6.0
 40
6.0
 40
7.0
 40
7.0
 40
7.0
 40
8.0
 40
8.0
 40
8.0
 40
9.0
 40
9.0
 40
9.0
 40
10.0
 40
10.0
 40
10.0
 40
11.0
 40
11.0
 40
11.0
 40
12.0
 40
12.0
 40
12.0
 40
13.0
 40
13.0
 40
13.0
 40
14.0
 40
14.0
 40
14.0
 40
15.0
 40
15.0
 40
15.0
 40
16.0
 40
16.0
 40
16.0
 40
16.0
 10
86.2322902887718
 20
-98.98913436110341
 10
86.14788544938317
 20
-98.98913436110341
 10
86.03833141295223
 20
-98.9708753550316
 10
85.92877737652128
 20
-98.90231795487512
 10
85.74170869167222
 20
-98.78380667018253
 10
85.7187988066953
 20
-98.64221324573876
 10
85.69830048855806
 20
-98.52576901833731
 10
85.69830048855806
 20
-98.52576901833731
 10
85.93807913433146
 20
-98.52576901833731
 10
85.93807913433146
 20
-98.52576901833731
 10
85.99733477667775
 20
-98.74039846706837
 10
86.13410506744218
 20
-98.77226560030694
 10
86.23470185561146
 20
-98.77226560030694
 10
86.38525252831688
 20
-98.77226560030694
 10
86.54958358296331
 20
-98.6649508759414
 10
86.54958358296331
 20
-98.41397566984095
 10
86.54958358296331
 20
-98.13785126669818
 10
86.35562470714373
 20
-98.0624036755712
 10
86.2254000978013
 20
-98.0624036755712
 10
86.19129365249732
 20
-98.0624036755712
 10
86.03833141295223
 20
-98.0624036755712
 10
85.94255775846229
 20
-98.20175778794956
 10
85.94255775846229
 20
-98.20175778794956
 10
85.75307750677354
 20
-98.18125946981233
 10
85.75307750677354
 20
-98.18125946981233
 10
85.75307750677354
 20
-98.18125946981233
 10
85.88295760656746
 20
-97.26830916622112
 10
85.88295760656746
 20
-97.26830916622112
 10
85.88295760656746
 20
-97.26830916622112
 10
86.72287188587137
 20
-97.26830916622112
 10
86.72287188587137
 20
-97.26830916622112
 10
86.72287188587137
 20
-97.26830916622112
 10
86.72287188587137
 20
-97.47811548127284
 10
86.72287188587137
 20
-97.47811548127284
 10
86.72287188587137
 20
-97.47811548127284
 10
86.05900198586373
 20
-97.47811548127284
 10
86.05900198586373
 20
-97.47811548127284
 10
86.05900198586373
 20
-97.47811548127284
 10
85.98803301886758
 20
-97.93459063306844
 10
85.98803301886758
 20
-97.93459063306844
 10
86.05417885218438
 20
-97.8980726209248
 10
86.14340682525234
 20
-97.85483667258491
 10
86.27121986775512
 20
-97.85483667258491
 10
86.54510495883248
 20
-97.85483667258491
 10
86.80073104383801
 20
-98.05568573937497
 10
86.80073104383801
 20
-98.39347735170372
 10
86.80073104383801
 20
-98.73574758816329
 10
86.55888534077347
 20
-98.98913436110341
 10
86.2322902887718
 20
-98.98913436110341
 97
        0
 97
        0
 75
     2
 76
     1
 98
        0
  0
ENDBLK
  5
B3
330
B0
100
AcDbEntity
  8
0
100
AcDbBlockEnd
  0
BLOCK
  5
C6
330
C4
100
AcDbEntity
  8
0
100
AcDbBlockBegin
  2
block 3
 70
     0
 10
0.0
 20
0.0
 30
0.0
  3
block 3
  1

  0
POLYLINE
  5
C8
330
C4
100
AcDbEntity
  8
_U+30EC_U+30A4_U+30E4_U+30FC 1
370
     0
100
AcDb2dPolyline
 66
     1
 10
0.0
 20
0.0
 30
0.0
  0
VERTEX
  5
C9
330
C8
100
AcDbEntity
  8
_U+30EC_U+30A4_U+30E4_U+30FC 1
370
     0
100
AcDbVertex
100
AcDb2dVertex
 10
85.3408718319634
 20
-158.9601507849127
 30
0.0
  0
VERTEX
  5
CA
330
C8
100
AcDbEntity
  8
_U+30EC_U+30A4_U+30E4_U+30FC 1
370
     0
100
AcDbVertex
100
AcDb2dVertex
 10
85.3408718319634
 20
-159.3346326641594
 30
0.0
  0
VERTEX
  5
CB
330
C8
100
AcDbEntity
  8
_U+30EC_U+30A4_U+30E4_U+30FC 1
370
     0
100
AcDbVertex
100
AcDb2dVertex
 10
85.1057440650951
 20
-159.3346326641594
 30
0.0
  0
VERTEX
  5
CC
330
C8
100
AcDbEntity
  8
_U+30EC_U+30A4_U+30E4_U+30FC 1
370
     0
100
AcDbVertex
100
AcDb2dVertex
 10
85.1057440650951
 20
-158.9601507849127
 30
0.0
  0
VERTEX
  5
CD
330
C8
100
AcDbEntity
  8
_U+30EC_U+30A4_U+30E4_U+30FC 1
370
     0
100
AcDbVertex
100
AcDb2dVertex
 10
84.39812145242477
 20
-158.9601507849127
 30
0.0
  0
VERTEX
  5
CE
330
C8
100
AcDbEntity
  8
_U+30EC_U+30A4_U+30E4_U+30FC 1
370
     0
100
AcDbVertex
100
AcDb2dVertex
 10
84.39812145242477
 20
-158.7183050818482
 30
0.0
  0
VERTEX
  5
CF
330
C8
100
AcDbEntity
  8
_U+30EC_U+30A4_U+30E4_U+30FC 1
370
     0
100
AcDbVertex
100
AcDb2dVertex
 10
85.13089326213742
 20
-157.6685844874926
 30
0.0
  0
VERTEX
  5
D0
330
C8
100
AcDbEntity
  8
_U+30EC_U+30A4_U+30E4_U+30FC 1
370
     0
100
AcDbVertex
100
AcDb2dVertex
 10
85.3408718319634
 20
-157.6685844874926
 30
0.0
  0
VERTEX
  5
D1
330
C8
100
AcDbEntity
  8
_U+30EC_U+30A4_U+30E4_U+30FC 1
370
     0
100
AcDbVertex
100
AcDb2dVertex
 10
85.3408718319634
 20
-158.7458658457302
 30
0.0
  0
VERTEX
  5
D2
330
C8
100
AcDbEntity
  8
_U+30EC_U+30A4_U+30E4_U+30FC 1
370
     0
100
AcDbVertex
100
AcDb2dVertex
 10
85.56445852895611
 20
-158.7458658457302
 30
0.0
  0
VERTEX
  5
D3
330
C8
100
AcDbEntity
  8
_U+30EC_U+30A4_U+30E4_U+30FC 1
370
     0
100
AcDbVertex
100
AcDb2dVertex
 10
85.56445852895611
 20
-158.9601507849127
 30
0.0
  0
VERTEX
  5
D4
330
C8
100
AcDbEntity
  8
_U+30EC_U+30A4_U+30E4_U+30FC 1
370
     0
100
AcDbVertex
100
AcDb2dVertex
 10
85.3408718319634
 20
-158.9601507849127
 30
0.0
  0
SEQEND
  5
D5
330
C8
100
AcDbEntity
  8
_U+30EC_U+30A4_U+30E4_U+30FC 1
370
     0
  0
POLYLINE
  5
D6
330
C4
100
AcDbEntity
  8
_U+30EC_U+30A4_U+30E4_U+30FC 1
370
     0
100
AcDb2dPolyline
 66
     1
 10
0.0
 20
0.0
 30
0.0
  0
VERTEX
  5
D7
330
D6
100
AcDbEntity
  8
_U+30EC_U+30A4_U+30E4_U+30FC 1
370
     0
100
AcDbVertex
100
AcDb2dVertex
 10
85.1057440650951
 20
-158.0382432330599
 30
0.0
  0
VERTEX
  5
D8
330
D6
100
AcDbEntity
  8
_U+30EC_U+30A4_U+30E4_U+30FC 1
370
     0
100
AcDbVertex
100
AcDb2dVertex
 10
84.61275090115585
 20
-158.7458658457302
 30
0.0
  0
VERTEX
  5
D9
330
D6
100
AcDbEntity
  8
_U+30EC_U+30A4_U+30E4_U+30FC 1
370
     0
100
AcDbVertex
100
AcDb2dVertex
 10
85.1057440650951
 20
-158.7458658457302
 30
0.0
  0
VERTEX
  5
DA
330
D6
100
AcDbEntity
  8
_U+30EC_U+30A4_U+30E4_U+30FC 1
370
     0
100
AcDbVertex
100
AcDb2dVertex
 10
85.1057440650951
 20
-158.0382432330599
 30
0.0
  0
SEQEND
  5
DB
330
D6
100
AcDbEntity
  8
_U+30EC_U+30A4_U+30E4_U+30FC 1
370
     0
  0
HATCH
  5
DC
330
C4
100
AcDbEntity
  8
_U+30EC_U+30A4_U+30E4_U+30FC 1
 62
   179
420
  2234388
100
AcDbHatch
 10
0.0
 20
0.0
 30
0.0
210
0.0
220
0.0
230
1.0
  2
SOLID
 70
     1
 71
     0
 91
        2
 92
        1
 93
       11
 72
     1
 10
85.3408718319634
 20
-158.9601507849127
 11
85.3408718319634
 21
-159.3346326641594
 72
     1
 10
85.3408718319634
 20
-159.3346326641594
 11
85.1057440650951
 21
-159.3346326641594
 72
     1
 10
85.1057440650951
 20
-159.3346326641594
 11
85.1057440650951
 21
-158.9601507849127
 72
     1
 10
85.1057440650951
 20
-158.9601507849127
 11
84.39812145242477
 21
-158.9601507849127
 72
     1
 10
84.39812145242477
 20
-158.9601507849127
 11
84.39812145242477
 21
-158.7183050818482
 72
     1
 10
84.39812145242477
 20
-158.7183050818482
 11
85.13089326213742
 21
-157.6685844874926
 72
     1
 10
85.13089326213742
 20
-157.6685844874926
 11
85.3408718319634
 21
-157.6685844874926
 72
     1
 10
85.3408718319634
 20
-157.6685844874926
 11
85.3408718319634
 21
-158.7458658457302
 72
     1
 10
85.3408718319634
 20
-158.7458658457302
 11
85.56445852895611
 21
-158.7458658457302
 72
     1
 10
85.56445852895611
 20
-158.7458658457302
 11
85.56445852895611
 21
-158.9601507849127
 72
     1
 10
85.56445852895611
 20
-158.9601507849127
 11
85.3408718319634
 21
-158.9601507849127
 97
        0
 92
        1
 93
        3
 72
     1
 10
85.1057440650951
 20
-158.0382432330599
 11
84.61275090115585
 21
-158.7458658457302
 72
     1
 10
84.61275090115585
 20
-158.7458658457302
 11
85.1057440650951
 21
-158.7458658457302
 72
     1
 10
85.1057440650951
 20
-158.7458658457302
 11
85.1057440650951
 21
-158.0382432330599
 97
        0
 75
     2
 76
     1
 98
        0
  0
SPLINE
  5
DD
330
C4
100
AcDbEntity
  8
_U+30EC_U+30A4_U+30E4_U+30FC 1
370
     0
100
AcDbSpline
210
0.0
220
0.0
230
1.0
 70
    11
 71
     3
 72
    53
 73
    49
 74
     0
 42
0.0000000001
 43
0.0000000001
 12
1.0
 22
0.0
 32
0.0
 13
1.0
 23
0.0
 33
0.0
 40
0.0
 40
0.0
 40
0.0
 40
0.0
 40
1.0
 40
1.0
 40
1.0
 40
2.0
 40
2.0
 40
2.0
 40
3.0
 40
3.0
 40
3.0
 40
4.0
 40
4.0
 40
4.0
 40
5.0
 40
5.0
 40
5.0
 40
6.0
 40
6.0
 40
6.0
 40
7.0
 40
7.0
 40
7.0
 40
8.0
 40
8.0
 40
8.0
 40
9.0
 40
9.0
 40
9.0
 40
10.0
 40
10.0
 40
10.0
 40
11.0
 40
11.0
 40
11.0
 40
12.0
 40
12.0
 40
12.0
 40
13.0
 40
13.0
 40
13.0
 40
14.0
 40
14.0
 40
14.0
 40
15.0
 40
15.0
 40
15.0
 40
16.0
 40
16.0
 40
16.0
 40
16.0
 10
86.2322902887718
 20
-159.3894096823749
 30
0.0
 10
86.14788544938317
 20
-159.3894096823749
 30
0.0
 10
86.03833141295223
 20
-159.371150676303
 30
0.0
 10
85.92877737652128
 20
-159.3025932761466
 30
0.0
 10
85.74170869167222
 20
-159.184081991454
 30
0.0
 10
85.7187988066953
 20
-159.0424885670102
 30
0.0
 10
85.69830048855806
 20
-158.9260443396088
 30
0.0
 10
85.69830048855806
 20
-158.9260443396088
 30
0.0
 10
85.93807913433146
 20
-158.9260443396088
 30
0.0
 10
85.93807913433146
 20
-158.9260443396088
 30
0.0
 10
85.99733477667775
 20
-159.1406737883398
 30
0.0
 10
86.13410506744218
 20
-159.1727131763527
 30
0.0
 10
86.23470185561146
 20
-159.1727131763527
 30
0.0
 10
86.38525252831688
 20
-159.1727131763527
 30
0.0
 10
86.54958358296331
 20
-159.0652261972129
 30
0.0
 10
86.54958358296331
 20
-158.8140787363382
 30
0.0
 10
86.54958358296331
 20
-158.5381265879696
 30
0.0
 10
86.35562470714373
 20
-158.4626789968427
 30
0.0
 10
86.2254000978013
 20
-158.4626789968427
 30
0.0
 10
86.19129365249732
 20
-158.4626789968427
 30
0.0
 10
86.03833141295223
 20
-158.4626789968427
 30
0.0
 10
85.94255775846229
 20
-158.6018608544468
 30
0.0
 10
85.94255775846229
 20
-158.6018608544468
 30
0.0
 10
85.75307750677354
 20
-158.5815347910838
 30
0.0
 10
85.75307750677354
 20
-158.5815347910838
 30
0.0
 10
85.75307750677354
 20
-158.5815347910838
 30
0.0
 10
85.88295760656746
 20
-157.6685844874926
 30
0.0
 10
85.88295760656746
 20
-157.6685844874926
 30
0.0
 10
85.88295760656746
 20
-157.6685844874926
 30
0.0
 10
86.72287188587137
 20
-157.6685844874926
 30
0.0
 10
86.72287188587137
 20
-157.6685844874926
 30
0.0
 10
86.72287188587137
 20
-157.6685844874926
 30
0.0
 10
86.72287188587137
 20
-157.8783908025443
 30
0.0
 10
86.72287188587137
 20
-157.8783908025443
 30
0.0
 10
86.72287188587137
 20
-157.8783908025443
 30
0.0
 10
86.05900198586373
 20
-157.8783908025443
 30
0.0
 10
86.05900198586373
 20
-157.8783908025443
 30
0.0
 10
86.05900198586373
 20
-157.8783908025443
 30
0.0
 10
85.98803301886758
 20
-158.3348659543399
 30
0.0
 10
85.98803301886758
 20
-158.3348659543399
 30
0.0
 10
86.05417885218438
 20
-158.2983479421962
 30
0.0
 10
86.14340682525234
 20
-158.2549397390821
 30
0.0
 10
86.27121986775512
 20
-158.2549397390821
 30
0.0
 10
86.54510495883248
 20
-158.2549397390821
 30
0.0
 10
86.80073104383801
 20
-158.4557888058722
 30
0.0
 10
86.80073104383801
 20
-158.7937526729752
 30
0.0
 10
86.80073104383801
 20
-159.136195164209
 30
0.0
 10
86.55888534077347
 20
-159.3894096823749
 30
0.0
 10
86.2322902887718
 20
-159.3894096823749
 30
0.0
  0
HATCH
  5
DE
330
C4
100
AcDbEntity
  8
_U+30EC_U+30A4_U+30E4_U+30FC 1
 62
   179
420
  2234388
100
AcDbHatch
 10
0.0
 20
0.0
 30
0.0
210
0.0
220
0.0
230
1.0
  2
SOLID
 70
     1
 71
     0
 91
        1
 92
        1
 93
        1
 72
     4
 94
        3
 73
     0
 74
     1
 95
       53
 96
       49
 40
0.0
 40
0.0
 40
0.0
 40
0.0
 40
1.0
 40
1.0
 40
1.0
 40
2.0
 40
2.0
 40
2.0
 40
3.0
 40
3.0
 40
3.0
 40
4.0
 40
4.0
 40
4.0
 40
5.0
 40
5.0
 40
5.0
 40
6.0
 40
6.0
 40
6.0
 40
7.0
 40
7.0
 40
7.0
 40
8.0
 40
8.0
 40
8.0
 40
9.0
 40
9.0
 40
9.0
 40
10.0
 40
10.0
 40
10.0
 40
11.0
 40
11.0
 40
11.0
 40
12.0
 40
12.0
 40
12.0
 40
13.0
 40
13.0
 40
13.0
 40
14.0
 40
14.0
 40
14.0
 40
15.0
 40
15.0
 40
15.0
 40
16.0
 40
16.0
 40
16.0
 40
16.0
 10
86.2322902887718
 20
-159.3894096823749
 10
86.14788544938317
 20
-159.3894096823749
 10
86.03833141295223
 20
-159.371150676303
 10
85.92877737652128
 20
-159.3025932761466
 10
85.74170869167222
 20
-159.184081991454
 10
85.7187988066953
 20
-159.0424885670102
 10
85.69830048855806
 20
-158.9260443396088
 10
85.69830048855806
 20
-158.9260443396088
 10
85.93807913433146
 20
-158.9260443396088
 10
85.93807913433146
 20
-158.9260443396088
 10
85.99733477667775
 20
-159.1406737883398
 10
86.13410506744218
 20
-159.1727131763527
 10
86.23470185561146
 20
-159.1727131763527
 10
86.38525252831688
 20
-159.1727131763527
 10
86.54958358296331
 20
-159.0652261972129
 10
86.54958358296331
 20
-158.8140787363382
 10
86.54958358296331
 20
-158.5381265879696
 10
86.35562470714373
 20
-158.4626789968427
 10
86.2254000978013
 20
-158.4626789968427
 10
86.19129365249732
 20
-158.4626789968427
 10
86.03833141295223
 20
-158.4626789968427
 10
85.94255775846229
 20
-158.6018608544468
 10
85.94255775846229
 20
-158.6018608544468
 10
85.75307750677354
 20
-158.5815347910838
 10
85.75307750677354
 20
-158.5815347910838
 10
85.75307750677354
 20
-158.5815347910838
 10
85.88295760656746
 20
-157.6685844874926
 10
85.88295760656746
 20
-157.6685844874926
 10
85.88295760656746
 20
-157.6685844874926
 10
86.72287188587137
 20
-157.6685844874926
 10
86.72287188587137
 20
-157.6685844874926
 10
86.72287188587137
 20
-157.6685844874926
 10
86.72287188587137
 20
-157.8783908025443
 10
86.72287188587137
 20
-157.8783908025443
 10
86.72287188587137
 20
-157.8783908025443
 10
86.05900198586373
 20
-157.8783908025443
 10
86.05900198586373
 20
-157.8783908025443
 10
86.05900198586373
 20
-157.8783908025443
 10
85.98803301886758
 20
-158.3348659543399
 10
85.98803301886758
 20
-158.3348659543399
 10
86.05417885218438
 20
-158.2983479421962
 10
86.14340682525234
 20
-158.2549397390821
 10
86.27121986775512
 20
-158.2549397390821
 10
86.54510495883248
 20
-158.2549397390821
 10
86.80073104383801
 20
-158.4557888058722
 10
86.80073104383801
 20
-158.7937526729752
 10
86.80073104383801
 20
-159.136195164209
 10
86.55888534077347
 20
-159.3894096823749
 10
86.2322902887718
 20
-159.3894096823749
 97
        0
 97
        0
 75
     2
 76
     1
 98
        0
  0
ENDBLK
  5
C7
330
C4
100
AcDbEntity
  8
0
100
AcDbBlockEnd
  0
BLOCK
  5
ED
330
EB
100
AcDbEntity
  8
0
100
AcDbBlockBegin
  2
block 4
 70
     0
 10
0.0
 20
0.0
 30
0.0
  3
block 4
  1

  0
SPLINE
  5
EF
330
EB
100
AcDbEntity
  8
_U+30EC_U+30A4_U+30E4_U+30FC 1
370
     0
100
AcDbSpline
210
0.0
220
0.0
230
1.0
 70
    11
 71
     3
 72
    26
 73
    22
 74
     0
 42
0.0000000001
 43
0.0000000001
 12
1.0
 22
0.0
 32
0.0
 13
1.0
 23
0.0
 33
0.0
 40
0.0
 40
0.0
 40
0.0
 40
0.0
 40
1.0
 40
1.0
 40
1.0
 40
2.0
 40
2.0
 40
2.0
 40
3.0
 40
3.0
 40
3.0
 40
4.0
 40
4.0
 40
4.0
 40
5.0
 40
5.0
 40
5.0
 40
6.0
 40
6.0
 40
6.0
 40
7.0
 40
7.0
 40
7.0
 40
7.0
 10
115.9701822626741
 20
-156.6798420832259
 30
0.0
 10
115.9701822626741
 20
-156.6798420832259
 30
0.0
 10
114.7788682438747
 20
-156.6798420832259
 30
0.0
 10
114.7788682438747
 20
-156.6798420832259
 30
0.0
 10
114.7788682438747
 20
-156.6798420832259
 30
0.0
 10
114.7788682438747
 20
-157.0357204468522
 30
0.0
 10
114.7788682438747
 20
-157.0357204468522
 30
0.0
 10
114.7788682438747
 20
-157.0357204468522
 30
0.0
 10
114.6190158133591
 20
-157.0357204468522
 30
0.0
 10
114.6190158133591
 20
-157.0357204468522
 30
0.0
 10
114.603168374127
 20
-156.6774305163862
 30
0.0
 10
114.4271239948307
 20
-156.6271321223016
 30
0.0
 10
114.3041340860073
 20
-156.5954372438373
 30
0.0
 10
114.3041340860073
 20
-156.5954372438373
 30
0.0
 10
114.3041340860073
 20
-156.4376518706128
 30
0.0
 10
114.3041340860073
 20
-156.4376518706128
 30
0.0
 10
114.3041340860073
 20
-156.4376518706128
 30
0.0
 10
115.9701822626741
 20
-156.4376518706128
 30
0.0
 10
115.9701822626741
 20
-156.4376518706128
 30
0.0
 10
115.9701822626741
 20
-156.4376518706128
 30
0.0
 10
115.9701822626741
 20
-156.6798420832259
 30
0.0
 10
115.9701822626741
 20
-156.6798420832259
 30
0.0
  0
HATCH
  5
F0
330
EB
100
AcDbEntity
  8
_U+30EC_U+30A4_U+30E4_U+30FC 1
 62
   179
420
  2234388
100
AcDbHatch
 10
0.0
 20
0.0
 30
0.0
210
0.0
220
0.0
230
1.0
  2
SOLID
 70
     1
 71
     0
 91
        1
 92
        1
 93
        1
 72
     4
 94
        3
 73
     0
 74
     1
 95
       26
 96
       22
 40
0.0
 40
0.0
 40
0.0
 40
0.0
 40
1.0
 40
1.0
 40
1.0
 40
2.0
 40
2.0
 40
2.0
 40
3.0
 40
3.0
 40
3.0
 40
4.0
 40
4.0
 40
4.0
 40
5.0
 40
5.0
 40
5.0
 40
6.0
 40
6.0
 40
6.0
 40
7.0
 40
7.0
 40
7.0
 40
7.0
 10
115.9701822626741
 20
-156.6798420832259
 10
115.9701822626741
 20
-156.6798420832259
 10
114.7788682438747
 20
-156.6798420832259
 10
114.7788682438747
 20
-156.6798420832259
 10
114.7788682438747
 20
-156.6798420832259
 10
114.7788682438747
 20
-157.0357204468522
 10
114.7788682438747
 20
-157.0357204468522
 10
114.7788682438747
 20
-157.0357204468522
 10
114.6190158133591
 20
-157.0357204468522
 10
114.6190158133591
 20
-157.0357204468522
 10
114.603168374127
 20
-156.6774305163862
 10
114.4271239948307
 20
-156.6271321223016
 10
114.3041340860073
 20
-156.5954372438373
 10
114.3041340860073
 20
-156.5954372438373
 10
114.3041340860073
 20
-156.4376518706128
 10
114.3041340860073
 20
-156.4376518706128
 10
114.3041340860073
 20
-156.4376518706128
 10
115.9701822626741
 20
-156.4376518706128
 10
115.9701822626741
 20
-156.4376518706128
 10
115.9701822626741
 20
-156.4376518706128
 10
115.9701822626741
 20
-156.6798420832259
 10
115.9701822626741
 20
-156.6798420832259
 97
        0
 97
        0
 75
     2
 76
     1
 98
        0
  0
POLYLINE
  5
F1
330
EB
100
AcDbEntity
  8
_U+30EC_U+30A4_U+30E4_U+30FC 1
370
     0
100
AcDb2dPolyline
 66
     1
 10
0.0
 20
0.0
 30
0.0
  0
VERTEX
  5
F2
330
F1
100
AcDbEntity
  8
_U+30EC_U+30A4_U+30E4_U+30FC 1
370
     0
100
AcDbVertex
100
AcDb2dVertex
 10
115.9701822626741
 20
-155.8316595747574
 30
0.0
  0
VERTEX
  5
F3
330
F1
100
AcDbEntity
  8
_U+30EC_U+30A4_U+30E4_U+30FC 1
370
     0
100
AcDbVertex
100
AcDb2dVertex
 10
115.6987087384364
 20
-155.8316595747574
 30
0.0
  0
VERTEX
  5
F4
330
F1
100
AcDbEntity
  8
_U+30EC_U+30A4_U+30E4_U+30FC 1
370
     0
100
AcDbVertex
100
AcDb2dVertex
 10
115.6987087384364
 20
-155.5601860505197
 30
0.0
  0
VERTEX
  5
F5
330
F1
100
AcDbEntity
  8
_U+30EC_U+30A4_U+30E4_U+30FC 1
370
     0
100
AcDbVertex
100
AcDb2dVertex
 10
115.9701822626741
 20
-155.5601860505197
 30
0.0
  0
VERTEX
  5
F6
330
F1
100
AcDbEntity
  8
_U+30EC_U+30A4_U+30E4_U+30FC 1
370
     0
100
AcDbVertex
100
AcDb2dVertex
 10
115.9701822626741
 20
-155.8316595747574
 30
0.0
  0
SEQEND
  5
F7
330
F1
100
AcDbEntity
  8
_U+30EC_U+30A4_U+30E4_U+30FC 1
370
     0
  0
HATCH
  5
F8
330
EB
100
AcDbEntity
  8
_U+30EC_U+30A4_U+30E4_U+30FC 1
 62
   179
420
  2234388
100
AcDbHatch
 10
0.0
 20
0.0
 30
0.0
210
0.0
220
0.0
230
1.0
  2
SOLID
 70
     1
 71
     0
 91
        1
 92
        1
 93
        4
 72
     1
 10
115.9701822626741
 20
-155.8316595747574
 11
115.6987087384364
 21
-155.8316595747574
 72
     1
 10
115.6987087384364
 20
-155.8316595747574
 11
115.6987087384364
 21
-155.5601860505197
 72
     1
 10
115.6987087384364
 20
-155.5601860505197
 11
115.9701822626741
 21
-155.5601860505197
 72
     1
 10
115.9701822626741
 20
-155.5601860505197
 11
115.9701822626741
 21
-155.8316595747574
 97
        0
 75
     2
 76
     1
 98
        0
  0
SPLINE
  5
F9
330
EB
100
AcDbEntity
  8
_U+30EC_U+30A4_U+30E4_U+30FC 1
370
     0
100
AcDbSpline
210
0.0
220
0.0
230
1.0
 70
    11
 71
     3
 72
    44
 73
    40
 74
     0
 42
0.0000000001
 43
0.0000000001
 12
1.0
 22
0.0
 32
0.0
 13
1.0
 23
0.0
 33
0.0
 40
0.0
 40
0.0
 40
0.0
 40
0.0
 40
1.0
 40
1.0
 40
1.0
 40
2.0
 40
2.0
 40
2.0
 40
3.0
 40
3.0
 40
3.0
 40
4.0
 40
4.0
 40
4.0
 40
5.0
 40
5.0
 40
5.0
 40
6.0
 40
6.0
 40
6.0
 40
7.0
 40
7.0
 40
7.0
 40
8.0
 40
8.0
 40
8.0
 40
9.0
 40
9.0
 40
9.0
 40
10.0
 40
10.0
 40
10.0
 40
11.0
 40
11.0
 40
11.0
 40
12.0
 40
12.0
 40
12.0
 40
13.0
 40
13.0
 40
13.0
 40
13.0
 10
115.3424858652616
 20
-154.6648057339033
 30
0.0
 10
115.5137071108785
 20
-154.8997612459973
 30
0.0
 10
115.5936333261363
 20
-155.0003580341666
 30
0.0
 10
115.7486626229726
 20
-155.0527234855424
 30
0.0
 10
115.7486626229726
 20
-155.0527234855424
 30
0.0
 10
115.7486626229726
 20
-154.2128092062385
 30
0.0
 10
115.7486626229726
 20
-154.2128092062385
 30
0.0
 10
115.7486626229726
 20
-154.2128092062385
 30
0.0
 10
115.9701822626741
 20
-154.2128092062385
 30
0.0
 10
115.9701822626741
 20
-154.2128092062385
 30
0.0
 10
115.9701822626741
 20
-154.2128092062385
 30
0.0
 10
115.9701822626741
 20
-155.3221299524889
 30
0.0
 10
115.9701822626741
 20
-155.3221299524889
 30
0.0
 10
115.5843315683261
 20
-155.2876789976364
 30
0.0
 10
115.4999267289375
 20
-155.2170545401888
 30
0.0
 10
115.1781548106152
 20
-154.8015760246677
 30
0.0
 10
114.9635253618841
 20
-154.5256238762992
 30
0.0
 10
114.8904893375968
 20
-154.454654909303
 30
0.0
 10
114.7423502317311
 20
-154.454654909303
 30
0.0
 10
114.6145371892283
 20
-154.454654909303
 30
0.0
 10
114.4729437647845
 20
-154.5325140672697
 30
0.0
 10
114.4729437647845
 20
-154.744731949161
 30
0.0
 10
114.4729437647845
 20
-155.0251627216604
 30
0.0
 10
114.7216796588196
 20
-155.0344644794706
 30
0.0
 10
114.8474256440312
 20
-155.0389431036014
 30
0.0
 10
114.8474256440312
 20
-155.0389431036014
 30
0.0
 10
114.8474256440312
 20
-155.2807888066659
 30
0.0
 10
114.8474256440312
 20
-155.2807888066659
 30
0.0
 10
114.7103108437183
 20
-155.2718315584043
 30
0.0
 10
114.589387992186
 20
-155.260462743303
 30
0.0
 10
114.4615749496832
 20
-155.1736463370746
 30
0.0
 10
114.2879421372266
 20
-155.0551350523821
 30
0.0
 10
114.251424125083
 20
-154.854285985592
 30
0.0
 10
114.251424125083
 20
-154.7285400003804
 30
0.0
 10
114.251424125083
 20
-154.4295057122607
 30
0.0
 10
114.4502061345819
 20
-154.205919015268
 30
0.0
 10
114.7444172890222
 20
-154.205919015268
 30
0.0
 10
114.9910861257661
 20
-154.205919015268
 30
0.0
 10
115.0982285953574
 20
-154.3313204909311
 30
0.0
 10
115.3424858652616
 20
-154.6648057339033
 30
0.0
  0
HATCH
  5
FA
330
EB
100
AcDbEntity
  8
_U+30EC_U+30A4_U+30E4_U+30FC 1
 62
   179
420
  2234388
100
AcDbHatch
 10
0.0
 20
0.0
 30
0.0
210
0.0
220
0.0
230
1.0
  2
SOLID
 70
     1
 71
     0
 91
        1
 92
        1
 93
        1
 72
     4
 94
        3
 73
     0
 74
     1
 95
       44
 96
       40
 40
0.0
 40
0.0
 40
0.0
 40
0.0
 40
1.0
 40
1.0
 40
1.0
 40
2.0
 40
2.0
 40
2.0
 40
3.0
 40
3.0
 40
3.0
 40
4.0
 40
4.0
 40
4.0
 40
5.0
 40
5.0
 40
5.0
 40
6.0
 40
6.0
 40
6.0
 40
7.0
 40
7.0
 40
7.0
 40
8.0
 40
8.0
 40
8.0
 40
9.0
 40
9.0
 40
9.0
 40
10.0
 40
10.0
 40
10.0
 40
11.0
 40
11.0
 40
11.0
 40
12.0
 40
12.0
 40
12.0
 40
13.0
 40
13.0
 40
13.0
 40
13.0
 10
115.3424858652616
 20
-154.6648057339033
 10
115.5137071108785
 20
-154.8997612459973
 10
115.5936333261363
 20
-155.0003580341666
 10
115.7486626229726
 20
-155.0527234855424
 10
115.7486626229726
 20
-155.0527234855424
 10
115.7486626229726
 20
-154.2128092062385
 10
115.7486626229726
 20
-154.2128092062385
 10
115.7486626229726
 20
-154.2128092062385
 10
115.9701822626741
 20
-154.2128092062385
 10
115.9701822626741
 20
-154.2128092062385
 10
115.9701822626741
 20
-154.2128092062385
 10
115.9701822626741
 20
-155.3221299524889
 10
115.9701822626741
 20
-155.3221299524889
 10
115.5843315683261
 20
-155.2876789976364
 10
115.4999267289375
 20
-155.2170545401888
 10
115.1781548106152
 20
-154.8015760246677
 10
114.9635253618841
 20
-154.5256238762992
 10
114.8904893375968
 20
-154.454654909303
 10
114.7423502317311
 20
-154.454654909303
 10
114.6145371892283
 20
-154.454654909303
 10
114.4729437647845
 20
-154.5325140672697
 10
114.4729437647845
 20
-154.744731949161
 10
114.4729437647845
 20
-155.0251627216604
 10
114.7216796588196
 20
-155.0344644794706
 10
114.8474256440312
 20
-155.0389431036014
 10
114.8474256440312
 20
-155.0389431036014
 10
114.8474256440312
 20
-155.2807888066659
 10
114.8474256440312
 20
-155.2807888066659
 10
114.7103108437183
 20
-155.2718315584043
 10
114.589387992186
 20
-155.260462743303
 10
114.4615749496832
 20
-155.1736463370746
 10
114.2879421372266
 20
-155.0551350523821
 10
114.251424125083
 20
-154.854285985592
 10
114.251424125083
 20
-154.7285400003804
 10
114.251424125083
 20
-154.4295057122607
 10
114.4502061345819
 20
-154.205919015268
 10
114.7444172890222
 20
-154.205919015268
 10
114.9910861257661
 20
-154.205919015268
 10
115.0982285953574
 20
-154.3313204909311
 10
115.3424858652616
 20
-154.6648057339033
 97
        0
 97
        0
 75
     2
 76
     1
 98
        0
  0
ENDBLK
  5
EE
330
EB
100
AcDbEntity
  8
0
100
AcDbBlockEnd
  0
BLOCK
  5
105
330
103
100
AcDbEntity
  8
0
100
AcDbBlockBegin
  2
block 5
 70
     0
 10
0.0
 20
0.0
 30
0.0
  3
block 5
  1

  0
SPLINE
  5
107
330
103
100
AcDbEntity
  8
_U+30EC_U+30A4_U+30E4_U+30FC 1
370
     0
100
AcDbSpline
210
0.0
220
0.0
230
1.0
 70
    11
 71
     3
 72
    53
 73
    49
 74
     0
 42
0.0000000001
 43
0.0000000001
 12
1.0
 22
0.0
 32
0.0
 13
1.0
 23
0.0
 33
0.0
 40
0.0
 40
0.0
 40
0.0
 40
0.0
 40
1.0
 40
1.0
 40
1.0
 40
2.0
 40
2.0
 40
2.0
 40
3.0
 40
3.0
 40
3.0
 40
4.0
 40
4.0
 40
4.0
 40
5.0
 40
5.0
 40
5.0
 40
6.0
 40
6.0
 40
6.0
 40
7.0
 40
7.0
 40
7.0
 40
8.0
 40
8.0
 40
8.0
 40
9.0
 40
9.0
 40
9.0
 40
10.0
 40
10.0
 40
10.0
 40
11.0
 40
11.0
 40
11.0
 40
12.0
 40
12.0
 40
12.0
 40
13.0
 40
13.0
 40
13.0
 40
14.0
 40
14.0
 40
14.0
 40
15.0
 40
15.0
 40
15.0
 40
16.0
 40
16.0
 40
16.0
 40
16.0
 10
111.6744927021161
 20
-130.2886881184695
 30
0.0
 10
111.6744927021161
 20
-130.3730929578581
 30
0.0
 10
111.6562336960443
 20
-130.4826469942891
 30
0.0
 10
111.5876762958878
 20
-130.59220103072
 30
0.0
 10
111.4691650111952
 20
-130.7792697155691
 30
0.0
 10
111.3275715867514
 20
-130.8020073457717
 30
0.0
 10
111.21112735935
 20
-130.8226779186832
 30
0.0
 10
111.21112735935
 20
-130.8226779186832
 30
0.0
 10
111.21112735935
 20
-130.5828992729098
 30
0.0
 10
111.21112735935
 20
-130.5828992729098
 30
0.0
 10
111.4257568080811
 20
-130.5236436305635
 30
0.0
 10
111.4577961960939
 20
-130.3868733397991
 30
0.0
 10
111.4577961960939
 20
-130.2862765516298
 30
0.0
 10
111.4577961960939
 20
-130.1357258789244
 30
0.0
 10
111.3503092169541
 20
-129.971394824278
 30
0.0
 10
111.0991617560794
 20
-129.971394824278
 30
0.0
 10
110.8232096077109
 20
-129.971394824278
 30
0.0
 10
110.7477620165839
 20
-130.1653537000976
 30
0.0
 10
110.7477620165839
 20
-130.29557830944
 30
0.0
 10
110.7477620165839
 20
-130.329684754744
 30
0.0
 10
110.7477620165839
 20
-130.4826469942891
 30
0.0
 10
110.886943874188
 20
-130.578420648779
 30
0.0
 10
110.886943874188
 20
-130.578420648779
 30
0.0
 10
110.866617810825
 20
-130.7679009004678
 30
0.0
 10
110.866617810825
 20
-130.7679009004678
 30
0.0
 10
110.866617810825
 20
-130.7679009004678
 30
0.0
 10
109.9536675072338
 20
-130.6380208006738
 30
0.0
 10
109.9536675072338
 20
-130.6380208006738
 30
0.0
 10
109.9536675072338
 20
-130.6380208006738
 30
0.0
 10
109.9536675072338
 20
-129.7981065213699
 30
0.0
 10
109.9536675072338
 20
-129.7981065213699
 30
0.0
 10
109.9536675072338
 20
-129.7981065213699
 30
0.0
 10
110.1634738222855
 20
-129.7981065213699
 30
0.0
 10
110.1634738222855
 20
-129.7981065213699
 30
0.0
 10
110.1634738222855
 20
-129.7981065213699
 30
0.0
 10
110.1634738222855
 20
-130.4619764213776
 30
0.0
 10
110.1634738222855
 20
-130.4619764213776
 30
0.0
 10
110.1634738222855
 20
-130.4619764213776
 30
0.0
 10
110.6199489740811
 20
-130.5329453883737
 30
0.0
 10
110.6199489740811
 20
-130.5329453883737
 30
0.0
 10
110.5834309619375
 20
-130.4667995550569
 30
0.0
 10
110.5400227588233
 20
-130.3775715819889
 30
0.0
 10
110.5400227588233
 20
-130.2497585394862
 30
0.0
 10
110.5400227588233
 20
-129.9758734484088
 30
0.0
 10
110.7408718256134
 20
-129.7202473634033
 30
0.0
 10
111.0788356927164
 20
-129.7202473634033
 30
0.0
 10
111.4212781839502
 20
-129.7202473634033
 30
0.0
 10
111.6744927021161
 20
-129.9620930664678
 30
0.0
 10
111.6744927021161
 20
-130.2886881184695
 30
0.0
  0
HATCH
  5
108
330
103
100
AcDbEntity
  8
_U+30EC_U+30A4_U+30E4_U+30FC 1
 62
   179
420
  2234388
100
AcDbHatch
 10
0.0
 20
0.0
 30
0.0
210
0.0
220
0.0
230
1.0
  2
SOLID
 70
     1
 71
     0
 91
        1
 92
        1
 93
        1
 72
     4
 94
        3
 73
     0
 74
     1
 95
       53
 96
       49
 40
0.0
 40
0.0
 40
0.0
 40
0.0
 40
1.0
 40
1.0
 40
1.0
 40
2.0
 40
2.0
 40
2.0
 40
3.0
 40
3.0
 40
3.0
 40
4.0
 40
4.0
 40
4.0
 40
5.0
 40
5.0
 40
5.0
 40
6.0
 40
6.0
 40
6.0
 40
7.0
 40
7.0
 40
7.0
 40
8.0
 40
8.0
 40
8.0
 40
9.0
 40
9.0
 40
9.0
 40
10.0
 40
10.0
 40
10.0
 40
11.0
 40
11.0
 40
11.0
 40
12.0
 40
12.0
 40
12.0
 40
13.0
 40
13.0
 40
13.0
 40
14.0
 40
14.0
 40
14.0
 40
15.0
 40
15.0
 40
15.0
 40
16.0
 40
16.0
 40
16.0
 40
16.0
 10
111.6744927021161
 20
-130.2886881184695
 10
111.6744927021161
 20
-130.3730929578581
 10
111.6562336960443
 20
-130.4826469942891
 10
111.5876762958878
 20
-130.59220103072
 10
111.4691650111952
 20
-130.7792697155691
 10
111.3275715867514
 20
-130.8020073457717
 10
111.21112735935
 20
-130.8226779186832
 10
111.21112735935
 20
-130.8226779186832
 10
111.21112735935
 20
-130.5828992729098
 10
111.21112735935
 20
-130.5828992729098
 10
111.4257568080811
 20
-130.5236436305635
 10
111.4577961960939
 20
-130.3868733397991
 10
111.4577961960939
 20
-130.2862765516298
 10
111.4577961960939
 20
-130.1357258789244
 10
111.3503092169541
 20
-129.971394824278
 10
111.0991617560794
 20
-129.971394824278
 10
110.8232096077109
 20
-129.971394824278
 10
110.7477620165839
 20
-130.1653537000976
 10
110.7477620165839
 20
-130.29557830944
 10
110.7477620165839
 20
-130.329684754744
 10
110.7477620165839
 20
-130.4826469942891
 10
110.886943874188
 20
-130.578420648779
 10
110.886943874188
 20
-130.578420648779
 10
110.866617810825
 20
-130.7679009004678
 10
110.866617810825
 20
-130.7679009004678
 10
110.866617810825
 20
-130.7679009004678
 10
109.9536675072338
 20
-130.6380208006738
 10
109.9536675072338
 20
-130.6380208006738
 10
109.9536675072338
 20
-130.6380208006738
 10
109.9536675072338
 20
-129.7981065213699
 10
109.9536675072338
 20
-129.7981065213699
 10
109.9536675072338
 20
-129.7981065213699
 10
110.1634738222855
 20
-129.7981065213699
 10
110.1634738222855
 20
-129.7981065213699
 10
110.1634738222855
 20
-129.7981065213699
 10
110.1634738222855
 20
-130.4619764213776
 10
110.1634738222855
 20
-130.4619764213776
 10
110.1634738222855
 20
-130.4619764213776
 10
110.6199489740811
 20
-130.5329453883737
 10
110.6199489740811
 20
-130.5329453883737
 10
110.5834309619375
 20
-130.4667995550569
 10
110.5400227588233
 20
-130.3775715819889
 10
110.5400227588233
 20
-130.2497585394862
 10
110.5400227588233
 20
-129.9758734484088
 10
110.7408718256134
 20
-129.7202473634033
 10
111.0788356927164
 20
-129.7202473634033
 10
111.4212781839502
 20
-129.7202473634033
 10
111.6744927021161
 20
-129.9620930664678
 10
111.6744927021161
 20
-130.2886881184695
 97
        0
 97
        0
 75
     2
 76
     1
 98
        0
  0
SPLINE
  5
109
330
103
100
AcDbEntity
  8
_U+30EC_U+30A4_U+30E4_U+30FC 1
370
     0
100
AcDbSpline
210
0.0
220
0.0
230
1.0
 70
    11
 71
     3
 72
    29
 73
    25
 74
     0
 42
0.0000000001
 43
0.0000000001
 12
1.0
 22
0.0
 32
0.0
 13
1.0
 23
0.0
 33
0.0
 40
0.0
 40
0.0
 40
0.0
 40
0.0
 40
1.0
 40
1.0
 40
1.0
 40
2.0
 40
2.0
 40
2.0
 40
3.0
 40
3.0
 40
3.0
 40
4.0
 40
4.0
 40
4.0
 40
5.0
 40
5.0
 40
5.0
 40
6.0
 40
6.0
 40
6.0
 40
7.0
 40
7.0
 40
7.0
 40
8.0
 40
8.0
 40
8.0
 40
8.0
 10
111.4278238653722
 20
-128.5688964522328
 30
0.0
 10
111.6538221292046
 20
-128.6853406796342
 30
0.0
 10
111.6744927021161
 20
-128.8724093644833
 30
0.0
 10
111.6744927021161
 20
-128.9978108401464
 30
0.0
 10
111.6744927021161
 20
-129.171443652603
 30
0.0
 10
111.6241943080315
 20
-129.3244058921481
 30
0.0
 10
111.4278238653722
 20
-129.4270697376085
 30
0.0
 10
111.2180175503205
 20
-129.5386908313306
 30
0.0
 10
110.962391465315
 20
-129.5593614042421
 30
0.0
 10
110.7866915955672
 20
-129.5593614042421
 30
0.0
 10
110.6313177891824
 20
-129.5593614042421
 30
0.0
 10
110.3598442649448
 20
-129.5411023981703
 30
0.0
 10
110.1452148162137
 20
-129.4270697376085
 30
0.0
 10
109.9261067433518
 20
-129.3106255102071
 30
0.0
 10
109.9009575463095
 20
-129.1369926977505
 30
0.0
 10
109.9009575463095
 20
-128.9978108401464
 30
0.0
 10
109.9009575463095
 20
-128.8265895945295
 30
0.0
 10
109.949188883103
 20
-128.6715602976932
 30
0.0
 10
110.1452148162137
 20
-128.5688964522328
 30
0.0
 10
110.3529540739743
 20
-128.461409473093
 30
0.0
 10
110.5996229107182
 20
-128.4366047855992
 30
0.0
 10
110.7866915955672
 20
-128.4366047855992
 30
0.0
 10
110.9716932231251
 20
-128.4366047855992
 30
0.0
 10
111.2204291171602
 20
-128.4593424158018
 30
0.0
 10
111.4278238653722
 20
-128.5688964522328
 30
0.0
  0
SPLINE
  5
10A
330
103
100
AcDbEntity
  8
_U+30EC_U+30A4_U+30E4_U+30FC 1
370
     0
100
AcDbSpline
210
0.0
220
0.0
230
1.0
 70
    11
 71
     3
 72
    17
 73
    13
 74
     0
 42
0.0000000001
 43
0.0000000001
 12
1.0
 22
0.0
 32
0.0
 13
1.0
 23
0.0
 33
0.0
 40
0.0
 40
0.0
 40
0.0
 40
0.0
 40
1.0
 40
1.0
 40
1.0
 40
2.0
 40
2.0
 40
2.0
 40
3.0
 40
3.0
 40
3.0
 40
4.0
 40
4.0
 40
4.0
 40
4.0
 10
110.10869680407
 20
-128.9978108401464
 30
0.0
 10
110.10869680407
 20
-129.2672173070929
 30
0.0
 10
110.4146212831602
 20
-129.3175157011776
 30
0.0
 10
110.7866915955672
 20
-129.3175157011776
 30
0.0
 10
111.1312011440922
 20
-129.3175157011776
 30
0.0
 10
111.4643418775159
 20
-129.2785861221942
 30
0.0
 10
111.4643418775159
 20
-128.9978108401464
 30
0.0
 10
111.4643418775159
 20
-128.7308159400395
 30
0.0
 10
111.1608289652654
 20
-128.6784504886637
 30
0.0
 10
110.7866915955672
 20
-128.6784504886637
 30
0.0
 10
110.4418375374937
 20
-128.6784504886637
 30
0.0
 10
110.10869680407
 20
-128.7194471249382
 30
0.0
 10
110.10869680407
 20
-128.9978108401464
 30
0.0
  0
HATCH
  5
10B
330
103
100
AcDbEntity
  8
_U+30EC_U+30A4_U+30E4_U+30FC 1
 62
   179
420
  2234388
100
AcDbHatch
 10
0.0
 20
0.0
 30
0.0
210
0.0
220
0.0
230
1.0
  2
SOLID
 70
     1
 71
     0
 91
        2
 92
        1
 93
        1
 72
     4
 94
        3
 73
     0
 74
     1
 95
       29
 96
       25
 40
0.0
 40
0.0
 40
0.0
 40
0.0
 40
1.0
 40
1.0
 40
1.0
 40
2.0
 40
2.0
 40
2.0
 40
3.0
 40
3.0
 40
3.0
 40
4.0
 40
4.0
 40
4.0
 40
5.0
 40
5.0
 40
5.0
 40
6.0
 40
6.0
 40
6.0
 40
7.0
 40
7.0
 40
7.0
 40
8.0
 40
8.0
 40
8.0
 40
8.0
 10
111.4278238653722
 20
-128.5688964522328
 10
111.6538221292046
 20
-128.6853406796342
 10
111.6744927021161
 20
-128.8724093644833
 10
111.6744927021161
 20
-128.9978108401464
 10
111.6744927021161
 20
-129.171443652603
 10
111.6241943080315
 20
-129.3244058921481
 10
111.4278238653722
 20
-129.4270697376085
 10
111.2180175503205
 20
-129.5386908313306
 10
110.962391465315
 20
-129.5593614042421
 10
110.7866915955672
 20
-129.5593614042421
 10
110.6313177891824
 20
-129.5593614042421
 10
110.3598442649448
 20
-129.5411023981703
 10
110.1452148162137
 20
-129.4270697376085
 10
109.9261067433518
 20
-129.3106255102071
 10
109.9009575463095
 20
-129.1369926977505
 10
109.9009575463095
 20
-128.9978108401464
 10
109.9009575463095
 20
-128.8265895945295
 10
109.949188883103
 20
-128.6715602976932
 10
110.1452148162137
 20
-128.5688964522328
 10
110.3529540739743
 20
-128.461409473093
 10
110.5996229107182
 20
-128.4366047855992
 10
110.7866915955672
 20
-128.4366047855992
 10
110.9716932231251
 20
-128.4366047855992
 10
111.2204291171602
 20
-128.4593424158018
 10
111.4278238653722
 20
-128.5688964522328
 97
        0
 97
        0
 92
        1
 93
        1
 72
     4
 94
        3
 73
     0
 74
     1
 95
       17
 96
       13
 40
0.0
 40
0.0
 40
0.0
 40
0.0
 40
1.0
 40
1.0
 40
1.0
 40
2.0
 40
2.0
 40
2.0
 40
3.0
 40
3.0
 40
3.0
 40
4.0
 40
4.0
 40
4.0
 40
4.0
 10
110.10869680407
 20
-128.9978108401464
 10
110.10869680407
 20
-129.2672173070929
 10
110.4146212831602
 20
-129.3175157011776
 10
110.7866915955672
 20
-129.3175157011776
 10
111.1312011440922
 20
-129.3175157011776
 10
111.4643418775159
 20
-129.2785861221942
 10
111.4643418775159
 20
-128.9978108401464
 10
111.4643418775159
 20
-128.7308159400395
 10
111.1608289652654
 20
-128.6784504886637
 10
110.7866915955672
 20
-128.6784504886637
 10
110.4418375374937
 20
-128.6784504886637
 10
110.10869680407
 20
-128.7194471249382
 10
110.10869680407
 20
-128.9978108401464
 97
        0
 97
        0
 75
     2
 76
     1
 98
        0
  0
ENDBLK
  5
106
330
103
100
AcDbEntity
  8
0
100
AcDbBlockEnd
  0
ENDSEC
  0
SECTION
  2
ENTITIES
  0
POLYLINE
  5
41
330
1F
100
AcDbEntity
  8
_U+30EC_U+30A4_U+30E4_U+30FC 1
370
     0
100
AcDb2dPolyline
 66
     1
 10
0.0
 20
0.0
 30
0.0
  0
VERTEX
  5
42
330
41
100
AcDbEntity
  8
_U+30EC_U+30A4_U+30E4_U+30FC 1
370
     0
100
AcDbVertex
100
AcDb2dVertex
 10
67.46462077883413
 20
-154.6324130168977
 30
0.0
  0
VERTEX
  5
43
330
41
100
AcDbEntity
  8
_U+30EC_U+30A4_U+30E4_U+30FC 1
370
     0
100
AcDbVertex
100
AcDb2dVertex
 10
67.11805189878696
 20
-155.232558572303
 30
0.0
  0
VERTEX
  5
44
330
41
100
AcDbEntity
  8
_U+30EC_U+30A4_U+30E4_U+30FC 1
370
     0
100
AcDbVertex
100
AcDb2dVertex
 10
66.7714477409629
 20
-154.6324130168977
 30
0.0
  0
VERTEX
  5
45
330
41
100
AcDbEntity
  8
_U+30EC_U+30A4_U+30E4_U+30FC 1
370
     0
100
AcDbVertex
100
AcDb2dVertex
 10
66.74770579712415
 20
-154.6324130168977
 30
0.0
  0
SEQEND
  5
47
330
41
100
AcDbEntity
  8
_U+30EC_U+30A4_U+30E4_U+30FC 1
370
     0
  0
HATCH
  5
46
330
1F
100
AcDbEntity
  8
_U+30EC_U+30A4_U+30E4_U+30FC 1
 62
   253
420
 11711154
100
AcDbHatch
 10
0.0
 20
0.0
 30
0.0
210
0.0
220
0.0
230
1.0
  2
SOLID
 70
     1
 71
     0
 91
        1
 92
        1
 93
        4
 72
     1
 10
67.46462077883413
 20
-154.6324130168977
 11
67.11805189878694
 21
-155.232558572303
 72
     1
 10
67.11805189878696
 20
-155.232558572303
 11
66.7714477409629
 21
-154.6324130168977
 72
     1
 10
66.7714477409629
 20
-154.6324130168977
 11
66.74770579712415
 21
-154.6324130168977
 72
     1
 10
66.74770579712415
 20
-154.6324130168977
 11
67.46462077883413
 21
-154.6324130168977
 97
        0
 75
     2
 76
     1
 98
        0
  0
POLYLINE
  5
48
330
1F
100
AcDbEntity
  8
_U+30EC_U+30A4_U+30E4_U+30FC 1
370
     0
100
AcDb2dPolyline
 66
     1
 10
0.0
 20
0.0
 30
0.0
  0
VERTEX
  5
49
330
48
100
AcDbEntity
  8
_U+30EC_U+30A4_U+30E4_U+30FC 1
370
     0
100
AcDbVertex
100
AcDb2dVertex
 10
101.7505629596824
 20
-154.6324130168977
 30
0.0
  0
VERTEX
  5
4A
330
48
100
AcDbEntity
  8
_U+30EC_U+30A4_U+30E4_U+30FC 1
370
     0
100
AcDbVertex
100
AcDb2dVertex
 10
86.21800474483989
 20
-154.6324130168977
 30
0.0
  0
VERTEX
  5
4B
330
48
100
AcDbEntity
  8
_U+30EC_U+30A4_U+30E4_U+30FC 1
370
     0
100
AcDbVertex
100
AcDb2dVertex
 10
86.21800474483989
 20
-104.6323719182863
 30
0.0
  0
VERTEX
  5
4C
330
48
100
AcDbEntity
  8
_U+30EC_U+30A4_U+30E4_U+30FC 1
370
     0
100
AcDbVertex
100
AcDb2dVertex
 10
98.11804555235567
 20
-104.6323719182863
 30
0.0
  0
VERTEX
  5
4D
330
48
100
AcDbEntity
  8
_U+30EC_U+30A4_U+30E4_U+30FC 1
370
     0
100
AcDbVertex
100
AcDb2dVertex
 10
98.11804555235567
 20
-103.4327863630308
 30
0.0
  0
VERTEX
  5
4E
330
48
100
AcDbEntity
  8
_U+30EC_U+30A4_U+30E4_U+30FC 1
370
     0
100
AcDbVertex
100
AcDb2dVertex
 10
73.11802563460375
 20
-103.4327863630308
 30
0.0
  0
VERTEX
  5
4F
330
48
100
AcDbEntity
  8
_U+30EC_U+30A4_U+30E4_U+30FC 1
370
     0
100
AcDbVertex
100
AcDb2dVertex
 10
73.11802563460375
 20
-104.6323719182863
 30
0.0
  0
VERTEX
  5
50
330
48
100
AcDbEntity
  8
_U+30EC_U+30A4_U+30E4_U+30FC 1
370
     0
100
AcDbVertex
100
AcDb2dVertex
 10
85.01806644211953
 20
-104.6323719182863
 30
0.0
  0
VERTEX
  5
51
330
48
100
AcDbEntity
  8
_U+30EC_U+30A4_U+30E4_U+30FC 1
370
     0
100
AcDbVertex
100
AcDb2dVertex
 10
85.01806644211953
 20
-154.6324130168977
 30
0.0
  0
VERTEX
  5
52
330
48
100
AcDbEntity
  8
_U+30EC_U+30A4_U+30E4_U+30FC 1
370
     0
100
AcDbVertex
100
AcDb2dVertex
 10
67.46462077883413
 20
-154.6324130168977
 30
0.0
  0
SEQEND
  5
54
330
48
100
AcDbEntity
  8
_U+30EC_U+30A4_U+30E4_U+30FC 1
370
     0
  0
HATCH
  5
53
330
1F
100
AcDbEntity
  8
_U+30EC_U+30A4_U+30E4_U+30FC 1
 62
   253
420
 11711154
100
AcDbHatch
 10
0.0
 20
0.0
 30
0.0
210
0.0
220
0.0
230
1.0
  2
SOLID
 70
     1
 71
     0
 91
        1
 92
        1
 93
       10
 72
     1
 10
101.7505629596824
 20
-154.6324130168977
 11
86.21800474483989
 21
-154.6324130168977
 72
     1
 10
86.21800474483989
 20
-154.6324130168977
 11
86.21800474483989
 21
-104.6323719182863
 72
     1
 10
86.21800474483989
 20
-104.6323719182863
 11
98.11804555235567
 21
-104.6323719182863
 72
     1
 10
98.11804555235567
 20
-104.6323719182863
 11
98.11804555235567
 21
-103.4327863630308
 72
     1
 10
98.11804555235567
 20
-103.4327863630308
 11
73.11802563460375
 21
-103.4327863630308
 72
     1
 10
73.11802563460375
 20
-103.4327863630308
 11
73.11802563460375
 21
-104.6323719182863
 72
     1
 10
73.11802563460375
 20
-104.6323719182863
 11
85.01806644211953
 21
-104.6323719182863
 72
     1
 10
85.01806644211953
 20
-104.6323719182863
 11
85.01806644211953
 21
-154.6324130168977
 72
     1
 10
85.01806644211953
 20
-154.6324130168977
 11
67.46462077883413
 21
-154.6324130168977
 72
     1
 10
67.46462077883413
 20
-154.6324130168977
 11
101.7505629596824
 21
-154.6324130168977
 97
        0
 75
     2
 76
     1
 98
        0
  0
POLYLINE
  5
55
330
1F
100
AcDbEntity
  8
_U+30EC_U+30A4_U+30E4_U+30FC 1
370
     0
100
AcDb2dPolyline
 66
     1
 10
0.0
 20
0.0
 30
0.0
  0
VERTEX
  5
56
330
55
100
AcDbEntity
  8
_U+30EC_U+30A4_U+30E4_U+30FC 1
370
     0
100
AcDbVertex
100
AcDb2dVertex
 10
102.4643734970272
 20
-154.6324130168977
 30
0.0
  0
VERTEX
  5
57
330
55
100
AcDbEntity
  8
_U+30EC_U+30A4_U+30E4_U+30FC 1
370
     0
100
AcDbVertex
100
AcDb2dVertex
 10
102.1181573947488
 20
-155.232558572303
 30
0.0
  0
VERTEX
  5
58
330
55
100
AcDbEntity
  8
_U+30EC_U+30A4_U+30E4_U+30FC 1
370
     0
100
AcDbVertex
100
AcDb2dVertex
 10
101.7715532369247
 20
-154.6324130168977
 30
0.0
  0
VERTEX
  5
59
330
55
100
AcDbEntity
  8
_U+30EC_U+30A4_U+30E4_U+30FC 1
370
     0
100
AcDbVertex
100
AcDb2dVertex
 10
101.7505629596824
 20
-154.6324130168977
 30
0.0
  0
SEQEND
  5
5B
330
55
100
AcDbEntity
  8
_U+30EC_U+30A4_U+30E4_U+30FC 1
370
     0
  0
HATCH
  5
5A
330
1F
100
AcDbEntity
  8
_U+30EC_U+30A4_U+30E4_U+30FC 1
 62
   253
420
 11711154
100
AcDbHatch
 10
0.0
 20
0.0
 30
0.0
210
0.0
220
0.0
230
1.0
  2
SOLID
 70
     1
 71
     0
 91
        1
 92
        1
 93
        4
 72
     1
 10
102.4643734970272
 20
-154.6324130168977
 11
102.1181573947488
 21
-155.232558572303
 72
     1
 10
102.1181573947488
 20
-155.232558572303
 11
101.7715532369247
 21
-154.6324130168977
 72
     1
 10
101.7715532369247
 20
-154.6324130168977
 11
101.7505629596824
 21
-154.6324130168977
 72
     1
 10
101.7505629596824
 20
-154.6324130168977
 11
102.4643734970272
 21
-154.6324130168977
 97
        0
 75
     2
 76
     1
 98
        0
  0
POLYLINE
  5
5C
330
1F
100
AcDbEntity
  8
_U+30EC_U+30A4_U+30E4_U+30FC 1
370
     0
100
AcDb2dPolyline
 66
     1
 10
0.0
 20
0.0
 30
0.0
  0
VERTEX
  5
5D
330
5C
100
AcDbEntity
  8
_U+30EC_U+30A4_U+30E4_U+30FC 1
370
     0
100
AcDbVertex
100
AcDb2dVertex
 10
66.74770579712415
 20
-154.6324130168977
 30
0.0
  0
VERTEX
  5
5E
330
5C
100
AcDbEntity
  8
_U+30EC_U+30A4_U+30E4_U+30FC 1
370
     0
100
AcDbVertex
100
AcDb2dVertex
 10
63.11829442866475
 20
-154.6324130168977
 30
0.0
  0
VERTEX
  5
5F
330
5C
100
AcDbEntity
  8
_U+30EC_U+30A4_U+30E4_U+30FC 1
370
     0
100
AcDbVertex
100
AcDb2dVertex
 10
63.11829442866475
 20
-155.8327041277084
 30
0.0
  0
VERTEX
  5
60
330
5C
100
AcDbEntity
  8
_U+30EC_U+30A4_U+30E4_U+30FC 1
370
     0
100
AcDbVertex
100
AcDb2dVertex
 10
108.1181311305656
 20
-155.8327041277084
 30
0.0
  0
VERTEX
  5
61
330
5C
100
AcDbEntity
  8
_U+30EC_U+30A4_U+30E4_U+30FC 1
370
     0
100
AcDbVertex
100
AcDb2dVertex
 10
108.1181311305656
 20
-154.6324130168977
 30
0.0
  0
VERTEX
  5
62
330
5C
100
AcDbEntity
  8
_U+30EC_U+30A4_U+30E4_U+30FC 1
370
     0
100
AcDbVertex
100
AcDb2dVertex
 10
102.4643734970272
 20
-154.6324130168977
 30
0.0
  0
SEQEND
  5
64
330
5C
100
AcDbEntity
  8
_U+30EC_U+30A4_U+30E4_U+30FC 1
370
     0
  0
HATCH
  5
63
330
1F
100
AcDbEntity
  8
_U+30EC_U+30A4_U+30E4_U+30FC 1
 62
   253
420
 11711154
100
AcDbHatch
 10
0.0
 20
0.0
 30
0.0
210
0.0
220
0.0
230
1.0
  2
SOLID
 70
     1
 71
     0
 91
        1
 92
        1
 93
        6
 72
     1
 10
66.74770579712415
 20
-154.6324130168977
 11
63.11829442866475
 21
-154.6324130168977
 72
     1
 10
63.11829442866475
 20
-154.6324130168977
 11
63.11829442866475
 21
-155.8327041277084
 72
     1
 10
63.11829442866475
 20
-155.8327041277084
 11
108.1181311305656
 21
-155.8327041277084
 72
     1
 10
108.1181311305656
 20
-155.8327041277084
 11
108.1181311305656
 21
-154.6324130168977
 72
     1
 10
108.1181311305656
 20
-154.6324130168977
 11
102.4643734970272
 21
-154.6324130168977
 72
     1
 10
102.4643734970272
 20
-154.6324130168977
 11
66.74770579712415
 21
-154.6324130168977
 97
        0
 75
     2
 76
     1
 98
        0
  0
POLYLINE
  5
65
330
1F
100
AcDbEntity
  8
_U+30EC_U+30A4_U+30E4_U+30FC 1
 62
   179
420
  2234388
370
    25
100
AcDb2dPolyline
 66
     1
 10
0.0
 20
0.0
 30
0.0
  0
VERTEX
  5
66
330
65
100
AcDbEntity
  8
_U+30EC_U+30A4_U+30E4_U+30FC 1
 62
   179
420
  2234388
370
    25
100
AcDbVertex
100
AcDb2dVertex
 10
63.11829442866475
 20
-154.6324130168977
 30
0.0
  0
VERTEX
  5
67
330
65
100
AcDbEntity
  8
_U+30EC_U+30A4_U+30E4_U+30FC 1
 62
   179
420
  2234388
370
    25
100
AcDbVertex
100
AcDb2dVertex
 10
66.7714477409629
 20
-154.6324130168977
 30
0.0
  0
SEQEND
  5
68
330
65
100
AcDbEntity
  8
_U+30EC_U+30A4_U+30E4_U+30FC 1
 62
   179
420
  2234388
370
    25
  0
POLYLINE
  5
69
330
1F
100
AcDbEntity
  8
_U+30EC_U+30A4_U+30E4_U+30FC 1
 62
   179
420
  2234388
370
    25
100
AcDb2dPolyline
 66
     1
 10
0.0
 20
0.0
 30
0.0
  0
VERTEX
  5
6A
330
69
100
AcDbEntity
  8
_U+30EC_U+30A4_U+30E4_U+30FC 1
 62
   179
420
  2234388
370
    25
100
AcDbVertex
100
AcDb2dVertex
 10
63.11829442866475
 20
-155.8327041277084
 30
0.0
  0
VERTEX
  5
6B
330
69
100
AcDbEntity
  8
_U+30EC_U+30A4_U+30E4_U+30FC 1
 62
   179
420
  2234388
370
    25
100
AcDbVertex
100
AcDb2dVertex
 10
108.1181311305656
 20
-155.8327041277084
 30
0.0
  0
SEQEND
  5
6C
330
69
100
AcDbEntity
  8
_U+30EC_U+30A4_U+30E4_U+30FC 1
 62
   179
420
  2234388
370
    25
  0
POLYLINE
  5
6D
330
1F
100
AcDbEntity
  8
_U+30EC_U+30A4_U+30E4_U+30FC 1
 62
   179
420
  2234388
370
    25
100
AcDb2dPolyline
 66
     1
 10
0.0
 20
0.0
 30
0.0
  0
VERTEX
  5
6E
330
6D
100
AcDbEntity
  8
_U+30EC_U+30A4_U+30E4_U+30FC 1
 62
   179
420
  2234388
370
    25
100
AcDbVertex
100
AcDb2dVertex
 10
73.11802563460375
 20
-104.6323719182863
 30
0.0
  0
VERTEX
  5
6F
330
6D
100
AcDbEntity
  8
_U+30EC_U+30A4_U+30E4_U+30FC 1
 62
   179
420
  2234388
370
    25
100
AcDbVertex
100
AcDb2dVertex
 10
85.01806644211953
 20
-104.6323719182863
 30
0.0
  0
SEQEND
  5
70
330
6D
100
AcDbEntity
  8
_U+30EC_U+30A4_U+30E4_U+30FC 1
 62
   179
420
  2234388
370
    25
  0
POLYLINE
  5
71
330
1F
100
AcDbEntity
  8
_U+30EC_U+30A4_U+30E4_U+30FC 1
 62
   179
420
  2234388
370
    25
100
AcDb2dPolyline
 66
     1
 10
0.0
 20
0.0
 30
0.0
  0
VERTEX
  5
72
330
71
100
AcDbEntity
  8
_U+30EC_U+30A4_U+30E4_U+30FC 1
 62
   179
420
  2234388
370
    25
100
AcDbVertex
100
AcDb2dVertex
 10
73.11802563460375
 20
-103.4327863630308
 30
0.0
  0
VERTEX
  5
73
330
71
100
AcDbEntity
  8
_U+30EC_U+30A4_U+30E4_U+30FC 1
 62
   179
420
  2234388
370
    25
100
AcDbVertex
100
AcDb2dVertex
 10
98.11804555235567
 20
-103.4327863630308
 30
0.0
  0
SEQEND
  5
74
330
71
100
AcDbEntity
  8
_U+30EC_U+30A4_U+30E4_U+30FC 1
 62
   179
420
  2234388
370
    25
  0
POLYLINE
  5
75
330
1F
100
AcDbEntity
  8
_U+30EC_U+30A4_U+30E4_U+30FC 1
 62
   179
420
  2234388
370
    25
100
AcDb2dPolyline
 66
     1
 10
0.0
 20
0.0
 30
0.0
  0
VERTEX
  5
76
330
75
100
AcDbEntity
  8
_U+30EC_U+30A4_U+30E4_U+30FC 1
 62
   179
420
  2234388
370
    25
100
AcDbVertex
100
AcDb2dVertex
 10
86.21800474483989
 20
-104.6323719182863
 30
0.0
  0
VERTEX
  5
77
330
75
100
AcDbEntity
  8
_U+30EC_U+30A4_U+30E4_U+30FC 1
 62
   179
420
  2234388
370
    25
100
AcDbVertex
100
AcDb2dVertex
 10
86.21800474483989
 20
-154.6324130168977
 30
0.0
  0
SEQEND
  5
78
330
75
100
AcDbEntity
  8
_U+30EC_U+30A4_U+30E4_U+30FC 1
 62
   179
420
  2234388
370
    25
  0
POLYLINE
  5
79
330
1F
100
AcDbEntity
  8
_U+30EC_U+30A4_U+30E4_U+30FC 1
 62
   179
420
  2234388
370
    25
100
AcDb2dPolyline
 66
     1
 10
0.0
 20
0.0
 30
0.0
  0
VERTEX
  5
7A
330
79
100
AcDbEntity
  8
_U+30EC_U+30A4_U+30E4_U+30FC 1
 62
   179
420
  2234388
370
    25
100
AcDbVertex
100
AcDb2dVertex
 10
85.01806644211953
 20
-104.6323719182863
 30
0.0
  0
VERTEX
  5
7B
330
79
100
AcDbEntity
  8
_U+30EC_U+30A4_U+30E4_U+30FC 1
 62
   179
420
  2234388
370
    25
100
AcDbVertex
100
AcDb2dVertex
 10
85.01806644211953
 20
-154.6324130168977
 30
0.0
  0
SEQEND
  5
7C
330
79
100
AcDbEntity
  8
_U+30EC_U+30A4_U+30E4_U+30FC 1
 62
   179
420
  2234388
370
    25
  0
POLYLINE
  5
7D
330
1F
100
AcDbEntity
  8
_U+30EC_U+30A4_U+30E4_U+30FC 1
 62
   179
420
  2234388
370
    25
100
AcDb2dPolyline
 66
     1
 10
0.0
 20
0.0
 30
0.0
  0
VERTEX
  5
7E
330
7D
100
AcDbEntity
  8
_U+30EC_U+30A4_U+30E4_U+30FC 1
 62
   179
420
  2234388
370
    25
100
AcDbVertex
100
AcDb2dVertex
 10
98.11804555235567
 20
-103.4327863630308
 30
0.0
  0
VERTEX
  5
7F
330
7D
100
AcDbEntity
  8
_U+30EC_U+30A4_U+30E4_U+30FC 1
 62
   179
420
  2234388
370
    25
100
AcDbVertex
100
AcDb2dVertex
 10
98.11804555235567
 20
-104.6323719182863
 30
0.0
  0
SEQEND
  5
80
330
7D
100
AcDbEntity
  8
_U+30EC_U+30A4_U+30E4_U+30FC 1
 62
   179
420
  2234388
370
    25
  0
POLYLINE
  5
81
330
1F
100
AcDbEntity
  8
_U+30EC_U+30A4_U+30E4_U+30FC 1
 62
   179
420
  2234388
370
    25
100
AcDb2dPolyline
 66
     1
 10
0.0
 20
0.0
 30
0.0
  0
VERTEX
  5
82
330
81
100
AcDbEntity
  8
_U+30EC_U+30A4_U+30E4_U+30FC 1
 62
   179
420
  2234388
370
    25
100
AcDbVertex
100
AcDb2dVertex
 10
73.11802563460375
 20
-103.4327863630308
 30
0.0
  0
VERTEX
  5
83
330
81
100
AcDbEntity
  8
_U+30EC_U+30A4_U+30E4_U+30FC 1
 62
   179
420
  2234388
370
    25
100
AcDbVertex
100
AcDb2dVertex
 10
73.11802563460375
 20
-104.6323719182863
 30
0.0
  0
SEQEND
  5
84
330
81
100
AcDbEntity
  8
_U+30EC_U+30A4_U+30E4_U+30FC 1
 62
   179
420
  2234388
370
    25
  0
POLYLINE
  5
85
330
1F
100
AcDbEntity
  8
_U+30EC_U+30A4_U+30E4_U+30FC 1
 62
   179
420
  2234388
370
    25
100
AcDb2dPolyline
 66
     1
 10
0.0
 20
0.0
 30
0.0
  0
VERTEX
  5
86
330
85
100
AcDbEntity
  8
_U+30EC_U+30A4_U+30E4_U+30FC 1
 62
   179
420
  2234388
370
    25
100
AcDbVertex
100
AcDb2dVertex
 10
63.11829442866475
 20
-154.6324130168977
 30
0.0
  0
VERTEX
  5
87
330
85
100
AcDbEntity
  8
_U+30EC_U+30A4_U+30E4_U+30FC 1
 62
   179
420
  2234388
370
    25
100
AcDbVertex
100
AcDb2dVertex
 10
63.11829442866475
 20
-155.8327041277084
 30
0.0
  0
SEQEND
  5
88
330
85
100
AcDbEntity
  8
_U+30EC_U+30A4_U+30E4_U+30FC 1
 62
   179
420
  2234388
370
    25
  0
POLYLINE
  5
89
330
1F
100
AcDbEntity
  8
_U+30EC_U+30A4_U+30E4_U+30FC 1
 62
   179
420
  2234388
370
    25
100
AcDb2dPolyline
 66
     1
 10
0.0
 20
0.0
 30
0.0
  0
VERTEX
  5
8A
330
89
100
AcDbEntity
  8
_U+30EC_U+30A4_U+30E4_U+30FC 1
 62
   179
420
  2234388
370
    25
100
AcDbVertex
100
AcDb2dVertex
 10
108.1181311305656
 20
-154.6324130168977
 30
0.0
  0
VERTEX
  5
8B
330
89
100
AcDbEntity
  8
_U+30EC_U+30A4_U+30E4_U+30FC 1
 62
   179
420
  2234388
370
    25
100
AcDbVertex
100
AcDb2dVertex
 10
108.1181311305656
 20
-155.8327041277084
 30
0.0
  0
SEQEND
  5
8C
330
89
100
AcDbEntity
  8
_U+30EC_U+30A4_U+30E4_U+30FC 1
 62
   179
420
  2234388
370
    25
  0
POLYLINE
  5
8D
330
1F
100
AcDbEntity
  8
_U+30EC_U+30A4_U+30E4_U+30FC 1
 62
   179
420
  2234388
370
    25
100
AcDb2dPolyline
 66
     1
 10
0.0
 20
0.0
 30
0.0
  0
VERTEX
  5
8E
330
8D
100
AcDbEntity
  8
_U+30EC_U+30A4_U+30E4_U+30FC 1
 62
   179
420
  2234388
370
    25
100
AcDbVertex
100
AcDb2dVertex
 10
86.21800474483989
 20
-154.6324130168977
 30
0.0
  0
VERTEX
  5
8F
330
8D
100
AcDbEntity
  8
_U+30EC_U+30A4_U+30E4_U+30FC 1
 62
   179
420
  2234388
370
    25
100
AcDbVertex
100
AcDb2dVertex
 10
101.7715532369247
 20
-154.6324130168977
 30
0.0
  0
SEQEND
  5
90
330
8D
100
AcDbEntity
  8
_U+30EC_U+30A4_U+30E4_U+30FC 1
 62
   179
420
  2234388
370
    25
  0
POLYLINE
  5
91
330
1F
100
AcDbEntity
  8
_U+30EC_U+30A4_U+30E4_U+30FC 1
 62
   179
420
  2234388
370
    25
100
AcDb2dPolyline
 66
     1
 10
0.0
 20
0.0
 30
0.0
  0
VERTEX
  5
92
330
91
100
AcDbEntity
  8
_U+30EC_U+30A4_U+30E4_U+30FC 1
 62
   179
420
  2234388
370
    25
100
AcDbVertex
100
AcDb2dVertex
 10
86.21800474483989
 20
-104.6323719182863
 30
0.0
  0
VERTEX
  5
93
330
91
100
AcDbEntity
  8
_U+30EC_U+30A4_U+30E4_U+30FC 1
 62
   179
420
  2234388
370
    25
100
AcDbVertex
100
AcDb2dVertex
 10
98.11804555235567
 20
-104.6323719182863
 30
0.0
  0
SEQEND
  5
94
330
91
100
AcDbEntity
  8
_U+30EC_U+30A4_U+30E4_U+30FC 1
 62
   179
420
  2234388
370
    25
  0
POLYLINE
  5
95
330
1F
100
AcDbEntity
  8
_U+30EC_U+30A4_U+30E4_U+30FC 1
 62
   179
420
  2234388
370
    25
100
AcDb2dPolyline
 66
     1
 10
0.0
 20
0.0
 30
0.0
  0
VERTEX
  5
96
330
95
100
AcDbEntity
  8
_U+30EC_U+30A4_U+30E4_U+30FC 1
 62
   179
420
  2234388
370
    25
100
AcDbVertex
100
AcDb2dVertex
 10
101.7240340714704
 20
-154.6324130168977
 30
0.0
  0
VERTEX
  5
97
330
95
100
AcDbEntity
  8
_U+30EC_U+30A4_U+30E4_U+30FC 1
 62
   179
420
  2234388
370
    25
100
AcDbVertex
100
AcDb2dVertex
 10
108.1181311305656
 20
-154.6324130168977
 30
0.0
  0
SEQEND
  5
98
330
95
100
AcDbEntity
  8
_U+30EC_U+30A4_U+30E4_U+30FC 1
 62
   179
420
  2234388
370
    25
  0
POLYLINE
  5
99
330
1F
100
AcDbEntity
  8
_U+30EC_U+30A4_U+30E4_U+30FC 1
 62
   179
420
  2234388
370
    25
100
AcDb2dPolyline
 66
     1
 10
0.0
 20
0.0
 30
0.0
  0
VERTEX
  5
9A
330
99
100
AcDbEntity
  8
_U+30EC_U+30A4_U+30E4_U+30FC 1
 62
   179
420
  2234388
370
    25
100
AcDbVertex
100
AcDb2dVertex
 10
66.74770579712415
 20
-154.6324130168977
 30
0.0
  0
VERTEX
  5
9B
330
99
100
AcDbEntity
  8
_U+30EC_U+30A4_U+30E4_U+30FC 1
 62
   179
420
  2234388
370
    25
100
AcDbVertex
100
AcDb2dVertex
 10
85.01806644211953
 20
-154.6324130168977
 30
0.0
  0
SEQEND
  5
9C
330
99
100
AcDbEntity
  8
_U+30EC_U+30A4_U+30E4_U+30FC 1
 62
   179
420
  2234388
370
    25
  0
SPLINE
  5
9D
330
1F
100
AcDbEntity
  8
_U+30EC_U+30A4_U+30E4_U+30FC 1
 62
   179
420
  2234388
370
     9
100
AcDbSpline
210
0.0
220
0.0
230
1.0
 70
    11
 71
     3
 72
    17
 73
    13
 74
     0
 42
0.0000000001
 43
0.0000000001
 12
1.0
 22
0.0
 32
0.0
 13
1.0
 23
0.0
 33
0.0
 40
0.0
 40
0.0
 40
0.0
 40
0.0
 40
1.0
 40
1.0
 40
1.0
 40
2.0
 40
2.0
 40
2.0
 40
3.0
 40
3.0
 40
3.0
 40
4.0
 40
4.0
 40
4.0
 40
4.0
 10
73.21793229872159
 20
-99.43235691958624
 30
0.0
 10
73.21793229872159
 20
-99.37721775293349
 30
0.0
 10
73.17312952208682
 20
-99.33245025294461
 30
0.0
 10
73.11802563460375
 20
-99.33245025294461
 30
0.0
 10
73.06288646934381
 20
-99.33245025294461
 30
0.0
 10
73.01811897048593
 20
-99.37721775293349
 30
0.0
 10
73.01811897048593
 20
-99.43235691958624
 30
0.0
 10
73.01811897048593
 20
-99.488166364017
 30
0.0
 10
73.06288646934381
 20
-99.53293386400556
 30
0.0
 10
73.11802563460375
 20
-99.53293386400556
 30
0.0
 10
73.17312952208682
 20
-99.53293386400556
 30
0.0
 10
73.21793229872159
 20
-99.488166364017
 30
0.0
 10
73.21793229872159
 20
-99.43235691958624
 30
0.0
  0
SPLINE
  5
9E
330
1F
100
AcDbEntity
  8
_U+30EC_U+30A4_U+30E4_U+30FC 1
 62
   179
420
  2234388
370
     9
100
AcDbSpline
210
0.0
220
0.0
230
1.0
 70
    11
 71
     3
 72
    17
 73
    13
 74
     0
 42
0.0000000001
 43
0.0000000001
 12
1.0
 22
0.0
 32
0.0
 13
1.0
 23
0.0
 33
0.0
 40
0.0
 40
0.0
 40
0.0
 40
0.0
 40
1.0
 40
1.0
 40
1.0
 40
2.0
 40
2.0
 40
2.0
 40
3.0
 40
3.0
 40
3.0
 40
4.0
 40
4.0
 40
4.0
 40
4.0
 10
98.2179522164735
 20
-99.43235691958624
 30
0.0
 10
98.2179522164735
 20
-99.37721775293349
 30
0.0
 10
98.17314943983874
 20
-99.33245025294461
 30
0.0
 10
98.11804555235567
 20
-99.33245025294461
 30
0.0
 10
98.06290638709572
 20
-99.33245025294461
 30
0.0
 10
98.01813888823783
 20
-99.37721775293349
 30
0.0
 10
98.01813888823783
 20
-99.43235691958624
 30
0.0
 10
98.01813888823783
 20
-99.488166364017
 30
0.0
 10
98.06290638709572
 20
-99.53293386400556
 30
0.0
 10
98.11804555235567
 20
-99.53293386400556
 30
0.0
 10
98.17314943983874
 20
-99.53293386400556
 30
0.0
 10
98.2179522164735
 20
-99.488166364017
 30
0.0
 10
98.2179522164735
 20
-99.43235691958624
 30
0.0
  0
SPLINE
  5
9F
330
1F
100
AcDbEntity
  8
_U+30EC_U+30A4_U+30E4_U+30FC 1
 62
   179
420
  2234388
370
     9
100
AcDbSpline
210
0.0
220
0.0
230
1.0
 70
    11
 71
     3
 72
    17
 73
    13
 74
     0
 42
0.0000000001
 43
0.0000000001
 12
1.0
 22
0.0
 32
0.0
 13
1.0
 23
0.0
 33
0.0
 40
0.0
 40
0.0
 40
0.0
 40
0.0
 40
1.0
 40
1.0
 40
1.0
 40
2.0
 40
2.0
 40
2.0
 40
3.0
 40
3.0
 40
3.0
 40
4.0
 40
4.0
 40
4.0
 40
4.0
 10
112.2181143592996
 20
-104.6323719182863
 30
0.0
 10
112.2181143592996
 20
-104.5772680294114
 30
0.0
 10
112.1733468604417
 20
-104.5324652516447
 30
0.0
 10
112.1182076951818
 20
-104.5324652516447
 30
0.0
 10
112.0627510299299
 20
-104.5324652516447
 30
0.0
 10
112.017983531072
 20
-104.5772680294114
 30
0.0
 10
112.017983531072
 20
-104.6323719182863
 30
0.0
 10
112.017983531072
 20
-104.6881813627167
 30
0.0
 10
112.0627510299299
 20
-104.7329841404835
 30
0.0
 10
112.1182076951818
 20
-104.7329841404835
 30
0.0
 10
112.1733468604417
 20
-104.7329841404835
 30
0.0
 10
112.2181143592996
 20
-104.6881813627167
 30
0.0
 10
112.2181143592996
 20
-104.6323719182863
 30
0.0
  0
SPLINE
  5
A0
330
1F
100
AcDbEntity
  8
_U+30EC_U+30A4_U+30E4_U+30FC 1
 62
   179
420
  2234388
370
     9
100
AcDbSpline
210
0.0
220
0.0
230
1.0
 70
    11
 71
     3
 72
    17
 73
    13
 74
     0
 42
0.0000000001
 43
0.0000000001
 12
1.0
 22
0.0
 32
0.0
 13
1.0
 23
0.0
 33
0.0
 40
0.0
 40
0.0
 40
0.0
 40
0.0
 40
1.0
 40
1.0
 40
1.0
 40
2.0
 40
2.0
 40
2.0
 40
3.0
 40
3.0
 40
3.0
 40
4.0
 40
4.0
 40
4.0
 40
4.0
 10
112.2181143592996
 20
-154.6324130168977
 30
0.0
 10
112.2181143592996
 20
-154.5773091280221
 30
0.0
 10
112.1733468604417
 20
-154.5325063502561
 30
0.0
 10
112.1182076951818
 20
-154.5325063502561
 30
0.0
 10
112.0627510299299
 20
-154.5325063502561
 30
0.0
 10
112.017983531072
 20
-154.5773091280221
 30
0.0
 10
112.017983531072
 20
-154.6324130168977
 30
0.0
 10
112.017983531072
 20
-154.6875521835501
 30
0.0
 10
112.0627510299299
 20
-154.7323196835393
 30
0.0
 10
112.1182076951818
 20
-154.7323196835393
 30
0.0
 10
112.1733468604417
 20
-154.7323196835393
 30
0.0
 10
112.2181143592996
 20
-154.6875521835501
 30
0.0
 10
112.2181143592996
 20
-154.6324130168977
 30
0.0
  0
SPLINE
  5
A1
330
1F
100
AcDbEntity
  8
_U+30EC_U+30A4_U+30E4_U+30FC 1
 62
   179
420
  2234388
370
     9
100
AcDbSpline
210
0.0
220
0.0
230
1.0
 70
    11
 71
     3
 72
    17
 73
    13
 74
     0
 42
0.0000000001
 43
0.0000000001
 12
1.0
 22
0.0
 32
0.0
 13
1.0
 23
0.0
 33
0.0
 40
0.0
 40
0.0
 40
0.0
 40
0.0
 40
1.0
 40
1.0
 40
1.0
 40
2.0
 40
2.0
 40
2.0
 40
3.0
 40
3.0
 40
3.0
 40
4.0
 40
4.0
 40
4.0
 40
4.0
 10
112.2181143592996
 20
-155.8327041277084
 30
0.0
 10
112.2181143592996
 20
-155.7775649610553
 30
0.0
 10
112.1733468604417
 20
-155.7327974610668
 30
0.0
 10
112.1182076951818
 20
-155.7327974610668
 30
0.0
 10
112.0627510299299
 20
-155.7327974610668
 30
0.0
 10
112.017983531072
 20
-155.7775649610553
 30
0.0
 10
112.017983531072
 20
-155.8327041277084
 30
0.0
 10
112.017983531072
 20
-155.8878080165833
 30
0.0
 10
112.0627510299299
 20
-155.93261079435
 30
0.0
 10
112.1182076951818
 20
-155.93261079435
 30
0.0
 10
112.1733468604417
 20
-155.93261079435
 30
0.0
 10
112.2181143592996
 20
-155.8878080165833
 30
0.0
 10
112.2181143592996
 20
-155.8327041277084
 30
0.0
  0
SPLINE
  5
A2
330
1F
100
AcDbEntity
  8
_U+30EC_U+30A4_U+30E4_U+30FC 1
 62
   179
420
  2234388
370
     9
100
AcDbSpline
210
0.0
220
0.0
230
1.0
 70
    11
 71
     3
 72
    17
 73
    13
 74
     0
 42
0.0000000001
 43
0.0000000001
 12
1.0
 22
0.0
 32
0.0
 13
1.0
 23
0.0
 33
0.0
 40
0.0
 40
0.0
 40
0.0
 40
0.0
 40
1.0
 40
1.0
 40
1.0
 40
2.0
 40
2.0
 40
2.0
 40
3.0
 40
3.0
 40
3.0
 40
4.0
 40
4.0
 40
4.0
 40
4.0
 10
108.2180377946834
 20
-159.8324632933753
 30
0.0
 10
108.2180377946834
 20
-159.7773241267222
 30
0.0
 10
108.1732350180486
 20
-159.7325566267336
 30
0.0
 10
108.1181311305656
 20
-159.7325566267336
 30
0.0
 10
108.0629919653056
 20
-159.7325566267336
 30
0.0
 10
108.0182244664477
 20
-159.7773241267222
 30
0.0
 10
108.0182244664477
 20
-159.8324632933753
 30
0.0
 10
108.0182244664477
 20
-159.8875671822502
 30
0.0
 10
108.0629919653056
 20
-159.9323699600169
 30
0.0
 10
108.1181311305656
 20
-159.9323699600169
 30
0.0
 10
108.1732350180486
 20
-159.9323699600169
 30
0.0
 10
108.2180377946834
 20
-159.8875671822502
 30
0.0
 10
108.2180377946834
 20
-159.8324632933753
 30
0.0
  0
SPLINE
  5
A3
330
1F
100
AcDbEntity
  8
_U+30EC_U+30A4_U+30E4_U+30FC 1
 62
   179
420
  2234388
370
     9
100
AcDbSpline
210
0.0
220
0.0
230
1.0
 70
    11
 71
     3
 72
    17
 73
    13
 74
     0
 42
0.0000000001
 43
0.0000000001
 12
1.0
 22
0.0
 32
0.0
 13
1.0
 23
0.0
 33
0.0
 40
0.0
 40
0.0
 40
0.0
 40
0.0
 40
1.0
 40
1.0
 40
1.0
 40
2.0
 40
2.0
 40
2.0
 40
3.0
 40
3.0
 40
3.0
 40
4.0
 40
4.0
 40
4.0
 40
4.0
 10
63.21819949828048
 20
-159.8324632933753
 30
0.0
 10
63.21819949828048
 20
-159.7773241267222
 30
0.0
 10
63.17339672164571
 20
-159.7325566267336
 30
0.0
 10
63.11829442866475
 20
-159.7325566267336
 30
0.0
 10
63.06280089113391
 20
-159.7325566267336
 30
0.0
 10
63.01803339227602
 20
-159.7773241267222
 30
0.0
 10
63.01803339227602
 20
-159.8324632933753
 30
0.0
 10
63.01803339227602
 20
-159.8875671822502
 30
0.0
 10
63.06280089113391
 20
-159.9323699600169
 30
0.0
 10
63.11829442866475
 20
-159.9323699600169
 30
0.0
 10
63.17339672164571
 20
-159.9323699600169
 30
0.0
 10
63.21819949828048
 20
-159.8875671822502
 30
0.0
 10
63.21819949828048
 20
-159.8324632933753
 30
0.0
  0
POLYLINE
  5
A4
330
1F
100
AcDbEntity
  8
_U+30EC_U+30A4_U+30E4_U+30FC 1
 62
   179
420
  2234388
370
     9
100
AcDb2dPolyline
 66
     1
 10
0.0
 20
0.0
 30
0.0
  0
VERTEX
  5
A5
330
A4
100
AcDbEntity
  8
_U+30EC_U+30A4_U+30E4_U+30FC 1
 62
   179
420
  2234388
370
     9
100
AcDbVertex
100
AcDb2dVertex
 10
73.11802563460375
 20
-99.43235691958624
 30
0.0
  0
VERTEX
  5
A6
330
A4
100
AcDbEntity
  8
_U+30EC_U+30A4_U+30E4_U+30FC 1
 62
   179
420
  2234388
370
     9
100
AcDbVertex
100
AcDb2dVertex
 10
98.11804555235567
 20
-99.43235691958624
 30
0.0
  0
SEQEND
  5
A7
330
A4
100
AcDbEntity
  8
_U+30EC_U+30A4_U+30E4_U+30FC 1
 62
   179
420
  2234388
370
     9
  0
POLYLINE
  5
A8
330
1F
100
AcDbEntity
  8
_U+30EC_U+30A4_U+30E4_U+30FC 1
 62
   179
420
  2234388
370
     9
100
AcDb2dPolyline
 66
     1
 10
0.0
 20
0.0
 30
0.0
  0
VERTEX
  5
A9
330
A8
100
AcDbEntity
  8
_U+30EC_U+30A4_U+30E4_U+30FC 1
 62
   179
420
  2234388
370
     9
100
AcDbVertex
100
AcDb2dVertex
 10
73.11802563460375
 20
-100.8923630303324
 30
0.0
  0
VERTEX
  5
AA
330
A8
100
AcDbEntity
  8
_U+30EC_U+30A4_U+30E4_U+30FC 1
 62
   179
420
  2234388
370
     9
100
AcDbVertex
100
AcDb2dVertex
 10
73.11802563460375
 20
-98.43258469761402
 30
0.0
  0
SEQEND
  5
AB
330
A8
100
AcDbEntity
  8
_U+30EC_U+30A4_U+30E4_U+30FC 1
 62
   179
420
  2234388
370
     9
  0
POLYLINE
  5
AC
330
1F
100
AcDbEntity
  8
_U+30EC_U+30A4_U+30E4_U+30FC 1
 62
   179
420
  2234388
370
     9
100
AcDb2dPolyline
 66
     1
 10
0.0
 20
0.0
 30
0.0
  0
VERTEX
  5
AD
330
AC
100
AcDbEntity
  8
_U+30EC_U+30A4_U+30E4_U+30FC 1
 62
   179
420
  2234388
370
     9
100
AcDbVertex
100
AcDb2dVertex
 10
98.11804555235567
 20
-100.8923630303324
 30
0.0
  0
VERTEX
  5
AE
330
AC
100
AcDbEntity
  8
_U+30EC_U+30A4_U+30E4_U+30FC 1
 62
   179
420
  2234388
370
     9
100
AcDbVertex
100
AcDb2dVertex
 10
98.11804555235567
 20
-98.43258469761402
 30
0.0
  0
SEQEND
  5
AF
330
AC
100
AcDbEntity
  8
_U+30EC_U+30A4_U+30E4_U+30FC 1
 62
   179
420
  2234388
370
     9
  0
INSERT
  5
B1
330
1F
100
AcDbEntity
  8
_U+30EC_U+30A4_U+30E4_U+30FC 1
100
AcDbBlockReference
  2
block 2
 10
0.0
 20
0.0
 30
0.0
  0
POLYLINE
  5
B8
330
1F
100
AcDbEntity
  8
_U+30EC_U+30A4_U+30E4_U+30FC 1
 62
   179
420
  2234388
370
     9
100
AcDb2dPolyline
 66
     1
 10
0.0
 20
0.0
 30
0.0
  0
VERTEX
  5
B9
330
B8
100
AcDbEntity
  8
_U+30EC_U+30A4_U+30E4_U+30FC 1
 62
   179
420
  2234388
370
     9
100
AcDbVertex
100
AcDb2dVertex
 10
63.11829442866475
 20
-159.8324632933753
 30
0.0
  0
VERTEX
  5
BA
330
B8
100
AcDbEntity
  8
_U+30EC_U+30A4_U+30E4_U+30FC 1
 62
   179
420
  2234388
370
     9
100
AcDbVertex
100
AcDb2dVertex
 10
108.1181311305656
 20
-159.8324632933753
 30
0.0
  0
SEQEND
  5
BB
330
B8
100
AcDbEntity
  8
_U+30EC_U+30A4_U+30E4_U+30FC 1
 62
   179
420
  2234388
370
     9
  0
POLYLINE
  5
BC
330
1F
100
AcDbEntity
  8
_U+30EC_U+30A4_U+30E4_U+30FC 1
 62
   179
420
  2234388
370
     9
100
AcDb2dPolyline
 66
     1
 10
0.0
 20
0.0
 30
0.0
  0
VERTEX
  5
BD
330
BC
100
AcDbEntity
  8
_U+30EC_U+30A4_U+30E4_U+30FC 1
 62
   179
420
  2234388
370
     9
100
AcDbVertex
100
AcDb2dVertex
 10
63.11829442866475
 20
-158.3724219048516
 30
0.0
  0
VERTEX
  5
BE
330
BC
100
AcDbEntity
  8
_U+30EC_U+30A4_U+30E4_U+30FC 1
 62
   179
420
  2234388
370
     9
100
AcDbVertex
100
AcDb2dVertex
 10
63.11829442866475
 20
-160.8329057931252
 30
0.0
  0
SEQEND
  5
BF
330
BC
100
AcDbEntity
  8
_U+30EC_U+30A4_U+30E4_U+30FC 1
 62
   179
420
  2234388
370
     9
  0
POLYLINE
  5
C0
330
1F
100
AcDbEntity
  8
_U+30EC_U+30A4_U+30E4_U+30FC 1
 62
   179
420
  2234388
370
     9
100
AcDb2dPolyline
 66
     1
 10
0.0
 20
0.0
 30
0.0
  0
VERTEX
  5
C1
330
C0
100
AcDbEntity
  8
_U+30EC_U+30A4_U+30E4_U+30FC 1
 62
   179
420
  2234388
370
     9
100
AcDbVertex
100
AcDb2dVertex
 10
108.1181311305656
 20
-158.3724219048516
 30
0.0
  0
VERTEX
  5
C2
330
C0
100
AcDbEntity
  8
_U+30EC_U+30A4_U+30E4_U+30FC 1
 62
   179
420
  2234388
370
     9
100
AcDbVertex
100
AcDb2dVertex
 10
108.1181311305656
 20
-160.8329057931252
 30
0.0
  0
SEQEND
  5
C3
330
C0
100
AcDbEntity
  8
_U+30EC_U+30A4_U+30E4_U+30FC 1
 62
   179
420
  2234388
370
     9
  0
INSERT
  5
C5
330
1F
100
AcDbEntity
  8
_U+30EC_U+30A4_U+30E4_U+30FC 1
100
AcDbBlockReference
  2
block 3
 10
0.0
 20
0.0
 30
0.0
  0
POLYLINE
  5
DF
330
1F
100
AcDbEntity
  8
_U+30EC_U+30A4_U+30E4_U+30FC 1
 62
   179
420
  2234388
370
     9
100
AcDb2dPolyline
 66
     1
 10
0.0
 20
0.0
 30
0.0
  0
VERTEX
  5
E0
330
DF
100
AcDbEntity
  8
_U+30EC_U+30A4_U+30E4_U+30FC 1
 62
   179
420
  2234388
370
     9
100
AcDbVertex
100
AcDb2dVertex
 10
112.1182076951818
 20
-155.8327041277084
 30
0.0
  0
VERTEX
  5
E1
330
DF
100
AcDbEntity
  8
_U+30EC_U+30A4_U+30E4_U+30FC 1
 62
   179
420
  2234388
370
     9
100
AcDbVertex
100
AcDb2dVertex
 10
112.1182076951818
 20
-154.6324130168977
 30
0.0
  0
SEQEND
  5
E2
330
DF
100
AcDbEntity
  8
_U+30EC_U+30A4_U+30E4_U+30FC 1
 62
   179
420
  2234388
370
     9
  0
POLYLINE
  5
E3
330
1F
100
AcDbEntity
  8
_U+30EC_U+30A4_U+30E4_U+30FC 1
 62
   179
420
  2234388
370
     9
100
AcDb2dPolyline
 66
     1
 10
0.0
 20
0.0
 30
0.0
  0
VERTEX
  5
E4
330
E3
100
AcDbEntity
  8
_U+30EC_U+30A4_U+30E4_U+30FC 1
 62
   179
420
  2234388
370
     9
100
AcDbVertex
100
AcDb2dVertex
 10
110.6582016213185
 20
-155.8327041277084
 30
0.0
  0
VERTEX
  5
E5
330
E3
100
AcDbEntity
  8
_U+30EC_U+30A4_U+30E4_U+30FC 1
 62
   179
420
  2234388
370
     9
100
AcDbVertex
100
AcDb2dVertex
 10
113.1179798918977
 20
-155.8327041277084
 30
0.0
  0
SEQEND
  5
E6
330
E3
100
AcDbEntity
  8
_U+30EC_U+30A4_U+30E4_U+30FC 1
 62
   179
420
  2234388
370
     9
  0
POLYLINE
  5
E7
330
1F
100
AcDbEntity
  8
_U+30EC_U+30A4_U+30E4_U+30FC 1
 62
   179
420
  2234388
370
     9
100
AcDb2dPolyline
 66
     1
 10
0.0
 20
0.0
 30
0.0
  0
VERTEX
  5
E8
330
E7
100
AcDbEntity
  8
_U+30EC_U+30A4_U+30E4_U+30FC 1
 62
   179
420
  2234388
370
     9
100
AcDbVertex
100
AcDb2dVertex
 10
110.6582016213185
 20
-154.6324130168977
 30
0.0
  0
VERTEX
  5
E9
330
E7
100
AcDbEntity
  8
_U+30EC_U+30A4_U+30E4_U+30FC 1
 62
   179
420
  2234388
370
     9
100
AcDbVertex
100
AcDb2dVertex
 10
113.1179798918977
 20
-154.6324130168977
 30
0.0
  0
SEQEND
  5
EA
330
E7
100
AcDbEntity
  8
_U+30EC_U+30A4_U+30E4_U+30FC 1
 62
   179
420
  2234388
370
     9
  0
INSERT
  5
EC
330
1F
100
AcDbEntity
  8
_U+30EC_U+30A4_U+30E4_U+30FC 1
100
AcDbBlockReference
  2
block 4
 10
0.0
 20
0.0
 30
0.0
  0
POLYLINE
  5
FB
330
1F
100
AcDbEntity
  8
_U+30EC_U+30A4_U+30E4_U+30FC 1
 62
   179
420
  2234388
370
     9
100
AcDb2dPolyline
 66
     1
 10
0.0
 20
0.0
 30
0.0
  0
VERTEX
  5
FC
330
FB
100
AcDbEntity
  8
_U+30EC_U+30A4_U+30E4_U+30FC 1
 62
   179
420
  2234388
370
     9
100
AcDbVertex
100
AcDb2dVertex
 10
112.1182076951818
 20
-154.6324130168977
 30
0.0
  0
VERTEX
  5
FD
330
FB
100
AcDbEntity
  8
_U+30EC_U+30A4_U+30E4_U+30FC 1
 62
   179
420
  2234388
370
     9
100
AcDbVertex
100
AcDb2dVertex
 10
112.1182076951818
 20
-104.6323719182863
 30
0.0
  0
SEQEND
  5
FE
330
FB
100
AcDbEntity
  8
_U+30EC_U+30A4_U+30E4_U+30FC 1
 62
   179
420
  2234388
370
     9
  0
POLYLINE
  5
FF
330
1F
100
AcDbEntity
  8
_U+30EC_U+30A4_U+30E4_U+30FC 1
 62
   179
420
  2234388
370
     9
100
AcDb2dPolyline
 66
     1
 10
0.0
 20
0.0
 30
0.0
  0
VERTEX
  5
100
330
FF
100
AcDbEntity
  8
_U+30EC_U+30A4_U+30E4_U+30FC 1
 62
   179
420
  2234388
370
     9
100
AcDbVertex
100
AcDb2dVertex
 10
100.6581160431086
 20
-104.6323719182863
 30
0.0
  0
VERTEX
  5
101
330
FF
100
AcDbEntity
  8
_U+30EC_U+30A4_U+30E4_U+30FC 1
 62
   179
420
  2234388
370
     9
100
AcDbVertex
100
AcDb2dVertex
 10
113.1179798918977
 20
-104.6323719182863
 30
0.0
  0
SEQEND
  5
102
330
FF
100
AcDbEntity
  8
_U+30EC_U+30A4_U+30E4_U+30FC 1
 62
   179
420
  2234388
370
     9
  0
INSERT
  5
104
330
1F
100
AcDbEntity
  8
_U+30EC_U+30A4_U+30E4_U+30FC 1
100
AcDbBlockReference
  2
block 5
 10
0.0
 20
0.0
 30
0.0
  0
ENDSEC
  0
SECTION
  2
OBJECTS
  0
DICTIONARY
  5
C
330
0
100
AcDbDictionary
281
     1
  3
ACAD_GROUP
350
D
  3
ACAD_LAYOUT
350
1A
  3
ACAD_MATERIAL
350
3B
  3
ACAD_MLEADERSTYLE
350
10D
  3
ACAD_MLINESTYLE
350
17
  3
ACAD_PLOTSETTINGS
350
19
  3
ACAD_PLOTSTYLENAME
350
E
  3
ACAD_TABLESTYLE
350
10C
  3
ACAD_VISUALSTYLE
350
2A
  0
SUN
  5
3F
330
29
100
AcDbSun
 90
        1
290
     0
 63
     7
421
 16777215
 40
1.0
291
     1
 91
  2455826
 92
 54000000
292
     0
 70
     2
 71
   256
280
     1
  0
DICTIONARY
  5
D
102
{ACAD_REACTORS
330
C
102
}
330
C
100
AcDbDictionary
281
     1
  0
DICTIONARY
  5
1A
102
{ACAD_REACTORS
330
C
102
}
330
C
100
AcDbDictionary
281
     1
  3
Layout1
350
1E
  3
Layout2
350
26
  3
Model
350
22
  0
DICTIONARY
  5
3B
102
{ACAD_REACTORS
330
C
102
}
330
C
100
AcDbDictionary
281
     1
  3
ByBlock
350
3D
  3
ByLayer
350
3C
  3
Global
350
3E
  0
DICTIONARY
  5
10D
102
{ACAD_REACTORS
330
C
102
}
330
C
100
AcDbDictionary
281
     1
  0
DICTIONARY
  5
17
102
{ACAD_REACTORS
330
C
102
}
330
C
100
AcDbDictionary
281
     1
  3
Standard
350
18
  0
DICTIONARY
  5
19
102
{ACAD_REACTORS
330
C
102
}
330
C
100
AcDbDictionary
281
     1
  0
ACDBDICTIONARYWDFLT
  5
E
102
{ACAD_REACTORS
330
C
102
}
330
C
100
AcDbDictionary
281
     1
  3
Normal
350
F
100
AcDbDictionaryWithDefault
340
F
  0
DICTIONARY
  5
10C
102
{ACAD_REACTORS
330
C
102
}
330
C
100
AcDbDictionary
281
     1
  0
DICTIONARY
  5
2A
102
{ACAD_REACTORS
330
C
102
}
330
C
100
AcDbDictionary
281
     1
  3
2dWireframe
350
2F
  3
3D Hidden
350
31
  3
3dWireframe
350
30
  3
Basic
350
32
  3
Brighten
350
36
  3
ColorChange
350
3A
  3
Conceptual
350
34
  3
Dim
350
35
  3
Facepattern
350
39
  3
Flat
350
2B
  3
FlatWithEdges
350
2C
  3
Gouraud
350
2D
  3
GouraudWithEdges
350
2E
  3
Linepattern
350
38
  3
Realistic
350
33
  3
Thicken
350
37
  0
LAYOUT
  5
1E
102
{ACAD_REACTORS
330
1A
102
}
330
1A
100
AcDbPlotSettings
  1

  2
none_device
  4

  6

 40
0.0
 41
0.0
 42
0.0
 43
0.0
 44
0.0
 45
0.0
 46
0.0
 47
0.0
 48
0.0
 49
0.0
140
0.0
141
0.0
142
1.0
143
1.0
 70
   688
 72
     0
 73
     0
 74
     5
  7

 75
    16
 76
     0
 77
     2
 78
   300
147
1.0
148
0.0
149
0.0
100
AcDbLayout
  1
Layout1
 70
     1
 71
     1
 10
0.0
 20
0.0
 11
12.0
 21
9.0
 12
0.0
 22
0.0
 32
0.0
 14
1.000000000000000E+20
 24
1.000000000000000E+20
 34
1.000000000000000E+20
 15
-1.000000000000000E+20
 25
-1.000000000000000E+20
 35
-1.000000000000000E+20
146
0.0
 13
0.0
 23
0.0
 33
0.0
 16
1.0
 26
0.0
 36
0.0
 17
0.0
 27
1.0
 37
0.0
 76
     0
330
1B
  0
LAYOUT
  5
26
102
{ACAD_REACTORS
330
1A
102
}
330
1A
100
AcDbPlotSettings
  1

  2
none_device
  4

  6

 40
0.0
 41
0.0
 42
0.0
 43
0.0
 44
0.0
 45
0.0
 46
0.0
 47
0.0
 48
0.0
 49
0.0
140
0.0
141
0.0
142
1.0
143
1.0
 70
   688
 72
     0
 73
     0
 74
     5
  7

 75
    16
 76
     0
 77
     2
 78
   300
147
1.0
148
0.0
149
0.0
100
AcDbLayout
  1
Layout2
 70
     1
 71
     2
 10
0.0
 20
0.0
 11
0.0
 21
0.0
 12
0.0
 22
0.0
 32
0.0
 14
0.0
 24
0.0
 34
0.0
 15
0.0
 25
0.0
 35
0.0
146
0.0
 13
0.0
 23
0.0
 33
0.0
 16
1.0
 26
0.0
 36
0.0
 17
0.0
 27
1.0
 37
0.0
 76
     0
330
23
  0
LAYOUT
  5
22
102
{ACAD_REACTORS
330
1A
102
}
330
1A
100
AcDbPlotSettings
  1

  2
none_device
  4

  6

 40
0.0
 41
0.0
 42
0.0
 43
0.0
 44
0.0
 45
0.0
 46
0.0
 47
0.0
 48
0.0
 49
0.0
140
0.0
141
0.0
142
1.0
143
1.0
 70
  1712
 72
     0
 73
     0
 74
     0
  7

 75
     0
 76
     0
 77
     2
 78
   300
147
1.0
148
0.0
149
0.0
100
AcDbLayout
  1
Model
 70
     1
 71
     0
 10
0.0
 20
0.0
 11
12.0
 21
9.0
 12
0.0
 22
0.0
 32
0.0
 14
1.000000000000000E+20
 24
1.000000000000000E+20
 34
1.000000000000000E+20
 15
-1.000000000000000E+20
 25
-1.000000000000000E+20
 35
-1.000000000000000E+20
146
0.0
 13
0.0
 23
0.0
 33
0.0
 16
1.0
 26
0.0
 36
0.0
 17
0.0
 27
1.0
 37
0.0
 76
     0
330
1F
331
29
  0
MATERIAL
  5
3D
102
{ACAD_REACTORS
330
3B
102
}
330
3B
100
AcDbMaterial
  1
ByBlock
 72
     1
 94
      127
  0
MATERIAL
  5
3C
102
{ACAD_REACTORS
330
3B
102
}
330
3B
100
AcDbMaterial
  1
ByLayer
 72
     1
 94
      127
  0
MATERIAL
  5
3E
102
{ACAD_REACTORS
330
3B
102
}
330
3B
100
AcDbMaterial
  1
Global
 72
     1
 94
      127
  0
MLINESTYLE
  5
18
102
{ACAD_REACTORS
330
17
102
}
330
17
100
AcDbMlineStyle
  2
Standard
 70
     0
  3

 62
   256
 51
90.0
 52
90.0
 71
     2
 49
0.5
 62
   256
  6
BYLAYER
 49
-0.5
 62
   256
  6
BYLAYER
  0
ACDBPLACEHOLDER
  5
F
102
{ACAD_REACTORS
330
E
102
}
330
E
  0
VISUALSTYLE
  5
2F
102
{ACAD_REACTORS
330
2A
102
}
330
2A
100
AcDbVisualStyle
  2
2dWireframe
 70
     4
177
     2
291
     0
 71
     0
176
     1
 72
     2
176
     1
 73
     0
176
     1
 90
        0
176
     1
 40
-0.6
176
     1
 41
-30.0
176
     1
 62
     5
 63
     7
421
 16777215
176
     1
 74
     1
176
     1
 91
        4
176
     1
 64
     7
176
     1
 65
   257
176
     1
 75
     1
176
     1
175
     1
176
     1
 42
1.0
176
     1
 92
        0
176
     1
 66
   257
176
     1
 43
1.0
176
     1
 76
     1
176
     1
 77
     6
176
     1
 78
     2
176
     1
 67
     7
176
     1
 79
     5
176
     1
170
     0
176
     1
171
     0
176
     1
290
     0
176
     1
 93
        1
176
     1
 44
0.0
176
     1
173
     0
176
     1
  0
VISUALSTYLE
  5
31
102
{ACAD_REACTORS
330
2A
102
}
330
2A
100
AcDbVisualStyle
  2
3D Hidden
 70
     6
177
     2
291
     0
 71
     1
176
     1
 72
     2
176
     1
 73
     2
176
     1
 90
        0
176
     1
 40
-0.6
176
     1
 41
-30.0
176
     1
 62
     5
 63
     7
421
 16777215
176
     1
 74
     2
176
     1
 91
        2
176
     1
 64
     7
176
     1
 65
   257
176
     1
 75
     2
176
     1
175
     1
176
     1
 42
40.0
176
     1
 92
        0
176
     1
 66
   257
176
     1
 43
1.0
176
     1
 76
     1
176
     1
 77
     6
176
     1
 78
     2
176
     1
 67
     7
176
     1
 79
     3
176
     1
170
     0
176
     1
171
     0
176
     1
290
     0
176
     1
 93
        1
176
     1
 44
0.0
176
     1
173
     0
176
     1
  0
VISUALSTYLE
  5
30
102
{ACAD_REACTORS
330
2A
102
}
330
2A
100
AcDbVisualStyle
  2
3dWireframe
 70
     5
177
     2
291
     0
 71
     0
176
     1
 72
     2
176
     1
 73
     0
176
     1
 90
        0
176
     1
 40
-0.6
176
     1
 41
-30.0
176
     1
 62
     5
 63
     7
421
 16777215
176
     1
 74
     1
176
     1
 91
        4
176
     1
 64
     7
176
     1
 65
   257
176
     1
 75
     1
176
     1
175
     1
176
     1
 42
1.0
176
     1
 92
        0
176
     1
 66
   257
176
     1
 43
1.0
176
     1
 76
     1
176
     1
 77
     6
176
     1
 78
     2
176
     1
 67
     7
176
     1
 79
     5
176
     1
170
     0
176
     1
171
     0
176
     1
290
     0
176
     1
 93
        1
176
     1
 44
0.0
176
     1
173
     0
176
     1
  0
VISUALSTYLE
  5
32
102
{ACAD_REACTORS
330
2A
102
}
330
2A
100
AcDbVisualStyle
  2
Basic
 70
     7
177
     2
291
     1
 71
     1
176
     1
 72
     0
176
     1
 73
     1
176
     1
 90
        0
176
     1
 40
-0.6
176
     1
 41
-30.0
176
     1
 62
     5
 63
     7
421
 16777215
176
     1
 74
     0
176
     1
 91
        4
176
     1
 64
     7
176
     1
 65
   257
176
     1
 75
     1
176
     1
175
     1
176
     1
 42
1.0
176
     1
 92
        8
176
     1
 66
     7
176
     1
 43
1.0
176
     1
 76
     1
176
     1
 77
     6
176
     1
 78
     2
176
     1
 67
     7
176
     1
 79
     5
176
     1
170
     0
176
     1
171
     0
176
     1
290
     0
176
     1
 93
        1
176
     1
 44
0.0
176
     1
173
     0
176
     1
  0
VISUALSTYLE
  5
36
102
{ACAD_REACTORS
330
2A
102
}
330
2A
100
AcDbVisualStyle
  2
Brighten
 70
    12
177
     2
291
     1
 71
     2
176
     1
 72
     2
176
     1
 73
     0
176
     1
 90
        0
176
     1
 40
-0.6
176
     1
 41
-30.0
176
     1
 62
     5
 63
     7
421
 16777215
176
     1
 74
     1
176
     1
 91
        4
176
     1
 64
     7
176
     1
 65
   257
176
     1
 75
     1
176
     1
175
     1
176
     1
 42
1.0
176
     1
 92
        8
176
     1
 66
     7
176
     1
 43
1.0
176
     1
 76
     1
176
     1
 77
     6
176
     1
 78
     2
176
     1
 67
     7
176
     1
 79
     5
176
     1
170
     0
176
     1
171
     0
176
     1
290
     0
176
     1
 93
        1
176
     1
 44
50.0
176
     1
173
     0
176
     1
  0
VISUALSTYLE
  5
3A
102
{ACAD_REACTORS
330
2A
102
}
330
2A
100
AcDbVisualStyle
  2
ColorChange
 70
    16
177
     2
291
     1
 71
     2
176
     1
 72
     2
176
     1
 73
     3
176
     1
 90
        0
176
     1
 40
-0.6
176
     1
 41
-30.0
176
     1
 62
     5
 63
     8
421
  8421504
176
     1
 74
     1
176
     1
 91
        4
176
     1
 64
     7
176
     1
 65
   257
176
     1
 75
     1
176
     1
175
     1
176
     1
 42
1.0
176
     1
 92
        8
176
     1
 66
     8
424
  8421504
176
     1
 43
1.0
176
     1
 76
     1
176
     1
 77
     6
176
     1
 78
     2
176
     1
 67
     7
176
     1
 79
     5
176
     1
170
     0
176
     1
171
     0
176
     1
290
     0
176
     1
 93
        1
176
     1
 44
0.0
176
     1
173
     0
176
     1
  0
VISUALSTYLE
  5
34
102
{ACAD_REACTORS
330
2A
102
}
330
2A
100
AcDbVisualStyle
  2
Conceptual
 70
     9
177
     2
291
     0
 71
     3
176
     1
 72
     2
176
     1
 73
     0
176
     1
 90
        0
176
     1
 40
-0.6
176
     1
 41
-30.0
176
     1
 62
     5
 63
     7
421
 16777215
176
     1
 74
     2
176
     1
 91
        2
176
     1
 64
     7
176
     1
 65
   257
176
     1
 75
     1
176
     1
175
     1
176
     1
 42
40.0
176
     1
 92
        8
176
     1
 66
     7
176
     1
 43
1.0
176
     1
 76
     1
176
     1
 77
     6
176
     1
 78
     2
176
     1
 67
     7
176
     1
 79
     3
176
     1
170
     0
176
     1
171
     0
176
     1
290
     0
176
     1
 93
        1
176
     1
 44
0.0
176
     1
173
     0
176
     1
  0
VISUALSTYLE
  5
35
102
{ACAD_REACTORS
330
2A
102
}
330
2A
100
AcDbVisualStyle
  2
Dim
 70
    11
177
     2
291
     1
 71
     2
176
     1
 72
     2
176
     1
 73
     0
176
     1
 90
        0
176
     1
 40
-0.6
176
     1
 41
-30.0
176
     1
 62
     5
 63
     7
421
 16777215
176
     1
 74
     1
176
     1
 91
        4
176
     1
 64
     7
176
     1
 65
   257
176
     1
 75
     1
176
     1
175
     1
176
     1
 42
1.0
176
     1
 92
        8
176
     1
 66
     7
176
     1
 43
1.0
176
     1
 76
     1
176
     1
 77
     6
176
     1
 78
     2
176
     1
 67
     7
176
     1
 79
     5
176
     1
170
     0
176
     1
171
     0
176
     1
290
     0
176
     1
 93
        1
176
     1
 44
-50.0
176
     1
173
     0
176
     1
  0
VISUALSTYLE
  5
39
102
{ACAD_REACTORS
330
2A
102
}
330
2A
100
AcDbVisualStyle
  2
Facepattern
 70
    15
177
     2
291
     1
 71
     2
176
     1
 72
     2
176
     1
 73
     0
176
     1
 90
        0
176
     1
 40
-0.6
176
     1
 41
-30.0
176
     1
 62
     5
 63
     7
421
 16777215
176
     1
 74
     1
176
     1
 91
        4
176
     1
 64
     7
176
     1
 65
   257
176
     1
 75
     1
176
     1
175
     1
176
     1
 42
1.0
176
     1
 92
        8
176
     1
 66
     7
176
     1
 43
1.0
176
     1
 76
     1
176
     1
 77
     6
176
     1
 78
     2
176
     1
 67
     7
176
     1
 79
     5
176
     1
170
     0
176
     1
171
     0
176
     1
290
     0
176
     1
 93
        1
176
     1
 44
0.0
176
     1
173
     0
176
     1
  0
VISUALSTYLE
  5
2B
102
{ACAD_REACTORS
330
2A
102
}
330
2A
100
AcDbVisualStyle
  2
Flat
 70
     0
177
     2
291
     1
 71
     2
176
     1
 72
     1
176
     1
 73
     1
176
     1
 90
        2
176
     1
 40
-0.6
176
     1
 41
30.0
176
     1
 62
     5
 63
     7
421
 16777215
176
     1
 74
     0
176
     1
 91
        4
176
     1
 64
     7
176
     1
 65
   257
176
     1
 75
     1
176
     1
175
     1
176
     1
 42
1.0
176
     1
 92
        8
176
     1
 66
     7
176
     1
 43
1.0
176
     1
 76
     1
176
     1
 77
     6
176
     1
 78
     2
176
     1
 67
     7
176
     1
 79
     5
176
     1
170
     0
176
     1
171
     0
176
     1
290
     0
176
     1
 93
       13
176
     1
 44
0.0
176
     1
173
     0
176
     1
  0
VISUALSTYLE
  5
2C
102
{ACAD_REACTORS
330
2A
102
}
330
2A
100
AcDbVisualStyle
  2
FlatWithEdges
 70
     1
177
     2
291
     1
 71
     2
176
     1
 72
     1
176
     1
 73
     1
176
     1
 90
        2
176
     1
 40
-0.6
176
     1
 41
30.0
176
     1
 62
     5
 63
     7
421
 16777215
176
     1
 74
     1
176
     1
 91
        4
176
     1
 64
     7
176
     1
 65
   257
176
     1
 75
     1
176
     1
175
     1
176
     1
 42
1.0
176
     1
 92
        0
176
     1
 66
   257
176
     1
 43
1.0
176
     1
 76
     1
176
     1
 77
     6
176
     1
 78
     2
176
     1
 67
     7
176
     1
 79
     5
176
     1
170
     0
176
     1
171
     0
176
     1
290
     0
176
     1
 93
       13
176
     1
 44
0.0
176
     1
173
     0
176
     1
  0
VISUALSTYLE
  5
2D
102
{ACAD_REACTORS
330
2A
102
}
330
2A
100
AcDbVisualStyle
  2
Gouraud
 70
     2
177
     2
291
     1
 71
     2
176
     1
 72
     2
176
     1
 73
     1
176
     1
 90
        2
176
     1
 40
-0.6
176
     1
 41
30.0
176
     1
 62
     5
 63
     7
421
 16777215
176
     1
 74
     0
176
     1
 91
        4
176
     1
 64
     7
176
     1
 65
   257
176
     1
 75
     1
176
     1
175
     1
176
     1
 42
1.0
176
     1
 92
        0
176
     1
 66
     7
176
     1
 43
1.0
176
     1
 76
     1
176
     1
 77
     6
176
     1
 78
     2
176
     1
 67
     7
176
     1
 79
     5
176
     1
170
     0
176
     1
171
     0
176
     1
290
     0
176
     1
 93
       13
176
     1
 44
0.0
176
     1
173
     0
176
     1
  0
VISUALSTYLE
  5
2E
102
{ACAD_REACTORS
330
2A
102
}
330
2A
100
AcDbVisualStyle
  2
GouraudWithEdges
 70
     3
177
     2
291
     1
 71
     2
176
     1
 72
     2
176
     1
 73
     1
176
     1
 90
        2
176
     1
 40
-0.6
176
     1
 41
30.0
176
     1
 62
     5
 63
     7
421
 16777215
176
     1
 74
     1
176
     1
 91
        4
176
     1
 64
     7
176
     1
 65
   257
176
     1
 75
     1
176
     1
175
     1
176
     1
 42
1.0
176
     1
 92
        0
176
     1
 66
   257
176
     1
 43
1.0
176
     1
 76
     1
176
     1
 77
     6
176
     1
 78
     2
176
     1
 67
     7
176
     1
 79
     5
176
     1
170
     0
176
     1
171
     0
176
     1
290
     0
176
     1
 93
       13
176
     1
 44
0.0
176
     1
173
     0
176
     1
  0
VISUALSTYLE
  5
38
102
{ACAD_REACTORS
330
2A
102
}
330
2A
100
AcDbVisualStyle
  2
Linepattern
 70
    14
177
     2
291
     1
 71
     2
176
     1
 72
     2
176
     1
 73
     0
176
     1
 90
        0
176
     1
 40
-0.6
176
     1
 41
-30.0
176
     1
 62
     5
 63
     7
421
 16777215
176
     1
 74
     1
176
     1
 91
        4
176
     1
 64
     7
176
     1
 65
   257
176
     1
 75
     7
176
     1
175
     7
176
     1
 42
1.0
176
     1
 92
        8
176
     1
 66
     7
176
     1
 43
1.0
176
     1
 76
     1
176
     1
 77
     6
176
     1
 78
     2
176
     1
 67
     7
176
     1
 79
     5
176
     1
170
     0
176
     1
171
     0
176
     1
290
     0
176
     1
 93
        1
176
     1
 44
0.0
176
     1
173
     0
176
     1
  0
VISUALSTYLE
  5
33
102
{ACAD_REACTORS
330
2A
102
}
330
2A
100
AcDbVisualStyle
  2
Realistic
 70
     8
177
     2
291
     0
 71
     2
176
     1
 72
     2
176
     1
 73
     0
176
     1
 90
        0
176
     1
 40
-0.6
176
     1
 41
-30.0
176
     1
 62
     5
 63
     7
421
 16777215
176
     1
 74
     1
176
     1
 91
        0
176
     1
 64
     7
176
     1
 65
   257
176
     1
 75
     1
176
     1
175
     1
176
     1
 42
1.0
176
     1
 92
        8
176
     1
 66
     8
424
  7895160
176
     1
 43
1.0
176
     1
 76
     1
176
     1
 77
     6
176
     1
 78
     2
176
     1
 67
     7
176
     1
 79
     5
176
     1
170
     0
176
     1
171
     0
176
     1
290
     0
176
     1
 93
       13
176
     1
 44
0.0
176
     1
173
     0
176
     1
  0
VISUALSTYLE
  5
37
102
{ACAD_REACTORS
330
2A
102
}
330
2A
100
AcDbVisualStyle
  2
Thicken
 70
    13
177
     2
291
     1
 71
     2
176
     1
 72
     2
176
     1
 73
     0
176
     1
 90
        0
176
     1
 40
-0.6
176
     1
 41
-30.0
176
     1
 62
     5
 63
     7
421
 16777215
176
     1
 74
     1
176
     1
 91
        4
176
     1
 64
     7
176
     1
 65
   257
176
     1
 75
     1
176
     1
175
     1
176
     1
 42
1.0
176
     1
 92
       12
176
     1
 66
     7
176
     1
 43
1.0
176
     1
 76
     1
176
     1
 77
     6
176
     1
 78
     2
176
     1
 67
     7
176
     1
 79
     5
176
     1
170
     0
176
     1
171
     0
176
     1
290
     0
176
     1
 93
        1
176
     1
 44
0.0
176
     1
173
     0
176
     1
  0
ENDSEC
  0
EOF
