  0
SECTION
  2
HEADER
  9
$ACADVER
  1
AC1024
  9
$ACADMAINTVER
 70
     6
  9
$DWGCODEPAGE
  3
UNDEFINED
  9
$INSBASE
 10
0.0
 20
0.0
 30
0.0
  9
$EXTMIN
 10
1.000000000000000E+20
 20
1.000000000000000E+20
 30
1.000000000000000E+20
  9
$EXTMAX
 10
-1.000000000000000E+20
 20
-1.000000000000000E+20
 30
-1.000000000000000E+20
  9
$LIMMIN
 10
0.0
 20
0.0
  9
$LIMMAX
 10
12.0
 20
9.0
  9
$ORTHOMODE
 70
     0
  9
$REGENMODE
 70
     1
  9
$FILLMODE
 70
     1
  9
$QTEXTMODE
 70
     0
  9
$MIRRTEXT
 70
     1
  9
$LTSCALE
 40
1.0
  9
$ATTMODE
 70
     1
  9
$TEXTSIZE
 40
0.2
  9
$TRACEWID
 40
0.05
  9
$TEXTSTYLE
  7
Standard
  9
$CLAYER
  8
0
  9
$CELTYPE
  6
ByLayer
  9
$CECOLOR
 62
   256
  9
$CELTSCALE
 40
1.0
  9
$DISPSILH
 70
     0
  9
$DIMSCALE
 40
1.0
  9
$DIMASZ
 40
0.18
  9
$DIMEXO
 40
0.0625
  9
$DIMDLI
 40
0.38
  9
$DIMRND
 40
0.0
  9
$DIMDLE
 40
0.0
  9
$DIMEXE
 40
0.18
  9
$DIMTP
 40
0.0
  9
$DIMTM
 40
0.0
  9
$DIMTXT
 40
0.18
  9
$DIMCEN
 40
0.09
  9
$DIMTSZ
 40
0.0
  9
$DIMTOL
 70
     0
  9
$DIMLIM
 70
     0
  9
$DIMTIH
 70
     1
  9
$DIMTOH
 70
     1
  9
$DIMSE1
 70
     0
  9
$DIMSE2
 70
     0
  9
$DIMTAD
 70
     0
  9
$DIMZIN
 70
     0
  9
$DIMBLK
  1

  9
$DIMASO
 70
     1
  9
$DIMSHO
 70
     1
  9
$DIMPOST
  1

  9
$DIMAPOST
  1

  9
$DIMALT
 70
     0
  9
$DIMALTD
 70
     2
  9
$DIMALTF
 40
25.4
  9
$DIMLFAC
 40
1.0
  9
$DIMTOFL
 70
     0
  9
$DIMTVP
 40
0.0
  9
$DIMTIX
 70
     0
  9
$DIMSOXD
 70
     0
  9
$DIMSAH
 70
     0
  9
$DIMBLK1
  1

  9
$DIMBLK2
  1

  9
$DIMSTYLE
  2
Standard
  9
$DIMCLRD
 70
     0
  9
$DIMCLRE
 70
     0
  9
$DIMCLRT
 70
     0
  9
$DIMTFAC
 40
1.0
  9
$DIMGAP
 40
0.09
  9
$DIMJUST
 70
     0
  9
$DIMSD1
 70
     0
  9
$DIMSD2
 70
     0
  9
$DIMTOLJ
 70
     1
  9
$DIMTZIN
 70
     0
  9
$DIMALTZ
 70
     0
  9
$DIMALTTZ
 70
     0
  9
$DIMUPT
 70
     0
  9
$DIMDEC
 70
     4
  9
$DIMTDEC
 70
     4
  9
$DIMALTU
 70
     2
  9
$DIMALTTD
 70
     2
  9
$DIMTXSTY
  7
Standard
  9
$DIMAUNIT
 70
     0
  9
$DIMADEC
 70
     0
  9
$DIMALTRND
 40
0.0
  9
$DIMAZIN
 70
     0
  9
$DIMDSEP
 70
    46
  9
$DIMATFIT
 70
     3
  9
$DIMFRAC
 70
     0
  9
$DIMLDRBLK
  1

  9
$DIMLUNIT
 70
     2
  9
$DIMLWD
 70
    -2
  9
$DIMLWE
 70
    -2
  9
$DIMTMOVE
 70
     0
  9
$DIMFXL
 40
1.0
  9
$DIMFXLON
 70
     0
  9
$DIMJOGANG
 40
0.7853981633974483
  9
$DIMTFILL
 70
     0
  9
$DIMTFILLCLR
 70
     0
  9
$DIMARCSYM
 70
     0
  9
$DIMLTYPE
  6

  9
$DIMLTEX1
  6

  9
$DIMLTEX2
  6

  9
$DIMTXTDIRECTION
 70
     0
  9
$LUNITS
 70
     2
  9
$LUPREC
 70
     4
  9
$SKETCHINC
 40
0.1
  9
$FILLETRAD
 40
0.5
  9
$AUNITS
 70
     0
  9
$AUPREC
 70
     0
  9
$MENU
  1
.
  9
$ELEVATION
 40
0.0
  9
$PELEVATION
 40
0.0
  9
$THICKNESS
 40
0.0
  9
$LIMCHECK
 70
     0
  9
$CHAMFERA
 40
0.5
  9
$CHAMFERB
 40
0.5
  9
$CHAMFERC
 40
1.0
  9
$CHAMFERD
 40
0.0
  9
$SKPOLY
 70
     0
  9
$TDCREATE
 40
2457917.625995371
  9
$TDUCREATE
 40
2457917.250995371
  9
$TDUPDATE
 40
2457917.625995371
  9
$TDUUPDATE
 40
2457917.250995371
  9
$TDINDWG
 40
0.0000000116
  9
$TDUSRTIMER
 40
0.0000000116
  9
$USRTIMER
 70
     1
  9
$ANGBASE
 50
0.0
  9
$ANGDIR
 70
     0
  9
$PDMODE
 70
     0
  9
$PDSIZE
 40
0.0
  9
$PLINEWID
 40
0.0
  9
$SPLFRAME
 70
     0
  9
$SPLINETYPE
 70
     6
  9
$SPLINESEGS
 70
     8
  9
$HANDSEED
  5
10C
  9
$SURFTAB1
 70
     6
  9
$SURFTAB2
 70
     6
  9
$SURFTYPE
 70
     6
  9
$SURFU
 70
     6
  9
$SURFV
 70
     6
  9
$UCSBASE
  2

  9
$UCSNAME
  2

  9
$UCSORG
 10
0.0
 20
0.0
 30
0.0
  9
$UCSXDIR
 10
1.0
 20
0.0
 30
0.0
  9
$UCSYDIR
 10
0.0
 20
1.0
 30
0.0
  9
$UCSORTHOREF
  2

  9
$UCSORTHOVIEW
 70
     0
  9
$UCSORGTOP
 10
0.0
 20
0.0
 30
0.0
  9
$UCSORGBOTTOM
 10
0.0
 20
0.0
 30
0.0
  9
$UCSORGLEFT
 10
0.0
 20
0.0
 30
0.0
  9
$UCSORGRIGHT
 10
0.0
 20
0.0
 30
0.0
  9
$UCSORGFRONT
 10
0.0
 20
0.0
 30
0.0
  9
$UCSORGBACK
 10
0.0
 20
0.0
 30
0.0
  9
$PUCSBASE
  2

  9
$PUCSNAME
  2

  9
$PUCSORG
 10
0.0
 20
0.0
 30
0.0
  9
$PUCSXDIR
 10
1.0
 20
0.0
 30
0.0
  9
$PUCSYDIR
 10
0.0
 20
1.0
 30
0.0
  9
$PUCSORTHOREF
  2

  9
$PUCSORTHOVIEW
 70
     0
  9
$PUCSORGTOP
 10
0.0
 20
0.0
 30
0.0
  9
$PUCSORGBOTTOM
 10
0.0
 20
0.0
 30
0.0
  9
$PUCSORGLEFT
 10
0.0
 20
0.0
 30
0.0
  9
$PUCSORGRIGHT
 10
0.0
 20
0.0
 30
0.0
  9
$PUCSORGFRONT
 10
0.0
 20
0.0
 30
0.0
  9
$PUCSORGBACK
 10
0.0
 20
0.0
 30
0.0
  9
$USERI1
 70
     0
  9
$USERI2
 70
     0
  9
$USERI3
 70
     0
  9
$USERI4
 70
     0
  9
$USERI5
 70
     0
  9
$USERR1
 40
0.0
  9
$USERR2
 40
0.0
  9
$USERR3
 40
0.0
  9
$USERR4
 40
0.0
  9
$USERR5
 40
0.0
  9
$WORLDVIEW
 70
     1
  9
$SHADEDGE
 70
     3
  9
$SHADEDIF
 70
    70
  9
$TILEMODE
 70
     1
  9
$MAXACTVP
 70
    64
  9
$PINSBASE
 10
0.0
 20
0.0
 30
0.0
  9
$PLIMCHECK
 70
     0
  9
$PEXTMIN
 10
1.000000000000000E+20
 20
1.000000000000000E+20
 30
1.000000000000000E+20
  9
$PEXTMAX
 10
-1.000000000000000E+20
 20
-1.000000000000000E+20
 30
-1.000000000000000E+20
  9
$PLIMMIN
 10
0.0
 20
0.0
  9
$PLIMMAX
 10
12.0
 20
9.0
  9
$UNITMODE
 70
     0
  9
$VISRETAIN
 70
     1
  9
$PLINEGEN
 70
     0
  9
$PSLTSCALE
 70
     1
  9
$TREEDEPTH
 70
  3020
  9
$CMLSTYLE
  2
Standard
  9
$CMLJUST
 70
     0
  9
$CMLSCALE
 40
1.0
  9
$PROXYGRAPHICS
 70
     1
  9
$MEASUREMENT
 70
     0
  9
$CELWEIGHT
370
    -1
  9
$ENDCAPS
280
     0
  9
$JOINSTYLE
280
     0
  9
$LWDISPLAY
290
     1
  9
$INSUNITS
 70
     1
  9
$HYPERLINKBASE
  1

  9
$STYLESHEET
  1

  9
$XEDIT
290
     1
  9
$CEPSNTYPE
380
     0
  9
$PSTYLEMODE
290
     1
  9
$FINGERPRINTGUID
  2
{CBDE89B4-AB1A-9103-640C-1BBE1CE592BA}
  9
$VERSIONGUID
  2
{FAEB1C32-E019-11D5-929B-00C0DF256EC4}
  9
$EXTNAMES
290
     1
  9
$PSVPSCALE
 40
0.0
  9
$OLESTARTUP
290
     0
  9
$SORTENTS
280
   127
  9
$INDEXCTL
280
     0
  9
$HIDETEXT
280
     1
  9
$XCLIPFRAME
280
     2
  9
$HALOGAP
280
     0
  9
$OBSCOLOR
 70
   257
  9
$OBSLTYPE
280
     0
  9
$INTERSECTIONDISPLAY
280
     0
  9
$INTERSECTIONCOLOR
 70
   257
  9
$DIMASSOC
280
     2
  9
$PROJECTNAME
  1

  9
$CAMERADISPLAY
290
     0
  9
$LENSLENGTH
 40
50.0
  9
$CAMERAHEIGHT
 40
0.0
  9
$STEPSPERSEC
 40
2.0
  9
$STEPSIZE
 40
6.0
  9
$3DDWFPREC
 40
2.0
  9
$PSOLWIDTH
 40
0.25
  9
$PSOLHEIGHT
 40
4.0
  9
$LOFTANG1
 40
1.570796326794897
  9
$LOFTANG2
 40
1.570796326794897
  9
$LOFTMAG1
 40
0.0
  9
$LOFTMAG2
 40
0.0
  9
$LOFTPARAM
 70
     7
  9
$LOFTNORMALS
280
     1
  9
$LATITUDE
 40
37.795
  9
$LONGITUDE
 40
-122.394
  9
$NORTHDIRECTION
 40
0.0
  9
$TIMEZONE
 70
 -8000
  9
$LIGHTGLYPHDISPLAY
280
     1
  9
$TILEMODELIGHTSYNCH
280
     1
  9
$CMATERIAL
347
3C
  9
$SOLIDHIST
280
     1
  9
$SHOWHIST
280
     1
  9
$DWFFRAME
280
     2
  9
$DGNFRAME
280
     2
  9
$REALWORLDSCALE
290
     1
  9
$INTERFERECOLOR
 62
   256
  9
$CSHADOW
280
     0
  9
$SHADOWPLANELOCATION
 40
0.0
  0
ENDSEC
  0
SECTION
  2
CLASSES
  0
CLASS
  1
ACDBDICTIONARYWDFLT
  2
AcDbDictionaryWithDefault
  3
ObjectDBX Classes
 90
        0
 91
        4
280
     0
281
     0
  0
CLASS
  1
VISUALSTYLE
  2
AcDbVisualStyle
  3
ObjectDBX Classes
 90
     4095
 91
        4
280
     0
281
     0
  0
CLASS
  1
MATERIAL
  2
AcDbMaterial
  3
ObjectDBX Classes
 90
     1153
 91
        4
280
     0
281
     0
  0
CLASS
  1
SUN
  2
AcDbSun
  3
SCENEOE
 90
     1024
 91
        4
280
     0
281
     0
  0
ENDSEC
  0
SECTION
  2
TABLES
  0
TABLE
  2
VPORT
  5
8
330
0
100
AcDbSymbolTable
 70
     1
  0
VPORT
  5
29
330
8
100
AcDbSymbolTableRecord
100
AcDbViewportTableRecord
  2
*Active
 70
     0
 10
0.0
 20
0.0
 11
1.0
 21
1.0
 12
0.0
 22
0.0
 13
0.0
 23
0.0
 14
0.5
 24
0.5
 15
0.5
 25
0.5
 16
0.0
 26
0.0
 36
1.0
 17
91.00082462281999
 27
-128.4993055234307
 37
0.0
 40
256.9986110468615
 41
0.7081814508812795
 42
50.0
 43
0.0
 44
0.0
 50
0.0
 51
0.0
 71
     0
 72
   100
 73
     1
 74
     3
 75
     0
 76
     0
 77
     0
 78
     0
281
     0
 65
     1
110
0.0
120
0.0
130
0.0
111
1.0
121
0.0
131
0.0
112
0.0
122
1.0
132
0.0
 79
     0
146
0.0
 60
     3
 61
     5
292
     1
282
     1
141
0.0
142
0.0
 63
   250
361
3F
  0
ENDTAB
  0
TABLE
  2
LTYPE
  5
5
330
0
100
AcDbSymbolTable
 70
     1
  0
LTYPE
  5
14
330
5
100
AcDbSymbolTableRecord
100
AcDbLinetypeTableRecord
  2
ByBlock
 70
     0
  3

 72
    65
 73
     0
 40
0.0
  0
LTYPE
  5
15
330
5
100
AcDbSymbolTableRecord
100
AcDbLinetypeTableRecord
  2
ByLayer
 70
     0
  3

 72
    65
 73
     0
 40
0.0
  0
LTYPE
  5
16
330
5
100
AcDbSymbolTableRecord
100
AcDbLinetypeTableRecord
  2
Continuous
 70
     0
  3
Solid line
 72
    65
 73
     0
 40
0.0
  0
ENDTAB
  0
TABLE
  2
LAYER
  5
2
330
0
100
AcDbSymbolTable
 70
     2
  0
LAYER
  5
10
330
2
100
AcDbSymbolTableRecord
100
AcDbLayerTableRecord
  2
0
 70
     0
 62
     7
  6
Continuous
370
    -3
390
F
347
3E
  0
LAYER
  5
40
330
2
100
AcDbSymbolTableRecord
100
AcDbLayerTableRecord
  2
_U+30EC_U+30A4_U+30E4_U+30FC 1
 70
     0
 62
     7
  6
Continuous
370
    -3
390
F
347
3E
  0
ENDTAB
  0
TABLE
  2
STYLE
  5
3
330
0
100
AcDbSymbolTable
 70
     1
  0
STYLE
  5
11
330
3
100
AcDbSymbolTableRecord
100
AcDbTextStyleTableRecord
  2
Standard
 70
     0
 40
0.0
 41
1.0
 50
0.0
 71
     0
 42
0.2
  3
txt
  4

  0
ENDTAB
  0
TABLE
  2
VIEW
  5
6
330
0
100
AcDbSymbolTable
 70
     0
  0
ENDTAB
  0
TABLE
  2
UCS
  5
7
330
0
100
AcDbSymbolTable
 70
     0
  0
ENDTAB
  0
TABLE
  2
APPID
  5
9
330
0
100
AcDbSymbolTable
 70
     1
  0
APPID
  5
12
330
9
100
AcDbSymbolTableRecord
100
AcDbRegAppTableRecord
  2
ACAD
 70
     0
  0
ENDTAB
  0
TABLE
  2
DIMSTYLE
  5
A
330
0
100
AcDbSymbolTable
 70
     1
100
AcDbDimStyleTable
  0
DIMSTYLE
105
27
330
A
100
AcDbSymbolTableRecord
100
AcDbDimStyleTableRecord
  2
Standard
 70
     0
178
     0
340
11
  0
ENDTAB
  0
TABLE
  2
BLOCK_RECORD
  5
1
330
0
100
AcDbSymbolTable
 70
     5
  0
BLOCK_RECORD
  5
1F
330
1
100
AcDbSymbolTableRecord
100
AcDbBlockTableRecord
  2
*Model_Space
340
22
 70
     0
280
     1
281
     0
  0
BLOCK_RECORD
  5
1B
330
1
100
AcDbSymbolTableRecord
100
AcDbBlockTableRecord
  2
*Paper_Space
340
1E
 70
     0
280
     1
281
     0
  0
BLOCK_RECORD
  5
23
330
1
100
AcDbSymbolTableRecord
100
AcDbBlockTableRecord
  2
*Paper_Space0
340
26
 70
     0
280
     1
281
     0
  0
BLOCK_RECORD
  5
AF
330
1
100
AcDbSymbolTableRecord
100
AcDbBlockTableRecord
  2
block 2
340
0
102
{BLKREFS
331
B0
102
}
 70
     0
280
     1
281
     0
  0
BLOCK_RECORD
  5
C3
330
1
100
AcDbSymbolTableRecord
100
AcDbBlockTableRecord
  2
block 3
340
0
102
{BLKREFS
331
C4
102
}
 70
     0
280
     1
281
     0
  0
BLOCK_RECORD
  5
EA
330
1
100
AcDbSymbolTableRecord
100
AcDbBlockTableRecord
  2
block 4
340
0
102
{BLKREFS
331
EB
102
}
 70
     0
280
     1
281
     0
  0
BLOCK_RECORD
  5
102
330
1
100
AcDbSymbolTableRecord
100
AcDbBlockTableRecord
  2
block 5
340
0
102
{BLKREFS
331
103
102
}
 70
     0
280
     1
281
     0
  0
ENDTAB
  0
ENDSEC
  0
SECTION
  2
BLOCKS
  0
BLOCK
  5
20
330
1F
100
AcDbEntity
  8
0
100
AcDbBlockBegin
  2
*Model_Space
 70
     0
 10
0.0
 20
0.0
 30
0.0
  3
*Model_Space
  1

  0
ENDBLK
  5
21
330
1F
100
AcDbEntity
  8
0
100
AcDbBlockEnd
  0
BLOCK
  5
1C
330
1B
100
AcDbEntity
 67
     1
  8
0
100
AcDbBlockBegin
  2
*Paper_Space
 70
     0
 10
0.0
 20
0.0
 30
0.0
  3
*Paper_Space
  1

  0
ENDBLK
  5
1D
330
1B
100
AcDbEntity
 67
     1
  8
0
100
AcDbBlockEnd
  0
BLOCK
  5
24
330
23
100
AcDbEntity
  8
0
100
AcDbBlockBegin
  2
*Paper_Space0
 70
     0
 10
0.0
 20
0.0
 30
0.0
  3
*Paper_Space0
  1

  0
ENDBLK
  5
25
330
23
100
AcDbEntity
  8
0
100
AcDbBlockEnd
  0
BLOCK
  5
B1
330
AF
100
AcDbEntity
  8
0
100
AcDbBlockBegin
  2
block 2
 70
     0
 10
0.0
 20
0.0
 30
0.0
  3
block 2
  1

  0
SPLINE
  5
B3
330
AF
100
AcDbEntity
  8
_U+30EC_U+30A4_U+30E4_U+30FC 1
370
     0
100
AcDbSpline
210
0.0
220
0.0
230
1.0
 70
    11
 71
     3
 72
    44
 73
    40
 74
     0
 42
0.0000000001
 43
0.0000000001
 12
1.0
 22
0.0
 32
0.0
 13
1.0
 23
0.0
 33
0.0
 40
0.0
 40
0.0
 40
0.0
 40
0.0
 40
1.0
 40
1.0
 40
1.0
 40
2.0
 40
2.0
 40
2.0
 40
3.0
 40
3.0
 40
3.0
 40
4.0
 40
4.0
 40
4.0
 40
5.0
 40
5.0
 40
5.0
 40
6.0
 40
6.0
 40
6.0
 40
7.0
 40
7.0
 40
7.0
 40
8.0
 40
8.0
 40
8.0
 40
9.0
 40
9.0
 40
9.0
 40
10.0
 40
10.0
 40
10.0
 40
11.0
 40
11.0
 40
11.0
 40
12.0
 40
12.0
 40
12.0
 40
13.0
 40
13.0
 40
13.0
 40
13.0
 10
85.43612872213056
 20
-110.7818684618879
 30
0.0
 10
85.20100095526226
 20
-110.9530897075048
 30
0.0
 10
85.10057642186722
 20
-111.0330159227626
 30
0.0
 10
85.04803871571715
 20
-111.1882174743731
 30
0.0
 10
85.04803871571715
 20
-111.1882174743731
 30
0.0
 10
85.88795299502107
 20
-111.1882174743731
 30
0.0
 10
85.88795299502107
 20
-111.1882174743731
 30
0.0
 10
85.88795299502107
 20
-111.1882174743731
 30
0.0
 10
85.88795299502107
 20
-111.4095648593004
 30
0.0
 10
85.88795299502107
 20
-111.4095648593004
 30
0.0
 10
85.88795299502107
 20
-111.4095648593004
 30
0.0
 10
84.77880450354489
 20
-111.4095648593004
 30
0.0
 10
84.77880450354489
 20
-111.4095648593004
 30
0.0
 10
84.81291094884885
 20
-111.0238864197267
 30
0.0
 10
84.88370766107074
 20
-110.9393093255638
 30
0.0
 10
85.29901392181762
 20
-110.6175374072415
 30
0.0
 10
85.57531057973465
 20
-110.4030802132847
 30
0.0
 10
85.64593503718227
 20
-110.3300441889973
 30
0.0
 10
85.64593503718227
 20
-110.1817328283574
 30
0.0
 10
85.64593503718227
 20
-110.0539197858546
 30
0.0
 10
85.56842038876415
 20
-109.9123263614108
 30
0.0
 10
85.35620250687276
 20
-109.9123263614108
 30
0.0
 10
85.07542722482489
 20
-109.9123263614108
 30
0.0
 10
85.06629772178898
 20
-110.1610622554459
 30
0.0
 10
85.0616468428839
 20
-110.2866359858832
 30
0.0
 10
85.0616468428839
 20
-110.2866359858832
 30
0.0
 10
84.81980113981936
 20
-110.2866359858832
 30
0.0
 10
84.81980113981936
 20
-110.2866359858832
 30
0.0
 10
84.82893064285527
 20
-110.1496934403445
 30
0.0
 10
84.84029945795659
 20
-110.0287705888123
 30
0.0
 10
84.9271158641849
 20
-109.9009575463095
 30
0.0
 10
85.04579940365174
 20
-109.7274969886272
 30
0.0
 10
85.24664847044181
 20
-109.6909789764835
 30
0.0
 10
85.37204994610491
 20
-109.6909789764835
 30
0.0
 10
85.6710842342246
 20
-109.6909789764835
 30
0.0
 10
85.89484318599158
 20
-109.8895887312082
 30
0.0
 10
85.89484318599158
 20
-110.1839721404228
 30
0.0
 10
85.89484318599158
 20
-110.4304687223924
 30
0.0
 10
85.76926945555421
 20
-110.5376111919837
 30
0.0
 10
85.43612872213056
 20
-110.7818684618879
 30
0.0
  0
HATCH
  5
B4
330
AF
100
AcDbEntity
  8
_U+30EC_U+30A4_U+30E4_U+30FC 1
 62
   179
420
  2234388
100
AcDbHatch
 10
0.0
 20
0.0
 30
0.0
210
0.0
220
0.0
230
1.0
  2
SOLID
 70
     1
 71
     0
 91
        1
 92
        1
 93
        1
 72
     4
 94
        3
 73
     0
 74
     1
 95
       44
 96
       40
 40
0.0
 40
0.0
 40
0.0
 40
0.0
 40
1.0
 40
1.0
 40
1.0
 40
2.0
 40
2.0
 40
2.0
 40
3.0
 40
3.0
 40
3.0
 40
4.0
 40
4.0
 40
4.0
 40
5.0
 40
5.0
 40
5.0
 40
6.0
 40
6.0
 40
6.0
 40
7.0
 40
7.0
 40
7.0
 40
8.0
 40
8.0
 40
8.0
 40
9.0
 40
9.0
 40
9.0
 40
10.0
 40
10.0
 40
10.0
 40
11.0
 40
11.0
 40
11.0
 40
12.0
 40
12.0
 40
12.0
 40
13.0
 40
13.0
 40
13.0
 40
13.0
 10
85.43612872213056
 20
-110.7818684618879
 10
85.20100095526226
 20
-110.9530897075048
 10
85.10057642186722
 20
-111.0330159227626
 10
85.04803871571715
 20
-111.1882174743731
 10
85.04803871571715
 20
-111.1882174743731
 10
85.88795299502107
 20
-111.1882174743731
 10
85.88795299502107
 20
-111.1882174743731
 10
85.88795299502107
 20
-111.1882174743731
 10
85.88795299502107
 20
-111.4095648593004
 10
85.88795299502107
 20
-111.4095648593004
 10
85.88795299502107
 20
-111.4095648593004
 10
84.77880450354489
 20
-111.4095648593004
 10
84.77880450354489
 20
-111.4095648593004
 10
84.81291094884885
 20
-111.0238864197267
 10
84.88370766107074
 20
-110.9393093255638
 10
85.29901392181762
 20
-110.6175374072415
 10
85.57531057973465
 20
-110.4030802132847
 10
85.64593503718227
 20
-110.3300441889973
 10
85.64593503718227
 20
-110.1817328283574
 10
85.64593503718227
 20
-110.0539197858546
 10
85.56842038876415
 20
-109.9123263614108
 10
85.35620250687276
 20
-109.9123263614108
 10
85.07542722482489
 20
-109.9123263614108
 10
85.06629772178898
 20
-110.1610622554459
 10
85.0616468428839
 20
-110.2866359858832
 10
85.0616468428839
 20
-110.2866359858832
 10
84.81980113981936
 20
-110.2866359858832
 10
84.81980113981936
 20
-110.2866359858832
 10
84.82893064285527
 20
-110.1496934403445
 10
84.84029945795659
 20
-110.0287705888123
 10
84.9271158641849
 20
-109.9009575463095
 10
85.04579940365174
 20
-109.7274969886272
 10
85.24664847044181
 20
-109.6909789764835
 10
85.37204994610491
 20
-109.6909789764835
 10
85.6710842342246
 20
-109.6909789764835
 10
85.89484318599158
 20
-109.8895887312082
 10
85.89484318599158
 20
-110.1839721404228
 10
85.89484318599158
 20
-110.4304687223924
 10
85.76926945555421
 20
-110.5376111919837
 10
85.43612872213056
 20
-110.7818684618879
 97
        0
 97
        0
 75
     2
 76
     1
 98
        0
  0
SPLINE
  5
B5
330
AF
100
AcDbEntity
  8
_U+30EC_U+30A4_U+30E4_U+30FC 1
370
     0
100
AcDbSpline
210
0.0
220
0.0
230
1.0
 70
    11
 71
     3
 72
    53
 73
    49
 74
     0
 42
0.0000000001
 43
0.0000000001
 12
1.0
 22
0.0
 32
0.0
 13
1.0
 23
0.0
 33
0.0
 40
0.0
 40
0.0
 40
0.0
 40
0.0
 40
1.0
 40
1.0
 40
1.0
 40
2.0
 40
2.0
 40
2.0
 40
3.0
 40
3.0
 40
3.0
 40
4.0
 40
4.0
 40
4.0
 40
5.0
 40
5.0
 40
5.0
 40
6.0
 40
6.0
 40
6.0
 40
7.0
 40
7.0
 40
7.0
 40
8.0
 40
8.0
 40
8.0
 40
9.0
 40
9.0
 40
9.0
 40
10.0
 40
10.0
 40
10.0
 40
11.0
 40
11.0
 40
11.0
 40
12.0
 40
12.0
 40
12.0
 40
13.0
 40
13.0
 40
13.0
 40
14.0
 40
14.0
 40
14.0
 40
15.0
 40
15.0
 40
15.0
 40
16.0
 40
16.0
 40
16.0
 40
16.0
 10
86.5854125760099
 20
-111.4643418775159
 30
0.0
 10
86.50100773662128
 20
-111.4643418775159
 30
0.0
 10
86.39145370019034
 20
-111.446082871444
 30
0.0
 10
86.28189966375939
 20
-111.3775254712876
 30
0.0
 10
86.09483097891032
 20
-111.259014186595
 30
0.0
 10
86.07192109393341
 20
-111.1174207621512
 30
0.0
 10
86.05142277579617
 20
-111.0009765347498
 30
0.0
 10
86.05142277579617
 20
-111.0009765347498
 30
0.0
 10
86.29085691202104
 20
-111.0009765347498
 30
0.0
 10
86.29085691202104
 20
-111.0009765347498
 30
0.0
 10
86.35045706391587
 20
-111.2156059834808
 30
0.0
 10
86.48722735468029
 20
-111.2474731167194
 30
0.0
 10
86.58782414284957
 20
-111.2474731167194
 30
0.0
 10
86.73837481555499
 20
-111.2474731167194
 30
0.0
 10
86.90270587020142
 20
-111.1401583923539
 30
0.0
 10
86.90270587020142
 20
-110.8891831862534
 30
0.0
 10
86.90270587020142
 20
-110.6130587831106
 30
0.0
 10
86.70874699438184
 20
-110.5376111919837
 30
0.0
 10
86.5785223850394
 20
-110.5376111919837
 30
0.0
 10
86.54441593973543
 20
-110.5376111919837
 30
0.0
 10
86.39145370019034
 20
-110.5376111919837
 30
0.0
 10
86.2956800457004
 20
-110.676965304362
 30
0.0
 10
86.2956800457004
 20
-110.676965304362
 30
0.0
 10
86.10619979401164
 20
-110.6564669862248
 30
0.0
 10
86.10619979401164
 20
-110.6564669862248
 30
0.0
 10
86.10619979401164
 20
-110.6564669862248
 30
0.0
 10
86.23642440335409
 20
-109.7435166826336
 30
0.0
 10
86.23642440335409
 20
-109.7435166826336
 30
0.0
 10
86.23642440335409
 20
-109.7435166826336
 30
0.0
 10
87.076338682658
 20
-109.7435166826336
 30
0.0
 10
87.076338682658
 20
-109.7435166826336
 30
0.0
 10
87.076338682658
 20
-109.7435166826336
 30
0.0
 10
87.076338682658
 20
-109.9533229976853
 30
0.0
 10
87.076338682658
 20
-109.9533229976853
 30
0.0
 10
87.076338682658
 20
-109.9533229976853
 30
0.0
 10
86.41212427310184
 20
-109.9533229976853
 30
0.0
 10
86.41212427310184
 20
-109.9533229976853
 30
0.0
 10
86.41212427310184
 20
-109.9533229976853
 30
0.0
 10
86.34115530610569
 20
-110.4097981494809
 30
0.0
 10
86.34115530610569
 20
-110.4097981494809
 30
0.0
 10
86.40730113942249
 20
-110.3732801373372
 30
0.0
 10
86.49652911249045
 20
-110.3300441889973
 30
0.0
 10
86.62434215499323
 20
-110.3300441889973
 30
0.0
 10
86.89822724607059
 20
-110.3300441889973
 30
0.0
 10
87.15385333107612
 20
-110.5308932557874
 30
0.0
 10
87.15385333107612
 20
-110.8686848681162
 30
0.0
 10
87.15385333107612
 20
-111.2109551045757
 30
0.0
 10
86.91166311846305
 20
-111.4643418775159
 30
0.0
 10
86.5854125760099
 20
-111.4643418775159
 30
0.0
  0
HATCH
  5
B6
330
AF
100
AcDbEntity
  8
_U+30EC_U+30A4_U+30E4_U+30FC 1
 62
   179
420
  2234388
100
AcDbHatch
 10
0.0
 20
0.0
 30
0.0
210
0.0
220
0.0
230
1.0
  2
SOLID
 70
     1
 71
     0
 91
        1
 92
        1
 93
        1
 72
     4
 94
        3
 73
     0
 74
     1
 95
       53
 96
       49
 40
0.0
 40
0.0
 40
0.0
 40
0.0
 40
1.0
 40
1.0
 40
1.0
 40
2.0
 40
2.0
 40
2.0
 40
3.0
 40
3.0
 40
3.0
 40
4.0
 40
4.0
 40
4.0
 40
5.0
 40
5.0
 40
5.0
 40
6.0
 40
6.0
 40
6.0
 40
7.0
 40
7.0
 40
7.0
 40
8.0
 40
8.0
 40
8.0
 40
9.0
 40
9.0
 40
9.0
 40
10.0
 40
10.0
 40
10.0
 40
11.0
 40
11.0
 40
11.0
 40
12.0
 40
12.0
 40
12.0
 40
13.0
 40
13.0
 40
13.0
 40
14.0
 40
14.0
 40
14.0
 40
15.0
 40
15.0
 40
15.0
 40
16.0
 40
16.0
 40
16.0
 40
16.0
 10
86.5854125760099
 20
-111.4643418775159
 10
86.50100773662128
 20
-111.4643418775159
 10
86.39145370019034
 20
-111.446082871444
 10
86.28189966375939
 20
-111.3775254712876
 10
86.09483097891032
 20
-111.259014186595
 10
86.07192109393341
 20
-111.1174207621512
 10
86.05142277579617
 20
-111.0009765347498
 10
86.05142277579617
 20
-111.0009765347498
 10
86.29085691202104
 20
-111.0009765347498
 10
86.29085691202104
 20
-111.0009765347498
 10
86.35045706391587
 20
-111.2156059834808
 10
86.48722735468029
 20
-111.2474731167194
 10
86.58782414284957
 20
-111.2474731167194
 10
86.73837481555499
 20
-111.2474731167194
 10
86.90270587020142
 20
-111.1401583923539
 10
86.90270587020142
 20
-110.8891831862534
 10
86.90270587020142
 20
-110.6130587831106
 10
86.70874699438184
 20
-110.5376111919837
 10
86.5785223850394
 20
-110.5376111919837
 10
86.54441593973543
 20
-110.5376111919837
 10
86.39145370019034
 20
-110.5376111919837
 10
86.2956800457004
 20
-110.676965304362
 10
86.2956800457004
 20
-110.676965304362
 10
86.10619979401164
 20
-110.6564669862248
 10
86.10619979401164
 20
-110.6564669862248
 10
86.10619979401164
 20
-110.6564669862248
 10
86.23642440335409
 20
-109.7435166826336
 10
86.23642440335409
 20
-109.7435166826336
 10
86.23642440335409
 20
-109.7435166826336
 10
87.076338682658
 20
-109.7435166826336
 10
87.076338682658
 20
-109.7435166826336
 10
87.076338682658
 20
-109.7435166826336
 10
87.076338682658
 20
-109.9533229976853
 10
87.076338682658
 20
-109.9533229976853
 10
87.076338682658
 20
-109.9533229976853
 10
86.41212427310184
 20
-109.9533229976853
 10
86.41212427310184
 20
-109.9533229976853
 10
86.41212427310184
 20
-109.9533229976853
 10
86.34115530610569
 20
-110.4097981494809
 10
86.34115530610569
 20
-110.4097981494809
 10
86.40730113942249
 20
-110.3732801373372
 10
86.49652911249045
 20
-110.3300441889973
 10
86.62434215499323
 20
-110.3300441889973
 10
86.89822724607059
 20
-110.3300441889973
 10
87.15385333107612
 20
-110.5308932557874
 10
87.15385333107612
 20
-110.8686848681162
 10
87.15385333107612
 20
-111.2109551045757
 10
86.91166311846305
 20
-111.4643418775159
 10
86.5854125760099
 20
-111.4643418775159
 97
        0
 97
        0
 75
     2
 76
     1
 98
        0
  0
ENDBLK
  5
B2
330
AF
100
AcDbEntity
  8
0
100
AcDbBlockEnd
  0
BLOCK
  5
C5
330
C3
100
AcDbEntity
  8
0
100
AcDbBlockBegin
  2
block 3
 70
     0
 10
0.0
 20
0.0
 30
0.0
  3
block 3
  1

  0
POLYLINE
  5
C7
330
C3
100
AcDbEntity
  8
_U+30EC_U+30A4_U+30E4_U+30FC 1
370
     0
100
AcDb2dPolyline
 66
     1
 10
0.0
 20
0.0
 30
0.0
  0
VERTEX
  5
C8
330
C7
100
AcDbEntity
  8
_U+30EC_U+30A4_U+30E4_U+30FC 1
370
     0
100
AcDbVertex
100
AcDb2dVertex
 10
85.6939941192015
 20
-146.4351616387384
 30
0.0
  0
VERTEX
  5
C9
330
C7
100
AcDbEntity
  8
_U+30EC_U+30A4_U+30E4_U+30FC 1
370
     0
100
AcDbVertex
100
AcDb2dVertex
 10
85.6939941192015
 20
-146.8092990084366
 30
0.0
  0
VERTEX
  5
CA
330
C7
100
AcDbEntity
  8
_U+30EC_U+30A4_U+30E4_U+30FC 1
370
     0
100
AcDbVertex
100
AcDb2dVertex
 10
85.4588663523332
 20
-146.8092990084366
 30
0.0
  0
VERTEX
  5
CB
330
C7
100
AcDbEntity
  8
_U+30EC_U+30A4_U+30E4_U+30FC 1
370
     0
100
AcDbVertex
100
AcDb2dVertex
 10
85.4588663523332
 20
-146.4351616387384
 30
0.0
  0
VERTEX
  5
CC
330
C7
100
AcDbEntity
  8
_U+30EC_U+30A4_U+30E4_U+30FC 1
370
     0
100
AcDbVertex
100
AcDb2dVertex
 10
84.75124373966288
 20
-146.4351616387384
 30
0.0
  0
VERTEX
  5
CD
330
C7
100
AcDbEntity
  8
_U+30EC_U+30A4_U+30E4_U+30FC 1
370
     0
100
AcDbVertex
100
AcDb2dVertex
 10
84.75124373966288
 20
-146.1929714261254
 30
0.0
  0
VERTEX
  5
CE
330
C7
100
AcDbEntity
  8
_U+30EC_U+30A4_U+30E4_U+30FC 1
370
     0
100
AcDbVertex
100
AcDb2dVertex
 10
85.48401554937553
 20
-145.1432508317698
 30
0.0
  0
VERTEX
  5
CF
330
C7
100
AcDbEntity
  8
_U+30EC_U+30A4_U+30E4_U+30FC 1
370
     0
100
AcDbVertex
100
AcDb2dVertex
 10
85.6939941192015
 20
-145.1432508317698
 30
0.0
  0
VERTEX
  5
D0
330
C7
100
AcDbEntity
  8
_U+30EC_U+30A4_U+30E4_U+30FC 1
370
     0
100
AcDbVertex
100
AcDb2dVertex
 10
85.6939941192015
 20
-146.2205321900074
 30
0.0
  0
VERTEX
  5
D1
330
C7
100
AcDbEntity
  8
_U+30EC_U+30A4_U+30E4_U+30FC 1
370
     0
100
AcDbVertex
100
AcDb2dVertex
 10
85.91758081619422
 20
-146.2205321900074
 30
0.0
  0
VERTEX
  5
D2
330
C7
100
AcDbEntity
  8
_U+30EC_U+30A4_U+30E4_U+30FC 1
370
     0
100
AcDbVertex
100
AcDb2dVertex
 10
85.91758081619422
 20
-146.4351616387384
 30
0.0
  0
VERTEX
  5
D3
330
C7
100
AcDbEntity
  8
_U+30EC_U+30A4_U+30E4_U+30FC 1
370
     0
100
AcDbVertex
100
AcDb2dVertex
 10
85.6939941192015
 20
-146.4351616387384
 30
0.0
  0
SEQEND
  5
D4
330
C7
100
AcDbEntity
  8
_U+30EC_U+30A4_U+30E4_U+30FC 1
370
     0
  0
POLYLINE
  5
D5
330
C3
100
AcDbEntity
  8
_U+30EC_U+30A4_U+30E4_U+30FC 1
370
     0
100
AcDb2dPolyline
 66
     1
 10
0.0
 20
0.0
 30
0.0
  0
VERTEX
  5
D6
330
D5
100
AcDbEntity
  8
_U+30EC_U+30A4_U+30E4_U+30FC 1
370
     0
100
AcDbVertex
100
AcDb2dVertex
 10
85.4588663523332
 20
-145.5129095773371
 30
0.0
  0
VERTEX
  5
D7
330
D5
100
AcDbEntity
  8
_U+30EC_U+30A4_U+30E4_U+30FC 1
370
     0
100
AcDbVertex
100
AcDb2dVertex
 10
84.96587318839396
 20
-146.2205321900074
 30
0.0
  0
VERTEX
  5
D8
330
D5
100
AcDbEntity
  8
_U+30EC_U+30A4_U+30E4_U+30FC 1
370
     0
100
AcDbVertex
100
AcDb2dVertex
 10
85.4588663523332
 20
-146.2205321900074
 30
0.0
  0
VERTEX
  5
D9
330
D5
100
AcDbEntity
  8
_U+30EC_U+30A4_U+30E4_U+30FC 1
370
     0
100
AcDbVertex
100
AcDb2dVertex
 10
85.4588663523332
 20
-145.5129095773371
 30
0.0
  0
SEQEND
  5
DA
330
D5
100
AcDbEntity
  8
_U+30EC_U+30A4_U+30E4_U+30FC 1
370
     0
  0
HATCH
  5
DB
330
C3
100
AcDbEntity
  8
_U+30EC_U+30A4_U+30E4_U+30FC 1
 62
   179
420
  2234388
100
AcDbHatch
 10
0.0
 20
0.0
 30
0.0
210
0.0
220
0.0
230
1.0
  2
SOLID
 70
     1
 71
     0
 91
        2
 92
        1
 93
       11
 72
     1
 10
85.6939941192015
 20
-146.4351616387384
 11
85.6939941192015
 21
-146.8092990084366
 72
     1
 10
85.6939941192015
 20
-146.8092990084366
 11
85.4588663523332
 21
-146.8092990084366
 72
     1
 10
85.4588663523332
 20
-146.8092990084366
 11
85.4588663523332
 21
-146.4351616387384
 72
     1
 10
85.4588663523332
 20
-146.4351616387384
 11
84.75124373966288
 21
-146.4351616387384
 72
     1
 10
84.75124373966288
 20
-146.4351616387384
 11
84.75124373966288
 21
-146.1929714261254
 72
     1
 10
84.75124373966288
 20
-146.1929714261254
 11
85.48401554937553
 21
-145.1432508317698
 72
     1
 10
85.48401554937553
 20
-145.1432508317698
 11
85.6939941192015
 21
-145.1432508317698
 72
     1
 10
85.6939941192015
 20
-145.1432508317698
 11
85.6939941192015
 21
-146.2205321900074
 72
     1
 10
85.6939941192015
 20
-146.2205321900074
 11
85.91758081619422
 21
-146.2205321900074
 72
     1
 10
85.91758081619422
 20
-146.2205321900074
 11
85.91758081619422
 21
-146.4351616387384
 72
     1
 10
85.91758081619422
 20
-146.4351616387384
 11
85.6939941192015
 21
-146.4351616387384
 97
        0
 92
        1
 93
        3
 72
     1
 10
85.4588663523332
 20
-145.5129095773371
 11
84.96587318839396
 21
-146.2205321900074
 72
     1
 10
84.96587318839396
 20
-146.2205321900074
 11
85.4588663523332
 21
-146.2205321900074
 72
     1
 10
85.4588663523332
 20
-146.2205321900074
 11
85.4588663523332
 21
-145.5129095773371
 97
        0
 75
     2
 76
     1
 98
        0
  0
SPLINE
  5
DC
330
C3
100
AcDbEntity
  8
_U+30EC_U+30A4_U+30E4_U+30FC 1
370
     0
100
AcDbSpline
210
0.0
220
0.0
230
1.0
 70
    11
 71
     3
 72
    53
 73
    49
 74
     0
 42
0.0000000001
 43
0.0000000001
 12
1.0
 22
0.0
 32
0.0
 13
1.0
 23
0.0
 33
0.0
 40
0.0
 40
0.0
 40
0.0
 40
0.0
 40
1.0
 40
1.0
 40
1.0
 40
2.0
 40
2.0
 40
2.0
 40
3.0
 40
3.0
 40
3.0
 40
4.0
 40
4.0
 40
4.0
 40
5.0
 40
5.0
 40
5.0
 40
6.0
 40
6.0
 40
6.0
 40
7.0
 40
7.0
 40
7.0
 40
8.0
 40
8.0
 40
8.0
 40
9.0
 40
9.0
 40
9.0
 40
10.0
 40
10.0
 40
10.0
 40
11.0
 40
11.0
 40
11.0
 40
12.0
 40
12.0
 40
12.0
 40
13.0
 40
13.0
 40
13.0
 40
14.0
 40
14.0
 40
14.0
 40
15.0
 40
15.0
 40
15.0
 40
16.0
 40
16.0
 40
16.0
 40
16.0
 10
86.5854125760099
 20
-146.864076026652
 30
0.0
 10
86.50100773662128
 20
-146.864076026652
 30
0.0
 10
86.39145370019034
 20
-146.8458170205802
 30
0.0
 10
86.28189966375939
 20
-146.7772596204237
 30
0.0
 10
86.09483097891032
 20
-146.6587483357312
 30
0.0
 10
86.07192109393341
 20
-146.5171549112874
 30
0.0
 10
86.05142277579617
 20
-146.4007106838859
 30
0.0
 10
86.05142277579617
 20
-146.4007106838859
 30
0.0
 10
86.29085691202104
 20
-146.4007106838859
 30
0.0
 10
86.29085691202104
 20
-146.4007106838859
 30
0.0
 10
86.35045706391587
 20
-146.615340132617
 30
0.0
 10
86.48722735468029
 20
-146.6473795206298
 30
0.0
 10
86.58782414284957
 20
-146.6473795206298
 30
0.0
 10
86.73837481555499
 20
-146.6473795206298
 30
0.0
 10
86.90270587020142
 20
-146.53989254149
 30
0.0
 10
86.90270587020142
 20
-146.2890895901639
 30
0.0
 10
86.90270587020142
 20
-146.0127929322468
 30
0.0
 10
86.70874699438184
 20
-145.9373453411199
 30
0.0
 10
86.5785223850394
 20
-145.9373453411199
 30
0.0
 10
86.54441593973543
 20
-145.9373453411199
 30
0.0
 10
86.39145370019034
 20
-145.9373453411199
 30
0.0
 10
86.2956800457004
 20
-146.0765271987239
 30
0.0
 10
86.2956800457004
 20
-146.0765271987239
 30
0.0
 10
86.10619979401164
 20
-146.056201135361
 30
0.0
 10
86.10619979401164
 20
-146.056201135361
 30
0.0
 10
86.10619979401164
 20
-146.056201135361
 30
0.0
 10
86.23642440335409
 20
-145.1432508317698
 30
0.0
 10
86.23642440335409
 20
-145.1432508317698
 30
0.0
 10
86.23642440335409
 20
-145.1432508317698
 30
0.0
 10
87.076338682658
 20
-145.1432508317698
 30
0.0
 10
87.076338682658
 20
-145.1432508317698
 30
0.0
 10
87.076338682658
 20
-145.1432508317698
 30
0.0
 10
87.076338682658
 20
-145.3530571468215
 30
0.0
 10
87.076338682658
 20
-145.3530571468215
 30
0.0
 10
87.076338682658
 20
-145.3530571468215
 30
0.0
 10
86.41212427310184
 20
-145.3530571468215
 30
0.0
 10
86.41212427310184
 20
-145.3530571468215
 30
0.0
 10
86.41212427310184
 20
-145.3530571468215
 30
0.0
 10
86.34115530610569
 20
-145.8095322986171
 30
0.0
 10
86.34115530610569
 20
-145.8095322986171
 30
0.0
 10
86.40730113942249
 20
-145.7730142864734
 30
0.0
 10
86.49652911249045
 20
-145.7296060833593
 30
0.0
 10
86.62434215499323
 20
-145.7296060833593
 30
0.0
 10
86.89822724607059
 20
-145.7296060833593
 30
0.0
 10
87.15385333107612
 20
-145.9304551501493
 30
0.0
 10
87.15385333107612
 20
-146.2684190172523
 30
0.0
 10
87.15385333107612
 20
-146.6108615084862
 30
0.0
 10
86.91166311846305
 20
-146.864076026652
 30
0.0
 10
86.5854125760099
 20
-146.864076026652
 30
0.0
  0
HATCH
  5
DD
330
C3
100
AcDbEntity
  8
_U+30EC_U+30A4_U+30E4_U+30FC 1
 62
   179
420
  2234388
100
AcDbHatch
 10
0.0
 20
0.0
 30
0.0
210
0.0
220
0.0
230
1.0
  2
SOLID
 70
     1
 71
     0
 91
        1
 92
        1
 93
        1
 72
     4
 94
        3
 73
     0
 74
     1
 95
       53
 96
       49
 40
0.0
 40
0.0
 40
0.0
 40
0.0
 40
1.0
 40
1.0
 40
1.0
 40
2.0
 40
2.0
 40
2.0
 40
3.0
 40
3.0
 40
3.0
 40
4.0
 40
4.0
 40
4.0
 40
5.0
 40
5.0
 40
5.0
 40
6.0
 40
6.0
 40
6.0
 40
7.0
 40
7.0
 40
7.0
 40
8.0
 40
8.0
 40
8.0
 40
9.0
 40
9.0
 40
9.0
 40
10.0
 40
10.0
 40
10.0
 40
11.0
 40
11.0
 40
11.0
 40
12.0
 40
12.0
 40
12.0
 40
13.0
 40
13.0
 40
13.0
 40
14.0
 40
14.0
 40
14.0
 40
15.0
 40
15.0
 40
15.0
 40
16.0
 40
16.0
 40
16.0
 40
16.0
 10
86.5854125760099
 20
-146.864076026652
 10
86.50100773662128
 20
-146.864076026652
 10
86.39145370019034
 20
-146.8458170205802
 10
86.28189966375939
 20
-146.7772596204237
 10
86.09483097891032
 20
-146.6587483357312
 10
86.07192109393341
 20
-146.5171549112874
 10
86.05142277579617
 20
-146.4007106838859
 10
86.05142277579617
 20
-146.4007106838859
 10
86.29085691202104
 20
-146.4007106838859
 10
86.29085691202104
 20
-146.4007106838859
 10
86.35045706391587
 20
-146.615340132617
 10
86.48722735468029
 20
-146.6473795206298
 10
86.58782414284957
 20
-146.6473795206298
 10
86.73837481555499
 20
-146.6473795206298
 10
86.90270587020142
 20
-146.53989254149
 10
86.90270587020142
 20
-146.2890895901639
 10
86.90270587020142
 20
-146.0127929322468
 10
86.70874699438184
 20
-145.9373453411199
 10
86.5785223850394
 20
-145.9373453411199
 10
86.54441593973543
 20
-145.9373453411199
 10
86.39145370019034
 20
-145.9373453411199
 10
86.2956800457004
 20
-146.0765271987239
 10
86.2956800457004
 20
-146.0765271987239
 10
86.10619979401164
 20
-146.056201135361
 10
86.10619979401164
 20
-146.056201135361
 10
86.10619979401164
 20
-146.056201135361
 10
86.23642440335409
 20
-145.1432508317698
 10
86.23642440335409
 20
-145.1432508317698
 10
86.23642440335409
 20
-145.1432508317698
 10
87.076338682658
 20
-145.1432508317698
 10
87.076338682658
 20
-145.1432508317698
 10
87.076338682658
 20
-145.1432508317698
 10
87.076338682658
 20
-145.3530571468215
 10
87.076338682658
 20
-145.3530571468215
 10
87.076338682658
 20
-145.3530571468215
 10
86.41212427310184
 20
-145.3530571468215
 10
86.41212427310184
 20
-145.3530571468215
 10
86.41212427310184
 20
-145.3530571468215
 10
86.34115530610569
 20
-145.8095322986171
 10
86.34115530610569
 20
-145.8095322986171
 10
86.40730113942249
 20
-145.7730142864734
 10
86.49652911249045
 20
-145.7296060833593
 10
86.62434215499323
 20
-145.7296060833593
 10
86.89822724607059
 20
-145.7296060833593
 10
87.15385333107612
 20
-145.9304551501493
 10
87.15385333107612
 20
-146.2684190172523
 10
87.15385333107612
 20
-146.6108615084862
 10
86.91166311846305
 20
-146.864076026652
 10
86.5854125760099
 20
-146.864076026652
 97
        0
 97
        0
 75
     2
 76
     1
 98
        0
  0
ENDBLK
  5
C6
330
C3
100
AcDbEntity
  8
0
100
AcDbBlockEnd
  0
BLOCK
  5
EC
330
EA
100
AcDbEntity
  8
0
100
AcDbBlockBegin
  2
block 4
 70
     0
 10
0.0
 20
0.0
 30
0.0
  3
block 4
  1

  0
SPLINE
  5
EE
330
EA
100
AcDbEntity
  8
_U+30EC_U+30A4_U+30E4_U+30FC 1
370
     0
100
AcDbSpline
210
0.0
220
0.0
230
1.0
 70
    11
 71
     3
 72
    26
 73
    22
 74
     0
 42
0.0000000001
 43
0.0000000001
 12
1.0
 22
0.0
 32
0.0
 13
1.0
 23
0.0
 33
0.0
 40
0.0
 40
0.0
 40
0.0
 40
0.0
 40
1.0
 40
1.0
 40
1.0
 40
2.0
 40
2.0
 40
2.0
 40
3.0
 40
3.0
 40
3.0
 40
4.0
 40
4.0
 40
4.0
 40
5.0
 40
5.0
 40
5.0
 40
6.0
 40
6.0
 40
6.0
 40
7.0
 40
7.0
 40
7.0
 40
7.0
 10
116.2065158129623
 20
-143.9198974249575
 30
0.0
 10
116.2065158129623
 20
-143.9198974249575
 30
0.0
 10
115.0152017941629
 20
-143.9198974249575
 30
0.0
 10
115.0152017941629
 20
-143.9198974249575
 30
0.0
 10
115.0152017941629
 20
-143.9198974249575
 30
0.0
 10
115.0152017941629
 20
-144.2757757885838
 30
0.0
 10
115.0152017941629
 20
-144.2757757885838
 30
0.0
 10
115.0152017941629
 20
-144.2757757885838
 30
0.0
 10
114.8553493636473
 20
-144.2757757885838
 30
0.0
 10
114.8553493636473
 20
-144.2757757885838
 30
0.0
 10
114.8395019244151
 20
-143.9174858581179
 30
0.0
 10
114.6634575451189
 20
-143.8671874640332
 30
0.0
 10
114.5404676362954
 20
-143.8354925855689
 30
0.0
 10
114.5404676362954
 20
-143.8354925855689
 30
0.0
 10
114.5404676362954
 20
-143.6777072123445
 30
0.0
 10
114.5404676362954
 20
-143.6777072123445
 30
0.0
 10
114.5404676362954
 20
-143.6777072123445
 30
0.0
 10
116.2065158129623
 20
-143.6777072123445
 30
0.0
 10
116.2065158129623
 20
-143.6777072123445
 30
0.0
 10
116.2065158129623
 20
-143.6777072123445
 30
0.0
 10
116.2065158129623
 20
-143.9198974249575
 30
0.0
 10
116.2065158129623
 20
-143.9198974249575
 30
0.0
  0
HATCH
  5
EF
330
EA
100
AcDbEntity
  8
_U+30EC_U+30A4_U+30E4_U+30FC 1
 62
   179
420
  2234388
100
AcDbHatch
 10
0.0
 20
0.0
 30
0.0
210
0.0
220
0.0
230
1.0
  2
SOLID
 70
     1
 71
     0
 91
        1
 92
        1
 93
        1
 72
     4
 94
        3
 73
     0
 74
     1
 95
       26
 96
       22
 40
0.0
 40
0.0
 40
0.0
 40
0.0
 40
1.0
 40
1.0
 40
1.0
 40
2.0
 40
2.0
 40
2.0
 40
3.0
 40
3.0
 40
3.0
 40
4.0
 40
4.0
 40
4.0
 40
5.0
 40
5.0
 40
5.0
 40
6.0
 40
6.0
 40
6.0
 40
7.0
 40
7.0
 40
7.0
 40
7.0
 10
116.2065158129623
 20
-143.9198974249575
 10
116.2065158129623
 20
-143.9198974249575
 10
115.0152017941629
 20
-143.9198974249575
 10
115.0152017941629
 20
-143.9198974249575
 10
115.0152017941629
 20
-143.9198974249575
 10
115.0152017941629
 20
-144.2757757885838
 10
115.0152017941629
 20
-144.2757757885838
 10
115.0152017941629
 20
-144.2757757885838
 10
114.8553493636473
 20
-144.2757757885838
 10
114.8553493636473
 20
-144.2757757885838
 10
114.8395019244151
 20
-143.9174858581179
 10
114.6634575451189
 20
-143.8671874640332
 10
114.5404676362954
 20
-143.8354925855689
 10
114.5404676362954
 20
-143.8354925855689
 10
114.5404676362954
 20
-143.6777072123445
 10
114.5404676362954
 20
-143.6777072123445
 10
114.5404676362954
 20
-143.6777072123445
 10
116.2065158129623
 20
-143.6777072123445
 10
116.2065158129623
 20
-143.6777072123445
 10
116.2065158129623
 20
-143.6777072123445
 10
116.2065158129623
 20
-143.9198974249575
 10
116.2065158129623
 20
-143.9198974249575
 97
        0
 97
        0
 75
     2
 76
     1
 98
        0
  0
POLYLINE
  5
F0
330
EA
100
AcDbEntity
  8
_U+30EC_U+30A4_U+30E4_U+30FC 1
370
     0
100
AcDb2dPolyline
 66
     1
 10
0.0
 20
0.0
 30
0.0
  0
VERTEX
  5
F1
330
F0
100
AcDbEntity
  8
_U+30EC_U+30A4_U+30E4_U+30FC 1
370
     0
100
AcDbVertex
100
AcDb2dVertex
 10
116.2065158129623
 20
-143.071714916489
 30
0.0
  0
VERTEX
  5
F2
330
F0
100
AcDbEntity
  8
_U+30EC_U+30A4_U+30E4_U+30FC 1
370
     0
100
AcDbVertex
100
AcDb2dVertex
 10
115.9350422887246
 20
-143.071714916489
 30
0.0
  0
VERTEX
  5
F3
330
F0
100
AcDbEntity
  8
_U+30EC_U+30A4_U+30E4_U+30FC 1
370
     0
100
AcDbVertex
100
AcDb2dVertex
 10
115.9350422887246
 20
-142.8002413922513
 30
0.0
  0
VERTEX
  5
F4
330
F0
100
AcDbEntity
  8
_U+30EC_U+30A4_U+30E4_U+30FC 1
370
     0
100
AcDbVertex
100
AcDb2dVertex
 10
116.2065158129623
 20
-142.8002413922513
 30
0.0
  0
VERTEX
  5
F5
330
F0
100
AcDbEntity
  8
_U+30EC_U+30A4_U+30E4_U+30FC 1
370
     0
100
AcDbVertex
100
AcDb2dVertex
 10
116.2065158129623
 20
-143.071714916489
 30
0.0
  0
SEQEND
  5
F6
330
F0
100
AcDbEntity
  8
_U+30EC_U+30A4_U+30E4_U+30FC 1
370
     0
  0
HATCH
  5
F7
330
EA
100
AcDbEntity
  8
_U+30EC_U+30A4_U+30E4_U+30FC 1
 62
   179
420
  2234388
100
AcDbHatch
 10
0.0
 20
0.0
 30
0.0
210
0.0
220
0.0
230
1.0
  2
SOLID
 70
     1
 71
     0
 91
        1
 92
        1
 93
        4
 72
     1
 10
116.2065158129623
 20
-143.071714916489
 11
115.9350422887246
 21
-143.071714916489
 72
     1
 10
115.9350422887246
 20
-143.071714916489
 11
115.9350422887246
 21
-142.8002413922513
 72
     1
 10
115.9350422887246
 20
-142.8002413922513
 11
116.2065158129623
 21
-142.8002413922513
 72
     1
 10
116.2065158129623
 20
-142.8002413922513
 11
116.2065158129623
 21
-143.071714916489
 97
        0
 75
     2
 76
     1
 98
        0
  0
SPLINE
  5
F8
330
EA
100
AcDbEntity
  8
_U+30EC_U+30A4_U+30E4_U+30FC 1
370
     0
100
AcDbSpline
210
0.0
220
0.0
230
1.0
 70
    11
 71
     3
 72
    44
 73
    40
 74
     0
 42
0.0000000001
 43
0.0000000001
 12
1.0
 22
0.0
 32
0.0
 13
1.0
 23
0.0
 33
0.0
 40
0.0
 40
0.0
 40
0.0
 40
0.0
 40
1.0
 40
1.0
 40
1.0
 40
2.0
 40
2.0
 40
2.0
 40
3.0
 40
3.0
 40
3.0
 40
4.0
 40
4.0
 40
4.0
 40
5.0
 40
5.0
 40
5.0
 40
6.0
 40
6.0
 40
6.0
 40
7.0
 40
7.0
 40
7.0
 40
8.0
 40
8.0
 40
8.0
 40
9.0
 40
9.0
 40
9.0
 40
10.0
 40
10.0
 40
10.0
 40
11.0
 40
11.0
 40
11.0
 40
12.0
 40
12.0
 40
12.0
 40
13.0
 40
13.0
 40
13.0
 40
13.0
 10
115.5788194155497
 20
-141.9048610756349
 30
0.0
 10
115.7500406611667
 20
-142.1398165877289
 30
0.0
 10
115.8299668764245
 20
-142.2404133758982
 30
0.0
 10
115.9849961732607
 20
-142.292778827274
 30
0.0
 10
115.9849961732607
 20
-142.292778827274
 30
0.0
 10
115.9849961732607
 20
-141.4528645479701
 30
0.0
 10
115.9849961732607
 20
-141.4528645479701
 30
0.0
 10
115.9849961732607
 20
-141.4528645479701
 30
0.0
 10
116.2065158129623
 20
-141.4528645479701
 30
0.0
 10
116.2065158129623
 20
-141.4528645479701
 30
0.0
 10
116.2065158129623
 20
-141.4528645479701
 30
0.0
 10
116.2065158129623
 20
-142.5621852942206
 30
0.0
 10
116.2065158129623
 20
-142.5621852942206
 30
0.0
 10
115.8206651186143
 20
-142.5277343393681
 30
0.0
 10
115.7362602792257
 20
-142.4571098819204
 30
0.0
 10
115.4144883609033
 20
-142.0416313663993
 30
0.0
 10
115.1998589121723
 20
-141.7656792180308
 30
0.0
 10
115.126822887885
 20
-141.6947102510346
 30
0.0
 10
114.9786837820192
 20
-141.6947102510346
 30
0.0
 10
114.8508707395165
 20
-141.6947102510346
 30
0.0
 10
114.7092773150727
 20
-141.7725694090013
 30
0.0
 10
114.7092773150727
 20
-141.9847872908927
 30
0.0
 10
114.7092773150727
 20
-142.265218063392
 30
0.0
 10
114.9580132091077
 20
-142.2745198212022
 30
0.0
 10
115.0837591943193
 20
-142.278998445333
 30
0.0
 10
115.0837591943193
 20
-142.278998445333
 30
0.0
 10
115.0837591943193
 20
-142.5208441483976
 30
0.0
 10
115.0837591943193
 20
-142.5208441483976
 30
0.0
 10
114.9466443940064
 20
-142.5118869001359
 30
0.0
 10
114.8257215424741
 20
-142.5005180850346
 30
0.0
 10
114.6979084999714
 20
-142.4137016788063
 30
0.0
 10
114.5242756875148
 20
-142.2951903941137
 30
0.0
 10
114.4877576753711
 20
-142.0943413273236
 30
0.0
 10
114.4877576753711
 20
-141.968595342112
 30
0.0
 10
114.4877576753711
 20
-141.6695610539923
 30
0.0
 10
114.68653968487
 20
-141.4459743569996
 30
0.0
 10
114.9807508393104
 20
-141.4459743569996
 30
0.0
 10
115.2274196760543
 20
-141.4459743569996
 30
0.0
 10
115.3345621456455
 20
-141.5713758326627
 30
0.0
 10
115.5788194155497
 20
-141.9048610756349
 30
0.0
  0
HATCH
  5
F9
330
EA
100
AcDbEntity
  8
_U+30EC_U+30A4_U+30E4_U+30FC 1
 62
   179
420
  2234388
100
AcDbHatch
 10
0.0
 20
0.0
 30
0.0
210
0.0
220
0.0
230
1.0
  2
SOLID
 70
     1
 71
     0
 91
        1
 92
        1
 93
        1
 72
     4
 94
        3
 73
     0
 74
     1
 95
       44
 96
       40
 40
0.0
 40
0.0
 40
0.0
 40
0.0
 40
1.0
 40
1.0
 40
1.0
 40
2.0
 40
2.0
 40
2.0
 40
3.0
 40
3.0
 40
3.0
 40
4.0
 40
4.0
 40
4.0
 40
5.0
 40
5.0
 40
5.0
 40
6.0
 40
6.0
 40
6.0
 40
7.0
 40
7.0
 40
7.0
 40
8.0
 40
8.0
 40
8.0
 40
9.0
 40
9.0
 40
9.0
 40
10.0
 40
10.0
 40
10.0
 40
11.0
 40
11.0
 40
11.0
 40
12.0
 40
12.0
 40
12.0
 40
13.0
 40
13.0
 40
13.0
 40
13.0
 10
115.5788194155497
 20
-141.9048610756349
 10
115.7500406611667
 20
-142.1398165877289
 10
115.8299668764245
 20
-142.2404133758982
 10
115.9849961732607
 20
-142.292778827274
 10
115.9849961732607
 20
-142.292778827274
 10
115.9849961732607
 20
-141.4528645479701
 10
115.9849961732607
 20
-141.4528645479701
 10
115.9849961732607
 20
-141.4528645479701
 10
116.2065158129623
 20
-141.4528645479701
 10
116.2065158129623
 20
-141.4528645479701
 10
116.2065158129623
 20
-141.4528645479701
 10
116.2065158129623
 20
-142.5621852942206
 10
116.2065158129623
 20
-142.5621852942206
 10
115.8206651186143
 20
-142.5277343393681
 10
115.7362602792257
 20
-142.4571098819204
 10
115.4144883609033
 20
-142.0416313663993
 10
115.1998589121723
 20
-141.7656792180308
 10
115.126822887885
 20
-141.6947102510346
 10
114.9786837820192
 20
-141.6947102510346
 10
114.8508707395165
 20
-141.6947102510346
 10
114.7092773150727
 20
-141.7725694090013
 10
114.7092773150727
 20
-141.9847872908927
 10
114.7092773150727
 20
-142.265218063392
 10
114.9580132091077
 20
-142.2745198212022
 10
115.0837591943193
 20
-142.278998445333
 10
115.0837591943193
 20
-142.278998445333
 10
115.0837591943193
 20
-142.5208441483976
 10
115.0837591943193
 20
-142.5208441483976
 10
114.9466443940064
 20
-142.5118869001359
 10
114.8257215424741
 20
-142.5005180850346
 10
114.6979084999714
 20
-142.4137016788063
 10
114.5242756875148
 20
-142.2951903941137
 10
114.4877576753711
 20
-142.0943413273236
 10
114.4877576753711
 20
-141.968595342112
 10
114.4877576753711
 20
-141.6695610539923
 10
114.68653968487
 20
-141.4459743569996
 10
114.9807508393104
 20
-141.4459743569996
 10
115.2274196760543
 20
-141.4459743569996
 10
115.3345621456455
 20
-141.5713758326627
 10
115.5788194155497
 20
-141.9048610756349
 97
        0
 97
        0
 75
     2
 76
     1
 98
        0
  0
ENDBLK
  5
ED
330
EA
100
AcDbEntity
  8
0
100
AcDbBlockEnd
  0
BLOCK
  5
104
330
102
100
AcDbEntity
  8
0
100
AcDbBlockBegin
  2
block 5
 70
     0
 10
0.0
 20
0.0
 30
0.0
  3
block 5
  1

  0
SPLINE
  5
106
330
102
100
AcDbEntity
  8
_U+30EC_U+30A4_U+30E4_U+30FC 1
370
     0
100
AcDbSpline
210
0.0
220
0.0
230
1.0
 70
    11
 71
     3
 72
    44
 73
    40
 74
     0
 42
0.0000000001
 43
0.0000000001
 12
1.0
 22
0.0
 32
0.0
 13
1.0
 23
0.0
 33
0.0
 40
0.0
 40
0.0
 40
0.0
 40
0.0
 40
1.0
 40
1.0
 40
1.0
 40
2.0
 40
2.0
 40
2.0
 40
3.0
 40
3.0
 40
3.0
 40
4.0
 40
4.0
 40
4.0
 40
5.0
 40
5.0
 40
5.0
 40
6.0
 40
6.0
 40
6.0
 40
7.0
 40
7.0
 40
7.0
 40
8.0
 40
8.0
 40
8.0
 40
9.0
 40
9.0
 40
9.0
 40
10.0
 40
10.0
 40
10.0
 40
11.0
 40
11.0
 40
11.0
 40
12.0
 40
12.0
 40
12.0
 40
13.0
 40
13.0
 40
13.0
 40
13.0
 10
111.3454860832747
 20
-130.1429605794434
 30
0.0
 10
111.5167073288917
 20
-130.3779160915375
 30
0.0
 10
111.5966335441495
 20
-130.4785128797068
 30
0.0
 10
111.7516628409857
 20
-130.5308783310826
 30
0.0
 10
111.7516628409857
 20
-130.5308783310826
 30
0.0
 10
111.7516628409857
 20
-129.6909640517786
 30
0.0
 10
111.7516628409857
 20
-129.6909640517786
 30
0.0
 10
111.7516628409857
 20
-129.6909640517786
 30
0.0
 10
111.9731824806873
 20
-129.6909640517786
 30
0.0
 10
111.9731824806873
 20
-129.6909640517786
 30
0.0
 10
111.9731824806873
 20
-129.6909640517786
 30
0.0
 10
111.9731824806873
 20
-130.8002847980291
 30
0.0
 10
111.9731824806873
 20
-130.8002847980291
 30
0.0
 10
111.5873317863393
 20
-130.7658338431766
 30
0.0
 10
111.5029269469507
 20
-130.695209385729
 30
0.0
 10
111.1811550286283
 20
-130.2797308702079
 30
0.0
 10
110.9665255798973
 20
-130.0037787218394
 30
0.0
 10
110.89348955561
 20
-129.9328097548432
 30
0.0
 10
110.7453504497442
 20
-129.9328097548432
 30
0.0
 10
110.6175374072415
 20
-129.9328097548432
 30
0.0
 10
110.4759439827977
 20
-130.0103244032613
 30
0.0
 10
110.4759439827977
 20
-130.2228867947012
 30
0.0
 10
110.4759439827977
 20
-130.5036620767491
 30
0.0
 10
110.7246798768327
 20
-130.5126193250107
 30
0.0
 10
110.8504258620443
 20
-130.5170979491416
 30
0.0
 10
110.8504258620443
 20
-130.5170979491416
 30
0.0
 10
110.8504258620443
 20
-130.7592881617546
 30
0.0
 10
110.8504258620443
 20
-130.7592881617546
 30
0.0
 10
110.7133110617314
 20
-130.7499864039445
 30
0.0
 10
110.5923882101991
 20
-130.7386175888431
 30
0.0
 10
110.4645751676964
 20
-130.6518011826148
 30
0.0
 10
110.2909423552398
 20
-130.5332898979222
 30
0.0
 10
110.2544243430961
 20
-130.3324408311322
 30
0.0
 10
110.2544243430961
 20
-130.2066948459206
 30
0.0
 10
110.2544243430961
 20
-129.9076605578009
 30
0.0
 10
110.453206352595
 20
-129.6840738608082
 30
0.0
 10
110.7474175070354
 20
-129.6840738608082
 30
0.0
 10
110.9940863437793
 20
-129.6840738608082
 30
0.0
 10
111.1012288133705
 20
-129.8098198460198
 30
0.0
 10
111.3454860832747
 20
-130.1429605794434
 30
0.0
  0
HATCH
  5
107
330
102
100
AcDbEntity
  8
_U+30EC_U+30A4_U+30E4_U+30FC 1
 62
   179
420
  2234388
100
AcDbHatch
 10
0.0
 20
0.0
 30
0.0
210
0.0
220
0.0
230
1.0
  2
SOLID
 70
     1
 71
     0
 91
        1
 92
        1
 93
        1
 72
     4
 94
        3
 73
     0
 74
     1
 95
       44
 96
       40
 40
0.0
 40
0.0
 40
0.0
 40
0.0
 40
1.0
 40
1.0
 40
1.0
 40
2.0
 40
2.0
 40
2.0
 40
3.0
 40
3.0
 40
3.0
 40
4.0
 40
4.0
 40
4.0
 40
5.0
 40
5.0
 40
5.0
 40
6.0
 40
6.0
 40
6.0
 40
7.0
 40
7.0
 40
7.0
 40
8.0
 40
8.0
 40
8.0
 40
9.0
 40
9.0
 40
9.0
 40
10.0
 40
10.0
 40
10.0
 40
11.0
 40
11.0
 40
11.0
 40
12.0
 40
12.0
 40
12.0
 40
13.0
 40
13.0
 40
13.0
 40
13.0
 10
111.3454860832747
 20
-130.1429605794434
 10
111.5167073288917
 20
-130.3779160915375
 10
111.5966335441495
 20
-130.4785128797068
 10
111.7516628409857
 20
-130.5308783310826
 10
111.7516628409857
 20
-130.5308783310826
 10
111.7516628409857
 20
-129.6909640517786
 10
111.7516628409857
 20
-129.6909640517786
 10
111.7516628409857
 20
-129.6909640517786
 10
111.9731824806873
 20
-129.6909640517786
 10
111.9731824806873
 20
-129.6909640517786
 10
111.9731824806873
 20
-129.6909640517786
 10
111.9731824806873
 20
-130.8002847980291
 10
111.9731824806873
 20
-130.8002847980291
 10
111.5873317863393
 20
-130.7658338431766
 10
111.5029269469507
 20
-130.695209385729
 10
111.1811550286283
 20
-130.2797308702079
 10
110.9665255798973
 20
-130.0037787218394
 10
110.89348955561
 20
-129.9328097548432
 10
110.7453504497442
 20
-129.9328097548432
 10
110.6175374072415
 20
-129.9328097548432
 10
110.4759439827977
 20
-130.0103244032613
 10
110.4759439827977
 20
-130.2228867947012
 10
110.4759439827977
 20
-130.5036620767491
 10
110.7246798768327
 20
-130.5126193250107
 10
110.8504258620443
 20
-130.5170979491416
 10
110.8504258620443
 20
-130.5170979491416
 10
110.8504258620443
 20
-130.7592881617546
 10
110.8504258620443
 20
-130.7592881617546
 10
110.7133110617314
 20
-130.7499864039445
 10
110.5923882101991
 20
-130.7386175888431
 10
110.4645751676964
 20
-130.6518011826148
 10
110.2909423552398
 20
-130.5332898979222
 10
110.2544243430961
 20
-130.3324408311322
 10
110.2544243430961
 20
-130.2066948459206
 10
110.2544243430961
 20
-129.9076605578009
 10
110.453206352595
 20
-129.6840738608082
 10
110.7474175070354
 20
-129.6840738608082
 10
110.9940863437793
 20
-129.6840738608082
 10
111.1012288133705
 20
-129.8098198460198
 10
111.3454860832747
 20
-130.1429605794434
 97
        0
 97
        0
 75
     2
 76
     1
 98
        0
  0
SPLINE
  5
108
330
102
100
AcDbEntity
  8
_U+30EC_U+30A4_U+30E4_U+30FC 1
370
     0
100
AcDbSpline
210
0.0
220
0.0
230
1.0
 70
    11
 71
     3
 72
    53
 73
    49
 74
     0
 42
0.0000000001
 43
0.0000000001
 12
1.0
 22
0.0
 32
0.0
 13
1.0
 23
0.0
 33
0.0
 40
0.0
 40
0.0
 40
0.0
 40
0.0
 40
1.0
 40
1.0
 40
1.0
 40
2.0
 40
2.0
 40
2.0
 40
3.0
 40
3.0
 40
3.0
 40
4.0
 40
4.0
 40
4.0
 40
5.0
 40
5.0
 40
5.0
 40
6.0
 40
6.0
 40
6.0
 40
7.0
 40
7.0
 40
7.0
 40
8.0
 40
8.0
 40
8.0
 40
9.0
 40
9.0
 40
9.0
 40
10.0
 40
10.0
 40
10.0
 40
11.0
 40
11.0
 40
11.0
 40
12.0
 40
12.0
 40
12.0
 40
13.0
 40
13.0
 40
13.0
 40
14.0
 40
14.0
 40
14.0
 40
15.0
 40
15.0
 40
15.0
 40
16.0
 40
16.0
 40
16.0
 40
16.0
 10
112.0279594989027
 20
-128.9936767255641
 30
0.0
 10
112.0279594989027
 20
-129.0780815649527
 30
0.0
 10
112.0097004928309
 20
-129.1876356013836
 30
0.0
 10
111.9411430926744
 20
-129.2971896378146
 30
0.0
 10
111.8226318079818
 20
-129.4842583226637
 30
0.0
 10
111.6810383835381
 20
-129.5073404624148
 30
0.0
 10
111.5645941561366
 20
-129.5276665257778
 30
0.0
 10
111.5645941561366
 20
-129.5276665257778
 30
0.0
 10
111.5645941561366
 20
-129.2882323895529
 30
0.0
 10
111.5645941561366
 20
-129.2882323895529
 30
0.0
 10
111.7792236048677
 20
-129.2286322376581
 30
0.0
 10
111.8112629928805
 20
-129.0918619468937
 30
0.0
 10
111.8112629928805
 20
-128.9912651587244
 30
0.0
 10
111.8112629928805
 20
-128.840714486019
 30
0.0
 10
111.7037760137407
 20
-128.6763834313726
 30
0.0
 10
111.452628552866
 20
-128.6763834313726
 30
0.0
 10
111.1766764044975
 20
-128.6763834313726
 30
0.0
 10
111.1012288133705
 20
-128.8703423071921
 30
0.0
 10
111.1012288133705
 20
-129.0005669165346
 30
0.0
 10
111.1012288133705
 20
-129.0346733618386
 30
0.0
 10
111.1012288133705
 20
-129.1876356013836
 30
0.0
 10
111.2404106709746
 20
-129.2834092558736
 30
0.0
 10
111.2404106709746
 20
-129.2834092558736
 30
0.0
 10
111.2200846076117
 20
-129.4728895075623
 30
0.0
 10
111.2200846076117
 20
-129.4728895075623
 30
0.0
 10
111.2200846076117
 20
-129.4728895075623
 30
0.0
 10
110.3071343040204
 20
-129.3426648982199
 30
0.0
 10
110.3071343040204
 20
-129.3426648982199
 30
0.0
 10
110.3071343040204
 20
-129.3426648982199
 30
0.0
 10
110.3071343040204
 20
-128.502750618916
 30
0.0
 10
110.3071343040204
 20
-128.502750618916
 30
0.0
 10
110.3071343040204
 20
-128.502750618916
 30
0.0
 10
110.5169406190722
 20
-128.502750618916
 30
0.0
 10
110.5169406190722
 20
-128.502750618916
 30
0.0
 10
110.5169406190722
 20
-128.502750618916
 30
0.0
 10
110.5169406190722
 20
-129.1669650284722
 30
0.0
 10
110.5169406190722
 20
-129.1669650284722
 30
0.0
 10
110.5169406190722
 20
-129.1669650284722
 30
0.0
 10
110.9734157708678
 20
-129.2379339954683
 30
0.0
 10
110.9734157708678
 20
-129.2379339954683
 30
0.0
 10
110.9368977587241
 20
-129.1717881621515
 30
0.0
 10
110.89348955561
 20
-129.0825601890835
 30
0.0
 10
110.89348955561
 20
-128.9547471465808
 30
0.0
 10
110.89348955561
 20
-128.6808620555034
 30
0.0
 10
111.0943386224
 20
-128.4252359704979
 30
0.0
 10
111.432302489503
 20
-128.4252359704979
 30
0.0
 10
111.7747449807369
 20
-128.4252359704979
 30
0.0
 10
112.0279594989027
 20
-128.6674261831109
 30
0.0
 10
112.0279594989027
 20
-128.9936767255641
 30
0.0
  0
HATCH
  5
109
330
102
100
AcDbEntity
  8
_U+30EC_U+30A4_U+30E4_U+30FC 1
 62
   179
420
  2234388
100
AcDbHatch
 10
0.0
 20
0.0
 30
0.0
210
0.0
220
0.0
230
1.0
  2
SOLID
 70
     1
 71
     0
 91
        1
 92
        1
 93
        1
 72
     4
 94
        3
 73
     0
 74
     1
 95
       53
 96
       49
 40
0.0
 40
0.0
 40
0.0
 40
0.0
 40
1.0
 40
1.0
 40
1.0
 40
2.0
 40
2.0
 40
2.0
 40
3.0
 40
3.0
 40
3.0
 40
4.0
 40
4.0
 40
4.0
 40
5.0
 40
5.0
 40
5.0
 40
6.0
 40
6.0
 40
6.0
 40
7.0
 40
7.0
 40
7.0
 40
8.0
 40
8.0
 40
8.0
 40
9.0
 40
9.0
 40
9.0
 40
10.0
 40
10.0
 40
10.0
 40
11.0
 40
11.0
 40
11.0
 40
12.0
 40
12.0
 40
12.0
 40
13.0
 40
13.0
 40
13.0
 40
14.0
 40
14.0
 40
14.0
 40
15.0
 40
15.0
 40
15.0
 40
16.0
 40
16.0
 40
16.0
 40
16.0
 10
112.0279594989027
 20
-128.9936767255641
 10
112.0279594989027
 20
-129.0780815649527
 10
112.0097004928309
 20
-129.1876356013836
 10
111.9411430926744
 20
-129.2971896378146
 10
111.8226318079818
 20
-129.4842583226637
 10
111.6810383835381
 20
-129.5073404624148
 10
111.5645941561366
 20
-129.5276665257778
 10
111.5645941561366
 20
-129.5276665257778
 10
111.5645941561366
 20
-129.2882323895529
 10
111.5645941561366
 20
-129.2882323895529
 10
111.7792236048677
 20
-129.2286322376581
 10
111.8112629928805
 20
-129.0918619468937
 10
111.8112629928805
 20
-128.9912651587244
 10
111.8112629928805
 20
-128.840714486019
 10
111.7037760137407
 20
-128.6763834313726
 10
111.452628552866
 20
-128.6763834313726
 10
111.1766764044975
 20
-128.6763834313726
 10
111.1012288133705
 20
-128.8703423071921
 10
111.1012288133705
 20
-129.0005669165346
 10
111.1012288133705
 20
-129.0346733618386
 10
111.1012288133705
 20
-129.1876356013836
 10
111.2404106709746
 20
-129.2834092558736
 10
111.2404106709746
 20
-129.2834092558736
 10
111.2200846076117
 20
-129.4728895075623
 10
111.2200846076117
 20
-129.4728895075623
 10
111.2200846076117
 20
-129.4728895075623
 10
110.3071343040204
 20
-129.3426648982199
 10
110.3071343040204
 20
-129.3426648982199
 10
110.3071343040204
 20
-129.3426648982199
 10
110.3071343040204
 20
-128.502750618916
 10
110.3071343040204
 20
-128.502750618916
 10
110.3071343040204
 20
-128.502750618916
 10
110.5169406190722
 20
-128.502750618916
 10
110.5169406190722
 20
-128.502750618916
 10
110.5169406190722
 20
-128.502750618916
 10
110.5169406190722
 20
-129.1669650284722
 10
110.5169406190722
 20
-129.1669650284722
 10
110.5169406190722
 20
-129.1669650284722
 10
110.9734157708678
 20
-129.2379339954683
 10
110.9734157708678
 20
-129.2379339954683
 10
110.9368977587241
 20
-129.1717881621515
 10
110.89348955561
 20
-129.0825601890835
 10
110.89348955561
 20
-128.9547471465808
 10
110.89348955561
 20
-128.6808620555034
 10
111.0943386224
 20
-128.4252359704979
 10
111.432302489503
 20
-128.4252359704979
 10
111.7747449807369
 20
-128.4252359704979
 10
112.0279594989027
 20
-128.6674261831109
 10
112.0279594989027
 20
-128.9936767255641
 97
        0
 97
        0
 75
     2
 76
     1
 98
        0
  0
ENDBLK
  5
105
330
102
100
AcDbEntity
  8
0
100
AcDbBlockEnd
  0
ENDSEC
  0
SECTION
  2
ENTITIES
  0
POLYLINE
  5
41
330
1F
100
AcDbEntity
  8
_U+30EC_U+30A4_U+30E4_U+30FC 1
370
     0
100
AcDb2dPolyline
 66
     1
 10
0.0
 20
0.0
 30
0.0
  0
VERTEX
  5
42
330
41
100
AcDbEntity
  8
_U+30EC_U+30A4_U+30E4_U+30FC 1
370
     0
100
AcDbVertex
100
AcDb2dVertex
 10
67.8172221587274
 20
-142.107426075584
 30
0.0
  0
VERTEX
  5
43
330
41
100
AcDbEntity
  8
_U+30EC_U+30A4_U+30E4_U+30FC 1
370
     0
100
AcDbVertex
100
AcDb2dVertex
 10
67.47082966756462
 20
-142.7075716309899
 30
0.0
  0
VERTEX
  5
44
330
41
100
AcDbEntity
  8
_U+30EC_U+30A4_U+30E4_U+30FC 1
370
     0
100
AcDbVertex
100
AcDb2dVertex
 10
67.12440189862495
 20
-142.107426075584
 30
0.0
  0
VERTEX
  5
45
330
41
100
AcDbEntity
  8
_U+30EC_U+30A4_U+30E4_U+30FC 1
370
     0
100
AcDbVertex
100
AcDb2dVertex
 10
67.07702384427812
 20
-142.107426075584
 30
0.0
  0
SEQEND
  5
47
330
41
100
AcDbEntity
  8
_U+30EC_U+30A4_U+30E4_U+30FC 1
370
     0
  0
HATCH
  5
46
330
1F
100
AcDbEntity
  8
_U+30EC_U+30A4_U+30E4_U+30FC 1
 62
   253
420
 11711154
100
AcDbHatch
 10
0.0
 20
0.0
 30
0.0
210
0.0
220
0.0
230
1.0
  2
SOLID
 70
     1
 71
     0
 91
        1
 92
        1
 93
        4
 72
     1
 10
67.8172221587274
 20
-142.107426075584
 11
67.47082966756462
 21
-142.7075716309899
 72
     1
 10
67.47082966756462
 20
-142.7075716309899
 11
67.12440189862495
 21
-142.107426075584
 72
     1
 10
67.12440189862495
 20
-142.107426075584
 11
67.07702384427812
 21
-142.107426075584
 72
     1
 10
67.07702384427812
 20
-142.107426075584
 11
67.81722215872742
 21
-142.107426075584
 97
        0
 75
     2
 76
     1
 98
        0
  0
POLYLINE
  5
48
330
1F
100
AcDbEntity
  8
_U+30EC_U+30A4_U+30E4_U+30FC 1
370
     0
100
AcDb2dPolyline
 66
     1
 10
0.0
 20
0.0
 30
0.0
  0
VERTEX
  5
49
330
48
100
AcDbEntity
  8
_U+30EC_U+30A4_U+30E4_U+30FC 1
370
     0
100
AcDbVertex
100
AcDb2dVertex
 10
102.1243310057024
 20
-142.107426075584
 30
0.0
  0
VERTEX
  5
4A
330
48
100
AcDbEntity
  8
_U+30EC_U+30A4_U+30E4_U+30FC 1
370
     0
100
AcDbVertex
100
AcDb2dVertex
 10
86.57078251361756
 20
-142.107426075584
 30
0.0
  0
VERTEX
  5
4B
330
48
100
AcDbEntity
  8
_U+30EC_U+30A4_U+30E4_U+30FC 1
370
     0
100
AcDbVertex
100
AcDb2dVertex
 10
86.57078251361756
 20
-117.10722913739
 30
0.0
  0
VERTEX
  5
4C
330
48
100
AcDbEntity
  8
_U+30EC_U+30A4_U+30E4_U+30FC 1
370
     0
100
AcDbVertex
100
AcDb2dVertex
 10
98.47082332113334
 20
-117.10722913739
 30
0.0
  0
VERTEX
  5
4D
330
48
100
AcDbEntity
  8
_U+30EC_U+30A4_U+30E4_U+30FC 1
370
     0
100
AcDbVertex
100
AcDb2dVertex
 10
98.47082332113334
 20
-115.9073260821343
 30
0.0
  0
VERTEX
  5
4E
330
48
100
AcDbEntity
  8
_U+30EC_U+30A4_U+30E4_U+30FC 1
370
     0
100
AcDbVertex
100
AcDb2dVertex
 10
73.47080340338142
 20
-115.9073260821343
 30
0.0
  0
VERTEX
  5
4F
330
48
100
AcDbEntity
  8
_U+30EC_U+30A4_U+30E4_U+30FC 1
370
     0
100
AcDbVertex
100
AcDb2dVertex
 10
73.47080340338142
 20
-117.10722913739
 30
0.0
  0
VERTEX
  5
50
330
48
100
AcDbEntity
  8
_U+30EC_U+30A4_U+30E4_U+30FC 1
370
     0
100
AcDbVertex
100
AcDb2dVertex
 10
85.3708442108972
 20
-117.10722913739
 30
0.0
  0
VERTEX
  5
51
330
48
100
AcDbEntity
  8
_U+30EC_U+30A4_U+30E4_U+30FC 1
370
     0
100
AcDbVertex
100
AcDb2dVertex
 10
85.3708442108972
 20
-142.107426075584
 30
0.0
  0
VERTEX
  5
52
330
48
100
AcDbEntity
  8
_U+30EC_U+30A4_U+30E4_U+30FC 1
370
     0
100
AcDbVertex
100
AcDb2dVertex
 10
67.8172221587274
 20
-142.107426075584
 30
0.0
  0
SEQEND
  5
54
330
48
100
AcDbEntity
  8
_U+30EC_U+30A4_U+30E4_U+30FC 1
370
     0
  0
HATCH
  5
53
330
1F
100
AcDbEntity
  8
_U+30EC_U+30A4_U+30E4_U+30FC 1
 62
   253
420
 11711154
100
AcDbHatch
 10
0.0
 20
0.0
 30
0.0
210
0.0
220
0.0
230
1.0
  2
SOLID
 70
     1
 71
     0
 91
        1
 92
        1
 93
       10
 72
     1
 10
102.1243310057024
 20
-142.107426075584
 11
86.57078251361756
 21
-142.107426075584
 72
     1
 10
86.57078251361756
 20
-142.107426075584
 11
86.57078251361756
 21
-117.10722913739
 72
     1
 10
86.57078251361756
 20
-117.10722913739
 11
98.47082332113334
 21
-117.10722913739
 72
     1
 10
98.47082332113334
 20
-117.10722913739
 11
98.47082332113334
 21
-115.9073260821343
 72
     1
 10
98.47082332113334
 20
-115.9073260821343
 11
73.47080340338142
 21
-115.9073260821343
 72
     1
 10
73.47080340338142
 20
-115.9073260821343
 11
73.47080340338142
 21
-117.10722913739
 72
     1
 10
73.47080340338142
 20
-117.10722913739
 11
85.3708442108972
 21
-117.10722913739
 72
     1
 10
85.3708442108972
 20
-117.10722913739
 11
85.3708442108972
 21
-142.107426075584
 72
     1
 10
85.3708442108972
 20
-142.107426075584
 11
67.81722215872742
 21
-142.107426075584
 72
     1
 10
67.8172221587274
 20
-142.107426075584
 11
102.1243310057024
 21
-142.107426075584
 97
        0
 75
     2
 76
     1
 98
        0
  0
POLYLINE
  5
55
330
1F
100
AcDbEntity
  8
_U+30EC_U+30A4_U+30E4_U+30FC 1
370
     0
100
AcDb2dPolyline
 66
     1
 10
0.0
 20
0.0
 30
0.0
  0
VERTEX
  5
56
330
55
100
AcDbEntity
  8
_U+30EC_U+30A4_U+30E4_U+30FC 1
370
     0
100
AcDbVertex
100
AcDb2dVertex
 10
102.8171512658048
 20
-142.107426075584
 30
0.0
  0
VERTEX
  5
57
330
55
100
AcDbEntity
  8
_U+30EC_U+30A4_U+30E4_U+30FC 1
370
     0
100
AcDbVertex
100
AcDb2dVertex
 10
102.4709351635264
 20
-142.7075716309899
 30
0.0
  0
VERTEX
  5
58
330
55
100
AcDbEntity
  8
_U+30EC_U+30A4_U+30E4_U+30FC 1
370
     0
100
AcDbVertex
100
AcDb2dVertex
 10
102.1243310057024
 20
-142.107426075584
 30
0.0
  0
SEQEND
  5
5A
330
55
100
AcDbEntity
  8
_U+30EC_U+30A4_U+30E4_U+30FC 1
370
     0
  0
HATCH
  5
59
330
1F
100
AcDbEntity
  8
_U+30EC_U+30A4_U+30E4_U+30FC 1
 62
   253
420
 11711154
100
AcDbHatch
 10
0.0
 20
0.0
 30
0.0
210
0.0
220
0.0
230
1.0
  2
SOLID
 70
     1
 71
     0
 91
        1
 92
        1
 93
        3
 72
     1
 10
102.8171512658048
 20
-142.107426075584
 11
102.4709351635264
 21
-142.7075716309899
 72
     1
 10
102.4709351635264
 20
-142.7075716309899
 11
102.1243310057024
 21
-142.107426075584
 72
     1
 10
102.1243310057024
 20
-142.107426075584
 11
102.8171512658048
 21
-142.107426075584
 97
        0
 75
     2
 76
     1
 98
        0
  0
POLYLINE
  5
5B
330
1F
100
AcDbEntity
  8
_U+30EC_U+30A4_U+30E4_U+30FC 1
370
     0
100
AcDb2dPolyline
 66
     1
 10
0.0
 20
0.0
 30
0.0
  0
VERTEX
  5
5C
330
5B
100
AcDbEntity
  8
_U+30EC_U+30A4_U+30E4_U+30FC 1
370
     0
100
AcDbVertex
100
AcDb2dVertex
 10
67.07702384427812
 20
-142.107426075584
 30
0.0
  0
VERTEX
  5
5D
330
5B
100
AcDbEntity
  8
_U+30EC_U+30A4_U+30E4_U+30FC 1
370
     0
100
AcDbVertex
100
AcDb2dVertex
 10
63.47089421405592
 20
-142.107426075584
 30
0.0
  0
VERTEX
  5
5E
330
5B
100
AcDbEntity
  8
_U+30EC_U+30A4_U+30E4_U+30FC 1
370
     0
100
AcDbVertex
100
AcDb2dVertex
 10
63.47089421405592
 20
-143.3077171863953
 30
0.0
  0
VERTEX
  5
5F
330
5B
100
AcDbEntity
  8
_U+30EC_U+30A4_U+30E4_U+30FC 1
370
     0
100
AcDbVertex
100
AcDb2dVertex
 10
108.4709088993432
 20
-143.3077171863953
 30
0.0
  0
VERTEX
  5
60
330
5B
100
AcDbEntity
  8
_U+30EC_U+30A4_U+30E4_U+30FC 1
370
     0
100
AcDbVertex
100
AcDb2dVertex
 10
108.4709088993432
 20
-142.107426075584
 30
0.0
  0
VERTEX
  5
61
330
5B
100
AcDbEntity
  8
_U+30EC_U+30A4_U+30E4_U+30FC 1
370
     0
100
AcDbVertex
100
AcDb2dVertex
 10
102.8171512658048
 20
-142.107426075584
 30
0.0
  0
SEQEND
  5
63
330
5B
100
AcDbEntity
  8
_U+30EC_U+30A4_U+30E4_U+30FC 1
370
     0
  0
HATCH
  5
62
330
1F
100
AcDbEntity
  8
_U+30EC_U+30A4_U+30E4_U+30FC 1
 62
   253
420
 11711154
100
AcDbHatch
 10
0.0
 20
0.0
 30
0.0
210
0.0
220
0.0
230
1.0
  2
SOLID
 70
     1
 71
     0
 91
        1
 92
        1
 93
        6
 72
     1
 10
67.07702384427812
 20
-142.107426075584
 11
63.47089421405592
 21
-142.107426075584
 72
     1
 10
63.47089421405592
 20
-142.107426075584
 11
63.47089421405592
 21
-143.3077171863953
 72
     1
 10
63.47089421405592
 20
-143.3077171863953
 11
108.4709088993432
 21
-143.3077171863953
 72
     1
 10
108.4709088993432
 20
-143.3077171863953
 11
108.4709088993432
 21
-142.1074260755839
 72
     1
 10
108.4709088993432
 20
-142.107426075584
 11
102.8171512658048
 21
-142.107426075584
 72
     1
 10
102.8171512658048
 20
-142.107426075584
 11
67.0770238442781
 21
-142.107426075584
 97
        0
 75
     2
 76
     1
 98
        0
  0
POLYLINE
  5
64
330
1F
100
AcDbEntity
  8
_U+30EC_U+30A4_U+30E4_U+30FC 1
 62
   179
420
  2234388
370
    25
100
AcDb2dPolyline
 66
     1
 10
0.0
 20
0.0
 30
0.0
  0
VERTEX
  5
65
330
64
100
AcDbEntity
  8
_U+30EC_U+30A4_U+30E4_U+30FC 1
 62
   179
420
  2234388
370
    25
100
AcDbVertex
100
AcDb2dVertex
 10
63.47089421405592
 20
-142.107426075584
 30
0.0
  0
VERTEX
  5
66
330
64
100
AcDbEntity
  8
_U+30EC_U+30A4_U+30E4_U+30FC 1
 62
   179
420
  2234388
370
    25
100
AcDbVertex
100
AcDb2dVertex
 10
67.12440189862495
 20
-142.107426075584
 30
0.0
  0
SEQEND
  5
67
330
64
100
AcDbEntity
  8
_U+30EC_U+30A4_U+30E4_U+30FC 1
 62
   179
420
  2234388
370
    25
  0
POLYLINE
  5
68
330
1F
100
AcDbEntity
  8
_U+30EC_U+30A4_U+30E4_U+30FC 1
 62
   179
420
  2234388
370
    25
100
AcDb2dPolyline
 66
     1
 10
0.0
 20
0.0
 30
0.0
  0
VERTEX
  5
69
330
68
100
AcDbEntity
  8
_U+30EC_U+30A4_U+30E4_U+30FC 1
 62
   179
420
  2234388
370
    25
100
AcDbVertex
100
AcDb2dVertex
 10
63.47089421405592
 20
-143.3077171863953
 30
0.0
  0
VERTEX
  5
6A
330
68
100
AcDbEntity
  8
_U+30EC_U+30A4_U+30E4_U+30FC 1
 62
   179
420
  2234388
370
    25
100
AcDbVertex
100
AcDb2dVertex
 10
108.4709088993432
 20
-143.3077171863953
 30
0.0
  0
SEQEND
  5
6B
330
68
100
AcDbEntity
  8
_U+30EC_U+30A4_U+30E4_U+30FC 1
 62
   179
420
  2234388
370
    25
  0
POLYLINE
  5
6C
330
1F
100
AcDbEntity
  8
_U+30EC_U+30A4_U+30E4_U+30FC 1
 62
   179
420
  2234388
370
    25
100
AcDb2dPolyline
 66
     1
 10
0.0
 20
0.0
 30
0.0
  0
VERTEX
  5
6D
330
6C
100
AcDbEntity
  8
_U+30EC_U+30A4_U+30E4_U+30FC 1
 62
   179
420
  2234388
370
    25
100
AcDbVertex
100
AcDb2dVertex
 10
73.47080340338142
 20
-117.10722913739
 30
0.0
  0
VERTEX
  5
6E
330
6C
100
AcDbEntity
  8
_U+30EC_U+30A4_U+30E4_U+30FC 1
 62
   179
420
  2234388
370
    25
100
AcDbVertex
100
AcDb2dVertex
 10
85.3708442108972
 20
-117.10722913739
 30
0.0
  0
SEQEND
  5
6F
330
6C
100
AcDbEntity
  8
_U+30EC_U+30A4_U+30E4_U+30FC 1
 62
   179
420
  2234388
370
    25
  0
POLYLINE
  5
70
330
1F
100
AcDbEntity
  8
_U+30EC_U+30A4_U+30E4_U+30FC 1
 62
   179
420
  2234388
370
    25
100
AcDb2dPolyline
 66
     1
 10
0.0
 20
0.0
 30
0.0
  0
VERTEX
  5
71
330
70
100
AcDbEntity
  8
_U+30EC_U+30A4_U+30E4_U+30FC 1
 62
   179
420
  2234388
370
    25
100
AcDbVertex
100
AcDb2dVertex
 10
73.47080340338142
 20
-115.9073260821343
 30
0.0
  0
VERTEX
  5
72
330
70
100
AcDbEntity
  8
_U+30EC_U+30A4_U+30E4_U+30FC 1
 62
   179
420
  2234388
370
    25
100
AcDbVertex
100
AcDb2dVertex
 10
98.47082332113334
 20
-115.9073260821343
 30
0.0
  0
SEQEND
  5
73
330
70
100
AcDbEntity
  8
_U+30EC_U+30A4_U+30E4_U+30FC 1
 62
   179
420
  2234388
370
    25
  0
POLYLINE
  5
74
330
1F
100
AcDbEntity
  8
_U+30EC_U+30A4_U+30E4_U+30FC 1
 62
   179
420
  2234388
370
    25
100
AcDb2dPolyline
 66
     1
 10
0.0
 20
0.0
 30
0.0
  0
VERTEX
  5
75
330
74
100
AcDbEntity
  8
_U+30EC_U+30A4_U+30E4_U+30FC 1
 62
   179
420
  2234388
370
    25
100
AcDbVertex
100
AcDb2dVertex
 10
86.57078251361756
 20
-117.10722913739
 30
0.0
  0
VERTEX
  5
76
330
74
100
AcDbEntity
  8
_U+30EC_U+30A4_U+30E4_U+30FC 1
 62
   179
420
  2234388
370
    25
100
AcDbVertex
100
AcDb2dVertex
 10
86.57078251361756
 20
-142.107426075584
 30
0.0
  0
SEQEND
  5
77
330
74
100
AcDbEntity
  8
_U+30EC_U+30A4_U+30E4_U+30FC 1
 62
   179
420
  2234388
370
    25
  0
POLYLINE
  5
78
330
1F
100
AcDbEntity
  8
_U+30EC_U+30A4_U+30E4_U+30FC 1
 62
   179
420
  2234388
370
    25
100
AcDb2dPolyline
 66
     1
 10
0.0
 20
0.0
 30
0.0
  0
VERTEX
  5
79
330
78
100
AcDbEntity
  8
_U+30EC_U+30A4_U+30E4_U+30FC 1
 62
   179
420
  2234388
370
    25
100
AcDbVertex
100
AcDb2dVertex
 10
85.3708442108972
 20
-117.10722913739
 30
0.0
  0
VERTEX
  5
7A
330
78
100
AcDbEntity
  8
_U+30EC_U+30A4_U+30E4_U+30FC 1
 62
   179
420
  2234388
370
    25
100
AcDbVertex
100
AcDb2dVertex
 10
85.3708442108972
 20
-142.107426075584
 30
0.0
  0
SEQEND
  5
7B
330
78
100
AcDbEntity
  8
_U+30EC_U+30A4_U+30E4_U+30FC 1
 62
   179
420
  2234388
370
    25
  0
POLYLINE
  5
7C
330
1F
100
AcDbEntity
  8
_U+30EC_U+30A4_U+30E4_U+30FC 1
 62
   179
420
  2234388
370
    25
100
AcDb2dPolyline
 66
     1
 10
0.0
 20
0.0
 30
0.0
  0
VERTEX
  5
7D
330
7C
100
AcDbEntity
  8
_U+30EC_U+30A4_U+30E4_U+30FC 1
 62
   179
420
  2234388
370
    25
100
AcDbVertex
100
AcDb2dVertex
 10
98.47082332113334
 20
-115.9073260821343
 30
0.0
  0
VERTEX
  5
7E
330
7C
100
AcDbEntity
  8
_U+30EC_U+30A4_U+30E4_U+30FC 1
 62
   179
420
  2234388
370
    25
100
AcDbVertex
100
AcDb2dVertex
 10
98.47082332113334
 20
-117.10722913739
 30
0.0
  0
SEQEND
  5
7F
330
7C
100
AcDbEntity
  8
_U+30EC_U+30A4_U+30E4_U+30FC 1
 62
   179
420
  2234388
370
    25
  0
POLYLINE
  5
80
330
1F
100
AcDbEntity
  8
_U+30EC_U+30A4_U+30E4_U+30FC 1
 62
   179
420
  2234388
370
    25
100
AcDb2dPolyline
 66
     1
 10
0.0
 20
0.0
 30
0.0
  0
VERTEX
  5
81
330
80
100
AcDbEntity
  8
_U+30EC_U+30A4_U+30E4_U+30FC 1
 62
   179
420
  2234388
370
    25
100
AcDbVertex
100
AcDb2dVertex
 10
73.47080340338142
 20
-115.9073260821343
 30
0.0
  0
VERTEX
  5
82
330
80
100
AcDbEntity
  8
_U+30EC_U+30A4_U+30E4_U+30FC 1
 62
   179
420
  2234388
370
    25
100
AcDbVertex
100
AcDb2dVertex
 10
73.47080340338142
 20
-117.10722913739
 30
0.0
  0
SEQEND
  5
83
330
80
100
AcDbEntity
  8
_U+30EC_U+30A4_U+30E4_U+30FC 1
 62
   179
420
  2234388
370
    25
  0
POLYLINE
  5
84
330
1F
100
AcDbEntity
  8
_U+30EC_U+30A4_U+30E4_U+30FC 1
 62
   179
420
  2234388
370
    25
100
AcDb2dPolyline
 66
     1
 10
0.0
 20
0.0
 30
0.0
  0
VERTEX
  5
85
330
84
100
AcDbEntity
  8
_U+30EC_U+30A4_U+30E4_U+30FC 1
 62
   179
420
  2234388
370
    25
100
AcDbVertex
100
AcDb2dVertex
 10
63.47089421405592
 20
-142.107426075584
 30
0.0
  0
VERTEX
  5
86
330
84
100
AcDbEntity
  8
_U+30EC_U+30A4_U+30E4_U+30FC 1
 62
   179
420
  2234388
370
    25
100
AcDbVertex
100
AcDb2dVertex
 10
63.47089421405592
 20
-143.3077171863953
 30
0.0
  0
SEQEND
  5
87
330
84
100
AcDbEntity
  8
_U+30EC_U+30A4_U+30E4_U+30FC 1
 62
   179
420
  2234388
370
    25
  0
POLYLINE
  5
88
330
1F
100
AcDbEntity
  8
_U+30EC_U+30A4_U+30E4_U+30FC 1
 62
   179
420
  2234388
370
    25
100
AcDb2dPolyline
 66
     1
 10
0.0
 20
0.0
 30
0.0
  0
VERTEX
  5
89
330
88
100
AcDbEntity
  8
_U+30EC_U+30A4_U+30E4_U+30FC 1
 62
   179
420
  2234388
370
    25
100
AcDbVertex
100
AcDb2dVertex
 10
108.4709088993432
 20
-142.107426075584
 30
0.0
  0
VERTEX
  5
8A
330
88
100
AcDbEntity
  8
_U+30EC_U+30A4_U+30E4_U+30FC 1
 62
   179
420
  2234388
370
    25
100
AcDbVertex
100
AcDb2dVertex
 10
108.4709088993432
 20
-143.3077171863953
 30
0.0
  0
SEQEND
  5
8B
330
88
100
AcDbEntity
  8
_U+30EC_U+30A4_U+30E4_U+30FC 1
 62
   179
420
  2234388
370
    25
  0
POLYLINE
  5
8C
330
1F
100
AcDbEntity
  8
_U+30EC_U+30A4_U+30E4_U+30FC 1
 62
   179
420
  2234388
370
    25
100
AcDb2dPolyline
 66
     1
 10
0.0
 20
0.0
 30
0.0
  0
VERTEX
  5
8D
330
8C
100
AcDbEntity
  8
_U+30EC_U+30A4_U+30E4_U+30FC 1
 62
   179
420
  2234388
370
    25
100
AcDbVertex
100
AcDb2dVertex
 10
86.57078251361756
 20
-142.107426075584
 30
0.0
  0
VERTEX
  5
8E
330
8C
100
AcDbEntity
  8
_U+30EC_U+30A4_U+30E4_U+30FC 1
 62
   179
420
  2234388
370
    25
100
AcDbVertex
100
AcDb2dVertex
 10
102.1243310057024
 20
-142.107426075584
 30
0.0
  0
SEQEND
  5
8F
330
8C
100
AcDbEntity
  8
_U+30EC_U+30A4_U+30E4_U+30FC 1
 62
   179
420
  2234388
370
    25
  0
POLYLINE
  5
90
330
1F
100
AcDbEntity
  8
_U+30EC_U+30A4_U+30E4_U+30FC 1
 62
   179
420
  2234388
370
    25
100
AcDb2dPolyline
 66
     1
 10
0.0
 20
0.0
 30
0.0
  0
VERTEX
  5
91
330
90
100
AcDbEntity
  8
_U+30EC_U+30A4_U+30E4_U+30FC 1
 62
   179
420
  2234388
370
    25
100
AcDbVertex
100
AcDb2dVertex
 10
86.57078251361756
 20
-117.10722913739
 30
0.0
  0
VERTEX
  5
92
330
90
100
AcDbEntity
  8
_U+30EC_U+30A4_U+30E4_U+30FC 1
 62
   179
420
  2234388
370
    25
100
AcDbVertex
100
AcDb2dVertex
 10
98.47082332113334
 20
-117.10722913739
 30
0.0
  0
SEQEND
  5
93
330
90
100
AcDbEntity
  8
_U+30EC_U+30A4_U+30E4_U+30FC 1
 62
   179
420
  2234388
370
    25
  0
POLYLINE
  5
94
330
1F
100
AcDbEntity
  8
_U+30EC_U+30A4_U+30E4_U+30FC 1
 62
   179
420
  2234388
370
    25
100
AcDb2dPolyline
 66
     1
 10
0.0
 20
0.0
 30
0.0
  0
VERTEX
  5
95
330
94
100
AcDbEntity
  8
_U+30EC_U+30A4_U+30E4_U+30FC 1
 62
   179
420
  2234388
370
    25
100
AcDbVertex
100
AcDb2dVertex
 10
102.1787646154248
 20
-142.107426075584
 30
0.0
  0
VERTEX
  5
96
330
94
100
AcDbEntity
  8
_U+30EC_U+30A4_U+30E4_U+30FC 1
 62
   179
420
  2234388
370
    25
100
AcDbVertex
100
AcDb2dVertex
 10
108.4709088993432
 20
-142.107426075584
 30
0.0
  0
SEQEND
  5
97
330
94
100
AcDbEntity
  8
_U+30EC_U+30A4_U+30E4_U+30FC 1
 62
   179
420
  2234388
370
    25
  0
POLYLINE
  5
98
330
1F
100
AcDbEntity
  8
_U+30EC_U+30A4_U+30E4_U+30FC 1
 62
   179
420
  2234388
370
    25
100
AcDb2dPolyline
 66
     1
 10
0.0
 20
0.0
 30
0.0
  0
VERTEX
  5
99
330
98
100
AcDbEntity
  8
_U+30EC_U+30A4_U+30E4_U+30FC 1
 62
   179
420
  2234388
370
    25
100
AcDbVertex
100
AcDb2dVertex
 10
67.20949189645413
 20
-142.107426075584
 30
0.0
  0
VERTEX
  5
9A
330
98
100
AcDbEntity
  8
_U+30EC_U+30A4_U+30E4_U+30FC 1
 62
   179
420
  2234388
370
    25
100
AcDbVertex
100
AcDb2dVertex
 10
85.3708442108972
 20
-142.107426075584
 30
0.0
  0
SEQEND
  5
9B
330
98
100
AcDbEntity
  8
_U+30EC_U+30A4_U+30E4_U+30FC 1
 62
   179
420
  2234388
370
    25
  0
SPLINE
  5
9C
330
1F
100
AcDbEntity
  8
_U+30EC_U+30A4_U+30E4_U+30FC 1
 62
   179
420
  2234388
370
     9
100
AcDbSpline
210
0.0
220
0.0
230
1.0
 70
    11
 71
     3
 72
    17
 73
    13
 74
     0
 42
0.0000000001
 43
0.0000000001
 12
1.0
 22
0.0
 32
0.0
 13
1.0
 23
0.0
 33
0.0
 40
0.0
 40
0.0
 40
0.0
 40
0.0
 40
1.0
 40
1.0
 40
1.0
 40
2.0
 40
2.0
 40
2.0
 40
3.0
 40
3.0
 40
3.0
 40
4.0
 40
4.0
 40
4.0
 40
4.0
 10
73.57088645638365
 20
-111.90721413869
 30
0.0
 10
73.57088645638365
 20
-111.8520749720369
 30
0.0
 10
73.52608367974888
 20
-111.8073074720483
 30
0.0
 10
73.47080340338142
 20
-111.8073074720483
 30
0.0
 10
73.41566423812148
 20
-111.8073074720483
 30
0.0
 10
73.37089673926359
 20
-111.8520749720369
 30
0.0
 10
73.37089673926359
 20
-111.90721413869
 30
0.0
 10
73.37089673926359
 20
-111.9624944164538
 30
0.0
 10
73.41566423812148
 20
-112.0072971942205
 30
0.0
 10
73.47080340338142
 20
-112.0072971942205
 30
0.0
 10
73.52608367974888
 20
-112.0072971942205
 30
0.0
 10
73.57088645638365
 20
-111.9624944164538
 30
0.0
 10
73.57088645638365
 20
-111.90721413869
 30
0.0
  0
SPLINE
  5
9D
330
1F
100
AcDbEntity
  8
_U+30EC_U+30A4_U+30E4_U+30FC 1
 62
   179
420
  2234388
370
     9
100
AcDbSpline
210
0.0
220
0.0
230
1.0
 70
    11
 71
     3
 72
    17
 73
    13
 74
     0
 42
0.0000000001
 43
0.0000000001
 12
1.0
 22
0.0
 32
0.0
 13
1.0
 23
0.0
 33
0.0
 40
0.0
 40
0.0
 40
0.0
 40
0.0
 40
1.0
 40
1.0
 40
1.0
 40
2.0
 40
2.0
 40
2.0
 40
3.0
 40
3.0
 40
3.0
 40
4.0
 40
4.0
 40
4.0
 40
4.0
 10
98.57072998525118
 20
-111.90721413869
 30
0.0
 10
98.57072998525118
 20
-111.8520749720369
 30
0.0
 10
98.52592720861641
 20
-111.8073074720483
 30
0.0
 10
98.47082332113334
 20
-111.8073074720483
 30
0.0
 10
98.4156841558734
 20
-111.8073074720483
 30
0.0
 10
98.3709166570155
 20
-111.8520749720369
 30
0.0
 10
98.3709166570155
 20
-111.90721413869
 30
0.0
 10
98.3709166570155
 20
-111.9624944164538
 30
0.0
 10
98.4156841558734
 20
-112.0072971942205
 30
0.0
 10
98.47082332113334
 20
-112.0072971942205
 30
0.0
 10
98.52592720861641
 20
-112.0072971942205
 30
0.0
 10
98.57072998525118
 20
-111.9624944164538
 30
0.0
 10
98.57072998525118
 20
-111.90721413869
 30
0.0
  0
SPLINE
  5
9E
330
1F
100
AcDbEntity
  8
_U+30EC_U+30A4_U+30E4_U+30FC 1
 62
   179
420
  2234388
370
     9
100
AcDbSpline
210
0.0
220
0.0
230
1.0
 70
    11
 71
     3
 72
    17
 73
    13
 74
     0
 42
0.0000000001
 43
0.0000000001
 12
1.0
 22
0.0
 32
0.0
 13
1.0
 23
0.0
 33
0.0
 40
0.0
 40
0.0
 40
0.0
 40
0.0
 40
1.0
 40
1.0
 40
1.0
 40
2.0
 40
2.0
 40
2.0
 40
3.0
 40
3.0
 40
3.0
 40
4.0
 40
4.0
 40
4.0
 40
4.0
 10
112.5708921280773
 20
-117.10722913739
 30
0.0
 10
112.5708921280773
 20
-117.051772470737
 30
0.0
 10
112.5261246292194
 20
-117.0073224707481
 30
0.0
 10
112.4709854639595
 20
-117.0073224707481
 30
0.0
 10
112.4155287987076
 20
-117.0073224707481
 30
0.0
 10
112.3707612998497
 20
-117.051772470737
 30
0.0
 10
112.3707612998497
 20
-117.10722913739
 30
0.0
 10
112.3707612998497
 20
-117.1626858040427
 30
0.0
 10
112.4155287987076
 20
-117.2074885818094
 30
0.0
 10
112.4709854639595
 20
-117.2074885818094
 30
0.0
 10
112.5261246292194
 20
-117.2074885818094
 30
0.0
 10
112.5708921280773
 20
-117.1626858040427
 30
0.0
 10
112.5708921280773
 20
-117.10722913739
 30
0.0
  0
SPLINE
  5
9F
330
1F
100
AcDbEntity
  8
_U+30EC_U+30A4_U+30E4_U+30FC 1
 62
   179
420
  2234388
370
     9
100
AcDbSpline
210
0.0
220
0.0
230
1.0
 70
    11
 71
     3
 72
    17
 73
    13
 74
     0
 42
0.0000000001
 43
0.0000000001
 12
1.0
 22
0.0
 32
0.0
 13
1.0
 23
0.0
 33
0.0
 40
0.0
 40
0.0
 40
0.0
 40
0.0
 40
1.0
 40
1.0
 40
1.0
 40
2.0
 40
2.0
 40
2.0
 40
3.0
 40
3.0
 40
3.0
 40
4.0
 40
4.0
 40
4.0
 40
4.0
 10
112.5708921280773
 20
-142.107426075584
 30
0.0
 10
112.5708921280773
 20
-142.052322186709
 30
0.0
 10
112.5261246292194
 20
-142.0075194089423
 30
0.0
 10
112.4709854639595
 20
-142.0075194089423
 30
0.0
 10
112.4155287987076
 20
-142.0075194089423
 30
0.0
 10
112.3707612998497
 20
-142.052322186709
 30
0.0
 10
112.3707612998497
 20
-142.107426075584
 30
0.0
 10
112.3707612998497
 20
-142.162565242237
 30
0.0
 10
112.4155287987076
 20
-142.2073327422262
 30
0.0
 10
112.4709854639595
 20
-142.2073327422262
 30
0.0
 10
112.5261246292194
 20
-142.2073327422262
 30
0.0
 10
112.5708921280773
 20
-142.162565242237
 30
0.0
 10
112.5708921280773
 20
-142.107426075584
 30
0.0
  0
SPLINE
  5
A0
330
1F
100
AcDbEntity
  8
_U+30EC_U+30A4_U+30E4_U+30FC 1
 62
   179
420
  2234388
370
     9
100
AcDbSpline
210
0.0
220
0.0
230
1.0
 70
    11
 71
     3
 72
    17
 73
    13
 74
     0
 42
0.0000000001
 43
0.0000000001
 12
1.0
 22
0.0
 32
0.0
 13
1.0
 23
0.0
 33
0.0
 40
0.0
 40
0.0
 40
0.0
 40
0.0
 40
1.0
 40
1.0
 40
1.0
 40
2.0
 40
2.0
 40
2.0
 40
3.0
 40
3.0
 40
3.0
 40
4.0
 40
4.0
 40
4.0
 40
4.0
 10
112.5708921280773
 20
-143.3077171863953
 30
0.0
 10
112.5708921280773
 20
-143.2519077419649
 30
0.0
 10
112.5261246292194
 20
-143.2071049641981
 30
0.0
 10
112.4709854639595
 20
-143.2071049641981
 30
0.0
 10
112.4155287987076
 20
-143.2071049641981
 30
0.0
 10
112.3707612998497
 20
-143.2519077419649
 30
0.0
 10
112.3707612998497
 20
-143.3077171863953
 30
0.0
 10
112.3707612998497
 20
-143.3628210752702
 30
0.0
 10
112.4155287987076
 20
-143.4076238530369
 30
0.0
 10
112.4709854639595
 20
-143.4076238530369
 30
0.0
 10
112.5261246292194
 20
-143.4076238530369
 30
0.0
 10
112.5708921280773
 20
-143.3628210752702
 30
0.0
 10
112.5708921280773
 20
-143.3077171863953
 30
0.0
  0
SPLINE
  5
A1
330
1F
100
AcDbEntity
  8
_U+30EC_U+30A4_U+30E4_U+30FC 1
 62
   179
420
  2234388
370
     9
100
AcDbSpline
210
0.0
220
0.0
230
1.0
 70
    11
 71
     3
 72
    17
 73
    13
 74
     0
 42
0.0000000001
 43
0.0000000001
 12
1.0
 22
0.0
 32
0.0
 13
1.0
 23
0.0
 33
0.0
 40
0.0
 40
0.0
 40
0.0
 40
0.0
 40
1.0
 40
1.0
 40
1.0
 40
2.0
 40
2.0
 40
2.0
 40
3.0
 40
3.0
 40
3.0
 40
4.0
 40
4.0
 40
4.0
 40
4.0
 10
108.5708155634611
 20
-147.3074763520622
 30
0.0
 10
108.5708155634611
 20
-147.2523371854091
 30
0.0
 10
108.5260127868263
 20
-147.2075696854205
 30
0.0
 10
108.4709088993432
 20
-147.2075696854205
 30
0.0
 10
108.4157697340833
 20
-147.2075696854205
 30
0.0
 10
108.3710022352254
 20
-147.2523371854091
 30
0.0
 10
108.3710022352254
 20
-147.3074763520622
 30
0.0
 10
108.3710022352254
 20
-147.3625802409371
 30
0.0
 10
108.4157697340833
 20
-147.4073830187038
 30
0.0
 10
108.4709088993432
 20
-147.4073830187038
 30
0.0
 10
108.5260127868263
 20
-147.4073830187038
 30
0.0
 10
108.5708155634611
 20
-147.3625802409371
 30
0.0
 10
108.5708155634611
 20
-147.3074763520622
 30
0.0
  0
SPLINE
  5
A2
330
1F
100
AcDbEntity
  8
_U+30EC_U+30A4_U+30E4_U+30FC 1
 62
   179
420
  2234388
370
     9
100
AcDbSpline
210
0.0
220
0.0
230
1.0
 70
    11
 71
     3
 72
    17
 73
    13
 74
     0
 42
0.0000000001
 43
0.0000000001
 12
1.0
 22
0.0
 32
0.0
 13
1.0
 23
0.0
 33
0.0
 40
0.0
 40
0.0
 40
0.0
 40
0.0
 40
1.0
 40
1.0
 40
1.0
 40
2.0
 40
2.0
 40
2.0
 40
3.0
 40
3.0
 40
3.0
 40
4.0
 40
4.0
 40
4.0
 40
4.0
 10
63.57080087817376
 20
-147.3074763520622
 30
0.0
 10
63.57080087817376
 20
-147.2523371854091
 30
0.0
 10
63.52599810153899
 20
-147.2075696854205
 30
0.0
 10
63.47089421405592
 20
-147.2075696854205
 30
0.0
 10
63.41557865991158
 20
-147.2075696854205
 30
0.0
 10
63.37081116105369
 20
-147.2523371854091
 30
0.0
 10
63.37081116105369
 20
-147.3074763520622
 30
0.0
 10
63.37081116105369
 20
-147.3625802409371
 30
0.0
 10
63.41557865991158
 20
-147.4073830187038
 30
0.0
 10
63.47089421405592
 20
-147.4073830187038
 30
0.0
 10
63.52599810153899
 20
-147.4073830187038
 30
0.0
 10
63.57080087817376
 20
-147.3625802409371
 30
0.0
 10
63.57080087817376
 20
-147.3074763520622
 30
0.0
  0
POLYLINE
  5
A3
330
1F
100
AcDbEntity
  8
_U+30EC_U+30A4_U+30E4_U+30FC 1
 62
   179
420
  2234388
370
     9
100
AcDb2dPolyline
 66
     1
 10
0.0
 20
0.0
 30
0.0
  0
VERTEX
  5
A4
330
A3
100
AcDbEntity
  8
_U+30EC_U+30A4_U+30E4_U+30FC 1
 62
   179
420
  2234388
370
     9
100
AcDbVertex
100
AcDb2dVertex
 10
73.47080340338142
 20
-111.90721413869
 30
0.0
  0
VERTEX
  5
A5
330
A3
100
AcDbEntity
  8
_U+30EC_U+30A4_U+30E4_U+30FC 1
 62
   179
420
  2234388
370
     9
100
AcDbVertex
100
AcDb2dVertex
 10
98.47082332113334
 20
-111.90721413869
 30
0.0
  0
SEQEND
  5
A6
330
A3
100
AcDbEntity
  8
_U+30EC_U+30A4_U+30E4_U+30FC 1
 62
   179
420
  2234388
370
     9
  0
POLYLINE
  5
A7
330
1F
100
AcDbEntity
  8
_U+30EC_U+30A4_U+30E4_U+30FC 1
 62
   179
420
  2234388
370
     9
100
AcDb2dPolyline
 66
     1
 10
0.0
 20
0.0
 30
0.0
  0
VERTEX
  5
A8
330
A7
100
AcDbEntity
  8
_U+30EC_U+30A4_U+30E4_U+30FC 1
 62
   179
420
  2234388
370
     9
100
AcDbVertex
100
AcDb2dVertex
 10
73.47080340338142
 20
-113.3672555272137
 30
0.0
  0
VERTEX
  5
A9
330
A7
100
AcDbEntity
  8
_U+30EC_U+30A4_U+30E4_U+30FC 1
 62
   179
420
  2234388
370
     9
100
AcDbVertex
100
AcDb2dVertex
 10
73.47080340338142
 20
-110.9072655278289
 30
0.0
  0
SEQEND
  5
AA
330
A7
100
AcDbEntity
  8
_U+30EC_U+30A4_U+30E4_U+30FC 1
 62
   179
420
  2234388
370
     9
  0
POLYLINE
  5
AB
330
1F
100
AcDbEntity
  8
_U+30EC_U+30A4_U+30E4_U+30FC 1
 62
   179
420
  2234388
370
     9
100
AcDb2dPolyline
 66
     1
 10
0.0
 20
0.0
 30
0.0
  0
VERTEX
  5
AC
330
AB
100
AcDbEntity
  8
_U+30EC_U+30A4_U+30E4_U+30FC 1
 62
   179
420
  2234388
370
     9
100
AcDbVertex
100
AcDb2dVertex
 10
98.47082332113334
 20
-113.3672555272137
 30
0.0
  0
VERTEX
  5
AD
330
AB
100
AcDbEntity
  8
_U+30EC_U+30A4_U+30E4_U+30FC 1
 62
   179
420
  2234388
370
     9
100
AcDbVertex
100
AcDb2dVertex
 10
98.47082332113334
 20
-110.9072655278289
 30
0.0
  0
SEQEND
  5
AE
330
AB
100
AcDbEntity
  8
_U+30EC_U+30A4_U+30E4_U+30FC 1
 62
   179
420
  2234388
370
     9
  0
INSERT
  5
B0
330
1F
100
AcDbEntity
  8
_U+30EC_U+30A4_U+30E4_U+30FC 1
100
AcDbBlockReference
  2
block 2
 10
0.0
 20
0.0
 30
0.0
  0
POLYLINE
  5
B7
330
1F
100
AcDbEntity
  8
_U+30EC_U+30A4_U+30E4_U+30FC 1
 62
   179
420
  2234388
370
     9
100
AcDb2dPolyline
 66
     1
 10
0.0
 20
0.0
 30
0.0
  0
VERTEX
  5
B8
330
B7
100
AcDbEntity
  8
_U+30EC_U+30A4_U+30E4_U+30FC 1
 62
   179
420
  2234388
370
     9
100
AcDbVertex
100
AcDb2dVertex
 10
63.47089421405592
 20
-147.3074763520622
 30
0.0
  0
VERTEX
  5
B9
330
B7
100
AcDbEntity
  8
_U+30EC_U+30A4_U+30E4_U+30FC 1
 62
   179
420
  2234388
370
     9
100
AcDbVertex
100
AcDb2dVertex
 10
108.4709088993432
 20
-147.3074763520622
 30
0.0
  0
SEQEND
  5
BA
330
B7
100
AcDbEntity
  8
_U+30EC_U+30A4_U+30E4_U+30FC 1
 62
   179
420
  2234388
370
     9
  0
POLYLINE
  5
BB
330
1F
100
AcDbEntity
  8
_U+30EC_U+30A4_U+30E4_U+30FC 1
 62
   179
420
  2234388
370
     9
100
AcDb2dPolyline
 66
     1
 10
0.0
 20
0.0
 30
0.0
  0
VERTEX
  5
BC
330
BB
100
AcDbEntity
  8
_U+30EC_U+30A4_U+30E4_U+30FC 1
 62
   179
420
  2234388
370
     9
100
AcDbVertex
100
AcDb2dVertex
 10
63.47089421405592
 20
-145.8474349635385
 30
0.0
  0
VERTEX
  5
BD
330
BB
100
AcDbEntity
  8
_U+30EC_U+30A4_U+30E4_U+30FC 1
 62
   179
420
  2234388
370
     9
100
AcDbVertex
100
AcDb2dVertex
 10
63.47089421405592
 20
-148.3072132962565
 30
0.0
  0
SEQEND
  5
BE
330
BB
100
AcDbEntity
  8
_U+30EC_U+30A4_U+30E4_U+30FC 1
 62
   179
420
  2234388
370
     9
  0
POLYLINE
  5
BF
330
1F
100
AcDbEntity
  8
_U+30EC_U+30A4_U+30E4_U+30FC 1
 62
   179
420
  2234388
370
     9
100
AcDb2dPolyline
 66
     1
 10
0.0
 20
0.0
 30
0.0
  0
VERTEX
  5
C0
330
BF
100
AcDbEntity
  8
_U+30EC_U+30A4_U+30E4_U+30FC 1
 62
   179
420
  2234388
370
     9
100
AcDbVertex
100
AcDb2dVertex
 10
108.4709088993432
 20
-145.8474349635385
 30
0.0
  0
VERTEX
  5
C1
330
BF
100
AcDbEntity
  8
_U+30EC_U+30A4_U+30E4_U+30FC 1
 62
   179
420
  2234388
370
     9
100
AcDbVertex
100
AcDb2dVertex
 10
108.4709088993432
 20
-148.3072132962565
 30
0.0
  0
SEQEND
  5
C2
330
BF
100
AcDbEntity
  8
_U+30EC_U+30A4_U+30E4_U+30FC 1
 62
   179
420
  2234388
370
     9
  0
INSERT
  5
C4
330
1F
100
AcDbEntity
  8
_U+30EC_U+30A4_U+30E4_U+30FC 1
100
AcDbBlockReference
  2
block 3
 10
0.0
 20
0.0
 30
0.0
  0
POLYLINE
  5
DE
330
1F
100
AcDbEntity
  8
_U+30EC_U+30A4_U+30E4_U+30FC 1
 62
   179
420
  2234388
370
     9
100
AcDb2dPolyline
 66
     1
 10
0.0
 20
0.0
 30
0.0
  0
VERTEX
  5
DF
330
DE
100
AcDbEntity
  8
_U+30EC_U+30A4_U+30E4_U+30FC 1
 62
   179
420
  2234388
370
     9
100
AcDbVertex
100
AcDb2dVertex
 10
112.4709854639595
 20
-143.3077171863953
 30
0.0
  0
VERTEX
  5
E0
330
DE
100
AcDbEntity
  8
_U+30EC_U+30A4_U+30E4_U+30FC 1
 62
   179
420
  2234388
370
     9
100
AcDbVertex
100
AcDb2dVertex
 10
112.4709854639595
 20
-142.107426075584
 30
0.0
  0
SEQEND
  5
E1
330
DE
100
AcDbEntity
  8
_U+30EC_U+30A4_U+30E4_U+30FC 1
 62
   179
420
  2234388
370
     9
  0
POLYLINE
  5
E2
330
1F
100
AcDbEntity
  8
_U+30EC_U+30A4_U+30E4_U+30FC 1
 62
   179
420
  2234388
370
     9
100
AcDb2dPolyline
 66
     1
 10
0.0
 20
0.0
 30
0.0
  0
VERTEX
  5
E3
330
E2
100
AcDbEntity
  8
_U+30EC_U+30A4_U+30E4_U+30FC 1
 62
   179
420
  2234388
370
     9
100
AcDbVertex
100
AcDb2dVertex
 10
111.0109793900962
 20
-143.3077171863953
 30
0.0
  0
VERTEX
  5
E4
330
E2
100
AcDbEntity
  8
_U+30EC_U+30A4_U+30E4_U+30FC 1
 62
   179
420
  2234388
370
     9
100
AcDbVertex
100
AcDb2dVertex
 10
113.4707576606753
 20
-143.3077171863953
 30
0.0
  0
SEQEND
  5
E5
330
E2
100
AcDbEntity
  8
_U+30EC_U+30A4_U+30E4_U+30FC 1
 62
   179
420
  2234388
370
     9
  0
POLYLINE
  5
E6
330
1F
100
AcDbEntity
  8
_U+30EC_U+30A4_U+30E4_U+30FC 1
 62
   179
420
  2234388
370
     9
100
AcDb2dPolyline
 66
     1
 10
0.0
 20
0.0
 30
0.0
  0
VERTEX
  5
E7
330
E6
100
AcDbEntity
  8
_U+30EC_U+30A4_U+30E4_U+30FC 1
 62
   179
420
  2234388
370
     9
100
AcDbVertex
100
AcDb2dVertex
 10
111.0109793900962
 20
-142.107426075584
 30
0.0
  0
VERTEX
  5
E8
330
E6
100
AcDbEntity
  8
_U+30EC_U+30A4_U+30E4_U+30FC 1
 62
   179
420
  2234388
370
     9
100
AcDbVertex
100
AcDb2dVertex
 10
113.4707576606753
 20
-142.107426075584
 30
0.0
  0
SEQEND
  5
E9
330
E6
100
AcDbEntity
  8
_U+30EC_U+30A4_U+30E4_U+30FC 1
 62
   179
420
  2234388
370
     9
  0
INSERT
  5
EB
330
1F
100
AcDbEntity
  8
_U+30EC_U+30A4_U+30E4_U+30FC 1
100
AcDbBlockReference
  2
block 4
 10
0.0
 20
0.0
 30
0.0
  0
POLYLINE
  5
FA
330
1F
100
AcDbEntity
  8
_U+30EC_U+30A4_U+30E4_U+30FC 1
 62
   179
420
  2234388
370
     9
100
AcDb2dPolyline
 66
     1
 10
0.0
 20
0.0
 30
0.0
  0
VERTEX
  5
FB
330
FA
100
AcDbEntity
  8
_U+30EC_U+30A4_U+30E4_U+30FC 1
 62
   179
420
  2234388
370
     9
100
AcDbVertex
100
AcDb2dVertex
 10
112.4709854639595
 20
-142.107426075584
 30
0.0
  0
VERTEX
  5
FC
330
FA
100
AcDbEntity
  8
_U+30EC_U+30A4_U+30E4_U+30FC 1
 62
   179
420
  2234388
370
     9
100
AcDbVertex
100
AcDb2dVertex
 10
112.4709854639595
 20
-117.10722913739
 30
0.0
  0
SEQEND
  5
FD
330
FA
100
AcDbEntity
  8
_U+30EC_U+30A4_U+30E4_U+30FC 1
 62
   179
420
  2234388
370
     9
  0
POLYLINE
  5
FE
330
1F
100
AcDbEntity
  8
_U+30EC_U+30A4_U+30E4_U+30FC 1
 62
   179
420
  2234388
370
     9
100
AcDb2dPolyline
 66
     1
 10
0.0
 20
0.0
 30
0.0
  0
VERTEX
  5
FF
330
FE
100
AcDbEntity
  8
_U+30EC_U+30A4_U+30E4_U+30FC 1
 62
   179
420
  2234388
370
     9
100
AcDbVertex
100
AcDb2dVertex
 10
101.0108938118863
 20
-117.10722913739
 30
0.0
  0
VERTEX
  5
100
330
FE
100
AcDbEntity
  8
_U+30EC_U+30A4_U+30E4_U+30FC 1
 62
   179
420
  2234388
370
     9
100
AcDbVertex
100
AcDb2dVertex
 10
113.4707576606753
 20
-117.10722913739
 30
0.0
  0
SEQEND
  5
101
330
FE
100
AcDbEntity
  8
_U+30EC_U+30A4_U+30E4_U+30FC 1
 62
   179
420
  2234388
370
     9
  0
INSERT
  5
103
330
1F
100
AcDbEntity
  8
_U+30EC_U+30A4_U+30E4_U+30FC 1
100
AcDbBlockReference
  2
block 5
 10
0.0
 20
0.0
 30
0.0
  0
ENDSEC
  0
SECTION
  2
OBJECTS
  0
DICTIONARY
  5
C
330
0
100
AcDbDictionary
281
     1
  3
ACAD_GROUP
350
D
  3
ACAD_LAYOUT
350
1A
  3
ACAD_MATERIAL
350
3B
  3
ACAD_MLEADERSTYLE
350
10B
  3
ACAD_MLINESTYLE
350
17
  3
ACAD_PLOTSETTINGS
350
19
  3
ACAD_PLOTSTYLENAME
350
E
  3
ACAD_TABLESTYLE
350
10A
  3
ACAD_VISUALSTYLE
350
2A
  0
SUN
  5
3F
330
29
100
AcDbSun
 90
        1
290
     0
 63
     7
421
 16777215
 40
1.0
291
     1
 91
  2455826
 92
 54000000
292
     0
 70
     2
 71
   256
280
     1
  0
DICTIONARY
  5
D
102
{ACAD_REACTORS
330
C
102
}
330
C
100
AcDbDictionary
281
     1
  0
DICTIONARY
  5
1A
102
{ACAD_REACTORS
330
C
102
}
330
C
100
AcDbDictionary
281
     1
  3
Layout1
350
1E
  3
Layout2
350
26
  3
Model
350
22
  0
DICTIONARY
  5
3B
102
{ACAD_REACTORS
330
C
102
}
330
C
100
AcDbDictionary
281
     1
  3
ByBlock
350
3D
  3
ByLayer
350
3C
  3
Global
350
3E
  0
DICTIONARY
  5
10B
102
{ACAD_REACTORS
330
C
102
}
330
C
100
AcDbDictionary
281
     1
  0
DICTIONARY
  5
17
102
{ACAD_REACTORS
330
C
102
}
330
C
100
AcDbDictionary
281
     1
  3
Standard
350
18
  0
DICTIONARY
  5
19
102
{ACAD_REACTORS
330
C
102
}
330
C
100
AcDbDictionary
281
     1
  0
ACDBDICTIONARYWDFLT
  5
E
102
{ACAD_REACTORS
330
C
102
}
330
C
100
AcDbDictionary
281
     1
  3
Normal
350
F
100
AcDbDictionaryWithDefault
340
F
  0
DICTIONARY
  5
10A
102
{ACAD_REACTORS
330
C
102
}
330
C
100
AcDbDictionary
281
     1
  0
DICTIONARY
  5
2A
102
{ACAD_REACTORS
330
C
102
}
330
C
100
AcDbDictionary
281
     1
  3
2dWireframe
350
2F
  3
3D Hidden
350
31
  3
3dWireframe
350
30
  3
Basic
350
32
  3
Brighten
350
36
  3
ColorChange
350
3A
  3
Conceptual
350
34
  3
Dim
350
35
  3
Facepattern
350
39
  3
Flat
350
2B
  3
FlatWithEdges
350
2C
  3
Gouraud
350
2D
  3
GouraudWithEdges
350
2E
  3
Linepattern
350
38
  3
Realistic
350
33
  3
Thicken
350
37
  0
LAYOUT
  5
1E
102
{ACAD_REACTORS
330
1A
102
}
330
1A
100
AcDbPlotSettings
  1

  2
none_device
  4

  6

 40
0.0
 41
0.0
 42
0.0
 43
0.0
 44
0.0
 45
0.0
 46
0.0
 47
0.0
 48
0.0
 49
0.0
140
0.0
141
0.0
142
1.0
143
1.0
 70
   688
 72
     0
 73
     0
 74
     5
  7

 75
    16
 76
     0
 77
     2
 78
   300
147
1.0
148
0.0
149
0.0
100
AcDbLayout
  1
Layout1
 70
     1
 71
     1
 10
0.0
 20
0.0
 11
12.0
 21
9.0
 12
0.0
 22
0.0
 32
0.0
 14
1.000000000000000E+20
 24
1.000000000000000E+20
 34
1.000000000000000E+20
 15
-1.000000000000000E+20
 25
-1.000000000000000E+20
 35
-1.000000000000000E+20
146
0.0
 13
0.0
 23
0.0
 33
0.0
 16
1.0
 26
0.0
 36
0.0
 17
0.0
 27
1.0
 37
0.0
 76
     0
330
1B
  0
LAYOUT
  5
26
102
{ACAD_REACTORS
330
1A
102
}
330
1A
100
AcDbPlotSettings
  1

  2
none_device
  4

  6

 40
0.0
 41
0.0
 42
0.0
 43
0.0
 44
0.0
 45
0.0
 46
0.0
 47
0.0
 48
0.0
 49
0.0
140
0.0
141
0.0
142
1.0
143
1.0
 70
   688
 72
     0
 73
     0
 74
     5
  7

 75
    16
 76
     0
 77
     2
 78
   300
147
1.0
148
0.0
149
0.0
100
AcDbLayout
  1
Layout2
 70
     1
 71
     2
 10
0.0
 20
0.0
 11
0.0
 21
0.0
 12
0.0
 22
0.0
 32
0.0
 14
0.0
 24
0.0
 34
0.0
 15
0.0
 25
0.0
 35
0.0
146
0.0
 13
0.0
 23
0.0
 33
0.0
 16
1.0
 26
0.0
 36
0.0
 17
0.0
 27
1.0
 37
0.0
 76
     0
330
23
  0
LAYOUT
  5
22
102
{ACAD_REACTORS
330
1A
102
}
330
1A
100
AcDbPlotSettings
  1

  2
none_device
  4

  6

 40
0.0
 41
0.0
 42
0.0
 43
0.0
 44
0.0
 45
0.0
 46
0.0
 47
0.0
 48
0.0
 49
0.0
140
0.0
141
0.0
142
1.0
143
1.0
 70
  1712
 72
     0
 73
     0
 74
     0
  7

 75
     0
 76
     0
 77
     2
 78
   300
147
1.0
148
0.0
149
0.0
100
AcDbLayout
  1
Model
 70
     1
 71
     0
 10
0.0
 20
0.0
 11
12.0
 21
9.0
 12
0.0
 22
0.0
 32
0.0
 14
1.000000000000000E+20
 24
1.000000000000000E+20
 34
1.000000000000000E+20
 15
-1.000000000000000E+20
 25
-1.000000000000000E+20
 35
-1.000000000000000E+20
146
0.0
 13
0.0
 23
0.0
 33
0.0
 16
1.0
 26
0.0
 36
0.0
 17
0.0
 27
1.0
 37
0.0
 76
     0
330
1F
331
29
  0
MATERIAL
  5
3D
102
{ACAD_REACTORS
330
3B
102
}
330
3B
100
AcDbMaterial
  1
ByBlock
 72
     1
 94
      127
  0
MATERIAL
  5
3C
102
{ACAD_REACTORS
330
3B
102
}
330
3B
100
AcDbMaterial
  1
ByLayer
 72
     1
 94
      127
  0
MATERIAL
  5
3E
102
{ACAD_REACTORS
330
3B
102
}
330
3B
100
AcDbMaterial
  1
Global
 72
     1
 94
      127
  0
MLINESTYLE
  5
18
102
{ACAD_REACTORS
330
17
102
}
330
17
100
AcDbMlineStyle
  2
Standard
 70
     0
  3

 62
   256
 51
90.0
 52
90.0
 71
     2
 49
0.5
 62
   256
  6
BYLAYER
 49
-0.5
 62
   256
  6
BYLAYER
  0
ACDBPLACEHOLDER
  5
F
102
{ACAD_REACTORS
330
E
102
}
330
E
  0
VISUALSTYLE
  5
2F
102
{ACAD_REACTORS
330
2A
102
}
330
2A
100
AcDbVisualStyle
  2
2dWireframe
 70
     4
177
     2
291
     0
 71
     0
176
     1
 72
     2
176
     1
 73
     0
176
     1
 90
        0
176
     1
 40
-0.6
176
     1
 41
-30.0
176
     1
 62
     5
 63
     7
421
 16777215
176
     1
 74
     1
176
     1
 91
        4
176
     1
 64
     7
176
     1
 65
   257
176
     1
 75
     1
176
     1
175
     1
176
     1
 42
1.0
176
     1
 92
        0
176
     1
 66
   257
176
     1
 43
1.0
176
     1
 76
     1
176
     1
 77
     6
176
     1
 78
     2
176
     1
 67
     7
176
     1
 79
     5
176
     1
170
     0
176
     1
171
     0
176
     1
290
     0
176
     1
 93
        1
176
     1
 44
0.0
176
     1
173
     0
176
     1
  0
VISUALSTYLE
  5
31
102
{ACAD_REACTORS
330
2A
102
}
330
2A
100
AcDbVisualStyle
  2
3D Hidden
 70
     6
177
     2
291
     0
 71
     1
176
     1
 72
     2
176
     1
 73
     2
176
     1
 90
        0
176
     1
 40
-0.6
176
     1
 41
-30.0
176
     1
 62
     5
 63
     7
421
 16777215
176
     1
 74
     2
176
     1
 91
        2
176
     1
 64
     7
176
     1
 65
   257
176
     1
 75
     2
176
     1
175
     1
176
     1
 42
40.0
176
     1
 92
        0
176
     1
 66
   257
176
     1
 43
1.0
176
     1
 76
     1
176
     1
 77
     6
176
     1
 78
     2
176
     1
 67
     7
176
     1
 79
     3
176
     1
170
     0
176
     1
171
     0
176
     1
290
     0
176
     1
 93
        1
176
     1
 44
0.0
176
     1
173
     0
176
     1
  0
VISUALSTYLE
  5
30
102
{ACAD_REACTORS
330
2A
102
}
330
2A
100
AcDbVisualStyle
  2
3dWireframe
 70
     5
177
     2
291
     0
 71
     0
176
     1
 72
     2
176
     1
 73
     0
176
     1
 90
        0
176
     1
 40
-0.6
176
     1
 41
-30.0
176
     1
 62
     5
 63
     7
421
 16777215
176
     1
 74
     1
176
     1
 91
        4
176
     1
 64
     7
176
     1
 65
   257
176
     1
 75
     1
176
     1
175
     1
176
     1
 42
1.0
176
     1
 92
        0
176
     1
 66
   257
176
     1
 43
1.0
176
     1
 76
     1
176
     1
 77
     6
176
     1
 78
     2
176
     1
 67
     7
176
     1
 79
     5
176
     1
170
     0
176
     1
171
     0
176
     1
290
     0
176
     1
 93
        1
176
     1
 44
0.0
176
     1
173
     0
176
     1
  0
VISUALSTYLE
  5
32
102
{ACAD_REACTORS
330
2A
102
}
330
2A
100
AcDbVisualStyle
  2
Basic
 70
     7
177
     2
291
     1
 71
     1
176
     1
 72
     0
176
     1
 73
     1
176
     1
 90
        0
176
     1
 40
-0.6
176
     1
 41
-30.0
176
     1
 62
     5
 63
     7
421
 16777215
176
     1
 74
     0
176
     1
 91
        4
176
     1
 64
     7
176
     1
 65
   257
176
     1
 75
     1
176
     1
175
     1
176
     1
 42
1.0
176
     1
 92
        8
176
     1
 66
     7
176
     1
 43
1.0
176
     1
 76
     1
176
     1
 77
     6
176
     1
 78
     2
176
     1
 67
     7
176
     1
 79
     5
176
     1
170
     0
176
     1
171
     0
176
     1
290
     0
176
     1
 93
        1
176
     1
 44
0.0
176
     1
173
     0
176
     1
  0
VISUALSTYLE
  5
36
102
{ACAD_REACTORS
330
2A
102
}
330
2A
100
AcDbVisualStyle
  2
Brighten
 70
    12
177
     2
291
     1
 71
     2
176
     1
 72
     2
176
     1
 73
     0
176
     1
 90
        0
176
     1
 40
-0.6
176
     1
 41
-30.0
176
     1
 62
     5
 63
     7
421
 16777215
176
     1
 74
     1
176
     1
 91
        4
176
     1
 64
     7
176
     1
 65
   257
176
     1
 75
     1
176
     1
175
     1
176
     1
 42
1.0
176
     1
 92
        8
176
     1
 66
     7
176
     1
 43
1.0
176
     1
 76
     1
176
     1
 77
     6
176
     1
 78
     2
176
     1
 67
     7
176
     1
 79
     5
176
     1
170
     0
176
     1
171
     0
176
     1
290
     0
176
     1
 93
        1
176
     1
 44
50.0
176
     1
173
     0
176
     1
  0
VISUALSTYLE
  5
3A
102
{ACAD_REACTORS
330
2A
102
}
330
2A
100
AcDbVisualStyle
  2
ColorChange
 70
    16
177
     2
291
     1
 71
     2
176
     1
 72
     2
176
     1
 73
     3
176
     1
 90
        0
176
     1
 40
-0.6
176
     1
 41
-30.0
176
     1
 62
     5
 63
     8
421
  8421504
176
     1
 74
     1
176
     1
 91
        4
176
     1
 64
     7
176
     1
 65
   257
176
     1
 75
     1
176
     1
175
     1
176
     1
 42
1.0
176
     1
 92
        8
176
     1
 66
     8
424
  8421504
176
     1
 43
1.0
176
     1
 76
     1
176
     1
 77
     6
176
     1
 78
     2
176
     1
 67
     7
176
     1
 79
     5
176
     1
170
     0
176
     1
171
     0
176
     1
290
     0
176
     1
 93
        1
176
     1
 44
0.0
176
     1
173
     0
176
     1
  0
VISUALSTYLE
  5
34
102
{ACAD_REACTORS
330
2A
102
}
330
2A
100
AcDbVisualStyle
  2
Conceptual
 70
     9
177
     2
291
     0
 71
     3
176
     1
 72
     2
176
     1
 73
     0
176
     1
 90
        0
176
     1
 40
-0.6
176
     1
 41
-30.0
176
     1
 62
     5
 63
     7
421
 16777215
176
     1
 74
     2
176
     1
 91
        2
176
     1
 64
     7
176
     1
 65
   257
176
     1
 75
     1
176
     1
175
     1
176
     1
 42
40.0
176
     1
 92
        8
176
     1
 66
     7
176
     1
 43
1.0
176
     1
 76
     1
176
     1
 77
     6
176
     1
 78
     2
176
     1
 67
     7
176
     1
 79
     3
176
     1
170
     0
176
     1
171
     0
176
     1
290
     0
176
     1
 93
        1
176
     1
 44
0.0
176
     1
173
     0
176
     1
  0
VISUALSTYLE
  5
35
102
{ACAD_REACTORS
330
2A
102
}
330
2A
100
AcDbVisualStyle
  2
Dim
 70
    11
177
     2
291
     1
 71
     2
176
     1
 72
     2
176
     1
 73
     0
176
     1
 90
        0
176
     1
 40
-0.6
176
     1
 41
-30.0
176
     1
 62
     5
 63
     7
421
 16777215
176
     1
 74
     1
176
     1
 91
        4
176
     1
 64
     7
176
     1
 65
   257
176
     1
 75
     1
176
     1
175
     1
176
     1
 42
1.0
176
     1
 92
        8
176
     1
 66
     7
176
     1
 43
1.0
176
     1
 76
     1
176
     1
 77
     6
176
     1
 78
     2
176
     1
 67
     7
176
     1
 79
     5
176
     1
170
     0
176
     1
171
     0
176
     1
290
     0
176
     1
 93
        1
176
     1
 44
-50.0
176
     1
173
     0
176
     1
  0
VISUALSTYLE
  5
39
102
{ACAD_REACTORS
330
2A
102
}
330
2A
100
AcDbVisualStyle
  2
Facepattern
 70
    15
177
     2
291
     1
 71
     2
176
     1
 72
     2
176
     1
 73
     0
176
     1
 90
        0
176
     1
 40
-0.6
176
     1
 41
-30.0
176
     1
 62
     5
 63
     7
421
 16777215
176
     1
 74
     1
176
     1
 91
        4
176
     1
 64
     7
176
     1
 65
   257
176
     1
 75
     1
176
     1
175
     1
176
     1
 42
1.0
176
     1
 92
        8
176
     1
 66
     7
176
     1
 43
1.0
176
     1
 76
     1
176
     1
 77
     6
176
     1
 78
     2
176
     1
 67
     7
176
     1
 79
     5
176
     1
170
     0
176
     1
171
     0
176
     1
290
     0
176
     1
 93
        1
176
     1
 44
0.0
176
     1
173
     0
176
     1
  0
VISUALSTYLE
  5
2B
102
{ACAD_REACTORS
330
2A
102
}
330
2A
100
AcDbVisualStyle
  2
Flat
 70
     0
177
     2
291
     1
 71
     2
176
     1
 72
     1
176
     1
 73
     1
176
     1
 90
        2
176
     1
 40
-0.6
176
     1
 41
30.0
176
     1
 62
     5
 63
     7
421
 16777215
176
     1
 74
     0
176
     1
 91
        4
176
     1
 64
     7
176
     1
 65
   257
176
     1
 75
     1
176
     1
175
     1
176
     1
 42
1.0
176
     1
 92
        8
176
     1
 66
     7
176
     1
 43
1.0
176
     1
 76
     1
176
     1
 77
     6
176
     1
 78
     2
176
     1
 67
     7
176
     1
 79
     5
176
     1
170
     0
176
     1
171
     0
176
     1
290
     0
176
     1
 93
       13
176
     1
 44
0.0
176
     1
173
     0
176
     1
  0
VISUALSTYLE
  5
2C
102
{ACAD_REACTORS
330
2A
102
}
330
2A
100
AcDbVisualStyle
  2
FlatWithEdges
 70
     1
177
     2
291
     1
 71
     2
176
     1
 72
     1
176
     1
 73
     1
176
     1
 90
        2
176
     1
 40
-0.6
176
     1
 41
30.0
176
     1
 62
     5
 63
     7
421
 16777215
176
     1
 74
     1
176
     1
 91
        4
176
     1
 64
     7
176
     1
 65
   257
176
     1
 75
     1
176
     1
175
     1
176
     1
 42
1.0
176
     1
 92
        0
176
     1
 66
   257
176
     1
 43
1.0
176
     1
 76
     1
176
     1
 77
     6
176
     1
 78
     2
176
     1
 67
     7
176
     1
 79
     5
176
     1
170
     0
176
     1
171
     0
176
     1
290
     0
176
     1
 93
       13
176
     1
 44
0.0
176
     1
173
     0
176
     1
  0
VISUALSTYLE
  5
2D
102
{ACAD_REACTORS
330
2A
102
}
330
2A
100
AcDbVisualStyle
  2
Gouraud
 70
     2
177
     2
291
     1
 71
     2
176
     1
 72
     2
176
     1
 73
     1
176
     1
 90
        2
176
     1
 40
-0.6
176
     1
 41
30.0
176
     1
 62
     5
 63
     7
421
 16777215
176
     1
 74
     0
176
     1
 91
        4
176
     1
 64
     7
176
     1
 65
   257
176
     1
 75
     1
176
     1
175
     1
176
     1
 42
1.0
176
     1
 92
        0
176
     1
 66
     7
176
     1
 43
1.0
176
     1
 76
     1
176
     1
 77
     6
176
     1
 78
     2
176
     1
 67
     7
176
     1
 79
     5
176
     1
170
     0
176
     1
171
     0
176
     1
290
     0
176
     1
 93
       13
176
     1
 44
0.0
176
     1
173
     0
176
     1
  0
VISUALSTYLE
  5
2E
102
{ACAD_REACTORS
330
2A
102
}
330
2A
100
AcDbVisualStyle
  2
GouraudWithEdges
 70
     3
177
     2
291
     1
 71
     2
176
     1
 72
     2
176
     1
 73
     1
176
     1
 90
        2
176
     1
 40
-0.6
176
     1
 41
30.0
176
     1
 62
     5
 63
     7
421
 16777215
176
     1
 74
     1
176
     1
 91
        4
176
     1
 64
     7
176
     1
 65
   257
176
     1
 75
     1
176
     1
175
     1
176
     1
 42
1.0
176
     1
 92
        0
176
     1
 66
   257
176
     1
 43
1.0
176
     1
 76
     1
176
     1
 77
     6
176
     1
 78
     2
176
     1
 67
     7
176
     1
 79
     5
176
     1
170
     0
176
     1
171
     0
176
     1
290
     0
176
     1
 93
       13
176
     1
 44
0.0
176
     1
173
     0
176
     1
  0
VISUALSTYLE
  5
38
102
{ACAD_REACTORS
330
2A
102
}
330
2A
100
AcDbVisualStyle
  2
Linepattern
 70
    14
177
     2
291
     1
 71
     2
176
     1
 72
     2
176
     1
 73
     0
176
     1
 90
        0
176
     1
 40
-0.6
176
     1
 41
-30.0
176
     1
 62
     5
 63
     7
421
 16777215
176
     1
 74
     1
176
     1
 91
        4
176
     1
 64
     7
176
     1
 65
   257
176
     1
 75
     7
176
     1
175
     7
176
     1
 42
1.0
176
     1
 92
        8
176
     1
 66
     7
176
     1
 43
1.0
176
     1
 76
     1
176
     1
 77
     6
176
     1
 78
     2
176
     1
 67
     7
176
     1
 79
     5
176
     1
170
     0
176
     1
171
     0
176
     1
290
     0
176
     1
 93
        1
176
     1
 44
0.0
176
     1
173
     0
176
     1
  0
VISUALSTYLE
  5
33
102
{ACAD_REACTORS
330
2A
102
}
330
2A
100
AcDbVisualStyle
  2
Realistic
 70
     8
177
     2
291
     0
 71
     2
176
     1
 72
     2
176
     1
 73
     0
176
     1
 90
        0
176
     1
 40
-0.6
176
     1
 41
-30.0
176
     1
 62
     5
 63
     7
421
 16777215
176
     1
 74
     1
176
     1
 91
        0
176
     1
 64
     7
176
     1
 65
   257
176
     1
 75
     1
176
     1
175
     1
176
     1
 42
1.0
176
     1
 92
        8
176
     1
 66
     8
424
  7895160
176
     1
 43
1.0
176
     1
 76
     1
176
     1
 77
     6
176
     1
 78
     2
176
     1
 67
     7
176
     1
 79
     5
176
     1
170
     0
176
     1
171
     0
176
     1
290
     0
176
     1
 93
       13
176
     1
 44
0.0
176
     1
173
     0
176
     1
  0
VISUALSTYLE
  5
37
102
{ACAD_REACTORS
330
2A
102
}
330
2A
100
AcDbVisualStyle
  2
Thicken
 70
    13
177
     2
291
     1
 71
     2
176
     1
 72
     2
176
     1
 73
     0
176
     1
 90
        0
176
     1
 40
-0.6
176
     1
 41
-30.0
176
     1
 62
     5
 63
     7
421
 16777215
176
     1
 74
     1
176
     1
 91
        4
176
     1
 64
     7
176
     1
 65
   257
176
     1
 75
     1
176
     1
175
     1
176
     1
 42
1.0
176
     1
 92
       12
176
     1
 66
     7
176
     1
 43
1.0
176
     1
 76
     1
176
     1
 77
     6
176
     1
 78
     2
176
     1
 67
     7
176
     1
 79
     5
176
     1
170
     0
176
     1
171
     0
176
     1
290
     0
176
     1
 93
        1
176
     1
 44
0.0
176
     1
173
     0
176
     1
  0
ENDSEC
  0
EOF
