  0
SECTION
  2
HEADER
  9
$ACADVER
  1
AC1024
  9
$ACADMAINTVER
 70
     6
  9
$DWGCODEPAGE
  3
UNDEFINED
  9
$INSBASE
 10
0.0
 20
0.0
 30
0.0
  9
$EXTMIN
 10
1.000000000000000E+20
 20
1.000000000000000E+20
 30
1.000000000000000E+20
  9
$EXTMAX
 10
-1.000000000000000E+20
 20
-1.000000000000000E+20
 30
-1.000000000000000E+20
  9
$LIMMIN
 10
0.0
 20
0.0
  9
$LIMMAX
 10
12.0
 20
9.0
  9
$ORTHOMODE
 70
     0
  9
$REGENMODE
 70
     1
  9
$FILLMODE
 70
     1
  9
$QTEXTMODE
 70
     0
  9
$MIRRTEXT
 70
     1
  9
$LTSCALE
 40
1.0
  9
$ATTMODE
 70
     1
  9
$TEXTSIZE
 40
0.2
  9
$TRACEWID
 40
0.05
  9
$TEXTSTYLE
  7
Standard
  9
$CLAYER
  8
0
  9
$CELTYPE
  6
ByLayer
  9
$CECOLOR
 62
   256
  9
$CELTSCALE
 40
1.0
  9
$DISPSILH
 70
     0
  9
$DIMSCALE
 40
1.0
  9
$DIMASZ
 40
0.18
  9
$DIMEXO
 40
0.0625
  9
$DIMDLI
 40
0.38
  9
$DIMRND
 40
0.0
  9
$DIMDLE
 40
0.0
  9
$DIMEXE
 40
0.18
  9
$DIMTP
 40
0.0
  9
$DIMTM
 40
0.0
  9
$DIMTXT
 40
0.18
  9
$DIMCEN
 40
0.09
  9
$DIMTSZ
 40
0.0
  9
$DIMTOL
 70
     0
  9
$DIMLIM
 70
     0
  9
$DIMTIH
 70
     1
  9
$DIMTOH
 70
     1
  9
$DIMSE1
 70
     0
  9
$DIMSE2
 70
     0
  9
$DIMTAD
 70
     0
  9
$DIMZIN
 70
     0
  9
$DIMBLK
  1

  9
$DIMASO
 70
     1
  9
$DIMSHO
 70
     1
  9
$DIMPOST
  1

  9
$DIMAPOST
  1

  9
$DIMALT
 70
     0
  9
$DIMALTD
 70
     2
  9
$DIMALTF
 40
25.4
  9
$DIMLFAC
 40
1.0
  9
$DIMTOFL
 70
     0
  9
$DIMTVP
 40
0.0
  9
$DIMTIX
 70
     0
  9
$DIMSOXD
 70
     0
  9
$DIMSAH
 70
     0
  9
$DIMBLK1
  1

  9
$DIMBLK2
  1

  9
$DIMSTYLE
  2
Standard
  9
$DIMCLRD
 70
     0
  9
$DIMCLRE
 70
     0
  9
$DIMCLRT
 70
     0
  9
$DIMTFAC
 40
1.0
  9
$DIMGAP
 40
0.09
  9
$DIMJUST
 70
     0
  9
$DIMSD1
 70
     0
  9
$DIMSD2
 70
     0
  9
$DIMTOLJ
 70
     1
  9
$DIMTZIN
 70
     0
  9
$DIMALTZ
 70
     0
  9
$DIMALTTZ
 70
     0
  9
$DIMUPT
 70
     0
  9
$DIMDEC
 70
     4
  9
$DIMTDEC
 70
     4
  9
$DIMALTU
 70
     2
  9
$DIMALTTD
 70
     2
  9
$DIMTXSTY
  7
Standard
  9
$DIMAUNIT
 70
     0
  9
$DIMADEC
 70
     0
  9
$DIMALTRND
 40
0.0
  9
$DIMAZIN
 70
     0
  9
$DIMDSEP
 70
    46
  9
$DIMATFIT
 70
     3
  9
$DIMFRAC
 70
     0
  9
$DIMLDRBLK
  1

  9
$DIMLUNIT
 70
     2
  9
$DIMLWD
 70
    -2
  9
$DIMLWE
 70
    -2
  9
$DIMTMOVE
 70
     0
  9
$DIMFXL
 40
1.0
  9
$DIMFXLON
 70
     0
  9
$DIMJOGANG
 40
0.7853981633974483
  9
$DIMTFILL
 70
     0
  9
$DIMTFILLCLR
 70
     0
  9
$DIMARCSYM
 70
     0
  9
$DIMLTYPE
  6

  9
$DIMLTEX1
  6

  9
$DIMLTEX2
  6

  9
$DIMTXTDIRECTION
 70
     0
  9
$LUNITS
 70
     2
  9
$LUPREC
 70
     4
  9
$SKETCHINC
 40
0.1
  9
$FILLETRAD
 40
0.5
  9
$AUNITS
 70
     0
  9
$AUPREC
 70
     0
  9
$MENU
  1
.
  9
$ELEVATION
 40
0.0
  9
$PELEVATION
 40
0.0
  9
$THICKNESS
 40
0.0
  9
$LIMCHECK
 70
     0
  9
$CHAMFERA
 40
0.5
  9
$CHAMFERB
 40
0.5
  9
$CHAMFERC
 40
1.0
  9
$CHAMFERD
 40
0.0
  9
$SKPOLY
 70
     0
  9
$TDCREATE
 40
2457917.62597221
  9
$TDUCREATE
 40
2457917.250972222
  9
$TDUPDATE
 40
2457917.62597221
  9
$TDUUPDATE
 40
2457917.250972222
  9
$TDINDWG
 40
0.0000000116
  9
$TDUSRTIMER
 40
0.0000000116
  9
$USRTIMER
 70
     1
  9
$ANGBASE
 50
0.0
  9
$ANGDIR
 70
     0
  9
$PDMODE
 70
     0
  9
$PDSIZE
 40
0.0
  9
$PLINEWID
 40
0.0
  9
$SPLFRAME
 70
     0
  9
$SPLINETYPE
 70
     6
  9
$SPLINESEGS
 70
     8
  9
$HANDSEED
  5
141
  9
$SURFTAB1
 70
     6
  9
$SURFTAB2
 70
     6
  9
$SURFTYPE
 70
     6
  9
$SURFU
 70
     6
  9
$SURFV
 70
     6
  9
$UCSBASE
  2

  9
$UCSNAME
  2

  9
$UCSORG
 10
0.0
 20
0.0
 30
0.0
  9
$UCSXDIR
 10
1.0
 20
0.0
 30
0.0
  9
$UCSYDIR
 10
0.0
 20
1.0
 30
0.0
  9
$UCSORTHOREF
  2

  9
$UCSORTHOVIEW
 70
     0
  9
$UCSORGTOP
 10
0.0
 20
0.0
 30
0.0
  9
$UCSORGBOTTOM
 10
0.0
 20
0.0
 30
0.0
  9
$UCSORGLEFT
 10
0.0
 20
0.0
 30
0.0
  9
$UCSORGRIGHT
 10
0.0
 20
0.0
 30
0.0
  9
$UCSORGFRONT
 10
0.0
 20
0.0
 30
0.0
  9
$UCSORGBACK
 10
0.0
 20
0.0
 30
0.0
  9
$PUCSBASE
  2

  9
$PUCSNAME
  2

  9
$PUCSORG
 10
0.0
 20
0.0
 30
0.0
  9
$PUCSXDIR
 10
1.0
 20
0.0
 30
0.0
  9
$PUCSYDIR
 10
0.0
 20
1.0
 30
0.0
  9
$PUCSORTHOREF
  2

  9
$PUCSORTHOVIEW
 70
     0
  9
$PUCSORGTOP
 10
0.0
 20
0.0
 30
0.0
  9
$PUCSORGBOTTOM
 10
0.0
 20
0.0
 30
0.0
  9
$PUCSORGLEFT
 10
0.0
 20
0.0
 30
0.0
  9
$PUCSORGRIGHT
 10
0.0
 20
0.0
 30
0.0
  9
$PUCSORGFRONT
 10
0.0
 20
0.0
 30
0.0
  9
$PUCSORGBACK
 10
0.0
 20
0.0
 30
0.0
  9
$USERI1
 70
     0
  9
$USERI2
 70
     0
  9
$USERI3
 70
     0
  9
$USERI4
 70
     0
  9
$USERI5
 70
     0
  9
$USERR1
 40
0.0
  9
$USERR2
 40
0.0
  9
$USERR3
 40
0.0
  9
$USERR4
 40
0.0
  9
$USERR5
 40
0.0
  9
$WORLDVIEW
 70
     1
  9
$SHADEDGE
 70
     3
  9
$SHADEDIF
 70
    70
  9
$TILEMODE
 70
     1
  9
$MAXACTVP
 70
    64
  9
$PINSBASE
 10
0.0
 20
0.0
 30
0.0
  9
$PLIMCHECK
 70
     0
  9
$PEXTMIN
 10
1.000000000000000E+20
 20
1.000000000000000E+20
 30
1.000000000000000E+20
  9
$PEXTMAX
 10
-1.000000000000000E+20
 20
-1.000000000000000E+20
 30
-1.000000000000000E+20
  9
$PLIMMIN
 10
0.0
 20
0.0
  9
$PLIMMAX
 10
12.0
 20
9.0
  9
$UNITMODE
 70
     0
  9
$VISRETAIN
 70
     1
  9
$PLINEGEN
 70
     0
  9
$PSLTSCALE
 70
     1
  9
$TREEDEPTH
 70
  3020
  9
$CMLSTYLE
  2
Standard
  9
$CMLJUST
 70
     0
  9
$CMLSCALE
 40
1.0
  9
$PROXYGRAPHICS
 70
     1
  9
$MEASUREMENT
 70
     0
  9
$CELWEIGHT
370
    -1
  9
$ENDCAPS
280
     0
  9
$JOINSTYLE
280
     0
  9
$LWDISPLAY
290
     1
  9
$INSUNITS
 70
     1
  9
$HYPERLINKBASE
  1

  9
$STYLESHEET
  1

  9
$XEDIT
290
     1
  9
$CEPSNTYPE
380
     0
  9
$PSTYLEMODE
290
     1
  9
$FINGERPRINTGUID
  2
{FFEC838A-A45F-B8F3-3500-310007E8DF7E}
  9
$VERSIONGUID
  2
{FAEB1C32-E019-11D5-929B-00C0DF256EC4}
  9
$EXTNAMES
290
     1
  9
$PSVPSCALE
 40
0.0
  9
$OLESTARTUP
290
     0
  9
$SORTENTS
280
   127
  9
$INDEXCTL
280
     0
  9
$HIDETEXT
280
     1
  9
$XCLIPFRAME
280
     2
  9
$HALOGAP
280
     0
  9
$OBSCOLOR
 70
   257
  9
$OBSLTYPE
280
     0
  9
$INTERSECTIONDISPLAY
280
     0
  9
$INTERSECTIONCOLOR
 70
   257
  9
$DIMASSOC
280
     2
  9
$PROJECTNAME
  1

  9
$CAMERADISPLAY
290
     0
  9
$LENSLENGTH
 40
50.0
  9
$CAMERAHEIGHT
 40
0.0
  9
$STEPSPERSEC
 40
2.0
  9
$STEPSIZE
 40
6.0
  9
$3DDWFPREC
 40
2.0
  9
$PSOLWIDTH
 40
0.25
  9
$PSOLHEIGHT
 40
4.0
  9
$LOFTANG1
 40
1.570796326794897
  9
$LOFTANG2
 40
1.570796326794897
  9
$LOFTMAG1
 40
0.0
  9
$LOFTMAG2
 40
0.0
  9
$LOFTPARAM
 70
     7
  9
$LOFTNORMALS
280
     1
  9
$LATITUDE
 40
37.795
  9
$LONGITUDE
 40
-122.394
  9
$NORTHDIRECTION
 40
0.0
  9
$TIMEZONE
 70
 -8000
  9
$LIGHTGLYPHDISPLAY
280
     1
  9
$TILEMODELIGHTSYNCH
280
     1
  9
$CMATERIAL
347
3C
  9
$SOLIDHIST
280
     1
  9
$SHOWHIST
280
     1
  9
$DWFFRAME
280
     2
  9
$DGNFRAME
280
     2
  9
$REALWORLDSCALE
290
     1
  9
$INTERFERECOLOR
 62
   256
  9
$CSHADOW
280
     0
  9
$SHADOWPLANELOCATION
 40
0.0
  0
ENDSEC
  0
SECTION
  2
CLASSES
  0
CLASS
  1
ACDBDICTIONARYWDFLT
  2
AcDbDictionaryWithDefault
  3
ObjectDBX Classes
 90
        0
 91
        4
280
     0
281
     0
  0
CLASS
  1
VISUALSTYLE
  2
AcDbVisualStyle
  3
ObjectDBX Classes
 90
     4095
 91
        4
280
     0
281
     0
  0
CLASS
  1
MATERIAL
  2
AcDbMaterial
  3
ObjectDBX Classes
 90
     1153
 91
        4
280
     0
281
     0
  0
CLASS
  1
SUN
  2
AcDbSun
  3
SCENEOE
 90
     1024
 91
        4
280
     0
281
     0
  0
ENDSEC
  0
SECTION
  2
TABLES
  0
TABLE
  2
VPORT
  5
8
330
0
100
AcDbSymbolTable
 70
     1
  0
VPORT
  5
29
330
8
100
AcDbSymbolTableRecord
100
AcDbViewportTableRecord
  2
*Active
 70
     0
 10
0.0
 20
0.0
 11
1.0
 21
1.0
 12
0.0
 22
0.0
 13
0.0
 23
0.0
 14
0.5
 24
0.5
 15
0.5
 25
0.5
 16
0.0
 26
0.0
 36
1.0
 17
91.00082462281999
 27
-128.4993055234307
 37
0.0
 40
256.9986110468615
 41
0.7081814508812795
 42
50.0
 43
0.0
 44
0.0
 50
0.0
 51
0.0
 71
     0
 72
   100
 73
     1
 74
     3
 75
     0
 76
     0
 77
     0
 78
     0
281
     0
 65
     1
110
0.0
120
0.0
130
0.0
111
1.0
121
0.0
131
0.0
112
0.0
122
1.0
132
0.0
 79
     0
146
0.0
 60
     3
 61
     5
292
     1
282
     1
141
0.0
142
0.0
 63
   250
361
3F
  0
ENDTAB
  0
TABLE
  2
LTYPE
  5
5
330
0
100
AcDbSymbolTable
 70
     1
  0
LTYPE
  5
14
330
5
100
AcDbSymbolTableRecord
100
AcDbLinetypeTableRecord
  2
ByBlock
 70
     0
  3

 72
    65
 73
     0
 40
0.0
  0
LTYPE
  5
15
330
5
100
AcDbSymbolTableRecord
100
AcDbLinetypeTableRecord
  2
ByLayer
 70
     0
  3

 72
    65
 73
     0
 40
0.0
  0
LTYPE
  5
16
330
5
100
AcDbSymbolTableRecord
100
AcDbLinetypeTableRecord
  2
Continuous
 70
     0
  3
Solid line
 72
    65
 73
     0
 40
0.0
  0
ENDTAB
  0
TABLE
  2
LAYER
  5
2
330
0
100
AcDbSymbolTable
 70
     2
  0
LAYER
  5
10
330
2
100
AcDbSymbolTableRecord
100
AcDbLayerTableRecord
  2
0
 70
     0
 62
     7
  6
Continuous
370
    -3
390
F
347
3E
  0
LAYER
  5
40
330
2
100
AcDbSymbolTableRecord
100
AcDbLayerTableRecord
  2
_U+30EC_U+30A4_U+30E4_U+30FC 1
 70
     0
 62
     7
  6
Continuous
370
    -3
390
F
347
3E
  0
ENDTAB
  0
TABLE
  2
STYLE
  5
3
330
0
100
AcDbSymbolTable
 70
     1
  0
STYLE
  5
11
330
3
100
AcDbSymbolTableRecord
100
AcDbTextStyleTableRecord
  2
Standard
 70
     0
 40
0.0
 41
1.0
 50
0.0
 71
     0
 42
0.2
  3
txt
  4

  0
ENDTAB
  0
TABLE
  2
VIEW
  5
6
330
0
100
AcDbSymbolTable
 70
     0
  0
ENDTAB
  0
TABLE
  2
UCS
  5
7
330
0
100
AcDbSymbolTable
 70
     0
  0
ENDTAB
  0
TABLE
  2
APPID
  5
9
330
0
100
AcDbSymbolTable
 70
     1
  0
APPID
  5
12
330
9
100
AcDbSymbolTableRecord
100
AcDbRegAppTableRecord
  2
ACAD
 70
     0
  0
ENDTAB
  0
TABLE
  2
DIMSTYLE
  5
A
330
0
100
AcDbSymbolTable
 70
     1
100
AcDbDimStyleTable
  0
DIMSTYLE
105
27
330
A
100
AcDbSymbolTableRecord
100
AcDbDimStyleTableRecord
  2
Standard
 70
     0
178
     0
340
11
  0
ENDTAB
  0
TABLE
  2
BLOCK_RECORD
  5
1
330
0
100
AcDbSymbolTable
 70
     7
  0
BLOCK_RECORD
  5
1F
330
1
100
AcDbSymbolTableRecord
100
AcDbBlockTableRecord
  2
*Model_Space
340
22
 70
     0
280
     1
281
     0
  0
BLOCK_RECORD
  5
1B
330
1
100
AcDbSymbolTableRecord
100
AcDbBlockTableRecord
  2
*Paper_Space
340
1E
 70
     0
280
     1
281
     0
  0
BLOCK_RECORD
  5
23
330
1
100
AcDbSymbolTableRecord
100
AcDbBlockTableRecord
  2
*Paper_Space0
340
26
 70
     0
280
     1
281
     0
  0
BLOCK_RECORD
  5
A4
330
1
100
AcDbSymbolTableRecord
100
AcDbBlockTableRecord
  2
block 2
340
0
102
{BLKREFS
331
A5
102
}
 70
     0
280
     1
281
     0
  0
BLOCK_RECORD
  5
C0
330
1
100
AcDbSymbolTableRecord
100
AcDbBlockTableRecord
  2
block 3
340
0
102
{BLKREFS
331
C1
102
}
 70
     0
280
     1
281
     0
  0
BLOCK_RECORD
  5
CE
330
1
100
AcDbSymbolTableRecord
100
AcDbBlockTableRecord
  2
block 4
340
0
102
{BLKREFS
331
CF
102
}
 70
     0
280
     1
281
     0
  0
BLOCK_RECORD
  5
EF
330
1
100
AcDbSymbolTableRecord
100
AcDbBlockTableRecord
  2
block 5
340
0
102
{BLKREFS
331
F0
102
}
 70
     0
280
     1
281
     0
  0
BLOCK_RECORD
  5
110
330
1
100
AcDbSymbolTableRecord
100
AcDbBlockTableRecord
  2
block 6
340
0
102
{BLKREFS
331
111
102
}
 70
     0
280
     1
281
     0
  0
BLOCK_RECORD
  5
125
330
1
100
AcDbSymbolTableRecord
100
AcDbBlockTableRecord
  2
block 7
340
0
102
{BLKREFS
331
126
102
}
 70
     0
280
     1
281
     0
  0
ENDTAB
  0
ENDSEC
  0
SECTION
  2
BLOCKS
  0
BLOCK
  5
20
330
1F
100
AcDbEntity
  8
0
100
AcDbBlockBegin
  2
*Model_Space
 70
     0
 10
0.0
 20
0.0
 30
0.0
  3
*Model_Space
  1

  0
ENDBLK
  5
21
330
1F
100
AcDbEntity
  8
0
100
AcDbBlockEnd
  0
BLOCK
  5
1C
330
1B
100
AcDbEntity
 67
     1
  8
0
100
AcDbBlockBegin
  2
*Paper_Space
 70
     0
 10
0.0
 20
0.0
 30
0.0
  3
*Paper_Space
  1

  0
ENDBLK
  5
1D
330
1B
100
AcDbEntity
 67
     1
  8
0
100
AcDbBlockEnd
  0
BLOCK
  5
24
330
23
100
AcDbEntity
  8
0
100
AcDbBlockBegin
  2
*Paper_Space0
 70
     0
 10
0.0
 20
0.0
 30
0.0
  3
*Paper_Space0
  1

  0
ENDBLK
  5
25
330
23
100
AcDbEntity
  8
0
100
AcDbBlockEnd
  0
BLOCK
  5
A6
330
A4
100
AcDbEntity
  8
0
100
AcDbBlockBegin
  2
block 2
 70
     0
 10
0.0
 20
0.0
 30
0.0
  3
block 2
  1

  0
SPLINE
  5
A8
330
A4
100
AcDbEntity
  8
_U+30EC_U+30A4_U+30E4_U+30FC 1
370
     0
100
AcDbSpline
210
0.0
220
0.0
230
1.0
 70
    11
 71
     3
 72
    26
 73
    22
 74
     0
 42
0.0000000001
 43
0.0000000001
 12
1.0
 22
0.0
 32
0.0
 13
1.0
 23
0.0
 33
0.0
 40
0.0
 40
0.0
 40
0.0
 40
0.0
 40
1.0
 40
1.0
 40
1.0
 40
2.0
 40
2.0
 40
2.0
 40
3.0
 40
3.0
 40
3.0
 40
4.0
 40
4.0
 40
4.0
 40
5.0
 40
5.0
 40
5.0
 40
6.0
 40
6.0
 40
6.0
 40
7.0
 40
7.0
 40
7.0
 40
7.0
 10
73.03189017271426
 20
-104.9655137541406
 30
0.0
 10
73.03189017271426
 20
-104.9655137541406
 30
0.0
 10
71.92773706969167
 20
-104.9655137541406
 30
0.0
 10
71.92773706969167
 20
-104.9655137541406
 30
0.0
 10
71.92773706969167
 20
-104.9655137541406
 30
0.0
 10
71.92773706969167
 20
-105.2955539016275
 30
0.0
 10
71.92773706969167
 20
-105.2955539016275
 30
0.0
 10
71.92773706969167
 20
-105.2955539016275
 30
0.0
 10
71.77959796382594
 20
-105.2955539016275
 30
0.0
 10
71.77959796382594
 20
-105.2955539016275
 30
0.0
 10
71.76478405323937
 20
-104.9634466968494
 30
0.0
 10
71.60183103678705
 20
-104.9169379077985
 30
0.0
 10
71.48745386667674
 20
-104.8873100866254
 30
0.0
 10
71.48745386667674
 20
-104.8873100866254
 30
0.0
 10
71.48745386667674
 20
-104.7412380380508
 30
0.0
 10
71.48745386667674
 20
-104.7412380380508
 30
0.0
 10
71.48745386667674
 20
-104.7412380380508
 30
0.0
 10
73.03189017271426
 20
-104.7412380380508
 30
0.0
 10
73.03189017271426
 20
-104.7412380380508
 30
0.0
 10
73.03189017271426
 20
-104.7412380380508
 30
0.0
 10
73.03189017271426
 20
-104.9655137541406
 30
0.0
 10
73.03189017271426
 20
-104.9655137541406
 30
0.0
  0
HATCH
  5
A9
330
A4
100
AcDbEntity
  8
_U+30EC_U+30A4_U+30E4_U+30FC 1
 62
   179
420
  2234388
100
AcDbHatch
 10
0.0
 20
0.0
 30
0.0
210
0.0
220
0.0
230
1.0
  2
SOLID
 70
     1
 71
     0
 91
        1
 92
        1
 93
        1
 72
     4
 94
        3
 73
     0
 74
     1
 95
       26
 96
       22
 40
0.0
 40
0.0
 40
0.0
 40
0.0
 40
1.0
 40
1.0
 40
1.0
 40
2.0
 40
2.0
 40
2.0
 40
3.0
 40
3.0
 40
3.0
 40
4.0
 40
4.0
 40
4.0
 40
5.0
 40
5.0
 40
5.0
 40
6.0
 40
6.0
 40
6.0
 40
7.0
 40
7.0
 40
7.0
 40
7.0
 10
73.03189017271426
 20
-104.9655137541406
 10
73.03189017271426
 20
-104.9655137541406
 10
71.92773706969167
 20
-104.9655137541406
 10
71.92773706969167
 20
-104.9655137541406
 10
71.92773706969167
 20
-104.9655137541406
 10
71.92773706969167
 20
-105.2955539016275
 10
71.92773706969167
 20
-105.2955539016275
 10
71.92773706969167
 20
-105.2955539016275
 10
71.77959796382594
 20
-105.2955539016275
 10
71.77959796382594
 20
-105.2955539016275
 10
71.76478405323937
 20
-104.9634466968494
 10
71.60183103678705
 20
-104.9169379077985
 10
71.48745386667674
 20
-104.8873100866254
 10
71.48745386667674
 20
-104.8873100866254
 10
71.48745386667674
 20
-104.7412380380508
 10
71.48745386667674
 20
-104.7412380380508
 10
71.48745386667674
 20
-104.7412380380508
 10
73.03189017271426
 20
-104.7412380380508
 10
73.03189017271426
 20
-104.7412380380508
 10
73.03189017271426
 20
-104.7412380380508
 10
73.03189017271426
 20
-104.9655137541406
 10
73.03189017271426
 20
-104.9655137541406
 97
        0
 97
        0
 75
     2
 76
     1
 98
        0
  0
POLYLINE
  5
AA
330
A4
100
AcDbEntity
  8
_U+30EC_U+30A4_U+30E4_U+30FC 1
370
     0
100
AcDb2dPolyline
 66
     1
 10
0.0
 20
0.0
 30
0.0
  0
VERTEX
  5
AB
330
AA
100
AcDbEntity
  8
_U+30EC_U+30A4_U+30E4_U+30FC 1
370
     0
100
AcDbVertex
100
AcDb2dVertex
 10
73.03189017271426
 20
-104.1800319835036
 30
0.0
  0
VERTEX
  5
AC
330
AA
100
AcDbEntity
  8
_U+30EC_U+30A4_U+30E4_U+30FC 1
370
     0
100
AcDbVertex
100
AcDb2dVertex
 10
72.78005369274248
 20
-104.1800319835036
 30
0.0
  0
VERTEX
  5
AD
330
AA
100
AcDbEntity
  8
_U+30EC_U+30A4_U+30E4_U+30FC 1
370
     0
100
AcDbVertex
100
AcDb2dVertex
 10
72.78005369274248
 20
-103.9281955035318
 30
0.0
  0
VERTEX
  5
AE
330
AA
100
AcDbEntity
  8
_U+30EC_U+30A4_U+30E4_U+30FC 1
370
     0
100
AcDbVertex
100
AcDb2dVertex
 10
73.03189017271426
 20
-103.9281955035318
 30
0.0
  0
VERTEX
  5
AF
330
AA
100
AcDbEntity
  8
_U+30EC_U+30A4_U+30E4_U+30FC 1
370
     0
100
AcDbVertex
100
AcDb2dVertex
 10
73.03189017271426
 20
-104.1800319835036
 30
0.0
  0
SEQEND
  5
B0
330
AA
100
AcDbEntity
  8
_U+30EC_U+30A4_U+30E4_U+30FC 1
370
     0
  0
HATCH
  5
B1
330
A4
100
AcDbEntity
  8
_U+30EC_U+30A4_U+30E4_U+30FC 1
 62
   179
420
  2234388
100
AcDbHatch
 10
0.0
 20
0.0
 30
0.0
210
0.0
220
0.0
230
1.0
  2
SOLID
 70
     1
 71
     0
 91
        1
 92
        1
 93
        4
 72
     1
 10
73.03189017271426
 20
-104.1800319835036
 11
72.78005369274248
 21
-104.1800319835036
 72
     1
 10
72.78005369274248
 20
-104.1800319835036
 11
72.78005369274248
 21
-103.9281955035318
 72
     1
 10
72.78005369274248
 20
-103.9281955035318
 11
73.03189017271426
 21
-103.9281955035318
 72
     1
 10
73.03189017271426
 20
-103.9281955035318
 11
73.03189017271426
 21
-104.1800319835036
 97
        0
 75
     2
 76
     1
 98
        0
  0
SPLINE
  5
B2
330
A4
100
AcDbEntity
  8
_U+30EC_U+30A4_U+30E4_U+30FC 1
370
     0
100
AcDbSpline
210
0.0
220
0.0
230
1.0
 70
    11
 71
     3
 72
    44
 73
    40
 74
     0
 42
0.0000000001
 43
0.0000000001
 12
1.0
 22
0.0
 32
0.0
 13
1.0
 23
0.0
 33
0.0
 40
0.0
 40
0.0
 40
0.0
 40
0.0
 40
1.0
 40
1.0
 40
1.0
 40
2.0
 40
2.0
 40
2.0
 40
3.0
 40
3.0
 40
3.0
 40
4.0
 40
4.0
 40
4.0
 40
5.0
 40
5.0
 40
5.0
 40
6.0
 40
6.0
 40
6.0
 40
7.0
 40
7.0
 40
7.0
 40
8.0
 40
8.0
 40
8.0
 40
9.0
 40
9.0
 40
9.0
 40
10.0
 40
10.0
 40
10.0
 40
11.0
 40
11.0
 40
11.0
 40
12.0
 40
12.0
 40
12.0
 40
13.0
 40
13.0
 40
13.0
 40
13.0
 10
72.45001354525556
 20
-103.0989610202322
 30
0.0
 10
72.60883244712558
 20
-103.3166910549
 30
0.0
 10
72.68290200005845
 20
-103.4097086330017
 30
0.0
 10
72.82656248179336
 20
-103.4586289888923
 30
0.0
 10
72.82656248179336
 20
-103.4586289888923
 30
0.0
 10
72.82656248179336
 20
-102.6800374092258
 30
0.0
 10
72.82656248179336
 20
-102.6800374092258
 30
0.0
 10
72.82656248179336
 20
-102.6800374092258
 30
0.0
 10
73.03189017271426
 20
-102.6800374092258
 30
0.0
 10
73.03189017271426
 20
-102.6800374092258
 30
0.0
 10
73.03189017271426
 20
-102.6800374092258
 30
0.0
 10
73.03189017271426
 20
-103.7080539020244
 30
0.0
 10
73.03189017271426
 20
-103.7080539020244
 30
0.0
 10
72.67428926134532
 20
-103.6763590235601
 30
0.0
 10
72.59608559383015
 20
-103.6109022093403
 30
0.0
 10
72.2977403248075
 20
-103.2257405340894
 30
0.0
 10
72.0989583153086
 20
-102.9697699395353
 30
0.0
 10
72.03108993424918
 20
-102.9043131253156
 30
0.0
 10
71.89363062438771
 20
-102.9043131253156
 30
0.0
 10
71.77511933969511
 20
-102.9043131253156
 30
0.0
 10
71.64420571125562
 20
-102.9763156209573
 30
0.0
 10
71.64420571125562
 20
-103.1730305731651
 30
0.0
 10
71.64420571125562
 20
-103.4331352823014
 30
0.0
 10
71.87468259921883
 20
-103.4417480210146
 30
0.0
 10
71.99112682662027
 20
-103.4458821355969
 30
0.0
 10
71.99112682662027
 20
-103.4458821355969
 30
0.0
 10
71.99112682662027
 20
-103.6701578516866
 30
0.0
 10
71.99112682662027
 20
-103.6701578516866
 30
0.0
 10
71.86400280321456
 20
-103.6615451129735
 30
0.0
 10
71.75203719994394
 20
-103.6508653169692
 30
0.0
 10
71.63352591525134
 20
-103.5705945921629
 30
0.0
 10
71.47263995609018
 20
-103.4606960461834
 30
0.0
 10
71.43887802033473
 20
-103.2743163804314
 30
0.0
 10
71.43887802033473
 20
-103.1582166625785
 30
0.0
 10
71.43887802033473
 20
-102.8808864760159
 30
0.0
 10
71.62284611924707
 20
-102.6734917278038
 30
0.0
 10
71.89569768167885
 20
-102.6734917278038
 30
0.0
 10
72.12445202189944
 20
-102.6734917278038
 30
0.0
 10
72.22367077187464
 20
-102.7899359552053
 30
0.0
 10
72.45001354525556
 20
-103.0989610202322
 30
0.0
  0
HATCH
  5
B3
330
A4
100
AcDbEntity
  8
_U+30EC_U+30A4_U+30E4_U+30FC 1
 62
   179
420
  2234388
100
AcDbHatch
 10
0.0
 20
0.0
 30
0.0
210
0.0
220
0.0
230
1.0
  2
SOLID
 70
     1
 71
     0
 91
        1
 92
        1
 93
        1
 72
     4
 94
        3
 73
     0
 74
     1
 95
       44
 96
       40
 40
0.0
 40
0.0
 40
0.0
 40
0.0
 40
1.0
 40
1.0
 40
1.0
 40
2.0
 40
2.0
 40
2.0
 40
3.0
 40
3.0
 40
3.0
 40
4.0
 40
4.0
 40
4.0
 40
5.0
 40
5.0
 40
5.0
 40
6.0
 40
6.0
 40
6.0
 40
7.0
 40
7.0
 40
7.0
 40
8.0
 40
8.0
 40
8.0
 40
9.0
 40
9.0
 40
9.0
 40
10.0
 40
10.0
 40
10.0
 40
11.0
 40
11.0
 40
11.0
 40
12.0
 40
12.0
 40
12.0
 40
13.0
 40
13.0
 40
13.0
 40
13.0
 10
72.45001354525556
 20
-103.0989610202322
 10
72.60883244712558
 20
-103.3166910549
 10
72.68290200005845
 20
-103.4097086330017
 10
72.82656248179336
 20
-103.4586289888923
 10
72.82656248179336
 20
-103.4586289888923
 10
72.82656248179336
 20
-102.6800374092258
 10
72.82656248179336
 20
-102.6800374092258
 10
72.82656248179336
 20
-102.6800374092258
 10
73.03189017271426
 20
-102.6800374092258
 10
73.03189017271426
 20
-102.6800374092258
 10
73.03189017271426
 20
-102.6800374092258
 10
73.03189017271426
 20
-103.7080539020244
 10
73.03189017271426
 20
-103.7080539020244
 10
72.67428926134532
 20
-103.6763590235601
 10
72.59608559383015
 20
-103.6109022093403
 10
72.2977403248075
 20
-103.2257405340894
 10
72.0989583153086
 20
-102.9697699395353
 10
72.03108993424918
 20
-102.9043131253156
 10
71.89363062438771
 20
-102.9043131253156
 10
71.77511933969511
 20
-102.9043131253156
 10
71.64420571125562
 20
-102.9763156209573
 10
71.64420571125562
 20
-103.1730305731651
 10
71.64420571125562
 20
-103.4331352823014
 10
71.87468259921883
 20
-103.4417480210146
 10
71.99112682662027
 20
-103.4458821355969
 10
71.99112682662027
 20
-103.4458821355969
 10
71.99112682662027
 20
-103.6701578516866
 10
71.99112682662027
 20
-103.6701578516866
 10
71.86400280321456
 20
-103.6615451129735
 10
71.75203719994394
 20
-103.6508653169692
 10
71.63352591525134
 20
-103.5705945921629
 10
71.47263995609018
 20
-103.4606960461834
 10
71.43887802033473
 20
-103.2743163804314
 10
71.43887802033473
 20
-103.1582166625785
 10
71.43887802033473
 20
-102.8808864760159
 10
71.62284611924707
 20
-102.6734917278038
 10
71.89569768167885
 20
-102.6734917278038
 10
72.12445202189944
 20
-102.6734917278038
 10
72.22367077187464
 20
-102.7899359552053
 10
72.45001354525556
 20
-103.0989610202322
 97
        0
 97
        0
 75
     2
 76
     1
 98
        0
  0
ENDBLK
  5
A7
330
A4
100
AcDbEntity
  8
0
100
AcDbBlockEnd
  0
BLOCK
  5
C2
330
C0
100
AcDbEntity
  8
0
100
AcDbBlockBegin
  2
block 3
 70
     0
 10
0.0
 20
0.0
 30
0.0
  3
block 3
  1

  0
SPLINE
  5
C4
330
C0
100
AcDbEntity
  8
_U+30EC_U+30A4_U+30E4_U+30FC 1
370
     0
100
AcDbSpline
210
0.0
220
0.0
230
1.0
 70
    11
 71
     3
 72
    53
 73
    49
 74
     0
 42
0.0000000001
 43
0.0000000001
 12
1.0
 22
0.0
 32
0.0
 13
1.0
 23
0.0
 33
0.0
 40
0.0
 40
0.0
 40
0.0
 40
0.0
 40
1.0
 40
1.0
 40
1.0
 40
2.0
 40
2.0
 40
2.0
 40
3.0
 40
3.0
 40
3.0
 40
4.0
 40
4.0
 40
4.0
 40
5.0
 40
5.0
 40
5.0
 40
6.0
 40
6.0
 40
6.0
 40
7.0
 40
7.0
 40
7.0
 40
8.0
 40
8.0
 40
8.0
 40
9.0
 40
9.0
 40
9.0
 40
10.0
 40
10.0
 40
10.0
 40
11.0
 40
11.0
 40
11.0
 40
12.0
 40
12.0
 40
12.0
 40
13.0
 40
13.0
 40
13.0
 40
14.0
 40
14.0
 40
14.0
 40
15.0
 40
15.0
 40
15.0
 40
16.0
 40
16.0
 40
16.0
 40
16.0
 10
88.83247610626411
 20
-155.7737819706052
 30
0.0
 10
88.83247610626411
 20
-155.8519856381203
 30
0.0
 10
88.81559513838639
 20
-155.9536159549352
 30
0.0
 10
88.75220538145778
 20
-156.0552462717501
 30
0.0
 10
88.64230683547832
 20
-156.2285345746581
 30
0.0
 10
88.5110486974903
 20
-156.2498941666667
 30
0.0
 10
88.40321720880198
 20
-156.2688421918356
 30
0.0
 10
88.40321720880198
 20
-156.2688421918356
 30
0.0
 10
88.40321720880198
 20
-156.046633533037
 30
0.0
 10
88.40321720880198
 20
-156.046633533037
 30
0.0
 10
88.60199921830089
 20
-155.9918565148215
 30
0.0
 10
88.63162703947404
 20
-155.8647324914158
 30
0.0
 10
88.63162703947404
 20
-155.771714913314
 30
0.0
 10
88.63162703947404
 20
-155.6321885461614
 30
0.0
 10
88.53206377995032
 20
-155.4799153257134
 30
0.0
 10
88.29951983469596
 20
-155.4799153257134
 30
0.0
 10
88.0435492401419
 20
-155.4799153257134
 30
0.0
 10
87.97361380179132
 20
-155.6597493100434
 30
0.0
 10
87.97361380179132
 20
-155.7803276520272
 30
0.0
 10
87.97361380179132
 20
-155.8120225304914
 30
0.0
 10
87.97361380179132
 20
-155.9536159549352
 30
0.0
 10
88.10280488248819
 20
-156.0424994184547
 30
0.0
 10
88.10280488248819
 20
-156.0424994184547
 30
0.0
 10
88.08385685731932
 20
-156.2181992882024
 30
0.0
 10
88.08385685731932
 20
-156.2181992882024
 30
0.0
 10
88.08385685731932
 20
-156.2181992882024
 30
0.0
 10
87.23739689659344
 20
-156.0976209462187
 30
0.0
 10
87.23739689659344
 20
-156.0976209462187
 30
0.0
 10
87.23739689659344
 20
-156.0976209462187
 30
0.0
 10
87.23739689659344
 20
-155.3190293665522
 30
0.0
 10
87.23739689659344
 20
-155.3190293665522
 30
0.0
 10
87.23739689659344
 20
-155.3190293665522
 30
0.0
 10
87.43204479151005
 20
-155.3190293665522
 30
0.0
 10
87.43204479151005
 20
-155.3190293665522
 30
0.0
 10
87.43204479151005
 20
-155.3190293665522
 30
0.0
 10
87.43204479151005
 20
-155.9346679297663
 30
0.0
 10
87.43204479151005
 20
-155.9346679297663
 30
0.0
 10
87.43204479151005
 20
-155.9346679297663
 30
0.0
 10
87.85510251709873
 20
-156.0001247439861
 30
0.0
 10
87.85510251709873
 20
-156.0001247439861
 30
0.0
 10
87.82134058134328
 20
-155.9388020443486
 30
0.0
 10
87.78103296416586
 20
-155.8564642622512
 30
0.0
 10
87.78103296416586
 20
-155.7379529775586
 30
0.0
 10
87.78103296416586
 20
-155.4840494402956
 30
0.0
 10
87.96741262991787
 20
-155.2470268709105
 30
0.0
 10
88.28057180952709
 20
-155.2470268709105
 30
0.0
 10
88.59786510371859
 20
-155.2470268709105
 30
0.0
 10
88.83247610626411
 20
-155.4713025870002
 30
0.0
 10
88.83247610626411
 20
-155.7737819706052
 30
0.0
  0
HATCH
  5
C5
330
C0
100
AcDbEntity
  8
_U+30EC_U+30A4_U+30E4_U+30FC 1
 62
   179
420
  2234388
100
AcDbHatch
 10
0.0
 20
0.0
 30
0.0
210
0.0
220
0.0
230
1.0
  2
SOLID
 70
     1
 71
     0
 91
        1
 92
        1
 93
        1
 72
     4
 94
        3
 73
     0
 74
     1
 95
       53
 96
       49
 40
0.0
 40
0.0
 40
0.0
 40
0.0
 40
1.0
 40
1.0
 40
1.0
 40
2.0
 40
2.0
 40
2.0
 40
3.0
 40
3.0
 40
3.0
 40
4.0
 40
4.0
 40
4.0
 40
5.0
 40
5.0
 40
5.0
 40
6.0
 40
6.0
 40
6.0
 40
7.0
 40
7.0
 40
7.0
 40
8.0
 40
8.0
 40
8.0
 40
9.0
 40
9.0
 40
9.0
 40
10.0
 40
10.0
 40
10.0
 40
11.0
 40
11.0
 40
11.0
 40
12.0
 40
12.0
 40
12.0
 40
13.0
 40
13.0
 40
13.0
 40
14.0
 40
14.0
 40
14.0
 40
15.0
 40
15.0
 40
15.0
 40
16.0
 40
16.0
 40
16.0
 40
16.0
 10
88.83247610626411
 20
-155.7737819706052
 10
88.83247610626411
 20
-155.8519856381203
 10
88.81559513838639
 20
-155.9536159549352
 10
88.75220538145778
 20
-156.0552462717501
 10
88.64230683547832
 20
-156.2285345746581
 10
88.5110486974903
 20
-156.2498941666667
 10
88.40321720880198
 20
-156.2688421918356
 10
88.40321720880198
 20
-156.2688421918356
 10
88.40321720880198
 20
-156.046633533037
 10
88.40321720880198
 20
-156.046633533037
 10
88.60199921830089
 20
-155.9918565148215
 10
88.63162703947404
 20
-155.8647324914158
 10
88.63162703947404
 20
-155.771714913314
 10
88.63162703947404
 20
-155.6321885461614
 10
88.53206377995032
 20
-155.4799153257134
 10
88.29951983469596
 20
-155.4799153257134
 10
88.0435492401419
 20
-155.4799153257134
 10
87.97361380179132
 20
-155.6597493100434
 10
87.97361380179132
 20
-155.7803276520272
 10
87.97361380179132
 20
-155.8120225304914
 10
87.97361380179132
 20
-155.9536159549352
 10
88.10280488248819
 20
-156.0424994184547
 10
88.10280488248819
 20
-156.0424994184547
 10
88.08385685731932
 20
-156.2181992882024
 10
88.08385685731932
 20
-156.2181992882024
 10
88.08385685731932
 20
-156.2181992882024
 10
87.23739689659344
 20
-156.0976209462187
 10
87.23739689659344
 20
-156.0976209462187
 10
87.23739689659344
 20
-156.0976209462187
 10
87.23739689659344
 20
-155.3190293665522
 10
87.23739689659344
 20
-155.3190293665522
 10
87.23739689659344
 20
-155.3190293665522
 10
87.43204479151005
 20
-155.3190293665522
 10
87.43204479151005
 20
-155.3190293665522
 10
87.43204479151005
 20
-155.3190293665522
 10
87.43204479151005
 20
-155.9346679297663
 10
87.43204479151005
 20
-155.9346679297663
 10
87.43204479151005
 20
-155.9346679297663
 10
87.85510251709873
 20
-156.0001247439861
 10
87.85510251709873
 20
-156.0001247439861
 10
87.82134058134328
 20
-155.9388020443486
 10
87.78103296416586
 20
-155.8564642622512
 10
87.78103296416586
 20
-155.7379529775586
 10
87.78103296416586
 20
-155.4840494402956
 10
87.96741262991787
 20
-155.2470268709105
 10
88.28057180952709
 20
-155.2470268709105
 10
88.59786510371859
 20
-155.2470268709105
 10
88.83247610626411
 20
-155.4713025870002
 10
88.83247610626411
 20
-155.7737819706052
 97
        0
 97
        0
 75
     2
 76
     1
 98
        0
  0
ENDBLK
  5
C3
330
C0
100
AcDbEntity
  8
0
100
AcDbBlockEnd
  0
BLOCK
  5
D0
330
CE
100
AcDbEntity
  8
0
100
AcDbBlockBegin
  2
block 4
 70
     0
 10
0.0
 20
0.0
 30
0.0
  3
block 4
  1

  0
POLYLINE
  5
D2
330
CE
100
AcDbEntity
  8
_U+30EC_U+30A4_U+30E4_U+30FC 1
370
     0
100
AcDb2dPolyline
 66
     1
 10
0.0
 20
0.0
 30
0.0
  0
VERTEX
  5
D3
330
D2
100
AcDbEntity
  8
_U+30EC_U+30A4_U+30E4_U+30FC 1
370
     0
100
AcDbVertex
100
AcDb2dVertex
 10
88.43491208726627
 20
-150.9223985082764
 30
0.0
  0
VERTEX
  5
D4
330
D2
100
AcDbEntity
  8
_U+30EC_U+30A4_U+30E4_U+30FC 1
370
     0
100
AcDbVertex
100
AcDb2dVertex
 10
88.78183320263093
 20
-150.9223985082764
 30
0.0
  0
VERTEX
  5
D5
330
D2
100
AcDbEntity
  8
_U+30EC_U+30A4_U+30E4_U+30FC 1
370
     0
100
AcDbVertex
100
AcDb2dVertex
 10
88.78183320263093
 20
-151.1401285429442
 30
0.0
  0
VERTEX
  5
D6
330
D2
100
AcDbEntity
  8
_U+30EC_U+30A4_U+30E4_U+30FC 1
370
     0
100
AcDbVertex
100
AcDb2dVertex
 10
88.43491208726627
 20
-151.1401285429442
 30
0.0
  0
VERTEX
  5
D7
330
D2
100
AcDbEntity
  8
_U+30EC_U+30A4_U+30E4_U+30FC 1
370
     0
100
AcDbVertex
100
AcDb2dVertex
 10
88.43491208726627
 20
-151.7960747233357
 30
0.0
  0
VERTEX
  5
D8
330
D2
100
AcDbEntity
  8
_U+30EC_U+30A4_U+30E4_U+30FC 1
370
     0
100
AcDbVertex
100
AcDb2dVertex
 10
88.2106363711765
 20
-151.7960747233357
 30
0.0
  0
VERTEX
  5
D9
330
D2
100
AcDbEntity
  8
_U+30EC_U+30A4_U+30E4_U+30FC 1
370
     0
100
AcDbVertex
100
AcDb2dVertex
 10
87.23739689659344
 20
-151.117046403193
 30
0.0
  0
VERTEX
  5
DA
330
D2
100
AcDbEntity
  8
_U+30EC_U+30A4_U+30E4_U+30FC 1
370
     0
100
AcDbVertex
100
AcDb2dVertex
 10
87.23739689659344
 20
-150.9223985082764
 30
0.0
  0
VERTEX
  5
DB
330
D2
100
AcDbEntity
  8
_U+30EC_U+30A4_U+30E4_U+30FC 1
370
     0
100
AcDbVertex
100
AcDb2dVertex
 10
88.23613007776736
 20
-150.9223985082764
 30
0.0
  0
VERTEX
  5
DC
330
D2
100
AcDbEntity
  8
_U+30EC_U+30A4_U+30E4_U+30FC 1
370
     0
100
AcDbVertex
100
AcDb2dVertex
 10
88.23613007776736
 20
-150.7150037600643
 30
0.0
  0
VERTEX
  5
DD
330
D2
100
AcDbEntity
  8
_U+30EC_U+30A4_U+30E4_U+30FC 1
370
     0
100
AcDbVertex
100
AcDb2dVertex
 10
88.43491208726627
 20
-150.7150037600643
 30
0.0
  0
VERTEX
  5
DE
330
D2
100
AcDbEntity
  8
_U+30EC_U+30A4_U+30E4_U+30FC 1
370
     0
100
AcDbVertex
100
AcDb2dVertex
 10
88.43491208726627
 20
-150.9223985082764
 30
0.0
  0
SEQEND
  5
DF
330
D2
100
AcDbEntity
  8
_U+30EC_U+30A4_U+30E4_U+30FC 1
370
     0
  0
POLYLINE
  5
E0
330
CE
100
AcDbEntity
  8
_U+30EC_U+30A4_U+30E4_U+30FC 1
370
     0
100
AcDb2dPolyline
 66
     1
 10
0.0
 20
0.0
 30
0.0
  0
VERTEX
  5
E1
330
E0
100
AcDbEntity
  8
_U+30EC_U+30A4_U+30E4_U+30FC 1
370
     0
100
AcDbVertex
100
AcDb2dVertex
 10
87.58018389737579
 20
-151.1401285429442
 30
0.0
  0
VERTEX
  5
E2
330
E0
100
AcDbEntity
  8
_U+30EC_U+30A4_U+30E4_U+30FC 1
370
     0
100
AcDbVertex
100
AcDb2dVertex
 10
88.23613007776736
 20
-151.5972927138368
 30
0.0
  0
VERTEX
  5
E3
330
E0
100
AcDbEntity
  8
_U+30EC_U+30A4_U+30E4_U+30FC 1
370
     0
100
AcDbVertex
100
AcDb2dVertex
 10
88.23613007776736
 20
-151.1401285429442
 30
0.0
  0
VERTEX
  5
E4
330
E0
100
AcDbEntity
  8
_U+30EC_U+30A4_U+30E4_U+30FC 1
370
     0
100
AcDbVertex
100
AcDb2dVertex
 10
87.58018389737579
 20
-151.1401285429442
 30
0.0
  0
SEQEND
  5
E5
330
E0
100
AcDbEntity
  8
_U+30EC_U+30A4_U+30E4_U+30FC 1
370
     0
  0
HATCH
  5
E6
330
CE
100
AcDbEntity
  8
_U+30EC_U+30A4_U+30E4_U+30FC 1
 62
   179
420
  2234388
100
AcDbHatch
 10
0.0
 20
0.0
 30
0.0
210
0.0
220
0.0
230
1.0
  2
SOLID
 70
     1
 71
     0
 91
        2
 92
        1
 93
       11
 72
     1
 10
88.43491208726627
 20
-150.9223985082764
 11
88.78183320263093
 21
-150.9223985082764
 72
     1
 10
88.78183320263093
 20
-150.9223985082764
 11
88.78183320263093
 21
-151.1401285429442
 72
     1
 10
88.78183320263093
 20
-151.1401285429442
 11
88.43491208726627
 21
-151.1401285429442
 72
     1
 10
88.43491208726627
 20
-151.1401285429442
 11
88.43491208726627
 21
-151.7960747233357
 72
     1
 10
88.43491208726627
 20
-151.7960747233357
 11
88.2106363711765
 21
-151.7960747233357
 72
     1
 10
88.2106363711765
 20
-151.7960747233357
 11
87.23739689659344
 21
-151.117046403193
 72
     1
 10
87.23739689659344
 20
-151.117046403193
 11
87.23739689659344
 21
-150.9223985082764
 72
     1
 10
87.23739689659344
 20
-150.9223985082764
 11
88.23613007776736
 21
-150.9223985082764
 72
     1
 10
88.23613007776736
 20
-150.9223985082764
 11
88.23613007776736
 21
-150.7150037600643
 72
     1
 10
88.23613007776736
 20
-150.7150037600643
 11
88.43491208726627
 21
-150.7150037600643
 72
     1
 10
88.43491208726627
 20
-150.7150037600643
 11
88.43491208726627
 21
-150.9223985082764
 97
        0
 92
        1
 93
        3
 72
     1
 10
87.58018389737579
 20
-151.1401285429442
 11
88.23613007776736
 21
-151.5972927138368
 72
     1
 10
88.23613007776736
 20
-151.5972927138368
 11
88.23613007776736
 21
-151.1401285429442
 72
     1
 10
88.23613007776736
 20
-151.1401285429442
 11
87.58018389737579
 21
-151.1401285429442
 97
        0
 75
     2
 76
     1
 98
        0
  0
ENDBLK
  5
D1
330
CE
100
AcDbEntity
  8
0
100
AcDbBlockEnd
  0
BLOCK
  5
F1
330
EF
100
AcDbEntity
  8
0
100
AcDbBlockBegin
  2
block 5
 70
     0
 10
0.0
 20
0.0
 30
0.0
  3
block 5
  1

  0
POLYLINE
  5
F3
330
EF
100
AcDbEntity
  8
_U+30EC_U+30A4_U+30E4_U+30FC 1
370
     0
100
AcDb2dPolyline
 66
     1
 10
0.0
 20
0.0
 30
0.0
  0
VERTEX
  5
F4
330
F3
100
AcDbEntity
  8
_U+30EC_U+30A4_U+30E4_U+30FC 1
370
     0
100
AcDbVertex
100
AcDb2dVertex
 10
88.43422306816923
 20
-146.9222981403528
 30
0.0
  0
VERTEX
  5
F5
330
F3
100
AcDbEntity
  8
_U+30EC_U+30A4_U+30E4_U+30FC 1
370
     0
100
AcDbVertex
100
AcDb2dVertex
 10
88.78114418353388
 20
-146.9222981403528
 30
0.0
  0
VERTEX
  5
F6
330
F3
100
AcDbEntity
  8
_U+30EC_U+30A4_U+30E4_U+30FC 1
370
     0
100
AcDbVertex
100
AcDb2dVertex
 10
88.78114418353388
 20
-147.1400281750205
 30
0.0
  0
VERTEX
  5
F7
330
F3
100
AcDbEntity
  8
_U+30EC_U+30A4_U+30E4_U+30FC 1
370
     0
100
AcDbVertex
100
AcDb2dVertex
 10
88.43422306816923
 20
-147.1400281750205
 30
0.0
  0
VERTEX
  5
F8
330
F3
100
AcDbEntity
  8
_U+30EC_U+30A4_U+30E4_U+30FC 1
370
     0
100
AcDbVertex
100
AcDb2dVertex
 10
88.43422306816923
 20
-147.7959743554121
 30
0.0
  0
VERTEX
  5
F9
330
F3
100
AcDbEntity
  8
_U+30EC_U+30A4_U+30E4_U+30FC 1
370
     0
100
AcDbVertex
100
AcDb2dVertex
 10
88.20994735207947
 20
-147.7959743554121
 30
0.0
  0
VERTEX
  5
FA
330
F3
100
AcDbEntity
  8
_U+30EC_U+30A4_U+30E4_U+30FC 1
370
     0
100
AcDbVertex
100
AcDb2dVertex
 10
87.23670787749639
 20
-147.1169460352694
 30
0.0
  0
VERTEX
  5
FB
330
F3
100
AcDbEntity
  8
_U+30EC_U+30A4_U+30E4_U+30FC 1
370
     0
100
AcDbVertex
100
AcDb2dVertex
 10
87.23670787749639
 20
-146.9222981403528
 30
0.0
  0
VERTEX
  5
FC
330
F3
100
AcDbEntity
  8
_U+30EC_U+30A4_U+30E4_U+30FC 1
370
     0
100
AcDbVertex
100
AcDb2dVertex
 10
88.2354410586703
 20
-146.9222981403528
 30
0.0
  0
VERTEX
  5
FD
330
F3
100
AcDbEntity
  8
_U+30EC_U+30A4_U+30E4_U+30FC 1
370
     0
100
AcDbVertex
100
AcDb2dVertex
 10
88.2354410586703
 20
-146.7149033921407
 30
0.0
  0
VERTEX
  5
FE
330
F3
100
AcDbEntity
  8
_U+30EC_U+30A4_U+30E4_U+30FC 1
370
     0
100
AcDbVertex
100
AcDb2dVertex
 10
88.43422306816923
 20
-146.7149033921407
 30
0.0
  0
VERTEX
  5
FF
330
F3
100
AcDbEntity
  8
_U+30EC_U+30A4_U+30E4_U+30FC 1
370
     0
100
AcDbVertex
100
AcDb2dVertex
 10
88.43422306816923
 20
-146.9222981403528
 30
0.0
  0
SEQEND
  5
100
330
F3
100
AcDbEntity
  8
_U+30EC_U+30A4_U+30E4_U+30FC 1
370
     0
  0
POLYLINE
  5
101
330
EF
100
AcDbEntity
  8
_U+30EC_U+30A4_U+30E4_U+30FC 1
370
     0
100
AcDb2dPolyline
 66
     1
 10
0.0
 20
0.0
 30
0.0
  0
VERTEX
  5
102
330
101
100
AcDbEntity
  8
_U+30EC_U+30A4_U+30E4_U+30FC 1
370
     0
100
AcDbVertex
100
AcDb2dVertex
 10
87.57949487827874
 20
-147.1400281750205
 30
0.0
  0
VERTEX
  5
103
330
101
100
AcDbEntity
  8
_U+30EC_U+30A4_U+30E4_U+30FC 1
370
     0
100
AcDbVertex
100
AcDb2dVertex
 10
88.2354410586703
 20
-147.5971923459132
 30
0.0
  0
VERTEX
  5
104
330
101
100
AcDbEntity
  8
_U+30EC_U+30A4_U+30E4_U+30FC 1
370
     0
100
AcDbVertex
100
AcDb2dVertex
 10
88.2354410586703
 20
-147.1400281750205
 30
0.0
  0
VERTEX
  5
105
330
101
100
AcDbEntity
  8
_U+30EC_U+30A4_U+30E4_U+30FC 1
370
     0
100
AcDbVertex
100
AcDb2dVertex
 10
87.57949487827874
 20
-147.1400281750205
 30
0.0
  0
SEQEND
  5
106
330
101
100
AcDbEntity
  8
_U+30EC_U+30A4_U+30E4_U+30FC 1
370
     0
  0
HATCH
  5
107
330
EF
100
AcDbEntity
  8
_U+30EC_U+30A4_U+30E4_U+30FC 1
 62
   179
420
  2234388
100
AcDbHatch
 10
0.0
 20
0.0
 30
0.0
210
0.0
220
0.0
230
1.0
  2
SOLID
 70
     1
 71
     0
 91
        2
 92
        1
 93
       11
 72
     1
 10
88.43422306816923
 20
-146.9222981403528
 11
88.78114418353388
 21
-146.9222981403528
 72
     1
 10
88.78114418353388
 20
-146.9222981403528
 11
88.78114418353388
 21
-147.1400281750205
 72
     1
 10
88.78114418353388
 20
-147.1400281750205
 11
88.43422306816923
 21
-147.1400281750205
 72
     1
 10
88.43422306816923
 20
-147.1400281750205
 11
88.43422306816923
 21
-147.7959743554121
 72
     1
 10
88.43422306816923
 20
-147.7959743554121
 11
88.20994735207947
 21
-147.7959743554121
 72
     1
 10
88.20994735207947
 20
-147.7959743554121
 11
87.23670787749639
 21
-147.1169460352694
 72
     1
 10
87.23670787749639
 20
-147.1169460352694
 11
87.23670787749639
 21
-146.9222981403528
 72
     1
 10
87.23670787749639
 20
-146.9222981403528
 11
88.2354410586703
 21
-146.9222981403528
 72
     1
 10
88.2354410586703
 20
-146.9222981403528
 11
88.2354410586703
 21
-146.7149033921407
 72
     1
 10
88.2354410586703
 20
-146.7149033921407
 11
88.43422306816923
 21
-146.7149033921407
 72
     1
 10
88.43422306816923
 20
-146.7149033921407
 11
88.43422306816923
 21
-146.9222981403528
 97
        0
 92
        1
 93
        3
 72
     1
 10
87.57949487827874
 20
-147.1400281750205
 11
88.2354410586703
 21
-147.5971923459132
 72
     1
 10
88.2354410586703
 20
-147.5971923459132
 11
88.2354410586703
 21
-147.1400281750205
 72
     1
 10
88.2354410586703
 20
-147.1400281750205
 11
87.57949487827874
 21
-147.1400281750205
 97
        0
 75
     2
 76
     1
 98
        0
  0
ENDBLK
  5
F2
330
EF
100
AcDbEntity
  8
0
100
AcDbBlockEnd
  0
BLOCK
  5
112
330
110
100
AcDbEntity
  8
0
100
AcDbBlockBegin
  2
block 6
 70
     0
 10
0.0
 20
0.0
 30
0.0
  3
block 6
  1

  0
SPLINE
  5
114
330
110
100
AcDbEntity
  8
_U+30EC_U+30A4_U+30E4_U+30FC 1
370
     0
100
AcDbSpline
210
0.0
220
0.0
230
1.0
 70
    11
 71
     3
 72
    53
 73
    49
 74
     0
 42
0.0000000001
 43
0.0000000001
 12
1.0
 22
0.0
 32
0.0
 13
1.0
 23
0.0
 33
0.0
 40
0.0
 40
0.0
 40
0.0
 40
0.0
 40
1.0
 40
1.0
 40
1.0
 40
2.0
 40
2.0
 40
2.0
 40
3.0
 40
3.0
 40
3.0
 40
4.0
 40
4.0
 40
4.0
 40
5.0
 40
5.0
 40
5.0
 40
6.0
 40
6.0
 40
6.0
 40
7.0
 40
7.0
 40
7.0
 40
8.0
 40
8.0
 40
8.0
 40
9.0
 40
9.0
 40
9.0
 40
10.0
 40
10.0
 40
10.0
 40
11.0
 40
11.0
 40
11.0
 40
12.0
 40
12.0
 40
12.0
 40
13.0
 40
13.0
 40
13.0
 40
14.0
 40
14.0
 40
14.0
 40
15.0
 40
15.0
 40
15.0
 40
16.0
 40
16.0
 40
16.0
 40
16.0
 10
73.08253307634743
 20
-133.8615966462221
 30
0.0
 10
73.08253307634743
 20
-133.9398003137373
 30
0.0
 10
73.0656521084697
 20
-134.0414306305522
 30
0.0
 10
73.0022623515411
 20
-134.143060947367
 30
0.0
 10
72.89236380556163
 20
-134.3163492502751
 30
0.0
 10
72.76110566757362
 20
-134.3377088422836
 30
0.0
 10
72.6532741788853
 20
-134.3566568674525
 30
0.0
 10
72.6532741788853
 20
-134.3566568674525
 30
0.0
 10
72.6532741788853
 20
-134.1344482086539
 30
0.0
 10
72.6532741788853
 20
-134.1344482086539
 30
0.0
 10
72.85205618838421
 20
-134.0796711904384
 30
0.0
 10
72.88168400955736
 20
-133.9525471670327
 30
0.0
 10
72.88168400955736
 20
-133.859529588931
 30
0.0
 10
72.88168400955736
 20
-133.7200032217783
 30
0.0
 10
72.78212075003364
 20
-133.5677300013303
 30
0.0
 10
72.54957680477928
 20
-133.5677300013303
 30
0.0
 10
72.2936062102252
 20
-133.5677300013303
 30
0.0
 10
72.22367077187464
 20
-133.7475639856603
 30
0.0
 10
72.22367077187464
 20
-133.8681423276441
 30
0.0
 10
72.22367077187464
 20
-133.8998372061084
 30
0.0
 10
72.22367077187464
 20
-134.0414306305522
 30
0.0
 10
72.35286185257151
 20
-134.1303140940716
 30
0.0
 10
72.35286185257151
 20
-134.1303140940716
 30
0.0
 10
72.33391382740264
 20
-134.3060139638193
 30
0.0
 10
72.33391382740264
 20
-134.3060139638193
 30
0.0
 10
72.33391382740264
 20
-134.3060139638193
 30
0.0
 10
71.48745386667674
 20
-134.1854356218356
 30
0.0
 10
71.48745386667674
 20
-134.1854356218356
 30
0.0
 10
71.48745386667674
 20
-134.1854356218356
 30
0.0
 10
71.48745386667674
 20
-133.4068440421691
 30
0.0
 10
71.48745386667674
 20
-133.4068440421691
 30
0.0
 10
71.48745386667674
 20
-133.4068440421691
 30
0.0
 10
71.68210176159337
 20
-133.4068440421691
 30
0.0
 10
71.68210176159337
 20
-133.4068440421691
 30
0.0
 10
71.68210176159337
 20
-133.4068440421691
 30
0.0
 10
71.68210176159337
 20
-134.0224826053833
 30
0.0
 10
71.68210176159337
 20
-134.0224826053833
 30
0.0
 10
71.68210176159337
 20
-134.0224826053833
 30
0.0
 10
72.10515948718205
 20
-134.087939419603
 30
0.0
 10
72.10515948718205
 20
-134.087939419603
 30
0.0
 10
72.0713975514266
 20
-134.0266167199656
 30
0.0
 10
72.03108993424918
 20
-133.9442789378681
 30
0.0
 10
72.03108993424918
 20
-133.8257676531755
 30
0.0
 10
72.03108993424918
 20
-133.5718641159126
 30
0.0
 10
72.2174696000012
 20
-133.3348415465274
 30
0.0
 10
72.5306287796104
 20
-133.3348415465274
 30
0.0
 10
72.84792207380191
 20
-133.3348415465274
 30
0.0
 10
73.08253307634743
 20
-133.5591172626172
 30
0.0
 10
73.08253307634743
 20
-133.8615966462221
 30
0.0
  0
HATCH
  5
115
330
110
100
AcDbEntity
  8
_U+30EC_U+30A4_U+30E4_U+30FC 1
 62
   179
420
  2234388
100
AcDbHatch
 10
0.0
 20
0.0
 30
0.0
210
0.0
220
0.0
230
1.0
  2
SOLID
 70
     1
 71
     0
 91
        1
 92
        1
 93
        1
 72
     4
 94
        3
 73
     0
 74
     1
 95
       53
 96
       49
 40
0.0
 40
0.0
 40
0.0
 40
0.0
 40
1.0
 40
1.0
 40
1.0
 40
2.0
 40
2.0
 40
2.0
 40
3.0
 40
3.0
 40
3.0
 40
4.0
 40
4.0
 40
4.0
 40
5.0
 40
5.0
 40
5.0
 40
6.0
 40
6.0
 40
6.0
 40
7.0
 40
7.0
 40
7.0
 40
8.0
 40
8.0
 40
8.0
 40
9.0
 40
9.0
 40
9.0
 40
10.0
 40
10.0
 40
10.0
 40
11.0
 40
11.0
 40
11.0
 40
12.0
 40
12.0
 40
12.0
 40
13.0
 40
13.0
 40
13.0
 40
14.0
 40
14.0
 40
14.0
 40
15.0
 40
15.0
 40
15.0
 40
16.0
 40
16.0
 40
16.0
 40
16.0
 10
73.08253307634743
 20
-133.8615966462221
 10
73.08253307634743
 20
-133.9398003137373
 10
73.0656521084697
 20
-134.0414306305522
 10
73.0022623515411
 20
-134.143060947367
 10
72.89236380556163
 20
-134.3163492502751
 10
72.76110566757362
 20
-134.3377088422836
 10
72.6532741788853
 20
-134.3566568674525
 10
72.6532741788853
 20
-134.3566568674525
 10
72.6532741788853
 20
-134.1344482086539
 10
72.6532741788853
 20
-134.1344482086539
 10
72.85205618838421
 20
-134.0796711904384
 10
72.88168400955736
 20
-133.9525471670327
 10
72.88168400955736
 20
-133.859529588931
 10
72.88168400955736
 20
-133.7200032217783
 10
72.78212075003364
 20
-133.5677300013303
 10
72.54957680477928
 20
-133.5677300013303
 10
72.2936062102252
 20
-133.5677300013303
 10
72.22367077187464
 20
-133.7475639856603
 10
72.22367077187464
 20
-133.8681423276441
 10
72.22367077187464
 20
-133.8998372061084
 10
72.22367077187464
 20
-134.0414306305522
 10
72.35286185257151
 20
-134.1303140940716
 10
72.35286185257151
 20
-134.1303140940716
 10
72.33391382740264
 20
-134.3060139638193
 10
72.33391382740264
 20
-134.3060139638193
 10
72.33391382740264
 20
-134.3060139638193
 10
71.48745386667674
 20
-134.1854356218356
 10
71.48745386667674
 20
-134.1854356218356
 10
71.48745386667674
 20
-134.1854356218356
 10
71.48745386667674
 20
-133.4068440421691
 10
71.48745386667674
 20
-133.4068440421691
 10
71.48745386667674
 20
-133.4068440421691
 10
71.68210176159337
 20
-133.4068440421691
 10
71.68210176159337
 20
-133.4068440421691
 10
71.68210176159337
 20
-133.4068440421691
 10
71.68210176159337
 20
-134.0224826053833
 10
71.68210176159337
 20
-134.0224826053833
 10
71.68210176159337
 20
-134.0224826053833
 10
72.10515948718205
 20
-134.087939419603
 10
72.10515948718205
 20
-134.087939419603
 10
72.0713975514266
 20
-134.0266167199656
 10
72.03108993424918
 20
-133.9442789378681
 10
72.03108993424918
 20
-133.8257676531755
 10
72.03108993424918
 20
-133.5718641159126
 10
72.2174696000012
 20
-133.3348415465274
 10
72.5306287796104
 20
-133.3348415465274
 10
72.84792207380191
 20
-133.3348415465274
 10
73.08253307634743
 20
-133.5591172626172
 10
73.08253307634743
 20
-133.8615966462221
 97
        0
 97
        0
 75
     2
 76
     1
 98
        0
  0
SPLINE
  5
116
330
110
100
AcDbEntity
  8
_U+30EC_U+30A4_U+30E4_U+30FC 1
370
     0
100
AcDbSpline
210
0.0
220
0.0
230
1.0
 70
    11
 71
     3
 72
    29
 73
    25
 74
     0
 42
0.0000000001
 43
0.0000000001
 12
1.0
 22
0.0
 32
0.0
 13
1.0
 23
0.0
 33
0.0
 40
0.0
 40
0.0
 40
0.0
 40
0.0
 40
1.0
 40
1.0
 40
1.0
 40
2.0
 40
2.0
 40
2.0
 40
3.0
 40
3.0
 40
3.0
 40
4.0
 40
4.0
 40
4.0
 40
5.0
 40
5.0
 40
5.0
 40
6.0
 40
6.0
 40
6.0
 40
7.0
 40
7.0
 40
7.0
 40
8.0
 40
8.0
 40
8.0
 40
8.0
 10
72.85412324567537
 20
-132.2678954747455
 30
0.0
 10
73.06358505117855
 20
-132.3760714729824
 30
0.0
 10
73.08253307634743
 20
-132.5493597758905
 30
0.0
 10
73.08253307634743
 20
-132.6658040032919
 30
0.0
 10
73.08253307634743
 20
-132.8266899624531
 30
0.0
 10
73.03602428729656
 20
-132.9682833868968
 30
0.0
 10
72.85412324567537
 20
-133.0633680222897
 30
0.0
 10
72.65947535075874
 20
-133.1670653963957
 30
0.0
 10
72.42245278137355
 20
-133.1860134215646
 30
0.0
 10
72.25984427446977
 20
-133.1860134215646
 30
0.0
 10
72.11583928318632
 20
-133.1860134215646
 30
0.0
 10
71.86400280321456
 20
-133.1691324536869
 30
0.0
 10
71.66522079371565
 20
-133.0633680222897
 30
0.0
 10
71.46230466963442
 20
-132.9555365336014
 30
0.0
 10
71.43887802033473
 20
-132.7946505744402
 30
0.0
 10
71.43887802033473
 20
-132.6658040032919
 30
0.0
 10
71.43887802033473
 20
-132.5069851014219
 30
0.0
 10
71.48331975209445
 20
-132.3633246196869
 30
0.0
 10
71.66522079371565
 20
-132.2678954747455
 30
0.0
 10
71.8578016313411
 20
-132.1686767247703
 30
0.0
 10
72.08621146201317
 20
-132.1452500754706
 30
0.0
 10
72.25984427446977
 20
-132.1452500754706
 30
0.0
 10
72.43106552008668
 20
-132.1452500754706
 30
0.0
 10
72.6615424080499
 20
-132.1666096674792
 30
0.0
 10
72.85412324567537
 20
-132.2678954747455
 30
0.0
  0
SPLINE
  5
117
330
110
100
AcDbEntity
  8
_U+30EC_U+30A4_U+30E4_U+30FC 1
370
     0
100
AcDbSpline
210
0.0
220
0.0
230
1.0
 70
    11
 71
     3
 72
    17
 73
    13
 74
     0
 42
0.0000000001
 43
0.0000000001
 12
1.0
 22
0.0
 32
0.0
 13
1.0
 23
0.0
 33
0.0
 40
0.0
 40
0.0
 40
0.0
 40
0.0
 40
1.0
 40
1.0
 40
1.0
 40
2.0
 40
2.0
 40
2.0
 40
3.0
 40
3.0
 40
3.0
 40
4.0
 40
4.0
 40
4.0
 40
4.0
 10
71.6314588579602
 20
-132.6658040032919
 30
0.0
 10
71.6314588579602
 20
-132.915228916424
 30
0.0
 10
71.91499021639626
 20
-132.9620822150234
 30
0.0
 10
72.25984427446977
 20
-132.9620822150234
 30
0.0
 10
72.57920462595243
 20
-132.9620822150234
 30
0.0
 10
72.8878851814308
 20
-132.9259087124283
 30
0.0
 10
72.8878851814308
 20
-132.6658040032919
 30
0.0
 10
72.8878851814308
 20
-132.4181016379024
 30
0.0
 10
72.60676538983442
 20
-132.3695257915604
 30
0.0
 10
72.25984427446977
 20
-132.3695257915604
 30
0.0
 10
71.94013941343857
 20
-132.3695257915604
 30
0.0
 10
71.6314588579602
 20
-132.4077663514467
 30
0.0
 10
71.6314588579602
 20
-132.6658040032919
 30
0.0
  0
HATCH
  5
118
330
110
100
AcDbEntity
  8
_U+30EC_U+30A4_U+30E4_U+30FC 1
 62
   179
420
  2234388
100
AcDbHatch
 10
0.0
 20
0.0
 30
0.0
210
0.0
220
0.0
230
1.0
  2
SOLID
 70
     1
 71
     0
 91
        2
 92
        1
 93
        1
 72
     4
 94
        3
 73
     0
 74
     1
 95
       29
 96
       25
 40
0.0
 40
0.0
 40
0.0
 40
0.0
 40
1.0
 40
1.0
 40
1.0
 40
2.0
 40
2.0
 40
2.0
 40
3.0
 40
3.0
 40
3.0
 40
4.0
 40
4.0
 40
4.0
 40
5.0
 40
5.0
 40
5.0
 40
6.0
 40
6.0
 40
6.0
 40
7.0
 40
7.0
 40
7.0
 40
8.0
 40
8.0
 40
8.0
 40
8.0
 10
72.85412324567537
 20
-132.2678954747455
 10
73.06358505117855
 20
-132.3760714729824
 10
73.08253307634743
 20
-132.5493597758905
 10
73.08253307634743
 20
-132.6658040032919
 10
73.08253307634743
 20
-132.8266899624531
 10
73.03602428729656
 20
-132.9682833868968
 10
72.85412324567537
 20
-133.0633680222897
 10
72.65947535075874
 20
-133.1670653963957
 10
72.42245278137355
 20
-133.1860134215646
 10
72.25984427446977
 20
-133.1860134215646
 10
72.11583928318632
 20
-133.1860134215646
 10
71.86400280321456
 20
-133.1691324536869
 10
71.66522079371565
 20
-133.0633680222897
 10
71.46230466963442
 20
-132.9555365336014
 10
71.43887802033473
 20
-132.7946505744402
 10
71.43887802033473
 20
-132.6658040032919
 10
71.43887802033473
 20
-132.5069851014219
 10
71.48331975209445
 20
-132.3633246196869
 10
71.66522079371565
 20
-132.2678954747455
 10
71.8578016313411
 20
-132.1686767247703
 10
72.08621146201317
 20
-132.1452500754706
 10
72.25984427446977
 20
-132.1452500754706
 10
72.43106552008668
 20
-132.1452500754706
 10
72.6615424080499
 20
-132.1666096674792
 10
72.85412324567537
 20
-132.2678954747455
 97
        0
 97
        0
 92
        1
 93
        1
 72
     4
 94
        3
 73
     0
 74
     1
 95
       17
 96
       13
 40
0.0
 40
0.0
 40
0.0
 40
0.0
 40
1.0
 40
1.0
 40
1.0
 40
2.0
 40
2.0
 40
2.0
 40
3.0
 40
3.0
 40
3.0
 40
4.0
 40
4.0
 40
4.0
 40
4.0
 10
71.6314588579602
 20
-132.6658040032919
 10
71.6314588579602
 20
-132.915228916424
 10
71.91499021639626
 20
-132.9620822150234
 10
72.25984427446977
 20
-132.9620822150234
 10
72.57920462595243
 20
-132.9620822150234
 10
72.8878851814308
 20
-132.9259087124283
 10
72.8878851814308
 20
-132.6658040032919
 10
72.8878851814308
 20
-132.4181016379024
 10
72.60676538983442
 20
-132.3695257915604
 10
72.25984427446977
 20
-132.3695257915604
 10
71.94013941343857
 20
-132.3695257915604
 10
71.6314588579602
 20
-132.4077663514467
 10
71.6314588579602
 20
-132.6658040032919
 97
        0
 97
        0
 75
     2
 76
     1
 98
        0
  0
ENDBLK
  5
113
330
110
100
AcDbEntity
  8
0
100
AcDbBlockEnd
  0
BLOCK
  5
127
330
125
100
AcDbEntity
  8
0
100
AcDbBlockBegin
  2
block 7
 70
     0
 10
0.0
 20
0.0
 30
0.0
  3
block 7
  1

  0
SPLINE
  5
129
330
125
100
AcDbEntity
  8
_U+30EC_U+30A4_U+30E4_U+30FC 1
370
     0
100
AcDbSpline
210
0.0
220
0.0
230
1.0
 70
    11
 71
     3
 72
    62
 73
    58
 74
     0
 42
0.0000000001
 43
0.0000000001
 12
1.0
 22
0.0
 32
0.0
 13
1.0
 23
0.0
 33
0.0
 40
0.0
 40
0.0
 40
0.0
 40
0.0
 40
1.0
 40
1.0
 40
1.0
 40
2.0
 40
2.0
 40
2.0
 40
3.0
 40
3.0
 40
3.0
 40
4.0
 40
4.0
 40
4.0
 40
5.0
 40
5.0
 40
5.0
 40
6.0
 40
6.0
 40
6.0
 40
7.0
 40
7.0
 40
7.0
 40
8.0
 40
8.0
 40
8.0
 40
9.0
 40
9.0
 40
9.0
 40
10.0
 40
10.0
 40
10.0
 40
11.0
 40
11.0
 40
11.0
 40
12.0
 40
12.0
 40
12.0
 40
13.0
 40
13.0
 40
13.0
 40
14.0
 40
14.0
 40
14.0
 40
15.0
 40
15.0
 40
15.0
 40
16.0
 40
16.0
 40
16.0
 40
17.0
 40
17.0
 40
17.0
 40
18.0
 40
18.0
 40
18.0
 40
19.0
 40
19.0
 40
19.0
 40
19.0
 10
94.58096243295199
 20
-102.4595512981698
 30
0.0
 10
94.48587779755908
 20
-102.4595512981698
 30
0.0
 10
94.26780325334278
 20
-102.4383639609355
 30
0.0
 10
94.14309079677673
 20
-102.2521565499578
 30
0.0
 10
94.06902124384386
 20
-102.1400186919129
 30
0.0
 10
94.06488712926156
 20
-102.0406276871635
 30
0.0
 10
94.06075301467926
 20
-101.9560505930006
 30
0.0
 10
94.06075301467926
 20
-101.9560505930006
 30
0.0
 10
94.2805501066382
 20
-101.9560505930006
 30
0.0
 10
94.2805501066382
 20
-101.9560505930006
 30
0.0
 10
94.28261716392934
 20
-102.0301201459335
 30
0.0
 10
94.29329695993363
 20
-102.2649034032532
 30
0.0
 10
94.57682831836969
 20
-102.2649034032532
 30
0.0
 10
94.71428762823115
 20
-102.2649034032532
 30
0.0
 10
94.8665608486792
 20
-102.1951402196769
 30
0.0
 10
94.8665608486792
 20
-101.9665581342306
 30
0.0
 10
94.8665608486792
 20
-101.8502861616034
 30
0.0
 10
94.82866479834145
 20
-101.8015380604871
 30
0.0
 10
94.79696991987716
 20
-101.7698431820228
 30
0.0
 10
94.72290036694427
 20
-101.69577362909
 30
0.0
 10
94.60645613954283
 20
-101.6831990305688
 30
0.0
 10
94.55133461177884
 20
-101.6831990305688
 30
0.0
 10
94.53238658660996
 20
-101.6831990305688
 30
0.0
 10
94.49655759356337
 20
-101.6852660878599
 30
0.0
 10
94.46899682968137
 20
-101.6894002024422
 30
0.0
 10
94.46899682968137
 20
-101.6894002024422
 30
0.0
 10
94.46899682968137
 20
-101.4947523075256
 30
0.0
 10
94.46899682968137
 20
-101.4947523075256
 30
0.0
 10
94.50689288001911
 20
-101.5011257341733
 30
0.0
 10
94.54926755448768
 20
-101.5033650462387
 30
0.0
 10
94.55581323590967
 20
-101.5033650462387
 30
0.0
 10
94.62127005012941
 20
-101.5033650462387
 30
0.0
 10
94.82005205962832
 20
-101.4821777090045
 30
0.0
 10
94.82005205962832
 20
-101.2451551396193
 30
0.0
 10
94.82005205962832
 20
-101.0675604673546
 30
0.0
 10
94.68879392164031
 20
-101.0124389395907
 30
0.0
 10
94.57889537566084
 20
-101.0124389395907
 30
0.0
 10
94.31465655194218
 20
-101.0124389395907
 30
0.0
 10
94.30604381322905
 20
-101.2451551396193
 30
0.0
 10
94.30190969864675
 20
-101.317157635261
 30
0.0
 10
94.30190969864675
 20
-101.317157635261
 30
0.0
 10
94.09864906501701
 20
-101.317157635261
 30
0.0
 10
94.09864906501701
 20
-101.317157635261
 30
0.0
 10
94.10726180373014
 20
-101.1922729239207
 30
0.0
 10
94.13482256761213
 20
-100.8157239873829
 30
0.0
 10
94.59164222895626
 20
-100.8157239873829
 30
0.0
 10
94.81591794504602
 20
-100.8157239873829
 30
0.0
 10
95.05707462901351
 20
-100.9426757560143
 30
0.0
 10
95.05707462901351
 20
-101.2387817129716
 30
0.0
 10
95.05707462901351
 20
-101.4249891239493
 30
0.0
 10
94.96198999362062
 20
-101.507499160821
 30
0.0
 10
94.8624267340969
 20
-101.5688218604585
 30
0.0
 10
94.92374943373434
 20
-101.5963826243405
 30
0.0
 10
95.10565047535553
 20
-101.6768256039211
 30
0.0
 10
95.10565047535553
 20
-101.9539835357094
 30
0.0
 10
95.10565047535553
 20
-102.2924641671352
 30
0.0
 10
94.8582926195146
 20
-102.4595512981698
 30
0.0
 10
94.58096243295199
 20
-102.4595512981698
 30
0.0
  0
HATCH
  5
12A
330
125
100
AcDbEntity
  8
_U+30EC_U+30A4_U+30E4_U+30FC 1
 62
   179
420
  2234388
100
AcDbHatch
 10
0.0
 20
0.0
 30
0.0
210
0.0
220
0.0
230
1.0
  2
SOLID
 70
     1
 71
     0
 91
        1
 92
        1
 93
        1
 72
     4
 94
        3
 73
     0
 74
     1
 95
       62
 96
       58
 40
0.0
 40
0.0
 40
0.0
 40
0.0
 40
1.0
 40
1.0
 40
1.0
 40
2.0
 40
2.0
 40
2.0
 40
3.0
 40
3.0
 40
3.0
 40
4.0
 40
4.0
 40
4.0
 40
5.0
 40
5.0
 40
5.0
 40
6.0
 40
6.0
 40
6.0
 40
7.0
 40
7.0
 40
7.0
 40
8.0
 40
8.0
 40
8.0
 40
9.0
 40
9.0
 40
9.0
 40
10.0
 40
10.0
 40
10.0
 40
11.0
 40
11.0
 40
11.0
 40
12.0
 40
12.0
 40
12.0
 40
13.0
 40
13.0
 40
13.0
 40
14.0
 40
14.0
 40
14.0
 40
15.0
 40
15.0
 40
15.0
 40
16.0
 40
16.0
 40
16.0
 40
17.0
 40
17.0
 40
17.0
 40
18.0
 40
18.0
 40
18.0
 40
19.0
 40
19.0
 40
19.0
 40
19.0
 10
94.58096243295199
 20
-102.4595512981698
 10
94.48587779755908
 20
-102.4595512981698
 10
94.26780325334278
 20
-102.4383639609355
 10
94.14309079677673
 20
-102.2521565499578
 10
94.06902124384386
 20
-102.1400186919129
 10
94.06488712926156
 20
-102.0406276871635
 10
94.06075301467926
 20
-101.9560505930006
 10
94.06075301467926
 20
-101.9560505930006
 10
94.2805501066382
 20
-101.9560505930006
 10
94.2805501066382
 20
-101.9560505930006
 10
94.28261716392934
 20
-102.0301201459335
 10
94.29329695993363
 20
-102.2649034032532
 10
94.57682831836969
 20
-102.2649034032532
 10
94.71428762823115
 20
-102.2649034032532
 10
94.8665608486792
 20
-102.1951402196769
 10
94.8665608486792
 20
-101.9665581342306
 10
94.8665608486792
 20
-101.8502861616034
 10
94.82866479834145
 20
-101.8015380604871
 10
94.79696991987716
 20
-101.7698431820228
 10
94.72290036694427
 20
-101.69577362909
 10
94.60645613954283
 20
-101.6831990305688
 10
94.55133461177884
 20
-101.6831990305688
 10
94.53238658660996
 20
-101.6831990305688
 10
94.49655759356337
 20
-101.6852660878599
 10
94.46899682968137
 20
-101.6894002024422
 10
94.46899682968137
 20
-101.6894002024422
 10
94.46899682968137
 20
-101.4947523075256
 10
94.46899682968137
 20
-101.4947523075256
 10
94.50689288001911
 20
-101.5011257341733
 10
94.54926755448768
 20
-101.5033650462387
 10
94.55581323590967
 20
-101.5033650462387
 10
94.62127005012941
 20
-101.5033650462387
 10
94.82005205962832
 20
-101.4821777090045
 10
94.82005205962832
 20
-101.2451551396193
 10
94.82005205962832
 20
-101.0675604673546
 10
94.68879392164031
 20
-101.0124389395907
 10
94.57889537566084
 20
-101.0124389395907
 10
94.31465655194218
 20
-101.0124389395907
 10
94.30604381322905
 20
-101.2451551396193
 10
94.30190969864675
 20
-101.317157635261
 10
94.30190969864675
 20
-101.317157635261
 10
94.09864906501701
 20
-101.317157635261
 10
94.09864906501701
 20
-101.317157635261
 10
94.10726180373014
 20
-101.1922729239207
 10
94.13482256761213
 20
-100.8157239873829
 10
94.59164222895626
 20
-100.8157239873829
 10
94.81591794504602
 20
-100.8157239873829
 10
95.05707462901351
 20
-100.9426757560143
 10
95.05707462901351
 20
-101.2387817129716
 10
95.05707462901351
 20
-101.4249891239493
 10
94.96198999362062
 20
-101.507499160821
 10
94.8624267340969
 20
-101.5688218604585
 10
94.92374943373434
 20
-101.5963826243405
 10
95.10565047535553
 20
-101.6768256039211
 10
95.10565047535553
 20
-101.9539835357094
 10
95.10565047535553
 20
-102.2924641671352
 10
94.8582926195146
 20
-102.4595512981698
 10
94.58096243295199
 20
-102.4595512981698
 97
        0
 97
        0
 75
     2
 76
     1
 98
        0
  0
SPLINE
  5
12B
330
125
100
AcDbEntity
  8
_U+30EC_U+30A4_U+30E4_U+30FC 1
370
     0
100
AcDbSpline
210
0.0
220
0.0
230
1.0
 70
    11
 71
     3
 72
    53
 73
    49
 74
     0
 42
0.0000000001
 43
0.0000000001
 12
1.0
 22
0.0
 32
0.0
 13
1.0
 23
0.0
 33
0.0
 40
0.0
 40
0.0
 40
0.0
 40
0.0
 40
1.0
 40
1.0
 40
1.0
 40
2.0
 40
2.0
 40
2.0
 40
3.0
 40
3.0
 40
3.0
 40
4.0
 40
4.0
 40
4.0
 40
5.0
 40
5.0
 40
5.0
 40
6.0
 40
6.0
 40
6.0
 40
7.0
 40
7.0
 40
7.0
 40
8.0
 40
8.0
 40
8.0
 40
9.0
 40
9.0
 40
9.0
 40
10.0
 40
10.0
 40
10.0
 40
11.0
 40
11.0
 40
11.0
 40
12.0
 40
12.0
 40
12.0
 40
13.0
 40
13.0
 40
13.0
 40
14.0
 40
14.0
 40
14.0
 40
15.0
 40
15.0
 40
15.0
 40
16.0
 40
16.0
 40
16.0
 40
16.0
 10
95.74712725470906
 20
-102.4595512981698
 30
0.0
 10
95.66892358719389
 20
-102.4595512981698
 30
0.0
 10
95.56729327037901
 20
-102.4424980755178
 30
0.0
 10
95.46600746311267
 20
-102.3791083185893
 30
0.0
 10
95.29237465065607
 20
-102.2690375178355
 30
0.0
 10
95.27135956819605
 20
-102.1379516346218
 30
0.0
 10
95.25241154302718
 20
-102.0301201459335
 30
0.0
 10
95.25241154302718
 20
-102.0301201459335
 30
0.0
 10
95.47427569227727
 20
-102.0301201459335
 30
0.0
 10
95.47427569227727
 20
-102.0301201459335
 30
0.0
 10
95.52939722004126
 20
-102.2289021554324
 30
0.0
 10
95.65617673389846
 20
-102.2585299766055
 30
0.0
 10
95.7491943120002
 20
-102.2585299766055
 30
0.0
 10
95.88906518870135
 20
-102.2585299766055
 30
0.0
 10
96.04133840914939
 20
-102.1591389718561
 30
0.0
 10
96.04133840914939
 20
-101.9264227718274
 30
0.0
 10
96.04133840914939
 20
-101.6704521772734
 30
0.0
 10
95.86150442481934
 20
-101.600688993697
 30
0.0
 10
95.7409260828356
 20
-101.600688993697
 30
0.0
 10
95.7092312043713
 20
-101.600688993697
 30
0.0
 10
95.56729327037901
 20
-101.600688993697
 30
0.0
 10
95.47840980685957
 20
-101.7297078196197
 30
0.0
 10
95.47840980685957
 20
-101.7297078196197
 30
0.0
 10
95.30305444666035
 20
-101.7105875396765
 30
0.0
 10
95.30305444666035
 20
-101.7105875396765
 30
0.0
 10
95.30305444666035
 20
-101.7105875396765
 30
0.0
 10
95.4236327886441
 20
-100.8644720884992
 30
0.0
 10
95.4236327886441
 20
-100.8644720884992
 30
0.0
 10
95.4236327886441
 20
-100.8644720884992
 30
0.0
 10
96.20222436831055
 20
-100.8644720884992
 30
0.0
 10
96.20222436831055
 20
-100.8644720884992
 30
0.0
 10
96.20222436831055
 20
-100.8644720884992
 30
0.0
 10
96.20222436831055
 20
-101.0591199834158
 30
0.0
 10
96.20222436831055
 20
-101.0591199834158
 30
0.0
 10
96.20222436831055
 20
-101.0591199834158
 30
0.0
 10
95.58658580509642
 20
-101.0591199834158
 30
0.0
 10
95.58658580509642
 20
-101.0591199834158
 30
0.0
 10
95.58658580509642
 20
-101.0591199834158
 30
0.0
 10
95.52078448132814
 20
-101.4821777090045
 30
0.0
 10
95.52078448132814
 20
-101.4821777090045
 30
0.0
 10
95.5821071809656
 20
-101.4482435184748
 30
0.0
 10
95.66478947261159
 20
-101.4081081560716
 30
0.0
 10
95.78330075730418
 20
-101.4081081560716
 30
0.0
 10
96.03720429456709
 20
-101.4081081560716
 30
0.0
 10
96.27388235440375
 20
-101.5943155670493
 30
0.0
 10
96.27388235440375
 20
-101.9073024918843
 30
0.0
 10
96.27388235440375
 20
-102.2247680408501
 30
0.0
 10
96.04960663831399
 20
-102.4595512981698
 30
0.0
 10
95.74712725470906
 20
-102.4595512981698
 30
0.0
  0
HATCH
  5
12C
330
125
100
AcDbEntity
  8
_U+30EC_U+30A4_U+30E4_U+30FC 1
 62
   179
420
  2234388
100
AcDbHatch
 10
0.0
 20
0.0
 30
0.0
210
0.0
220
0.0
230
1.0
  2
SOLID
 70
     1
 71
     0
 91
        1
 92
        1
 93
        1
 72
     4
 94
        3
 73
     0
 74
     1
 95
       53
 96
       49
 40
0.0
 40
0.0
 40
0.0
 40
0.0
 40
1.0
 40
1.0
 40
1.0
 40
2.0
 40
2.0
 40
2.0
 40
3.0
 40
3.0
 40
3.0
 40
4.0
 40
4.0
 40
4.0
 40
5.0
 40
5.0
 40
5.0
 40
6.0
 40
6.0
 40
6.0
 40
7.0
 40
7.0
 40
7.0
 40
8.0
 40
8.0
 40
8.0
 40
9.0
 40
9.0
 40
9.0
 40
10.0
 40
10.0
 40
10.0
 40
11.0
 40
11.0
 40
11.0
 40
12.0
 40
12.0
 40
12.0
 40
13.0
 40
13.0
 40
13.0
 40
14.0
 40
14.0
 40
14.0
 40
15.0
 40
15.0
 40
15.0
 40
16.0
 40
16.0
 40
16.0
 40
16.0
 10
95.74712725470906
 20
-102.4595512981698
 10
95.66892358719389
 20
-102.4595512981698
 10
95.56729327037901
 20
-102.4424980755178
 10
95.46600746311267
 20
-102.3791083185893
 10
95.29237465065607
 20
-102.2690375178355
 10
95.27135956819605
 20
-102.1379516346218
 10
95.25241154302718
 20
-102.0301201459335
 10
95.25241154302718
 20
-102.0301201459335
 10
95.47427569227727
 20
-102.0301201459335
 10
95.47427569227727
 20
-102.0301201459335
 10
95.52939722004126
 20
-102.2289021554324
 10
95.65617673389846
 20
-102.2585299766055
 10
95.7491943120002
 20
-102.2585299766055
 10
95.88906518870135
 20
-102.2585299766055
 10
96.04133840914939
 20
-102.1591389718561
 10
96.04133840914939
 20
-101.9264227718274
 10
96.04133840914939
 20
-101.6704521772734
 10
95.86150442481934
 20
-101.600688993697
 10
95.7409260828356
 20
-101.600688993697
 10
95.7092312043713
 20
-101.600688993697
 10
95.56729327037901
 20
-101.600688993697
 10
95.47840980685957
 20
-101.7297078196197
 10
95.47840980685957
 20
-101.7297078196197
 10
95.30305444666035
 20
-101.7105875396765
 10
95.30305444666035
 20
-101.7105875396765
 10
95.30305444666035
 20
-101.7105875396765
 10
95.4236327886441
 20
-100.8644720884992
 10
95.4236327886441
 20
-100.8644720884992
 10
95.4236327886441
 20
-100.8644720884992
 10
96.20222436831055
 20
-100.8644720884992
 10
96.20222436831055
 20
-100.8644720884992
 10
96.20222436831055
 20
-100.8644720884992
 10
96.20222436831055
 20
-101.0591199834158
 10
96.20222436831055
 20
-101.0591199834158
 10
96.20222436831055
 20
-101.0591199834158
 10
95.58658580509642
 20
-101.0591199834158
 10
95.58658580509642
 20
-101.0591199834158
 10
95.58658580509642
 20
-101.0591199834158
 10
95.52078448132814
 20
-101.4821777090045
 10
95.52078448132814
 20
-101.4821777090045
 10
95.5821071809656
 20
-101.4482435184748
 10
95.66478947261159
 20
-101.4081081560716
 10
95.78330075730418
 20
-101.4081081560716
 10
96.03720429456709
 20
-101.4081081560716
 10
96.27388235440375
 20
-101.5943155670493
 10
96.27388235440375
 20
-101.9073024918843
 10
96.27388235440375
 20
-102.2247680408501
 10
96.04960663831399
 20
-102.4595512981698
 10
95.74712725470906
 20
-102.4595512981698
 97
        0
 97
        0
 75
     2
 76
     1
 98
        0
  0
ENDBLK
  5
128
330
125
100
AcDbEntity
  8
0
100
AcDbBlockEnd
  0
ENDSEC
  0
SECTION
  2
ENTITIES
  0
SPLINE
  5
41
330
1F
100
AcDbEntity
  8
_U+30EC_U+30A4_U+30E4_U+30FC 1
 62
   253
420
 11711154
370
     9
100
AcDbSpline
210
0.0
220
0.0
230
1.0
 70
    11
 71
     3
 72
    65
 73
    61
 74
     0
 42
0.0000000001
 43
0.0000000001
 12
1.0
 22
0.0
 32
0.0
 13
1.0
 23
0.0
 33
0.0
 40
0.0
 40
0.0
 40
0.0
 40
0.0
 40
1.0
 40
1.0
 40
1.0
 40
2.0
 40
2.0
 40
2.0
 40
3.0
 40
3.0
 40
3.0
 40
4.0
 40
4.0
 40
4.0
 40
5.0
 40
5.0
 40
5.0
 40
6.0
 40
6.0
 40
6.0
 40
7.0
 40
7.0
 40
7.0
 40
8.0
 40
8.0
 40
8.0
 40
9.0
 40
9.0
 40
9.0
 40
10.0
 40
10.0
 40
10.0
 40
11.0
 40
11.0
 40
11.0
 40
12.0
 40
12.0
 40
12.0
 40
13.0
 40
13.0
 40
13.0
 40
14.0
 40
14.0
 40
14.0
 40
15.0
 40
15.0
 40
15.0
 40
16.0
 40
16.0
 40
16.0
 40
17.0
 40
17.0
 40
17.0
 40
18.0
 40
18.0
 40
18.0
 40
19.0
 40
19.0
 40
19.0
 40
20.0
 40
20.0
 40
20.0
 40
20.0
 10
77.7027607954152
 20
-108.2455924729388
 30
0.0
 10
77.7027607954152
 20
-108.2455924729388
 30
0.0
 10
77.7027607954152
 20
-107.0405035843511
 30
0.0
 10
79.2902607549147
 20
-107.0108702510252
 30
0.0
 10
79.2902607549147
 20
-107.0108702510252
 30
0.0
 10
111.5987071528798
 20
-107.0108702510252
 30
0.0
 10
111.5987071528798
 20
-107.0108702510252
 30
0.0
 10
111.5987071528798
 20
-107.0108702510252
 30
0.0
 10
112.5653916385255
 20
-107.3801933064882
 30
0.0
 10
112.58193407224
 20
-108.2834808062626
 30
0.0
 10
112.58193407224
 20
-108.2834808062626
 30
0.0
 10
95.64824839314322
 20
-108.2834808062626
 30
0.0
 10
95.64824839314322
 20
-108.2834808062626
 30
0.0
 10
95.64824839314322
 20
-108.2834808062626
 30
0.0
 10
95.64824839314322
 20
-145.287259130345
 30
0.0
 10
95.64824839314322
 20
-145.287259130345
 30
0.0
 10
95.64824839314322
 20
-145.287259130345
 30
0.0
 10
96.85541864012352
 20
-145.287259130345
 30
0.0
 10
96.85541864012352
 20
-145.287259130345
 30
0.0
 10
96.85541864012352
 20
-145.287259130345
 30
0.0
 10
95.79708533379052
 20
-149.2560091293528
 30
0.0
 10
95.79708533379052
 20
-149.2560091293528
 30
0.0
 10
95.79708533379052
 20
-149.2560091293528
 30
0.0
 10
96.89951586122073
 20
-149.2560091293528
 30
0.0
 10
96.89951586122073
 20
-149.2560091293528
 30
0.0
 10
96.89951586122073
 20
-149.2560091293528
 30
0.0
 10
95.79708533379052
 20
-153.2688563505718
 30
0.0
 10
95.79708533379052
 20
-153.2688563505718
 30
0.0
 10
95.79708533379052
 20
-153.2688563505718
 30
0.0
 10
96.85541864012352
 20
-153.2688563505718
 30
0.0
 10
96.85541864012352
 20
-153.2688563505718
 30
0.0
 10
96.85541864012352
 20
-153.2688563505718
 30
0.0
 10
95.79708533379052
 20
-158.207745238226
 30
0.0
 10
95.79708533379052
 20
-158.207745238226
 30
0.0
 10
95.79708533379052
 20
-158.207745238226
 30
0.0
 10
94.56236314306868
 20
-158.207745238226
 30
0.0
 10
94.56236314306868
 20
-158.207745238226
 30
0.0
 10
94.56236314306868
 20
-158.207745238226
 30
0.0
 10
93.41583539454126
 20
-153.2688563505718
 30
0.0
 10
93.41583539454126
 20
-153.2688563505718
 30
0.0
 10
93.41583539454126
 20
-153.2688563505718
 30
0.0
 10
94.6064603641659
 20
-153.2688563505718
 30
0.0
 10
94.6064603641659
 20
-153.2688563505718
 30
0.0
 10
94.6064603641659
 20
-153.2688563505718
 30
0.0
 10
93.41583539454126
 20
-149.300106351564
 30
0.0
 10
93.41583539454126
 20
-149.300106351564
 30
0.0
 10
93.41583539454126
 20
-149.300106351564
 30
0.0
 10
94.6064603641659
 20
-149.300106351564
 30
0.0
 10
94.6064603641659
 20
-149.300106351564
 30
0.0
 10
94.6064603641659
 20
-149.300106351564
 30
0.0
 10
93.41583539454126
 20
-145.3313563525562
 30
0.0
 10
93.41583539454126
 20
-145.3313563525562
 30
0.0
 10
93.41583539454126
 20
-145.3313563525562
 30
0.0
 10
94.73875202745752
 20
-145.3313563525562
 30
0.0
 10
94.73875202745752
 20
-145.3313563525562
 30
0.0
 10
94.73875202745752
 20
-145.3313563525562
 30
0.0
 10
94.73875202745752
 20
-108.2834808062626
 30
0.0
 10
94.73875202745752
 20
-108.2834808062626
 30
0.0
 10
94.73875202745752
 20
-108.2834808062626
 30
0.0
 10
77.7027607954152
 20
-108.2455924729388
 30
0.0
 10
77.7027607954152
 20
-108.2455924729388
 30
0.0
  0
HATCH
  5
42
330
1F
100
AcDbEntity
  8
_U+30EC_U+30A4_U+30E4_U+30FC 1
 62
   253
420
 11711154
100
AcDbHatch
 10
0.0
 20
0.0
 30
0.0
210
0.0
220
0.0
230
1.0
  2
SOLID
 70
     1
 71
     0
 91
        1
 92
        1
 93
        1
 72
     4
 94
        3
 73
     0
 74
     1
 95
       65
 96
       61
 40
0.0
 40
0.0
 40
0.0
 40
0.0
 40
1.0
 40
1.0
 40
1.0
 40
2.0
 40
2.0
 40
2.0
 40
3.0
 40
3.0
 40
3.0
 40
4.0
 40
4.0
 40
4.0
 40
5.0
 40
5.0
 40
5.0
 40
6.0
 40
6.0
 40
6.0
 40
7.0
 40
7.0
 40
7.0
 40
8.0
 40
8.0
 40
8.0
 40
9.0
 40
9.0
 40
9.0
 40
10.0
 40
10.0
 40
10.0
 40
11.0
 40
11.0
 40
11.0
 40
12.0
 40
12.0
 40
12.0
 40
13.0
 40
13.0
 40
13.0
 40
14.0
 40
14.0
 40
14.0
 40
15.0
 40
15.0
 40
15.0
 40
16.0
 40
16.0
 40
16.0
 40
17.0
 40
17.0
 40
17.0
 40
18.0
 40
18.0
 40
18.0
 40
19.0
 40
19.0
 40
19.0
 40
20.0
 40
20.0
 40
20.0
 40
20.0
 10
77.7027607954152
 20
-108.2455924729388
 10
77.7027607954152
 20
-108.2455924729388
 10
77.7027607954152
 20
-107.0405035843511
 10
79.2902607549147
 20
-107.0108702510252
 10
79.2902607549147
 20
-107.0108702510252
 10
111.5987071528798
 20
-107.0108702510252
 10
111.5987071528798
 20
-107.0108702510252
 10
111.5987071528798
 20
-107.0108702510252
 10
112.5653916385255
 20
-107.3801933064882
 10
112.58193407224
 20
-108.2834808062626
 10
112.58193407224
 20
-108.2834808062626
 10
95.64824839314322
 20
-108.2834808062626
 10
95.64824839314322
 20
-108.2834808062626
 10
95.64824839314322
 20
-108.2834808062626
 10
95.64824839314322
 20
-145.287259130345
 10
95.64824839314322
 20
-145.287259130345
 10
95.64824839314322
 20
-145.287259130345
 10
96.85541864012352
 20
-145.287259130345
 10
96.85541864012352
 20
-145.287259130345
 10
96.85541864012352
 20
-145.287259130345
 10
95.79708533379052
 20
-149.2560091293528
 10
95.79708533379052
 20
-149.2560091293528
 10
95.79708533379052
 20
-149.2560091293528
 10
96.89951586122073
 20
-149.2560091293528
 10
96.89951586122073
 20
-149.2560091293528
 10
96.89951586122073
 20
-149.2560091293528
 10
95.79708533379052
 20
-153.2688563505718
 10
95.79708533379052
 20
-153.2688563505718
 10
95.79708533379052
 20
-153.2688563505718
 10
96.85541864012352
 20
-153.2688563505718
 10
96.85541864012352
 20
-153.2688563505718
 10
96.85541864012352
 20
-153.2688563505718
 10
95.79708533379052
 20
-158.207745238226
 10
95.79708533379052
 20
-158.207745238226
 10
95.79708533379052
 20
-158.207745238226
 10
94.56236314306868
 20
-158.207745238226
 10
94.56236314306868
 20
-158.207745238226
 10
94.56236314306868
 20
-158.207745238226
 10
93.41583539454126
 20
-153.2688563505718
 10
93.41583539454126
 20
-153.2688563505718
 10
93.41583539454126
 20
-153.2688563505718
 10
94.6064603641659
 20
-153.2688563505718
 10
94.6064603641659
 20
-153.2688563505718
 10
94.6064603641659
 20
-153.2688563505718
 10
93.41583539454126
 20
-149.300106351564
 10
93.41583539454126
 20
-149.300106351564
 10
93.41583539454126
 20
-149.300106351564
 10
94.6064603641659
 20
-149.300106351564
 10
94.6064603641659
 20
-149.300106351564
 10
94.6064603641659
 20
-149.300106351564
 10
93.41583539454126
 20
-145.3313563525562
 10
93.41583539454126
 20
-145.3313563525562
 10
93.41583539454126
 20
-145.3313563525562
 10
94.73875202745752
 20
-145.3313563525562
 10
94.73875202745752
 20
-145.3313563525562
 10
94.73875202745752
 20
-145.3313563525562
 10
94.73875202745752
 20
-108.2834808062626
 10
94.73875202745752
 20
-108.2834808062626
 10
94.73875202745752
 20
-108.2834808062626
 10
77.7027607954152
 20
-108.2455924729388
 10
77.7027607954152
 20
-108.2455924729388
 97
        0
 97
        0
 75
     2
 76
     1
 98
        0
  0
POLYLINE
  5
43
330
1F
100
AcDbEntity
  8
_U+30EC_U+30A4_U+30E4_U+30FC 1
 62
   179
420
  2234388
370
    25
100
AcDb2dPolyline
 66
     1
 10
0.0
 20
0.0
 30
0.0
  0
VERTEX
  5
44
330
43
100
AcDbEntity
  8
_U+30EC_U+30A4_U+30E4_U+30FC 1
 62
   179
420
  2234388
370
    25
100
AcDbVertex
100
AcDb2dVertex
 10
77.67760774050134
 20
-108.2545530284919
 30
0.0
  0
VERTEX
  5
45
330
43
100
AcDbEntity
  8
_U+30EC_U+30A4_U+30E4_U+30FC 1
 62
   179
420
  2234388
370
    25
100
AcDbVertex
100
AcDb2dVertex
 10
94.67775675123586
 20
-108.2545530284919
 30
0.0
  0
SEQEND
  5
46
330
43
100
AcDbEntity
  8
_U+30EC_U+30A4_U+30E4_U+30FC 1
 62
   179
420
  2234388
370
    25
  0
POLYLINE
  5
47
330
1F
100
AcDbEntity
  8
_U+30EC_U+30A4_U+30E4_U+30FC 1
 62
   179
420
  2234388
370
    25
100
AcDb2dPolyline
 66
     1
 10
0.0
 20
0.0
 30
0.0
  0
VERTEX
  5
48
330
47
100
AcDbEntity
  8
_U+30EC_U+30A4_U+30E4_U+30FC 1
 62
   179
420
  2234388
370
    25
100
AcDbVertex
100
AcDb2dVertex
 10
94.52754397729034
 20
-158.2539238493256
 30
0.0
  0
VERTEX
  5
49
330
47
100
AcDbEntity
  8
_U+30EC_U+30A4_U+30E4_U+30FC 1
 62
   179
420
  2234388
370
    25
100
AcDbVertex
100
AcDb2dVertex
 10
95.82738894412851
 20
-158.2539238493256
 30
0.0
  0
SEQEND
  5
4A
330
47
100
AcDbEntity
  8
_U+30EC_U+30A4_U+30E4_U+30FC 1
 62
   179
420
  2234388
370
    25
  0
POLYLINE
  5
4B
330
1F
100
AcDbEntity
  8
_U+30EC_U+30A4_U+30E4_U+30FC 1
 62
   179
420
  2234388
370
    25
100
AcDb2dPolyline
 66
     1
 10
0.0
 20
0.0
 30
0.0
  0
VERTEX
  5
4C
330
4B
100
AcDbEntity
  8
_U+30EC_U+30A4_U+30E4_U+30FC 1
 62
   179
420
  2234388
370
    25
100
AcDbVertex
100
AcDb2dVertex
 10
78.81446937816426
 20
-107.0542619176809
 30
0.0
  0
VERTEX
  5
4D
330
4B
100
AcDbEntity
  8
_U+30EC_U+30A4_U+30E4_U+30FC 1
 62
   179
420
  2234388
370
    25
100
AcDbVertex
100
AcDb2dVertex
 10
111.4812321558768
 20
-107.0542619176809
 30
0.0
  0
SEQEND
  5
4E
330
4B
100
AcDbEntity
  8
_U+30EC_U+30A4_U+30E4_U+30FC 1
 62
   179
420
  2234388
370
    25
  0
POLYLINE
  5
4F
330
1F
100
AcDbEntity
  8
_U+30EC_U+30A4_U+30E4_U+30FC 1
 62
   179
420
  2234388
370
    25
100
AcDb2dPolyline
 66
     1
 10
0.0
 20
0.0
 30
0.0
  0
VERTEX
  5
50
330
4F
100
AcDbEntity
  8
_U+30EC_U+30A4_U+30E4_U+30FC 1
 62
   179
420
  2234388
370
    25
100
AcDbVertex
100
AcDb2dVertex
 10
94.67775675123586
 20
-108.2545530284919
 30
0.0
  0
VERTEX
  5
51
330
4F
100
AcDbEntity
  8
_U+30EC_U+30A4_U+30E4_U+30FC 1
 62
   179
420
  2234388
370
    25
100
AcDbVertex
100
AcDb2dVertex
 10
94.67775675123586
 20
-145.2541685747975
 30
0.0
  0
SEQEND
  5
52
330
4F
100
AcDbEntity
  8
_U+30EC_U+30A4_U+30E4_U+30FC 1
 62
   179
420
  2234388
370
    25
  0
POLYLINE
  5
53
330
1F
100
AcDbEntity
  8
_U+30EC_U+30A4_U+30E4_U+30FC 1
 62
   179
420
  2234388
370
    25
100
AcDb2dPolyline
 66
     1
 10
0.0
 20
0.0
 30
0.0
  0
VERTEX
  5
54
330
53
100
AcDbEntity
  8
_U+30EC_U+30A4_U+30E4_U+30FC 1
 62
   179
420
  2234388
370
    25
100
AcDbVertex
100
AcDb2dVertex
 10
95.67752894795177
 20
-108.2545530284919
 30
0.0
  0
VERTEX
  5
55
330
53
100
AcDbEntity
  8
_U+30EC_U+30A4_U+30E4_U+30FC 1
 62
   179
420
  2234388
370
    25
100
AcDbVertex
100
AcDb2dVertex
 10
95.67752894795177
 20
-145.2541685747975
 30
0.0
  0
SEQEND
  5
56
330
53
100
AcDbEntity
  8
_U+30EC_U+30A4_U+30E4_U+30FC 1
 62
   179
420
  2234388
370
    25
  0
POLYLINE
  5
57
330
1F
100
AcDbEntity
  8
_U+30EC_U+30A4_U+30E4_U+30FC 1
 62
   179
420
  2234388
370
    25
100
AcDb2dPolyline
 66
     1
 10
0.0
 20
0.0
 30
0.0
  0
VERTEX
  5
58
330
57
100
AcDbEntity
  8
_U+30EC_U+30A4_U+30E4_U+30FC 1
 62
   179
420
  2234388
370
    25
100
AcDbVertex
100
AcDb2dVertex
 10
95.77743561206961
 20
-153.2543924616862
 30
0.0
  0
VERTEX
  5
59
330
57
100
AcDbEntity
  8
_U+30EC_U+30A4_U+30E4_U+30FC 1
 62
   179
420
  2234388
370
    25
100
AcDbVertex
100
AcDb2dVertex
 10
96.92742058273105
 20
-153.2543924616862
 30
0.0
  0
SEQEND
  5
5A
330
57
100
AcDbEntity
  8
_U+30EC_U+30A4_U+30E4_U+30FC 1
 62
   179
420
  2234388
370
    25
  0
POLYLINE
  5
5B
330
1F
100
AcDbEntity
  8
_U+30EC_U+30A4_U+30E4_U+30FC 1
 62
   179
420
  2234388
370
    25
100
AcDb2dPolyline
 66
     1
 10
0.0
 20
0.0
 30
0.0
  0
VERTEX
  5
5C
330
5B
100
AcDbEntity
  8
_U+30EC_U+30A4_U+30E4_U+30FC 1
 62
   179
420
  2234388
370
    25
100
AcDbVertex
100
AcDb2dVertex
 10
93.42754997664338
 20
-145.2541685747975
 30
0.0
  0
VERTEX
  5
5D
330
5B
100
AcDbEntity
  8
_U+30EC_U+30A4_U+30E4_U+30FC 1
 62
   179
420
  2234388
370
    25
100
AcDbVertex
100
AcDb2dVertex
 10
94.67775675123586
 20
-145.2541685747975
 30
0.0
  0
SEQEND
  5
5E
330
5B
100
AcDbEntity
  8
_U+30EC_U+30A4_U+30E4_U+30FC 1
 62
   179
420
  2234388
370
    25
  0
POLYLINE
  5
5F
330
1F
100
AcDbEntity
  8
_U+30EC_U+30A4_U+30E4_U+30FC 1
 62
   179
420
  2234388
370
    25
100
AcDb2dPolyline
 66
     1
 10
0.0
 20
0.0
 30
0.0
  0
VERTEX
  5
60
330
5F
100
AcDbEntity
  8
_U+30EC_U+30A4_U+30E4_U+30FC 1
 62
   179
420
  2234388
370
    25
100
AcDbVertex
100
AcDb2dVertex
 10
95.67752894795177
 20
-108.2545530284919
 30
0.0
  0
VERTEX
  5
61
330
5F
100
AcDbEntity
  8
_U+30EC_U+30A4_U+30E4_U+30FC 1
 62
   179
420
  2234388
370
    25
100
AcDbVertex
100
AcDb2dVertex
 10
112.6773604586944
 20
-108.2545530284919
 30
0.0
  0
SEQEND
  5
62
330
5F
100
AcDbEntity
  8
_U+30EC_U+30A4_U+30E4_U+30FC 1
 62
   179
420
  2234388
370
    25
  0
POLYLINE
  5
63
330
1F
100
AcDbEntity
  8
_U+30EC_U+30A4_U+30E4_U+30FC 1
 62
   179
420
  2234388
370
    25
100
AcDb2dPolyline
 66
     1
 10
0.0
 20
0.0
 30
0.0
  0
VERTEX
  5
64
330
63
100
AcDbEntity
  8
_U+30EC_U+30A4_U+30E4_U+30FC 1
 62
   179
420
  2234388
370
    25
100
AcDbVertex
100
AcDb2dVertex
 10
95.67752894795177
 20
-145.2541685747975
 30
0.0
  0
VERTEX
  5
65
330
63
100
AcDbEntity
  8
_U+30EC_U+30A4_U+30E4_U+30FC 1
 62
   179
420
  2234388
370
    25
100
AcDbVertex
100
AcDb2dVertex
 10
96.92742058273105
 20
-145.2541685747975
 30
0.0
  0
SEQEND
  5
66
330
63
100
AcDbEntity
  8
_U+30EC_U+30A4_U+30E4_U+30FC 1
 62
   179
420
  2234388
370
    25
  0
POLYLINE
  5
67
330
1F
100
AcDbEntity
  8
_U+30EC_U+30A4_U+30E4_U+30FC 1
 62
   179
420
  2234388
370
    25
100
AcDb2dPolyline
 66
     1
 10
0.0
 20
0.0
 30
0.0
  0
VERTEX
  5
68
330
67
100
AcDbEntity
  8
_U+30EC_U+30A4_U+30E4_U+30FC 1
 62
   179
420
  2234388
370
    25
100
AcDbVertex
100
AcDb2dVertex
 10
95.77743561206961
 20
-149.2539277404644
 30
0.0
  0
VERTEX
  5
69
330
67
100
AcDbEntity
  8
_U+30EC_U+30A4_U+30E4_U+30FC 1
 62
   179
420
  2234388
370
    25
100
AcDbVertex
100
AcDb2dVertex
 10
96.92742058273105
 20
-145.2541685747975
 30
0.0
  0
SEQEND
  5
6A
330
67
100
AcDbEntity
  8
_U+30EC_U+30A4_U+30E4_U+30FC 1
 62
   179
420
  2234388
370
    25
  0
POLYLINE
  5
6B
330
1F
100
AcDbEntity
  8
_U+30EC_U+30A4_U+30E4_U+30FC 1
 62
   179
420
  2234388
370
    25
100
AcDb2dPolyline
 66
     1
 10
0.0
 20
0.0
 30
0.0
  0
VERTEX
  5
6C
330
6B
100
AcDbEntity
  8
_U+30EC_U+30A4_U+30E4_U+30FC 1
 62
   179
420
  2234388
370
    25
100
AcDbVertex
100
AcDb2dVertex
 10
94.57753258712613
 20
-149.2539277404644
 30
0.0
  0
VERTEX
  5
6D
330
6B
100
AcDbEntity
  8
_U+30EC_U+30A4_U+30E4_U+30FC 1
 62
   179
420
  2234388
370
    25
100
AcDbVertex
100
AcDb2dVertex
 10
93.42754997664338
 20
-145.2541685747975
 30
0.0
  0
SEQEND
  5
6E
330
6B
100
AcDbEntity
  8
_U+30EC_U+30A4_U+30E4_U+30FC 1
 62
   179
420
  2234388
370
    25
  0
POLYLINE
  5
6F
330
1F
100
AcDbEntity
  8
_U+30EC_U+30A4_U+30E4_U+30FC 1
 62
   179
420
  2234388
370
    25
100
AcDb2dPolyline
 66
     1
 10
0.0
 20
0.0
 30
0.0
  0
VERTEX
  5
70
330
6F
100
AcDbEntity
  8
_U+30EC_U+30A4_U+30E4_U+30FC 1
 62
   179
420
  2234388
370
    25
100
AcDbVertex
100
AcDb2dVertex
 10
95.77743561206961
 20
-149.2539277404644
 30
0.0
  0
VERTEX
  5
71
330
6F
100
AcDbEntity
  8
_U+30EC_U+30A4_U+30E4_U+30FC 1
 62
   179
420
  2234388
370
    25
100
AcDbVertex
100
AcDb2dVertex
 10
96.92742058273105
 20
-149.2539277404644
 30
0.0
  0
SEQEND
  5
72
330
6F
100
AcDbEntity
  8
_U+30EC_U+30A4_U+30E4_U+30FC 1
 62
   179
420
  2234388
370
    25
  0
POLYLINE
  5
73
330
1F
100
AcDbEntity
  8
_U+30EC_U+30A4_U+30E4_U+30FC 1
 62
   179
420
  2234388
370
    25
100
AcDb2dPolyline
 66
     1
 10
0.0
 20
0.0
 30
0.0
  0
VERTEX
  5
74
330
73
100
AcDbEntity
  8
_U+30EC_U+30A4_U+30E4_U+30FC 1
 62
   179
420
  2234388
370
    25
100
AcDbVertex
100
AcDb2dVertex
 10
93.42754997664338
 20
-149.2539277404644
 30
0.0
  0
VERTEX
  5
75
330
73
100
AcDbEntity
  8
_U+30EC_U+30A4_U+30E4_U+30FC 1
 62
   179
420
  2234388
370
    25
100
AcDbVertex
100
AcDb2dVertex
 10
94.57753258712613
 20
-149.2539277404644
 30
0.0
  0
SEQEND
  5
76
330
73
100
AcDbEntity
  8
_U+30EC_U+30A4_U+30E4_U+30FC 1
 62
   179
420
  2234388
370
    25
  0
POLYLINE
  5
77
330
1F
100
AcDbEntity
  8
_U+30EC_U+30A4_U+30E4_U+30FC 1
 62
   179
420
  2234388
370
    25
100
AcDb2dPolyline
 66
     1
 10
0.0
 20
0.0
 30
0.0
  0
VERTEX
  5
78
330
77
100
AcDbEntity
  8
_U+30EC_U+30A4_U+30E4_U+30FC 1
 62
   179
420
  2234388
370
    25
100
AcDbVertex
100
AcDb2dVertex
 10
94.57753258712613
 20
-153.2543924616862
 30
0.0
  0
VERTEX
  5
79
330
77
100
AcDbEntity
  8
_U+30EC_U+30A4_U+30E4_U+30FC 1
 62
   179
420
  2234388
370
    25
100
AcDbVertex
100
AcDb2dVertex
 10
93.42754997664338
 20
-149.2539277404644
 30
0.0
  0
SEQEND
  5
7A
330
77
100
AcDbEntity
  8
_U+30EC_U+30A4_U+30E4_U+30FC 1
 62
   179
420
  2234388
370
    25
  0
POLYLINE
  5
7B
330
1F
100
AcDbEntity
  8
_U+30EC_U+30A4_U+30E4_U+30FC 1
 62
   179
420
  2234388
370
    25
100
AcDb2dPolyline
 66
     1
 10
0.0
 20
0.0
 30
0.0
  0
VERTEX
  5
7C
330
7B
100
AcDbEntity
  8
_U+30EC_U+30A4_U+30E4_U+30FC 1
 62
   179
420
  2234388
370
    25
100
AcDbVertex
100
AcDb2dVertex
 10
95.77743561206961
 20
-153.2543924616862
 30
0.0
  0
VERTEX
  5
7D
330
7B
100
AcDbEntity
  8
_U+30EC_U+30A4_U+30E4_U+30FC 1
 62
   179
420
  2234388
370
    25
100
AcDbVertex
100
AcDb2dVertex
 10
96.92742058273105
 20
-149.2539277404644
 30
0.0
  0
SEQEND
  5
7E
330
7B
100
AcDbEntity
  8
_U+30EC_U+30A4_U+30E4_U+30FC 1
 62
   179
420
  2234388
370
    25
  0
POLYLINE
  5
7F
330
1F
100
AcDbEntity
  8
_U+30EC_U+30A4_U+30E4_U+30FC 1
 62
   179
420
  2234388
370
    25
100
AcDb2dPolyline
 66
     1
 10
0.0
 20
0.0
 30
0.0
  0
VERTEX
  5
80
330
7F
100
AcDbEntity
  8
_U+30EC_U+30A4_U+30E4_U+30FC 1
 62
   179
420
  2234388
370
    25
100
AcDbVertex
100
AcDb2dVertex
 10
95.82738894412851
 20
-158.2539238493256
 30
0.0
  0
VERTEX
  5
81
330
7F
100
AcDbEntity
  8
_U+30EC_U+30A4_U+30E4_U+30FC 1
 62
   179
420
  2234388
370
    25
100
AcDbVertex
100
AcDb2dVertex
 10
96.92742058273105
 20
-153.2543924616862
 30
0.0
  0
SEQEND
  5
82
330
7F
100
AcDbEntity
  8
_U+30EC_U+30A4_U+30E4_U+30FC 1
 62
   179
420
  2234388
370
    25
  0
POLYLINE
  5
83
330
1F
100
AcDbEntity
  8
_U+30EC_U+30A4_U+30E4_U+30FC 1
 62
   179
420
  2234388
370
    25
100
AcDb2dPolyline
 66
     1
 10
0.0
 20
0.0
 30
0.0
  0
VERTEX
  5
84
330
83
100
AcDbEntity
  8
_U+30EC_U+30A4_U+30E4_U+30FC 1
 62
   179
420
  2234388
370
    25
100
AcDbVertex
100
AcDb2dVertex
 10
94.57753258712613
 20
-153.2543924616862
 30
0.0
  0
VERTEX
  5
85
330
83
100
AcDbEntity
  8
_U+30EC_U+30A4_U+30E4_U+30FC 1
 62
   179
420
  2234388
370
    25
100
AcDbVertex
100
AcDb2dVertex
 10
93.42754997664338
 20
-153.2543924616862
 30
0.0
  0
SEQEND
  5
86
330
83
100
AcDbEntity
  8
_U+30EC_U+30A4_U+30E4_U+30FC 1
 62
   179
420
  2234388
370
    25
  0
POLYLINE
  5
87
330
1F
100
AcDbEntity
  8
_U+30EC_U+30A4_U+30E4_U+30FC 1
 62
   179
420
  2234388
370
    25
100
AcDb2dPolyline
 66
     1
 10
0.0
 20
0.0
 30
0.0
  0
VERTEX
  5
88
330
87
100
AcDbEntity
  8
_U+30EC_U+30A4_U+30E4_U+30FC 1
 62
   179
420
  2234388
370
    25
100
AcDbVertex
100
AcDb2dVertex
 10
94.52754397729034
 20
-158.2539238493256
 30
0.0
  0
VERTEX
  5
89
330
87
100
AcDbEntity
  8
_U+30EC_U+30A4_U+30E4_U+30FC 1
 62
   179
420
  2234388
370
    25
100
AcDbVertex
100
AcDb2dVertex
 10
93.42754997664338
 20
-153.2543924616862
 30
0.0
  0
SEQEND
  5
8A
330
87
100
AcDbEntity
  8
_U+30EC_U+30A4_U+30E4_U+30FC 1
 62
   179
420
  2234388
370
    25
  0
SPLINE
  5
8B
330
1F
100
AcDbEntity
  8
_U+30EC_U+30A4_U+30E4_U+30FC 1
 62
   179
420
  2234388
370
     9
100
AcDbSpline
210
0.0
220
0.0
230
1.0
 70
    11
 71
     3
 72
    17
 73
    13
 74
     0
 42
0.0000000001
 43
0.0000000001
 12
1.0
 22
0.0
 32
0.0
 13
1.0
 23
0.0
 33
0.0
 40
0.0
 40
0.0
 40
0.0
 40
0.0
 40
1.0
 40
1.0
 40
1.0
 40
2.0
 40
2.0
 40
2.0
 40
3.0
 40
3.0
 40
3.0
 40
4.0
 40
4.0
 40
4.0
 40
4.0
 10
89.52734243818944
 20
-145.2541685747975
 30
0.0
 10
89.52734243818944
 20
-145.1990646859226
 30
0.0
 10
89.48257493933154
 20
-145.1542619081559
 30
0.0
 10
89.4274357740716
 20
-145.1542619081559
 30
0.0
 10
89.37233188658853
 20
-145.1542619081559
 30
0.0
 10
89.32752910995376
 20
-145.1990646859226
 30
0.0
 10
89.32752910995376
 20
-145.2541685747975
 30
0.0
 10
89.32752910995376
 20
-145.3093077414506
 30
0.0
 10
89.37233188658853
 20
-145.3540752414392
 30
0.0
 10
89.4274357740716
 20
-145.3540752414392
 30
0.0
 10
89.48257493933154
 20
-145.3540752414392
 30
0.0
 10
89.52734243818944
 20
-145.3093077414506
 30
0.0
 10
89.52734243818944
 20
-145.2541685747975
 30
0.0
  0
SPLINE
  5
8C
330
1F
100
AcDbEntity
  8
_U+30EC_U+30A4_U+30E4_U+30FC 1
 62
   179
420
  2234388
370
     9
100
AcDbSpline
210
0.0
220
0.0
230
1.0
 70
    11
 71
     3
 72
    17
 73
    13
 74
     0
 42
0.0000000001
 43
0.0000000001
 12
1.0
 22
0.0
 32
0.0
 13
1.0
 23
0.0
 33
0.0
 40
0.0
 40
0.0
 40
0.0
 40
0.0
 40
1.0
 40
1.0
 40
1.0
 40
2.0
 40
2.0
 40
2.0
 40
3.0
 40
3.0
 40
3.0
 40
4.0
 40
4.0
 40
4.0
 40
4.0
 10
89.52734243818944
 20
-149.2539277404644
 30
0.0
 10
89.52734243818944
 20
-149.1988238515895
 30
0.0
 10
89.48257493933154
 20
-149.1540210738228
 30
0.0
 10
89.4274357740716
 20
-149.1540210738228
 30
0.0
 10
89.37233188658853
 20
-149.1540210738228
 30
0.0
 10
89.32752910995376
 20
-149.1988238515895
 30
0.0
 10
89.32752910995376
 20
-149.2539277404644
 30
0.0
 10
89.32752910995376
 20
-149.3097371848949
 30
0.0
 10
89.37233188658853
 20
-149.3545399626616
 30
0.0
 10
89.4274357740716
 20
-149.3545399626616
 30
0.0
 10
89.48257493933154
 20
-149.3545399626616
 30
0.0
 10
89.52734243818944
 20
-149.3097371848949
 30
0.0
 10
89.52734243818944
 20
-149.2539277404644
 30
0.0
  0
SPLINE
  5
8D
330
1F
100
AcDbEntity
  8
_U+30EC_U+30A4_U+30E4_U+30FC 1
 62
   179
420
  2234388
370
     9
100
AcDbSpline
210
0.0
220
0.0
230
1.0
 70
    11
 71
     3
 72
    17
 73
    13
 74
     0
 42
0.0000000001
 43
0.0000000001
 12
1.0
 22
0.0
 32
0.0
 13
1.0
 23
0.0
 33
0.0
 40
0.0
 40
0.0
 40
0.0
 40
0.0
 40
1.0
 40
1.0
 40
1.0
 40
2.0
 40
2.0
 40
2.0
 40
3.0
 40
3.0
 40
3.0
 40
4.0
 40
4.0
 40
4.0
 40
4.0
 10
89.52734243818944
 20
-153.2543924616862
 30
0.0
 10
89.52734243818944
 20
-153.1992532950337
 30
0.0
 10
89.48257493933154
 20
-153.1544857950445
 30
0.0
 10
89.4274357740716
 20
-153.1544857950445
 30
0.0
 10
89.37233188658853
 20
-153.1544857950445
 30
0.0
 10
89.32752910995376
 20
-153.1992532950337
 30
0.0
 10
89.32752910995376
 20
-153.2543924616862
 30
0.0
 10
89.32752910995376
 20
-153.3094963505617
 30
0.0
 10
89.37233188658853
 20
-153.3542991283278
 30
0.0
 10
89.4274357740716
 20
-153.3542991283278
 30
0.0
 10
89.48257493933154
 20
-153.3542991283278
 30
0.0
 10
89.52734243818944
 20
-153.3094963505617
 30
0.0
 10
89.52734243818944
 20
-153.2543924616862
 30
0.0
  0
SPLINE
  5
8E
330
1F
100
AcDbEntity
  8
_U+30EC_U+30A4_U+30E4_U+30FC 1
 62
   179
420
  2234388
370
     9
100
AcDbSpline
210
0.0
220
0.0
230
1.0
 70
    11
 71
     3
 72
    17
 73
    13
 74
     0
 42
0.0000000001
 43
0.0000000001
 12
1.0
 22
0.0
 32
0.0
 13
1.0
 23
0.0
 33
0.0
 40
0.0
 40
0.0
 40
0.0
 40
0.0
 40
1.0
 40
1.0
 40
1.0
 40
2.0
 40
2.0
 40
2.0
 40
3.0
 40
3.0
 40
3.0
 40
4.0
 40
4.0
 40
4.0
 40
4.0
 10
89.52734243818944
 20
-158.2539238493256
 30
0.0
 10
89.52734243818944
 20
-158.1987846826725
 30
0.0
 10
89.48257493933154
 20
-158.1539819049058
 30
0.0
 10
89.4274357740716
 20
-158.1539819049058
 30
0.0
 10
89.37233188658853
 20
-158.1539819049058
 30
0.0
 10
89.32752910995376
 20
-158.1987846826725
 30
0.0
 10
89.32752910995376
 20
-158.2539238493256
 30
0.0
 10
89.32752910995376
 20
-158.309733293756
 30
0.0
 10
89.37233188658853
 20
-158.3545007937446
 30
0.0
 10
89.4274357740716
 20
-158.3545007937446
 30
0.0
 10
89.48257493933154
 20
-158.3545007937446
 30
0.0
 10
89.52734243818944
 20
-158.309733293756
 30
0.0
 10
89.52734243818944
 20
-158.2539238493256
 30
0.0
  0
SPLINE
  5
8F
330
1F
100
AcDbEntity
  8
_U+30EC_U+30A4_U+30E4_U+30FC 1
 62
   179
420
  2234388
370
     9
100
AcDbSpline
210
0.0
220
0.0
230
1.0
 70
    11
 71
     3
 72
    17
 73
    13
 74
     0
 42
0.0000000001
 43
0.0000000001
 12
1.0
 22
0.0
 32
0.0
 13
1.0
 23
0.0
 33
0.0
 40
0.0
 40
0.0
 40
0.0
 40
0.0
 40
1.0
 40
1.0
 40
1.0
 40
2.0
 40
2.0
 40
2.0
 40
3.0
 40
3.0
 40
3.0
 40
4.0
 40
4.0
 40
4.0
 40
4.0
 10
73.77775533999487
 20
-158.2539238493256
 30
0.0
 10
73.77775533999487
 20
-158.1987846826725
 30
0.0
 10
73.73295256336012
 20
-158.1539819049058
 30
0.0
 10
73.67749589810826
 20
-158.1539819049058
 30
0.0
 10
73.62203923285641
 20
-158.1539819049058
 30
0.0
 10
73.57758923399042
 20
-158.1987846826725
 30
0.0
 10
73.57758923399042
 20
-158.2539238493256
 30
0.0
 10
73.57758923399042
 20
-158.309733293756
 30
0.0
 10
73.62203923285641
 20
-158.3545007937446
 30
0.0
 10
73.67749589810826
 20
-158.3545007937446
 30
0.0
 10
73.73295256336012
 20
-158.3545007937446
 30
0.0
 10
73.77775533999487
 20
-158.309733293756
 30
0.0
 10
73.77775533999487
 20
-158.2539238493256
 30
0.0
  0
SPLINE
  5
90
330
1F
100
AcDbEntity
  8
_U+30EC_U+30A4_U+30E4_U+30FC 1
 62
   179
420
  2234388
370
     9
100
AcDbSpline
210
0.0
220
0.0
230
1.0
 70
    11
 71
     3
 72
    17
 73
    13
 74
     0
 42
0.0000000001
 43
0.0000000001
 12
1.0
 22
0.0
 32
0.0
 13
1.0
 23
0.0
 33
0.0
 40
0.0
 40
0.0
 40
0.0
 40
0.0
 40
1.0
 40
1.0
 40
1.0
 40
2.0
 40
2.0
 40
2.0
 40
3.0
 40
3.0
 40
3.0
 40
4.0
 40
4.0
 40
4.0
 40
4.0
 10
77.77751440461918
 20
-103.054502752014
 30
0.0
 10
77.77751440461918
 20
-102.9993988631391
 30
0.0
 10
77.73271162798441
 20
-102.9545960853724
 30
0.0
 10
77.67760774050134
 20
-102.9545960853724
 30
0.0
 10
77.6224685752414
 20
-102.9545960853724
 30
0.0
 10
77.57770107638352
 20
-102.9993988631391
 30
0.0
 10
77.57770107638352
 20
-103.054502752014
 30
0.0
 10
77.57770107638352
 20
-103.1096419186671
 30
0.0
 10
77.6224685752414
 20
-103.1544446964335
 30
0.0
 10
77.67760774050134
 20
-103.1544446964335
 30
0.0
 10
77.73271162798441
 20
-103.1544446964335
 30
0.0
 10
77.77751440461918
 20
-103.1096419186671
 30
0.0
 10
77.77751440461918
 20
-103.054502752014
 30
0.0
  0
SPLINE
  5
91
330
1F
100
AcDbEntity
  8
_U+30EC_U+30A4_U+30E4_U+30FC 1
 62
   179
420
  2234388
370
     9
100
AcDbSpline
210
0.0
220
0.0
230
1.0
 70
    11
 71
     3
 72
    17
 73
    13
 74
     0
 42
0.0000000001
 43
0.0000000001
 12
1.0
 22
0.0
 32
0.0
 13
1.0
 23
0.0
 33
0.0
 40
0.0
 40
0.0
 40
0.0
 40
0.0
 40
1.0
 40
1.0
 40
1.0
 40
2.0
 40
2.0
 40
2.0
 40
3.0
 40
3.0
 40
3.0
 40
4.0
 40
4.0
 40
4.0
 40
4.0
 10
73.77775533999487
 20
-107.0542619176809
 30
0.0
 10
73.77775533999487
 20
-106.9991580288057
 30
0.0
 10
73.73295256336012
 20
-106.9543552510393
 30
0.0
 10
73.67749589810826
 20
-106.9543552510393
 30
0.0
 10
73.62203923285641
 20
-106.9543552510393
 30
0.0
 10
73.57758923399042
 20
-106.9991580288057
 30
0.0
 10
73.57758923399042
 20
-107.0542619176809
 30
0.0
 10
73.57758923399042
 20
-107.1094010843337
 30
0.0
 10
73.62203923285641
 20
-107.1541685843225
 30
0.0
 10
73.67749589810826
 20
-107.1541685843225
 30
0.0
 10
73.73295256336012
 20
-107.1541685843225
 30
0.0
 10
73.77775533999487
 20
-107.1094010843337
 30
0.0
 10
73.77775533999487
 20
-107.0542619176809
 30
0.0
  0
SPLINE
  5
92
330
1F
100
AcDbEntity
  8
_U+30EC_U+30A4_U+30E4_U+30FC 1
 62
   179
420
  2234388
370
     9
100
AcDbSpline
210
0.0
220
0.0
230
1.0
 70
    11
 71
     3
 72
    17
 73
    13
 74
     0
 42
0.0000000001
 43
0.0000000001
 12
1.0
 22
0.0
 32
0.0
 13
1.0
 23
0.0
 33
0.0
 40
0.0
 40
0.0
 40
0.0
 40
0.0
 40
1.0
 40
1.0
 40
1.0
 40
2.0
 40
2.0
 40
2.0
 40
3.0
 40
3.0
 40
3.0
 40
4.0
 40
4.0
 40
4.0
 40
4.0
 10
73.77775533999487
 20
-108.2545530284919
 30
0.0
 10
73.77775533999487
 20
-108.1994138618392
 30
0.0
 10
73.73295256336012
 20
-108.1546463618503
 30
0.0
 10
73.67749589810826
 20
-108.1546463618503
 30
0.0
 10
73.62203923285641
 20
-108.1546463618503
 30
0.0
 10
73.57758923399042
 20
-108.1994138618392
 30
0.0
 10
73.57758923399042
 20
-108.2545530284919
 30
0.0
 10
73.57758923399042
 20
-108.3096569173671
 30
0.0
 10
73.62203923285641
 20
-108.3544596951336
 30
0.0
 10
73.67749589810826
 20
-108.3544596951336
 30
0.0
 10
73.73295256336012
 20
-108.3544596951336
 30
0.0
 10
73.77775533999487
 20
-108.3096569173671
 30
0.0
 10
73.77775533999487
 20
-108.2545530284919
 30
0.0
  0
SPLINE
  5
93
330
1F
100
AcDbEntity
  8
_U+30EC_U+30A4_U+30E4_U+30FC 1
 62
   179
420
  2234388
370
     9
100
AcDbSpline
210
0.0
220
0.0
230
1.0
 70
    11
 71
     3
 72
    17
 73
    13
 74
     0
 42
0.0000000001
 43
0.0000000001
 12
1.0
 22
0.0
 32
0.0
 13
1.0
 23
0.0
 33
0.0
 40
0.0
 40
0.0
 40
0.0
 40
0.0
 40
1.0
 40
1.0
 40
1.0
 40
2.0
 40
2.0
 40
2.0
 40
3.0
 40
3.0
 40
3.0
 40
4.0
 40
4.0
 40
4.0
 40
4.0
 10
112.777619900581
 20
-103.054502752014
 30
0.0
 10
112.777619900581
 20
-102.9993988631391
 30
0.0
 10
112.7328171239462
 20
-102.9545960853724
 30
0.0
 10
112.6773604586944
 20
-102.9545960853724
 30
0.0
 10
112.6222212934344
 20
-102.9545960853724
 30
0.0
 10
112.5774537945765
 20
-102.9993988631391
 30
0.0
 10
112.5774537945765
 20
-103.054502752014
 30
0.0
 10
112.5774537945765
 20
-103.1096419186671
 30
0.0
 10
112.6222212934344
 20
-103.1544446964335
 30
0.0
 10
112.6773604586944
 20
-103.1544446964335
 30
0.0
 10
112.7328171239462
 20
-103.1544446964335
 30
0.0
 10
112.777619900581
 20
-103.1096419186671
 30
0.0
 10
112.777619900581
 20
-103.054502752014
 30
0.0
  0
POLYLINE
  5
94
330
1F
100
AcDbEntity
  8
_U+30EC_U+30A4_U+30E4_U+30FC 1
 62
   179
420
  2234388
370
     9
100
AcDb2dPolyline
 66
     1
 10
0.0
 20
0.0
 30
0.0
  0
VERTEX
  5
95
330
94
100
AcDbEntity
  8
_U+30EC_U+30A4_U+30E4_U+30FC 1
 62
   179
420
  2234388
370
     9
100
AcDbVertex
100
AcDb2dVertex
 10
73.67749589810826
 20
-107.0542619176809
 30
0.0
  0
VERTEX
  5
96
330
94
100
AcDbEntity
  8
_U+30EC_U+30A4_U+30E4_U+30FC 1
 62
   179
420
  2234388
370
     9
100
AcDbVertex
100
AcDb2dVertex
 10
73.67749589810826
 20
-101.796356085662
 30
0.0
  0
SEQEND
  5
97
330
94
100
AcDbEntity
  8
_U+30EC_U+30A4_U+30E4_U+30FC 1
 62
   179
420
  2234388
370
     9
  0
POLYLINE
  5
98
330
1F
100
AcDbEntity
  8
_U+30EC_U+30A4_U+30E4_U+30FC 1
 62
   179
420
  2234388
370
     9
100
AcDb2dPolyline
 66
     1
 10
0.0
 20
0.0
 30
0.0
  0
VERTEX
  5
99
330
98
100
AcDbEntity
  8
_U+30EC_U+30A4_U+30E4_U+30FC 1
 62
   179
420
  2234388
370
     9
100
AcDbVertex
100
AcDb2dVertex
 10
73.67749589810826
 20
-107.0542619176809
 30
0.0
  0
VERTEX
  5
9A
330
98
100
AcDbEntity
  8
_U+30EC_U+30A4_U+30E4_U+30FC 1
 62
   179
420
  2234388
370
     9
100
AcDbVertex
100
AcDb2dVertex
 10
73.67749589810826
 20
-108.2545530284919
 30
0.0
  0
SEQEND
  5
9B
330
98
100
AcDbEntity
  8
_U+30EC_U+30A4_U+30E4_U+30FC 1
 62
   179
420
  2234388
370
     9
  0
POLYLINE
  5
9C
330
1F
100
AcDbEntity
  8
_U+30EC_U+30A4_U+30E4_U+30FC 1
 62
   179
420
  2234388
370
     9
100
AcDb2dPolyline
 66
     1
 10
0.0
 20
0.0
 30
0.0
  0
VERTEX
  5
9D
330
9C
100
AcDbEntity
  8
_U+30EC_U+30A4_U+30E4_U+30FC 1
 62
   179
420
  2234388
370
     9
100
AcDbVertex
100
AcDb2dVertex
 10
75.13753724974839
 20
-107.0542619176809
 30
0.0
  0
VERTEX
  5
9E
330
9C
100
AcDbEntity
  8
_U+30EC_U+30A4_U+30E4_U+30FC 1
 62
   179
420
  2234388
370
     9
100
AcDbVertex
100
AcDb2dVertex
 10
72.67737092362357
 20
-107.0542619176809
 30
0.0
  0
SEQEND
  5
9F
330
9C
100
AcDbEntity
  8
_U+30EC_U+30A4_U+30E4_U+30FC 1
 62
   179
420
  2234388
370
     9
  0
POLYLINE
  5
A0
330
1F
100
AcDbEntity
  8
_U+30EC_U+30A4_U+30E4_U+30FC 1
 62
   179
420
  2234388
370
     9
100
AcDb2dPolyline
 66
     1
 10
0.0
 20
0.0
 30
0.0
  0
VERTEX
  5
A1
330
A0
100
AcDbEntity
  8
_U+30EC_U+30A4_U+30E4_U+30FC 1
 62
   179
420
  2234388
370
     9
100
AcDbVertex
100
AcDb2dVertex
 10
75.13753724974839
 20
-108.2545530284919
 30
0.0
  0
VERTEX
  5
A2
330
A0
100
AcDbEntity
  8
_U+30EC_U+30A4_U+30E4_U+30FC 1
 62
   179
420
  2234388
370
     9
100
AcDbVertex
100
AcDb2dVertex
 10
72.67737092362357
 20
-108.2545530284919
 30
0.0
  0
SEQEND
  5
A3
330
A0
100
AcDbEntity
  8
_U+30EC_U+30A4_U+30E4_U+30FC 1
 62
   179
420
  2234388
370
     9
  0
INSERT
  5
A5
330
1F
100
AcDbEntity
  8
_U+30EC_U+30A4_U+30E4_U+30FC 1
100
AcDbBlockReference
  2
block 2
 10
0.0
 20
0.0
 30
0.0
  0
POLYLINE
  5
B4
330
1F
100
AcDbEntity
  8
_U+30EC_U+30A4_U+30E4_U+30FC 1
 62
   179
420
  2234388
370
     9
100
AcDb2dPolyline
 66
     1
 10
0.0
 20
0.0
 30
0.0
  0
VERTEX
  5
B5
330
B4
100
AcDbEntity
  8
_U+30EC_U+30A4_U+30E4_U+30FC 1
 62
   179
420
  2234388
370
     9
100
AcDbVertex
100
AcDb2dVertex
 10
89.4274357740716
 20
-158.2539238493256
 30
0.0
  0
VERTEX
  5
B6
330
B4
100
AcDbEntity
  8
_U+30EC_U+30A4_U+30E4_U+30FC 1
 62
   179
420
  2234388
370
     9
100
AcDbVertex
100
AcDb2dVertex
 10
89.4274357740716
 20
-153.2543924616862
 30
0.0
  0
SEQEND
  5
B7
330
B4
100
AcDbEntity
  8
_U+30EC_U+30A4_U+30E4_U+30FC 1
 62
   179
420
  2234388
370
     9
  0
POLYLINE
  5
B8
330
1F
100
AcDbEntity
  8
_U+30EC_U+30A4_U+30E4_U+30FC 1
 62
   179
420
  2234388
370
     9
100
AcDb2dPolyline
 66
     1
 10
0.0
 20
0.0
 30
0.0
  0
VERTEX
  5
B9
330
B8
100
AcDbEntity
  8
_U+30EC_U+30A4_U+30E4_U+30FC 1
 62
   179
420
  2234388
370
     9
100
AcDbVertex
100
AcDb2dVertex
 10
91.98751108811439
 20
-158.2539238493256
 30
0.0
  0
VERTEX
  5
BA
330
B8
100
AcDbEntity
  8
_U+30EC_U+30A4_U+30E4_U+30FC 1
 62
   179
420
  2234388
370
     9
100
AcDbVertex
100
AcDb2dVertex
 10
88.42766357735569
 20
-158.2539238493256
 30
0.0
  0
SEQEND
  5
BB
330
B8
100
AcDbEntity
  8
_U+30EC_U+30A4_U+30E4_U+30FC 1
 62
   179
420
  2234388
370
     9
  0
POLYLINE
  5
BC
330
1F
100
AcDbEntity
  8
_U+30EC_U+30A4_U+30E4_U+30FC 1
 62
   179
420
  2234388
370
     9
100
AcDb2dPolyline
 66
     1
 10
0.0
 20
0.0
 30
0.0
  0
VERTEX
  5
BD
330
BC
100
AcDbEntity
  8
_U+30EC_U+30A4_U+30E4_U+30FC 1
 62
   179
420
  2234388
370
     9
100
AcDbVertex
100
AcDb2dVertex
 10
90.88747712571173
 20
-153.2543924616862
 30
0.0
  0
VERTEX
  5
BE
330
BC
100
AcDbEntity
  8
_U+30EC_U+30A4_U+30E4_U+30FC 1
 62
   179
420
  2234388
370
     9
100
AcDbVertex
100
AcDb2dVertex
 10
88.42766357735569
 20
-153.2543924616862
 30
0.0
  0
SEQEND
  5
BF
330
BC
100
AcDbEntity
  8
_U+30EC_U+30A4_U+30E4_U+30FC 1
 62
   179
420
  2234388
370
     9
  0
INSERT
  5
C1
330
1F
100
AcDbEntity
  8
_U+30EC_U+30A4_U+30E4_U+30FC 1
100
AcDbBlockReference
  2
block 3
 10
0.0
 20
0.0
 30
0.0
  0
POLYLINE
  5
C6
330
1F
100
AcDbEntity
  8
_U+30EC_U+30A4_U+30E4_U+30FC 1
 62
   179
420
  2234388
370
     9
100
AcDb2dPolyline
 66
     1
 10
0.0
 20
0.0
 30
0.0
  0
VERTEX
  5
C7
330
C6
100
AcDbEntity
  8
_U+30EC_U+30A4_U+30E4_U+30FC 1
 62
   179
420
  2234388
370
     9
100
AcDbVertex
100
AcDb2dVertex
 10
89.4274357740716
 20
-153.2543924616862
 30
0.0
  0
VERTEX
  5
C8
330
C6
100
AcDbEntity
  8
_U+30EC_U+30A4_U+30E4_U+30FC 1
 62
   179
420
  2234388
370
     9
100
AcDbVertex
100
AcDb2dVertex
 10
89.4274357740716
 20
-149.2539277404644
 30
0.0
  0
SEQEND
  5
C9
330
C6
100
AcDbEntity
  8
_U+30EC_U+30A4_U+30E4_U+30FC 1
 62
   179
420
  2234388
370
     9
  0
POLYLINE
  5
CA
330
1F
100
AcDbEntity
  8
_U+30EC_U+30A4_U+30E4_U+30FC 1
 62
   179
420
  2234388
370
     9
100
AcDb2dPolyline
 66
     1
 10
0.0
 20
0.0
 30
0.0
  0
VERTEX
  5
CB
330
CA
100
AcDbEntity
  8
_U+30EC_U+30A4_U+30E4_U+30FC 1
 62
   179
420
  2234388
370
     9
100
AcDbVertex
100
AcDb2dVertex
 10
90.88747712571173
 20
-149.2539277404644
 30
0.0
  0
VERTEX
  5
CC
330
CA
100
AcDbEntity
  8
_U+30EC_U+30A4_U+30E4_U+30FC 1
 62
   179
420
  2234388
370
     9
100
AcDbVertex
100
AcDb2dVertex
 10
88.42766357735569
 20
-149.2539277404644
 30
0.0
  0
SEQEND
  5
CD
330
CA
100
AcDbEntity
  8
_U+30EC_U+30A4_U+30E4_U+30FC 1
 62
   179
420
  2234388
370
     9
  0
INSERT
  5
CF
330
1F
100
AcDbEntity
  8
_U+30EC_U+30A4_U+30E4_U+30FC 1
100
AcDbBlockReference
  2
block 4
 10
0.0
 20
0.0
 30
0.0
  0
POLYLINE
  5
E7
330
1F
100
AcDbEntity
  8
_U+30EC_U+30A4_U+30E4_U+30FC 1
 62
   179
420
  2234388
370
     9
100
AcDb2dPolyline
 66
     1
 10
0.0
 20
0.0
 30
0.0
  0
VERTEX
  5
E8
330
E7
100
AcDbEntity
  8
_U+30EC_U+30A4_U+30E4_U+30FC 1
 62
   179
420
  2234388
370
     9
100
AcDbVertex
100
AcDb2dVertex
 10
89.4274357740716
 20
-149.2539277404644
 30
0.0
  0
VERTEX
  5
E9
330
E7
100
AcDbEntity
  8
_U+30EC_U+30A4_U+30E4_U+30FC 1
 62
   179
420
  2234388
370
     9
100
AcDbVertex
100
AcDb2dVertex
 10
89.4274357740716
 20
-145.2541685747975
 30
0.0
  0
SEQEND
  5
EA
330
E7
100
AcDbEntity
  8
_U+30EC_U+30A4_U+30E4_U+30FC 1
 62
   179
420
  2234388
370
     9
  0
POLYLINE
  5
EB
330
1F
100
AcDbEntity
  8
_U+30EC_U+30A4_U+30E4_U+30FC 1
 62
   179
420
  2234388
370
     9
100
AcDb2dPolyline
 66
     1
 10
0.0
 20
0.0
 30
0.0
  0
VERTEX
  5
EC
330
EB
100
AcDbEntity
  8
_U+30EC_U+30A4_U+30E4_U+30FC 1
 62
   179
420
  2234388
370
     9
100
AcDbVertex
100
AcDb2dVertex
 10
90.88747712571173
 20
-145.2541685747975
 30
0.0
  0
VERTEX
  5
ED
330
EB
100
AcDbEntity
  8
_U+30EC_U+30A4_U+30E4_U+30FC 1
 62
   179
420
  2234388
370
     9
100
AcDbVertex
100
AcDb2dVertex
 10
88.42766357735569
 20
-145.2541685747975
 30
0.0
  0
SEQEND
  5
EE
330
EB
100
AcDbEntity
  8
_U+30EC_U+30A4_U+30E4_U+30FC 1
 62
   179
420
  2234388
370
     9
  0
INSERT
  5
F0
330
1F
100
AcDbEntity
  8
_U+30EC_U+30A4_U+30E4_U+30FC 1
100
AcDbBlockReference
  2
block 5
 10
0.0
 20
0.0
 30
0.0
  0
POLYLINE
  5
108
330
1F
100
AcDbEntity
  8
_U+30EC_U+30A4_U+30E4_U+30FC 1
 62
   179
420
  2234388
370
     9
100
AcDb2dPolyline
 66
     1
 10
0.0
 20
0.0
 30
0.0
  0
VERTEX
  5
109
330
108
100
AcDbEntity
  8
_U+30EC_U+30A4_U+30E4_U+30FC 1
 62
   179
420
  2234388
370
     9
100
AcDbVertex
100
AcDb2dVertex
 10
73.67749589810826
 20
-158.2539238493256
 30
0.0
  0
VERTEX
  5
10A
330
108
100
AcDbEntity
  8
_U+30EC_U+30A4_U+30E4_U+30FC 1
 62
   179
420
  2234388
370
     9
100
AcDbVertex
100
AcDb2dVertex
 10
73.67749589810826
 20
-108.2545530284919
 30
0.0
  0
SEQEND
  5
10B
330
108
100
AcDbEntity
  8
_U+30EC_U+30A4_U+30E4_U+30FC 1
 62
   179
420
  2234388
370
     9
  0
POLYLINE
  5
10C
330
1F
100
AcDbEntity
  8
_U+30EC_U+30A4_U+30E4_U+30FC 1
 62
   179
420
  2234388
370
     9
100
AcDb2dPolyline
 66
     1
 10
0.0
 20
0.0
 30
0.0
  0
VERTEX
  5
10D
330
10C
100
AcDbEntity
  8
_U+30EC_U+30A4_U+30E4_U+30FC 1
 62
   179
420
  2234388
370
     9
100
AcDbVertex
100
AcDb2dVertex
 10
91.98751108811439
 20
-158.2539238493256
 30
0.0
  0
VERTEX
  5
10E
330
10C
100
AcDbEntity
  8
_U+30EC_U+30A4_U+30E4_U+30FC 1
 62
   179
420
  2234388
370
     9
100
AcDbVertex
100
AcDb2dVertex
 10
72.67737092362357
 20
-158.2539238493256
 30
0.0
  0
SEQEND
  5
10F
330
10C
100
AcDbEntity
  8
_U+30EC_U+30A4_U+30E4_U+30FC 1
 62
   179
420
  2234388
370
     9
  0
INSERT
  5
111
330
1F
100
AcDbEntity
  8
_U+30EC_U+30A4_U+30E4_U+30FC 1
100
AcDbBlockReference
  2
block 6
 10
0.0
 20
0.0
 30
0.0
  0
POLYLINE
  5
119
330
1F
100
AcDbEntity
  8
_U+30EC_U+30A4_U+30E4_U+30FC 1
 62
   179
420
  2234388
370
     9
100
AcDb2dPolyline
 66
     1
 10
0.0
 20
0.0
 30
0.0
  0
VERTEX
  5
11A
330
119
100
AcDbEntity
  8
_U+30EC_U+30A4_U+30E4_U+30FC 1
 62
   179
420
  2234388
370
     9
100
AcDbVertex
100
AcDb2dVertex
 10
77.67760774050134
 20
-103.054502752014
 30
0.0
  0
VERTEX
  5
11B
330
119
100
AcDbEntity
  8
_U+30EC_U+30A4_U+30E4_U+30FC 1
 62
   179
420
  2234388
370
     9
100
AcDbVertex
100
AcDb2dVertex
 10
112.6773604586944
 20
-103.054502752014
 30
0.0
  0
SEQEND
  5
11C
330
119
100
AcDbEntity
  8
_U+30EC_U+30A4_U+30E4_U+30FC 1
 62
   179
420
  2234388
370
     9
  0
POLYLINE
  5
11D
330
1F
100
AcDbEntity
  8
_U+30EC_U+30A4_U+30E4_U+30FC 1
 62
   179
420
  2234388
370
     9
100
AcDb2dPolyline
 66
     1
 10
0.0
 20
0.0
 30
0.0
  0
VERTEX
  5
11E
330
11D
100
AcDbEntity
  8
_U+30EC_U+30A4_U+30E4_U+30FC 1
 62
   179
420
  2234388
370
     9
100
AcDbVertex
100
AcDb2dVertex
 10
77.67760774050134
 20
-104.514544140538
 30
0.0
  0
VERTEX
  5
11F
330
11D
100
AcDbEntity
  8
_U+30EC_U+30A4_U+30E4_U+30FC 1
 62
   179
420
  2234388
370
     9
100
AcDbVertex
100
AcDb2dVertex
 10
77.67760774050134
 20
-102.0540602522641
 30
0.0
  0
SEQEND
  5
120
330
11D
100
AcDbEntity
  8
_U+30EC_U+30A4_U+30E4_U+30FC 1
 62
   179
420
  2234388
370
     9
  0
POLYLINE
  5
121
330
1F
100
AcDbEntity
  8
_U+30EC_U+30A4_U+30E4_U+30FC 1
 62
   179
420
  2234388
370
     9
100
AcDb2dPolyline
 66
     1
 10
0.0
 20
0.0
 30
0.0
  0
VERTEX
  5
122
330
121
100
AcDbEntity
  8
_U+30EC_U+30A4_U+30E4_U+30FC 1
 62
   179
420
  2234388
370
     9
100
AcDbVertex
100
AcDb2dVertex
 10
112.6773604586944
 20
-104.514544140538
 30
0.0
  0
VERTEX
  5
123
330
121
100
AcDbEntity
  8
_U+30EC_U+30A4_U+30E4_U+30FC 1
 62
   179
420
  2234388
370
     9
100
AcDbVertex
100
AcDb2dVertex
 10
112.6773604586944
 20
-102.0540602522641
 30
0.0
  0
SEQEND
  5
124
330
121
100
AcDbEntity
  8
_U+30EC_U+30A4_U+30E4_U+30FC 1
 62
   179
420
  2234388
370
     9
  0
INSERT
  5
126
330
1F
100
AcDbEntity
  8
_U+30EC_U+30A4_U+30E4_U+30FC 1
100
AcDbBlockReference
  2
block 7
 10
0.0
 20
0.0
 30
0.0
  0
POLYLINE
  5
12D
330
1F
100
AcDbEntity
  8
_U+30EC_U+30A4_U+30E4_U+30FC 1
 62
   179
420
  2234388
370
    25
100
AcDb2dPolyline
 66
     1
 10
0.0
 20
0.0
 30
0.0
  0
VERTEX
  5
12E
330
12D
100
AcDbEntity
  8
_U+30EC_U+30A4_U+30E4_U+30FC 1
 62
   179
420
  2234388
370
    25
100
AcDbVertex
100
AcDb2dVertex
 10
81.84959291184292
 20
-110.7398371945372
 30
0.0
  0
VERTEX
  5
13D
330
12D
100
AcDbEntity
  8
0
100
AcDbVertex
100
AcDb2dVertex
 10
81.84959291184292
 20
-110.7398371945372
 30
0.0
  0
SEQEND
  5
12F
330
12D
100
AcDbEntity
  8
_U+30EC_U+30A4_U+30E4_U+30FC 1
 62
   179
420
  2234388
370
    25
  0
POLYLINE
  5
130
330
1F
100
AcDbEntity
  8
_U+30EC_U+30A4_U+30E4_U+30FC 1
 62
   179
420
  2234388
370
    25
100
AcDb2dPolyline
 66
     1
 10
0.0
 20
0.0
 30
0.0
  0
VERTEX
  5
131
330
130
100
AcDbEntity
  8
_U+30EC_U+30A4_U+30E4_U+30FC 1
 62
   179
420
  2234388
370
    25
100
AcDbVertex
100
AcDb2dVertex
 10
77.87498886942001
 20
-107.7122983064054
 30
0.0
  0
VERTEX
  5
132
330
130
100
AcDbEntity
  8
_U+30EC_U+30A4_U+30E4_U+30FC 1
 62
   179
420
  2234388
370
    25
100
AcDbVertex
100
AcDb2dVertex
 10
77.67760774050134
 20
-108.2545530284919
 30
0.0
  0
SEQEND
  5
133
330
130
100
AcDbEntity
  8
_U+30EC_U+30A4_U+30E4_U+30FC 1
 62
   179
420
  2234388
370
    25
  0
SPLINE
  5
134
330
1F
100
AcDbEntity
  8
_U+30EC_U+30A4_U+30E4_U+30FC 1
 62
   179
420
  2234388
370
    25
100
AcDbSpline
210
0.0
220
0.0
230
1.0
 70
     8
 71
     3
 72
     8
 73
     4
 74
     0
 42
0.0000000001
 43
0.0000000001
 12
1.0
 22
0.0
 32
0.0
 13
1.0
 23
0.0
 33
0.0
 40
0.0
 40
0.0
 40
0.0
 40
0.0
 40
1.0
 40
1.0
 40
1.0
 40
1.0
 10
78.81446937816426
 20
-107.0542619176809
 30
0.0
 10
78.39416994444255
 20
-107.0542619176809
 30
0.0
 10
78.0186732873556
 20
-107.3174694176152
 30
0.0
 10
77.87498886942001
 20
-107.7122983064054
 30
0.0
  0
POLYLINE
  5
135
330
1F
100
AcDbEntity
  8
_U+30EC_U+30A4_U+30E4_U+30FC 1
 62
   179
420
  2234388
370
    25
100
AcDb2dPolyline
 66
     1
 10
0.0
 20
0.0
 30
0.0
  0
VERTEX
  5
136
330
135
100
AcDbEntity
  8
_U+30EC_U+30A4_U+30E4_U+30FC 1
 62
   179
420
  2234388
370
    25
100
AcDbVertex
100
AcDb2dVertex
 10
111.5404635432546
 20
-107.0542619176809
 30
0.0
  0
VERTEX
  5
13E
330
135
100
AcDbEntity
  8
0
100
AcDbVertex
100
AcDb2dVertex
 10
111.5404635432546
 20
-107.0542619176809
 30
0.0
  0
SEQEND
  5
137
330
135
100
AcDbEntity
  8
_U+30EC_U+30A4_U+30E4_U+30FC 1
 62
   179
420
  2234388
370
    25
  0
POLYLINE
  5
138
330
1F
100
AcDbEntity
  8
_U+30EC_U+30A4_U+30E4_U+30FC 1
 62
   179
420
  2234388
370
    25
100
AcDb2dPolyline
 66
     1
 10
0.0
 20
0.0
 30
0.0
  0
VERTEX
  5
139
330
138
100
AcDbEntity
  8
_U+30EC_U+30A4_U+30E4_U+30FC 1
 62
   179
420
  2234388
370
    25
100
AcDbVertex
100
AcDb2dVertex
 10
112.4802987970552
 20
-107.7122983064054
 30
0.0
  0
VERTEX
  5
13A
330
138
100
AcDbEntity
  8
_U+30EC_U+30A4_U+30E4_U+30FC 1
 62
   179
420
  2234388
370
    25
100
AcDbVertex
100
AcDb2dVertex
 10
112.6773604586944
 20
-108.2545530284919
 30
0.0
  0
SEQEND
  5
13B
330
138
100
AcDbEntity
  8
_U+30EC_U+30A4_U+30E4_U+30FC 1
 62
   179
420
  2234388
370
    25
  0
SPLINE
  5
13C
330
1F
100
AcDbEntity
  8
_U+30EC_U+30A4_U+30E4_U+30FC 1
 62
   179
420
  2234388
370
    25
100
AcDbSpline
210
0.0
220
0.0
230
1.0
 70
     8
 71
     3
 72
     8
 73
     4
 74
     0
 42
0.0000000001
 43
0.0000000001
 12
1.0
 22
0.0
 32
0.0
 13
1.0
 23
0.0
 33
0.0
 40
0.0
 40
0.0
 40
0.0
 40
0.0
 40
1.0
 40
1.0
 40
1.0
 40
1.0
 10
112.4802987970552
 20
-107.7122983064054
 30
0.0
 10
112.3362949118401
 20
-107.3174694176152
 30
0.0
 10
111.9607629769763
 20
-107.0542619176809
 30
0.0
 10
111.5404635432546
 20
-107.0542619176809
 30
0.0
  0
ENDSEC
  0
SECTION
  2
OBJECTS
  0
DICTIONARY
  5
C
330
0
100
AcDbDictionary
281
     1
  3
ACAD_GROUP
350
D
  3
ACAD_LAYOUT
350
1A
  3
ACAD_MATERIAL
350
3B
  3
ACAD_MLEADERSTYLE
350
140
  3
ACAD_MLINESTYLE
350
17
  3
ACAD_PLOTSETTINGS
350
19
  3
ACAD_PLOTSTYLENAME
350
E
  3
ACAD_TABLESTYLE
350
13F
  3
ACAD_VISUALSTYLE
350
2A
  0
SUN
  5
3F
330
29
100
AcDbSun
 90
        1
290
     0
 63
     7
421
 16777215
 40
1.0
291
     1
 91
  2455826
 92
 54000000
292
     0
 70
     2
 71
   256
280
     1
  0
DICTIONARY
  5
D
102
{ACAD_REACTORS
330
C
102
}
330
C
100
AcDbDictionary
281
     1
  0
DICTIONARY
  5
1A
102
{ACAD_REACTORS
330
C
102
}
330
C
100
AcDbDictionary
281
     1
  3
Layout1
350
1E
  3
Layout2
350
26
  3
Model
350
22
  0
DICTIONARY
  5
3B
102
{ACAD_REACTORS
330
C
102
}
330
C
100
AcDbDictionary
281
     1
  3
ByBlock
350
3D
  3
ByLayer
350
3C
  3
Global
350
3E
  0
DICTIONARY
  5
140
102
{ACAD_REACTORS
330
C
102
}
330
C
100
AcDbDictionary
281
     1
  0
DICTIONARY
  5
17
102
{ACAD_REACTORS
330
C
102
}
330
C
100
AcDbDictionary
281
     1
  3
Standard
350
18
  0
DICTIONARY
  5
19
102
{ACAD_REACTORS
330
C
102
}
330
C
100
AcDbDictionary
281
     1
  0
ACDBDICTIONARYWDFLT
  5
E
102
{ACAD_REACTORS
330
C
102
}
330
C
100
AcDbDictionary
281
     1
  3
Normal
350
F
100
AcDbDictionaryWithDefault
340
F
  0
DICTIONARY
  5
13F
102
{ACAD_REACTORS
330
C
102
}
330
C
100
AcDbDictionary
281
     1
  0
DICTIONARY
  5
2A
102
{ACAD_REACTORS
330
C
102
}
330
C
100
AcDbDictionary
281
     1
  3
2dWireframe
350
2F
  3
3D Hidden
350
31
  3
3dWireframe
350
30
  3
Basic
350
32
  3
Brighten
350
36
  3
ColorChange
350
3A
  3
Conceptual
350
34
  3
Dim
350
35
  3
Facepattern
350
39
  3
Flat
350
2B
  3
FlatWithEdges
350
2C
  3
Gouraud
350
2D
  3
GouraudWithEdges
350
2E
  3
Linepattern
350
38
  3
Realistic
350
33
  3
Thicken
350
37
  0
LAYOUT
  5
1E
102
{ACAD_REACTORS
330
1A
102
}
330
1A
100
AcDbPlotSettings
  1

  2
none_device
  4

  6

 40
0.0
 41
0.0
 42
0.0
 43
0.0
 44
0.0
 45
0.0
 46
0.0
 47
0.0
 48
0.0
 49
0.0
140
0.0
141
0.0
142
1.0
143
1.0
 70
   688
 72
     0
 73
     0
 74
     5
  7

 75
    16
 76
     0
 77
     2
 78
   300
147
1.0
148
0.0
149
0.0
100
AcDbLayout
  1
Layout1
 70
     1
 71
     1
 10
0.0
 20
0.0
 11
12.0
 21
9.0
 12
0.0
 22
0.0
 32
0.0
 14
1.000000000000000E+20
 24
1.000000000000000E+20
 34
1.000000000000000E+20
 15
-1.000000000000000E+20
 25
-1.000000000000000E+20
 35
-1.000000000000000E+20
146
0.0
 13
0.0
 23
0.0
 33
0.0
 16
1.0
 26
0.0
 36
0.0
 17
0.0
 27
1.0
 37
0.0
 76
     0
330
1B
  0
LAYOUT
  5
26
102
{ACAD_REACTORS
330
1A
102
}
330
1A
100
AcDbPlotSettings
  1

  2
none_device
  4

  6

 40
0.0
 41
0.0
 42
0.0
 43
0.0
 44
0.0
 45
0.0
 46
0.0
 47
0.0
 48
0.0
 49
0.0
140
0.0
141
0.0
142
1.0
143
1.0
 70
   688
 72
     0
 73
     0
 74
     5
  7

 75
    16
 76
     0
 77
     2
 78
   300
147
1.0
148
0.0
149
0.0
100
AcDbLayout
  1
Layout2
 70
     1
 71
     2
 10
0.0
 20
0.0
 11
0.0
 21
0.0
 12
0.0
 22
0.0
 32
0.0
 14
0.0
 24
0.0
 34
0.0
 15
0.0
 25
0.0
 35
0.0
146
0.0
 13
0.0
 23
0.0
 33
0.0
 16
1.0
 26
0.0
 36
0.0
 17
0.0
 27
1.0
 37
0.0
 76
     0
330
23
  0
LAYOUT
  5
22
102
{ACAD_REACTORS
330
1A
102
}
330
1A
100
AcDbPlotSettings
  1

  2
none_device
  4

  6

 40
0.0
 41
0.0
 42
0.0
 43
0.0
 44
0.0
 45
0.0
 46
0.0
 47
0.0
 48
0.0
 49
0.0
140
0.0
141
0.0
142
1.0
143
1.0
 70
  1712
 72
     0
 73
     0
 74
     0
  7

 75
     0
 76
     0
 77
     2
 78
   300
147
1.0
148
0.0
149
0.0
100
AcDbLayout
  1
Model
 70
     1
 71
     0
 10
0.0
 20
0.0
 11
12.0
 21
9.0
 12
0.0
 22
0.0
 32
0.0
 14
1.000000000000000E+20
 24
1.000000000000000E+20
 34
1.000000000000000E+20
 15
-1.000000000000000E+20
 25
-1.000000000000000E+20
 35
-1.000000000000000E+20
146
0.0
 13
0.0
 23
0.0
 33
0.0
 16
1.0
 26
0.0
 36
0.0
 17
0.0
 27
1.0
 37
0.0
 76
     0
330
1F
331
29
  0
MATERIAL
  5
3D
102
{ACAD_REACTORS
330
3B
102
}
330
3B
100
AcDbMaterial
  1
ByBlock
 72
     1
 94
      127
  0
MATERIAL
  5
3C
102
{ACAD_REACTORS
330
3B
102
}
330
3B
100
AcDbMaterial
  1
ByLayer
 72
     1
 94
      127
  0
MATERIAL
  5
3E
102
{ACAD_REACTORS
330
3B
102
}
330
3B
100
AcDbMaterial
  1
Global
 72
     1
 94
      127
  0
MLINESTYLE
  5
18
102
{ACAD_REACTORS
330
17
102
}
330
17
100
AcDbMlineStyle
  2
Standard
 70
     0
  3

 62
   256
 51
90.0
 52
90.0
 71
     2
 49
0.5
 62
   256
  6
BYLAYER
 49
-0.5
 62
   256
  6
BYLAYER
  0
ACDBPLACEHOLDER
  5
F
102
{ACAD_REACTORS
330
E
102
}
330
E
  0
VISUALSTYLE
  5
2F
102
{ACAD_REACTORS
330
2A
102
}
330
2A
100
AcDbVisualStyle
  2
2dWireframe
 70
     4
177
     2
291
     0
 71
     0
176
     1
 72
     2
176
     1
 73
     0
176
     1
 90
        0
176
     1
 40
-0.6
176
     1
 41
-30.0
176
     1
 62
     5
 63
     7
421
 16777215
176
     1
 74
     1
176
     1
 91
        4
176
     1
 64
     7
176
     1
 65
   257
176
     1
 75
     1
176
     1
175
     1
176
     1
 42
1.0
176
     1
 92
        0
176
     1
 66
   257
176
     1
 43
1.0
176
     1
 76
     1
176
     1
 77
     6
176
     1
 78
     2
176
     1
 67
     7
176
     1
 79
     5
176
     1
170
     0
176
     1
171
     0
176
     1
290
     0
176
     1
 93
        1
176
     1
 44
0.0
176
     1
173
     0
176
     1
  0
VISUALSTYLE
  5
31
102
{ACAD_REACTORS
330
2A
102
}
330
2A
100
AcDbVisualStyle
  2
3D Hidden
 70
     6
177
     2
291
     0
 71
     1
176
     1
 72
     2
176
     1
 73
     2
176
     1
 90
        0
176
     1
 40
-0.6
176
     1
 41
-30.0
176
     1
 62
     5
 63
     7
421
 16777215
176
     1
 74
     2
176
     1
 91
        2
176
     1
 64
     7
176
     1
 65
   257
176
     1
 75
     2
176
     1
175
     1
176
     1
 42
40.0
176
     1
 92
        0
176
     1
 66
   257
176
     1
 43
1.0
176
     1
 76
     1
176
     1
 77
     6
176
     1
 78
     2
176
     1
 67
     7
176
     1
 79
     3
176
     1
170
     0
176
     1
171
     0
176
     1
290
     0
176
     1
 93
        1
176
     1
 44
0.0
176
     1
173
     0
176
     1
  0
VISUALSTYLE
  5
30
102
{ACAD_REACTORS
330
2A
102
}
330
2A
100
AcDbVisualStyle
  2
3dWireframe
 70
     5
177
     2
291
     0
 71
     0
176
     1
 72
     2
176
     1
 73
     0
176
     1
 90
        0
176
     1
 40
-0.6
176
     1
 41
-30.0
176
     1
 62
     5
 63
     7
421
 16777215
176
     1
 74
     1
176
     1
 91
        4
176
     1
 64
     7
176
     1
 65
   257
176
     1
 75
     1
176
     1
175
     1
176
     1
 42
1.0
176
     1
 92
        0
176
     1
 66
   257
176
     1
 43
1.0
176
     1
 76
     1
176
     1
 77
     6
176
     1
 78
     2
176
     1
 67
     7
176
     1
 79
     5
176
     1
170
     0
176
     1
171
     0
176
     1
290
     0
176
     1
 93
        1
176
     1
 44
0.0
176
     1
173
     0
176
     1
  0
VISUALSTYLE
  5
32
102
{ACAD_REACTORS
330
2A
102
}
330
2A
100
AcDbVisualStyle
  2
Basic
 70
     7
177
     2
291
     1
 71
     1
176
     1
 72
     0
176
     1
 73
     1
176
     1
 90
        0
176
     1
 40
-0.6
176
     1
 41
-30.0
176
     1
 62
     5
 63
     7
421
 16777215
176
     1
 74
     0
176
     1
 91
        4
176
     1
 64
     7
176
     1
 65
   257
176
     1
 75
     1
176
     1
175
     1
176
     1
 42
1.0
176
     1
 92
        8
176
     1
 66
     7
176
     1
 43
1.0
176
     1
 76
     1
176
     1
 77
     6
176
     1
 78
     2
176
     1
 67
     7
176
     1
 79
     5
176
     1
170
     0
176
     1
171
     0
176
     1
290
     0
176
     1
 93
        1
176
     1
 44
0.0
176
     1
173
     0
176
     1
  0
VISUALSTYLE
  5
36
102
{ACAD_REACTORS
330
2A
102
}
330
2A
100
AcDbVisualStyle
  2
Brighten
 70
    12
177
     2
291
     1
 71
     2
176
     1
 72
     2
176
     1
 73
     0
176
     1
 90
        0
176
     1
 40
-0.6
176
     1
 41
-30.0
176
     1
 62
     5
 63
     7
421
 16777215
176
     1
 74
     1
176
     1
 91
        4
176
     1
 64
     7
176
     1
 65
   257
176
     1
 75
     1
176
     1
175
     1
176
     1
 42
1.0
176
     1
 92
        8
176
     1
 66
     7
176
     1
 43
1.0
176
     1
 76
     1
176
     1
 77
     6
176
     1
 78
     2
176
     1
 67
     7
176
     1
 79
     5
176
     1
170
     0
176
     1
171
     0
176
     1
290
     0
176
     1
 93
        1
176
     1
 44
50.0
176
     1
173
     0
176
     1
  0
VISUALSTYLE
  5
3A
102
{ACAD_REACTORS
330
2A
102
}
330
2A
100
AcDbVisualStyle
  2
ColorChange
 70
    16
177
     2
291
     1
 71
     2
176
     1
 72
     2
176
     1
 73
     3
176
     1
 90
        0
176
     1
 40
-0.6
176
     1
 41
-30.0
176
     1
 62
     5
 63
     8
421
  8421504
176
     1
 74
     1
176
     1
 91
        4
176
     1
 64
     7
176
     1
 65
   257
176
     1
 75
     1
176
     1
175
     1
176
     1
 42
1.0
176
     1
 92
        8
176
     1
 66
     8
424
  8421504
176
     1
 43
1.0
176
     1
 76
     1
176
     1
 77
     6
176
     1
 78
     2
176
     1
 67
     7
176
     1
 79
     5
176
     1
170
     0
176
     1
171
     0
176
     1
290
     0
176
     1
 93
        1
176
     1
 44
0.0
176
     1
173
     0
176
     1
  0
VISUALSTYLE
  5
34
102
{ACAD_REACTORS
330
2A
102
}
330
2A
100
AcDbVisualStyle
  2
Conceptual
 70
     9
177
     2
291
     0
 71
     3
176
     1
 72
     2
176
     1
 73
     0
176
     1
 90
        0
176
     1
 40
-0.6
176
     1
 41
-30.0
176
     1
 62
     5
 63
     7
421
 16777215
176
     1
 74
     2
176
     1
 91
        2
176
     1
 64
     7
176
     1
 65
   257
176
     1
 75
     1
176
     1
175
     1
176
     1
 42
40.0
176
     1
 92
        8
176
     1
 66
     7
176
     1
 43
1.0
176
     1
 76
     1
176
     1
 77
     6
176
     1
 78
     2
176
     1
 67
     7
176
     1
 79
     3
176
     1
170
     0
176
     1
171
     0
176
     1
290
     0
176
     1
 93
        1
176
     1
 44
0.0
176
     1
173
     0
176
     1
  0
VISUALSTYLE
  5
35
102
{ACAD_REACTORS
330
2A
102
}
330
2A
100
AcDbVisualStyle
  2
Dim
 70
    11
177
     2
291
     1
 71
     2
176
     1
 72
     2
176
     1
 73
     0
176
     1
 90
        0
176
     1
 40
-0.6
176
     1
 41
-30.0
176
     1
 62
     5
 63
     7
421
 16777215
176
     1
 74
     1
176
     1
 91
        4
176
     1
 64
     7
176
     1
 65
   257
176
     1
 75
     1
176
     1
175
     1
176
     1
 42
1.0
176
     1
 92
        8
176
     1
 66
     7
176
     1
 43
1.0
176
     1
 76
     1
176
     1
 77
     6
176
     1
 78
     2
176
     1
 67
     7
176
     1
 79
     5
176
     1
170
     0
176
     1
171
     0
176
     1
290
     0
176
     1
 93
        1
176
     1
 44
-50.0
176
     1
173
     0
176
     1
  0
VISUALSTYLE
  5
39
102
{ACAD_REACTORS
330
2A
102
}
330
2A
100
AcDbVisualStyle
  2
Facepattern
 70
    15
177
     2
291
     1
 71
     2
176
     1
 72
     2
176
     1
 73
     0
176
     1
 90
        0
176
     1
 40
-0.6
176
     1
 41
-30.0
176
     1
 62
     5
 63
     7
421
 16777215
176
     1
 74
     1
176
     1
 91
        4
176
     1
 64
     7
176
     1
 65
   257
176
     1
 75
     1
176
     1
175
     1
176
     1
 42
1.0
176
     1
 92
        8
176
     1
 66
     7
176
     1
 43
1.0
176
     1
 76
     1
176
     1
 77
     6
176
     1
 78
     2
176
     1
 67
     7
176
     1
 79
     5
176
     1
170
     0
176
     1
171
     0
176
     1
290
     0
176
     1
 93
        1
176
     1
 44
0.0
176
     1
173
     0
176
     1
  0
VISUALSTYLE
  5
2B
102
{ACAD_REACTORS
330
2A
102
}
330
2A
100
AcDbVisualStyle
  2
Flat
 70
     0
177
     2
291
     1
 71
     2
176
     1
 72
     1
176
     1
 73
     1
176
     1
 90
        2
176
     1
 40
-0.6
176
     1
 41
30.0
176
     1
 62
     5
 63
     7
421
 16777215
176
     1
 74
     0
176
     1
 91
        4
176
     1
 64
     7
176
     1
 65
   257
176
     1
 75
     1
176
     1
175
     1
176
     1
 42
1.0
176
     1
 92
        8
176
     1
 66
     7
176
     1
 43
1.0
176
     1
 76
     1
176
     1
 77
     6
176
     1
 78
     2
176
     1
 67
     7
176
     1
 79
     5
176
     1
170
     0
176
     1
171
     0
176
     1
290
     0
176
     1
 93
       13
176
     1
 44
0.0
176
     1
173
     0
176
     1
  0
VISUALSTYLE
  5
2C
102
{ACAD_REACTORS
330
2A
102
}
330
2A
100
AcDbVisualStyle
  2
FlatWithEdges
 70
     1
177
     2
291
     1
 71
     2
176
     1
 72
     1
176
     1
 73
     1
176
     1
 90
        2
176
     1
 40
-0.6
176
     1
 41
30.0
176
     1
 62
     5
 63
     7
421
 16777215
176
     1
 74
     1
176
     1
 91
        4
176
     1
 64
     7
176
     1
 65
   257
176
     1
 75
     1
176
     1
175
     1
176
     1
 42
1.0
176
     1
 92
        0
176
     1
 66
   257
176
     1
 43
1.0
176
     1
 76
     1
176
     1
 77
     6
176
     1
 78
     2
176
     1
 67
     7
176
     1
 79
     5
176
     1
170
     0
176
     1
171
     0
176
     1
290
     0
176
     1
 93
       13
176
     1
 44
0.0
176
     1
173
     0
176
     1
  0
VISUALSTYLE
  5
2D
102
{ACAD_REACTORS
330
2A
102
}
330
2A
100
AcDbVisualStyle
  2
Gouraud
 70
     2
177
     2
291
     1
 71
     2
176
     1
 72
     2
176
     1
 73
     1
176
     1
 90
        2
176
     1
 40
-0.6
176
     1
 41
30.0
176
     1
 62
     5
 63
     7
421
 16777215
176
     1
 74
     0
176
     1
 91
        4
176
     1
 64
     7
176
     1
 65
   257
176
     1
 75
     1
176
     1
175
     1
176
     1
 42
1.0
176
     1
 92
        0
176
     1
 66
     7
176
     1
 43
1.0
176
     1
 76
     1
176
     1
 77
     6
176
     1
 78
     2
176
     1
 67
     7
176
     1
 79
     5
176
     1
170
     0
176
     1
171
     0
176
     1
290
     0
176
     1
 93
       13
176
     1
 44
0.0
176
     1
173
     0
176
     1
  0
VISUALSTYLE
  5
2E
102
{ACAD_REACTORS
330
2A
102
}
330
2A
100
AcDbVisualStyle
  2
GouraudWithEdges
 70
     3
177
     2
291
     1
 71
     2
176
     1
 72
     2
176
     1
 73
     1
176
     1
 90
        2
176
     1
 40
-0.6
176
     1
 41
30.0
176
     1
 62
     5
 63
     7
421
 16777215
176
     1
 74
     1
176
     1
 91
        4
176
     1
 64
     7
176
     1
 65
   257
176
     1
 75
     1
176
     1
175
     1
176
     1
 42
1.0
176
     1
 92
        0
176
     1
 66
   257
176
     1
 43
1.0
176
     1
 76
     1
176
     1
 77
     6
176
     1
 78
     2
176
     1
 67
     7
176
     1
 79
     5
176
     1
170
     0
176
     1
171
     0
176
     1
290
     0
176
     1
 93
       13
176
     1
 44
0.0
176
     1
173
     0
176
     1
  0
VISUALSTYLE
  5
38
102
{ACAD_REACTORS
330
2A
102
}
330
2A
100
AcDbVisualStyle
  2
Linepattern
 70
    14
177
     2
291
     1
 71
     2
176
     1
 72
     2
176
     1
 73
     0
176
     1
 90
        0
176
     1
 40
-0.6
176
     1
 41
-30.0
176
     1
 62
     5
 63
     7
421
 16777215
176
     1
 74
     1
176
     1
 91
        4
176
     1
 64
     7
176
     1
 65
   257
176
     1
 75
     7
176
     1
175
     7
176
     1
 42
1.0
176
     1
 92
        8
176
     1
 66
     7
176
     1
 43
1.0
176
     1
 76
     1
176
     1
 77
     6
176
     1
 78
     2
176
     1
 67
     7
176
     1
 79
     5
176
     1
170
     0
176
     1
171
     0
176
     1
290
     0
176
     1
 93
        1
176
     1
 44
0.0
176
     1
173
     0
176
     1
  0
VISUALSTYLE
  5
33
102
{ACAD_REACTORS
330
2A
102
}
330
2A
100
AcDbVisualStyle
  2
Realistic
 70
     8
177
     2
291
     0
 71
     2
176
     1
 72
     2
176
     1
 73
     0
176
     1
 90
        0
176
     1
 40
-0.6
176
     1
 41
-30.0
176
     1
 62
     5
 63
     7
421
 16777215
176
     1
 74
     1
176
     1
 91
        0
176
     1
 64
     7
176
     1
 65
   257
176
     1
 75
     1
176
     1
175
     1
176
     1
 42
1.0
176
     1
 92
        8
176
     1
 66
     8
424
  7895160
176
     1
 43
1.0
176
     1
 76
     1
176
     1
 77
     6
176
     1
 78
     2
176
     1
 67
     7
176
     1
 79
     5
176
     1
170
     0
176
     1
171
     0
176
     1
290
     0
176
     1
 93
       13
176
     1
 44
0.0
176
     1
173
     0
176
     1
  0
VISUALSTYLE
  5
37
102
{ACAD_REACTORS
330
2A
102
}
330
2A
100
AcDbVisualStyle
  2
Thicken
 70
    13
177
     2
291
     1
 71
     2
176
     1
 72
     2
176
     1
 73
     0
176
     1
 90
        0
176
     1
 40
-0.6
176
     1
 41
-30.0
176
     1
 62
     5
 63
     7
421
 16777215
176
     1
 74
     1
176
     1
 91
        4
176
     1
 64
     7
176
     1
 65
   257
176
     1
 75
     1
176
     1
175
     1
176
     1
 42
1.0
176
     1
 92
       12
176
     1
 66
     7
176
     1
 43
1.0
176
     1
 76
     1
176
     1
 77
     6
176
     1
 78
     2
176
     1
 67
     7
176
     1
 79
     5
176
     1
170
     0
176
     1
171
     0
176
     1
290
     0
176
     1
 93
        1
176
     1
 44
0.0
176
     1
173
     0
176
     1
  0
ENDSEC
  0
EOF
