  0
SECTION
  2
HEADER
  9
$ACADVER
  1
AC1024
  9
$ACADMAINTVER
 70
     6
  9
$DWGCODEPAGE
  3
UNDEFINED
  9
$INSBASE
 10
0.0
 20
0.0
 30
0.0
  9
$EXTMIN
 10
1.000000000000000E+20
 20
1.000000000000000E+20
 30
1.000000000000000E+20
  9
$EXTMAX
 10
-1.000000000000000E+20
 20
-1.000000000000000E+20
 30
-1.000000000000000E+20
  9
$LIMMIN
 10
0.0
 20
0.0
  9
$LIMMAX
 10
12.0
 20
9.0
  9
$ORTHOMODE
 70
     0
  9
$REGENMODE
 70
     1
  9
$FILLMODE
 70
     1
  9
$QTEXTMODE
 70
     0
  9
$MIRRTEXT
 70
     1
  9
$LTSCALE
 40
1.0
  9
$ATTMODE
 70
     1
  9
$TEXTSIZE
 40
0.2
  9
$TRACEWID
 40
0.05
  9
$TEXTSTYLE
  7
Standard
  9
$CLAYER
  8
0
  9
$CELTYPE
  6
ByLayer
  9
$CECOLOR
 62
   256
  9
$CELTSCALE
 40
1.0
  9
$DISPSILH
 70
     0
  9
$DIMSCALE
 40
1.0
  9
$DIMASZ
 40
0.18
  9
$DIMEXO
 40
0.0625
  9
$DIMDLI
 40
0.38
  9
$DIMRND
 40
0.0
  9
$DIMDLE
 40
0.0
  9
$DIMEXE
 40
0.18
  9
$DIMTP
 40
0.0
  9
$DIMTM
 40
0.0
  9
$DIMTXT
 40
0.18
  9
$DIMCEN
 40
0.09
  9
$DIMTSZ
 40
0.0
  9
$DIMTOL
 70
     0
  9
$DIMLIM
 70
     0
  9
$DIMTIH
 70
     1
  9
$DIMTOH
 70
     1
  9
$DIMSE1
 70
     0
  9
$DIMSE2
 70
     0
  9
$DIMTAD
 70
     0
  9
$DIMZIN
 70
     0
  9
$DIMBLK
  1

  9
$DIMASO
 70
     1
  9
$DIMSHO
 70
     1
  9
$DIMPOST
  1

  9
$DIMAPOST
  1

  9
$DIMALT
 70
     0
  9
$DIMALTD
 70
     2
  9
$DIMALTF
 40
25.4
  9
$DIMLFAC
 40
1.0
  9
$DIMTOFL
 70
     0
  9
$DIMTVP
 40
0.0
  9
$DIMTIX
 70
     0
  9
$DIMSOXD
 70
     0
  9
$DIMSAH
 70
     0
  9
$DIMBLK1
  1

  9
$DIMBLK2
  1

  9
$DIMSTYLE
  2
Standard
  9
$DIMCLRD
 70
     0
  9
$DIMCLRE
 70
     0
  9
$DIMCLRT
 70
     0
  9
$DIMTFAC
 40
1.0
  9
$DIMGAP
 40
0.09
  9
$DIMJUST
 70
     0
  9
$DIMSD1
 70
     0
  9
$DIMSD2
 70
     0
  9
$DIMTOLJ
 70
     1
  9
$DIMTZIN
 70
     0
  9
$DIMALTZ
 70
     0
  9
$DIMALTTZ
 70
     0
  9
$DIMUPT
 70
     0
  9
$DIMDEC
 70
     4
  9
$DIMTDEC
 70
     4
  9
$DIMALTU
 70
     2
  9
$DIMALTTD
 70
     2
  9
$DIMTXSTY
  7
Standard
  9
$DIMAUNIT
 70
     0
  9
$DIMADEC
 70
     0
  9
$DIMALTRND
 40
0.0
  9
$DIMAZIN
 70
     0
  9
$DIMDSEP
 70
    46
  9
$DIMATFIT
 70
     3
  9
$DIMFRAC
 70
     0
  9
$DIMLDRBLK
  1

  9
$DIMLUNIT
 70
     2
  9
$DIMLWD
 70
    -2
  9
$DIMLWE
 70
    -2
  9
$DIMTMOVE
 70
     0
  9
$DIMFXL
 40
1.0
  9
$DIMFXLON
 70
     0
  9
$DIMJOGANG
 40
0.7853981633974483
  9
$DIMTFILL
 70
     0
  9
$DIMTFILLCLR
 70
     0
  9
$DIMARCSYM
 70
     0
  9
$DIMLTYPE
  6

  9
$DIMLTEX1
  6

  9
$DIMLTEX2
  6

  9
$DIMTXTDIRECTION
 70
     0
  9
$LUNITS
 70
     2
  9
$LUPREC
 70
     4
  9
$SKETCHINC
 40
0.1
  9
$FILLETRAD
 40
0.5
  9
$AUNITS
 70
     0
  9
$AUPREC
 70
     0
  9
$MENU
  1
.
  9
$ELEVATION
 40
0.0
  9
$PELEVATION
 40
0.0
  9
$THICKNESS
 40
0.0
  9
$LIMCHECK
 70
     0
  9
$CHAMFERA
 40
0.5
  9
$CHAMFERB
 40
0.5
  9
$CHAMFERC
 40
1.0
  9
$CHAMFERD
 40
0.0
  9
$SKPOLY
 70
     0
  9
$TDCREATE
 40
2457917.6259375
  9
$TDUCREATE
 40
2457917.2509375
  9
$TDUPDATE
 40
2457917.6259375
  9
$TDUUPDATE
 40
2457917.2509375
  9
$TDINDWG
 40
0.0000000116
  9
$TDUSRTIMER
 40
0.0000000116
  9
$USRTIMER
 70
     1
  9
$ANGBASE
 50
0.0
  9
$ANGDIR
 70
     0
  9
$PDMODE
 70
     0
  9
$PDSIZE
 40
0.0
  9
$PLINEWID
 40
0.0
  9
$SPLFRAME
 70
     0
  9
$SPLINETYPE
 70
     6
  9
$SPLINESEGS
 70
     8
  9
$HANDSEED
  5
C1
  9
$SURFTAB1
 70
     6
  9
$SURFTAB2
 70
     6
  9
$SURFTYPE
 70
     6
  9
$SURFU
 70
     6
  9
$SURFV
 70
     6
  9
$UCSBASE
  2

  9
$UCSNAME
  2

  9
$UCSORG
 10
0.0
 20
0.0
 30
0.0
  9
$UCSXDIR
 10
1.0
 20
0.0
 30
0.0
  9
$UCSYDIR
 10
0.0
 20
1.0
 30
0.0
  9
$UCSORTHOREF
  2

  9
$UCSORTHOVIEW
 70
     0
  9
$UCSORGTOP
 10
0.0
 20
0.0
 30
0.0
  9
$UCSORGBOTTOM
 10
0.0
 20
0.0
 30
0.0
  9
$UCSORGLEFT
 10
0.0
 20
0.0
 30
0.0
  9
$UCSORGRIGHT
 10
0.0
 20
0.0
 30
0.0
  9
$UCSORGFRONT
 10
0.0
 20
0.0
 30
0.0
  9
$UCSORGBACK
 10
0.0
 20
0.0
 30
0.0
  9
$PUCSBASE
  2

  9
$PUCSNAME
  2

  9
$PUCSORG
 10
0.0
 20
0.0
 30
0.0
  9
$PUCSXDIR
 10
1.0
 20
0.0
 30
0.0
  9
$PUCSYDIR
 10
0.0
 20
1.0
 30
0.0
  9
$PUCSORTHOREF
  2

  9
$PUCSORTHOVIEW
 70
     0
  9
$PUCSORGTOP
 10
0.0
 20
0.0
 30
0.0
  9
$PUCSORGBOTTOM
 10
0.0
 20
0.0
 30
0.0
  9
$PUCSORGLEFT
 10
0.0
 20
0.0
 30
0.0
  9
$PUCSORGRIGHT
 10
0.0
 20
0.0
 30
0.0
  9
$PUCSORGFRONT
 10
0.0
 20
0.0
 30
0.0
  9
$PUCSORGBACK
 10
0.0
 20
0.0
 30
0.0
  9
$USERI1
 70
     0
  9
$USERI2
 70
     0
  9
$USERI3
 70
     0
  9
$USERI4
 70
     0
  9
$USERI5
 70
     0
  9
$USERR1
 40
0.0
  9
$USERR2
 40
0.0
  9
$USERR3
 40
0.0
  9
$USERR4
 40
0.0
  9
$USERR5
 40
0.0
  9
$WORLDVIEW
 70
     1
  9
$SHADEDGE
 70
     3
  9
$SHADEDIF
 70
    70
  9
$TILEMODE
 70
     1
  9
$MAXACTVP
 70
    64
  9
$PINSBASE
 10
0.0
 20
0.0
 30
0.0
  9
$PLIMCHECK
 70
     0
  9
$PEXTMIN
 10
1.000000000000000E+20
 20
1.000000000000000E+20
 30
1.000000000000000E+20
  9
$PEXTMAX
 10
-1.000000000000000E+20
 20
-1.000000000000000E+20
 30
-1.000000000000000E+20
  9
$PLIMMIN
 10
0.0
 20
0.0
  9
$PLIMMAX
 10
12.0
 20
9.0
  9
$UNITMODE
 70
     0
  9
$VISRETAIN
 70
     1
  9
$PLINEGEN
 70
     0
  9
$PSLTSCALE
 70
     1
  9
$TREEDEPTH
 70
  3020
  9
$CMLSTYLE
  2
Standard
  9
$CMLJUST
 70
     0
  9
$CMLSCALE
 40
1.0
  9
$PROXYGRAPHICS
 70
     1
  9
$MEASUREMENT
 70
     0
  9
$CELWEIGHT
370
    -1
  9
$ENDCAPS
280
     0
  9
$JOINSTYLE
280
     0
  9
$LWDISPLAY
290
     1
  9
$INSUNITS
 70
     1
  9
$HYPERLINKBASE
  1

  9
$STYLESHEET
  1

  9
$XEDIT
290
     1
  9
$CEPSNTYPE
380
     0
  9
$PSTYLEMODE
290
     1
  9
$FINGERPRINTGUID
  2
{19FE0532-5A85-4667-E37C-F08495A6C995}
  9
$VERSIONGUID
  2
{FAEB1C32-E019-11D5-929B-00C0DF256EC4}
  9
$EXTNAMES
290
     1
  9
$PSVPSCALE
 40
0.0
  9
$OLESTARTUP
290
     0
  9
$SORTENTS
280
   127
  9
$INDEXCTL
280
     0
  9
$HIDETEXT
280
     1
  9
$XCLIPFRAME
280
     2
  9
$HALOGAP
280
     0
  9
$OBSCOLOR
 70
   257
  9
$OBSLTYPE
280
     0
  9
$INTERSECTIONDISPLAY
280
     0
  9
$INTERSECTIONCOLOR
 70
   257
  9
$DIMASSOC
280
     2
  9
$PROJECTNAME
  1

  9
$CAMERADISPLAY
290
     0
  9
$LENSLENGTH
 40
50.0
  9
$CAMERAHEIGHT
 40
0.0
  9
$STEPSPERSEC
 40
2.0
  9
$STEPSIZE
 40
6.0
  9
$3DDWFPREC
 40
2.0
  9
$PSOLWIDTH
 40
0.25
  9
$PSOLHEIGHT
 40
4.0
  9
$LOFTANG1
 40
1.570796326794897
  9
$LOFTANG2
 40
1.570796326794897
  9
$LOFTMAG1
 40
0.0
  9
$LOFTMAG2
 40
0.0
  9
$LOFTPARAM
 70
     7
  9
$LOFTNORMALS
280
     1
  9
$LATITUDE
 40
37.795
  9
$LONGITUDE
 40
-122.394
  9
$NORTHDIRECTION
 40
0.0
  9
$TIMEZONE
 70
 -8000
  9
$LIGHTGLYPHDISPLAY
280
     1
  9
$TILEMODELIGHTSYNCH
280
     1
  9
$CMATERIAL
347
3C
  9
$SOLIDHIST
280
     1
  9
$SHOWHIST
280
     1
  9
$DWFFRAME
280
     2
  9
$DGNFRAME
280
     2
  9
$REALWORLDSCALE
290
     1
  9
$INTERFERECOLOR
 62
   256
  9
$CSHADOW
280
     0
  9
$SHADOWPLANELOCATION
 40
0.0
  0
ENDSEC
  0
SECTION
  2
CLASSES
  0
CLASS
  1
ACDBDICTIONARYWDFLT
  2
AcDbDictionaryWithDefault
  3
ObjectDBX Classes
 90
        0
 91
        4
280
     0
281
     0
  0
CLASS
  1
VISUALSTYLE
  2
AcDbVisualStyle
  3
ObjectDBX Classes
 90
     4095
 91
        4
280
     0
281
     0
  0
CLASS
  1
MATERIAL
  2
AcDbMaterial
  3
ObjectDBX Classes
 90
     1153
 91
        4
280
     0
281
     0
  0
CLASS
  1
SUN
  2
AcDbSun
  3
SCENEOE
 90
     1024
 91
        4
280
     0
281
     0
  0
ENDSEC
  0
SECTION
  2
TABLES
  0
TABLE
  2
VPORT
  5
8
330
0
100
AcDbSymbolTable
 70
     1
  0
VPORT
  5
29
330
8
100
AcDbSymbolTableRecord
100
AcDbViewportTableRecord
  2
*Active
 70
     0
 10
0.0
 20
0.0
 11
1.0
 21
1.0
 12
0.0
 22
0.0
 13
0.0
 23
0.0
 14
0.5
 24
0.5
 15
0.5
 25
0.5
 16
0.0
 26
0.0
 36
1.0
 17
91.00082462281999
 27
-128.4993055234307
 37
0.0
 40
256.9986110468615
 41
0.7081814508812795
 42
50.0
 43
0.0
 44
0.0
 50
0.0
 51
0.0
 71
     0
 72
   100
 73
     1
 74
     3
 75
     0
 76
     0
 77
     0
 78
     0
281
     0
 65
     1
110
0.0
120
0.0
130
0.0
111
1.0
121
0.0
131
0.0
112
0.0
122
1.0
132
0.0
 79
     0
146
0.0
 60
     3
 61
     5
292
     1
282
     1
141
0.0
142
0.0
 63
   250
361
3F
  0
ENDTAB
  0
TABLE
  2
LTYPE
  5
5
330
0
100
AcDbSymbolTable
 70
     1
  0
LTYPE
  5
14
330
5
100
AcDbSymbolTableRecord
100
AcDbLinetypeTableRecord
  2
ByBlock
 70
     0
  3

 72
    65
 73
     0
 40
0.0
  0
LTYPE
  5
15
330
5
100
AcDbSymbolTableRecord
100
AcDbLinetypeTableRecord
  2
ByLayer
 70
     0
  3

 72
    65
 73
     0
 40
0.0
  0
LTYPE
  5
16
330
5
100
AcDbSymbolTableRecord
100
AcDbLinetypeTableRecord
  2
Continuous
 70
     0
  3
Solid line
 72
    65
 73
     0
 40
0.0
  0
ENDTAB
  0
TABLE
  2
LAYER
  5
2
330
0
100
AcDbSymbolTable
 70
     2
  0
LAYER
  5
10
330
2
100
AcDbSymbolTableRecord
100
AcDbLayerTableRecord
  2
0
 70
     0
 62
     7
  6
Continuous
370
    -3
390
F
347
3E
  0
LAYER
  5
40
330
2
100
AcDbSymbolTableRecord
100
AcDbLayerTableRecord
  2
_U+30EC_U+30A4_U+30E4_U+30FC 1
 70
     0
 62
     7
  6
Continuous
370
    -3
390
F
347
3E
  0
ENDTAB
  0
TABLE
  2
STYLE
  5
3
330
0
100
AcDbSymbolTable
 70
     1
  0
STYLE
  5
11
330
3
100
AcDbSymbolTableRecord
100
AcDbTextStyleTableRecord
  2
Standard
 70
     0
 40
0.0
 41
1.0
 50
0.0
 71
     0
 42
0.2
  3
txt
  4

  0
ENDTAB
  0
TABLE
  2
VIEW
  5
6
330
0
100
AcDbSymbolTable
 70
     0
  0
ENDTAB
  0
TABLE
  2
UCS
  5
7
330
0
100
AcDbSymbolTable
 70
     0
  0
ENDTAB
  0
TABLE
  2
APPID
  5
9
330
0
100
AcDbSymbolTable
 70
     1
  0
APPID
  5
12
330
9
100
AcDbSymbolTableRecord
100
AcDbRegAppTableRecord
  2
ACAD
 70
     0
  0
ENDTAB
  0
TABLE
  2
DIMSTYLE
  5
A
330
0
100
AcDbSymbolTable
 70
     1
100
AcDbDimStyleTable
  0
DIMSTYLE
105
27
330
A
100
AcDbSymbolTableRecord
100
AcDbDimStyleTableRecord
  2
Standard
 70
     0
178
     0
340
11
  0
ENDTAB
  0
TABLE
  2
BLOCK_RECORD
  5
1
330
0
100
AcDbSymbolTable
 70
     7
  0
BLOCK_RECORD
  5
1F
330
1
100
AcDbSymbolTableRecord
100
AcDbBlockTableRecord
  2
*Model_Space
340
22
 70
     0
280
     1
281
     0
  0
BLOCK_RECORD
  5
1B
330
1
100
AcDbSymbolTableRecord
100
AcDbBlockTableRecord
  2
*Paper_Space
340
1E
 70
     0
280
     1
281
     0
  0
BLOCK_RECORD
  5
23
330
1
100
AcDbSymbolTableRecord
100
AcDbBlockTableRecord
  2
*Paper_Space0
340
26
 70
     0
280
     1
281
     0
  0
BLOCK_RECORD
  5
59
330
1
100
AcDbSymbolTableRecord
100
AcDbBlockTableRecord
  2
block 2
340
0
102
{BLKREFS
331
5A
102
}
 70
     0
280
     1
281
     0
  0
BLOCK_RECORD
  5
67
330
1
100
AcDbSymbolTableRecord
100
AcDbBlockTableRecord
  2
block 3
340
0
102
{BLKREFS
331
68
102
}
 70
     0
280
     1
281
     0
  0
BLOCK_RECORD
  5
75
330
1
100
AcDbSymbolTableRecord
100
AcDbBlockTableRecord
  2
block 4
340
0
102
{BLKREFS
331
76
102
}
 70
     0
280
     1
281
     0
  0
BLOCK_RECORD
  5
87
330
1
100
AcDbSymbolTableRecord
100
AcDbBlockTableRecord
  2
block 5
340
0
102
{BLKREFS
331
88
102
}
 70
     0
280
     1
281
     0
  0
BLOCK_RECORD
  5
9F
330
1
100
AcDbSymbolTableRecord
100
AcDbBlockTableRecord
  2
block 6
340
0
102
{BLKREFS
331
A0
102
}
 70
     0
280
     1
281
     0
  0
BLOCK_RECORD
  5
B7
330
1
100
AcDbSymbolTableRecord
100
AcDbBlockTableRecord
  2
block 7
340
0
102
{BLKREFS
331
B8
102
}
 70
     0
280
     1
281
     0
  0
ENDTAB
  0
ENDSEC
  0
SECTION
  2
BLOCKS
  0
BLOCK
  5
20
330
1F
100
AcDbEntity
  8
0
100
AcDbBlockBegin
  2
*Model_Space
 70
     0
 10
0.0
 20
0.0
 30
0.0
  3
*Model_Space
  1

  0
ENDBLK
  5
21
330
1F
100
AcDbEntity
  8
0
100
AcDbBlockEnd
  0
BLOCK
  5
1C
330
1B
100
AcDbEntity
 67
     1
  8
0
100
AcDbBlockBegin
  2
*Paper_Space
 70
     0
 10
0.0
 20
0.0
 30
0.0
  3
*Paper_Space
  1

  0
ENDBLK
  5
1D
330
1B
100
AcDbEntity
 67
     1
  8
0
100
AcDbBlockEnd
  0
BLOCK
  5
24
330
23
100
AcDbEntity
  8
0
100
AcDbBlockBegin
  2
*Paper_Space0
 70
     0
 10
0.0
 20
0.0
 30
0.0
  3
*Paper_Space0
  1

  0
ENDBLK
  5
25
330
23
100
AcDbEntity
  8
0
100
AcDbBlockEnd
  0
BLOCK
  5
5B
330
59
100
AcDbEntity
  8
0
100
AcDbBlockBegin
  2
block 2
 70
     0
 10
0.0
 20
0.0
 30
0.0
  3
block 2
  1

  0
SPLINE
  5
5D
330
59
100
AcDbEntity
  8
_U+30EC_U+30A4_U+30E4_U+30FC 1
370
     0
100
AcDbSpline
210
0.0
220
0.0
230
1.0
 70
    11
 71
     3
 72
    53
 73
    49
 74
     0
 42
0.0000000001
 43
0.0000000001
 12
1.0
 22
0.0
 32
0.0
 13
1.0
 23
0.0
 33
0.0
 40
0.0
 40
0.0
 40
0.0
 40
0.0
 40
1.0
 40
1.0
 40
1.0
 40
2.0
 40
2.0
 40
2.0
 40
3.0
 40
3.0
 40
3.0
 40
4.0
 40
4.0
 40
4.0
 40
5.0
 40
5.0
 40
5.0
 40
6.0
 40
6.0
 40
6.0
 40
7.0
 40
7.0
 40
7.0
 40
8.0
 40
8.0
 40
8.0
 40
9.0
 40
9.0
 40
9.0
 40
10.0
 40
10.0
 40
10.0
 40
11.0
 40
11.0
 40
11.0
 40
12.0
 40
12.0
 40
12.0
 40
13.0
 40
13.0
 40
13.0
 40
14.0
 40
14.0
 40
14.0
 40
15.0
 40
15.0
 40
15.0
 40
16.0
 40
16.0
 40
16.0
 40
16.0
 10
89.9163031459237
 20
-139.065413376692
 30
0.0
 10
89.9163031459237
 20
-139.1436170442072
 30
0.0
 10
89.89942217804598
 20
-139.245247361022
 30
0.0
 10
89.83603242111738
 20
-139.3468776778369
 30
0.0
 10
89.72613387513792
 20
-139.520165980745
 30
0.0
 10
89.59487573714989
 20
-139.5415255727535
 30
0.0
 10
89.48704424846157
 20
-139.5604735979224
 30
0.0
 10
89.48704424846157
 20
-139.5604735979224
 30
0.0
 10
89.48704424846157
 20
-139.3382649391238
 30
0.0
 10
89.48704424846157
 20
-139.3382649391238
 30
0.0
 10
89.68582625796049
 20
-139.2834879209083
 30
0.0
 10
89.71545407913364
 20
-139.1563638975026
 30
0.0
 10
89.71545407913364
 20
-139.0633463194008
 30
0.0
 10
89.71545407913364
 20
-138.9238199522482
 30
0.0
 10
89.61589081960992
 20
-138.7715467318002
 30
0.0
 10
89.38334687435555
 20
-138.7715467318002
 30
0.0
 10
89.1273762798015
 20
-138.7715467318002
 30
0.0
 10
89.05744084145093
 20
-138.9513807161302
 30
0.0
 10
89.05744084145093
 20
-139.0719590581139
 30
0.0
 10
89.05744084145093
 20
-139.1036539365783
 30
0.0
 10
89.05744084145093
 20
-139.245247361022
 30
0.0
 10
89.1866319221478
 20
-139.3341308245415
 30
0.0
 10
89.1866319221478
 20
-139.3341308245415
 30
0.0
 10
89.16768389697891
 20
-139.5098306942892
 30
0.0
 10
89.16768389697891
 20
-139.5098306942892
 30
0.0
 10
89.16768389697891
 20
-139.5098306942892
 30
0.0
 10
88.32122393625303
 20
-139.3892523523055
 30
0.0
 10
88.32122393625303
 20
-139.3892523523055
 30
0.0
 10
88.32122393625303
 20
-139.3892523523055
 30
0.0
 10
88.32122393625303
 20
-138.610660772639
 30
0.0
 10
88.32122393625303
 20
-138.610660772639
 30
0.0
 10
88.32122393625303
 20
-138.610660772639
 30
0.0
 10
88.51587183116965
 20
-138.610660772639
 30
0.0
 10
88.51587183116965
 20
-138.610660772639
 30
0.0
 10
88.51587183116965
 20
-138.610660772639
 30
0.0
 10
88.51587183116965
 20
-139.2262993358532
 30
0.0
 10
88.51587183116965
 20
-139.2262993358532
 30
0.0
 10
88.51587183116965
 20
-139.2262993358532
 30
0.0
 10
88.93892955675832
 20
-139.2917561500729
 30
0.0
 10
88.93892955675832
 20
-139.2917561500729
 30
0.0
 10
88.90516762100287
 20
-139.2304334504354
 30
0.0
 10
88.86486000382546
 20
-139.148095668338
 30
0.0
 10
88.86486000382546
 20
-139.0295843836454
 30
0.0
 10
88.86486000382546
 20
-138.7756808463825
 30
0.0
 10
89.05123966957747
 20
-138.5386582769973
 30
0.0
 10
89.36439884918668
 20
-138.5386582769973
 30
0.0
 10
89.68169214337819
 20
-138.5386582769973
 30
0.0
 10
89.9163031459237
 20
-138.762933993087
 30
0.0
 10
89.9163031459237
 20
-139.065413376692
 30
0.0
  0
HATCH
  5
5E
330
59
100
AcDbEntity
  8
_U+30EC_U+30A4_U+30E4_U+30FC 1
 62
     7
420
 16777215
100
AcDbHatch
 10
0.0
 20
0.0
 30
0.0
210
0.0
220
0.0
230
1.0
  2
SOLID
 70
     1
 71
     0
 91
        1
 92
        1
 93
        1
 72
     4
 94
        3
 73
     0
 74
     1
 95
       53
 96
       49
 40
0.0
 40
0.0
 40
0.0
 40
0.0
 40
1.0
 40
1.0
 40
1.0
 40
2.0
 40
2.0
 40
2.0
 40
3.0
 40
3.0
 40
3.0
 40
4.0
 40
4.0
 40
4.0
 40
5.0
 40
5.0
 40
5.0
 40
6.0
 40
6.0
 40
6.0
 40
7.0
 40
7.0
 40
7.0
 40
8.0
 40
8.0
 40
8.0
 40
9.0
 40
9.0
 40
9.0
 40
10.0
 40
10.0
 40
10.0
 40
11.0
 40
11.0
 40
11.0
 40
12.0
 40
12.0
 40
12.0
 40
13.0
 40
13.0
 40
13.0
 40
14.0
 40
14.0
 40
14.0
 40
15.0
 40
15.0
 40
15.0
 40
16.0
 40
16.0
 40
16.0
 40
16.0
 10
89.9163031459237
 20
-139.065413376692
 10
89.9163031459237
 20
-139.1436170442072
 10
89.89942217804598
 20
-139.245247361022
 10
89.83603242111738
 20
-139.3468776778369
 10
89.72613387513792
 20
-139.520165980745
 10
89.59487573714989
 20
-139.5415255727535
 10
89.48704424846157
 20
-139.5604735979224
 10
89.48704424846157
 20
-139.5604735979224
 10
89.48704424846157
 20
-139.3382649391238
 10
89.48704424846157
 20
-139.3382649391238
 10
89.68582625796049
 20
-139.2834879209083
 10
89.71545407913364
 20
-139.1563638975026
 10
89.71545407913364
 20
-139.0633463194008
 10
89.71545407913364
 20
-138.9238199522482
 10
89.61589081960992
 20
-138.7715467318002
 10
89.38334687435555
 20
-138.7715467318002
 10
89.1273762798015
 20
-138.7715467318002
 10
89.05744084145093
 20
-138.9513807161302
 10
89.05744084145093
 20
-139.0719590581139
 10
89.05744084145093
 20
-139.1036539365783
 10
89.05744084145093
 20
-139.245247361022
 10
89.1866319221478
 20
-139.3341308245415
 10
89.1866319221478
 20
-139.3341308245415
 10
89.16768389697891
 20
-139.5098306942892
 10
89.16768389697891
 20
-139.5098306942892
 10
89.16768389697891
 20
-139.5098306942892
 10
88.32122393625303
 20
-139.3892523523055
 10
88.32122393625303
 20
-139.3892523523055
 10
88.32122393625303
 20
-139.3892523523055
 10
88.32122393625303
 20
-138.610660772639
 10
88.32122393625303
 20
-138.610660772639
 10
88.32122393625303
 20
-138.610660772639
 10
88.51587183116965
 20
-138.610660772639
 10
88.51587183116965
 20
-138.610660772639
 10
88.51587183116965
 20
-138.610660772639
 10
88.51587183116965
 20
-139.2262993358532
 10
88.51587183116965
 20
-139.2262993358532
 10
88.51587183116965
 20
-139.2262993358532
 10
88.93892955675832
 20
-139.2917561500729
 10
88.93892955675832
 20
-139.2917561500729
 10
88.90516762100287
 20
-139.2304334504354
 10
88.86486000382546
 20
-139.148095668338
 10
88.86486000382546
 20
-139.0295843836454
 10
88.86486000382546
 20
-138.7756808463825
 10
89.05123966957747
 20
-138.5386582769973
 10
89.36439884918668
 20
-138.5386582769973
 10
89.68169214337819
 20
-138.5386582769973
 10
89.9163031459237
 20
-138.762933993087
 10
89.9163031459237
 20
-139.065413376692
 97
        0
 97
        0
 75
     2
 76
     1
 98
        0
  0
ENDBLK
  5
5C
330
59
100
AcDbEntity
  8
0
100
AcDbBlockEnd
  0
BLOCK
  5
69
330
67
100
AcDbEntity
  8
0
100
AcDbBlockBegin
  2
block 3
 70
     0
 10
0.0
 20
0.0
 30
0.0
  3
block 3
  1

  0
SPLINE
  5
6B
330
67
100
AcDbEntity
  8
_U+30EC_U+30A4_U+30E4_U+30FC 1
370
     0
100
AcDbSpline
210
0.0
220
0.0
230
1.0
 70
    11
 71
     3
 72
    53
 73
    49
 74
     0
 42
0.0000000001
 43
0.0000000001
 12
1.0
 22
0.0
 32
0.0
 13
1.0
 23
0.0
 33
0.0
 40
0.0
 40
0.0
 40
0.0
 40
0.0
 40
1.0
 40
1.0
 40
1.0
 40
2.0
 40
2.0
 40
2.0
 40
3.0
 40
3.0
 40
3.0
 40
4.0
 40
4.0
 40
4.0
 40
5.0
 40
5.0
 40
5.0
 40
6.0
 40
6.0
 40
6.0
 40
7.0
 40
7.0
 40
7.0
 40
8.0
 40
8.0
 40
8.0
 40
9.0
 40
9.0
 40
9.0
 40
10.0
 40
10.0
 40
10.0
 40
11.0
 40
11.0
 40
11.0
 40
12.0
 40
12.0
 40
12.0
 40
13.0
 40
13.0
 40
13.0
 40
14.0
 40
14.0
 40
14.0
 40
15.0
 40
15.0
 40
15.0
 40
16.0
 40
16.0
 40
16.0
 40
16.0
 10
89.9163031459237
 20
-134.0652017894004
 30
0.0
 10
89.9163031459237
 20
-134.1434054569155
 30
0.0
 10
89.89942217804598
 20
-134.2450357737304
 30
0.0
 10
89.83603242111738
 20
-134.3466660905453
 30
0.0
 10
89.72613387513792
 20
-134.5199543934534
 30
0.0
 10
89.59487573714989
 20
-134.5413139854619
 30
0.0
 10
89.48704424846157
 20
-134.5602620106308
 30
0.0
 10
89.48704424846157
 20
-134.5602620106308
 30
0.0
 10
89.48704424846157
 20
-134.3380533518322
 30
0.0
 10
89.48704424846157
 20
-134.3380533518322
 30
0.0
 10
89.68582625796049
 20
-134.2832763336167
 30
0.0
 10
89.71545407913364
 20
-134.156152310211
 30
0.0
 10
89.71545407913364
 20
-134.0631347321092
 30
0.0
 10
89.71545407913364
 20
-133.9236083649566
 30
0.0
 10
89.61589081960992
 20
-133.7713351445086
 30
0.0
 10
89.38334687435555
 20
-133.7713351445086
 30
0.0
 10
89.1273762798015
 20
-133.7713351445086
 30
0.0
 10
89.05744084145093
 20
-133.9511691288386
 30
0.0
 10
89.05744084145093
 20
-134.0717474708223
 30
0.0
 10
89.05744084145093
 20
-134.1034423492866
 30
0.0
 10
89.05744084145093
 20
-134.2450357737304
 30
0.0
 10
89.1866319221478
 20
-134.3339192372499
 30
0.0
 10
89.1866319221478
 20
-134.3339192372499
 30
0.0
 10
89.16768389697891
 20
-134.5096191069976
 30
0.0
 10
89.16768389697891
 20
-134.5096191069976
 30
0.0
 10
89.16768389697891
 20
-134.5096191069976
 30
0.0
 10
88.32122393625303
 20
-134.3890407650138
 30
0.0
 10
88.32122393625303
 20
-134.3890407650138
 30
0.0
 10
88.32122393625303
 20
-134.3890407650138
 30
0.0
 10
88.32122393625303
 20
-133.6104491853474
 30
0.0
 10
88.32122393625303
 20
-133.6104491853474
 30
0.0
 10
88.32122393625303
 20
-133.6104491853474
 30
0.0
 10
88.51587183116965
 20
-133.6104491853474
 30
0.0
 10
88.51587183116965
 20
-133.6104491853474
 30
0.0
 10
88.51587183116965
 20
-133.6104491853474
 30
0.0
 10
88.51587183116965
 20
-134.2260877485616
 30
0.0
 10
88.51587183116965
 20
-134.2260877485616
 30
0.0
 10
88.51587183116965
 20
-134.2260877485616
 30
0.0
 10
88.93892955675832
 20
-134.2915445627813
 30
0.0
 10
88.93892955675832
 20
-134.2915445627813
 30
0.0
 10
88.90516762100287
 20
-134.2302218631438
 30
0.0
 10
88.86486000382546
 20
-134.1478840810464
 30
0.0
 10
88.86486000382546
 20
-134.0293727963538
 30
0.0
 10
88.86486000382546
 20
-133.7754692590909
 30
0.0
 10
89.05123966957747
 20
-133.5384466897057
 30
0.0
 10
89.36439884918668
 20
-133.5384466897057
 30
0.0
 10
89.68169214337819
 20
-133.5384466897057
 30
0.0
 10
89.9163031459237
 20
-133.7627224057954
 30
0.0
 10
89.9163031459237
 20
-134.0652017894004
 30
0.0
  0
HATCH
  5
6C
330
67
100
AcDbEntity
  8
_U+30EC_U+30A4_U+30E4_U+30FC 1
 62
     7
420
 16777215
100
AcDbHatch
 10
0.0
 20
0.0
 30
0.0
210
0.0
220
0.0
230
1.0
  2
SOLID
 70
     1
 71
     0
 91
        1
 92
        1
 93
        1
 72
     4
 94
        3
 73
     0
 74
     1
 95
       53
 96
       49
 40
0.0
 40
0.0
 40
0.0
 40
0.0
 40
1.0
 40
1.0
 40
1.0
 40
2.0
 40
2.0
 40
2.0
 40
3.0
 40
3.0
 40
3.0
 40
4.0
 40
4.0
 40
4.0
 40
5.0
 40
5.0
 40
5.0
 40
6.0
 40
6.0
 40
6.0
 40
7.0
 40
7.0
 40
7.0
 40
8.0
 40
8.0
 40
8.0
 40
9.0
 40
9.0
 40
9.0
 40
10.0
 40
10.0
 40
10.0
 40
11.0
 40
11.0
 40
11.0
 40
12.0
 40
12.0
 40
12.0
 40
13.0
 40
13.0
 40
13.0
 40
14.0
 40
14.0
 40
14.0
 40
15.0
 40
15.0
 40
15.0
 40
16.0
 40
16.0
 40
16.0
 40
16.0
 10
89.9163031459237
 20
-134.0652017894004
 10
89.9163031459237
 20
-134.1434054569155
 10
89.89942217804598
 20
-134.2450357737304
 10
89.83603242111738
 20
-134.3466660905453
 10
89.72613387513792
 20
-134.5199543934534
 10
89.59487573714989
 20
-134.5413139854619
 10
89.48704424846157
 20
-134.5602620106308
 10
89.48704424846157
 20
-134.5602620106308
 10
89.48704424846157
 20
-134.3380533518322
 10
89.48704424846157
 20
-134.3380533518322
 10
89.68582625796049
 20
-134.2832763336167
 10
89.71545407913364
 20
-134.156152310211
 10
89.71545407913364
 20
-134.0631347321092
 10
89.71545407913364
 20
-133.9236083649566
 10
89.61589081960992
 20
-133.7713351445086
 10
89.38334687435555
 20
-133.7713351445086
 10
89.1273762798015
 20
-133.7713351445086
 10
89.05744084145093
 20
-133.9511691288386
 10
89.05744084145093
 20
-134.0717474708223
 10
89.05744084145093
 20
-134.1034423492866
 10
89.05744084145093
 20
-134.2450357737304
 10
89.1866319221478
 20
-134.3339192372499
 10
89.1866319221478
 20
-134.3339192372499
 10
89.16768389697891
 20
-134.5096191069976
 10
89.16768389697891
 20
-134.5096191069976
 10
89.16768389697891
 20
-134.5096191069976
 10
88.32122393625303
 20
-134.3890407650138
 10
88.32122393625303
 20
-134.3890407650138
 10
88.32122393625303
 20
-134.3890407650138
 10
88.32122393625303
 20
-133.6104491853474
 10
88.32122393625303
 20
-133.6104491853474
 10
88.32122393625303
 20
-133.6104491853474
 10
88.51587183116965
 20
-133.6104491853474
 10
88.51587183116965
 20
-133.6104491853474
 10
88.51587183116965
 20
-133.6104491853474
 10
88.51587183116965
 20
-134.2260877485616
 10
88.51587183116965
 20
-134.2260877485616
 10
88.51587183116965
 20
-134.2260877485616
 10
88.93892955675832
 20
-134.2915445627813
 10
88.93892955675832
 20
-134.2915445627813
 10
88.90516762100287
 20
-134.2302218631438
 10
88.86486000382546
 20
-134.1478840810464
 10
88.86486000382546
 20
-134.0293727963538
 10
88.86486000382546
 20
-133.7754692590909
 10
89.05123966957747
 20
-133.5384466897057
 10
89.36439884918668
 20
-133.5384466897057
 10
89.68169214337819
 20
-133.5384466897057
 10
89.9163031459237
 20
-133.7627224057954
 10
89.9163031459237
 20
-134.0652017894004
 97
        0
 97
        0
 75
     2
 76
     1
 98
        0
  0
ENDBLK
  5
6A
330
67
100
AcDbEntity
  8
0
100
AcDbBlockEnd
  0
BLOCK
  5
77
330
75
100
AcDbEntity
  8
0
100
AcDbBlockBegin
  2
block 4
 70
     0
 10
0.0
 20
0.0
 30
0.0
  3
block 4
  1

  0
SPLINE
  5
79
330
75
100
AcDbEntity
  8
_U+30EC_U+30A4_U+30E4_U+30FC 1
370
     0
100
AcDbSpline
210
0.0
220
0.0
230
1.0
 70
    11
 71
     3
 72
    53
 73
    49
 74
     0
 42
0.0000000001
 43
0.0000000001
 12
1.0
 22
0.0
 32
0.0
 13
1.0
 23
0.0
 33
0.0
 40
0.0
 40
0.0
 40
0.0
 40
0.0
 40
1.0
 40
1.0
 40
1.0
 40
2.0
 40
2.0
 40
2.0
 40
3.0
 40
3.0
 40
3.0
 40
4.0
 40
4.0
 40
4.0
 40
5.0
 40
5.0
 40
5.0
 40
6.0
 40
6.0
 40
6.0
 40
7.0
 40
7.0
 40
7.0
 40
8.0
 40
8.0
 40
8.0
 40
9.0
 40
9.0
 40
9.0
 40
10.0
 40
10.0
 40
10.0
 40
11.0
 40
11.0
 40
11.0
 40
12.0
 40
12.0
 40
12.0
 40
13.0
 40
13.0
 40
13.0
 40
14.0
 40
14.0
 40
14.0
 40
15.0
 40
15.0
 40
15.0
 40
16.0
 40
16.0
 40
16.0
 40
16.0
 10
89.9163031459237
 20
-129.0653347116573
 30
0.0
 10
89.9163031459237
 20
-129.1435383791724
 30
0.0
 10
89.89942217804598
 20
-129.2451686959873
 30
0.0
 10
89.83603242111738
 20
-129.3467990128022
 30
0.0
 10
89.72613387513792
 20
-129.5200873157103
 30
0.0
 10
89.59487573714989
 20
-129.5414469077188
 30
0.0
 10
89.48704424846157
 20
-129.5603949328877
 30
0.0
 10
89.48704424846157
 20
-129.5603949328877
 30
0.0
 10
89.48704424846157
 20
-129.3381862740891
 30
0.0
 10
89.48704424846157
 20
-129.3381862740891
 30
0.0
 10
89.68582625796049
 20
-129.2834092558736
 30
0.0
 10
89.71545407913364
 20
-129.1562852324679
 30
0.0
 10
89.71545407913364
 20
-129.0632676543661
 30
0.0
 10
89.71545407913364
 20
-128.9237412872135
 30
0.0
 10
89.61589081960992
 20
-128.7714680667655
 30
0.0
 10
89.38334687435555
 20
-128.7714680667655
 30
0.0
 10
89.1273762798015
 20
-128.7714680667655
 30
0.0
 10
89.05744084145093
 20
-128.9513020510955
 30
0.0
 10
89.05744084145093
 20
-129.0718803930793
 30
0.0
 10
89.05744084145093
 20
-129.1035752715435
 30
0.0
 10
89.05744084145093
 20
-129.2451686959873
 30
0.0
 10
89.1866319221478
 20
-129.3340521595068
 30
0.0
 10
89.1866319221478
 20
-129.3340521595068
 30
0.0
 10
89.16768389697891
 20
-129.5097520292545
 30
0.0
 10
89.16768389697891
 20
-129.5097520292545
 30
0.0
 10
89.16768389697891
 20
-129.5097520292545
 30
0.0
 10
88.32122393625303
 20
-129.3891736872708
 30
0.0
 10
88.32122393625303
 20
-129.3891736872708
 30
0.0
 10
88.32122393625303
 20
-129.3891736872708
 30
0.0
 10
88.32122393625303
 20
-128.6105821076043
 30
0.0
 10
88.32122393625303
 20
-128.6105821076043
 30
0.0
 10
88.32122393625303
 20
-128.6105821076043
 30
0.0
 10
88.51587183116965
 20
-128.6105821076043
 30
0.0
 10
88.51587183116965
 20
-128.6105821076043
 30
0.0
 10
88.51587183116965
 20
-128.6105821076043
 30
0.0
 10
88.51587183116965
 20
-129.2262206708185
 30
0.0
 10
88.51587183116965
 20
-129.2262206708185
 30
0.0
 10
88.51587183116965
 20
-129.2262206708185
 30
0.0
 10
88.93892955675832
 20
-129.2916774850382
 30
0.0
 10
88.93892955675832
 20
-129.2916774850382
 30
0.0
 10
88.90516762100287
 20
-129.2303547854007
 30
0.0
 10
88.86486000382546
 20
-129.1480170033033
 30
0.0
 10
88.86486000382546
 20
-129.0295057186107
 30
0.0
 10
88.86486000382546
 20
-128.7756021813478
 30
0.0
 10
89.05123966957747
 20
-128.5385796119626
 30
0.0
 10
89.36439884918668
 20
-128.5385796119626
 30
0.0
 10
89.68169214337819
 20
-128.5385796119626
 30
0.0
 10
89.9163031459237
 20
-128.7628553280524
 30
0.0
 10
89.9163031459237
 20
-129.0653347116573
 30
0.0
  0
HATCH
  5
7A
330
75
100
AcDbEntity
  8
_U+30EC_U+30A4_U+30E4_U+30FC 1
 62
     7
420
 16777215
100
AcDbHatch
 10
0.0
 20
0.0
 30
0.0
210
0.0
220
0.0
230
1.0
  2
SOLID
 70
     1
 71
     0
 91
        1
 92
        1
 93
        1
 72
     4
 94
        3
 73
     0
 74
     1
 95
       53
 96
       49
 40
0.0
 40
0.0
 40
0.0
 40
0.0
 40
1.0
 40
1.0
 40
1.0
 40
2.0
 40
2.0
 40
2.0
 40
3.0
 40
3.0
 40
3.0
 40
4.0
 40
4.0
 40
4.0
 40
5.0
 40
5.0
 40
5.0
 40
6.0
 40
6.0
 40
6.0
 40
7.0
 40
7.0
 40
7.0
 40
8.0
 40
8.0
 40
8.0
 40
9.0
 40
9.0
 40
9.0
 40
10.0
 40
10.0
 40
10.0
 40
11.0
 40
11.0
 40
11.0
 40
12.0
 40
12.0
 40
12.0
 40
13.0
 40
13.0
 40
13.0
 40
14.0
 40
14.0
 40
14.0
 40
15.0
 40
15.0
 40
15.0
 40
16.0
 40
16.0
 40
16.0
 40
16.0
 10
89.9163031459237
 20
-129.0653347116573
 10
89.9163031459237
 20
-129.1435383791724
 10
89.89942217804598
 20
-129.2451686959873
 10
89.83603242111738
 20
-129.3467990128022
 10
89.72613387513792
 20
-129.5200873157103
 10
89.59487573714989
 20
-129.5414469077188
 10
89.48704424846157
 20
-129.5603949328877
 10
89.48704424846157
 20
-129.5603949328877
 10
89.48704424846157
 20
-129.3381862740891
 10
89.48704424846157
 20
-129.3381862740891
 10
89.68582625796049
 20
-129.2834092558736
 10
89.71545407913364
 20
-129.1562852324679
 10
89.71545407913364
 20
-129.0632676543661
 10
89.71545407913364
 20
-128.9237412872135
 10
89.61589081960992
 20
-128.7714680667655
 10
89.38334687435555
 20
-128.7714680667655
 10
89.1273762798015
 20
-128.7714680667655
 10
89.05744084145093
 20
-128.9513020510955
 10
89.05744084145093
 20
-129.0718803930793
 10
89.05744084145093
 20
-129.1035752715435
 10
89.05744084145093
 20
-129.2451686959873
 10
89.1866319221478
 20
-129.3340521595068
 10
89.1866319221478
 20
-129.3340521595068
 10
89.16768389697891
 20
-129.5097520292545
 10
89.16768389697891
 20
-129.5097520292545
 10
89.16768389697891
 20
-129.5097520292545
 10
88.32122393625303
 20
-129.3891736872708
 10
88.32122393625303
 20
-129.3891736872708
 10
88.32122393625303
 20
-129.3891736872708
 10
88.32122393625303
 20
-128.6105821076043
 10
88.32122393625303
 20
-128.6105821076043
 10
88.32122393625303
 20
-128.6105821076043
 10
88.51587183116965
 20
-128.6105821076043
 10
88.51587183116965
 20
-128.6105821076043
 10
88.51587183116965
 20
-128.6105821076043
 10
88.51587183116965
 20
-129.2262206708185
 10
88.51587183116965
 20
-129.2262206708185
 10
88.51587183116965
 20
-129.2262206708185
 10
88.93892955675832
 20
-129.2916774850382
 10
88.93892955675832
 20
-129.2916774850382
 10
88.90516762100287
 20
-129.2303547854007
 10
88.86486000382546
 20
-129.1480170033033
 10
88.86486000382546
 20
-129.0295057186107
 10
88.86486000382546
 20
-128.7756021813478
 10
89.05123966957747
 20
-128.5385796119626
 10
89.36439884918668
 20
-128.5385796119626
 10
89.68169214337819
 20
-128.5385796119626
 10
89.9163031459237
 20
-128.7628553280524
 10
89.9163031459237
 20
-129.0653347116573
 97
        0
 97
        0
 75
     2
 76
     1
 98
        0
  0
ENDBLK
  5
78
330
75
100
AcDbEntity
  8
0
100
AcDbBlockEnd
  0
BLOCK
  5
89
330
87
100
AcDbEntity
  8
0
100
AcDbBlockBegin
  2
block 5
 70
     0
 10
0.0
 20
0.0
 30
0.0
  3
block 5
  1

  0
SPLINE
  5
8B
330
87
100
AcDbEntity
  8
_U+30EC_U+30A4_U+30E4_U+30FC 1
370
     0
100
AcDbSpline
210
0.0
220
0.0
230
1.0
 70
    11
 71
     3
 72
    44
 73
    40
 74
     0
 42
0.0000000001
 43
0.0000000001
 12
1.0
 22
0.0
 32
0.0
 13
1.0
 23
0.0
 33
0.0
 40
0.0
 40
0.0
 40
0.0
 40
0.0
 40
1.0
 40
1.0
 40
1.0
 40
2.0
 40
2.0
 40
2.0
 40
3.0
 40
3.0
 40
3.0
 40
4.0
 40
4.0
 40
4.0
 40
5.0
 40
5.0
 40
5.0
 40
6.0
 40
6.0
 40
6.0
 40
7.0
 40
7.0
 40
7.0
 40
8.0
 40
8.0
 40
8.0
 40
9.0
 40
9.0
 40
9.0
 40
10.0
 40
10.0
 40
10.0
 40
11.0
 40
11.0
 40
11.0
 40
12.0
 40
12.0
 40
12.0
 40
13.0
 40
13.0
 40
13.0
 40
13.0
 10
94.86587182958215
 20
-118.11992184547
 30
0.0
 10
94.64814179491435
 20
-118.27874074734
 30
0.0
 10
94.55512421681262
 20
-118.3528103002729
 30
0.0
 10
94.50620386092207
 20
-118.4964707820078
 30
0.0
 10
94.50620386092207
 20
-118.4964707820078
 30
0.0
 10
95.28479544058852
 20
-118.4964707820078
 30
0.0
 10
95.28479544058852
 20
-118.4964707820078
 30
0.0
 10
95.28479544058852
 20
-118.4964707820078
 30
0.0
 10
95.28479544058852
 20
-118.7017984729287
 30
0.0
 10
95.28479544058852
 20
-118.7017984729287
 30
0.0
 10
95.28479544058852
 20
-118.7017984729287
 30
0.0
 10
94.25677894778998
 20
-118.7017984729287
 30
0.0
 10
94.25677894778998
 20
-118.7017984729287
 30
0.0
 10
94.28847382625428
 20
-118.3441975615598
 30
0.0
 10
94.35393064047402
 20
-118.2659938940446
 30
0.0
 10
94.73909231572496
 20
-117.967648625022
 30
0.0
 10
94.99506291027902
 20
-117.7688666155231
 30
0.0
 10
95.06051972449876
 20
-117.7009982344636
 30
0.0
 10
95.06051972449876
 20
-117.5635389246022
 30
0.0
 10
95.06051972449876
 20
-117.4450276399096
 30
0.0
 10
94.98851722885705
 20
-117.3141140114701
 30
0.0
 10
94.79180227664928
 20
-117.3141140114701
 30
0.0
 10
94.53169756751291
 20
-117.3141140114701
 30
0.0
 10
94.52308482879978
 20
-117.5445908994333
 30
0.0
 10
94.51895071421748
 20
-117.6610351268347
 30
0.0
 10
94.51895071421748
 20
-117.6610351268347
 30
0.0
 10
94.29467499812772
 20
-117.6610351268347
 30
0.0
 10
94.29467499812772
 20
-117.6610351268347
 30
0.0
 10
94.30328773684084
 20
-117.533911103429
 30
0.0
 10
94.31396753284513
 20
-117.4219455001584
 30
0.0
 10
94.39423825765145
 20
-117.3034342154658
 30
0.0
 10
94.50413680363091
 20
-117.1425482563047
 30
0.0
 10
94.69051646938293
 20
-117.1087863205492
 30
0.0
 10
94.80661618723585
 20
-117.1087863205492
 30
0.0
 10
95.08394637379847
 20
-117.1087863205492
 30
0.0
 10
95.29134112201051
 20
-117.2927544194615
 30
0.0
 10
95.29134112201051
 20
-117.5656059818933
 30
0.0
 10
95.29134112201051
 20
-117.7943603221139
 30
0.0
 10
95.17489689460906
 20
-117.8935790720891
 30
0.0
 10
94.86587182958215
 20
-118.11992184547
 30
0.0
  0
HATCH
  5
8C
330
87
100
AcDbEntity
  8
_U+30EC_U+30A4_U+30E4_U+30FC 1
 62
     7
420
 16777215
100
AcDbHatch
 10
0.0
 20
0.0
 30
0.0
210
0.0
220
0.0
230
1.0
  2
SOLID
 70
     1
 71
     0
 91
        1
 92
        1
 93
        1
 72
     4
 94
        3
 73
     0
 74
     1
 95
       44
 96
       40
 40
0.0
 40
0.0
 40
0.0
 40
0.0
 40
1.0
 40
1.0
 40
1.0
 40
2.0
 40
2.0
 40
2.0
 40
3.0
 40
3.0
 40
3.0
 40
4.0
 40
4.0
 40
4.0
 40
5.0
 40
5.0
 40
5.0
 40
6.0
 40
6.0
 40
6.0
 40
7.0
 40
7.0
 40
7.0
 40
8.0
 40
8.0
 40
8.0
 40
9.0
 40
9.0
 40
9.0
 40
10.0
 40
10.0
 40
10.0
 40
11.0
 40
11.0
 40
11.0
 40
12.0
 40
12.0
 40
12.0
 40
13.0
 40
13.0
 40
13.0
 40
13.0
 10
94.86587182958215
 20
-118.11992184547
 10
94.64814179491435
 20
-118.27874074734
 10
94.55512421681262
 20
-118.3528103002729
 10
94.50620386092207
 20
-118.4964707820078
 10
94.50620386092207
 20
-118.4964707820078
 10
95.28479544058852
 20
-118.4964707820078
 10
95.28479544058852
 20
-118.4964707820078
 10
95.28479544058852
 20
-118.4964707820078
 10
95.28479544058852
 20
-118.7017984729287
 10
95.28479544058852
 20
-118.7017984729287
 10
95.28479544058852
 20
-118.7017984729287
 10
94.25677894778998
 20
-118.7017984729287
 10
94.25677894778998
 20
-118.7017984729287
 10
94.28847382625428
 20
-118.3441975615598
 10
94.35393064047402
 20
-118.2659938940446
 10
94.73909231572496
 20
-117.967648625022
 10
94.99506291027902
 20
-117.7688666155231
 10
95.06051972449876
 20
-117.7009982344636
 10
95.06051972449876
 20
-117.5635389246022
 10
95.06051972449876
 20
-117.4450276399096
 10
94.98851722885705
 20
-117.3141140114701
 10
94.79180227664928
 20
-117.3141140114701
 10
94.53169756751291
 20
-117.3141140114701
 10
94.52308482879978
 20
-117.5445908994333
 10
94.51895071421748
 20
-117.6610351268347
 10
94.51895071421748
 20
-117.6610351268347
 10
94.29467499812772
 20
-117.6610351268347
 10
94.29467499812772
 20
-117.6610351268347
 10
94.30328773684084
 20
-117.533911103429
 10
94.31396753284513
 20
-117.4219455001584
 10
94.39423825765145
 20
-117.3034342154658
 10
94.50413680363091
 20
-117.1425482563047
 10
94.69051646938293
 20
-117.1087863205492
 10
94.80661618723585
 20
-117.1087863205492
 10
95.08394637379847
 20
-117.1087863205492
 10
95.29134112201051
 20
-117.2927544194615
 10
95.29134112201051
 20
-117.5656059818933
 10
95.29134112201051
 20
-117.7943603221139
 10
95.17489689460906
 20
-117.8935790720891
 10
94.86587182958215
 20
-118.11992184547
 97
        0
 97
        0
 75
     2
 76
     1
 98
        0
  0
SPLINE
  5
8D
330
87
100
AcDbEntity
  8
_U+30EC_U+30A4_U+30E4_U+30FC 1
370
     0
100
AcDbSpline
210
0.0
220
0.0
230
1.0
 70
    11
 71
     3
 72
    53
 73
    49
 74
     0
 42
0.0000000001
 43
0.0000000001
 12
1.0
 22
0.0
 32
0.0
 13
1.0
 23
0.0
 33
0.0
 40
0.0
 40
0.0
 40
0.0
 40
0.0
 40
1.0
 40
1.0
 40
1.0
 40
2.0
 40
2.0
 40
2.0
 40
3.0
 40
3.0
 40
3.0
 40
4.0
 40
4.0
 40
4.0
 40
5.0
 40
5.0
 40
5.0
 40
6.0
 40
6.0
 40
6.0
 40
7.0
 40
7.0
 40
7.0
 40
8.0
 40
8.0
 40
8.0
 40
9.0
 40
9.0
 40
9.0
 40
10.0
 40
10.0
 40
10.0
 40
11.0
 40
11.0
 40
11.0
 40
12.0
 40
12.0
 40
12.0
 40
13.0
 40
13.0
 40
13.0
 40
14.0
 40
14.0
 40
14.0
 40
15.0
 40
15.0
 40
15.0
 40
16.0
 40
16.0
 40
16.0
 40
16.0
 10
95.93075084407288
 20
-118.7524413765619
 30
0.0
 10
95.8525471765577
 20
-118.7524413765619
 30
0.0
 10
95.75091685974283
 20
-118.7355604086842
 30
0.0
 10
95.64928654292797
 20
-118.6721706517556
 30
0.0
 10
95.47599824001989
 20
-118.5622721057761
 30
0.0
 10
95.45463864801134
 20
-118.4310139677881
 30
0.0
 10
95.43569062284247
 20
-118.3231824790998
 30
0.0
 10
95.43569062284247
 20
-118.3231824790998
 30
0.0
 10
95.65789928164108
 20
-118.3231824790998
 30
0.0
 10
95.65789928164108
 20
-118.3231824790998
 30
0.0
 10
95.71267629985655
 20
-118.5219644885987
 30
0.0
 10
95.83980032326228
 20
-118.5515923097718
 30
0.0
 10
95.93281790136402
 20
-118.5515923097718
 30
0.0
 10
96.07234426851664
 20
-118.5515923097718
 30
0.0
 10
96.22461748896468
 20
-118.4520290502481
 30
0.0
 10
96.22461748896468
 20
-118.2194851049938
 30
0.0
 10
96.22461748896468
 20
-117.9635145104397
 30
0.0
 10
96.04478350463464
 20
-117.8935790720891
 30
0.0
 10
95.92420516265089
 20
-117.8935790720891
 30
0.0
 10
95.8925102841866
 20
-117.8935790720891
 30
0.0
 10
95.75091685974283
 20
-117.8935790720891
 30
0.0
 10
95.66203339622338
 20
-118.022770152786
 30
0.0
 10
95.66203339622338
 20
-118.022770152786
 30
0.0
 10
95.48633352647565
 20
-118.0038221276171
 30
0.0
 10
95.48633352647565
 20
-118.0038221276171
 30
0.0
 10
95.48633352647565
 20
-118.0038221276171
 30
0.0
 10
95.60691186845939
 20
-117.1573621668912
 30
0.0
 10
95.60691186845939
 20
-117.1573621668912
 30
0.0
 10
95.60691186845939
 20
-117.1573621668912
 30
0.0
 10
96.38550344812585
 20
-117.1573621668912
 30
0.0
 10
96.38550344812585
 20
-117.1573621668912
 30
0.0
 10
96.38550344812585
 20
-117.1573621668912
 30
0.0
 10
96.38550344812585
 20
-117.3520100618078
 30
0.0
 10
96.38550344812585
 20
-117.3520100618078
 30
0.0
 10
96.38550344812585
 20
-117.3520100618078
 30
0.0
 10
95.7698648849117
 20
-117.3520100618078
 30
0.0
 10
95.7698648849117
 20
-117.3520100618078
 30
0.0
 10
95.7698648849117
 20
-117.3520100618078
 30
0.0
 10
95.70440807069195
 20
-117.7750677873965
 30
0.0
 10
95.70440807069195
 20
-117.7750677873965
 30
0.0
 10
95.7657307703294
 20
-117.7413058516411
 30
0.0
 10
95.84806855242688
 20
-117.7009982344636
 30
0.0
 10
95.96657983711947
 20
-117.7009982344636
 30
0.0
 10
96.22048337438238
 20
-117.7009982344636
 30
0.0
 10
96.45750594376757
 20
-117.8873779002157
 30
0.0
 10
96.45750594376757
 20
-118.2005370798249
 30
0.0
 10
96.45750594376757
 20
-118.5178303740164
 30
0.0
 10
96.23323022767781
 20
-118.7524413765619
 30
0.0
 10
95.93075084407288
 20
-118.7524413765619
 30
0.0
  0
HATCH
  5
8E
330
87
100
AcDbEntity
  8
_U+30EC_U+30A4_U+30E4_U+30FC 1
 62
     7
420
 16777215
100
AcDbHatch
 10
0.0
 20
0.0
 30
0.0
210
0.0
220
0.0
230
1.0
  2
SOLID
 70
     1
 71
     0
 91
        1
 92
        1
 93
        1
 72
     4
 94
        3
 73
     0
 74
     1
 95
       53
 96
       49
 40
0.0
 40
0.0
 40
0.0
 40
0.0
 40
1.0
 40
1.0
 40
1.0
 40
2.0
 40
2.0
 40
2.0
 40
3.0
 40
3.0
 40
3.0
 40
4.0
 40
4.0
 40
4.0
 40
5.0
 40
5.0
 40
5.0
 40
6.0
 40
6.0
 40
6.0
 40
7.0
 40
7.0
 40
7.0
 40
8.0
 40
8.0
 40
8.0
 40
9.0
 40
9.0
 40
9.0
 40
10.0
 40
10.0
 40
10.0
 40
11.0
 40
11.0
 40
11.0
 40
12.0
 40
12.0
 40
12.0
 40
13.0
 40
13.0
 40
13.0
 40
14.0
 40
14.0
 40
14.0
 40
15.0
 40
15.0
 40
15.0
 40
16.0
 40
16.0
 40
16.0
 40
16.0
 10
95.93075084407288
 20
-118.7524413765619
 10
95.8525471765577
 20
-118.7524413765619
 10
95.75091685974283
 20
-118.7355604086842
 10
95.64928654292797
 20
-118.6721706517556
 10
95.47599824001989
 20
-118.5622721057761
 10
95.45463864801134
 20
-118.4310139677881
 10
95.43569062284247
 20
-118.3231824790998
 10
95.43569062284247
 20
-118.3231824790998
 10
95.65789928164108
 20
-118.3231824790998
 10
95.65789928164108
 20
-118.3231824790998
 10
95.71267629985655
 20
-118.5219644885987
 10
95.83980032326228
 20
-118.5515923097718
 10
95.93281790136402
 20
-118.5515923097718
 10
96.07234426851664
 20
-118.5515923097718
 10
96.22461748896468
 20
-118.4520290502481
 10
96.22461748896468
 20
-118.2194851049938
 10
96.22461748896468
 20
-117.9635145104397
 10
96.04478350463464
 20
-117.8935790720891
 10
95.92420516265089
 20
-117.8935790720891
 10
95.8925102841866
 20
-117.8935790720891
 10
95.75091685974283
 20
-117.8935790720891
 10
95.66203339622338
 20
-118.022770152786
 10
95.66203339622338
 20
-118.022770152786
 10
95.48633352647565
 20
-118.0038221276171
 10
95.48633352647565
 20
-118.0038221276171
 10
95.48633352647565
 20
-118.0038221276171
 10
95.60691186845939
 20
-117.1573621668912
 10
95.60691186845939
 20
-117.1573621668912
 10
95.60691186845939
 20
-117.1573621668912
 10
96.38550344812585
 20
-117.1573621668912
 10
96.38550344812585
 20
-117.1573621668912
 10
96.38550344812585
 20
-117.1573621668912
 10
96.38550344812585
 20
-117.3520100618078
 10
96.38550344812585
 20
-117.3520100618078
 10
96.38550344812585
 20
-117.3520100618078
 10
95.7698648849117
 20
-117.3520100618078
 10
95.7698648849117
 20
-117.3520100618078
 10
95.7698648849117
 20
-117.3520100618078
 10
95.70440807069195
 20
-117.7750677873965
 10
95.70440807069195
 20
-117.7750677873965
 10
95.7657307703294
 20
-117.7413058516411
 10
95.84806855242688
 20
-117.7009982344636
 10
95.96657983711947
 20
-117.7009982344636
 10
96.22048337438238
 20
-117.7009982344636
 10
96.45750594376757
 20
-117.8873779002157
 10
96.45750594376757
 20
-118.2005370798249
 10
96.45750594376757
 20
-118.5178303740164
 10
96.23323022767781
 20
-118.7524413765619
 10
95.93075084407288
 20
-118.7524413765619
 97
        0
 97
        0
 75
     2
 76
     1
 98
        0
  0
ENDBLK
  5
8A
330
87
100
AcDbEntity
  8
0
100
AcDbBlockEnd
  0
BLOCK
  5
A1
330
9F
100
AcDbEntity
  8
0
100
AcDbBlockBegin
  2
block 6
 70
     0
 10
0.0
 20
0.0
 30
0.0
  3
block 6
  1

  0
SPLINE
  5
A3
330
9F
100
AcDbEntity
  8
_U+30EC_U+30A4_U+30E4_U+30FC 1
370
     0
100
AcDbSpline
210
0.0
220
0.0
230
1.0
 70
    11
 71
     3
 72
    26
 73
    22
 74
     0
 42
0.0000000001
 43
0.0000000001
 12
1.0
 22
0.0
 32
0.0
 13
1.0
 23
0.0
 33
0.0
 40
0.0
 40
0.0
 40
0.0
 40
0.0
 40
1.0
 40
1.0
 40
1.0
 40
2.0
 40
2.0
 40
2.0
 40
3.0
 40
3.0
 40
3.0
 40
4.0
 40
4.0
 40
4.0
 40
5.0
 40
5.0
 40
5.0
 40
6.0
 40
6.0
 40
6.0
 40
7.0
 40
7.0
 40
7.0
 40
7.0
 10
77.77509763680622
 20
-125.089694521679
 30
0.0
 10
77.77509763680622
 20
-125.089694521679
 30
0.0
 10
76.67094453378365
 20
-125.089694521679
 30
0.0
 10
76.67094453378365
 20
-125.089694521679
 30
0.0
 10
76.67094453378365
 20
-125.089694521679
 30
0.0
 10
76.67094453378365
 20
-125.4197346691659
 30
0.0
 10
76.67094453378365
 20
-125.4197346691659
 30
0.0
 10
76.67094453378365
 20
-125.4197346691659
 30
0.0
 10
76.52280542791792
 20
-125.4197346691659
 30
0.0
 10
76.52280542791792
 20
-125.4197346691659
 30
0.0
 10
76.50799151733133
 20
-125.0876274643878
 30
0.0
 10
76.34503850087903
 20
-125.0411186753369
 30
0.0
 10
76.23066133076873
 20
-125.0114908541638
 30
0.0
 10
76.23066133076873
 20
-125.0114908541638
 30
0.0
 10
76.23066133076873
 20
-124.8654188055892
 30
0.0
 10
76.23066133076873
 20
-124.8654188055892
 30
0.0
 10
76.23066133076873
 20
-124.8654188055892
 30
0.0
 10
77.77509763680622
 20
-124.8654188055892
 30
0.0
 10
77.77509763680622
 20
-124.8654188055892
 30
0.0
 10
77.77509763680622
 20
-124.8654188055892
 30
0.0
 10
77.77509763680622
 20
-125.089694521679
 30
0.0
 10
77.77509763680622
 20
-125.089694521679
 30
0.0
  0
HATCH
  5
A4
330
9F
100
AcDbEntity
  8
_U+30EC_U+30A4_U+30E4_U+30FC 1
 62
     7
420
 16777215
100
AcDbHatch
 10
0.0
 20
0.0
 30
0.0
210
0.0
220
0.0
230
1.0
  2
SOLID
 70
     1
 71
     0
 91
        1
 92
        1
 93
        1
 72
     4
 94
        3
 73
     0
 74
     1
 95
       26
 96
       22
 40
0.0
 40
0.0
 40
0.0
 40
0.0
 40
1.0
 40
1.0
 40
1.0
 40
2.0
 40
2.0
 40
2.0
 40
3.0
 40
3.0
 40
3.0
 40
4.0
 40
4.0
 40
4.0
 40
5.0
 40
5.0
 40
5.0
 40
6.0
 40
6.0
 40
6.0
 40
7.0
 40
7.0
 40
7.0
 40
7.0
 10
77.77509763680622
 20
-125.089694521679
 10
77.77509763680622
 20
-125.089694521679
 10
76.67094453378365
 20
-125.089694521679
 10
76.67094453378365
 20
-125.089694521679
 10
76.67094453378365
 20
-125.089694521679
 10
76.67094453378365
 20
-125.4197346691659
 10
76.67094453378365
 20
-125.4197346691659
 10
76.67094453378365
 20
-125.4197346691659
 10
76.52280542791792
 20
-125.4197346691659
 10
76.52280542791792
 20
-125.4197346691659
 10
76.50799151733133
 20
-125.0876274643878
 10
76.34503850087903
 20
-125.0411186753369
 10
76.23066133076873
 20
-125.0114908541638
 10
76.23066133076873
 20
-125.0114908541638
 10
76.23066133076873
 20
-124.8654188055892
 10
76.23066133076873
 20
-124.8654188055892
 10
76.23066133076873
 20
-124.8654188055892
 10
77.77509763680622
 20
-124.8654188055892
 10
77.77509763680622
 20
-124.8654188055892
 10
77.77509763680622
 20
-124.8654188055892
 10
77.77509763680622
 20
-125.089694521679
 10
77.77509763680622
 20
-125.089694521679
 97
        0
 97
        0
 75
     2
 76
     1
 98
        0
  0
POLYLINE
  5
A5
330
9F
100
AcDbEntity
  8
_U+30EC_U+30A4_U+30E4_U+30FC 1
370
     0
100
AcDb2dPolyline
 66
     1
 10
0.0
 20
0.0
 30
0.0
  0
VERTEX
  5
A6
330
A5
100
AcDbEntity
  8
_U+30EC_U+30A4_U+30E4_U+30FC 1
370
     0
100
AcDbVertex
100
AcDb2dVertex
 10
77.77509763680622
 20
-124.304212751042
 30
0.0
  0
VERTEX
  5
A7
330
A5
100
AcDbEntity
  8
_U+30EC_U+30A4_U+30E4_U+30FC 1
370
     0
100
AcDbVertex
100
AcDb2dVertex
 10
77.52326115683447
 20
-124.304212751042
 30
0.0
  0
VERTEX
  5
A8
330
A5
100
AcDbEntity
  8
_U+30EC_U+30A4_U+30E4_U+30FC 1
370
     0
100
AcDbVertex
100
AcDb2dVertex
 10
77.52326115683447
 20
-124.0523762710702
 30
0.0
  0
VERTEX
  5
A9
330
A5
100
AcDbEntity
  8
_U+30EC_U+30A4_U+30E4_U+30FC 1
370
     0
100
AcDbVertex
100
AcDb2dVertex
 10
77.77509763680622
 20
-124.0523762710702
 30
0.0
  0
VERTEX
  5
AA
330
A5
100
AcDbEntity
  8
_U+30EC_U+30A4_U+30E4_U+30FC 1
370
     0
100
AcDbVertex
100
AcDb2dVertex
 10
77.77509763680622
 20
-124.304212751042
 30
0.0
  0
SEQEND
  5
AB
330
A5
100
AcDbEntity
  8
_U+30EC_U+30A4_U+30E4_U+30FC 1
370
     0
  0
HATCH
  5
AC
330
9F
100
AcDbEntity
  8
_U+30EC_U+30A4_U+30E4_U+30FC 1
 62
     7
420
 16777215
100
AcDbHatch
 10
0.0
 20
0.0
 30
0.0
210
0.0
220
0.0
230
1.0
  2
SOLID
 70
     1
 71
     0
 91
        1
 92
        1
 93
        4
 72
     1
 10
77.77509763680622
 20
-124.304212751042
 11
77.52326115683447
 21
-124.304212751042
 72
     1
 10
77.52326115683447
 20
-124.304212751042
 11
77.52326115683447
 21
-124.0523762710702
 72
     1
 10
77.52326115683447
 20
-124.0523762710702
 11
77.77509763680622
 21
-124.0523762710702
 72
     1
 10
77.77509763680622
 20
-124.0523762710702
 11
77.77509763680622
 21
-124.304212751042
 97
        0
 75
     2
 76
     1
 98
        0
  0
SPLINE
  5
AD
330
9F
100
AcDbEntity
  8
_U+30EC_U+30A4_U+30E4_U+30FC 1
370
     0
100
AcDbSpline
210
0.0
220
0.0
230
1.0
 70
    11
 71
     3
 72
    44
 73
    40
 74
     0
 42
0.0000000001
 43
0.0000000001
 12
1.0
 22
0.0
 32
0.0
 13
1.0
 23
0.0
 33
0.0
 40
0.0
 40
0.0
 40
0.0
 40
0.0
 40
1.0
 40
1.0
 40
1.0
 40
2.0
 40
2.0
 40
2.0
 40
3.0
 40
3.0
 40
3.0
 40
4.0
 40
4.0
 40
4.0
 40
5.0
 40
5.0
 40
5.0
 40
6.0
 40
6.0
 40
6.0
 40
7.0
 40
7.0
 40
7.0
 40
8.0
 40
8.0
 40
8.0
 40
9.0
 40
9.0
 40
9.0
 40
10.0
 40
10.0
 40
10.0
 40
11.0
 40
11.0
 40
11.0
 40
12.0
 40
12.0
 40
12.0
 40
13.0
 40
13.0
 40
13.0
 40
13.0
 10
77.19322100934752
 20
-123.2231417877706
 30
0.0
 10
77.35203991121755
 20
-123.4408718224384
 30
0.0
 10
77.42610946415041
 20
-123.5338894005401
 30
0.0
 10
77.56976994588534
 20
-123.5828097564307
 30
0.0
 10
77.56976994588534
 20
-123.5828097564307
 30
0.0
 10
77.56976994588534
 20
-122.8042181767642
 30
0.0
 10
77.56976994588534
 20
-122.8042181767642
 30
0.0
 10
77.56976994588534
 20
-122.8042181767642
 30
0.0
 10
77.77509763680622
 20
-122.8042181767642
 30
0.0
 10
77.77509763680622
 20
-122.8042181767642
 30
0.0
 10
77.77509763680622
 20
-122.8042181767642
 30
0.0
 10
77.77509763680622
 20
-123.8322346695628
 30
0.0
 10
77.77509763680622
 20
-123.8322346695628
 30
0.0
 10
77.4174967254373
 20
-123.8005397910985
 30
0.0
 10
77.33929305792212
 20
-123.7350829768787
 30
0.0
 10
77.04094778889949
 20
-123.3499213016278
 30
0.0
 10
76.84216577940057
 20
-123.0939507070737
 30
0.0
 10
76.77429739834115
 20
-123.028493892854
 30
0.0
 10
76.63683808847968
 20
-123.028493892854
 30
0.0
 10
76.51832680378709
 20
-123.028493892854
 30
0.0
 10
76.38741317534759
 20
-123.1004963884957
 30
0.0
 10
76.38741317534759
 20
-123.2972113407035
 30
0.0
 10
76.38741317534759
 20
-123.5573160498398
 30
0.0
 10
76.61789006331081
 20
-123.565928788553
 30
0.0
 10
76.73433429071225
 20
-123.5700629031353
 30
0.0
 10
76.73433429071225
 20
-123.5700629031353
 30
0.0
 10
76.73433429071225
 20
-123.794338619225
 30
0.0
 10
76.73433429071225
 20
-123.794338619225
 30
0.0
 10
76.60721026730653
 20
-123.7857258805119
 30
0.0
 10
76.49524466403591
 20
-123.7750460845076
 30
0.0
 10
76.37673337934332
 20
-123.6947753597013
 30
0.0
 10
76.21584742018216
 20
-123.5848768137218
 30
0.0
 10
76.18208548442671
 20
-123.3984971479698
 30
0.0
 10
76.18208548442671
 20
-123.2823974301169
 30
0.0
 10
76.18208548442671
 20
-123.0050672435543
 30
0.0
 10
76.36605358333905
 20
-122.7976724953423
 30
0.0
 10
76.63890514577083
 20
-122.7976724953423
 30
0.0
 10
76.86765948599142
 20
-122.7976724953423
 30
0.0
 10
76.96687823596662
 20
-122.9141167227437
 30
0.0
 10
77.19322100934752
 20
-123.2231417877706
 30
0.0
  0
HATCH
  5
AE
330
9F
100
AcDbEntity
  8
_U+30EC_U+30A4_U+30E4_U+30FC 1
 62
     7
420
 16777215
100
AcDbHatch
 10
0.0
 20
0.0
 30
0.0
210
0.0
220
0.0
230
1.0
  2
SOLID
 70
     1
 71
     0
 91
        1
 92
        1
 93
        1
 72
     4
 94
        3
 73
     0
 74
     1
 95
       44
 96
       40
 40
0.0
 40
0.0
 40
0.0
 40
0.0
 40
1.0
 40
1.0
 40
1.0
 40
2.0
 40
2.0
 40
2.0
 40
3.0
 40
3.0
 40
3.0
 40
4.0
 40
4.0
 40
4.0
 40
5.0
 40
5.0
 40
5.0
 40
6.0
 40
6.0
 40
6.0
 40
7.0
 40
7.0
 40
7.0
 40
8.0
 40
8.0
 40
8.0
 40
9.0
 40
9.0
 40
9.0
 40
10.0
 40
10.0
 40
10.0
 40
11.0
 40
11.0
 40
11.0
 40
12.0
 40
12.0
 40
12.0
 40
13.0
 40
13.0
 40
13.0
 40
13.0
 10
77.19322100934752
 20
-123.2231417877706
 10
77.35203991121755
 20
-123.4408718224384
 10
77.42610946415041
 20
-123.5338894005401
 10
77.56976994588534
 20
-123.5828097564307
 10
77.56976994588534
 20
-123.5828097564307
 10
77.56976994588534
 20
-122.8042181767642
 10
77.56976994588534
 20
-122.8042181767642
 10
77.56976994588534
 20
-122.8042181767642
 10
77.77509763680622
 20
-122.8042181767642
 10
77.77509763680622
 20
-122.8042181767642
 10
77.77509763680622
 20
-122.8042181767642
 10
77.77509763680622
 20
-123.8322346695628
 10
77.77509763680622
 20
-123.8322346695628
 10
77.4174967254373
 20
-123.8005397910985
 10
77.33929305792212
 20
-123.7350829768787
 10
77.04094778889949
 20
-123.3499213016278
 10
76.84216577940057
 20
-123.0939507070737
 10
76.77429739834115
 20
-123.028493892854
 10
76.63683808847968
 20
-123.028493892854
 10
76.51832680378709
 20
-123.028493892854
 10
76.38741317534759
 20
-123.1004963884957
 10
76.38741317534759
 20
-123.2972113407035
 10
76.38741317534759
 20
-123.5573160498398
 10
76.61789006331081
 20
-123.565928788553
 10
76.73433429071225
 20
-123.5700629031353
 10
76.73433429071225
 20
-123.5700629031353
 10
76.73433429071225
 20
-123.794338619225
 10
76.73433429071225
 20
-123.794338619225
 10
76.60721026730653
 20
-123.7857258805119
 10
76.49524466403591
 20
-123.7750460845076
 10
76.37673337934332
 20
-123.6947753597013
 10
76.21584742018216
 20
-123.5848768137218
 10
76.18208548442671
 20
-123.3984971479698
 10
76.18208548442671
 20
-123.2823974301169
 10
76.18208548442671
 20
-123.0050672435543
 10
76.36605358333905
 20
-122.7976724953423
 10
76.63890514577083
 20
-122.7976724953423
 10
76.86765948599142
 20
-122.7976724953423
 10
76.96687823596662
 20
-122.9141167227437
 10
77.19322100934752
 20
-123.2231417877706
 97
        0
 97
        0
 75
     2
 76
     1
 98
        0
  0
ENDBLK
  5
A2
330
9F
100
AcDbEntity
  8
0
100
AcDbBlockEnd
  0
BLOCK
  5
B9
330
B7
100
AcDbEntity
  8
0
100
AcDbBlockBegin
  2
block 7
 70
     0
 10
0.0
 20
0.0
 30
0.0
  3
block 7
  1

  0
SPLINE
  5
BB
330
B7
100
AcDbEntity
  8
_U+30EC_U+30A4_U+30E4_U+30FC 1
370
     0
100
AcDbSpline
210
0.0
220
0.0
230
1.0
 70
    11
 71
     3
 72
    26
 73
    22
 74
     0
 42
0.0000000001
 43
0.0000000001
 12
1.0
 22
0.0
 32
0.0
 13
1.0
 23
0.0
 33
0.0
 40
0.0
 40
0.0
 40
0.0
 40
0.0
 40
1.0
 40
1.0
 40
1.0
 40
2.0
 40
2.0
 40
2.0
 40
3.0
 40
3.0
 40
3.0
 40
4.0
 40
4.0
 40
4.0
 40
5.0
 40
5.0
 40
5.0
 40
6.0
 40
6.0
 40
6.0
 40
7.0
 40
7.0
 40
7.0
 40
7.0
 10
78.21538083982117
 20
-133.6834852096347
 30
0.0
 10
78.21538083982117
 20
-133.6834852096347
 30
0.0
 10
77.11122773679858
 20
-133.6834852096347
 30
0.0
 10
77.11122773679858
 20
-133.6834852096347
 30
0.0
 10
77.11122773679858
 20
-133.6834852096347
 30
0.0
 10
77.11122773679858
 20
-134.0135253571216
 30
0.0
 10
77.11122773679858
 20
-134.0135253571216
 30
0.0
 10
77.11122773679858
 20
-134.0135253571216
 30
0.0
 10
76.96308863093284
 20
-134.0135253571216
 30
0.0
 10
76.96308863093284
 20
-134.0135253571216
 30
0.0
 10
76.94827472034626
 20
-133.6814181523436
 30
0.0
 10
76.78532170389396
 20
-133.6349093632927
 30
0.0
 10
76.67094453378365
 20
-133.6052815421195
 30
0.0
 10
76.67094453378365
 20
-133.6052815421195
 30
0.0
 10
76.67094453378365
 20
-133.4592094935449
 30
0.0
 10
76.67094453378365
 20
-133.4592094935449
 30
0.0
 10
76.67094453378365
 20
-133.4592094935449
 30
0.0
 10
78.21538083982117
 20
-133.4592094935449
 30
0.0
 10
78.21538083982117
 20
-133.4592094935449
 30
0.0
 10
78.21538083982117
 20
-133.4592094935449
 30
0.0
 10
78.21538083982117
 20
-133.6834852096347
 30
0.0
 10
78.21538083982117
 20
-133.6834852096347
 30
0.0
  0
HATCH
  5
BC
330
B7
100
AcDbEntity
  8
_U+30EC_U+30A4_U+30E4_U+30FC 1
 62
     7
420
 16777215
100
AcDbHatch
 10
0.0
 20
0.0
 30
0.0
210
0.0
220
0.0
230
1.0
  2
SOLID
 70
     1
 71
     0
 91
        1
 92
        1
 93
        1
 72
     4
 94
        3
 73
     0
 74
     1
 95
       26
 96
       22
 40
0.0
 40
0.0
 40
0.0
 40
0.0
 40
1.0
 40
1.0
 40
1.0
 40
2.0
 40
2.0
 40
2.0
 40
3.0
 40
3.0
 40
3.0
 40
4.0
 40
4.0
 40
4.0
 40
5.0
 40
5.0
 40
5.0
 40
6.0
 40
6.0
 40
6.0
 40
7.0
 40
7.0
 40
7.0
 40
7.0
 10
78.21538083982117
 20
-133.6834852096347
 10
78.21538083982117
 20
-133.6834852096347
 10
77.11122773679858
 20
-133.6834852096347
 10
77.11122773679858
 20
-133.6834852096347
 10
77.11122773679858
 20
-133.6834852096347
 10
77.11122773679858
 20
-134.0135253571216
 10
77.11122773679858
 20
-134.0135253571216
 10
77.11122773679858
 20
-134.0135253571216
 10
76.96308863093284
 20
-134.0135253571216
 10
76.96308863093284
 20
-134.0135253571216
 10
76.94827472034626
 20
-133.6814181523436
 10
76.78532170389396
 20
-133.6349093632927
 10
76.67094453378365
 20
-133.6052815421195
 10
76.67094453378365
 20
-133.6052815421195
 10
76.67094453378365
 20
-133.4592094935449
 10
76.67094453378365
 20
-133.4592094935449
 10
76.67094453378365
 20
-133.4592094935449
 10
78.21538083982117
 20
-133.4592094935449
 10
78.21538083982117
 20
-133.4592094935449
 10
78.21538083982117
 20
-133.4592094935449
 10
78.21538083982117
 20
-133.6834852096347
 10
78.21538083982117
 20
-133.6834852096347
 97
        0
 97
        0
 75
     2
 76
     1
 98
        0
  0
SPLINE
  5
BD
330
B7
100
AcDbEntity
  8
_U+30EC_U+30A4_U+30E4_U+30FC 1
370
     0
100
AcDbSpline
210
0.0
220
0.0
230
1.0
 70
    11
 71
     3
 72
    26
 73
    22
 74
     0
 42
0.0000000001
 43
0.0000000001
 12
1.0
 22
0.0
 32
0.0
 13
1.0
 23
0.0
 33
0.0
 40
0.0
 40
0.0
 40
0.0
 40
0.0
 40
1.0
 40
1.0
 40
1.0
 40
2.0
 40
2.0
 40
2.0
 40
3.0
 40
3.0
 40
3.0
 40
4.0
 40
4.0
 40
4.0
 40
5.0
 40
5.0
 40
5.0
 40
6.0
 40
6.0
 40
6.0
 40
7.0
 40
7.0
 40
7.0
 40
7.0
 10
78.21538083982117
 20
-132.5469482090508
 30
0.0
 10
78.21538083982117
 20
-132.5469482090508
 30
0.0
 10
78.21538083982117
 20
-132.783970778436
 30
0.0
 10
78.21538083982117
 20
-132.783970778436
 30
0.0
 10
77.90635577479425
 20
-132.7584770718451
 30
0.0
 10
77.38821341381268
 20
-132.5658962342197
 30
0.0
 10
76.88247339657799
 20
-132.1597194765087
 30
0.0
 10
76.88247339657799
 20
-132.1597194765087
 30
0.0
 10
76.88247339657799
 20
-132.9975666985214
 30
0.0
 10
76.88247339657799
 20
-132.9975666985214
 30
0.0
 10
76.88247339657799
 20
-132.9975666985214
 30
0.0
 10
76.67094453378365
 20
-132.9975666985214
 30
0.0
 10
76.67094453378365
 20
-132.9975666985214
 30
0.0
 10
76.67094453378365
 20
-132.9975666985214
 30
0.0
 10
76.67094453378365
 20
-131.9226969071235
 30
0.0
 10
76.67094453378365
 20
-131.9226969071235
 30
0.0
 10
76.67094453378365
 20
-131.9226969071235
 30
0.0
 10
76.88247339657799
 20
-131.9226969071235
 30
0.0
 10
76.88247339657799
 20
-131.9226969071235
 30
0.0
 10
77.17255043643603
 20
-132.246535882737
 30
0.0
 10
77.76476235035048
 20
-132.5131862732953
 30
0.0
 10
78.21538083982117
 20
-132.5469482090508
 30
0.0
  0
HATCH
  5
BE
330
B7
100
AcDbEntity
  8
_U+30EC_U+30A4_U+30E4_U+30FC 1
 62
     7
420
 16777215
100
AcDbHatch
 10
0.0
 20
0.0
 30
0.0
210
0.0
220
0.0
230
1.0
  2
SOLID
 70
     1
 71
     0
 91
        1
 92
        1
 93
        1
 72
     4
 94
        3
 73
     0
 74
     1
 95
       26
 96
       22
 40
0.0
 40
0.0
 40
0.0
 40
0.0
 40
1.0
 40
1.0
 40
1.0
 40
2.0
 40
2.0
 40
2.0
 40
3.0
 40
3.0
 40
3.0
 40
4.0
 40
4.0
 40
4.0
 40
5.0
 40
5.0
 40
5.0
 40
6.0
 40
6.0
 40
6.0
 40
7.0
 40
7.0
 40
7.0
 40
7.0
 10
78.21538083982117
 20
-132.5469482090508
 10
78.21538083982117
 20
-132.5469482090508
 10
78.21538083982117
 20
-132.783970778436
 10
78.21538083982117
 20
-132.783970778436
 10
77.90635577479425
 20
-132.7584770718451
 10
77.38821341381268
 20
-132.5658962342197
 10
76.88247339657799
 20
-132.1597194765087
 10
76.88247339657799
 20
-132.1597194765087
 10
76.88247339657799
 20
-132.9975666985214
 10
76.88247339657799
 20
-132.9975666985214
 10
76.88247339657799
 20
-132.9975666985214
 10
76.67094453378365
 20
-132.9975666985214
 10
76.67094453378365
 20
-132.9975666985214
 10
76.67094453378365
 20
-132.9975666985214
 10
76.67094453378365
 20
-131.9226969071235
 10
76.67094453378365
 20
-131.9226969071235
 10
76.67094453378365
 20
-131.9226969071235
 10
76.88247339657799
 20
-131.9226969071235
 10
76.88247339657799
 20
-131.9226969071235
 10
77.17255043643603
 20
-132.246535882737
 10
77.76476235035048
 20
-132.5131862732953
 10
78.21538083982117
 20
-132.5469482090508
 97
        0
 97
        0
 75
     2
 76
     1
 98
        0
  0
ENDBLK
  5
BA
330
B7
100
AcDbEntity
  8
0
100
AcDbBlockEnd
  0
ENDSEC
  0
SECTION
  2
ENTITIES
  0
SPLINE
  5
41
330
1F
100
AcDbEntity
  8
_U+30EC_U+30A4_U+30E4_U+30FC 1
370
     0
100
AcDbSpline
210
0.0
220
0.0
230
1.0
 70
    11
 71
     3
 72
    68
 73
    64
 74
     0
 42
0.0000000001
 43
0.0000000001
 12
1.0
 22
0.0
 32
0.0
 13
1.0
 23
0.0
 33
0.0
 40
0.0
 40
0.0
 40
0.0
 40
0.0
 40
1.0
 40
1.0
 40
1.0
 40
2.0
 40
2.0
 40
2.0
 40
3.0
 40
3.0
 40
3.0
 40
4.0
 40
4.0
 40
4.0
 40
5.0
 40
5.0
 40
5.0
 40
6.0
 40
6.0
 40
6.0
 40
7.0
 40
7.0
 40
7.0
 40
8.0
 40
8.0
 40
8.0
 40
9.0
 40
9.0
 40
9.0
 40
10.0
 40
10.0
 40
10.0
 40
11.0
 40
11.0
 40
11.0
 40
12.0
 40
12.0
 40
12.0
 40
13.0
 40
13.0
 40
13.0
 40
14.0
 40
14.0
 40
14.0
 40
15.0
 40
15.0
 40
15.0
 40
16.0
 40
16.0
 40
16.0
 40
17.0
 40
17.0
 40
17.0
 40
18.0
 40
18.0
 40
18.0
 40
19.0
 40
19.0
 40
19.0
 40
20.0
 40
20.0
 40
20.0
 40
21.0
 40
21.0
 40
21.0
 40
21.0
 10
84.86132727945161
 20
-124.5477710799743
 30
0.0
 10
84.86132727945161
 20
-124.5477710799743
 30
0.0
 10
82.86107733048225
 20
-124.5477710799743
 30
0.0
 10
82.86107733048225
 20
-124.5477710799743
 30
0.0
 10
82.86107733048225
 20
-124.5477710799743
 30
0.0
 10
82.86107733048225
 20
-123.3478680247186
 30
0.0
 10
82.86107733048225
 20
-123.3478680247186
 30
0.0
 10
82.86107733048225
 20
-123.3478680247186
 30
0.0
 10
106.7242356105712
 20
-123.3478680247186
 30
0.0
 10
106.7242356105712
 20
-123.3478680247186
 30
0.0
 10
107.144535044293
 20
-123.3478680247186
 30
0.0
 10
107.5200669791568
 20
-123.6107227468752
 30
0.0
 10
107.6640708643718
 20
-124.0058691356653
 30
0.0
 10
107.6640708643718
 20
-124.0058691356653
 30
0.0
 10
107.8610999730346
 20
-124.5477710799743
 30
0.0
 10
107.8610999730346
 20
-124.5477710799743
 30
0.0
 10
107.8610999730346
 20
-124.5477710799743
 30
0.0
 10
85.86106419839065
 20
-124.5477710799743
 30
0.0
 10
85.86106419839065
 20
-124.5477710799743
 30
0.0
 10
85.86106419839065
 20
-124.5477710799743
 30
0.0
 10
85.86106419839065
 20
-126.5476683016965
 30
0.0
 10
85.86106419839065
 20
-126.5476683016965
 30
0.0
 10
85.86106419839065
 20
-126.5476683016965
 30
0.0
 10
86.86118917287534
 20
-126.5476683016965
 30
0.0
 10
86.86118917287534
 20
-126.5476683016965
 30
0.0
 10
86.86118917287534
 20
-126.5476683016965
 30
0.0
 10
85.86106419839065
 20
-131.5478699671133
 30
0.0
 10
85.86106419839065
 20
-131.5478699671133
 30
0.0
 10
85.86106419839065
 20
-131.5478699671133
 30
0.0
 10
86.86118917287534
 20
-131.5478699671133
 30
0.0
 10
86.86118917287534
 20
-131.5478699671133
 30
0.0
 10
86.86118917287534
 20
-131.5478699671133
 30
0.0
 10
85.86106419839065
 20
-136.5477541325299
 30
0.0
 10
85.86106419839065
 20
-136.5477541325299
 30
0.0
 10
85.86106419839065
 20
-136.5477541325299
 30
0.0
 10
86.86118917287534
 20
-136.5477541325299
 30
0.0
 10
86.86118917287534
 20
-136.5477541325299
 30
0.0
 10
86.86118917287534
 20
-136.5477541325299
 30
0.0
 10
85.86106419839065
 20
-141.5476030201689
 30
0.0
 10
85.86106419839065
 20
-141.5476030201689
 30
0.0
 10
85.86106419839065
 20
-141.5476030201689
 30
0.0
 10
84.86132727945161
 20
-141.5476030201689
 30
0.0
 10
84.86132727945161
 20
-141.5476030201689
 30
0.0
 10
84.86132727945161
 20
-141.5476030201689
 30
0.0
 10
83.86120230496694
 20
-136.5477541325299
 30
0.0
 10
83.86120230496694
 20
-136.5477541325299
 30
0.0
 10
83.86120230496694
 20
-136.5477541325299
 30
0.0
 10
84.86132727945161
 20
-136.5477541325299
 30
0.0
 10
84.86132727945161
 20
-136.5477541325299
 30
0.0
 10
84.86132727945161
 20
-136.5477541325299
 30
0.0
 10
83.86120230496694
 20
-131.5478699671133
 30
0.0
 10
83.86120230496694
 20
-131.5478699671133
 30
0.0
 10
83.86120230496694
 20
-131.5478699671133
 30
0.0
 10
84.86132727945161
 20
-131.5478699671133
 30
0.0
 10
84.86132727945161
 20
-131.5478699671133
 30
0.0
 10
84.86132727945161
 20
-131.5478699671133
 30
0.0
 10
83.86120230496694
 20
-126.5476683016965
 30
0.0
 10
83.86120230496694
 20
-126.5476683016965
 30
0.0
 10
83.86120230496694
 20
-126.5476683016965
 30
0.0
 10
84.86132727945161
 20
-126.5476683016965
 30
0.0
 10
84.86132727945161
 20
-126.5476683016965
 30
0.0
 10
84.86132727945161
 20
-126.5476683016965
 30
0.0
 10
84.86132727945161
 20
-124.5477710799743
 30
0.0
 10
84.86132727945161
 20
-124.5477710799743
 30
0.0
  0
HATCH
  5
42
330
1F
100
AcDbEntity
  8
_U+30EC_U+30A4_U+30E4_U+30FC 1
 62
   253
420
 11711154
100
AcDbHatch
 10
0.0
 20
0.0
 30
0.0
210
0.0
220
0.0
230
1.0
  2
SOLID
 70
     1
 71
     0
 91
        1
 92
        1
 93
        1
 72
     4
 94
        3
 73
     0
 74
     1
 95
       68
 96
       64
 40
0.0
 40
0.0
 40
0.0
 40
0.0
 40
1.0
 40
1.0
 40
1.0
 40
2.0
 40
2.0
 40
2.0
 40
3.0
 40
3.0
 40
3.0
 40
4.0
 40
4.0
 40
4.0
 40
5.0
 40
5.0
 40
5.0
 40
6.0
 40
6.0
 40
6.0
 40
7.0
 40
7.0
 40
7.0
 40
8.0
 40
8.0
 40
8.0
 40
9.0
 40
9.0
 40
9.0
 40
10.0
 40
10.0
 40
10.0
 40
11.0
 40
11.0
 40
11.0
 40
12.0
 40
12.0
 40
12.0
 40
13.0
 40
13.0
 40
13.0
 40
14.0
 40
14.0
 40
14.0
 40
15.0
 40
15.0
 40
15.0
 40
16.0
 40
16.0
 40
16.0
 40
17.0
 40
17.0
 40
17.0
 40
18.0
 40
18.0
 40
18.0
 40
19.0
 40
19.0
 40
19.0
 40
20.0
 40
20.0
 40
20.0
 40
21.0
 40
21.0
 40
21.0
 40
21.0
 10
84.86132727945161
 20
-124.5477710799743
 10
84.86132727945161
 20
-124.5477710799743
 10
82.86107733048225
 20
-124.5477710799743
 10
82.86107733048225
 20
-124.5477710799743
 10
82.86107733048225
 20
-124.5477710799743
 10
82.86107733048225
 20
-123.3478680247186
 10
82.86107733048225
 20
-123.3478680247186
 10
82.86107733048225
 20
-123.3478680247186
 10
106.7242356105712
 20
-123.3478680247186
 10
106.7242356105712
 20
-123.3478680247186
 10
107.144535044293
 20
-123.3478680247186
 10
107.5200669791568
 20
-123.6107227468752
 10
107.6640708643718
 20
-124.0058691356653
 10
107.6640708643718
 20
-124.0058691356653
 10
107.8610999730346
 20
-124.5477710799743
 10
107.8610999730346
 20
-124.5477710799743
 10
107.8610999730346
 20
-124.5477710799743
 10
85.86106419839065
 20
-124.5477710799743
 10
85.86106419839065
 20
-124.5477710799743
 10
85.86106419839065
 20
-124.5477710799743
 10
85.86106419839065
 20
-126.5476683016965
 10
85.86106419839065
 20
-126.5476683016965
 10
85.86106419839065
 20
-126.5476683016965
 10
86.86118917287534
 20
-126.5476683016965
 10
86.86118917287534
 20
-126.5476683016965
 10
86.86118917287534
 20
-126.5476683016965
 10
85.86106419839065
 20
-131.5478699671133
 10
85.86106419839065
 20
-131.5478699671133
 10
85.86106419839065
 20
-131.5478699671133
 10
86.86118917287534
 20
-131.5478699671133
 10
86.86118917287534
 20
-131.5478699671133
 10
86.86118917287534
 20
-131.5478699671133
 10
85.86106419839065
 20
-136.5477541325299
 10
85.86106419839065
 20
-136.5477541325299
 10
85.86106419839065
 20
-136.5477541325299
 10
86.86118917287534
 20
-136.5477541325299
 10
86.86118917287534
 20
-136.5477541325299
 10
86.86118917287534
 20
-136.5477541325299
 10
85.86106419839065
 20
-141.5476030201689
 10
85.86106419839065
 20
-141.5476030201689
 10
85.86106419839065
 20
-141.5476030201689
 10
84.86132727945161
 20
-141.5476030201689
 10
84.86132727945161
 20
-141.5476030201689
 10
84.86132727945161
 20
-141.5476030201689
 10
83.86120230496694
 20
-136.5477541325299
 10
83.86120230496694
 20
-136.5477541325299
 10
83.86120230496694
 20
-136.5477541325299
 10
84.86132727945161
 20
-136.5477541325299
 10
84.86132727945161
 20
-136.5477541325299
 10
84.86132727945161
 20
-136.5477541325299
 10
83.86120230496694
 20
-131.5478699671133
 10
83.86120230496694
 20
-131.5478699671133
 10
83.86120230496694
 20
-131.5478699671133
 10
84.86132727945161
 20
-131.5478699671133
 10
84.86132727945161
 20
-131.5478699671133
 10
84.86132727945161
 20
-131.5478699671133
 10
83.86120230496694
 20
-126.5476683016965
 10
83.86120230496694
 20
-126.5476683016965
 10
83.86120230496694
 20
-126.5476683016965
 10
84.86132727945161
 20
-126.5476683016965
 10
84.86132727945161
 20
-126.5476683016965
 10
84.86132727945161
 20
-126.5476683016965
 10
84.86132727945161
 20
-124.5477710799743
 10
84.86132727945161
 20
-124.5477710799743
 97
        0
 97
        0
 75
     2
 76
     1
 98
        0
  0
SPLINE
  5
43
330
1F
100
AcDbEntity
  8
_U+30EC_U+30A4_U+30E4_U+30FC 1
 62
     7
420
 16777215
370
    25
100
AcDbSpline
210
0.0
220
0.0
230
1.0
 70
    11
 71
     3
 72
    68
 73
    64
 74
     0
 42
0.0000000001
 43
0.0000000001
 12
1.0
 22
0.0
 32
0.0
 13
1.0
 23
0.0
 33
0.0
 40
0.0
 40
0.0
 40
0.0
 40
0.0
 40
1.0
 40
1.0
 40
1.0
 40
2.0
 40
2.0
 40
2.0
 40
3.0
 40
3.0
 40
3.0
 40
4.0
 40
4.0
 40
4.0
 40
5.0
 40
5.0
 40
5.0
 40
6.0
 40
6.0
 40
6.0
 40
7.0
 40
7.0
 40
7.0
 40
8.0
 40
8.0
 40
8.0
 40
9.0
 40
9.0
 40
9.0
 40
10.0
 40
10.0
 40
10.0
 40
11.0
 40
11.0
 40
11.0
 40
12.0
 40
12.0
 40
12.0
 40
13.0
 40
13.0
 40
13.0
 40
14.0
 40
14.0
 40
14.0
 40
15.0
 40
15.0
 40
15.0
 40
16.0
 40
16.0
 40
16.0
 40
17.0
 40
17.0
 40
17.0
 40
18.0
 40
18.0
 40
18.0
 40
19.0
 40
19.0
 40
19.0
 40
20.0
 40
20.0
 40
20.0
 40
21.0
 40
21.0
 40
21.0
 40
21.0
 10
84.86132727945161
 20
-124.5477710799743
 30
0.0
 10
84.86132727945161
 20
-124.5477710799743
 30
0.0
 10
82.86107733048225
 20
-124.5477710799743
 30
0.0
 10
82.86107733048225
 20
-124.5477710799743
 30
0.0
 10
82.86107733048225
 20
-124.5477710799743
 30
0.0
 10
82.86107733048225
 20
-123.3478680247186
 30
0.0
 10
82.86107733048225
 20
-123.3478680247186
 30
0.0
 10
82.86107733048225
 20
-123.3478680247186
 30
0.0
 10
106.7242356105712
 20
-123.3478680247186
 30
0.0
 10
106.7242356105712
 20
-123.3478680247186
 30
0.0
 10
107.144535044293
 20
-123.3478680247186
 30
0.0
 10
107.5200669791568
 20
-123.6107227468752
 30
0.0
 10
107.6640708643718
 20
-124.0058691356653
 30
0.0
 10
107.6640708643718
 20
-124.0058691356653
 30
0.0
 10
107.8610999730346
 20
-124.5477710799743
 30
0.0
 10
107.8610999730346
 20
-124.5477710799743
 30
0.0
 10
107.8610999730346
 20
-124.5477710799743
 30
0.0
 10
85.86106419839065
 20
-124.5477710799743
 30
0.0
 10
85.86106419839065
 20
-124.5477710799743
 30
0.0
 10
85.86106419839065
 20
-124.5477710799743
 30
0.0
 10
85.86106419839065
 20
-126.5476683016965
 30
0.0
 10
85.86106419839065
 20
-126.5476683016965
 30
0.0
 10
85.86106419839065
 20
-126.5476683016965
 30
0.0
 10
86.86118917287534
 20
-126.5476683016965
 30
0.0
 10
86.86118917287534
 20
-126.5476683016965
 30
0.0
 10
86.86118917287534
 20
-126.5476683016965
 30
0.0
 10
85.86106419839065
 20
-131.5478699671133
 30
0.0
 10
85.86106419839065
 20
-131.5478699671133
 30
0.0
 10
85.86106419839065
 20
-131.5478699671133
 30
0.0
 10
86.86118917287534
 20
-131.5478699671133
 30
0.0
 10
86.86118917287534
 20
-131.5478699671133
 30
0.0
 10
86.86118917287534
 20
-131.5478699671133
 30
0.0
 10
85.86106419839065
 20
-136.5477541325299
 30
0.0
 10
85.86106419839065
 20
-136.5477541325299
 30
0.0
 10
85.86106419839065
 20
-136.5477541325299
 30
0.0
 10
86.86118917287534
 20
-136.5477541325299
 30
0.0
 10
86.86118917287534
 20
-136.5477541325299
 30
0.0
 10
86.86118917287534
 20
-136.5477541325299
 30
0.0
 10
85.86106419839065
 20
-141.5476030201689
 30
0.0
 10
85.86106419839065
 20
-141.5476030201689
 30
0.0
 10
85.86106419839065
 20
-141.5476030201689
 30
0.0
 10
84.86132727945161
 20
-141.5476030201689
 30
0.0
 10
84.86132727945161
 20
-141.5476030201689
 30
0.0
 10
84.86132727945161
 20
-141.5476030201689
 30
0.0
 10
83.86120230496694
 20
-136.5477541325299
 30
0.0
 10
83.86120230496694
 20
-136.5477541325299
 30
0.0
 10
83.86120230496694
 20
-136.5477541325299
 30
0.0
 10
84.86132727945161
 20
-136.5477541325299
 30
0.0
 10
84.86132727945161
 20
-136.5477541325299
 30
0.0
 10
84.86132727945161
 20
-136.5477541325299
 30
0.0
 10
83.86120230496694
 20
-131.5478699671133
 30
0.0
 10
83.86120230496694
 20
-131.5478699671133
 30
0.0
 10
83.86120230496694
 20
-131.5478699671133
 30
0.0
 10
84.86132727945161
 20
-131.5478699671133
 30
0.0
 10
84.86132727945161
 20
-131.5478699671133
 30
0.0
 10
84.86132727945161
 20
-131.5478699671133
 30
0.0
 10
83.86120230496694
 20
-126.5476683016965
 30
0.0
 10
83.86120230496694
 20
-126.5476683016965
 30
0.0
 10
83.86120230496694
 20
-126.5476683016965
 30
0.0
 10
84.86132727945161
 20
-126.5476683016965
 30
0.0
 10
84.86132727945161
 20
-126.5476683016965
 30
0.0
 10
84.86132727945161
 20
-126.5476683016965
 30
0.0
 10
84.86132727945161
 20
-124.5477710799743
 30
0.0
 10
84.86132727945161
 20
-124.5477710799743
 30
0.0
  0
SPLINE
  5
44
330
1F
100
AcDbEntity
  8
_U+30EC_U+30A4_U+30E4_U+30FC 1
 62
     7
420
 16777215
370
     9
100
AcDbSpline
210
0.0
220
0.0
230
1.0
 70
    11
 71
     3
 72
    17
 73
    13
 74
     0
 42
0.0000000001
 43
0.0000000001
 12
1.0
 22
0.0
 32
0.0
 13
1.0
 23
0.0
 33
0.0
 40
0.0
 40
0.0
 40
0.0
 40
0.0
 40
1.0
 40
1.0
 40
1.0
 40
2.0
 40
2.0
 40
2.0
 40
3.0
 40
3.0
 40
3.0
 40
4.0
 40
4.0
 40
4.0
 40
4.0
 10
90.61118157720506
 20
-136.5477541325299
 30
0.0
 10
90.61118157720506
 20
-136.4926149658768
 30
0.0
 10
90.56637880057029
 20
-136.4478474658882
 30
0.0
 10
90.51127491308722
 20
-136.4478474658882
 30
0.0
 10
90.45613574782728
 20
-136.4478474658882
 30
0.0
 10
90.41136824896938
 20
-136.4926149658768
 30
0.0
 10
90.41136824896938
 20
-136.5477541325299
 30
0.0
 10
90.41136824896938
 20
-136.6028580214048
 30
0.0
 10
90.45613574782728
 20
-136.6476607991715
 30
0.0
 10
90.51127491308722
 20
-136.6476607991715
 30
0.0
 10
90.56637880057029
 20
-136.6476607991715
 30
0.0
 10
90.61118157720506
 20
-136.6028580214048
 30
0.0
 10
90.61118157720506
 20
-136.5477541325299
 30
0.0
  0
SPLINE
  5
45
330
1F
100
AcDbEntity
  8
_U+30EC_U+30A4_U+30E4_U+30FC 1
 62
     7
420
 16777215
370
     9
100
AcDbSpline
210
0.0
220
0.0
230
1.0
 70
    11
 71
     3
 72
    17
 73
    13
 74
     0
 42
0.0000000001
 43
0.0000000001
 12
1.0
 22
0.0
 32
0.0
 13
1.0
 23
0.0
 33
0.0
 40
0.0
 40
0.0
 40
0.0
 40
0.0
 40
1.0
 40
1.0
 40
1.0
 40
2.0
 40
2.0
 40
2.0
 40
3.0
 40
3.0
 40
3.0
 40
4.0
 40
4.0
 40
4.0
 40
4.0
 10
90.61118157720506
 20
-141.5476030201689
 30
0.0
 10
90.61118157720506
 20
-141.4924991312934
 30
0.0
 10
90.56637880057029
 20
-141.4476963535273
 30
0.0
 10
90.51127491308722
 20
-141.4476963535273
 30
0.0
 10
90.45613574782728
 20
-141.4476963535273
 30
0.0
 10
90.41136824896938
 20
-141.4924991312934
 30
0.0
 10
90.41136824896938
 20
-141.5476030201689
 30
0.0
 10
90.41136824896938
 20
-141.6030596868216
 30
0.0
 10
90.45613574782728
 20
-141.6478624645883
 30
0.0
 10
90.51127491308722
 20
-141.6478624645883
 30
0.0
 10
90.56637880057029
 20
-141.6478624645883
 30
0.0
 10
90.61118157720506
 20
-141.6030596868216
 30
0.0
 10
90.61118157720506
 20
-141.5476030201689
 30
0.0
  0
SPLINE
  5
46
330
1F
100
AcDbEntity
  8
_U+30EC_U+30A4_U+30E4_U+30FC 1
 62
     7
420
 16777215
370
     9
100
AcDbSpline
210
0.0
220
0.0
230
1.0
 70
    11
 71
     3
 72
    17
 73
    13
 74
     0
 42
0.0000000001
 43
0.0000000001
 12
1.0
 22
0.0
 32
0.0
 13
1.0
 23
0.0
 33
0.0
 40
0.0
 40
0.0
 40
0.0
 40
0.0
 40
1.0
 40
1.0
 40
1.0
 40
2.0
 40
2.0
 40
2.0
 40
3.0
 40
3.0
 40
3.0
 40
4.0
 40
4.0
 40
4.0
 40
4.0
 10
90.61118157720506
 20
-131.5478699671133
 30
0.0
 10
90.61118157720506
 20
-131.49241330046
 30
0.0
 10
90.56637880057029
 20
-131.4476105226939
 30
0.0
 10
90.51127491308722
 20
-131.4476105226939
 30
0.0
 10
90.45613574782728
 20
-131.4476105226939
 30
0.0
 10
90.41136824896938
 20
-131.49241330046
 30
0.0
 10
90.41136824896938
 20
-131.5478699671133
 30
0.0
 10
90.41136824896938
 20
-131.6030091337658
 30
0.0
 10
90.45613574782728
 20
-131.647776633755
 30
0.0
 10
90.51127491308722
 20
-131.647776633755
 30
0.0
 10
90.56637880057029
 20
-131.647776633755
 30
0.0
 10
90.61118157720506
 20
-131.6030091337658
 30
0.0
 10
90.61118157720506
 20
-131.5478699671133
 30
0.0
  0
SPLINE
  5
47
330
1F
100
AcDbEntity
  8
_U+30EC_U+30A4_U+30E4_U+30FC 1
 62
     7
420
 16777215
370
     9
100
AcDbSpline
210
0.0
220
0.0
230
1.0
 70
    11
 71
     3
 72
    17
 73
    13
 74
     0
 42
0.0000000001
 43
0.0000000001
 12
1.0
 22
0.0
 32
0.0
 13
1.0
 23
0.0
 33
0.0
 40
0.0
 40
0.0
 40
0.0
 40
0.0
 40
1.0
 40
1.0
 40
1.0
 40
2.0
 40
2.0
 40
2.0
 40
3.0
 40
3.0
 40
3.0
 40
4.0
 40
4.0
 40
4.0
 40
4.0
 10
90.61118157720506
 20
-126.5476683016965
 30
0.0
 10
90.61118157720506
 20
-126.4925291350435
 30
0.0
 10
90.56637880057029
 20
-126.4477616350546
 30
0.0
 10
90.51127491308722
 20
-126.4477616350546
 30
0.0
 10
90.45613574782728
 20
-126.4477616350546
 30
0.0
 10
90.41136824896938
 20
-126.4925291350435
 30
0.0
 10
90.41136824896938
 20
-126.5476683016965
 30
0.0
 10
90.41136824896938
 20
-126.6031249683492
 30
0.0
 10
90.45613574782728
 20
-126.6475749683382
 30
0.0
 10
90.51127491308722
 20
-126.6475749683382
 30
0.0
 10
90.56637880057029
 20
-126.6475749683382
 30
0.0
 10
90.61118157720506
 20
-126.6031249683492
 30
0.0
 10
90.61118157720506
 20
-126.5476683016965
 30
0.0
  0
SPLINE
  5
48
330
1F
100
AcDbEntity
  8
_U+30EC_U+30A4_U+30E4_U+30FC 1
 62
     7
420
 16777215
370
     9
100
AcDbSpline
210
0.0
220
0.0
230
1.0
 70
    11
 71
     3
 72
    17
 73
    13
 74
     0
 42
0.0000000001
 43
0.0000000001
 12
1.0
 22
0.0
 32
0.0
 13
1.0
 23
0.0
 33
0.0
 40
0.0
 40
0.0
 40
0.0
 40
0.0
 40
1.0
 40
1.0
 40
1.0
 40
2.0
 40
2.0
 40
2.0
 40
3.0
 40
3.0
 40
3.0
 40
4.0
 40
4.0
 40
4.0
 40
4.0
 10
107.9613566901208
 20
-119.3477560812743
 30
0.0
 10
107.9613566901208
 20
-119.2926169146212
 30
0.0
 10
107.9165891912629
 20
-119.2478494146326
 30
0.0
 10
107.8610999730346
 20
-119.2478494146326
 30
0.0
 10
107.8059933607511
 20
-119.2478494146326
 30
0.0
 10
107.7611905841163
 20
-119.2926169146212
 30
0.0
 10
107.7611905841163
 20
-119.3477560812743
 30
0.0
 10
107.7611905841163
 20
-119.4028599701492
 30
0.0
 10
107.8059933607511
 20
-119.4476627479159
 30
0.0
 10
107.8610999730346
 20
-119.4476627479159
 30
0.0
 10
107.9165891912629
 20
-119.4476627479159
 30
0.0
 10
107.9613566901208
 20
-119.4028599701492
 30
0.0
 10
107.9613566901208
 20
-119.3477560812743
 30
0.0
  0
SPLINE
  5
49
330
1F
100
AcDbEntity
  8
_U+30EC_U+30A4_U+30E4_U+30FC 1
 62
     7
420
 16777215
370
     9
100
AcDbSpline
210
0.0
220
0.0
230
1.0
 70
    11
 71
     3
 72
    17
 73
    13
 74
     0
 42
0.0000000001
 43
0.0000000001
 12
1.0
 22
0.0
 32
0.0
 13
1.0
 23
0.0
 33
0.0
 40
0.0
 40
0.0
 40
0.0
 40
0.0
 40
1.0
 40
1.0
 40
1.0
 40
2.0
 40
2.0
 40
2.0
 40
3.0
 40
3.0
 40
3.0
 40
4.0
 40
4.0
 40
4.0
 40
4.0
 10
82.96098609037085
 20
-119.3477560812743
 30
0.0
 10
82.96098609037085
 20
-119.2926169146212
 30
0.0
 10
82.91621649574219
 20
-119.2478494146326
 30
0.0
 10
82.86107733048225
 20
-119.2478494146326
 30
0.0
 10
82.80597344299917
 20
-119.2478494146326
 30
0.0
 10
82.76117066636441
 20
-119.2926169146212
 30
0.0
 10
82.76117066636441
 20
-119.3477560812743
 30
0.0
 10
82.76117066636441
 20
-119.4028599701492
 30
0.0
 10
82.80597344299917
 20
-119.4476627479159
 30
0.0
 10
82.86107733048225
 20
-119.4476627479159
 30
0.0
 10
82.91621649574219
 20
-119.4476627479159
 30
0.0
 10
82.96098609037085
 20
-119.4028599701492
 30
0.0
 10
82.96098609037085
 20
-119.3477560812743
 30
0.0
  0
SPLINE
  5
4A
330
1F
100
AcDbEntity
  8
_U+30EC_U+30A4_U+30E4_U+30FC 1
 62
     7
420
 16777215
370
     9
100
AcDbSpline
210
0.0
220
0.0
230
1.0
 70
    11
 71
     3
 72
    17
 73
    13
 74
     0
 42
0.0000000001
 43
0.0000000001
 12
1.0
 22
0.0
 32
0.0
 13
1.0
 23
0.0
 33
0.0
 40
0.0
 40
0.0
 40
0.0
 40
0.0
 40
1.0
 40
1.0
 40
1.0
 40
2.0
 40
2.0
 40
2.0
 40
3.0
 40
3.0
 40
3.0
 40
4.0
 40
4.0
 40
4.0
 40
4.0
 10
78.96122492997577
 20
-123.3478680247186
 30
0.0
 10
78.96122492997577
 20
-123.2923760802881
 30
0.0
 10
78.91645743111788
 20
-123.2476085802992
 30
0.0
 10
78.86131826585793
 20
-123.2476085802992
 30
0.0
 10
78.80621437837486
 20
-123.2476085802992
 30
0.0
 10
78.7614116017401
 20
-123.2923760802881
 30
0.0
 10
78.7614116017401
 20
-123.3478680247186
 30
0.0
 10
78.7614116017401
 20
-123.4029719135938
 30
0.0
 10
78.80621437837486
 20
-123.4477746913603
 30
0.0
 10
78.86131826585793
 20
-123.4477746913603
 30
0.0
 10
78.91645743111788
 20
-123.4477746913603
 30
0.0
 10
78.96122492997577
 20
-123.4029719135938
 30
0.0
 10
78.96122492997577
 20
-123.3478680247186
 30
0.0
  0
SPLINE
  5
4B
330
1F
100
AcDbEntity
  8
_U+30EC_U+30A4_U+30E4_U+30FC 1
 62
     7
420
 16777215
370
     9
100
AcDbSpline
210
0.0
220
0.0
230
1.0
 70
    11
 71
     3
 72
    17
 73
    13
 74
     0
 42
0.0000000001
 43
0.0000000001
 12
1.0
 22
0.0
 32
0.0
 13
1.0
 23
0.0
 33
0.0
 40
0.0
 40
0.0
 40
0.0
 40
0.0
 40
1.0
 40
1.0
 40
1.0
 40
2.0
 40
2.0
 40
2.0
 40
3.0
 40
3.0
 40
3.0
 40
4.0
 40
4.0
 40
4.0
 40
4.0
 10
78.96122492997577
 20
-124.5477710799743
 30
0.0
 10
78.96122492997577
 20
-124.4926671910991
 30
0.0
 10
78.91645743111788
 20
-124.4478644133324
 30
0.0
 10
78.86131826585793
 20
-124.4478644133324
 30
0.0
 10
78.80621437837486
 20
-124.4478644133324
 30
0.0
 10
78.7614116017401
 20
-124.4926671910991
 30
0.0
 10
78.7614116017401
 20
-124.5477710799743
 30
0.0
 10
78.7614116017401
 20
-124.6029102466271
 30
0.0
 10
78.80621437837486
 20
-124.647677746616
 30
0.0
 10
78.86131826585793
 20
-124.647677746616
 30
0.0
 10
78.91645743111788
 20
-124.647677746616
 30
0.0
 10
78.96122492997577
 20
-124.6029102466271
 30
0.0
 10
78.96122492997577
 20
-124.5477710799743
 30
0.0
  0
SPLINE
  5
4C
330
1F
100
AcDbEntity
  8
_U+30EC_U+30A4_U+30E4_U+30FC 1
 62
     7
420
 16777215
370
     9
100
AcDbSpline
210
0.0
220
0.0
230
1.0
 70
    11
 71
     3
 72
    17
 73
    13
 74
     0
 42
0.0000000001
 43
0.0000000001
 12
1.0
 22
0.0
 32
0.0
 13
1.0
 23
0.0
 33
0.0
 40
0.0
 40
0.0
 40
0.0
 40
0.0
 40
1.0
 40
1.0
 40
1.0
 40
2.0
 40
2.0
 40
2.0
 40
3.0
 40
3.0
 40
3.0
 40
4.0
 40
4.0
 40
4.0
 40
4.0
 10
78.96122492997577
 20
-141.5476030201689
 30
0.0
 10
78.96122492997577
 20
-141.4924991312934
 30
0.0
 10
78.91645743111788
 20
-141.4476963535273
 30
0.0
 10
78.86131826585793
 20
-141.4476963535273
 30
0.0
 10
78.80621437837486
 20
-141.4476963535273
 30
0.0
 10
78.7614116017401
 20
-141.4924991312934
 30
0.0
 10
78.7614116017401
 20
-141.5476030201689
 30
0.0
 10
78.7614116017401
 20
-141.6030596868216
 30
0.0
 10
78.80621437837486
 20
-141.6478624645883
 30
0.0
 10
78.86131826585793
 20
-141.6478624645883
 30
0.0
 10
78.91645743111788
 20
-141.6478624645883
 30
0.0
 10
78.96122492997577
 20
-141.6030596868216
 30
0.0
 10
78.96122492997577
 20
-141.5476030201689
 30
0.0
  0
POLYLINE
  5
4D
330
1F
100
AcDbEntity
  8
_U+30EC_U+30A4_U+30E4_U+30FC 1
 62
     7
420
 16777215
370
     9
100
AcDb2dPolyline
 66
     1
 10
0.0
 20
0.0
 30
0.0
  0
VERTEX
  5
4E
330
4D
100
AcDbEntity
  8
_U+30EC_U+30A4_U+30E4_U+30FC 1
 62
     7
420
 16777215
370
     9
100
AcDbVertex
100
AcDb2dVertex
 10
90.51127491308722
 20
-141.5476030201689
 30
0.0
  0
VERTEX
  5
4F
330
4D
100
AcDbEntity
  8
_U+30EC_U+30A4_U+30E4_U+30FC 1
 62
     7
420
 16777215
370
     9
100
AcDbVertex
100
AcDb2dVertex
 10
90.51127491308722
 20
-136.5477541325299
 30
0.0
  0
SEQEND
  5
50
330
4D
100
AcDbEntity
  8
_U+30EC_U+30A4_U+30E4_U+30FC 1
 62
     7
420
 16777215
370
     9
  0
POLYLINE
  5
51
330
1F
100
AcDbEntity
  8
_U+30EC_U+30A4_U+30E4_U+30FC 1
 62
     7
420
 16777215
370
     9
100
AcDb2dPolyline
 66
     1
 10
0.0
 20
0.0
 30
0.0
  0
VERTEX
  5
52
330
51
100
AcDbEntity
  8
_U+30EC_U+30A4_U+30E4_U+30FC 1
 62
     7
420
 16777215
370
     9
100
AcDbVertex
100
AcDb2dVertex
 10
88.4011346891436
 20
-141.5476030201689
 30
0.0
  0
VERTEX
  5
53
330
51
100
AcDbEntity
  8
_U+30EC_U+30A4_U+30E4_U+30FC 1
 62
     7
420
 16777215
370
     9
100
AcDbVertex
100
AcDb2dVertex
 10
91.51136460979504
 20
-141.5476030201689
 30
0.0
  0
SEQEND
  5
54
330
51
100
AcDbEntity
  8
_U+30EC_U+30A4_U+30E4_U+30FC 1
 62
     7
420
 16777215
370
     9
  0
POLYLINE
  5
55
330
1F
100
AcDbEntity
  8
_U+30EC_U+30A4_U+30E4_U+30FC 1
 62
     7
420
 16777215
370
     9
100
AcDb2dPolyline
 66
     1
 10
0.0
 20
0.0
 30
0.0
  0
VERTEX
  5
56
330
55
100
AcDbEntity
  8
_U+30EC_U+30A4_U+30E4_U+30FC 1
 62
     7
420
 16777215
370
     9
100
AcDbVertex
100
AcDb2dVertex
 10
89.05123356144709
 20
-136.5477541325299
 30
0.0
  0
VERTEX
  5
57
330
55
100
AcDbEntity
  8
_U+30EC_U+30A4_U+30E4_U+30FC 1
 62
     7
420
 16777215
370
     9
100
AcDbVertex
100
AcDb2dVertex
 10
91.51136460979504
 20
-136.5477541325299
 30
0.0
  0
SEQEND
  5
58
330
55
100
AcDbEntity
  8
_U+30EC_U+30A4_U+30E4_U+30FC 1
 62
     7
420
 16777215
370
     9
  0
INSERT
  5
5A
330
1F
100
AcDbEntity
  8
_U+30EC_U+30A4_U+30E4_U+30FC 1
100
AcDbBlockReference
  2
block 2
 10
0.0
 20
0.0
 30
0.0
  0
POLYLINE
  5
5F
330
1F
100
AcDbEntity
  8
_U+30EC_U+30A4_U+30E4_U+30FC 1
 62
     7
420
 16777215
370
     9
100
AcDb2dPolyline
 66
     1
 10
0.0
 20
0.0
 30
0.0
  0
VERTEX
  5
60
330
5F
100
AcDbEntity
  8
_U+30EC_U+30A4_U+30E4_U+30FC 1
 62
     7
420
 16777215
370
     9
100
AcDbVertex
100
AcDb2dVertex
 10
90.51127491308722
 20
-136.5477541325299
 30
0.0
  0
VERTEX
  5
61
330
5F
100
AcDbEntity
  8
_U+30EC_U+30A4_U+30E4_U+30FC 1
 62
     7
420
 16777215
370
     9
100
AcDbVertex
100
AcDb2dVertex
 10
90.51127491308722
 20
-131.5478699671133
 30
0.0
  0
SEQEND
  5
62
330
5F
100
AcDbEntity
  8
_U+30EC_U+30A4_U+30E4_U+30FC 1
 62
     7
420
 16777215
370
     9
  0
POLYLINE
  5
63
330
1F
100
AcDbEntity
  8
_U+30EC_U+30A4_U+30E4_U+30FC 1
 62
     7
420
 16777215
370
     9
100
AcDb2dPolyline
 66
     1
 10
0.0
 20
0.0
 30
0.0
  0
VERTEX
  5
64
330
63
100
AcDbEntity
  8
_U+30EC_U+30A4_U+30E4_U+30FC 1
 62
     7
420
 16777215
370
     9
100
AcDbVertex
100
AcDb2dVertex
 10
89.05123356144709
 20
-131.5478699671133
 30
0.0
  0
VERTEX
  5
65
330
63
100
AcDbEntity
  8
_U+30EC_U+30A4_U+30E4_U+30FC 1
 62
     7
420
 16777215
370
     9
100
AcDbVertex
100
AcDb2dVertex
 10
91.51136460979504
 20
-131.5478699671133
 30
0.0
  0
SEQEND
  5
66
330
63
100
AcDbEntity
  8
_U+30EC_U+30A4_U+30E4_U+30FC 1
 62
     7
420
 16777215
370
     9
  0
INSERT
  5
68
330
1F
100
AcDbEntity
  8
_U+30EC_U+30A4_U+30E4_U+30FC 1
100
AcDbBlockReference
  2
block 3
 10
0.0
 20
0.0
 30
0.0
  0
POLYLINE
  5
6D
330
1F
100
AcDbEntity
  8
_U+30EC_U+30A4_U+30E4_U+30FC 1
 62
     7
420
 16777215
370
     9
100
AcDb2dPolyline
 66
     1
 10
0.0
 20
0.0
 30
0.0
  0
VERTEX
  5
6E
330
6D
100
AcDbEntity
  8
_U+30EC_U+30A4_U+30E4_U+30FC 1
 62
     7
420
 16777215
370
     9
100
AcDbVertex
100
AcDb2dVertex
 10
90.51127491308722
 20
-131.5478699671133
 30
0.0
  0
VERTEX
  5
6F
330
6D
100
AcDbEntity
  8
_U+30EC_U+30A4_U+30E4_U+30FC 1
 62
     7
420
 16777215
370
     9
100
AcDbVertex
100
AcDb2dVertex
 10
90.51127491308722
 20
-126.5476683016965
 30
0.0
  0
SEQEND
  5
70
330
6D
100
AcDbEntity
  8
_U+30EC_U+30A4_U+30E4_U+30FC 1
 62
     7
420
 16777215
370
     9
  0
POLYLINE
  5
71
330
1F
100
AcDbEntity
  8
_U+30EC_U+30A4_U+30E4_U+30FC 1
 62
     7
420
 16777215
370
     9
100
AcDb2dPolyline
 66
     1
 10
0.0
 20
0.0
 30
0.0
  0
VERTEX
  5
72
330
71
100
AcDbEntity
  8
_U+30EC_U+30A4_U+30E4_U+30FC 1
 62
     7
420
 16777215
370
     9
100
AcDbVertex
100
AcDb2dVertex
 10
89.05123356144709
 20
-126.5476683016965
 30
0.0
  0
VERTEX
  5
73
330
71
100
AcDbEntity
  8
_U+30EC_U+30A4_U+30E4_U+30FC 1
 62
     7
420
 16777215
370
     9
100
AcDbVertex
100
AcDb2dVertex
 10
91.51136460979504
 20
-126.5476683016965
 30
0.0
  0
SEQEND
  5
74
330
71
100
AcDbEntity
  8
_U+30EC_U+30A4_U+30E4_U+30FC 1
 62
     7
420
 16777215
370
     9
  0
INSERT
  5
76
330
1F
100
AcDbEntity
  8
_U+30EC_U+30A4_U+30E4_U+30FC 1
100
AcDbBlockReference
  2
block 4
 10
0.0
 20
0.0
 30
0.0
  0
POLYLINE
  5
7B
330
1F
100
AcDbEntity
  8
_U+30EC_U+30A4_U+30E4_U+30FC 1
 62
     7
420
 16777215
370
     9
100
AcDb2dPolyline
 66
     1
 10
0.0
 20
0.0
 30
0.0
  0
VERTEX
  5
7C
330
7B
100
AcDbEntity
  8
_U+30EC_U+30A4_U+30E4_U+30FC 1
 62
     7
420
 16777215
370
     9
100
AcDbVertex
100
AcDb2dVertex
 10
82.86107733048225
 20
-119.3477560812743
 30
0.0
  0
VERTEX
  5
7D
330
7B
100
AcDbEntity
  8
_U+30EC_U+30A4_U+30E4_U+30FC 1
 62
     7
420
 16777215
370
     9
100
AcDbVertex
100
AcDb2dVertex
 10
107.8610999730346
 20
-119.3477560812743
 30
0.0
  0
SEQEND
  5
7E
330
7B
100
AcDbEntity
  8
_U+30EC_U+30A4_U+30E4_U+30FC 1
 62
     7
420
 16777215
370
     9
  0
POLYLINE
  5
7F
330
1F
100
AcDbEntity
  8
_U+30EC_U+30A4_U+30E4_U+30FC 1
 62
     7
420
 16777215
370
     9
100
AcDb2dPolyline
 66
     1
 10
0.0
 20
0.0
 30
0.0
  0
VERTEX
  5
80
330
7F
100
AcDbEntity
  8
_U+30EC_U+30A4_U+30E4_U+30FC 1
 62
     7
420
 16777215
370
     9
100
AcDbVertex
100
AcDb2dVertex
 10
82.86107733048225
 20
-120.807797469798
 30
0.0
  0
VERTEX
  5
81
330
7F
100
AcDbEntity
  8
_U+30EC_U+30A4_U+30E4_U+30FC 1
 62
     7
420
 16777215
370
     9
100
AcDbVertex
100
AcDb2dVertex
 10
82.86107733048225
 20
-118.3476310815243
 30
0.0
  0
SEQEND
  5
82
330
7F
100
AcDbEntity
  8
_U+30EC_U+30A4_U+30E4_U+30FC 1
 62
     7
420
 16777215
370
     9
  0
POLYLINE
  5
83
330
1F
100
AcDbEntity
  8
_U+30EC_U+30A4_U+30E4_U+30FC 1
 62
     7
420
 16777215
370
     9
100
AcDb2dPolyline
 66
     1
 10
0.0
 20
0.0
 30
0.0
  0
VERTEX
  5
84
330
83
100
AcDbEntity
  8
_U+30EC_U+30A4_U+30E4_U+30FC 1
 62
     7
420
 16777215
370
     9
100
AcDbVertex
100
AcDb2dVertex
 10
107.8610999730346
 20
-122.0077005250537
 30
0.0
  0
VERTEX
  5
85
330
83
100
AcDbEntity
  8
_U+30EC_U+30A4_U+30E4_U+30FC 1
 62
     7
420
 16777215
370
     9
100
AcDbVertex
100
AcDb2dVertex
 10
107.8610999730346
 20
-118.3476310815243
 30
0.0
  0
SEQEND
  5
86
330
83
100
AcDbEntity
  8
_U+30EC_U+30A4_U+30E4_U+30FC 1
 62
     7
420
 16777215
370
     9
  0
INSERT
  5
88
330
1F
100
AcDbEntity
  8
_U+30EC_U+30A4_U+30E4_U+30FC 1
100
AcDbBlockReference
  2
block 5
 10
0.0
 20
0.0
 30
0.0
  0
POLYLINE
  5
8F
330
1F
100
AcDbEntity
  8
_U+30EC_U+30A4_U+30E4_U+30FC 1
 62
     7
420
 16777215
370
     9
100
AcDb2dPolyline
 66
     1
 10
0.0
 20
0.0
 30
0.0
  0
VERTEX
  5
90
330
8F
100
AcDbEntity
  8
_U+30EC_U+30A4_U+30E4_U+30FC 1
 62
     7
420
 16777215
370
     9
100
AcDbVertex
100
AcDb2dVertex
 10
78.86131826585793
 20
-123.3478680247186
 30
0.0
  0
VERTEX
  5
91
330
8F
100
AcDbEntity
  8
_U+30EC_U+30A4_U+30E4_U+30FC 1
 62
     7
420
 16777215
370
     9
100
AcDbVertex
100
AcDb2dVertex
 10
78.86131826585793
 20
-118.0899621926997
 30
0.0
  0
SEQEND
  5
92
330
8F
100
AcDbEntity
  8
_U+30EC_U+30A4_U+30E4_U+30FC 1
 62
     7
420
 16777215
370
     9
  0
POLYLINE
  5
93
330
1F
100
AcDbEntity
  8
_U+30EC_U+30A4_U+30E4_U+30FC 1
 62
     7
420
 16777215
370
     9
100
AcDb2dPolyline
 66
     1
 10
0.0
 20
0.0
 30
0.0
  0
VERTEX
  5
94
330
93
100
AcDbEntity
  8
_U+30EC_U+30A4_U+30E4_U+30FC 1
 62
     7
420
 16777215
370
     9
100
AcDbVertex
100
AcDb2dVertex
 10
78.86131826585793
 20
-123.3478680247186
 30
0.0
  0
VERTEX
  5
95
330
93
100
AcDbEntity
  8
_U+30EC_U+30A4_U+30E4_U+30FC 1
 62
     7
420
 16777215
370
     9
100
AcDbVertex
100
AcDb2dVertex
 10
78.86131826585793
 20
-124.5477710799743
 30
0.0
  0
SEQEND
  5
96
330
93
100
AcDbEntity
  8
_U+30EC_U+30A4_U+30E4_U+30FC 1
 62
     7
420
 16777215
370
     9
  0
POLYLINE
  5
97
330
1F
100
AcDbEntity
  8
_U+30EC_U+30A4_U+30E4_U+30FC 1
 62
     7
420
 16777215
370
     9
100
AcDb2dPolyline
 66
     1
 10
0.0
 20
0.0
 30
0.0
  0
VERTEX
  5
98
330
97
100
AcDbEntity
  8
_U+30EC_U+30A4_U+30E4_U+30FC 1
 62
     7
420
 16777215
370
     9
100
AcDbVertex
100
AcDb2dVertex
 10
80.32135961749806
 20
-123.3478680247186
 30
0.0
  0
VERTEX
  5
99
330
97
100
AcDbEntity
  8
_U+30EC_U+30A4_U+30E4_U+30FC 1
 62
     7
420
 16777215
370
     9
100
AcDbVertex
100
AcDb2dVertex
 10
77.86123053609019
 20
-123.3478680247186
 30
0.0
  0
SEQEND
  5
9A
330
97
100
AcDbEntity
  8
_U+30EC_U+30A4_U+30E4_U+30FC 1
 62
     7
420
 16777215
370
     9
  0
POLYLINE
  5
9B
330
1F
100
AcDbEntity
  8
_U+30EC_U+30A4_U+30E4_U+30FC 1
 62
     7
420
 16777215
370
     9
100
AcDb2dPolyline
 66
     1
 10
0.0
 20
0.0
 30
0.0
  0
VERTEX
  5
9C
330
9B
100
AcDbEntity
  8
_U+30EC_U+30A4_U+30E4_U+30FC 1
 62
     7
420
 16777215
370
     9
100
AcDbVertex
100
AcDb2dVertex
 10
80.32135961749806
 20
-124.5477710799743
 30
0.0
  0
VERTEX
  5
9D
330
9B
100
AcDbEntity
  8
_U+30EC_U+30A4_U+30E4_U+30FC 1
 62
     7
420
 16777215
370
     9
100
AcDbVertex
100
AcDb2dVertex
 10
77.86123053609019
 20
-124.5477710799743
 30
0.0
  0
SEQEND
  5
9E
330
9B
100
AcDbEntity
  8
_U+30EC_U+30A4_U+30E4_U+30FC 1
 62
     7
420
 16777215
370
     9
  0
INSERT
  5
A0
330
1F
100
AcDbEntity
  8
_U+30EC_U+30A4_U+30E4_U+30FC 1
100
AcDbBlockReference
  2
block 6
 10
0.0
 20
0.0
 30
0.0
  0
POLYLINE
  5
AF
330
1F
100
AcDbEntity
  8
_U+30EC_U+30A4_U+30E4_U+30FC 1
 62
     7
420
 16777215
370
     9
100
AcDb2dPolyline
 66
     1
 10
0.0
 20
0.0
 30
0.0
  0
VERTEX
  5
B0
330
AF
100
AcDbEntity
  8
_U+30EC_U+30A4_U+30E4_U+30FC 1
 62
     7
420
 16777215
370
     9
100
AcDbVertex
100
AcDb2dVertex
 10
78.86131826585793
 20
-124.5477710799743
 30
0.0
  0
VERTEX
  5
B1
330
AF
100
AcDbEntity
  8
_U+30EC_U+30A4_U+30E4_U+30FC 1
 62
     7
420
 16777215
370
     9
100
AcDbVertex
100
AcDb2dVertex
 10
78.86131826585793
 20
-141.5476030201689
 30
0.0
  0
SEQEND
  5
B2
330
AF
100
AcDbEntity
  8
_U+30EC_U+30A4_U+30E4_U+30FC 1
 62
     7
420
 16777215
370
     9
  0
POLYLINE
  5
B3
330
1F
100
AcDbEntity
  8
_U+30EC_U+30A4_U+30E4_U+30FC 1
 62
     7
420
 16777215
370
     9
100
AcDb2dPolyline
 66
     1
 10
0.0
 20
0.0
 30
0.0
  0
VERTEX
  5
B4
330
B3
100
AcDbEntity
  8
_U+30EC_U+30A4_U+30E4_U+30FC 1
 62
     7
420
 16777215
370
     9
100
AcDbVertex
100
AcDb2dVertex
 10
82.32125678869866
 20
-141.5476030201689
 30
0.0
  0
VERTEX
  5
B5
330
B3
100
AcDbEntity
  8
_U+30EC_U+30A4_U+30E4_U+30FC 1
 62
     7
420
 16777215
370
     9
100
AcDbVertex
100
AcDb2dVertex
 10
77.86123053609019
 20
-141.5476030201689
 30
0.0
  0
SEQEND
  5
B6
330
B3
100
AcDbEntity
  8
_U+30EC_U+30A4_U+30E4_U+30FC 1
 62
     7
420
 16777215
370
     9
  0
INSERT
  5
B8
330
1F
100
AcDbEntity
  8
_U+30EC_U+30A4_U+30E4_U+30FC 1
100
AcDbBlockReference
  2
block 7
 10
0.0
 20
0.0
 30
0.0
  0
ENDSEC
  0
SECTION
  2
OBJECTS
  0
DICTIONARY
  5
C
330
0
100
AcDbDictionary
281
     1
  3
ACAD_GROUP
350
D
  3
ACAD_LAYOUT
350
1A
  3
ACAD_MATERIAL
350
3B
  3
ACAD_MLEADERSTYLE
350
C0
  3
ACAD_MLINESTYLE
350
17
  3
ACAD_PLOTSETTINGS
350
19
  3
ACAD_PLOTSTYLENAME
350
E
  3
ACAD_TABLESTYLE
350
BF
  3
ACAD_VISUALSTYLE
350
2A
  0
SUN
  5
3F
330
29
100
AcDbSun
 90
        1
290
     0
 63
     7
421
 16777215
 40
1.0
291
     1
 91
  2455826
 92
 54000000
292
     0
 70
     2
 71
   256
280
     1
  0
DICTIONARY
  5
D
102
{ACAD_REACTORS
330
C
102
}
330
C
100
AcDbDictionary
281
     1
  0
DICTIONARY
  5
1A
102
{ACAD_REACTORS
330
C
102
}
330
C
100
AcDbDictionary
281
     1
  3
Layout1
350
1E
  3
Layout2
350
26
  3
Model
350
22
  0
DICTIONARY
  5
3B
102
{ACAD_REACTORS
330
C
102
}
330
C
100
AcDbDictionary
281
     1
  3
ByBlock
350
3D
  3
ByLayer
350
3C
  3
Global
350
3E
  0
DICTIONARY
  5
C0
102
{ACAD_REACTORS
330
C
102
}
330
C
100
AcDbDictionary
281
     1
  0
DICTIONARY
  5
17
102
{ACAD_REACTORS
330
C
102
}
330
C
100
AcDbDictionary
281
     1
  3
Standard
350
18
  0
DICTIONARY
  5
19
102
{ACAD_REACTORS
330
C
102
}
330
C
100
AcDbDictionary
281
     1
  0
ACDBDICTIONARYWDFLT
  5
E
102
{ACAD_REACTORS
330
C
102
}
330
C
100
AcDbDictionary
281
     1
  3
Normal
350
F
100
AcDbDictionaryWithDefault
340
F
  0
DICTIONARY
  5
BF
102
{ACAD_REACTORS
330
C
102
}
330
C
100
AcDbDictionary
281
     1
  0
DICTIONARY
  5
2A
102
{ACAD_REACTORS
330
C
102
}
330
C
100
AcDbDictionary
281
     1
  3
2dWireframe
350
2F
  3
3D Hidden
350
31
  3
3dWireframe
350
30
  3
Basic
350
32
  3
Brighten
350
36
  3
ColorChange
350
3A
  3
Conceptual
350
34
  3
Dim
350
35
  3
Facepattern
350
39
  3
Flat
350
2B
  3
FlatWithEdges
350
2C
  3
Gouraud
350
2D
  3
GouraudWithEdges
350
2E
  3
Linepattern
350
38
  3
Realistic
350
33
  3
Thicken
350
37
  0
LAYOUT
  5
1E
102
{ACAD_REACTORS
330
1A
102
}
330
1A
100
AcDbPlotSettings
  1

  2
none_device
  4

  6

 40
0.0
 41
0.0
 42
0.0
 43
0.0
 44
0.0
 45
0.0
 46
0.0
 47
0.0
 48
0.0
 49
0.0
140
0.0
141
0.0
142
1.0
143
1.0
 70
   688
 72
     0
 73
     0
 74
     5
  7

 75
    16
 76
     0
 77
     2
 78
   300
147
1.0
148
0.0
149
0.0
100
AcDbLayout
  1
Layout1
 70
     1
 71
     1
 10
0.0
 20
0.0
 11
12.0
 21
9.0
 12
0.0
 22
0.0
 32
0.0
 14
1.000000000000000E+20
 24
1.000000000000000E+20
 34
1.000000000000000E+20
 15
-1.000000000000000E+20
 25
-1.000000000000000E+20
 35
-1.000000000000000E+20
146
0.0
 13
0.0
 23
0.0
 33
0.0
 16
1.0
 26
0.0
 36
0.0
 17
0.0
 27
1.0
 37
0.0
 76
     0
330
1B
  0
LAYOUT
  5
26
102
{ACAD_REACTORS
330
1A
102
}
330
1A
100
AcDbPlotSettings
  1

  2
none_device
  4

  6

 40
0.0
 41
0.0
 42
0.0
 43
0.0
 44
0.0
 45
0.0
 46
0.0
 47
0.0
 48
0.0
 49
0.0
140
0.0
141
0.0
142
1.0
143
1.0
 70
   688
 72
     0
 73
     0
 74
     5
  7

 75
    16
 76
     0
 77
     2
 78
   300
147
1.0
148
0.0
149
0.0
100
AcDbLayout
  1
Layout2
 70
     1
 71
     2
 10
0.0
 20
0.0
 11
0.0
 21
0.0
 12
0.0
 22
0.0
 32
0.0
 14
0.0
 24
0.0
 34
0.0
 15
0.0
 25
0.0
 35
0.0
146
0.0
 13
0.0
 23
0.0
 33
0.0
 16
1.0
 26
0.0
 36
0.0
 17
0.0
 27
1.0
 37
0.0
 76
     0
330
23
  0
LAYOUT
  5
22
102
{ACAD_REACTORS
330
1A
102
}
330
1A
100
AcDbPlotSettings
  1

  2
none_device
  4

  6

 40
0.0
 41
0.0
 42
0.0
 43
0.0
 44
0.0
 45
0.0
 46
0.0
 47
0.0
 48
0.0
 49
0.0
140
0.0
141
0.0
142
1.0
143
1.0
 70
  1712
 72
     0
 73
     0
 74
     0
  7

 75
     0
 76
     0
 77
     2
 78
   300
147
1.0
148
0.0
149
0.0
100
AcDbLayout
  1
Model
 70
     1
 71
     0
 10
0.0
 20
0.0
 11
12.0
 21
9.0
 12
0.0
 22
0.0
 32
0.0
 14
1.000000000000000E+20
 24
1.000000000000000E+20
 34
1.000000000000000E+20
 15
-1.000000000000000E+20
 25
-1.000000000000000E+20
 35
-1.000000000000000E+20
146
0.0
 13
0.0
 23
0.0
 33
0.0
 16
1.0
 26
0.0
 36
0.0
 17
0.0
 27
1.0
 37
0.0
 76
     0
330
1F
331
29
  0
MATERIAL
  5
3D
102
{ACAD_REACTORS
330
3B
102
}
330
3B
100
AcDbMaterial
  1
ByBlock
 72
     1
 94
      127
  0
MATERIAL
  5
3C
102
{ACAD_REACTORS
330
3B
102
}
330
3B
100
AcDbMaterial
  1
ByLayer
 72
     1
 94
      127
  0
MATERIAL
  5
3E
102
{ACAD_REACTORS
330
3B
102
}
330
3B
100
AcDbMaterial
  1
Global
 72
     1
 94
      127
  0
MLINESTYLE
  5
18
102
{ACAD_REACTORS
330
17
102
}
330
17
100
AcDbMlineStyle
  2
Standard
 70
     0
  3

 62
   256
 51
90.0
 52
90.0
 71
     2
 49
0.5
 62
   256
  6
BYLAYER
 49
-0.5
 62
   256
  6
BYLAYER
  0
ACDBPLACEHOLDER
  5
F
102
{ACAD_REACTORS
330
E
102
}
330
E
  0
VISUALSTYLE
  5
2F
102
{ACAD_REACTORS
330
2A
102
}
330
2A
100
AcDbVisualStyle
  2
2dWireframe
 70
     4
177
     2
291
     0
 71
     0
176
     1
 72
     2
176
     1
 73
     0
176
     1
 90
        0
176
     1
 40
-0.6
176
     1
 41
-30.0
176
     1
 62
     5
 63
     7
421
 16777215
176
     1
 74
     1
176
     1
 91
        4
176
     1
 64
     7
176
     1
 65
   257
176
     1
 75
     1
176
     1
175
     1
176
     1
 42
1.0
176
     1
 92
        0
176
     1
 66
   257
176
     1
 43
1.0
176
     1
 76
     1
176
     1
 77
     6
176
     1
 78
     2
176
     1
 67
     7
176
     1
 79
     5
176
     1
170
     0
176
     1
171
     0
176
     1
290
     0
176
     1
 93
        1
176
     1
 44
0.0
176
     1
173
     0
176
     1
  0
VISUALSTYLE
  5
31
102
{ACAD_REACTORS
330
2A
102
}
330
2A
100
AcDbVisualStyle
  2
3D Hidden
 70
     6
177
     2
291
     0
 71
     1
176
     1
 72
     2
176
     1
 73
     2
176
     1
 90
        0
176
     1
 40
-0.6
176
     1
 41
-30.0
176
     1
 62
     5
 63
     7
421
 16777215
176
     1
 74
     2
176
     1
 91
        2
176
     1
 64
     7
176
     1
 65
   257
176
     1
 75
     2
176
     1
175
     1
176
     1
 42
40.0
176
     1
 92
        0
176
     1
 66
   257
176
     1
 43
1.0
176
     1
 76
     1
176
     1
 77
     6
176
     1
 78
     2
176
     1
 67
     7
176
     1
 79
     3
176
     1
170
     0
176
     1
171
     0
176
     1
290
     0
176
     1
 93
        1
176
     1
 44
0.0
176
     1
173
     0
176
     1
  0
VISUALSTYLE
  5
30
102
{ACAD_REACTORS
330
2A
102
}
330
2A
100
AcDbVisualStyle
  2
3dWireframe
 70
     5
177
     2
291
     0
 71
     0
176
     1
 72
     2
176
     1
 73
     0
176
     1
 90
        0
176
     1
 40
-0.6
176
     1
 41
-30.0
176
     1
 62
     5
 63
     7
421
 16777215
176
     1
 74
     1
176
     1
 91
        4
176
     1
 64
     7
176
     1
 65
   257
176
     1
 75
     1
176
     1
175
     1
176
     1
 42
1.0
176
     1
 92
        0
176
     1
 66
   257
176
     1
 43
1.0
176
     1
 76
     1
176
     1
 77
     6
176
     1
 78
     2
176
     1
 67
     7
176
     1
 79
     5
176
     1
170
     0
176
     1
171
     0
176
     1
290
     0
176
     1
 93
        1
176
     1
 44
0.0
176
     1
173
     0
176
     1
  0
VISUALSTYLE
  5
32
102
{ACAD_REACTORS
330
2A
102
}
330
2A
100
AcDbVisualStyle
  2
Basic
 70
     7
177
     2
291
     1
 71
     1
176
     1
 72
     0
176
     1
 73
     1
176
     1
 90
        0
176
     1
 40
-0.6
176
     1
 41
-30.0
176
     1
 62
     5
 63
     7
421
 16777215
176
     1
 74
     0
176
     1
 91
        4
176
     1
 64
     7
176
     1
 65
   257
176
     1
 75
     1
176
     1
175
     1
176
     1
 42
1.0
176
     1
 92
        8
176
     1
 66
     7
176
     1
 43
1.0
176
     1
 76
     1
176
     1
 77
     6
176
     1
 78
     2
176
     1
 67
     7
176
     1
 79
     5
176
     1
170
     0
176
     1
171
     0
176
     1
290
     0
176
     1
 93
        1
176
     1
 44
0.0
176
     1
173
     0
176
     1
  0
VISUALSTYLE
  5
36
102
{ACAD_REACTORS
330
2A
102
}
330
2A
100
AcDbVisualStyle
  2
Brighten
 70
    12
177
     2
291
     1
 71
     2
176
     1
 72
     2
176
     1
 73
     0
176
     1
 90
        0
176
     1
 40
-0.6
176
     1
 41
-30.0
176
     1
 62
     5
 63
     7
421
 16777215
176
     1
 74
     1
176
     1
 91
        4
176
     1
 64
     7
176
     1
 65
   257
176
     1
 75
     1
176
     1
175
     1
176
     1
 42
1.0
176
     1
 92
        8
176
     1
 66
     7
176
     1
 43
1.0
176
     1
 76
     1
176
     1
 77
     6
176
     1
 78
     2
176
     1
 67
     7
176
     1
 79
     5
176
     1
170
     0
176
     1
171
     0
176
     1
290
     0
176
     1
 93
        1
176
     1
 44
50.0
176
     1
173
     0
176
     1
  0
VISUALSTYLE
  5
3A
102
{ACAD_REACTORS
330
2A
102
}
330
2A
100
AcDbVisualStyle
  2
ColorChange
 70
    16
177
     2
291
     1
 71
     2
176
     1
 72
     2
176
     1
 73
     3
176
     1
 90
        0
176
     1
 40
-0.6
176
     1
 41
-30.0
176
     1
 62
     5
 63
     8
421
  8421504
176
     1
 74
     1
176
     1
 91
        4
176
     1
 64
     7
176
     1
 65
   257
176
     1
 75
     1
176
     1
175
     1
176
     1
 42
1.0
176
     1
 92
        8
176
     1
 66
     8
424
  8421504
176
     1
 43
1.0
176
     1
 76
     1
176
     1
 77
     6
176
     1
 78
     2
176
     1
 67
     7
176
     1
 79
     5
176
     1
170
     0
176
     1
171
     0
176
     1
290
     0
176
     1
 93
        1
176
     1
 44
0.0
176
     1
173
     0
176
     1
  0
VISUALSTYLE
  5
34
102
{ACAD_REACTORS
330
2A
102
}
330
2A
100
AcDbVisualStyle
  2
Conceptual
 70
     9
177
     2
291
     0
 71
     3
176
     1
 72
     2
176
     1
 73
     0
176
     1
 90
        0
176
     1
 40
-0.6
176
     1
 41
-30.0
176
     1
 62
     5
 63
     7
421
 16777215
176
     1
 74
     2
176
     1
 91
        2
176
     1
 64
     7
176
     1
 65
   257
176
     1
 75
     1
176
     1
175
     1
176
     1
 42
40.0
176
     1
 92
        8
176
     1
 66
     7
176
     1
 43
1.0
176
     1
 76
     1
176
     1
 77
     6
176
     1
 78
     2
176
     1
 67
     7
176
     1
 79
     3
176
     1
170
     0
176
     1
171
     0
176
     1
290
     0
176
     1
 93
        1
176
     1
 44
0.0
176
     1
173
     0
176
     1
  0
VISUALSTYLE
  5
35
102
{ACAD_REACTORS
330
2A
102
}
330
2A
100
AcDbVisualStyle
  2
Dim
 70
    11
177
     2
291
     1
 71
     2
176
     1
 72
     2
176
     1
 73
     0
176
     1
 90
        0
176
     1
 40
-0.6
176
     1
 41
-30.0
176
     1
 62
     5
 63
     7
421
 16777215
176
     1
 74
     1
176
     1
 91
        4
176
     1
 64
     7
176
     1
 65
   257
176
     1
 75
     1
176
     1
175
     1
176
     1
 42
1.0
176
     1
 92
        8
176
     1
 66
     7
176
     1
 43
1.0
176
     1
 76
     1
176
     1
 77
     6
176
     1
 78
     2
176
     1
 67
     7
176
     1
 79
     5
176
     1
170
     0
176
     1
171
     0
176
     1
290
     0
176
     1
 93
        1
176
     1
 44
-50.0
176
     1
173
     0
176
     1
  0
VISUALSTYLE
  5
39
102
{ACAD_REACTORS
330
2A
102
}
330
2A
100
AcDbVisualStyle
  2
Facepattern
 70
    15
177
     2
291
     1
 71
     2
176
     1
 72
     2
176
     1
 73
     0
176
     1
 90
        0
176
     1
 40
-0.6
176
     1
 41
-30.0
176
     1
 62
     5
 63
     7
421
 16777215
176
     1
 74
     1
176
     1
 91
        4
176
     1
 64
     7
176
     1
 65
   257
176
     1
 75
     1
176
     1
175
     1
176
     1
 42
1.0
176
     1
 92
        8
176
     1
 66
     7
176
     1
 43
1.0
176
     1
 76
     1
176
     1
 77
     6
176
     1
 78
     2
176
     1
 67
     7
176
     1
 79
     5
176
     1
170
     0
176
     1
171
     0
176
     1
290
     0
176
     1
 93
        1
176
     1
 44
0.0
176
     1
173
     0
176
     1
  0
VISUALSTYLE
  5
2B
102
{ACAD_REACTORS
330
2A
102
}
330
2A
100
AcDbVisualStyle
  2
Flat
 70
     0
177
     2
291
     1
 71
     2
176
     1
 72
     1
176
     1
 73
     1
176
     1
 90
        2
176
     1
 40
-0.6
176
     1
 41
30.0
176
     1
 62
     5
 63
     7
421
 16777215
176
     1
 74
     0
176
     1
 91
        4
176
     1
 64
     7
176
     1
 65
   257
176
     1
 75
     1
176
     1
175
     1
176
     1
 42
1.0
176
     1
 92
        8
176
     1
 66
     7
176
     1
 43
1.0
176
     1
 76
     1
176
     1
 77
     6
176
     1
 78
     2
176
     1
 67
     7
176
     1
 79
     5
176
     1
170
     0
176
     1
171
     0
176
     1
290
     0
176
     1
 93
       13
176
     1
 44
0.0
176
     1
173
     0
176
     1
  0
VISUALSTYLE
  5
2C
102
{ACAD_REACTORS
330
2A
102
}
330
2A
100
AcDbVisualStyle
  2
FlatWithEdges
 70
     1
177
     2
291
     1
 71
     2
176
     1
 72
     1
176
     1
 73
     1
176
     1
 90
        2
176
     1
 40
-0.6
176
     1
 41
30.0
176
     1
 62
     5
 63
     7
421
 16777215
176
     1
 74
     1
176
     1
 91
        4
176
     1
 64
     7
176
     1
 65
   257
176
     1
 75
     1
176
     1
175
     1
176
     1
 42
1.0
176
     1
 92
        0
176
     1
 66
   257
176
     1
 43
1.0
176
     1
 76
     1
176
     1
 77
     6
176
     1
 78
     2
176
     1
 67
     7
176
     1
 79
     5
176
     1
170
     0
176
     1
171
     0
176
     1
290
     0
176
     1
 93
       13
176
     1
 44
0.0
176
     1
173
     0
176
     1
  0
VISUALSTYLE
  5
2D
102
{ACAD_REACTORS
330
2A
102
}
330
2A
100
AcDbVisualStyle
  2
Gouraud
 70
     2
177
     2
291
     1
 71
     2
176
     1
 72
     2
176
     1
 73
     1
176
     1
 90
        2
176
     1
 40
-0.6
176
     1
 41
30.0
176
     1
 62
     5
 63
     7
421
 16777215
176
     1
 74
     0
176
     1
 91
        4
176
     1
 64
     7
176
     1
 65
   257
176
     1
 75
     1
176
     1
175
     1
176
     1
 42
1.0
176
     1
 92
        0
176
     1
 66
     7
176
     1
 43
1.0
176
     1
 76
     1
176
     1
 77
     6
176
     1
 78
     2
176
     1
 67
     7
176
     1
 79
     5
176
     1
170
     0
176
     1
171
     0
176
     1
290
     0
176
     1
 93
       13
176
     1
 44
0.0
176
     1
173
     0
176
     1
  0
VISUALSTYLE
  5
2E
102
{ACAD_REACTORS
330
2A
102
}
330
2A
100
AcDbVisualStyle
  2
GouraudWithEdges
 70
     3
177
     2
291
     1
 71
     2
176
     1
 72
     2
176
     1
 73
     1
176
     1
 90
        2
176
     1
 40
-0.6
176
     1
 41
30.0
176
     1
 62
     5
 63
     7
421
 16777215
176
     1
 74
     1
176
     1
 91
        4
176
     1
 64
     7
176
     1
 65
   257
176
     1
 75
     1
176
     1
175
     1
176
     1
 42
1.0
176
     1
 92
        0
176
     1
 66
   257
176
     1
 43
1.0
176
     1
 76
     1
176
     1
 77
     6
176
     1
 78
     2
176
     1
 67
     7
176
     1
 79
     5
176
     1
170
     0
176
     1
171
     0
176
     1
290
     0
176
     1
 93
       13
176
     1
 44
0.0
176
     1
173
     0
176
     1
  0
VISUALSTYLE
  5
38
102
{ACAD_REACTORS
330
2A
102
}
330
2A
100
AcDbVisualStyle
  2
Linepattern
 70
    14
177
     2
291
     1
 71
     2
176
     1
 72
     2
176
     1
 73
     0
176
     1
 90
        0
176
     1
 40
-0.6
176
     1
 41
-30.0
176
     1
 62
     5
 63
     7
421
 16777215
176
     1
 74
     1
176
     1
 91
        4
176
     1
 64
     7
176
     1
 65
   257
176
     1
 75
     7
176
     1
175
     7
176
     1
 42
1.0
176
     1
 92
        8
176
     1
 66
     7
176
     1
 43
1.0
176
     1
 76
     1
176
     1
 77
     6
176
     1
 78
     2
176
     1
 67
     7
176
     1
 79
     5
176
     1
170
     0
176
     1
171
     0
176
     1
290
     0
176
     1
 93
        1
176
     1
 44
0.0
176
     1
173
     0
176
     1
  0
VISUALSTYLE
  5
33
102
{ACAD_REACTORS
330
2A
102
}
330
2A
100
AcDbVisualStyle
  2
Realistic
 70
     8
177
     2
291
     0
 71
     2
176
     1
 72
     2
176
     1
 73
     0
176
     1
 90
        0
176
     1
 40
-0.6
176
     1
 41
-30.0
176
     1
 62
     5
 63
     7
421
 16777215
176
     1
 74
     1
176
     1
 91
        0
176
     1
 64
     7
176
     1
 65
   257
176
     1
 75
     1
176
     1
175
     1
176
     1
 42
1.0
176
     1
 92
        8
176
     1
 66
     8
424
  7895160
176
     1
 43
1.0
176
     1
 76
     1
176
     1
 77
     6
176
     1
 78
     2
176
     1
 67
     7
176
     1
 79
     5
176
     1
170
     0
176
     1
171
     0
176
     1
290
     0
176
     1
 93
       13
176
     1
 44
0.0
176
     1
173
     0
176
     1
  0
VISUALSTYLE
  5
37
102
{ACAD_REACTORS
330
2A
102
}
330
2A
100
AcDbVisualStyle
  2
Thicken
 70
    13
177
     2
291
     1
 71
     2
176
     1
 72
     2
176
     1
 73
     0
176
     1
 90
        0
176
     1
 40
-0.6
176
     1
 41
-30.0
176
     1
 62
     5
 63
     7
421
 16777215
176
     1
 74
     1
176
     1
 91
        4
176
     1
 64
     7
176
     1
 65
   257
176
     1
 75
     1
176
     1
175
     1
176
     1
 42
1.0
176
     1
 92
       12
176
     1
 66
     7
176
     1
 43
1.0
176
     1
 76
     1
176
     1
 77
     6
176
     1
 78
     2
176
     1
 67
     7
176
     1
 79
     5
176
     1
170
     0
176
     1
171
     0
176
     1
290
     0
176
     1
 93
        1
176
     1
 44
0.0
176
     1
173
     0
176
     1
  0
ENDSEC
  0
EOF
