  0
SECTION
  2
HEADER
  9
$ACADVER
  1
AC1024
  9
$ACADMAINTVER
 70
     6
  9
$DWGCODEPAGE
  3
UNDEFINED
  9
$INSBASE
 10
0.0
 20
0.0
 30
0.0
  9
$EXTMIN
 10
1.000000000000000E+20
 20
1.000000000000000E+20
 30
1.000000000000000E+20
  9
$EXTMAX
 10
-1.000000000000000E+20
 20
-1.000000000000000E+20
 30
-1.000000000000000E+20
  9
$LIMMIN
 10
0.0
 20
0.0
  9
$LIMMAX
 10
12.0
 20
9.0
  9
$ORTHOMODE
 70
     0
  9
$REGENMODE
 70
     1
  9
$FILLMODE
 70
     1
  9
$QTEXTMODE
 70
     0
  9
$MIRRTEXT
 70
     1
  9
$LTSCALE
 40
1.0
  9
$ATTMODE
 70
     1
  9
$TEXTSIZE
 40
0.2
  9
$TRACEWID
 40
0.05
  9
$TEXTSTYLE
  7
Standard
  9
$CLAYER
  8
0
  9
$CELTYPE
  6
ByLayer
  9
$CECOLOR
 62
   256
  9
$CELTSCALE
 40
1.0
  9
$DISPSILH
 70
     0
  9
$DIMSCALE
 40
1.0
  9
$DIMASZ
 40
0.18
  9
$DIMEXO
 40
0.0625
  9
$DIMDLI
 40
0.38
  9
$DIMRND
 40
0.0
  9
$DIMDLE
 40
0.0
  9
$DIMEXE
 40
0.18
  9
$DIMTP
 40
0.0
  9
$DIMTM
 40
0.0
  9
$DIMTXT
 40
0.18
  9
$DIMCEN
 40
0.09
  9
$DIMTSZ
 40
0.0
  9
$DIMTOL
 70
     0
  9
$DIMLIM
 70
     0
  9
$DIMTIH
 70
     1
  9
$DIMTOH
 70
     1
  9
$DIMSE1
 70
     0
  9
$DIMSE2
 70
     0
  9
$DIMTAD
 70
     0
  9
$DIMZIN
 70
     0
  9
$DIMBLK
  1

  9
$DIMASO
 70
     1
  9
$DIMSHO
 70
     1
  9
$DIMPOST
  1

  9
$DIMAPOST
  1

  9
$DIMALT
 70
     0
  9
$DIMALTD
 70
     2
  9
$DIMALTF
 40
25.4
  9
$DIMLFAC
 40
1.0
  9
$DIMTOFL
 70
     0
  9
$DIMTVP
 40
0.0
  9
$DIMTIX
 70
     0
  9
$DIMSOXD
 70
     0
  9
$DIMSAH
 70
     0
  9
$DIMBLK1
  1

  9
$DIMBLK2
  1

  9
$DIMSTYLE
  2
Standard
  9
$DIMCLRD
 70
     0
  9
$DIMCLRE
 70
     0
  9
$DIMCLRT
 70
     0
  9
$DIMTFAC
 40
1.0
  9
$DIMGAP
 40
0.09
  9
$DIMJUST
 70
     0
  9
$DIMSD1
 70
     0
  9
$DIMSD2
 70
     0
  9
$DIMTOLJ
 70
     1
  9
$DIMTZIN
 70
     0
  9
$DIMALTZ
 70
     0
  9
$DIMALTTZ
 70
     0
  9
$DIMUPT
 70
     0
  9
$DIMDEC
 70
     4
  9
$DIMTDEC
 70
     4
  9
$DIMALTU
 70
     2
  9
$DIMALTTD
 70
     2
  9
$DIMTXSTY
  7
Standard
  9
$DIMAUNIT
 70
     0
  9
$DIMADEC
 70
     0
  9
$DIMALTRND
 40
0.0
  9
$DIMAZIN
 70
     0
  9
$DIMDSEP
 70
    46
  9
$DIMATFIT
 70
     3
  9
$DIMFRAC
 70
     0
  9
$DIMLDRBLK
  1

  9
$DIMLUNIT
 70
     2
  9
$DIMLWD
 70
    -2
  9
$DIMLWE
 70
    -2
  9
$DIMTMOVE
 70
     0
  9
$DIMFXL
 40
1.0
  9
$DIMFXLON
 70
     0
  9
$DIMJOGANG
 40
0.7853981633974483
  9
$DIMTFILL
 70
     0
  9
$DIMTFILLCLR
 70
     0
  9
$DIMARCSYM
 70
     0
  9
$DIMLTYPE
  6

  9
$DIMLTEX1
  6

  9
$DIMLTEX2
  6

  9
$DIMTXTDIRECTION
 70
     0
  9
$LUNITS
 70
     2
  9
$LUPREC
 70
     4
  9
$SKETCHINC
 40
0.1
  9
$FILLETRAD
 40
0.5
  9
$AUNITS
 70
     0
  9
$AUPREC
 70
     0
  9
$MENU
  1
.
  9
$ELEVATION
 40
0.0
  9
$PELEVATION
 40
0.0
  9
$THICKNESS
 40
0.0
  9
$LIMCHECK
 70
     0
  9
$CHAMFERA
 40
0.5
  9
$CHAMFERB
 40
0.5
  9
$CHAMFERC
 40
1.0
  9
$CHAMFERD
 40
0.0
  9
$SKPOLY
 70
     0
  9
$TDCREATE
 40
2457917.625914352
  9
$TDUCREATE
 40
2457917.250914352
  9
$TDUPDATE
 40
2457917.625914352
  9
$TDUUPDATE
 40
2457917.250914352
  9
$TDINDWG
 40
0.0000000116
  9
$TDUSRTIMER
 40
0.0000000116
  9
$USRTIMER
 70
     1
  9
$ANGBASE
 50
0.0
  9
$ANGDIR
 70
     0
  9
$PDMODE
 70
     0
  9
$PDSIZE
 40
0.0
  9
$PLINEWID
 40
0.0
  9
$SPLFRAME
 70
     0
  9
$SPLINETYPE
 70
     6
  9
$SPLINESEGS
 70
     8
  9
$HANDSEED
  5
C7
  9
$SURFTAB1
 70
     6
  9
$SURFTAB2
 70
     6
  9
$SURFTYPE
 70
     6
  9
$SURFU
 70
     6
  9
$SURFV
 70
     6
  9
$UCSBASE
  2

  9
$UCSNAME
  2

  9
$UCSORG
 10
0.0
 20
0.0
 30
0.0
  9
$UCSXDIR
 10
1.0
 20
0.0
 30
0.0
  9
$UCSYDIR
 10
0.0
 20
1.0
 30
0.0
  9
$UCSORTHOREF
  2

  9
$UCSORTHOVIEW
 70
     0
  9
$UCSORGTOP
 10
0.0
 20
0.0
 30
0.0
  9
$UCSORGBOTTOM
 10
0.0
 20
0.0
 30
0.0
  9
$UCSORGLEFT
 10
0.0
 20
0.0
 30
0.0
  9
$UCSORGRIGHT
 10
0.0
 20
0.0
 30
0.0
  9
$UCSORGFRONT
 10
0.0
 20
0.0
 30
0.0
  9
$UCSORGBACK
 10
0.0
 20
0.0
 30
0.0
  9
$PUCSBASE
  2

  9
$PUCSNAME
  2

  9
$PUCSORG
 10
0.0
 20
0.0
 30
0.0
  9
$PUCSXDIR
 10
1.0
 20
0.0
 30
0.0
  9
$PUCSYDIR
 10
0.0
 20
1.0
 30
0.0
  9
$PUCSORTHOREF
  2

  9
$PUCSORTHOVIEW
 70
     0
  9
$PUCSORGTOP
 10
0.0
 20
0.0
 30
0.0
  9
$PUCSORGBOTTOM
 10
0.0
 20
0.0
 30
0.0
  9
$PUCSORGLEFT
 10
0.0
 20
0.0
 30
0.0
  9
$PUCSORGRIGHT
 10
0.0
 20
0.0
 30
0.0
  9
$PUCSORGFRONT
 10
0.0
 20
0.0
 30
0.0
  9
$PUCSORGBACK
 10
0.0
 20
0.0
 30
0.0
  9
$USERI1
 70
     0
  9
$USERI2
 70
     0
  9
$USERI3
 70
     0
  9
$USERI4
 70
     0
  9
$USERI5
 70
     0
  9
$USERR1
 40
0.0
  9
$USERR2
 40
0.0
  9
$USERR3
 40
0.0
  9
$USERR4
 40
0.0
  9
$USERR5
 40
0.0
  9
$WORLDVIEW
 70
     1
  9
$SHADEDGE
 70
     3
  9
$SHADEDIF
 70
    70
  9
$TILEMODE
 70
     1
  9
$MAXACTVP
 70
    64
  9
$PINSBASE
 10
0.0
 20
0.0
 30
0.0
  9
$PLIMCHECK
 70
     0
  9
$PEXTMIN
 10
1.000000000000000E+20
 20
1.000000000000000E+20
 30
1.000000000000000E+20
  9
$PEXTMAX
 10
-1.000000000000000E+20
 20
-1.000000000000000E+20
 30
-1.000000000000000E+20
  9
$PLIMMIN
 10
0.0
 20
0.0
  9
$PLIMMAX
 10
12.0
 20
9.0
  9
$UNITMODE
 70
     0
  9
$VISRETAIN
 70
     1
  9
$PLINEGEN
 70
     0
  9
$PSLTSCALE
 70
     1
  9
$TREEDEPTH
 70
  3020
  9
$CMLSTYLE
  2
Standard
  9
$CMLJUST
 70
     0
  9
$CMLSCALE
 40
1.0
  9
$PROXYGRAPHICS
 70
     1
  9
$MEASUREMENT
 70
     0
  9
$CELWEIGHT
370
    -1
  9
$ENDCAPS
280
     0
  9
$JOINSTYLE
280
     0
  9
$LWDISPLAY
290
     1
  9
$INSUNITS
 70
     1
  9
$HYPERLINKBASE
  1

  9
$STYLESHEET
  1

  9
$XEDIT
290
     1
  9
$CEPSNTYPE
380
     0
  9
$PSTYLEMODE
290
     1
  9
$FINGERPRINTGUID
  2
{52B1F019-2088-62EA-BE08-359C579D49B5}
  9
$VERSIONGUID
  2
{FAEB1C32-E019-11D5-929B-00C0DF256EC4}
  9
$EXTNAMES
290
     1
  9
$PSVPSCALE
 40
0.0
  9
$OLESTARTUP
290
     0
  9
$SORTENTS
280
   127
  9
$INDEXCTL
280
     0
  9
$HIDETEXT
280
     1
  9
$XCLIPFRAME
280
     2
  9
$HALOGAP
280
     0
  9
$OBSCOLOR
 70
   257
  9
$OBSLTYPE
280
     0
  9
$INTERSECTIONDISPLAY
280
     0
  9
$INTERSECTIONCOLOR
 70
   257
  9
$DIMASSOC
280
     2
  9
$PROJECTNAME
  1

  9
$CAMERADISPLAY
290
     0
  9
$LENSLENGTH
 40
50.0
  9
$CAMERAHEIGHT
 40
0.0
  9
$STEPSPERSEC
 40
2.0
  9
$STEPSIZE
 40
6.0
  9
$3DDWFPREC
 40
2.0
  9
$PSOLWIDTH
 40
0.25
  9
$PSOLHEIGHT
 40
4.0
  9
$LOFTANG1
 40
1.570796326794897
  9
$LOFTANG2
 40
1.570796326794897
  9
$LOFTMAG1
 40
0.0
  9
$LOFTMAG2
 40
0.0
  9
$LOFTPARAM
 70
     7
  9
$LOFTNORMALS
280
     1
  9
$LATITUDE
 40
37.795
  9
$LONGITUDE
 40
-122.394
  9
$NORTHDIRECTION
 40
0.0
  9
$TIMEZONE
 70
 -8000
  9
$LIGHTGLYPHDISPLAY
280
     1
  9
$TILEMODELIGHTSYNCH
280
     1
  9
$CMATERIAL
347
3C
  9
$SOLIDHIST
280
     1
  9
$SHOWHIST
280
     1
  9
$DWFFRAME
280
     2
  9
$DGNFRAME
280
     2
  9
$REALWORLDSCALE
290
     1
  9
$INTERFERECOLOR
 62
   256
  9
$CSHADOW
280
     0
  9
$SHADOWPLANELOCATION
 40
0.0
  0
ENDSEC
  0
SECTION
  2
CLASSES
  0
CLASS
  1
ACDBDICTIONARYWDFLT
  2
AcDbDictionaryWithDefault
  3
ObjectDBX Classes
 90
        0
 91
        4
280
     0
281
     0
  0
CLASS
  1
VISUALSTYLE
  2
AcDbVisualStyle
  3
ObjectDBX Classes
 90
     4095
 91
        4
280
     0
281
     0
  0
CLASS
  1
MATERIAL
  2
AcDbMaterial
  3
ObjectDBX Classes
 90
     1153
 91
        4
280
     0
281
     0
  0
CLASS
  1
SUN
  2
AcDbSun
  3
SCENEOE
 90
     1024
 91
        4
280
     0
281
     0
  0
ENDSEC
  0
SECTION
  2
TABLES
  0
TABLE
  2
VPORT
  5
8
330
0
100
AcDbSymbolTable
 70
     1
  0
VPORT
  5
29
330
8
100
AcDbSymbolTableRecord
100
AcDbViewportTableRecord
  2
*Active
 70
     0
 10
0.0
 20
0.0
 11
1.0
 21
1.0
 12
0.0
 22
0.0
 13
0.0
 23
0.0
 14
0.5
 24
0.5
 15
0.5
 25
0.5
 16
0.0
 26
0.0
 36
1.0
 17
91.00082462281999
 27
-128.4993055234307
 37
0.0
 40
256.9986110468615
 41
0.7081814508812795
 42
50.0
 43
0.0
 44
0.0
 50
0.0
 51
0.0
 71
     0
 72
   100
 73
     1
 74
     3
 75
     0
 76
     0
 77
     0
 78
     0
281
     0
 65
     1
110
0.0
120
0.0
130
0.0
111
1.0
121
0.0
131
0.0
112
0.0
122
1.0
132
0.0
 79
     0
146
0.0
 60
     3
 61
     5
292
     1
282
     1
141
0.0
142
0.0
 63
   250
361
3F
  0
ENDTAB
  0
TABLE
  2
LTYPE
  5
5
330
0
100
AcDbSymbolTable
 70
     1
  0
LTYPE
  5
14
330
5
100
AcDbSymbolTableRecord
100
AcDbLinetypeTableRecord
  2
ByBlock
 70
     0
  3

 72
    65
 73
     0
 40
0.0
  0
LTYPE
  5
15
330
5
100
AcDbSymbolTableRecord
100
AcDbLinetypeTableRecord
  2
ByLayer
 70
     0
  3

 72
    65
 73
     0
 40
0.0
  0
LTYPE
  5
16
330
5
100
AcDbSymbolTableRecord
100
AcDbLinetypeTableRecord
  2
Continuous
 70
     0
  3
Solid line
 72
    65
 73
     0
 40
0.0
  0
ENDTAB
  0
TABLE
  2
LAYER
  5
2
330
0
100
AcDbSymbolTable
 70
     2
  0
LAYER
  5
10
330
2
100
AcDbSymbolTableRecord
100
AcDbLayerTableRecord
  2
0
 70
     0
 62
     7
  6
Continuous
370
    -3
390
F
347
3E
  0
LAYER
  5
40
330
2
100
AcDbSymbolTableRecord
100
AcDbLayerTableRecord
  2
_U+30EC_U+30A4_U+30E4_U+30FC 1
 70
     0
 62
     7
  6
Continuous
370
    -3
390
F
347
3E
  0
ENDTAB
  0
TABLE
  2
STYLE
  5
3
330
0
100
AcDbSymbolTable
 70
     1
  0
STYLE
  5
11
330
3
100
AcDbSymbolTableRecord
100
AcDbTextStyleTableRecord
  2
Standard
 70
     0
 40
0.0
 41
1.0
 50
0.0
 71
     0
 42
0.2
  3
txt
  4

  0
ENDTAB
  0
TABLE
  2
VIEW
  5
6
330
0
100
AcDbSymbolTable
 70
     0
  0
ENDTAB
  0
TABLE
  2
UCS
  5
7
330
0
100
AcDbSymbolTable
 70
     0
  0
ENDTAB
  0
TABLE
  2
APPID
  5
9
330
0
100
AcDbSymbolTable
 70
     1
  0
APPID
  5
12
330
9
100
AcDbSymbolTableRecord
100
AcDbRegAppTableRecord
  2
ACAD
 70
     0
  0
ENDTAB
  0
TABLE
  2
DIMSTYLE
  5
A
330
0
100
AcDbSymbolTable
 70
     1
100
AcDbDimStyleTable
  0
DIMSTYLE
105
27
330
A
100
AcDbSymbolTableRecord
100
AcDbDimStyleTableRecord
  2
Standard
 70
     0
178
     0
340
11
  0
ENDTAB
  0
TABLE
  2
BLOCK_RECORD
  5
1
330
0
100
AcDbSymbolTable
 70
     7
  0
BLOCK_RECORD
  5
1F
330
1
100
AcDbSymbolTableRecord
100
AcDbBlockTableRecord
  2
*Model_Space
340
22
 70
     0
280
     1
281
     0
  0
BLOCK_RECORD
  5
1B
330
1
100
AcDbSymbolTableRecord
100
AcDbBlockTableRecord
  2
*Paper_Space
340
1E
 70
     0
280
     1
281
     0
  0
BLOCK_RECORD
  5
23
330
1
100
AcDbSymbolTableRecord
100
AcDbBlockTableRecord
  2
*Paper_Space0
340
26
 70
     0
280
     1
281
     0
  0
BLOCK_RECORD
  5
59
330
1
100
AcDbSymbolTableRecord
100
AcDbBlockTableRecord
  2
block 2
340
0
102
{BLKREFS
331
5A
102
}
 70
     0
280
     1
281
     0
  0
BLOCK_RECORD
  5
71
330
1
100
AcDbSymbolTableRecord
100
AcDbBlockTableRecord
  2
block 3
340
0
102
{BLKREFS
331
72
102
}
 70
     0
280
     1
281
     0
  0
BLOCK_RECORD
  5
8D
330
1
100
AcDbSymbolTableRecord
100
AcDbBlockTableRecord
  2
block 4
340
0
102
{BLKREFS
331
8E
102
}
 70
     0
280
     1
281
     0
  0
BLOCK_RECORD
  5
A3
330
1
100
AcDbSymbolTableRecord
100
AcDbBlockTableRecord
  2
block 5
340
0
102
{BLKREFS
331
A4
102
}
 70
     0
280
     1
281
     0
  0
BLOCK_RECORD
  5
B1
330
1
100
AcDbSymbolTableRecord
100
AcDbBlockTableRecord
  2
block 6
340
0
102
{BLKREFS
331
B2
102
}
 70
     0
280
     1
281
     0
  0
BLOCK_RECORD
  5
BF
330
1
100
AcDbSymbolTableRecord
100
AcDbBlockTableRecord
  2
block 7
340
0
102
{BLKREFS
331
C0
102
}
 70
     0
280
     1
281
     0
  0
ENDTAB
  0
ENDSEC
  0
SECTION
  2
BLOCKS
  0
BLOCK
  5
20
330
1F
100
AcDbEntity
  8
0
100
AcDbBlockBegin
  2
*Model_Space
 70
     0
 10
0.0
 20
0.0
 30
0.0
  3
*Model_Space
  1

  0
ENDBLK
  5
21
330
1F
100
AcDbEntity
  8
0
100
AcDbBlockEnd
  0
BLOCK
  5
1C
330
1B
100
AcDbEntity
 67
     1
  8
0
100
AcDbBlockBegin
  2
*Paper_Space
 70
     0
 10
0.0
 20
0.0
 30
0.0
  3
*Paper_Space
  1

  0
ENDBLK
  5
1D
330
1B
100
AcDbEntity
 67
     1
  8
0
100
AcDbBlockEnd
  0
BLOCK
  5
24
330
23
100
AcDbEntity
  8
0
100
AcDbBlockBegin
  2
*Paper_Space0
 70
     0
 10
0.0
 20
0.0
 30
0.0
  3
*Paper_Space0
  1

  0
ENDBLK
  5
25
330
23
100
AcDbEntity
  8
0
100
AcDbBlockEnd
  0
BLOCK
  5
5B
330
59
100
AcDbEntity
  8
0
100
AcDbBlockBegin
  2
block 2
 70
     0
 10
0.0
 20
0.0
 30
0.0
  3
block 2
  1

  0
SPLINE
  5
5D
330
59
100
AcDbEntity
  8
_U+30EC_U+30A4_U+30E4_U+30FC 1
370
     0
100
AcDbSpline
210
0.0
220
0.0
230
1.0
 70
    11
 71
     3
 72
    44
 73
    40
 74
     0
 42
0.0000000001
 43
0.0000000001
 12
1.0
 22
0.0
 32
0.0
 13
1.0
 23
0.0
 33
0.0
 40
0.0
 40
0.0
 40
0.0
 40
0.0
 40
1.0
 40
1.0
 40
1.0
 40
2.0
 40
2.0
 40
2.0
 40
3.0
 40
3.0
 40
3.0
 40
4.0
 40
4.0
 40
4.0
 40
5.0
 40
5.0
 40
5.0
 40
6.0
 40
6.0
 40
6.0
 40
7.0
 40
7.0
 40
7.0
 40
8.0
 40
8.0
 40
8.0
 40
9.0
 40
9.0
 40
9.0
 40
10.0
 40
10.0
 40
10.0
 40
11.0
 40
11.0
 40
11.0
 40
12.0
 40
12.0
 40
12.0
 40
13.0
 40
13.0
 40
13.0
 40
13.0
 10
81.1364773017645
 20
-133.5449923711276
 30
0.0
 10
81.2952962036345
 20
-133.7627224057954
 30
0.0
 10
81.36936575656739
 20
-133.8557399838972
 30
0.0
 10
81.5130262383023
 20
-133.9046603397877
 30
0.0
 10
81.5130262383023
 20
-133.9046603397877
 30
0.0
 10
81.5130262383023
 20
-133.1260687601213
 30
0.0
 10
81.5130262383023
 20
-133.1260687601213
 30
0.0
 10
81.5130262383023
 20
-133.1260687601213
 30
0.0
 10
81.7183539292232
 20
-133.1260687601213
 30
0.0
 10
81.7183539292232
 20
-133.1260687601213
 30
0.0
 10
81.7183539292232
 20
-133.1260687601213
 30
0.0
 10
81.7183539292232
 20
-134.1540852529198
 30
0.0
 10
81.7183539292232
 20
-134.1540852529198
 30
0.0
 10
81.36075301785426
 20
-134.1223903744555
 30
0.0
 10
81.28254935033908
 20
-134.0569335602358
 30
0.0
 10
80.98420408131645
 20
-133.6717718849848
 30
0.0
 10
80.78542207181754
 20
-133.4158012904308
 30
0.0
 10
80.71755369075811
 20
-133.350344476211
 30
0.0
 10
80.58009438089665
 20
-133.350344476211
 30
0.0
 10
80.46158309620405
 20
-133.350344476211
 30
0.0
 10
80.33066946776457
 20
-133.4223469718528
 30
0.0
 10
80.33066946776457
 20
-133.6190619240605
 30
0.0
 10
80.33066946776457
 20
-133.8791666331969
 30
0.0
 10
80.56114635572777
 20
-133.8874348623615
 30
0.0
 10
80.67759058312922
 20
-133.8919134864923
 30
0.0
 10
80.67759058312922
 20
-133.8919134864923
 30
0.0
 10
80.67759058312922
 20
-134.1161892025821
 30
0.0
 10
80.67759058312922
 20
-134.1161892025821
 30
0.0
 10
80.5504665597235
 20
-134.107576463869
 30
0.0
 10
80.43850095645288
 20
-134.0968966678647
 30
0.0
 10
80.31998967176028
 20
-134.0166259430584
 30
0.0
 10
80.15910371259912
 20
-133.9067273970789
 30
0.0
 10
80.12534177684367
 20
-133.7203477313269
 30
0.0
 10
80.12534177684367
 20
-133.6042480134739
 30
0.0
 10
80.12534177684367
 20
-133.3269178269113
 30
0.0
 10
80.30930987575601
 20
-133.1195230786993
 30
0.0
 10
80.5821614381878
 20
-133.1195230786993
 30
0.0
 10
80.81091577840839
 20
-133.1195230786993
 30
0.0
 10
80.91013452838358
 20
-133.2359673061007
 30
0.0
 10
81.1364773017645
 20
-133.5449923711276
 30
0.0
  0
HATCH
  5
5E
330
59
100
AcDbEntity
  8
_U+30EC_U+30A4_U+30E4_U+30FC 1
 62
     7
420
 16777215
100
AcDbHatch
 10
0.0
 20
0.0
 30
0.0
210
0.0
220
0.0
230
1.0
  2
SOLID
 70
     1
 71
     0
 91
        1
 92
        1
 93
        1
 72
     4
 94
        3
 73
     0
 74
     1
 95
       44
 96
       40
 40
0.0
 40
0.0
 40
0.0
 40
0.0
 40
1.0
 40
1.0
 40
1.0
 40
2.0
 40
2.0
 40
2.0
 40
3.0
 40
3.0
 40
3.0
 40
4.0
 40
4.0
 40
4.0
 40
5.0
 40
5.0
 40
5.0
 40
6.0
 40
6.0
 40
6.0
 40
7.0
 40
7.0
 40
7.0
 40
8.0
 40
8.0
 40
8.0
 40
9.0
 40
9.0
 40
9.0
 40
10.0
 40
10.0
 40
10.0
 40
11.0
 40
11.0
 40
11.0
 40
12.0
 40
12.0
 40
12.0
 40
13.0
 40
13.0
 40
13.0
 40
13.0
 10
81.1364773017645
 20
-133.5449923711276
 10
81.2952962036345
 20
-133.7627224057954
 10
81.36936575656739
 20
-133.8557399838972
 10
81.5130262383023
 20
-133.9046603397877
 10
81.5130262383023
 20
-133.9046603397877
 10
81.5130262383023
 20
-133.1260687601213
 10
81.5130262383023
 20
-133.1260687601213
 10
81.5130262383023
 20
-133.1260687601213
 10
81.7183539292232
 20
-133.1260687601213
 10
81.7183539292232
 20
-133.1260687601213
 10
81.7183539292232
 20
-133.1260687601213
 10
81.7183539292232
 20
-134.1540852529198
 10
81.7183539292232
 20
-134.1540852529198
 10
81.36075301785426
 20
-134.1223903744555
 10
81.28254935033908
 20
-134.0569335602358
 10
80.98420408131645
 20
-133.6717718849848
 10
80.78542207181754
 20
-133.4158012904308
 10
80.71755369075811
 20
-133.350344476211
 10
80.58009438089665
 20
-133.350344476211
 10
80.46158309620405
 20
-133.350344476211
 10
80.33066946776457
 20
-133.4223469718528
 10
80.33066946776457
 20
-133.6190619240605
 10
80.33066946776457
 20
-133.8791666331969
 10
80.56114635572777
 20
-133.8874348623615
 10
80.67759058312922
 20
-133.8919134864923
 10
80.67759058312922
 20
-133.8919134864923
 10
80.67759058312922
 20
-134.1161892025821
 10
80.67759058312922
 20
-134.1161892025821
 10
80.5504665597235
 20
-134.107576463869
 10
80.43850095645288
 20
-134.0968966678647
 10
80.31998967176028
 20
-134.0166259430584
 10
80.15910371259912
 20
-133.9067273970789
 10
80.12534177684367
 20
-133.7203477313269
 10
80.12534177684367
 20
-133.6042480134739
 10
80.12534177684367
 20
-133.3269178269113
 10
80.30930987575601
 20
-133.1195230786993
 10
80.5821614381878
 20
-133.1195230786993
 10
80.81091577840839
 20
-133.1195230786993
 10
80.91013452838358
 20
-133.2359673061007
 10
81.1364773017645
 20
-133.5449923711276
 97
        0
 97
        0
 75
     2
 76
     1
 98
        0
  0
SPLINE
  5
5F
330
59
100
AcDbEntity
  8
_U+30EC_U+30A4_U+30E4_U+30FC 1
370
     0
100
AcDbSpline
210
0.0
220
0.0
230
1.0
 70
    11
 71
     3
 72
    53
 73
    49
 74
     0
 42
0.0000000001
 43
0.0000000001
 12
1.0
 22
0.0
 32
0.0
 13
1.0
 23
0.0
 33
0.0
 40
0.0
 40
0.0
 40
0.0
 40
0.0
 40
1.0
 40
1.0
 40
1.0
 40
2.0
 40
2.0
 40
2.0
 40
3.0
 40
3.0
 40
3.0
 40
4.0
 40
4.0
 40
4.0
 40
5.0
 40
5.0
 40
5.0
 40
6.0
 40
6.0
 40
6.0
 40
7.0
 40
7.0
 40
7.0
 40
8.0
 40
8.0
 40
8.0
 40
9.0
 40
9.0
 40
9.0
 40
10.0
 40
10.0
 40
10.0
 40
11.0
 40
11.0
 40
11.0
 40
12.0
 40
12.0
 40
12.0
 40
13.0
 40
13.0
 40
13.0
 40
14.0
 40
14.0
 40
14.0
 40
15.0
 40
15.0
 40
15.0
 40
16.0
 40
16.0
 40
16.0
 40
16.0
 10
81.76899683285636
 20
-132.4801133566369
 30
0.0
 10
81.76899683285636
 20
-132.5583170241521
 30
0.0
 10
81.75211586497863
 20
-132.659947340967
 30
0.0
 10
81.68872610805005
 20
-132.7615776577818
 30
0.0
 10
81.57882756207057
 20
-132.9348659606899
 30
0.0
 10
81.44756942408256
 20
-132.9562255526984
 30
0.0
 10
81.33973793539424
 20
-132.9751735778673
 30
0.0
 10
81.33973793539424
 20
-132.9751735778673
 30
0.0
 10
81.33973793539424
 20
-132.7529649190687
 30
0.0
 10
81.33973793539424
 20
-132.7529649190687
 30
0.0
 10
81.53851994489315
 20
-132.6981879008532
 30
0.0
 10
81.5681477660663
 20
-132.5710638774475
 30
0.0
 10
81.5681477660663
 20
-132.4780462993458
 30
0.0
 10
81.5681477660663
 20
-132.3385199321932
 30
0.0
 10
81.46858450654258
 20
-132.1862467117451
 30
0.0
 10
81.23604056128822
 20
-132.1862467117451
 30
0.0
 10
80.98006996673415
 20
-132.1862467117451
 30
0.0
 10
80.91013452838358
 20
-132.3660806960752
 30
0.0
 10
80.91013452838358
 20
-132.4866590380589
 30
0.0
 10
80.91013452838358
 20
-132.5183539165232
 30
0.0
 10
80.91013452838358
 20
-132.659947340967
 30
0.0
 10
81.03932560908045
 20
-132.7488308044864
 30
0.0
 10
81.03932560908045
 20
-132.7488308044864
 30
0.0
 10
81.02037758391158
 20
-132.9245306742341
 30
0.0
 10
81.02037758391158
 20
-132.9245306742341
 30
0.0
 10
81.02037758391158
 20
-132.9245306742341
 30
0.0
 10
80.17391762318569
 20
-132.8039523322504
 30
0.0
 10
80.17391762318569
 20
-132.8039523322504
 30
0.0
 10
80.17391762318569
 20
-132.8039523322504
 30
0.0
 10
80.17391762318569
 20
-132.0253607525839
 30
0.0
 10
80.17391762318569
 20
-132.0253607525839
 30
0.0
 10
80.17391762318569
 20
-132.0253607525839
 30
0.0
 10
80.3685655181023
 20
-132.0253607525839
 30
0.0
 10
80.3685655181023
 20
-132.0253607525839
 30
0.0
 10
80.3685655181023
 20
-132.0253607525839
 30
0.0
 10
80.3685655181023
 20
-132.6409993157981
 30
0.0
 10
80.3685655181023
 20
-132.6409993157981
 30
0.0
 10
80.3685655181023
 20
-132.6409993157981
 30
0.0
 10
80.79162324369099
 20
-132.7064561300178
 30
0.0
 10
80.79162324369099
 20
-132.7064561300178
 30
0.0
 10
80.75786130793554
 20
-132.6451334303804
 30
0.0
 10
80.71755369075811
 20
-132.5627956482829
 30
0.0
 10
80.71755369075811
 20
-132.4442843635903
 30
0.0
 10
80.71755369075811
 20
-132.1903808263274
 30
0.0
 10
80.90393335651014
 20
-131.9533582569422
 30
0.0
 10
81.21709253611934
 20
-131.9533582569422
 30
0.0
 10
81.53438583031085
 20
-131.9533582569422
 30
0.0
 10
81.76899683285636
 20
-132.177633973032
 30
0.0
 10
81.76899683285636
 20
-132.4801133566369
 30
0.0
  0
HATCH
  5
60
330
59
100
AcDbEntity
  8
_U+30EC_U+30A4_U+30E4_U+30FC 1
 62
     7
420
 16777215
100
AcDbHatch
 10
0.0
 20
0.0
 30
0.0
210
0.0
220
0.0
230
1.0
  2
SOLID
 70
     1
 71
     0
 91
        1
 92
        1
 93
        1
 72
     4
 94
        3
 73
     0
 74
     1
 95
       53
 96
       49
 40
0.0
 40
0.0
 40
0.0
 40
0.0
 40
1.0
 40
1.0
 40
1.0
 40
2.0
 40
2.0
 40
2.0
 40
3.0
 40
3.0
 40
3.0
 40
4.0
 40
4.0
 40
4.0
 40
5.0
 40
5.0
 40
5.0
 40
6.0
 40
6.0
 40
6.0
 40
7.0
 40
7.0
 40
7.0
 40
8.0
 40
8.0
 40
8.0
 40
9.0
 40
9.0
 40
9.0
 40
10.0
 40
10.0
 40
10.0
 40
11.0
 40
11.0
 40
11.0
 40
12.0
 40
12.0
 40
12.0
 40
13.0
 40
13.0
 40
13.0
 40
14.0
 40
14.0
 40
14.0
 40
15.0
 40
15.0
 40
15.0
 40
16.0
 40
16.0
 40
16.0
 40
16.0
 10
81.76899683285636
 20
-132.4801133566369
 10
81.76899683285636
 20
-132.5583170241521
 10
81.75211586497863
 20
-132.659947340967
 10
81.68872610805005
 20
-132.7615776577818
 10
81.57882756207057
 20
-132.9348659606899
 10
81.44756942408256
 20
-132.9562255526984
 10
81.33973793539424
 20
-132.9751735778673
 10
81.33973793539424
 20
-132.9751735778673
 10
81.33973793539424
 20
-132.7529649190687
 10
81.33973793539424
 20
-132.7529649190687
 10
81.53851994489315
 20
-132.6981879008532
 10
81.5681477660663
 20
-132.5710638774475
 10
81.5681477660663
 20
-132.4780462993458
 10
81.5681477660663
 20
-132.3385199321932
 10
81.46858450654258
 20
-132.1862467117451
 10
81.23604056128822
 20
-132.1862467117451
 10
80.98006996673415
 20
-132.1862467117451
 10
80.91013452838358
 20
-132.3660806960752
 10
80.91013452838358
 20
-132.4866590380589
 10
80.91013452838358
 20
-132.5183539165232
 10
80.91013452838358
 20
-132.659947340967
 10
81.03932560908045
 20
-132.7488308044864
 10
81.03932560908045
 20
-132.7488308044864
 10
81.02037758391158
 20
-132.9245306742341
 10
81.02037758391158
 20
-132.9245306742341
 10
81.02037758391158
 20
-132.9245306742341
 10
80.17391762318569
 20
-132.8039523322504
 10
80.17391762318569
 20
-132.8039523322504
 10
80.17391762318569
 20
-132.8039523322504
 10
80.17391762318569
 20
-132.0253607525839
 10
80.17391762318569
 20
-132.0253607525839
 10
80.17391762318569
 20
-132.0253607525839
 10
80.3685655181023
 20
-132.0253607525839
 10
80.3685655181023
 20
-132.0253607525839
 10
80.3685655181023
 20
-132.0253607525839
 10
80.3685655181023
 20
-132.6409993157981
 10
80.3685655181023
 20
-132.6409993157981
 10
80.3685655181023
 20
-132.6409993157981
 10
80.79162324369099
 20
-132.7064561300178
 10
80.79162324369099
 20
-132.7064561300178
 10
80.75786130793554
 20
-132.6451334303804
 10
80.71755369075811
 20
-132.5627956482829
 10
80.71755369075811
 20
-132.4442843635903
 10
80.71755369075811
 20
-132.1903808263274
 10
80.90393335651014
 20
-131.9533582569422
 10
81.21709253611934
 20
-131.9533582569422
 10
81.53438583031085
 20
-131.9533582569422
 10
81.76899683285636
 20
-132.177633973032
 10
81.76899683285636
 20
-132.4801133566369
 97
        0
 97
        0
 75
     2
 76
     1
 98
        0
  0
ENDBLK
  5
5C
330
59
100
AcDbEntity
  8
0
100
AcDbBlockEnd
  0
BLOCK
  5
73
330
71
100
AcDbEntity
  8
0
100
AcDbBlockBegin
  2
block 3
 70
     0
 10
0.0
 20
0.0
 30
0.0
  3
block 3
  1

  0
SPLINE
  5
75
330
71
100
AcDbEntity
  8
_U+30EC_U+30A4_U+30E4_U+30FC 1
370
     0
100
AcDbSpline
210
0.0
220
0.0
230
1.0
 70
    11
 71
     3
 72
    26
 73
    22
 74
     0
 42
0.0000000001
 43
0.0000000001
 12
1.0
 22
0.0
 32
0.0
 13
1.0
 23
0.0
 33
0.0
 40
0.0
 40
0.0
 40
0.0
 40
0.0
 40
1.0
 40
1.0
 40
1.0
 40
2.0
 40
2.0
 40
2.0
 40
3.0
 40
3.0
 40
3.0
 40
4.0
 40
4.0
 40
4.0
 40
5.0
 40
5.0
 40
5.0
 40
6.0
 40
6.0
 40
6.0
 40
7.0
 40
7.0
 40
7.0
 40
7.0
 10
81.13130965853662
 20
-120.946967200666
 30
0.0
 10
81.13130965853662
 20
-120.946967200666
 30
0.0
 10
80.02715655551405
 20
-120.946967200666
 30
0.0
 10
80.02715655551405
 20
-120.946967200666
 30
0.0
 10
80.02715655551405
 20
-120.946967200666
 30
0.0
 10
80.02715655551405
 20
-121.277007348153
 30
0.0
 10
80.02715655551405
 20
-121.277007348153
 30
0.0
 10
80.02715655551405
 20
-121.277007348153
 30
0.0
 10
79.8790174496483
 20
-121.277007348153
 30
0.0
 10
79.8790174496483
 20
-121.277007348153
 30
0.0
 10
79.86420353906173
 20
-120.9449001433749
 30
0.0
 10
79.70125052260941
 20
-120.898391354324
 30
0.0
 10
79.58687335249913
 20
-120.8687635331509
 30
0.0
 10
79.58687335249913
 20
-120.8687635331509
 30
0.0
 10
79.58687335249913
 20
-120.7226914845763
 30
0.0
 10
79.58687335249913
 20
-120.7226914845763
 30
0.0
 10
79.58687335249913
 20
-120.7226914845763
 30
0.0
 10
81.13130965853662
 20
-120.7226914845763
 30
0.0
 10
81.13130965853662
 20
-120.7226914845763
 30
0.0
 10
81.13130965853662
 20
-120.7226914845763
 30
0.0
 10
81.13130965853662
 20
-120.946967200666
 30
0.0
 10
81.13130965853662
 20
-120.946967200666
 30
0.0
  0
HATCH
  5
76
330
71
100
AcDbEntity
  8
_U+30EC_U+30A4_U+30E4_U+30FC 1
 62
     7
420
 16777215
100
AcDbHatch
 10
0.0
 20
0.0
 30
0.0
210
0.0
220
0.0
230
1.0
  2
SOLID
 70
     1
 71
     0
 91
        1
 92
        1
 93
        1
 72
     4
 94
        3
 73
     0
 74
     1
 95
       26
 96
       22
 40
0.0
 40
0.0
 40
0.0
 40
0.0
 40
1.0
 40
1.0
 40
1.0
 40
2.0
 40
2.0
 40
2.0
 40
3.0
 40
3.0
 40
3.0
 40
4.0
 40
4.0
 40
4.0
 40
5.0
 40
5.0
 40
5.0
 40
6.0
 40
6.0
 40
6.0
 40
7.0
 40
7.0
 40
7.0
 40
7.0
 10
81.13130965853662
 20
-120.946967200666
 10
81.13130965853662
 20
-120.946967200666
 10
80.02715655551405
 20
-120.946967200666
 10
80.02715655551405
 20
-120.946967200666
 10
80.02715655551405
 20
-120.946967200666
 10
80.02715655551405
 20
-121.277007348153
 10
80.02715655551405
 20
-121.277007348153
 10
80.02715655551405
 20
-121.277007348153
 10
79.8790174496483
 20
-121.277007348153
 10
79.8790174496483
 20
-121.277007348153
 10
79.86420353906173
 20
-120.9449001433749
 10
79.70125052260941
 20
-120.898391354324
 10
79.58687335249913
 20
-120.8687635331509
 10
79.58687335249913
 20
-120.8687635331509
 10
79.58687335249913
 20
-120.7226914845763
 10
79.58687335249913
 20
-120.7226914845763
 10
79.58687335249913
 20
-120.7226914845763
 10
81.13130965853662
 20
-120.7226914845763
 10
81.13130965853662
 20
-120.7226914845763
 10
81.13130965853662
 20
-120.7226914845763
 10
81.13130965853662
 20
-120.946967200666
 10
81.13130965853662
 20
-120.946967200666
 97
        0
 97
        0
 75
     2
 76
     1
 98
        0
  0
POLYLINE
  5
77
330
71
100
AcDbEntity
  8
_U+30EC_U+30A4_U+30E4_U+30FC 1
370
     0
100
AcDb2dPolyline
 66
     1
 10
0.0
 20
0.0
 30
0.0
  0
VERTEX
  5
78
330
77
100
AcDbEntity
  8
_U+30EC_U+30A4_U+30E4_U+30FC 1
370
     0
100
AcDbVertex
100
AcDb2dVertex
 10
81.13130965853662
 20
-120.1614854300291
 30
0.0
  0
VERTEX
  5
79
330
77
100
AcDbEntity
  8
_U+30EC_U+30A4_U+30E4_U+30FC 1
370
     0
100
AcDbVertex
100
AcDb2dVertex
 10
80.87947317856485
 20
-120.1614854300291
 30
0.0
  0
VERTEX
  5
7A
330
77
100
AcDbEntity
  8
_U+30EC_U+30A4_U+30E4_U+30FC 1
370
     0
100
AcDbVertex
100
AcDb2dVertex
 10
80.87947317856485
 20
-119.9096489500573
 30
0.0
  0
VERTEX
  5
7B
330
77
100
AcDbEntity
  8
_U+30EC_U+30A4_U+30E4_U+30FC 1
370
     0
100
AcDbVertex
100
AcDb2dVertex
 10
81.13130965853662
 20
-119.9096489500573
 30
0.0
  0
VERTEX
  5
7C
330
77
100
AcDbEntity
  8
_U+30EC_U+30A4_U+30E4_U+30FC 1
370
     0
100
AcDbVertex
100
AcDb2dVertex
 10
81.13130965853662
 20
-120.1614854300291
 30
0.0
  0
SEQEND
  5
7D
330
77
100
AcDbEntity
  8
_U+30EC_U+30A4_U+30E4_U+30FC 1
370
     0
  0
HATCH
  5
7E
330
71
100
AcDbEntity
  8
_U+30EC_U+30A4_U+30E4_U+30FC 1
 62
     7
420
 16777215
100
AcDbHatch
 10
0.0
 20
0.0
 30
0.0
210
0.0
220
0.0
230
1.0
  2
SOLID
 70
     1
 71
     0
 91
        1
 92
        1
 93
        4
 72
     1
 10
81.13130965853662
 20
-120.1614854300291
 11
80.87947317856485
 21
-120.1614854300291
 72
     1
 10
80.87947317856485
 20
-120.1614854300291
 11
80.87947317856485
 21
-119.9096489500573
 72
     1
 10
80.87947317856485
 20
-119.9096489500573
 11
81.13130965853662
 21
-119.9096489500573
 72
     1
 10
81.13130965853662
 20
-119.9096489500573
 11
81.13130965853662
 21
-120.1614854300291
 97
        0
 75
     2
 76
     1
 98
        0
  0
SPLINE
  5
7F
330
71
100
AcDbEntity
  8
_U+30EC_U+30A4_U+30E4_U+30FC 1
370
     0
100
AcDbSpline
210
0.0
220
0.0
230
1.0
 70
    11
 71
     3
 72
    44
 73
    40
 74
     0
 42
0.0000000001
 43
0.0000000001
 12
1.0
 22
0.0
 32
0.0
 13
1.0
 23
0.0
 33
0.0
 40
0.0
 40
0.0
 40
0.0
 40
0.0
 40
1.0
 40
1.0
 40
1.0
 40
2.0
 40
2.0
 40
2.0
 40
3.0
 40
3.0
 40
3.0
 40
4.0
 40
4.0
 40
4.0
 40
5.0
 40
5.0
 40
5.0
 40
6.0
 40
6.0
 40
6.0
 40
7.0
 40
7.0
 40
7.0
 40
8.0
 40
8.0
 40
8.0
 40
9.0
 40
9.0
 40
9.0
 40
10.0
 40
10.0
 40
10.0
 40
11.0
 40
11.0
 40
11.0
 40
12.0
 40
12.0
 40
12.0
 40
13.0
 40
13.0
 40
13.0
 40
13.0
 10
80.54943303107792
 20
-119.0804144667577
 30
0.0
 10
80.70825193294795
 20
-119.2981445014255
 30
0.0
 10
80.78232148588081
 20
-119.3911620795272
 30
0.0
 10
80.92598196761573
 20
-119.4400824354178
 30
0.0
 10
80.92598196761573
 20
-119.4400824354178
 30
0.0
 10
80.92598196761573
 20
-118.6614908557513
 30
0.0
 10
80.92598196761573
 20
-118.6614908557513
 30
0.0
 10
80.92598196761573
 20
-118.6614908557513
 30
0.0
 10
81.13130965853662
 20
-118.6614908557513
 30
0.0
 10
81.13130965853662
 20
-118.6614908557513
 30
0.0
 10
81.13130965853662
 20
-118.6614908557513
 30
0.0
 10
81.13130965853662
 20
-119.6895073485499
 30
0.0
 10
81.13130965853662
 20
-119.6895073485499
 30
0.0
 10
80.77370874716769
 20
-119.6578124700855
 30
0.0
 10
80.69550507965252
 20
-119.5923556558658
 30
0.0
 10
80.39715981062989
 20
-119.2071939806149
 30
0.0
 10
80.19837780113096
 20
-118.9512233860608
 30
0.0
 10
80.13050942007155
 20
-118.8857665718411
 30
0.0
 10
79.99305011021008
 20
-118.8857665718411
 30
0.0
 10
79.87453882551748
 20
-118.8857665718411
 30
0.0
 10
79.74362519707799
 20
-118.9577690674828
 30
0.0
 10
79.74362519707799
 20
-119.1544840196906
 30
0.0
 10
79.74362519707799
 20
-119.4145887288269
 30
0.0
 10
79.9741020850412
 20
-119.4228569579915
 30
0.0
 10
80.09054631244264
 20
-119.4273355821223
 30
0.0
 10
80.09054631244264
 20
-119.4273355821223
 30
0.0
 10
80.09054631244264
 20
-119.6516112982121
 30
0.0
 10
80.09054631244264
 20
-119.6516112982121
 30
0.0
 10
79.96342228903693
 20
-119.642998559499
 30
0.0
 10
79.85145668576631
 20
-119.6323187634947
 30
0.0
 10
79.7329454010737
 20
-119.5520480386884
 30
0.0
 10
79.57205944191254
 20
-119.4421494927089
 30
0.0
 10
79.5382975061571
 20
-119.2557698269569
 30
0.0
 10
79.5382975061571
 20
-119.139670109104
 30
0.0
 10
79.5382975061571
 20
-118.8623399225414
 30
0.0
 10
79.72226560506944
 20
-118.6549451743293
 30
0.0
 10
79.99511716750122
 20
-118.6549451743293
 30
0.0
 10
80.22387150772181
 20
-118.6549451743293
 30
0.0
 10
80.323090257697
 20
-118.7713894017308
 30
0.0
 10
80.54943303107792
 20
-119.0804144667577
 30
0.0
  0
HATCH
  5
80
330
71
100
AcDbEntity
  8
_U+30EC_U+30A4_U+30E4_U+30FC 1
 62
     7
420
 16777215
100
AcDbHatch
 10
0.0
 20
0.0
 30
0.0
210
0.0
220
0.0
230
1.0
  2
SOLID
 70
     1
 71
     0
 91
        1
 92
        1
 93
        1
 72
     4
 94
        3
 73
     0
 74
     1
 95
       44
 96
       40
 40
0.0
 40
0.0
 40
0.0
 40
0.0
 40
1.0
 40
1.0
 40
1.0
 40
2.0
 40
2.0
 40
2.0
 40
3.0
 40
3.0
 40
3.0
 40
4.0
 40
4.0
 40
4.0
 40
5.0
 40
5.0
 40
5.0
 40
6.0
 40
6.0
 40
6.0
 40
7.0
 40
7.0
 40
7.0
 40
8.0
 40
8.0
 40
8.0
 40
9.0
 40
9.0
 40
9.0
 40
10.0
 40
10.0
 40
10.0
 40
11.0
 40
11.0
 40
11.0
 40
12.0
 40
12.0
 40
12.0
 40
13.0
 40
13.0
 40
13.0
 40
13.0
 10
80.54943303107792
 20
-119.0804144667577
 10
80.70825193294795
 20
-119.2981445014255
 10
80.78232148588081
 20
-119.3911620795272
 10
80.92598196761573
 20
-119.4400824354178
 10
80.92598196761573
 20
-119.4400824354178
 10
80.92598196761573
 20
-118.6614908557513
 10
80.92598196761573
 20
-118.6614908557513
 10
80.92598196761573
 20
-118.6614908557513
 10
81.13130965853662
 20
-118.6614908557513
 10
81.13130965853662
 20
-118.6614908557513
 10
81.13130965853662
 20
-118.6614908557513
 10
81.13130965853662
 20
-119.6895073485499
 10
81.13130965853662
 20
-119.6895073485499
 10
80.77370874716769
 20
-119.6578124700855
 10
80.69550507965252
 20
-119.5923556558658
 10
80.39715981062989
 20
-119.2071939806149
 10
80.19837780113096
 20
-118.9512233860608
 10
80.13050942007155
 20
-118.8857665718411
 10
79.99305011021008
 20
-118.8857665718411
 10
79.87453882551748
 20
-118.8857665718411
 10
79.74362519707799
 20
-118.9577690674828
 10
79.74362519707799
 20
-119.1544840196906
 10
79.74362519707799
 20
-119.4145887288269
 10
79.9741020850412
 20
-119.4228569579915
 10
80.09054631244264
 20
-119.4273355821223
 10
80.09054631244264
 20
-119.4273355821223
 10
80.09054631244264
 20
-119.6516112982121
 10
80.09054631244264
 20
-119.6516112982121
 10
79.96342228903693
 20
-119.642998559499
 10
79.85145668576631
 20
-119.6323187634947
 10
79.7329454010737
 20
-119.5520480386884
 10
79.57205944191254
 20
-119.4421494927089
 10
79.5382975061571
 20
-119.2557698269569
 10
79.5382975061571
 20
-119.139670109104
 10
79.5382975061571
 20
-118.8623399225414
 10
79.72226560506944
 20
-118.6549451743293
 10
79.99511716750122
 20
-118.6549451743293
 10
80.22387150772181
 20
-118.6549451743293
 10
80.323090257697
 20
-118.7713894017308
 10
80.54943303107792
 20
-119.0804144667577
 97
        0
 97
        0
 75
     2
 76
     1
 98
        0
  0
ENDBLK
  5
74
330
71
100
AcDbEntity
  8
0
100
AcDbBlockEnd
  0
BLOCK
  5
8F
330
8D
100
AcDbEntity
  8
0
100
AcDbBlockBegin
  2
block 4
 70
     0
 10
0.0
 20
0.0
 30
0.0
  3
block 4
  1

  0
SPLINE
  5
91
330
8D
100
AcDbEntity
  8
_U+30EC_U+30A4_U+30E4_U+30FC 1
370
     0
100
AcDbSpline
210
0.0
220
0.0
230
1.0
 70
    11
 71
     3
 72
    26
 73
    22
 74
     0
 42
0.0000000001
 43
0.0000000001
 12
1.0
 22
0.0
 32
0.0
 13
1.0
 23
0.0
 33
0.0
 40
0.0
 40
0.0
 40
0.0
 40
0.0
 40
1.0
 40
1.0
 40
1.0
 40
2.0
 40
2.0
 40
2.0
 40
3.0
 40
3.0
 40
3.0
 40
4.0
 40
4.0
 40
4.0
 40
5.0
 40
5.0
 40
5.0
 40
6.0
 40
6.0
 40
6.0
 40
7.0
 40
7.0
 40
7.0
 40
7.0
 10
94.72703448152657
 20
-114.7023871241022
 30
0.0
 10
94.72703448152657
 20
-114.7023871241022
 30
0.0
 10
94.72703448152657
 20
-113.5980617663053
 30
0.0
 10
94.72703448152657
 20
-113.5980617663053
 30
0.0
 10
94.72703448152657
 20
-113.5980617663053
 30
0.0
 10
94.39699433403965
 20
-113.5980617663053
 30
0.0
 10
94.39699433403965
 20
-113.5980617663053
 30
0.0
 10
94.39699433403965
 20
-113.5980617663053
 30
0.0
 10
94.39699433403965
 20
-113.4500949152139
 30
0.0
 10
94.39699433403965
 20
-113.4500949152139
 30
0.0
 10
94.72910153881773
 20
-113.4352810046273
 30
0.0
 10
94.7756103278686
 20
-113.272327988175
 30
0.0
 10
94.80523814904176
 20
-113.1581230728389
 30
0.0
 10
94.80523814904176
 20
-113.1581230728389
 30
0.0
 10
94.95131019761634
 20
-113.1581230728389
 30
0.0
 10
94.95131019761634
 20
-113.1581230728389
 30
0.0
 10
94.95131019761634
 20
-113.1581230728389
 30
0.0
 10
94.95131019761634
 20
-114.7023871241022
 30
0.0
 10
94.95131019761634
 20
-114.7023871241022
 30
0.0
 10
94.95131019761634
 20
-114.7023871241022
 30
0.0
 10
94.72703448152657
 20
-114.7023871241022
 30
0.0
 10
94.72703448152657
 20
-114.7023871241022
 30
0.0
  0
HATCH
  5
92
330
8D
100
AcDbEntity
  8
_U+30EC_U+30A4_U+30E4_U+30FC 1
 62
     7
420
 16777215
100
AcDbHatch
 10
0.0
 20
0.0
 30
0.0
210
0.0
220
0.0
230
1.0
  2
SOLID
 70
     1
 71
     0
 91
        1
 92
        1
 93
        1
 72
     4
 94
        3
 73
     0
 74
     1
 95
       26
 96
       22
 40
0.0
 40
0.0
 40
0.0
 40
0.0
 40
1.0
 40
1.0
 40
1.0
 40
2.0
 40
2.0
 40
2.0
 40
3.0
 40
3.0
 40
3.0
 40
4.0
 40
4.0
 40
4.0
 40
5.0
 40
5.0
 40
5.0
 40
6.0
 40
6.0
 40
6.0
 40
7.0
 40
7.0
 40
7.0
 40
7.0
 10
94.72703448152657
 20
-114.7023871241022
 10
94.72703448152657
 20
-114.7023871241022
 10
94.72703448152657
 20
-113.5980617663053
 10
94.72703448152657
 20
-113.5980617663053
 10
94.72703448152657
 20
-113.5980617663053
 10
94.39699433403965
 20
-113.5980617663053
 10
94.39699433403965
 20
-113.5980617663053
 10
94.39699433403965
 20
-113.5980617663053
 10
94.39699433403965
 20
-113.4500949152139
 10
94.39699433403965
 20
-113.4500949152139
 10
94.72910153881773
 20
-113.4352810046273
 10
94.7756103278686
 20
-113.272327988175
 10
94.80523814904176
 20
-113.1581230728389
 10
94.80523814904176
 20
-113.1581230728389
 10
94.95131019761634
 20
-113.1581230728389
 10
94.95131019761634
 20
-113.1581230728389
 10
94.95131019761634
 20
-113.1581230728389
 10
94.95131019761634
 20
-114.7023871241022
 10
94.95131019761634
 20
-114.7023871241022
 10
94.95131019761634
 20
-114.7023871241022
 10
94.72703448152657
 20
-114.7023871241022
 10
94.72703448152657
 20
-114.7023871241022
 97
        0
 97
        0
 75
     2
 76
     1
 98
        0
  0
SPLINE
  5
93
330
8D
100
AcDbEntity
  8
_U+30EC_U+30A4_U+30E4_U+30FC 1
370
     0
100
AcDbSpline
210
0.0
220
0.0
230
1.0
 70
    11
 71
     3
 72
    29
 73
    25
 74
     0
 42
0.0000000001
 43
0.0000000001
 12
1.0
 22
0.0
 32
0.0
 13
1.0
 23
0.0
 33
0.0
 40
0.0
 40
0.0
 40
0.0
 40
0.0
 40
1.0
 40
1.0
 40
1.0
 40
2.0
 40
2.0
 40
2.0
 40
3.0
 40
3.0
 40
3.0
 40
4.0
 40
4.0
 40
4.0
 40
5.0
 40
5.0
 40
5.0
 40
6.0
 40
6.0
 40
6.0
 40
7.0
 40
7.0
 40
7.0
 40
8.0
 40
8.0
 40
8.0
 40
8.0
 10
95.95245494562995
 20
-114.7532022825096
 30
0.0
 10
95.68580455507161
 20
-114.7532022825096
 30
0.0
 10
95.4319010178087
 20
-114.6155707178739
 30
0.0
 10
95.4319010178087
 20
-114.2665825452181
 30
0.0
 10
95.4319010178087
 20
-114.010611950664
 30
0.0
 10
95.573838951801
 20
-113.9153550604969
 30
0.0
 10
95.67960338319816
 20
-113.8540323608594
 30
0.0
 10
95.55489092663211
 20
-113.7947767185131
 30
0.0
 10
95.4787543164081
 20
-113.6805718031771
 30
0.0
 10
95.4787543164081
 20
-113.5198580987902
 30
0.0
 10
95.4787543164081
 20
-113.244767224293
 30
0.0
 10
95.67753632590701
 20
-113.1093749717227
 30
0.0
 10
95.95245494562995
 20
-113.1093749717227
 30
0.0
 10
96.235986304066
 20
-113.1093749717227
 30
0.0
 10
96.42650008440032
 20
-113.2532077082318
 30
0.0
 10
96.42650008440032
 20
-113.5198580987902
 30
0.0
 10
96.42650008440032
 20
-113.6805718031771
 30
0.0
 10
96.34795190733662
 20
-113.7947767185131
 30
0.0
 10
96.22323945077058
 20
-113.8540323608594
 30
0.0
 10
96.31212291429003
 20
-113.9048475192669
 30
0.0
 10
96.47094181616005
 20
-114.000104409434
 30
0.0
 10
96.47094181616005
 20
-114.2624484306358
 30
0.0
 10
96.47094181616005
 20
-114.6367580551082
 30
0.0
 10
96.19154457230628
 20
-114.7532022825096
 30
0.0
 10
95.95245494562995
 20
-114.7532022825096
 30
0.0
  0
SPLINE
  5
94
330
8D
100
AcDbEntity
  8
_U+30EC_U+30A4_U+30E4_U+30FC 1
370
     0
100
AcDbSpline
210
0.0
220
0.0
230
1.0
 70
    11
 71
     3
 72
    17
 73
    13
 74
     0
 42
0.0000000001
 43
0.0000000001
 12
1.0
 22
0.0
 32
0.0
 13
1.0
 23
0.0
 33
0.0
 40
0.0
 40
0.0
 40
0.0
 40
0.0
 40
1.0
 40
1.0
 40
1.0
 40
2.0
 40
2.0
 40
2.0
 40
3.0
 40
3.0
 40
3.0
 40
4.0
 40
4.0
 40
4.0
 40
4.0
 10
95.95245494562995
 20
-113.962036104322
 30
0.0
 10
95.80879446389503
 20
-113.962036104322
 30
0.0
 10
95.65617673389846
 20
-114.048680255776
 30
0.0
 10
95.65617673389846
 20
-114.2517686346315
 30
0.0
 10
95.65617673389846
 20
-114.4569240707781
 30
0.0
 10
95.78330075730418
 20
-114.558554387593
 30
0.0
 10
95.95245494562995
 20
-114.558554387593
 30
0.0
 10
96.13849010183344
 20
-114.558554387593
 30
0.0
 10
96.24873315736143
 20
-114.4359089883181
 30
0.0
 10
96.24873315736143
 20
-114.2581420612792
 30
0.0
 10
96.24873315736143
 20
-114.0359334024806
 30
0.0
 10
96.08578014090911
 20
-113.962036104322
 30
0.0
 10
95.95245494562995
 20
-113.962036104322
 30
0.0
  0
SPLINE
  5
95
330
8D
100
AcDbEntity
  8
_U+30EC_U+30A4_U+30E4_U+30FC 1
370
     0
100
AcDbSpline
210
0.0
220
0.0
230
1.0
 70
    11
 71
     3
 72
    17
 73
    13
 74
     0
 42
0.0000000001
 43
0.0000000001
 12
1.0
 22
0.0
 32
0.0
 13
1.0
 23
0.0
 33
0.0
 40
0.0
 40
0.0
 40
0.0
 40
0.0
 40
1.0
 40
1.0
 40
1.0
 40
2.0
 40
2.0
 40
2.0
 40
3.0
 40
3.0
 40
3.0
 40
4.0
 40
4.0
 40
4.0
 40
4.0
 10
95.95245494562995
 20
-113.3019558093481
 30
0.0
 10
95.78743487188648
 20
-113.3019558093481
 30
0.0
 10
95.70268552294934
 20
-113.397040444741
 30
0.0
 10
95.70268552294934
 20
-113.5324326973113
 30
0.0
 10
95.70268552294934
 20
-113.6552503513605
 30
0.0
 10
95.77468801859105
 20
-113.7737616360531
 30
0.0
 10
95.95245494562995
 20
-113.7737616360531
 30
0.0
 10
96.13022187266884
 20
-113.7737616360531
 30
0.0
 10
96.20222436831055
 20
-113.6552503513605
 30
0.0
 10
96.20222436831055
 20
-113.5324326973113
 30
0.0
 10
96.20222436831055
 20
-113.397040444741
 30
0.0
 10
96.11540796208226
 20
-113.3019558093481
 30
0.0
 10
95.95245494562995
 20
-113.3019558093481
 30
0.0
  0
HATCH
  5
96
330
8D
100
AcDbEntity
  8
_U+30EC_U+30A4_U+30E4_U+30FC 1
 62
     7
420
 16777215
100
AcDbHatch
 10
0.0
 20
0.0
 30
0.0
210
0.0
220
0.0
230
1.0
  2
SOLID
 70
     1
 71
     0
 91
        3
 92
        1
 93
        1
 72
     4
 94
        3
 73
     0
 74
     1
 95
       29
 96
       25
 40
0.0
 40
0.0
 40
0.0
 40
0.0
 40
1.0
 40
1.0
 40
1.0
 40
2.0
 40
2.0
 40
2.0
 40
3.0
 40
3.0
 40
3.0
 40
4.0
 40
4.0
 40
4.0
 40
5.0
 40
5.0
 40
5.0
 40
6.0
 40
6.0
 40
6.0
 40
7.0
 40
7.0
 40
7.0
 40
8.0
 40
8.0
 40
8.0
 40
8.0
 10
95.95245494562995
 20
-114.7532022825096
 10
95.68580455507161
 20
-114.7532022825096
 10
95.4319010178087
 20
-114.6155707178739
 10
95.4319010178087
 20
-114.2665825452181
 10
95.4319010178087
 20
-114.010611950664
 10
95.573838951801
 20
-113.9153550604969
 10
95.67960338319816
 20
-113.8540323608594
 10
95.55489092663211
 20
-113.7947767185131
 10
95.4787543164081
 20
-113.6805718031771
 10
95.4787543164081
 20
-113.5198580987902
 10
95.4787543164081
 20
-113.244767224293
 10
95.67753632590701
 20
-113.1093749717227
 10
95.95245494562995
 20
-113.1093749717227
 10
96.235986304066
 20
-113.1093749717227
 10
96.42650008440032
 20
-113.2532077082318
 10
96.42650008440032
 20
-113.5198580987902
 10
96.42650008440032
 20
-113.6805718031771
 10
96.34795190733662
 20
-113.7947767185131
 10
96.22323945077058
 20
-113.8540323608594
 10
96.31212291429003
 20
-113.9048475192669
 10
96.47094181616005
 20
-114.000104409434
 10
96.47094181616005
 20
-114.2624484306358
 10
96.47094181616005
 20
-114.6367580551082
 10
96.19154457230628
 20
-114.7532022825096
 10
95.95245494562995
 20
-114.7532022825096
 97
        0
 97
        0
 92
        1
 93
        1
 72
     4
 94
        3
 73
     0
 74
     1
 95
       17
 96
       13
 40
0.0
 40
0.0
 40
0.0
 40
0.0
 40
1.0
 40
1.0
 40
1.0
 40
2.0
 40
2.0
 40
2.0
 40
3.0
 40
3.0
 40
3.0
 40
4.0
 40
4.0
 40
4.0
 40
4.0
 10
95.95245494562995
 20
-113.962036104322
 10
95.80879446389503
 20
-113.962036104322
 10
95.65617673389846
 20
-114.048680255776
 10
95.65617673389846
 20
-114.2517686346315
 10
95.65617673389846
 20
-114.4569240707781
 10
95.78330075730418
 20
-114.558554387593
 10
95.95245494562995
 20
-114.558554387593
 10
96.13849010183344
 20
-114.558554387593
 10
96.24873315736143
 20
-114.4359089883181
 10
96.24873315736143
 20
-114.2581420612792
 10
96.24873315736143
 20
-114.0359334024806
 10
96.08578014090911
 20
-113.962036104322
 10
95.95245494562995
 20
-113.962036104322
 97
        0
 97
        0
 92
        1
 93
        1
 72
     4
 94
        3
 73
     0
 74
     1
 95
       17
 96
       13
 40
0.0
 40
0.0
 40
0.0
 40
0.0
 40
1.0
 40
1.0
 40
1.0
 40
2.0
 40
2.0
 40
2.0
 40
3.0
 40
3.0
 40
3.0
 40
4.0
 40
4.0
 40
4.0
 40
4.0
 10
95.95245494562995
 20
-113.3019558093481
 10
95.78743487188648
 20
-113.3019558093481
 10
95.70268552294934
 20
-113.397040444741
 10
95.70268552294934
 20
-113.5324326973113
 10
95.70268552294934
 20
-113.6552503513605
 10
95.77468801859105
 20
-113.7737616360531
 10
95.95245494562995
 20
-113.7737616360531
 10
96.13022187266884
 20
-113.7737616360531
 10
96.20222436831055
 20
-113.6552503513605
 10
96.20222436831055
 20
-113.5324326973113
 10
96.20222436831055
 20
-113.397040444741
 10
96.11540796208226
 20
-113.3019558093481
 10
95.95245494562995
 20
-113.3019558093481
 97
        0
 97
        0
 75
     2
 76
     1
 98
        0
  0
ENDBLK
  5
90
330
8D
100
AcDbEntity
  8
0
100
AcDbBlockEnd
  0
BLOCK
  5
A5
330
A3
100
AcDbEntity
  8
0
100
AcDbBlockBegin
  2
block 5
 70
     0
 10
0.0
 20
0.0
 30
0.0
  3
block 5
  1

  0
SPLINE
  5
A7
330
A3
100
AcDbEntity
  8
_U+30EC_U+30A4_U+30E4_U+30FC 1
370
     0
100
AcDbSpline
210
0.0
220
0.0
230
1.0
 70
    11
 71
     3
 72
    53
 73
    49
 74
     0
 42
0.0000000001
 43
0.0000000001
 12
1.0
 22
0.0
 32
0.0
 13
1.0
 23
0.0
 33
0.0
 40
0.0
 40
0.0
 40
0.0
 40
0.0
 40
1.0
 40
1.0
 40
1.0
 40
2.0
 40
2.0
 40
2.0
 40
3.0
 40
3.0
 40
3.0
 40
4.0
 40
4.0
 40
4.0
 40
5.0
 40
5.0
 40
5.0
 40
6.0
 40
6.0
 40
6.0
 40
7.0
 40
7.0
 40
7.0
 40
8.0
 40
8.0
 40
8.0
 40
9.0
 40
9.0
 40
9.0
 40
10.0
 40
10.0
 40
10.0
 40
11.0
 40
11.0
 40
11.0
 40
12.0
 40
12.0
 40
12.0
 40
13.0
 40
13.0
 40
13.0
 40
14.0
 40
14.0
 40
14.0
 40
15.0
 40
15.0
 40
15.0
 40
16.0
 40
16.0
 40
16.0
 40
16.0
 10
92.71923283272298
 20
-143.0686143305523
 30
0.0
 10
92.71923283272298
 20
-143.1468179980675
 30
0.0
 10
92.70235186484526
 20
-143.2484483148824
 30
0.0
 10
92.63896210791665
 20
-143.3500786316972
 30
0.0
 10
92.52906356193718
 20
-143.5233669346053
 30
0.0
 10
92.39780542394917
 20
-143.5447265266138
 30
0.0
 10
92.28997393526085
 20
-143.5636745517827
 30
0.0
 10
92.28997393526085
 20
-143.5636745517827
 30
0.0
 10
92.28997393526085
 20
-143.3414658929841
 30
0.0
 10
92.28997393526085
 20
-143.3414658929841
 30
0.0
 10
92.48875594475976
 20
-143.2866888747686
 30
0.0
 10
92.51838376593291
 20
-143.1595648513629
 30
0.0
 10
92.51838376593291
 20
-143.0665472732611
 30
0.0
 10
92.51838376593291
 20
-142.9270209061085
 30
0.0
 10
92.41882050640919
 20
-142.7747476856605
 30
0.0
 10
92.18627656115483
 20
-142.7747476856605
 30
0.0
 10
91.93030596660076
 20
-142.7747476856605
 30
0.0
 10
91.86037052825019
 20
-142.9545816699905
 30
0.0
 10
91.86037052825019
 20
-143.0751600119743
 30
0.0
 10
91.86037052825019
 20
-143.1068548904386
 30
0.0
 10
91.86037052825019
 20
-143.2484483148824
 30
0.0
 10
91.98956160894706
 20
-143.3373317784018
 30
0.0
 10
91.98956160894706
 20
-143.3373317784018
 30
0.0
 10
91.97061358377819
 20
-143.5130316481495
 30
0.0
 10
91.97061358377819
 20
-143.5130316481495
 30
0.0
 10
91.97061358377819
 20
-143.5130316481495
 30
0.0
 10
91.1241536230523
 20
-143.3924533061658
 30
0.0
 10
91.1241536230523
 20
-143.3924533061658
 30
0.0
 10
91.1241536230523
 20
-143.3924533061658
 30
0.0
 10
91.1241536230523
 20
-142.6138617264993
 30
0.0
 10
91.1241536230523
 20
-142.6138617264993
 30
0.0
 10
91.1241536230523
 20
-142.6138617264993
 30
0.0
 10
91.31880151796892
 20
-142.6138617264993
 30
0.0
 10
91.31880151796892
 20
-142.6138617264993
 30
0.0
 10
91.31880151796892
 20
-142.6138617264993
 30
0.0
 10
91.31880151796892
 20
-143.2295002897135
 30
0.0
 10
91.31880151796892
 20
-143.2295002897135
 30
0.0
 10
91.31880151796892
 20
-143.2295002897135
 30
0.0
 10
91.7418592435576
 20
-143.2949571039332
 30
0.0
 10
91.7418592435576
 20
-143.2949571039332
 30
0.0
 10
91.70809730780215
 20
-143.2336344042958
 30
0.0
 10
91.66778969062473
 20
-143.1512966221983
 30
0.0
 10
91.66778969062473
 20
-143.0327853375057
 30
0.0
 10
91.66778969062473
 20
-142.7788818002428
 30
0.0
 10
91.85416935637674
 20
-142.5418592308576
 30
0.0
 10
92.16732853598594
 20
-142.5418592308576
 30
0.0
 10
92.48462183017746
 20
-142.5418592308576
 30
0.0
 10
92.71923283272298
 20
-142.7661349469474
 30
0.0
 10
92.71923283272298
 20
-143.0686143305523
 30
0.0
  0
HATCH
  5
A8
330
A3
100
AcDbEntity
  8
_U+30EC_U+30A4_U+30E4_U+30FC 1
 62
     7
420
 16777215
100
AcDbHatch
 10
0.0
 20
0.0
 30
0.0
210
0.0
220
0.0
230
1.0
  2
SOLID
 70
     1
 71
     0
 91
        1
 92
        1
 93
        1
 72
     4
 94
        3
 73
     0
 74
     1
 95
       53
 96
       49
 40
0.0
 40
0.0
 40
0.0
 40
0.0
 40
1.0
 40
1.0
 40
1.0
 40
2.0
 40
2.0
 40
2.0
 40
3.0
 40
3.0
 40
3.0
 40
4.0
 40
4.0
 40
4.0
 40
5.0
 40
5.0
 40
5.0
 40
6.0
 40
6.0
 40
6.0
 40
7.0
 40
7.0
 40
7.0
 40
8.0
 40
8.0
 40
8.0
 40
9.0
 40
9.0
 40
9.0
 40
10.0
 40
10.0
 40
10.0
 40
11.0
 40
11.0
 40
11.0
 40
12.0
 40
12.0
 40
12.0
 40
13.0
 40
13.0
 40
13.0
 40
14.0
 40
14.0
 40
14.0
 40
15.0
 40
15.0
 40
15.0
 40
16.0
 40
16.0
 40
16.0
 40
16.0
 10
92.71923283272298
 20
-143.0686143305523
 10
92.71923283272298
 20
-143.1468179980675
 10
92.70235186484526
 20
-143.2484483148824
 10
92.63896210791665
 20
-143.3500786316972
 10
92.52906356193718
 20
-143.5233669346053
 10
92.39780542394917
 20
-143.5447265266138
 10
92.28997393526085
 20
-143.5636745517827
 10
92.28997393526085
 20
-143.5636745517827
 10
92.28997393526085
 20
-143.3414658929841
 10
92.28997393526085
 20
-143.3414658929841
 10
92.48875594475976
 20
-143.2866888747686
 10
92.51838376593291
 20
-143.1595648513629
 10
92.51838376593291
 20
-143.0665472732611
 10
92.51838376593291
 20
-142.9270209061085
 10
92.41882050640919
 20
-142.7747476856605
 10
92.18627656115483
 20
-142.7747476856605
 10
91.93030596660076
 20
-142.7747476856605
 10
91.86037052825019
 20
-142.9545816699905
 10
91.86037052825019
 20
-143.0751600119743
 10
91.86037052825019
 20
-143.1068548904386
 10
91.86037052825019
 20
-143.2484483148824
 10
91.98956160894706
 20
-143.3373317784018
 10
91.98956160894706
 20
-143.3373317784018
 10
91.97061358377819
 20
-143.5130316481495
 10
91.97061358377819
 20
-143.5130316481495
 10
91.97061358377819
 20
-143.5130316481495
 10
91.1241536230523
 20
-143.3924533061658
 10
91.1241536230523
 20
-143.3924533061658
 10
91.1241536230523
 20
-143.3924533061658
 10
91.1241536230523
 20
-142.6138617264993
 10
91.1241536230523
 20
-142.6138617264993
 10
91.1241536230523
 20
-142.6138617264993
 10
91.31880151796892
 20
-142.6138617264993
 10
91.31880151796892
 20
-142.6138617264993
 10
91.31880151796892
 20
-142.6138617264993
 10
91.31880151796892
 20
-143.2295002897135
 10
91.31880151796892
 20
-143.2295002897135
 10
91.31880151796892
 20
-143.2295002897135
 10
91.7418592435576
 20
-143.2949571039332
 10
91.7418592435576
 20
-143.2949571039332
 10
91.70809730780215
 20
-143.2336344042958
 10
91.66778969062473
 20
-143.1512966221983
 10
91.66778969062473
 20
-143.0327853375057
 10
91.66778969062473
 20
-142.7788818002428
 10
91.85416935637674
 20
-142.5418592308576
 10
92.16732853598594
 20
-142.5418592308576
 10
92.48462183017746
 20
-142.5418592308576
 10
92.71923283272298
 20
-142.7661349469474
 10
92.71923283272298
 20
-143.0686143305523
 97
        0
 97
        0
 75
     2
 76
     1
 98
        0
  0
ENDBLK
  5
A6
330
A3
100
AcDbEntity
  8
0
100
AcDbBlockEnd
  0
BLOCK
  5
B3
330
B1
100
AcDbEntity
  8
0
100
AcDbBlockBegin
  2
block 6
 70
     0
 10
0.0
 20
0.0
 30
0.0
  3
block 6
  1

  0
SPLINE
  5
B5
330
B1
100
AcDbEntity
  8
_U+30EC_U+30A4_U+30E4_U+30FC 1
370
     0
100
AcDbSpline
210
0.0
220
0.0
230
1.0
 70
    11
 71
     3
 72
    53
 73
    49
 74
     0
 42
0.0000000001
 43
0.0000000001
 12
1.0
 22
0.0
 32
0.0
 13
1.0
 23
0.0
 33
0.0
 40
0.0
 40
0.0
 40
0.0
 40
0.0
 40
1.0
 40
1.0
 40
1.0
 40
2.0
 40
2.0
 40
2.0
 40
3.0
 40
3.0
 40
3.0
 40
4.0
 40
4.0
 40
4.0
 40
5.0
 40
5.0
 40
5.0
 40
6.0
 40
6.0
 40
6.0
 40
7.0
 40
7.0
 40
7.0
 40
8.0
 40
8.0
 40
8.0
 40
9.0
 40
9.0
 40
9.0
 40
10.0
 40
10.0
 40
10.0
 40
11.0
 40
11.0
 40
11.0
 40
12.0
 40
12.0
 40
12.0
 40
13.0
 40
13.0
 40
13.0
 40
14.0
 40
14.0
 40
14.0
 40
15.0
 40
15.0
 40
15.0
 40
16.0
 40
16.0
 40
16.0
 40
16.0
 10
92.71923283272298
 20
-138.0684027432607
 30
0.0
 10
92.71923283272298
 20
-138.1466064107759
 30
0.0
 10
92.70235186484526
 20
-138.2482367275907
 30
0.0
 10
92.63896210791665
 20
-138.3498670444056
 30
0.0
 10
92.52906356193718
 20
-138.5231553473137
 30
0.0
 10
92.39780542394917
 20
-138.5445149393222
 30
0.0
 10
92.28997393526085
 20
-138.5634629644911
 30
0.0
 10
92.28997393526085
 20
-138.5634629644911
 30
0.0
 10
92.28997393526085
 20
-138.3412543056925
 30
0.0
 10
92.28997393526085
 20
-138.3412543056925
 30
0.0
 10
92.48875594475976
 20
-138.286477287477
 30
0.0
 10
92.51838376593291
 20
-138.1593532640713
 30
0.0
 10
92.51838376593291
 20
-138.0663356859695
 30
0.0
 10
92.51838376593291
 20
-137.9268093188169
 30
0.0
 10
92.41882050640919
 20
-137.7745360983689
 30
0.0
 10
92.18627656115483
 20
-137.7745360983689
 30
0.0
 10
91.93030596660076
 20
-137.7745360983689
 30
0.0
 10
91.86037052825019
 20
-137.9543700826989
 30
0.0
 10
91.86037052825019
 20
-138.0749484246826
 30
0.0
 10
91.86037052825019
 20
-138.106643303147
 30
0.0
 10
91.86037052825019
 20
-138.2482367275907
 30
0.0
 10
91.98956160894706
 20
-138.3371201911102
 30
0.0
 10
91.98956160894706
 20
-138.3371201911102
 30
0.0
 10
91.97061358377819
 20
-138.5128200608579
 30
0.0
 10
91.97061358377819
 20
-138.5128200608579
 30
0.0
 10
91.97061358377819
 20
-138.5128200608579
 30
0.0
 10
91.1241536230523
 20
-138.3922417188742
 30
0.0
 10
91.1241536230523
 20
-138.3922417188742
 30
0.0
 10
91.1241536230523
 20
-138.3922417188742
 30
0.0
 10
91.1241536230523
 20
-137.6136501392077
 30
0.0
 10
91.1241536230523
 20
-137.6136501392077
 30
0.0
 10
91.1241536230523
 20
-137.6136501392077
 30
0.0
 10
91.31880151796892
 20
-137.6136501392077
 30
0.0
 10
91.31880151796892
 20
-137.6136501392077
 30
0.0
 10
91.31880151796892
 20
-137.6136501392077
 30
0.0
 10
91.31880151796892
 20
-138.2292887024219
 30
0.0
 10
91.31880151796892
 20
-138.2292887024219
 30
0.0
 10
91.31880151796892
 20
-138.2292887024219
 30
0.0
 10
91.7418592435576
 20
-138.2947455166416
 30
0.0
 10
91.7418592435576
 20
-138.2947455166416
 30
0.0
 10
91.70809730780215
 20
-138.2334228170041
 30
0.0
 10
91.66778969062473
 20
-138.1510850349067
 30
0.0
 10
91.66778969062473
 20
-138.0325737502141
 30
0.0
 10
91.66778969062473
 20
-137.7786702129512
 30
0.0
 10
91.85416935637674
 20
-137.541647643566
 30
0.0
 10
92.16732853598594
 20
-137.541647643566
 30
0.0
 10
92.48462183017746
 20
-137.541647643566
 30
0.0
 10
92.71923283272298
 20
-137.7659233596557
 30
0.0
 10
92.71923283272298
 20
-138.0684027432607
 30
0.0
  0
HATCH
  5
B6
330
B1
100
AcDbEntity
  8
_U+30EC_U+30A4_U+30E4_U+30FC 1
 62
     7
420
 16777215
100
AcDbHatch
 10
0.0
 20
0.0
 30
0.0
210
0.0
220
0.0
230
1.0
  2
SOLID
 70
     1
 71
     0
 91
        1
 92
        1
 93
        1
 72
     4
 94
        3
 73
     0
 74
     1
 95
       53
 96
       49
 40
0.0
 40
0.0
 40
0.0
 40
0.0
 40
1.0
 40
1.0
 40
1.0
 40
2.0
 40
2.0
 40
2.0
 40
3.0
 40
3.0
 40
3.0
 40
4.0
 40
4.0
 40
4.0
 40
5.0
 40
5.0
 40
5.0
 40
6.0
 40
6.0
 40
6.0
 40
7.0
 40
7.0
 40
7.0
 40
8.0
 40
8.0
 40
8.0
 40
9.0
 40
9.0
 40
9.0
 40
10.0
 40
10.0
 40
10.0
 40
11.0
 40
11.0
 40
11.0
 40
12.0
 40
12.0
 40
12.0
 40
13.0
 40
13.0
 40
13.0
 40
14.0
 40
14.0
 40
14.0
 40
15.0
 40
15.0
 40
15.0
 40
16.0
 40
16.0
 40
16.0
 40
16.0
 10
92.71923283272298
 20
-138.0684027432607
 10
92.71923283272298
 20
-138.1466064107759
 10
92.70235186484526
 20
-138.2482367275907
 10
92.63896210791665
 20
-138.3498670444056
 10
92.52906356193718
 20
-138.5231553473137
 10
92.39780542394917
 20
-138.5445149393222
 10
92.28997393526085
 20
-138.5634629644911
 10
92.28997393526085
 20
-138.5634629644911
 10
92.28997393526085
 20
-138.3412543056925
 10
92.28997393526085
 20
-138.3412543056925
 10
92.48875594475976
 20
-138.286477287477
 10
92.51838376593291
 20
-138.1593532640713
 10
92.51838376593291
 20
-138.0663356859695
 10
92.51838376593291
 20
-137.9268093188169
 10
92.41882050640919
 20
-137.7745360983689
 10
92.18627656115483
 20
-137.7745360983689
 10
91.93030596660076
 20
-137.7745360983689
 10
91.86037052825019
 20
-137.9543700826989
 10
91.86037052825019
 20
-138.0749484246826
 10
91.86037052825019
 20
-138.106643303147
 10
91.86037052825019
 20
-138.2482367275907
 10
91.98956160894706
 20
-138.3371201911102
 10
91.98956160894706
 20
-138.3371201911102
 10
91.97061358377819
 20
-138.5128200608579
 10
91.97061358377819
 20
-138.5128200608579
 10
91.97061358377819
 20
-138.5128200608579
 10
91.1241536230523
 20
-138.3922417188742
 10
91.1241536230523
 20
-138.3922417188742
 10
91.1241536230523
 20
-138.3922417188742
 10
91.1241536230523
 20
-137.6136501392077
 10
91.1241536230523
 20
-137.6136501392077
 10
91.1241536230523
 20
-137.6136501392077
 10
91.31880151796892
 20
-137.6136501392077
 10
91.31880151796892
 20
-137.6136501392077
 10
91.31880151796892
 20
-137.6136501392077
 10
91.31880151796892
 20
-138.2292887024219
 10
91.31880151796892
 20
-138.2292887024219
 10
91.31880151796892
 20
-138.2292887024219
 10
91.7418592435576
 20
-138.2947455166416
 10
91.7418592435576
 20
-138.2947455166416
 10
91.70809730780215
 20
-138.2334228170041
 10
91.66778969062473
 20
-138.1510850349067
 10
91.66778969062473
 20
-138.0325737502141
 10
91.66778969062473
 20
-137.7786702129512
 10
91.85416935637674
 20
-137.541647643566
 10
92.16732853598594
 20
-137.541647643566
 10
92.48462183017746
 20
-137.541647643566
 10
92.71923283272298
 20
-137.7659233596557
 10
92.71923283272298
 20
-138.0684027432607
 97
        0
 97
        0
 75
     2
 76
     1
 98
        0
  0
ENDBLK
  5
B4
330
B1
100
AcDbEntity
  8
0
100
AcDbBlockEnd
  0
BLOCK
  5
C1
330
BF
100
AcDbEntity
  8
0
100
AcDbBlockBegin
  2
block 7
 70
     0
 10
0.0
 20
0.0
 30
0.0
  3
block 7
  1

  0
SPLINE
  5
C3
330
BF
100
AcDbEntity
  8
_U+30EC_U+30A4_U+30E4_U+30FC 1
370
     0
100
AcDbSpline
210
0.0
220
0.0
230
1.0
 70
    11
 71
     3
 72
    53
 73
    49
 74
     0
 42
0.0000000001
 43
0.0000000001
 12
1.0
 22
0.0
 32
0.0
 13
1.0
 23
0.0
 33
0.0
 40
0.0
 40
0.0
 40
0.0
 40
0.0
 40
1.0
 40
1.0
 40
1.0
 40
2.0
 40
2.0
 40
2.0
 40
3.0
 40
3.0
 40
3.0
 40
4.0
 40
4.0
 40
4.0
 40
5.0
 40
5.0
 40
5.0
 40
6.0
 40
6.0
 40
6.0
 40
7.0
 40
7.0
 40
7.0
 40
8.0
 40
8.0
 40
8.0
 40
9.0
 40
9.0
 40
9.0
 40
10.0
 40
10.0
 40
10.0
 40
11.0
 40
11.0
 40
11.0
 40
12.0
 40
12.0
 40
12.0
 40
13.0
 40
13.0
 40
13.0
 40
14.0
 40
14.0
 40
14.0
 40
15.0
 40
15.0
 40
15.0
 40
16.0
 40
16.0
 40
16.0
 40
16.0
 10
92.71923283272298
 20
-133.0685356655176
 30
0.0
 10
92.71923283272298
 20
-133.1467393330328
 30
0.0
 10
92.70235186484526
 20
-133.2483696498476
 30
0.0
 10
92.63896210791665
 20
-133.3499999666625
 30
0.0
 10
92.52906356193718
 20
-133.5232882695706
 30
0.0
 10
92.39780542394917
 20
-133.5446478615791
 30
0.0
 10
92.28997393526085
 20
-133.563595886748
 30
0.0
 10
92.28997393526085
 20
-133.563595886748
 30
0.0
 10
92.28997393526085
 20
-133.3413872279494
 30
0.0
 10
92.28997393526085
 20
-133.3413872279494
 30
0.0
 10
92.48875594475976
 20
-133.2866102097339
 30
0.0
 10
92.51838376593291
 20
-133.1594861863282
 30
0.0
 10
92.51838376593291
 20
-133.0664686082264
 30
0.0
 10
92.51838376593291
 20
-132.9269422410738
 30
0.0
 10
92.41882050640919
 20
-132.7746690206258
 30
0.0
 10
92.18627656115483
 20
-132.7746690206258
 30
0.0
 10
91.93030596660076
 20
-132.7746690206258
 30
0.0
 10
91.86037052825019
 20
-132.9545030049558
 30
0.0
 10
91.86037052825019
 20
-133.0750813469396
 30
0.0
 10
91.86037052825019
 20
-133.1067762254039
 30
0.0
 10
91.86037052825019
 20
-133.2483696498476
 30
0.0
 10
91.98956160894706
 20
-133.3372531133671
 30
0.0
 10
91.98956160894706
 20
-133.3372531133671
 30
0.0
 10
91.97061358377819
 20
-133.5129529831148
 30
0.0
 10
91.97061358377819
 20
-133.5129529831148
 30
0.0
 10
91.97061358377819
 20
-133.5129529831148
 30
0.0
 10
91.1241536230523
 20
-133.3923746411311
 30
0.0
 10
91.1241536230523
 20
-133.3923746411311
 30
0.0
 10
91.1241536230523
 20
-133.3923746411311
 30
0.0
 10
91.1241536230523
 20
-132.6137830614646
 30
0.0
 10
91.1241536230523
 20
-132.6137830614646
 30
0.0
 10
91.1241536230523
 20
-132.6137830614646
 30
0.0
 10
91.31880151796892
 20
-132.6137830614646
 30
0.0
 10
91.31880151796892
 20
-132.6137830614646
 30
0.0
 10
91.31880151796892
 20
-132.6137830614646
 30
0.0
 10
91.31880151796892
 20
-133.2294216246788
 30
0.0
 10
91.31880151796892
 20
-133.2294216246788
 30
0.0
 10
91.31880151796892
 20
-133.2294216246788
 30
0.0
 10
91.7418592435576
 20
-133.2948784388985
 30
0.0
 10
91.7418592435576
 20
-133.2948784388985
 30
0.0
 10
91.70809730780215
 20
-133.233555739261
 30
0.0
 10
91.66778969062473
 20
-133.1512179571636
 30
0.0
 10
91.66778969062473
 20
-133.032706672471
 30
0.0
 10
91.66778969062473
 20
-132.7788031352081
 30
0.0
 10
91.85416935637674
 20
-132.5417805658229
 30
0.0
 10
92.16732853598594
 20
-132.5417805658229
 30
0.0
 10
92.48462183017746
 20
-132.5417805658229
 30
0.0
 10
92.71923283272298
 20
-132.7660562819127
 30
0.0
 10
92.71923283272298
 20
-133.0685356655176
 30
0.0
  0
HATCH
  5
C4
330
BF
100
AcDbEntity
  8
_U+30EC_U+30A4_U+30E4_U+30FC 1
 62
     7
420
 16777215
100
AcDbHatch
 10
0.0
 20
0.0
 30
0.0
210
0.0
220
0.0
230
1.0
  2
SOLID
 70
     1
 71
     0
 91
        1
 92
        1
 93
        1
 72
     4
 94
        3
 73
     0
 74
     1
 95
       53
 96
       49
 40
0.0
 40
0.0
 40
0.0
 40
0.0
 40
1.0
 40
1.0
 40
1.0
 40
2.0
 40
2.0
 40
2.0
 40
3.0
 40
3.0
 40
3.0
 40
4.0
 40
4.0
 40
4.0
 40
5.0
 40
5.0
 40
5.0
 40
6.0
 40
6.0
 40
6.0
 40
7.0
 40
7.0
 40
7.0
 40
8.0
 40
8.0
 40
8.0
 40
9.0
 40
9.0
 40
9.0
 40
10.0
 40
10.0
 40
10.0
 40
11.0
 40
11.0
 40
11.0
 40
12.0
 40
12.0
 40
12.0
 40
13.0
 40
13.0
 40
13.0
 40
14.0
 40
14.0
 40
14.0
 40
15.0
 40
15.0
 40
15.0
 40
16.0
 40
16.0
 40
16.0
 40
16.0
 10
92.71923283272298
 20
-133.0685356655176
 10
92.71923283272298
 20
-133.1467393330328
 10
92.70235186484526
 20
-133.2483696498476
 10
92.63896210791665
 20
-133.3499999666625
 10
92.52906356193718
 20
-133.5232882695706
 10
92.39780542394917
 20
-133.5446478615791
 10
92.28997393526085
 20
-133.563595886748
 10
92.28997393526085
 20
-133.563595886748
 10
92.28997393526085
 20
-133.3413872279494
 10
92.28997393526085
 20
-133.3413872279494
 10
92.48875594475976
 20
-133.2866102097339
 10
92.51838376593291
 20
-133.1594861863282
 10
92.51838376593291
 20
-133.0664686082264
 10
92.51838376593291
 20
-132.9269422410738
 10
92.41882050640919
 20
-132.7746690206258
 10
92.18627656115483
 20
-132.7746690206258
 10
91.93030596660076
 20
-132.7746690206258
 10
91.86037052825019
 20
-132.9545030049558
 10
91.86037052825019
 20
-133.0750813469396
 10
91.86037052825019
 20
-133.1067762254039
 10
91.86037052825019
 20
-133.2483696498476
 10
91.98956160894706
 20
-133.3372531133671
 10
91.98956160894706
 20
-133.3372531133671
 10
91.97061358377819
 20
-133.5129529831148
 10
91.97061358377819
 20
-133.5129529831148
 10
91.97061358377819
 20
-133.5129529831148
 10
91.1241536230523
 20
-133.3923746411311
 10
91.1241536230523
 20
-133.3923746411311
 10
91.1241536230523
 20
-133.3923746411311
 10
91.1241536230523
 20
-132.6137830614646
 10
91.1241536230523
 20
-132.6137830614646
 10
91.1241536230523
 20
-132.6137830614646
 10
91.31880151796892
 20
-132.6137830614646
 10
91.31880151796892
 20
-132.6137830614646
 10
91.31880151796892
 20
-132.6137830614646
 10
91.31880151796892
 20
-133.2294216246788
 10
91.31880151796892
 20
-133.2294216246788
 10
91.31880151796892
 20
-133.2294216246788
 10
91.7418592435576
 20
-133.2948784388985
 10
91.7418592435576
 20
-133.2948784388985
 10
91.70809730780215
 20
-133.233555739261
 10
91.66778969062473
 20
-133.1512179571636
 10
91.66778969062473
 20
-133.032706672471
 10
91.66778969062473
 20
-132.7788031352081
 10
91.85416935637674
 20
-132.5417805658229
 10
92.16732853598594
 20
-132.5417805658229
 10
92.48462183017746
 20
-132.5417805658229
 10
92.71923283272298
 20
-132.7660562819127
 10
92.71923283272298
 20
-133.0685356655176
 97
        0
 97
        0
 75
     2
 76
     1
 98
        0
  0
ENDBLK
  5
C2
330
BF
100
AcDbEntity
  8
0
100
AcDbBlockEnd
  0
ENDSEC
  0
SECTION
  2
ENTITIES
  0
SPLINE
  5
41
330
1F
100
AcDbEntity
  8
_U+30EC_U+30A4_U+30E4_U+30FC 1
370
     0
100
AcDbSpline
210
0.0
220
0.0
230
1.0
 70
    11
 71
     3
 72
    68
 73
    64
 74
     0
 42
0.0000000001
 43
0.0000000001
 12
1.0
 22
0.0
 32
0.0
 13
1.0
 23
0.0
 33
0.0
 40
0.0
 40
0.0
 40
0.0
 40
0.0
 40
1.0
 40
1.0
 40
1.0
 40
2.0
 40
2.0
 40
2.0
 40
3.0
 40
3.0
 40
3.0
 40
4.0
 40
4.0
 40
4.0
 40
5.0
 40
5.0
 40
5.0
 40
6.0
 40
6.0
 40
6.0
 40
7.0
 40
7.0
 40
7.0
 40
8.0
 40
8.0
 40
8.0
 40
9.0
 40
9.0
 40
9.0
 40
10.0
 40
10.0
 40
10.0
 40
11.0
 40
11.0
 40
11.0
 40
12.0
 40
12.0
 40
12.0
 40
13.0
 40
13.0
 40
13.0
 40
14.0
 40
14.0
 40
14.0
 40
15.0
 40
15.0
 40
15.0
 40
16.0
 40
16.0
 40
16.0
 40
17.0
 40
17.0
 40
17.0
 40
18.0
 40
18.0
 40
18.0
 40
19.0
 40
19.0
 40
19.0
 40
20.0
 40
20.0
 40
20.0
 40
21.0
 40
21.0
 40
21.0
 40
21.0
 10
86.36405474111385
 20
-120.5476944143075
 30
0.0
 10
86.36405474111385
 20
-120.5476944143075
 30
0.0
 10
86.36405474111385
 20
-119.3477560812743
 30
0.0
 10
86.36405474111385
 20
-119.3477560812743
 30
0.0
 10
86.36405474111385
 20
-119.3477560812743
 30
0.0
 10
103.2271143109014
 20
-119.3477560812743
 30
0.0
 10
103.2271143109014
 20
-119.3477560812743
 30
0.0
 10
103.6474137446231
 20
-119.3477560812743
 30
0.0
 10
104.0229456794869
 20
-119.6106108034308
 30
0.0
 10
104.1669495647019
 20
-120.005757192221
 30
0.0
 10
104.1669495647019
 20
-120.005757192221
 30
0.0
 10
104.3640138627976
 20
-120.5476944143075
 30
0.0
 10
104.3640138627976
 20
-120.5476944143075
 30
0.0
 10
104.3640138627976
 20
-120.5476944143075
 30
0.0
 10
88.76460162431523
 20
-120.5476944143075
 30
0.0
 10
88.76460162431523
 20
-120.5476944143075
 30
0.0
 10
88.76460162431523
 20
-120.5476944143075
 30
0.0
 10
88.76460162431523
 20
-130.547744967363
 30
0.0
 10
88.76460162431523
 20
-130.547744967363
 30
0.0
 10
88.76460162431523
 20
-130.547744967363
 30
0.0
 10
89.31444105473211
 20
-130.547744967363
 30
0.0
 10
89.31444105473211
 20
-130.547744967363
 30
0.0
 10
89.31444105473211
 20
-130.547744967363
 30
0.0
 10
88.66402468243672
 20
-135.5479819105573
 30
0.0
 10
88.66402468243672
 20
-135.5479819105573
 30
0.0
 10
88.66402468243672
 20
-135.5479819105573
 30
0.0
 10
89.31444105473211
 20
-135.5479819105573
 30
0.0
 10
89.31444105473211
 20
-135.5479819105573
 30
0.0
 10
89.31444105473211
 20
-135.5479819105573
 30
0.0
 10
88.66402468243672
 20
-140.5478307981964
 30
0.0
 10
88.66402468243672
 20
-140.5478307981964
 30
0.0
 10
88.66402468243672
 20
-140.5478307981964
 30
0.0
 10
89.31444105473211
 20
-140.5478307981964
 30
0.0
 10
89.31444105473211
 20
-140.5478307981964
 30
0.0
 10
89.31444105473211
 20
-140.5478307981964
 30
0.0
 10
88.66402468243672
 20
-145.5477149636129
 30
0.0
 10
88.66402468243672
 20
-145.5477149636129
 30
0.0
 10
88.66402468243672
 20
-145.5477149636129
 30
0.0
 10
87.66425248572082
 20
-145.5477149636129
 30
0.0
 10
87.66425248572082
 20
-145.5477149636129
 30
0.0
 10
87.66425248572082
 20
-145.5477149636129
 30
0.0
 10
87.0145063911861
 20
-140.5478307981964
 30
0.0
 10
87.0145063911861
 20
-140.5478307981964
 30
0.0
 10
87.0145063911861
 20
-140.5478307981964
 30
0.0
 10
87.66425248572082
 20
-140.5478307981964
 30
0.0
 10
87.66425248572082
 20
-140.5478307981964
 30
0.0
 10
87.66425248572082
 20
-140.5478307981964
 30
0.0
 10
87.0145063911861
 20
-135.5479819105573
 30
0.0
 10
87.0145063911861
 20
-135.5479819105573
 30
0.0
 10
87.0145063911861
 20
-135.5479819105573
 30
0.0
 10
87.66425248572082
 20
-135.5479819105573
 30
0.0
 10
87.66425248572082
 20
-135.5479819105573
 30
0.0
 10
87.66425248572082
 20
-135.5479819105573
 30
0.0
 10
87.0145063911861
 20
-130.547744967363
 30
0.0
 10
87.0145063911861
 20
-130.547744967363
 30
0.0
 10
87.0145063911861
 20
-130.547744967363
 30
0.0
 10
87.56434582160298
 20
-130.547744967363
 30
0.0
 10
87.56434582160298
 20
-130.547744967363
 30
0.0
 10
87.56434582160298
 20
-130.547744967363
 30
0.0
 10
87.56434582160298
 20
-120.5476944143075
 30
0.0
 10
87.56434582160298
 20
-120.5476944143075
 30
0.0
 10
87.56434582160298
 20
-120.5476944143075
 30
0.0
 10
86.36405474111385
 20
-120.5476944143075
 30
0.0
 10
86.36405474111385
 20
-120.5476944143075
 30
0.0
  0
HATCH
  5
42
330
1F
100
AcDbEntity
  8
_U+30EC_U+30A4_U+30E4_U+30FC 1
 62
   253
420
 11711154
100
AcDbHatch
 10
0.0
 20
0.0
 30
0.0
210
0.0
220
0.0
230
1.0
  2
SOLID
 70
     1
 71
     0
 91
        1
 92
        1
 93
        1
 72
     4
 94
        3
 73
     0
 74
     1
 95
       68
 96
       64
 40
0.0
 40
0.0
 40
0.0
 40
0.0
 40
1.0
 40
1.0
 40
1.0
 40
2.0
 40
2.0
 40
2.0
 40
3.0
 40
3.0
 40
3.0
 40
4.0
 40
4.0
 40
4.0
 40
5.0
 40
5.0
 40
5.0
 40
6.0
 40
6.0
 40
6.0
 40
7.0
 40
7.0
 40
7.0
 40
8.0
 40
8.0
 40
8.0
 40
9.0
 40
9.0
 40
9.0
 40
10.0
 40
10.0
 40
10.0
 40
11.0
 40
11.0
 40
11.0
 40
12.0
 40
12.0
 40
12.0
 40
13.0
 40
13.0
 40
13.0
 40
14.0
 40
14.0
 40
14.0
 40
15.0
 40
15.0
 40
15.0
 40
16.0
 40
16.0
 40
16.0
 40
17.0
 40
17.0
 40
17.0
 40
18.0
 40
18.0
 40
18.0
 40
19.0
 40
19.0
 40
19.0
 40
20.0
 40
20.0
 40
20.0
 40
21.0
 40
21.0
 40
21.0
 40
21.0
 10
86.36405474111385
 20
-120.5476944143075
 10
86.36405474111385
 20
-120.5476944143075
 10
86.36405474111385
 20
-119.3477560812743
 10
86.36405474111385
 20
-119.3477560812743
 10
86.36405474111385
 20
-119.3477560812743
 10
103.2271143109014
 20
-119.3477560812743
 10
103.2271143109014
 20
-119.3477560812743
 10
103.6474137446231
 20
-119.3477560812743
 10
104.0229456794869
 20
-119.6106108034308
 10
104.1669495647019
 20
-120.005757192221
 10
104.1669495647019
 20
-120.005757192221
 10
104.3640138627976
 20
-120.5476944143075
 10
104.3640138627976
 20
-120.5476944143075
 10
104.3640138627976
 20
-120.5476944143075
 10
88.76460162431523
 20
-120.5476944143075
 10
88.76460162431523
 20
-120.5476944143075
 10
88.76460162431523
 20
-120.5476944143075
 10
88.76460162431523
 20
-130.547744967363
 10
88.76460162431523
 20
-130.547744967363
 10
88.76460162431523
 20
-130.547744967363
 10
89.31444105473211
 20
-130.547744967363
 10
89.31444105473211
 20
-130.547744967363
 10
89.31444105473211
 20
-130.547744967363
 10
88.66402468243672
 20
-135.5479819105573
 10
88.66402468243672
 20
-135.5479819105573
 10
88.66402468243672
 20
-135.5479819105573
 10
89.31444105473211
 20
-135.5479819105573
 10
89.31444105473211
 20
-135.5479819105573
 10
89.31444105473211
 20
-135.5479819105573
 10
88.66402468243672
 20
-140.5478307981964
 10
88.66402468243672
 20
-140.5478307981964
 10
88.66402468243672
 20
-140.5478307981964
 10
89.31444105473211
 20
-140.5478307981964
 10
89.31444105473211
 20
-140.5478307981964
 10
89.31444105473211
 20
-140.5478307981964
 10
88.66402468243672
 20
-145.5477149636129
 10
88.66402468243672
 20
-145.5477149636129
 10
88.66402468243672
 20
-145.5477149636129
 10
87.66425248572082
 20
-145.5477149636129
 10
87.66425248572082
 20
-145.5477149636129
 10
87.66425248572082
 20
-145.5477149636129
 10
87.0145063911861
 20
-140.5478307981964
 10
87.0145063911861
 20
-140.5478307981964
 10
87.0145063911861
 20
-140.5478307981964
 10
87.66425248572082
 20
-140.5478307981964
 10
87.66425248572082
 20
-140.5478307981964
 10
87.66425248572082
 20
-140.5478307981964
 10
87.0145063911861
 20
-135.5479819105573
 10
87.0145063911861
 20
-135.5479819105573
 10
87.0145063911861
 20
-135.5479819105573
 10
87.66425248572082
 20
-135.5479819105573
 10
87.66425248572082
 20
-135.5479819105573
 10
87.66425248572082
 20
-135.5479819105573
 10
87.0145063911861
 20
-130.547744967363
 10
87.0145063911861
 20
-130.547744967363
 10
87.0145063911861
 20
-130.547744967363
 10
87.56434582160298
 20
-130.547744967363
 10
87.56434582160298
 20
-130.547744967363
 10
87.56434582160298
 20
-130.547744967363
 10
87.56434582160298
 20
-120.5476944143075
 10
87.56434582160298
 20
-120.5476944143075
 10
87.56434582160298
 20
-120.5476944143075
 10
86.36405474111385
 20
-120.5476944143075
 10
86.36405474111385
 20
-120.5476944143075
 97
        0
 97
        0
 75
     2
 76
     1
 98
        0
  0
SPLINE
  5
43
330
1F
100
AcDbEntity
  8
_U+30EC_U+30A4_U+30E4_U+30FC 1
 62
     7
420
 16777215
370
    25
100
AcDbSpline
210
0.0
220
0.0
230
1.0
 70
    11
 71
     3
 72
    68
 73
    64
 74
     0
 42
0.0000000001
 43
0.0000000001
 12
1.0
 22
0.0
 32
0.0
 13
1.0
 23
0.0
 33
0.0
 40
0.0
 40
0.0
 40
0.0
 40
0.0
 40
1.0
 40
1.0
 40
1.0
 40
2.0
 40
2.0
 40
2.0
 40
3.0
 40
3.0
 40
3.0
 40
4.0
 40
4.0
 40
4.0
 40
5.0
 40
5.0
 40
5.0
 40
6.0
 40
6.0
 40
6.0
 40
7.0
 40
7.0
 40
7.0
 40
8.0
 40
8.0
 40
8.0
 40
9.0
 40
9.0
 40
9.0
 40
10.0
 40
10.0
 40
10.0
 40
11.0
 40
11.0
 40
11.0
 40
12.0
 40
12.0
 40
12.0
 40
13.0
 40
13.0
 40
13.0
 40
14.0
 40
14.0
 40
14.0
 40
15.0
 40
15.0
 40
15.0
 40
16.0
 40
16.0
 40
16.0
 40
17.0
 40
17.0
 40
17.0
 40
18.0
 40
18.0
 40
18.0
 40
19.0
 40
19.0
 40
19.0
 40
20.0
 40
20.0
 40
20.0
 40
21.0
 40
21.0
 40
21.0
 40
21.0
 10
86.36405474111385
 20
-120.5476944143075
 30
0.0
 10
86.36405474111385
 20
-120.5476944143075
 30
0.0
 10
86.36405474111385
 20
-119.3477560812743
 30
0.0
 10
86.36405474111385
 20
-119.3477560812743
 30
0.0
 10
86.36405474111385
 20
-119.3477560812743
 30
0.0
 10
103.2271143109014
 20
-119.3477560812743
 30
0.0
 10
103.2271143109014
 20
-119.3477560812743
 30
0.0
 10
103.6474137446231
 20
-119.3477560812743
 30
0.0
 10
104.0229456794869
 20
-119.6106108034308
 30
0.0
 10
104.1669495647019
 20
-120.005757192221
 30
0.0
 10
104.1669495647019
 20
-120.005757192221
 30
0.0
 10
104.3640138627976
 20
-120.5476944143075
 30
0.0
 10
104.3640138627976
 20
-120.5476944143075
 30
0.0
 10
104.3640138627976
 20
-120.5476944143075
 30
0.0
 10
88.76460162431523
 20
-120.5476944143075
 30
0.0
 10
88.76460162431523
 20
-120.5476944143075
 30
0.0
 10
88.76460162431523
 20
-120.5476944143075
 30
0.0
 10
88.76460162431523
 20
-130.547744967363
 30
0.0
 10
88.76460162431523
 20
-130.547744967363
 30
0.0
 10
88.76460162431523
 20
-130.547744967363
 30
0.0
 10
89.31444105473211
 20
-130.547744967363
 30
0.0
 10
89.31444105473211
 20
-130.547744967363
 30
0.0
 10
89.31444105473211
 20
-130.547744967363
 30
0.0
 10
88.66402468243672
 20
-135.5479819105573
 30
0.0
 10
88.66402468243672
 20
-135.5479819105573
 30
0.0
 10
88.66402468243672
 20
-135.5479819105573
 30
0.0
 10
89.31444105473211
 20
-135.5479819105573
 30
0.0
 10
89.31444105473211
 20
-135.5479819105573
 30
0.0
 10
89.31444105473211
 20
-135.5479819105573
 30
0.0
 10
88.66402468243672
 20
-140.5478307981964
 30
0.0
 10
88.66402468243672
 20
-140.5478307981964
 30
0.0
 10
88.66402468243672
 20
-140.5478307981964
 30
0.0
 10
89.31444105473211
 20
-140.5478307981964
 30
0.0
 10
89.31444105473211
 20
-140.5478307981964
 30
0.0
 10
89.31444105473211
 20
-140.5478307981964
 30
0.0
 10
88.66402468243672
 20
-145.5477149636129
 30
0.0
 10
88.66402468243672
 20
-145.5477149636129
 30
0.0
 10
88.66402468243672
 20
-145.5477149636129
 30
0.0
 10
87.66425248572082
 20
-145.5477149636129
 30
0.0
 10
87.66425248572082
 20
-145.5477149636129
 30
0.0
 10
87.66425248572082
 20
-145.5477149636129
 30
0.0
 10
87.0145063911861
 20
-140.5478307981964
 30
0.0
 10
87.0145063911861
 20
-140.5478307981964
 30
0.0
 10
87.0145063911861
 20
-140.5478307981964
 30
0.0
 10
87.66425248572082
 20
-140.5478307981964
 30
0.0
 10
87.66425248572082
 20
-140.5478307981964
 30
0.0
 10
87.66425248572082
 20
-140.5478307981964
 30
0.0
 10
87.0145063911861
 20
-135.5479819105573
 30
0.0
 10
87.0145063911861
 20
-135.5479819105573
 30
0.0
 10
87.0145063911861
 20
-135.5479819105573
 30
0.0
 10
87.66425248572082
 20
-135.5479819105573
 30
0.0
 10
87.66425248572082
 20
-135.5479819105573
 30
0.0
 10
87.66425248572082
 20
-135.5479819105573
 30
0.0
 10
87.0145063911861
 20
-130.547744967363
 30
0.0
 10
87.0145063911861
 20
-130.547744967363
 30
0.0
 10
87.0145063911861
 20
-130.547744967363
 30
0.0
 10
87.56434582160298
 20
-130.547744967363
 30
0.0
 10
87.56434582160298
 20
-130.547744967363
 30
0.0
 10
87.56434582160298
 20
-130.547744967363
 30
0.0
 10
87.56434582160298
 20
-120.5476944143075
 30
0.0
 10
87.56434582160298
 20
-120.5476944143075
 30
0.0
 10
87.56434582160298
 20
-120.5476944143075
 30
0.0
 10
86.36405474111385
 20
-120.5476944143075
 30
0.0
 10
86.36405474111385
 20
-120.5476944143075
 30
0.0
  0
SPLINE
  5
44
330
1F
100
AcDbEntity
  8
_U+30EC_U+30A4_U+30E4_U+30FC 1
 62
     7
420
 16777215
370
     9
100
AcDbSpline
210
0.0
220
0.0
230
1.0
 70
    11
 71
     3
 72
    17
 73
    13
 74
     0
 42
0.0000000001
 43
0.0000000001
 12
1.0
 22
0.0
 32
0.0
 13
1.0
 23
0.0
 33
0.0
 40
0.0
 40
0.0
 40
0.0
 40
0.0
 40
1.0
 40
1.0
 40
1.0
 40
2.0
 40
2.0
 40
2.0
 40
3.0
 40
3.0
 40
3.0
 40
4.0
 40
4.0
 40
4.0
 40
4.0
 10
82.46420234060737
 20
-145.5477149636129
 30
0.0
 10
82.46420234060737
 20
-145.4925757969605
 30
0.0
 10
82.41943484174948
 20
-145.4478082969713
 30
0.0
 10
82.36429567648953
 20
-145.4478082969713
 30
0.0
 10
82.30919178900646
 20
-145.4478082969713
 30
0.0
 10
82.2643890123717
 20
-145.4925757969605
 30
0.0
 10
82.2643890123717
 20
-145.5477149636129
 30
0.0
 10
82.2643890123717
 20
-145.6031716302656
 30
0.0
 10
82.30919178900646
 20
-145.6479744080323
 30
0.0
 10
82.36429567648953
 20
-145.6479744080323
 30
0.0
 10
82.41943484174948
 20
-145.6479744080323
 30
0.0
 10
82.46420234060737
 20
-145.6031716302656
 30
0.0
 10
82.46420234060737
 20
-145.5477149636129
 30
0.0
  0
SPLINE
  5
45
330
1F
100
AcDbEntity
  8
_U+30EC_U+30A4_U+30E4_U+30FC 1
 62
     7
420
 16777215
370
     9
100
AcDbSpline
210
0.0
220
0.0
230
1.0
 70
    11
 71
     3
 72
    17
 73
    13
 74
     0
 42
0.0000000001
 43
0.0000000001
 12
1.0
 22
0.0
 32
0.0
 13
1.0
 23
0.0
 33
0.0
 40
0.0
 40
0.0
 40
0.0
 40
0.0
 40
1.0
 40
1.0
 40
1.0
 40
2.0
 40
2.0
 40
2.0
 40
3.0
 40
3.0
 40
3.0
 40
4.0
 40
4.0
 40
4.0
 40
4.0
 10
82.46420234060737
 20
-120.5476944143075
 30
0.0
 10
82.46420234060737
 20
-120.4925552476548
 30
0.0
 10
82.41943484174948
 20
-120.4477877476659
 30
0.0
 10
82.36429567648953
 20
-120.4477877476659
 30
0.0
 10
82.30919178900646
 20
-120.4477877476659
 30
0.0
 10
82.2643890123717
 20
-120.4925552476548
 30
0.0
 10
82.2643890123717
 20
-120.5476944143075
 30
0.0
 10
82.2643890123717
 20
-120.6031510809602
 30
0.0
 10
82.30919178900646
 20
-120.6479185809491
 30
0.0
 10
82.36429567648953
 20
-120.6479185809491
 30
0.0
 10
82.41943484174948
 20
-120.6479185809491
 30
0.0
 10
82.46420234060737
 20
-120.6031510809602
 30
0.0
 10
82.46420234060737
 20
-120.5476944143075
 30
0.0
  0
SPLINE
  5
46
330
1F
100
AcDbEntity
  8
_U+30EC_U+30A4_U+30E4_U+30FC 1
 62
     7
420
 16777215
370
     9
100
AcDbSpline
210
0.0
220
0.0
230
1.0
 70
    11
 71
     3
 72
    17
 73
    13
 74
     0
 42
0.0000000001
 43
0.0000000001
 12
1.0
 22
0.0
 32
0.0
 13
1.0
 23
0.0
 33
0.0
 40
0.0
 40
0.0
 40
0.0
 40
0.0
 40
1.0
 40
1.0
 40
1.0
 40
2.0
 40
2.0
 40
2.0
 40
3.0
 40
3.0
 40
3.0
 40
4.0
 40
4.0
 40
4.0
 40
4.0
 10
82.46420234060737
 20
-119.3477560812743
 30
0.0
 10
82.46420234060737
 20
-119.2926169146212
 30
0.0
 10
82.41943484174948
 20
-119.2478494146326
 30
0.0
 10
82.36429567648953
 20
-119.2478494146326
 30
0.0
 10
82.30919178900646
 20
-119.2478494146326
 30
0.0
 10
82.2643890123717
 20
-119.2926169146212
 30
0.0
 10
82.2643890123717
 20
-119.3477560812743
 30
0.0
 10
82.2643890123717
 20
-119.403212747927
 30
0.0
 10
82.30919178900646
 20
-119.4480155256937
 30
0.0
 10
82.36429567648953
 20
-119.4480155256937
 30
0.0
 10
82.41943484174948
 20
-119.4480155256937
 30
0.0
 10
82.46420234060737
 20
-119.403212747927
 30
0.0
 10
82.46420234060737
 20
-119.3477560812743
 30
0.0
  0
SPLINE
  5
47
330
1F
100
AcDbEntity
  8
_U+30EC_U+30A4_U+30E4_U+30FC 1
 62
     7
420
 16777215
370
     9
100
AcDbSpline
210
0.0
220
0.0
230
1.0
 70
    11
 71
     3
 72
    17
 73
    13
 74
     0
 42
0.0000000001
 43
0.0000000001
 12
1.0
 22
0.0
 32
0.0
 13
1.0
 23
0.0
 33
0.0
 40
0.0
 40
0.0
 40
0.0
 40
0.0
 40
1.0
 40
1.0
 40
1.0
 40
2.0
 40
2.0
 40
2.0
 40
3.0
 40
3.0
 40
3.0
 40
4.0
 40
4.0
 40
4.0
 40
4.0
 10
93.41410678347425
 20
-140.5478307981964
 30
0.0
 10
93.41410678347425
 20
-140.4927269093214
 30
0.0
 10
93.3693040068395
 20
-140.4479241315547
 30
0.0
 10
93.31420011935643
 20
-140.4479241315547
 30
0.0
 10
93.25906095409647
 20
-140.4479241315547
 30
0.0
 10
93.21429345523859
 20
-140.4927269093214
 30
0.0
 10
93.21429345523859
 20
-140.5478307981964
 30
0.0
 10
93.21429345523859
 20
-140.6029699648494
 30
0.0
 10
93.25906095409647
 20
-140.647737464838
 30
0.0
 10
93.31420011935643
 20
-140.647737464838
 30
0.0
 10
93.3693040068395
 20
-140.647737464838
 30
0.0
 10
93.41410678347425
 20
-140.6029699648494
 30
0.0
 10
93.41410678347425
 20
-140.5478307981964
 30
0.0
  0
SPLINE
  5
48
330
1F
100
AcDbEntity
  8
_U+30EC_U+30A4_U+30E4_U+30FC 1
 62
     7
420
 16777215
370
     9
100
AcDbSpline
210
0.0
220
0.0
230
1.0
 70
    11
 71
     3
 72
    17
 73
    13
 74
     0
 42
0.0000000001
 43
0.0000000001
 12
1.0
 22
0.0
 32
0.0
 13
1.0
 23
0.0
 33
0.0
 40
0.0
 40
0.0
 40
0.0
 40
0.0
 40
1.0
 40
1.0
 40
1.0
 40
2.0
 40
2.0
 40
2.0
 40
3.0
 40
3.0
 40
3.0
 40
4.0
 40
4.0
 40
4.0
 40
4.0
 10
93.41410678347425
 20
-145.5477149636129
 30
0.0
 10
93.41410678347425
 20
-145.4925757969605
 30
0.0
 10
93.3693040068395
 20
-145.4478082969713
 30
0.0
 10
93.31420011935643
 20
-145.4478082969713
 30
0.0
 10
93.25906095409647
 20
-145.4478082969713
 30
0.0
 10
93.21429345523859
 20
-145.4925757969605
 30
0.0
 10
93.21429345523859
 20
-145.5477149636129
 30
0.0
 10
93.21429345523859
 20
-145.6031716302656
 30
0.0
 10
93.25906095409647
 20
-145.6479744080323
 30
0.0
 10
93.31420011935643
 20
-145.6479744080323
 30
0.0
 10
93.3693040068395
 20
-145.6479744080323
 30
0.0
 10
93.41410678347425
 20
-145.6031716302656
 30
0.0
 10
93.41410678347425
 20
-145.5477149636129
 30
0.0
  0
SPLINE
  5
49
330
1F
100
AcDbEntity
  8
_U+30EC_U+30A4_U+30E4_U+30FC 1
 62
     7
420
 16777215
370
     9
100
AcDbSpline
210
0.0
220
0.0
230
1.0
 70
    11
 71
     3
 72
    17
 73
    13
 74
     0
 42
0.0000000001
 43
0.0000000001
 12
1.0
 22
0.0
 32
0.0
 13
1.0
 23
0.0
 33
0.0
 40
0.0
 40
0.0
 40
0.0
 40
0.0
 40
1.0
 40
1.0
 40
1.0
 40
2.0
 40
2.0
 40
2.0
 40
3.0
 40
3.0
 40
3.0
 40
4.0
 40
4.0
 40
4.0
 40
4.0
 10
93.41410678347425
 20
-135.5479819105573
 30
0.0
 10
93.41410678347425
 20
-135.4924899661272
 30
0.0
 10
93.3693040068395
 20
-135.4477224661379
 30
0.0
 10
93.31420011935643
 20
-135.4477224661379
 30
0.0
 10
93.25906095409647
 20
-135.4477224661379
 30
0.0
 10
93.21429345523859
 20
-135.4924899661272
 30
0.0
 10
93.21429345523859
 20
-135.5479819105573
 30
0.0
 10
93.21429345523859
 20
-135.6030857994323
 30
0.0
 10
93.25906095409647
 20
-135.647888577199
 30
0.0
 10
93.31420011935643
 20
-135.647888577199
 30
0.0
 10
93.3693040068395
 20
-135.647888577199
 30
0.0
 10
93.41410678347425
 20
-135.6030857994323
 30
0.0
 10
93.41410678347425
 20
-135.5479819105573
 30
0.0
  0
SPLINE
  5
4A
330
1F
100
AcDbEntity
  8
_U+30EC_U+30A4_U+30E4_U+30FC 1
 62
     7
420
 16777215
370
     9
100
AcDbSpline
210
0.0
220
0.0
230
1.0
 70
    11
 71
     3
 72
    17
 73
    13
 74
     0
 42
0.0000000001
 43
0.0000000001
 12
1.0
 22
0.0
 32
0.0
 13
1.0
 23
0.0
 33
0.0
 40
0.0
 40
0.0
 40
0.0
 40
0.0
 40
1.0
 40
1.0
 40
1.0
 40
2.0
 40
2.0
 40
2.0
 40
3.0
 40
3.0
 40
3.0
 40
4.0
 40
4.0
 40
4.0
 40
4.0
 10
93.41410678347425
 20
-130.547744967363
 30
0.0
 10
93.41410678347425
 20
-130.4926410784881
 30
0.0
 10
93.3693040068395
 20
-130.4478383007214
 30
0.0
 10
93.31420011935643
 20
-130.4478383007214
 30
0.0
 10
93.25906095409647
 20
-130.4478383007214
 30
0.0
 10
93.21429345523859
 20
-130.4926410784881
 30
0.0
 10
93.21429345523859
 20
-130.547744967363
 30
0.0
 10
93.21429345523859
 20
-130.6032369117939
 30
0.0
 10
93.25906095409647
 20
-130.6476516340047
 30
0.0
 10
93.31420011935643
 20
-130.6476516340047
 30
0.0
 10
93.3693040068395
 20
-130.6476516340047
 30
0.0
 10
93.41410678347425
 20
-130.6032369117939
 30
0.0
 10
93.41410678347425
 20
-130.547744967363
 30
0.0
  0
SPLINE
  5
4B
330
1F
100
AcDbEntity
  8
_U+30EC_U+30A4_U+30E4_U+30FC 1
 62
     7
420
 16777215
370
     9
100
AcDbSpline
210
0.0
220
0.0
230
1.0
 70
    11
 71
     3
 72
    17
 73
    13
 74
     0
 42
0.0000000001
 43
0.0000000001
 12
1.0
 22
0.0
 32
0.0
 13
1.0
 23
0.0
 33
0.0
 40
0.0
 40
0.0
 40
0.0
 40
0.0
 40
1.0
 40
1.0
 40
1.0
 40
2.0
 40
2.0
 40
2.0
 40
3.0
 40
3.0
 40
3.0
 40
4.0
 40
4.0
 40
4.0
 40
4.0
 10
86.46396140523169
 20
-115.3478205267185
 30
0.0
 10
86.46396140523169
 20
-115.2925402489547
 30
0.0
 10
86.41919390637379
 20
-115.247737471188
 30
0.0
 10
86.36405474111385
 20
-115.247737471188
 30
0.0
 10
86.30895085363078
 20
-115.247737471188
 30
0.0
 10
86.26414807699601
 20
-115.2925402489547
 30
0.0
 10
86.26414807699601
 20
-115.3478205267185
 30
0.0
 10
86.26414807699601
 20
-115.4031360822605
 30
0.0
 10
86.30895085363078
 20
-115.447903582249
 30
0.0
 10
86.36405474111385
 20
-115.447903582249
 30
0.0
 10
86.41919390637379
 20
-115.447903582249
 30
0.0
 10
86.46396140523169
 20
-115.4031360822605
 30
0.0
 10
86.46396140523169
 20
-115.3478205267185
 30
0.0
  0
SPLINE
  5
4C
330
1F
100
AcDbEntity
  8
_U+30EC_U+30A4_U+30E4_U+30FC 1
 62
     7
420
 16777215
370
     9
100
AcDbSpline
210
0.0
220
0.0
230
1.0
 70
    11
 71
     3
 72
    17
 73
    13
 74
     0
 42
0.0000000001
 43
0.0000000001
 12
1.0
 22
0.0
 32
0.0
 13
1.0
 23
0.0
 33
0.0
 40
0.0
 40
0.0
 40
0.0
 40
0.0
 40
1.0
 40
1.0
 40
1.0
 40
2.0
 40
2.0
 40
2.0
 40
3.0
 40
3.0
 40
3.0
 40
4.0
 40
4.0
 40
4.0
 40
4.0
 10
104.4645881682197
 20
-115.3478205267185
 30
0.0
 10
104.4645881682197
 20
-115.2925402489547
 30
0.0
 10
104.4198206693618
 20
-115.247737471188
 30
0.0
 10
104.3640138627976
 20
-115.247737471188
 30
0.0
 10
104.3088720610812
 20
-115.247737471188
 30
0.0
 10
104.2641045622233
 20
-115.2925402489547
 30
0.0
 10
104.2641045622233
 20
-115.3478205267185
 30
0.0
 10
104.2641045622233
 20
-115.4031360822605
 30
0.0
 10
104.3088720610812
 20
-115.447903582249
 30
0.0
 10
104.3640138627976
 20
-115.447903582249
 30
0.0
 10
104.4198206693618
 20
-115.447903582249
 30
0.0
 10
104.4645881682197
 20
-115.4031360822605
 30
0.0
 10
104.4645881682197
 20
-115.3478205267185
 30
0.0
  0
POLYLINE
  5
4D
330
1F
100
AcDbEntity
  8
_U+30EC_U+30A4_U+30E4_U+30FC 1
 62
     7
420
 16777215
370
     9
100
AcDb2dPolyline
 66
     1
 10
0.0
 20
0.0
 30
0.0
  0
VERTEX
  5
4E
330
4D
100
AcDbEntity
  8
_U+30EC_U+30A4_U+30E4_U+30FC 1
 62
     7
420
 16777215
370
     9
100
AcDbVertex
100
AcDb2dVertex
 10
82.36429567648953
 20
-120.5476944143075
 30
0.0
  0
VERTEX
  5
4F
330
4D
100
AcDbEntity
  8
_U+30EC_U+30A4_U+30E4_U+30FC 1
 62
     7
420
 16777215
370
     9
100
AcDbVertex
100
AcDb2dVertex
 10
82.36429567648953
 20
-145.5477149636129
 30
0.0
  0
SEQEND
  5
50
330
4D
100
AcDbEntity
  8
_U+30EC_U+30A4_U+30E4_U+30FC 1
 62
     7
420
 16777215
370
     9
  0
POLYLINE
  5
51
330
1F
100
AcDbEntity
  8
_U+30EC_U+30A4_U+30E4_U+30FC 1
 62
     7
420
 16777215
370
     9
100
AcDb2dPolyline
 66
     1
 10
0.0
 20
0.0
 30
0.0
  0
VERTEX
  5
52
330
51
100
AcDbEntity
  8
_U+30EC_U+30A4_U+30E4_U+30FC 1
 62
     7
420
 16777215
370
     9
100
AcDbVertex
100
AcDb2dVertex
 10
83.82433702812966
 20
-120.5476944143075
 30
0.0
  0
VERTEX
  5
53
330
51
100
AcDbEntity
  8
_U+30EC_U+30A4_U+30E4_U+30FC 1
 62
     7
420
 16777215
370
     9
100
AcDbVertex
100
AcDb2dVertex
 10
81.36452347977362
 20
-120.5476944143075
 30
0.0
  0
SEQEND
  5
54
330
51
100
AcDbEntity
  8
_U+30EC_U+30A4_U+30E4_U+30FC 1
 62
     7
420
 16777215
370
     9
  0
POLYLINE
  5
55
330
1F
100
AcDbEntity
  8
_U+30EC_U+30A4_U+30E4_U+30FC 1
 62
     7
420
 16777215
370
     9
100
AcDb2dPolyline
 66
     1
 10
0.0
 20
0.0
 30
0.0
  0
VERTEX
  5
56
330
55
100
AcDbEntity
  8
_U+30EC_U+30A4_U+30E4_U+30FC 1
 62
     7
420
 16777215
370
     9
100
AcDbVertex
100
AcDb2dVertex
 10
84.36521590321958
 20
-145.5477149636129
 30
0.0
  0
VERTEX
  5
57
330
55
100
AcDbEntity
  8
_U+30EC_U+30A4_U+30E4_U+30FC 1
 62
     7
420
 16777215
370
     9
100
AcDbVertex
100
AcDb2dVertex
 10
80.60523988803345
 20
-145.5477149636129
 30
0.0
  0
SEQEND
  5
58
330
55
100
AcDbEntity
  8
_U+30EC_U+30A4_U+30E4_U+30FC 1
 62
     7
420
 16777215
370
     9
  0
INSERT
  5
5A
330
1F
100
AcDbEntity
  8
_U+30EC_U+30A4_U+30E4_U+30FC 1
100
AcDbBlockReference
  2
block 2
 10
0.0
 20
0.0
 30
0.0
  0
POLYLINE
  5
61
330
1F
100
AcDbEntity
  8
_U+30EC_U+30A4_U+30E4_U+30FC 1
 62
     7
420
 16777215
370
     9
100
AcDb2dPolyline
 66
     1
 10
0.0
 20
0.0
 30
0.0
  0
VERTEX
  5
62
330
61
100
AcDbEntity
  8
_U+30EC_U+30A4_U+30E4_U+30FC 1
 62
     7
420
 16777215
370
     9
100
AcDbVertex
100
AcDb2dVertex
 10
82.36429567648953
 20
-119.3477560812743
 30
0.0
  0
VERTEX
  5
63
330
61
100
AcDbEntity
  8
_U+30EC_U+30A4_U+30E4_U+30FC 1
 62
     7
420
 16777215
370
     9
100
AcDbVertex
100
AcDb2dVertex
 10
82.36429567648953
 20
-114.0900266381443
 30
0.0
  0
SEQEND
  5
64
330
61
100
AcDbEntity
  8
_U+30EC_U+30A4_U+30E4_U+30FC 1
 62
     7
420
 16777215
370
     9
  0
POLYLINE
  5
65
330
1F
100
AcDbEntity
  8
_U+30EC_U+30A4_U+30E4_U+30FC 1
 62
     7
420
 16777215
370
     9
100
AcDb2dPolyline
 66
     1
 10
0.0
 20
0.0
 30
0.0
  0
VERTEX
  5
66
330
65
100
AcDbEntity
  8
_U+30EC_U+30A4_U+30E4_U+30FC 1
 62
     7
420
 16777215
370
     9
100
AcDbVertex
100
AcDb2dVertex
 10
82.36429567648953
 20
-120.5476944143075
 30
0.0
  0
VERTEX
  5
67
330
65
100
AcDbEntity
  8
_U+30EC_U+30A4_U+30E4_U+30FC 1
 62
     7
420
 16777215
370
     9
100
AcDbVertex
100
AcDb2dVertex
 10
82.36429567648953
 20
-119.3477560812743
 30
0.0
  0
SEQEND
  5
68
330
65
100
AcDbEntity
  8
_U+30EC_U+30A4_U+30E4_U+30FC 1
 62
     7
420
 16777215
370
     9
  0
POLYLINE
  5
69
330
1F
100
AcDbEntity
  8
_U+30EC_U+30A4_U+30E4_U+30FC 1
 62
     7
420
 16777215
370
     9
100
AcDb2dPolyline
 66
     1
 10
0.0
 20
0.0
 30
0.0
  0
VERTEX
  5
6A
330
69
100
AcDbEntity
  8
_U+30EC_U+30A4_U+30E4_U+30FC 1
 62
     7
420
 16777215
370
     9
100
AcDbVertex
100
AcDb2dVertex
 10
83.82433702812966
 20
-120.5476944143075
 30
0.0
  0
VERTEX
  5
6B
330
69
100
AcDbEntity
  8
_U+30EC_U+30A4_U+30E4_U+30FC 1
 62
     7
420
 16777215
370
     9
100
AcDbVertex
100
AcDb2dVertex
 10
81.36452347977362
 20
-120.5476944143075
 30
0.0
  0
SEQEND
  5
6C
330
69
100
AcDbEntity
  8
_U+30EC_U+30A4_U+30E4_U+30FC 1
 62
     7
420
 16777215
370
     9
  0
POLYLINE
  5
6D
330
1F
100
AcDbEntity
  8
_U+30EC_U+30A4_U+30E4_U+30FC 1
 62
     7
420
 16777215
370
     9
100
AcDb2dPolyline
 66
     1
 10
0.0
 20
0.0
 30
0.0
  0
VERTEX
  5
6E
330
6D
100
AcDbEntity
  8
_U+30EC_U+30A4_U+30E4_U+30FC 1
 62
     7
420
 16777215
370
     9
100
AcDbVertex
100
AcDb2dVertex
 10
83.82433702812966
 20
-119.3477560812743
 30
0.0
  0
VERTEX
  5
6F
330
6D
100
AcDbEntity
  8
_U+30EC_U+30A4_U+30E4_U+30FC 1
 62
     7
420
 16777215
370
     9
100
AcDbVertex
100
AcDb2dVertex
 10
81.36452347977362
 20
-119.3477560812743
 30
0.0
  0
SEQEND
  5
70
330
6D
100
AcDbEntity
  8
_U+30EC_U+30A4_U+30E4_U+30FC 1
 62
     7
420
 16777215
370
     9
  0
INSERT
  5
72
330
1F
100
AcDbEntity
  8
_U+30EC_U+30A4_U+30E4_U+30FC 1
100
AcDbBlockReference
  2
block 3
 10
0.0
 20
0.0
 30
0.0
  0
POLYLINE
  5
81
330
1F
100
AcDbEntity
  8
_U+30EC_U+30A4_U+30E4_U+30FC 1
 62
     7
420
 16777215
370
     9
100
AcDb2dPolyline
 66
     1
 10
0.0
 20
0.0
 30
0.0
  0
VERTEX
  5
82
330
81
100
AcDbEntity
  8
_U+30EC_U+30A4_U+30E4_U+30FC 1
 62
     7
420
 16777215
370
     9
100
AcDbVertex
100
AcDb2dVertex
 10
104.3640138627976
 20
-115.3478205267185
 30
0.0
  0
VERTEX
  5
83
330
81
100
AcDbEntity
  8
_U+30EC_U+30A4_U+30E4_U+30FC 1
 62
     7
420
 16777215
370
     9
100
AcDbVertex
100
AcDb2dVertex
 10
86.36405474111385
 20
-115.3478205267185
 30
0.0
  0
SEQEND
  5
84
330
81
100
AcDbEntity
  8
_U+30EC_U+30A4_U+30E4_U+30FC 1
 62
     7
420
 16777215
370
     9
  0
POLYLINE
  5
85
330
1F
100
AcDbEntity
  8
_U+30EC_U+30A4_U+30E4_U+30FC 1
 62
     7
420
 16777215
370
     9
100
AcDb2dPolyline
 66
     1
 10
0.0
 20
0.0
 30
0.0
  0
VERTEX
  5
86
330
85
100
AcDbEntity
  8
_U+30EC_U+30A4_U+30E4_U+30FC 1
 62
     7
420
 16777215
370
     9
100
AcDbVertex
100
AcDb2dVertex
 10
104.3640138627976
 20
-118.0078002482758
 30
0.0
  0
VERTEX
  5
87
330
85
100
AcDbEntity
  8
_U+30EC_U+30A4_U+30E4_U+30FC 1
 62
     7
420
 16777215
370
     9
100
AcDbVertex
100
AcDb2dVertex
 10
104.3640138627976
 20
-114.3478719158574
 30
0.0
  0
SEQEND
  5
88
330
85
100
AcDbEntity
  8
_U+30EC_U+30A4_U+30E4_U+30FC 1
 62
     7
420
 16777215
370
     9
  0
POLYLINE
  5
89
330
1F
100
AcDbEntity
  8
_U+30EC_U+30A4_U+30E4_U+30FC 1
 62
     7
420
 16777215
370
     9
100
AcDb2dPolyline
 66
     1
 10
0.0
 20
0.0
 30
0.0
  0
VERTEX
  5
8A
330
89
100
AcDbEntity
  8
_U+30EC_U+30A4_U+30E4_U+30FC 1
 62
     7
420
 16777215
370
     9
100
AcDbVertex
100
AcDb2dVertex
 10
86.36405474111385
 20
-116.8078619152425
 30
0.0
  0
VERTEX
  5
8B
330
89
100
AcDbEntity
  8
_U+30EC_U+30A4_U+30E4_U+30FC 1
 62
     7
420
 16777215
370
     9
100
AcDbVertex
100
AcDb2dVertex
 10
86.36405474111385
 20
-114.3478719158574
 30
0.0
  0
SEQEND
  5
8C
330
89
100
AcDbEntity
  8
_U+30EC_U+30A4_U+30E4_U+30FC 1
 62
     7
420
 16777215
370
     9
  0
INSERT
  5
8E
330
1F
100
AcDbEntity
  8
_U+30EC_U+30A4_U+30E4_U+30FC 1
100
AcDbBlockReference
  2
block 4
 10
0.0
 20
0.0
 30
0.0
  0
POLYLINE
  5
97
330
1F
100
AcDbEntity
  8
_U+30EC_U+30A4_U+30E4_U+30FC 1
 62
     7
420
 16777215
370
     9
100
AcDb2dPolyline
 66
     1
 10
0.0
 20
0.0
 30
0.0
  0
VERTEX
  5
98
330
97
100
AcDbEntity
  8
_U+30EC_U+30A4_U+30E4_U+30FC 1
 62
     7
420
 16777215
370
     9
100
AcDbVertex
100
AcDb2dVertex
 10
93.31420011935643
 20
-145.5477149636129
 30
0.0
  0
VERTEX
  5
99
330
97
100
AcDbEntity
  8
_U+30EC_U+30A4_U+30E4_U+30FC 1
 62
     7
420
 16777215
370
     9
100
AcDbVertex
100
AcDb2dVertex
 10
93.31420011935643
 20
-140.5478307981964
 30
0.0
  0
SEQEND
  5
9A
330
97
100
AcDbEntity
  8
_U+30EC_U+30A4_U+30E4_U+30FC 1
 62
     7
420
 16777215
370
     9
  0
POLYLINE
  5
9B
330
1F
100
AcDbEntity
  8
_U+30EC_U+30A4_U+30E4_U+30FC 1
 62
     7
420
 16777215
370
     9
100
AcDb2dPolyline
 66
     1
 10
0.0
 20
0.0
 30
0.0
  0
VERTEX
  5
9C
330
9B
100
AcDbEntity
  8
_U+30EC_U+30A4_U+30E4_U+30FC 1
 62
     7
420
 16777215
370
     9
100
AcDbVertex
100
AcDb2dVertex
 10
90.44512908144141
 20
-145.5477149636129
 30
0.0
  0
VERTEX
  5
9D
330
9B
100
AcDbEntity
  8
_U+30EC_U+30A4_U+30E4_U+30FC 1
 62
     7
420
 16777215
370
     9
100
AcDbVertex
100
AcDb2dVertex
 10
93.55535900209283
 20
-145.5477149636129
 30
0.0
  0
SEQEND
  5
9E
330
9B
100
AcDbEntity
  8
_U+30EC_U+30A4_U+30E4_U+30FC 1
 62
     7
420
 16777215
370
     9
  0
POLYLINE
  5
9F
330
1F
100
AcDbEntity
  8
_U+30EC_U+30A4_U+30E4_U+30FC 1
 62
     7
420
 16777215
370
     9
100
AcDb2dPolyline
 66
     1
 10
0.0
 20
0.0
 30
0.0
  0
VERTEX
  5
A0
330
9F
100
AcDbEntity
  8
_U+30EC_U+30A4_U+30E4_U+30FC 1
 62
     7
420
 16777215
370
     9
100
AcDbVertex
100
AcDb2dVertex
 10
91.8541610881475
 20
-140.5478307981964
 30
0.0
  0
VERTEX
  5
A1
330
9F
100
AcDbEntity
  8
_U+30EC_U+30A4_U+30E4_U+30FC 1
 62
     7
420
 16777215
370
     9
100
AcDbVertex
100
AcDb2dVertex
 10
94.31464259383301
 20
-140.5478307981964
 30
0.0
  0
SEQEND
  5
A2
330
9F
100
AcDbEntity
  8
_U+30EC_U+30A4_U+30E4_U+30FC 1
 62
     7
420
 16777215
370
     9
  0
INSERT
  5
A4
330
1F
100
AcDbEntity
  8
_U+30EC_U+30A4_U+30E4_U+30FC 1
100
AcDbBlockReference
  2
block 5
 10
0.0
 20
0.0
 30
0.0
  0
POLYLINE
  5
A9
330
1F
100
AcDbEntity
  8
_U+30EC_U+30A4_U+30E4_U+30FC 1
 62
     7
420
 16777215
370
     9
100
AcDb2dPolyline
 66
     1
 10
0.0
 20
0.0
 30
0.0
  0
VERTEX
  5
AA
330
A9
100
AcDbEntity
  8
_U+30EC_U+30A4_U+30E4_U+30FC 1
 62
     7
420
 16777215
370
     9
100
AcDbVertex
100
AcDb2dVertex
 10
93.31420011935643
 20
-140.5478307981964
 30
0.0
  0
VERTEX
  5
AB
330
A9
100
AcDbEntity
  8
_U+30EC_U+30A4_U+30E4_U+30FC 1
 62
     7
420
 16777215
370
     9
100
AcDbVertex
100
AcDb2dVertex
 10
93.31420011935643
 20
-135.5479819105573
 30
0.0
  0
SEQEND
  5
AC
330
A9
100
AcDbEntity
  8
_U+30EC_U+30A4_U+30E4_U+30FC 1
 62
     7
420
 16777215
370
     9
  0
POLYLINE
  5
AD
330
1F
100
AcDbEntity
  8
_U+30EC_U+30A4_U+30E4_U+30FC 1
 62
     7
420
 16777215
370
     9
100
AcDb2dPolyline
 66
     1
 10
0.0
 20
0.0
 30
0.0
  0
VERTEX
  5
AE
330
AD
100
AcDbEntity
  8
_U+30EC_U+30A4_U+30E4_U+30FC 1
 62
     7
420
 16777215
370
     9
100
AcDbVertex
100
AcDb2dVertex
 10
91.8541610881475
 20
-135.5479819105573
 30
0.0
  0
VERTEX
  5
AF
330
AD
100
AcDbEntity
  8
_U+30EC_U+30A4_U+30E4_U+30FC 1
 62
     7
420
 16777215
370
     9
100
AcDbVertex
100
AcDb2dVertex
 10
94.31464259383301
 20
-135.5479819105573
 30
0.0
  0
SEQEND
  5
B0
330
AD
100
AcDbEntity
  8
_U+30EC_U+30A4_U+30E4_U+30FC 1
 62
     7
420
 16777215
370
     9
  0
INSERT
  5
B2
330
1F
100
AcDbEntity
  8
_U+30EC_U+30A4_U+30E4_U+30FC 1
100
AcDbBlockReference
  2
block 6
 10
0.0
 20
0.0
 30
0.0
  0
POLYLINE
  5
B7
330
1F
100
AcDbEntity
  8
_U+30EC_U+30A4_U+30E4_U+30FC 1
 62
     7
420
 16777215
370
     9
100
AcDb2dPolyline
 66
     1
 10
0.0
 20
0.0
 30
0.0
  0
VERTEX
  5
B8
330
B7
100
AcDbEntity
  8
_U+30EC_U+30A4_U+30E4_U+30FC 1
 62
     7
420
 16777215
370
     9
100
AcDbVertex
100
AcDb2dVertex
 10
93.31420011935643
 20
-135.5479819105573
 30
0.0
  0
VERTEX
  5
B9
330
B7
100
AcDbEntity
  8
_U+30EC_U+30A4_U+30E4_U+30FC 1
 62
     7
420
 16777215
370
     9
100
AcDbVertex
100
AcDb2dVertex
 10
93.31420011935643
 20
-130.547744967363
 30
0.0
  0
SEQEND
  5
BA
330
B7
100
AcDbEntity
  8
_U+30EC_U+30A4_U+30E4_U+30FC 1
 62
     7
420
 16777215
370
     9
  0
POLYLINE
  5
BB
330
1F
100
AcDbEntity
  8
_U+30EC_U+30A4_U+30E4_U+30FC 1
 62
     7
420
 16777215
370
     9
100
AcDb2dPolyline
 66
     1
 10
0.0
 20
0.0
 30
0.0
  0
VERTEX
  5
BC
330
BB
100
AcDbEntity
  8
_U+30EC_U+30A4_U+30E4_U+30FC 1
 62
     7
420
 16777215
370
     9
100
AcDbVertex
100
AcDb2dVertex
 10
91.8541610881475
 20
-130.547744967363
 30
0.0
  0
VERTEX
  5
BD
330
BB
100
AcDbEntity
  8
_U+30EC_U+30A4_U+30E4_U+30FC 1
 62
     7
420
 16777215
370
     9
100
AcDbVertex
100
AcDb2dVertex
 10
94.31464259383301
 20
-130.547744967363
 30
0.0
  0
SEQEND
  5
BE
330
BB
100
AcDbEntity
  8
_U+30EC_U+30A4_U+30E4_U+30FC 1
 62
     7
420
 16777215
370
     9
  0
INSERT
  5
C0
330
1F
100
AcDbEntity
  8
_U+30EC_U+30A4_U+30E4_U+30FC 1
100
AcDbBlockReference
  2
block 7
 10
0.0
 20
0.0
 30
0.0
  0
ENDSEC
  0
SECTION
  2
OBJECTS
  0
DICTIONARY
  5
C
330
0
100
AcDbDictionary
281
     1
  3
ACAD_GROUP
350
D
  3
ACAD_LAYOUT
350
1A
  3
ACAD_MATERIAL
350
3B
  3
ACAD_MLEADERSTYLE
350
C6
  3
ACAD_MLINESTYLE
350
17
  3
ACAD_PLOTSETTINGS
350
19
  3
ACAD_PLOTSTYLENAME
350
E
  3
ACAD_TABLESTYLE
350
C5
  3
ACAD_VISUALSTYLE
350
2A
  0
SUN
  5
3F
330
29
100
AcDbSun
 90
        1
290
     0
 63
     7
421
 16777215
 40
1.0
291
     1
 91
  2455826
 92
 54000000
292
     0
 70
     2
 71
   256
280
     1
  0
DICTIONARY
  5
D
102
{ACAD_REACTORS
330
C
102
}
330
C
100
AcDbDictionary
281
     1
  0
DICTIONARY
  5
1A
102
{ACAD_REACTORS
330
C
102
}
330
C
100
AcDbDictionary
281
     1
  3
Layout1
350
1E
  3
Layout2
350
26
  3
Model
350
22
  0
DICTIONARY
  5
3B
102
{ACAD_REACTORS
330
C
102
}
330
C
100
AcDbDictionary
281
     1
  3
ByBlock
350
3D
  3
ByLayer
350
3C
  3
Global
350
3E
  0
DICTIONARY
  5
C6
102
{ACAD_REACTORS
330
C
102
}
330
C
100
AcDbDictionary
281
     1
  0
DICTIONARY
  5
17
102
{ACAD_REACTORS
330
C
102
}
330
C
100
AcDbDictionary
281
     1
  3
Standard
350
18
  0
DICTIONARY
  5
19
102
{ACAD_REACTORS
330
C
102
}
330
C
100
AcDbDictionary
281
     1
  0
ACDBDICTIONARYWDFLT
  5
E
102
{ACAD_REACTORS
330
C
102
}
330
C
100
AcDbDictionary
281
     1
  3
Normal
350
F
100
AcDbDictionaryWithDefault
340
F
  0
DICTIONARY
  5
C5
102
{ACAD_REACTORS
330
C
102
}
330
C
100
AcDbDictionary
281
     1
  0
DICTIONARY
  5
2A
102
{ACAD_REACTORS
330
C
102
}
330
C
100
AcDbDictionary
281
     1
  3
2dWireframe
350
2F
  3
3D Hidden
350
31
  3
3dWireframe
350
30
  3
Basic
350
32
  3
Brighten
350
36
  3
ColorChange
350
3A
  3
Conceptual
350
34
  3
Dim
350
35
  3
Facepattern
350
39
  3
Flat
350
2B
  3
FlatWithEdges
350
2C
  3
Gouraud
350
2D
  3
GouraudWithEdges
350
2E
  3
Linepattern
350
38
  3
Realistic
350
33
  3
Thicken
350
37
  0
LAYOUT
  5
1E
102
{ACAD_REACTORS
330
1A
102
}
330
1A
100
AcDbPlotSettings
  1

  2
none_device
  4

  6

 40
0.0
 41
0.0
 42
0.0
 43
0.0
 44
0.0
 45
0.0
 46
0.0
 47
0.0
 48
0.0
 49
0.0
140
0.0
141
0.0
142
1.0
143
1.0
 70
   688
 72
     0
 73
     0
 74
     5
  7

 75
    16
 76
     0
 77
     2
 78
   300
147
1.0
148
0.0
149
0.0
100
AcDbLayout
  1
Layout1
 70
     1
 71
     1
 10
0.0
 20
0.0
 11
12.0
 21
9.0
 12
0.0
 22
0.0
 32
0.0
 14
1.000000000000000E+20
 24
1.000000000000000E+20
 34
1.000000000000000E+20
 15
-1.000000000000000E+20
 25
-1.000000000000000E+20
 35
-1.000000000000000E+20
146
0.0
 13
0.0
 23
0.0
 33
0.0
 16
1.0
 26
0.0
 36
0.0
 17
0.0
 27
1.0
 37
0.0
 76
     0
330
1B
  0
LAYOUT
  5
26
102
{ACAD_REACTORS
330
1A
102
}
330
1A
100
AcDbPlotSettings
  1

  2
none_device
  4

  6

 40
0.0
 41
0.0
 42
0.0
 43
0.0
 44
0.0
 45
0.0
 46
0.0
 47
0.0
 48
0.0
 49
0.0
140
0.0
141
0.0
142
1.0
143
1.0
 70
   688
 72
     0
 73
     0
 74
     5
  7

 75
    16
 76
     0
 77
     2
 78
   300
147
1.0
148
0.0
149
0.0
100
AcDbLayout
  1
Layout2
 70
     1
 71
     2
 10
0.0
 20
0.0
 11
0.0
 21
0.0
 12
0.0
 22
0.0
 32
0.0
 14
0.0
 24
0.0
 34
0.0
 15
0.0
 25
0.0
 35
0.0
146
0.0
 13
0.0
 23
0.0
 33
0.0
 16
1.0
 26
0.0
 36
0.0
 17
0.0
 27
1.0
 37
0.0
 76
     0
330
23
  0
LAYOUT
  5
22
102
{ACAD_REACTORS
330
1A
102
}
330
1A
100
AcDbPlotSettings
  1

  2
none_device
  4

  6

 40
0.0
 41
0.0
 42
0.0
 43
0.0
 44
0.0
 45
0.0
 46
0.0
 47
0.0
 48
0.0
 49
0.0
140
0.0
141
0.0
142
1.0
143
1.0
 70
  1712
 72
     0
 73
     0
 74
     0
  7

 75
     0
 76
     0
 77
     2
 78
   300
147
1.0
148
0.0
149
0.0
100
AcDbLayout
  1
Model
 70
     1
 71
     0
 10
0.0
 20
0.0
 11
12.0
 21
9.0
 12
0.0
 22
0.0
 32
0.0
 14
1.000000000000000E+20
 24
1.000000000000000E+20
 34
1.000000000000000E+20
 15
-1.000000000000000E+20
 25
-1.000000000000000E+20
 35
-1.000000000000000E+20
146
0.0
 13
0.0
 23
0.0
 33
0.0
 16
1.0
 26
0.0
 36
0.0
 17
0.0
 27
1.0
 37
0.0
 76
     0
330
1F
331
29
  0
MATERIAL
  5
3D
102
{ACAD_REACTORS
330
3B
102
}
330
3B
100
AcDbMaterial
  1
ByBlock
 72
     1
 94
      127
  0
MATERIAL
  5
3C
102
{ACAD_REACTORS
330
3B
102
}
330
3B
100
AcDbMaterial
  1
ByLayer
 72
     1
 94
      127
  0
MATERIAL
  5
3E
102
{ACAD_REACTORS
330
3B
102
}
330
3B
100
AcDbMaterial
  1
Global
 72
     1
 94
      127
  0
MLINESTYLE
  5
18
102
{ACAD_REACTORS
330
17
102
}
330
17
100
AcDbMlineStyle
  2
Standard
 70
     0
  3

 62
   256
 51
90.0
 52
90.0
 71
     2
 49
0.5
 62
   256
  6
BYLAYER
 49
-0.5
 62
   256
  6
BYLAYER
  0
ACDBPLACEHOLDER
  5
F
102
{ACAD_REACTORS
330
E
102
}
330
E
  0
VISUALSTYLE
  5
2F
102
{ACAD_REACTORS
330
2A
102
}
330
2A
100
AcDbVisualStyle
  2
2dWireframe
 70
     4
177
     2
291
     0
 71
     0
176
     1
 72
     2
176
     1
 73
     0
176
     1
 90
        0
176
     1
 40
-0.6
176
     1
 41
-30.0
176
     1
 62
     5
 63
     7
421
 16777215
176
     1
 74
     1
176
     1
 91
        4
176
     1
 64
     7
176
     1
 65
   257
176
     1
 75
     1
176
     1
175
     1
176
     1
 42
1.0
176
     1
 92
        0
176
     1
 66
   257
176
     1
 43
1.0
176
     1
 76
     1
176
     1
 77
     6
176
     1
 78
     2
176
     1
 67
     7
176
     1
 79
     5
176
     1
170
     0
176
     1
171
     0
176
     1
290
     0
176
     1
 93
        1
176
     1
 44
0.0
176
     1
173
     0
176
     1
  0
VISUALSTYLE
  5
31
102
{ACAD_REACTORS
330
2A
102
}
330
2A
100
AcDbVisualStyle
  2
3D Hidden
 70
     6
177
     2
291
     0
 71
     1
176
     1
 72
     2
176
     1
 73
     2
176
     1
 90
        0
176
     1
 40
-0.6
176
     1
 41
-30.0
176
     1
 62
     5
 63
     7
421
 16777215
176
     1
 74
     2
176
     1
 91
        2
176
     1
 64
     7
176
     1
 65
   257
176
     1
 75
     2
176
     1
175
     1
176
     1
 42
40.0
176
     1
 92
        0
176
     1
 66
   257
176
     1
 43
1.0
176
     1
 76
     1
176
     1
 77
     6
176
     1
 78
     2
176
     1
 67
     7
176
     1
 79
     3
176
     1
170
     0
176
     1
171
     0
176
     1
290
     0
176
     1
 93
        1
176
     1
 44
0.0
176
     1
173
     0
176
     1
  0
VISUALSTYLE
  5
30
102
{ACAD_REACTORS
330
2A
102
}
330
2A
100
AcDbVisualStyle
  2
3dWireframe
 70
     5
177
     2
291
     0
 71
     0
176
     1
 72
     2
176
     1
 73
     0
176
     1
 90
        0
176
     1
 40
-0.6
176
     1
 41
-30.0
176
     1
 62
     5
 63
     7
421
 16777215
176
     1
 74
     1
176
     1
 91
        4
176
     1
 64
     7
176
     1
 65
   257
176
     1
 75
     1
176
     1
175
     1
176
     1
 42
1.0
176
     1
 92
        0
176
     1
 66
   257
176
     1
 43
1.0
176
     1
 76
     1
176
     1
 77
     6
176
     1
 78
     2
176
     1
 67
     7
176
     1
 79
     5
176
     1
170
     0
176
     1
171
     0
176
     1
290
     0
176
     1
 93
        1
176
     1
 44
0.0
176
     1
173
     0
176
     1
  0
VISUALSTYLE
  5
32
102
{ACAD_REACTORS
330
2A
102
}
330
2A
100
AcDbVisualStyle
  2
Basic
 70
     7
177
     2
291
     1
 71
     1
176
     1
 72
     0
176
     1
 73
     1
176
     1
 90
        0
176
     1
 40
-0.6
176
     1
 41
-30.0
176
     1
 62
     5
 63
     7
421
 16777215
176
     1
 74
     0
176
     1
 91
        4
176
     1
 64
     7
176
     1
 65
   257
176
     1
 75
     1
176
     1
175
     1
176
     1
 42
1.0
176
     1
 92
        8
176
     1
 66
     7
176
     1
 43
1.0
176
     1
 76
     1
176
     1
 77
     6
176
     1
 78
     2
176
     1
 67
     7
176
     1
 79
     5
176
     1
170
     0
176
     1
171
     0
176
     1
290
     0
176
     1
 93
        1
176
     1
 44
0.0
176
     1
173
     0
176
     1
  0
VISUALSTYLE
  5
36
102
{ACAD_REACTORS
330
2A
102
}
330
2A
100
AcDbVisualStyle
  2
Brighten
 70
    12
177
     2
291
     1
 71
     2
176
     1
 72
     2
176
     1
 73
     0
176
     1
 90
        0
176
     1
 40
-0.6
176
     1
 41
-30.0
176
     1
 62
     5
 63
     7
421
 16777215
176
     1
 74
     1
176
     1
 91
        4
176
     1
 64
     7
176
     1
 65
   257
176
     1
 75
     1
176
     1
175
     1
176
     1
 42
1.0
176
     1
 92
        8
176
     1
 66
     7
176
     1
 43
1.0
176
     1
 76
     1
176
     1
 77
     6
176
     1
 78
     2
176
     1
 67
     7
176
     1
 79
     5
176
     1
170
     0
176
     1
171
     0
176
     1
290
     0
176
     1
 93
        1
176
     1
 44
50.0
176
     1
173
     0
176
     1
  0
VISUALSTYLE
  5
3A
102
{ACAD_REACTORS
330
2A
102
}
330
2A
100
AcDbVisualStyle
  2
ColorChange
 70
    16
177
     2
291
     1
 71
     2
176
     1
 72
     2
176
     1
 73
     3
176
     1
 90
        0
176
     1
 40
-0.6
176
     1
 41
-30.0
176
     1
 62
     5
 63
     8
421
  8421504
176
     1
 74
     1
176
     1
 91
        4
176
     1
 64
     7
176
     1
 65
   257
176
     1
 75
     1
176
     1
175
     1
176
     1
 42
1.0
176
     1
 92
        8
176
     1
 66
     8
424
  8421504
176
     1
 43
1.0
176
     1
 76
     1
176
     1
 77
     6
176
     1
 78
     2
176
     1
 67
     7
176
     1
 79
     5
176
     1
170
     0
176
     1
171
     0
176
     1
290
     0
176
     1
 93
        1
176
     1
 44
0.0
176
     1
173
     0
176
     1
  0
VISUALSTYLE
  5
34
102
{ACAD_REACTORS
330
2A
102
}
330
2A
100
AcDbVisualStyle
  2
Conceptual
 70
     9
177
     2
291
     0
 71
     3
176
     1
 72
     2
176
     1
 73
     0
176
     1
 90
        0
176
     1
 40
-0.6
176
     1
 41
-30.0
176
     1
 62
     5
 63
     7
421
 16777215
176
     1
 74
     2
176
     1
 91
        2
176
     1
 64
     7
176
     1
 65
   257
176
     1
 75
     1
176
     1
175
     1
176
     1
 42
40.0
176
     1
 92
        8
176
     1
 66
     7
176
     1
 43
1.0
176
     1
 76
     1
176
     1
 77
     6
176
     1
 78
     2
176
     1
 67
     7
176
     1
 79
     3
176
     1
170
     0
176
     1
171
     0
176
     1
290
     0
176
     1
 93
        1
176
     1
 44
0.0
176
     1
173
     0
176
     1
  0
VISUALSTYLE
  5
35
102
{ACAD_REACTORS
330
2A
102
}
330
2A
100
AcDbVisualStyle
  2
Dim
 70
    11
177
     2
291
     1
 71
     2
176
     1
 72
     2
176
     1
 73
     0
176
     1
 90
        0
176
     1
 40
-0.6
176
     1
 41
-30.0
176
     1
 62
     5
 63
     7
421
 16777215
176
     1
 74
     1
176
     1
 91
        4
176
     1
 64
     7
176
     1
 65
   257
176
     1
 75
     1
176
     1
175
     1
176
     1
 42
1.0
176
     1
 92
        8
176
     1
 66
     7
176
     1
 43
1.0
176
     1
 76
     1
176
     1
 77
     6
176
     1
 78
     2
176
     1
 67
     7
176
     1
 79
     5
176
     1
170
     0
176
     1
171
     0
176
     1
290
     0
176
     1
 93
        1
176
     1
 44
-50.0
176
     1
173
     0
176
     1
  0
VISUALSTYLE
  5
39
102
{ACAD_REACTORS
330
2A
102
}
330
2A
100
AcDbVisualStyle
  2
Facepattern
 70
    15
177
     2
291
     1
 71
     2
176
     1
 72
     2
176
     1
 73
     0
176
     1
 90
        0
176
     1
 40
-0.6
176
     1
 41
-30.0
176
     1
 62
     5
 63
     7
421
 16777215
176
     1
 74
     1
176
     1
 91
        4
176
     1
 64
     7
176
     1
 65
   257
176
     1
 75
     1
176
     1
175
     1
176
     1
 42
1.0
176
     1
 92
        8
176
     1
 66
     7
176
     1
 43
1.0
176
     1
 76
     1
176
     1
 77
     6
176
     1
 78
     2
176
     1
 67
     7
176
     1
 79
     5
176
     1
170
     0
176
     1
171
     0
176
     1
290
     0
176
     1
 93
        1
176
     1
 44
0.0
176
     1
173
     0
176
     1
  0
VISUALSTYLE
  5
2B
102
{ACAD_REACTORS
330
2A
102
}
330
2A
100
AcDbVisualStyle
  2
Flat
 70
     0
177
     2
291
     1
 71
     2
176
     1
 72
     1
176
     1
 73
     1
176
     1
 90
        2
176
     1
 40
-0.6
176
     1
 41
30.0
176
     1
 62
     5
 63
     7
421
 16777215
176
     1
 74
     0
176
     1
 91
        4
176
     1
 64
     7
176
     1
 65
   257
176
     1
 75
     1
176
     1
175
     1
176
     1
 42
1.0
176
     1
 92
        8
176
     1
 66
     7
176
     1
 43
1.0
176
     1
 76
     1
176
     1
 77
     6
176
     1
 78
     2
176
     1
 67
     7
176
     1
 79
     5
176
     1
170
     0
176
     1
171
     0
176
     1
290
     0
176
     1
 93
       13
176
     1
 44
0.0
176
     1
173
     0
176
     1
  0
VISUALSTYLE
  5
2C
102
{ACAD_REACTORS
330
2A
102
}
330
2A
100
AcDbVisualStyle
  2
FlatWithEdges
 70
     1
177
     2
291
     1
 71
     2
176
     1
 72
     1
176
     1
 73
     1
176
     1
 90
        2
176
     1
 40
-0.6
176
     1
 41
30.0
176
     1
 62
     5
 63
     7
421
 16777215
176
     1
 74
     1
176
     1
 91
        4
176
     1
 64
     7
176
     1
 65
   257
176
     1
 75
     1
176
     1
175
     1
176
     1
 42
1.0
176
     1
 92
        0
176
     1
 66
   257
176
     1
 43
1.0
176
     1
 76
     1
176
     1
 77
     6
176
     1
 78
     2
176
     1
 67
     7
176
     1
 79
     5
176
     1
170
     0
176
     1
171
     0
176
     1
290
     0
176
     1
 93
       13
176
     1
 44
0.0
176
     1
173
     0
176
     1
  0
VISUALSTYLE
  5
2D
102
{ACAD_REACTORS
330
2A
102
}
330
2A
100
AcDbVisualStyle
  2
Gouraud
 70
     2
177
     2
291
     1
 71
     2
176
     1
 72
     2
176
     1
 73
     1
176
     1
 90
        2
176
     1
 40
-0.6
176
     1
 41
30.0
176
     1
 62
     5
 63
     7
421
 16777215
176
     1
 74
     0
176
     1
 91
        4
176
     1
 64
     7
176
     1
 65
   257
176
     1
 75
     1
176
     1
175
     1
176
     1
 42
1.0
176
     1
 92
        0
176
     1
 66
     7
176
     1
 43
1.0
176
     1
 76
     1
176
     1
 77
     6
176
     1
 78
     2
176
     1
 67
     7
176
     1
 79
     5
176
     1
170
     0
176
     1
171
     0
176
     1
290
     0
176
     1
 93
       13
176
     1
 44
0.0
176
     1
173
     0
176
     1
  0
VISUALSTYLE
  5
2E
102
{ACAD_REACTORS
330
2A
102
}
330
2A
100
AcDbVisualStyle
  2
GouraudWithEdges
 70
     3
177
     2
291
     1
 71
     2
176
     1
 72
     2
176
     1
 73
     1
176
     1
 90
        2
176
     1
 40
-0.6
176
     1
 41
30.0
176
     1
 62
     5
 63
     7
421
 16777215
176
     1
 74
     1
176
     1
 91
        4
176
     1
 64
     7
176
     1
 65
   257
176
     1
 75
     1
176
     1
175
     1
176
     1
 42
1.0
176
     1
 92
        0
176
     1
 66
   257
176
     1
 43
1.0
176
     1
 76
     1
176
     1
 77
     6
176
     1
 78
     2
176
     1
 67
     7
176
     1
 79
     5
176
     1
170
     0
176
     1
171
     0
176
     1
290
     0
176
     1
 93
       13
176
     1
 44
0.0
176
     1
173
     0
176
     1
  0
VISUALSTYLE
  5
38
102
{ACAD_REACTORS
330
2A
102
}
330
2A
100
AcDbVisualStyle
  2
Linepattern
 70
    14
177
     2
291
     1
 71
     2
176
     1
 72
     2
176
     1
 73
     0
176
     1
 90
        0
176
     1
 40
-0.6
176
     1
 41
-30.0
176
     1
 62
     5
 63
     7
421
 16777215
176
     1
 74
     1
176
     1
 91
        4
176
     1
 64
     7
176
     1
 65
   257
176
     1
 75
     7
176
     1
175
     7
176
     1
 42
1.0
176
     1
 92
        8
176
     1
 66
     7
176
     1
 43
1.0
176
     1
 76
     1
176
     1
 77
     6
176
     1
 78
     2
176
     1
 67
     7
176
     1
 79
     5
176
     1
170
     0
176
     1
171
     0
176
     1
290
     0
176
     1
 93
        1
176
     1
 44
0.0
176
     1
173
     0
176
     1
  0
VISUALSTYLE
  5
33
102
{ACAD_REACTORS
330
2A
102
}
330
2A
100
AcDbVisualStyle
  2
Realistic
 70
     8
177
     2
291
     0
 71
     2
176
     1
 72
     2
176
     1
 73
     0
176
     1
 90
        0
176
     1
 40
-0.6
176
     1
 41
-30.0
176
     1
 62
     5
 63
     7
421
 16777215
176
     1
 74
     1
176
     1
 91
        0
176
     1
 64
     7
176
     1
 65
   257
176
     1
 75
     1
176
     1
175
     1
176
     1
 42
1.0
176
     1
 92
        8
176
     1
 66
     8
424
  7895160
176
     1
 43
1.0
176
     1
 76
     1
176
     1
 77
     6
176
     1
 78
     2
176
     1
 67
     7
176
     1
 79
     5
176
     1
170
     0
176
     1
171
     0
176
     1
290
     0
176
     1
 93
       13
176
     1
 44
0.0
176
     1
173
     0
176
     1
  0
VISUALSTYLE
  5
37
102
{ACAD_REACTORS
330
2A
102
}
330
2A
100
AcDbVisualStyle
  2
Thicken
 70
    13
177
     2
291
     1
 71
     2
176
     1
 72
     2
176
     1
 73
     0
176
     1
 90
        0
176
     1
 40
-0.6
176
     1
 41
-30.0
176
     1
 62
     5
 63
     7
421
 16777215
176
     1
 74
     1
176
     1
 91
        4
176
     1
 64
     7
176
     1
 65
   257
176
     1
 75
     1
176
     1
175
     1
176
     1
 42
1.0
176
     1
 92
       12
176
     1
 66
     7
176
     1
 43
1.0
176
     1
 76
     1
176
     1
 77
     6
176
     1
 78
     2
176
     1
 67
     7
176
     1
 79
     5
176
     1
170
     0
176
     1
171
     0
176
     1
290
     0
176
     1
 93
        1
176
     1
 44
0.0
176
     1
173
     0
176
     1
  0
ENDSEC
  0
EOF
