  0
SECTION
  2
HEADER
  9
$ACADVER
  1
AC1024
  9
$ACADMAINTVER
 70
     6
  9
$DWGCODEPAGE
  3
UNDEFINED
  9
$INSBASE
 10
0.0
 20
0.0
 30
0.0
  9
$EXTMIN
 10
1.000000000000000E+20
 20
1.000000000000000E+20
 30
1.000000000000000E+20
  9
$EXTMAX
 10
-1.000000000000000E+20
 20
-1.000000000000000E+20
 30
-1.000000000000000E+20
  9
$LIMMIN
 10
0.0
 20
0.0
  9
$LIMMAX
 10
12.0
 20
9.0
  9
$ORTHOMODE
 70
     0
  9
$REGENMODE
 70
     1
  9
$FILLMODE
 70
     1
  9
$QTEXTMODE
 70
     0
  9
$MIRRTEXT
 70
     1
  9
$LTSCALE
 40
1.0
  9
$ATTMODE
 70
     1
  9
$TEXTSIZE
 40
0.2
  9
$TRACEWID
 40
0.05
  9
$TEXTSTYLE
  7
Standard
  9
$CLAYER
  8
0
  9
$CELTYPE
  6
ByLayer
  9
$CECOLOR
 62
   256
  9
$CELTSCALE
 40
1.0
  9
$DISPSILH
 70
     0
  9
$DIMSCALE
 40
1.0
  9
$DIMASZ
 40
0.18
  9
$DIMEXO
 40
0.0625
  9
$DIMDLI
 40
0.38
  9
$DIMRND
 40
0.0
  9
$DIMDLE
 40
0.0
  9
$DIMEXE
 40
0.18
  9
$DIMTP
 40
0.0
  9
$DIMTM
 40
0.0
  9
$DIMTXT
 40
0.18
  9
$DIMCEN
 40
0.09
  9
$DIMTSZ
 40
0.0
  9
$DIMTOL
 70
     0
  9
$DIMLIM
 70
     0
  9
$DIMTIH
 70
     1
  9
$DIMTOH
 70
     1
  9
$DIMSE1
 70
     0
  9
$DIMSE2
 70
     0
  9
$DIMTAD
 70
     0
  9
$DIMZIN
 70
     0
  9
$DIMBLK
  1

  9
$DIMASO
 70
     1
  9
$DIMSHO
 70
     1
  9
$DIMPOST
  1

  9
$DIMAPOST
  1

  9
$DIMALT
 70
     0
  9
$DIMALTD
 70
     2
  9
$DIMALTF
 40
25.4
  9
$DIMLFAC
 40
1.0
  9
$DIMTOFL
 70
     0
  9
$DIMTVP
 40
0.0
  9
$DIMTIX
 70
     0
  9
$DIMSOXD
 70
     0
  9
$DIMSAH
 70
     0
  9
$DIMBLK1
  1

  9
$DIMBLK2
  1

  9
$DIMSTYLE
  2
Standard
  9
$DIMCLRD
 70
     0
  9
$DIMCLRE
 70
     0
  9
$DIMCLRT
 70
     0
  9
$DIMTFAC
 40
1.0
  9
$DIMGAP
 40
0.09
  9
$DIMJUST
 70
     0
  9
$DIMSD1
 70
     0
  9
$DIMSD2
 70
     0
  9
$DIMTOLJ
 70
     1
  9
$DIMTZIN
 70
     0
  9
$DIMALTZ
 70
     0
  9
$DIMALTTZ
 70
     0
  9
$DIMUPT
 70
     0
  9
$DIMDEC
 70
     4
  9
$DIMTDEC
 70
     4
  9
$DIMALTU
 70
     2
  9
$DIMALTTD
 70
     2
  9
$DIMTXSTY
  7
Standard
  9
$DIMAUNIT
 70
     0
  9
$DIMADEC
 70
     0
  9
$DIMALTRND
 40
0.0
  9
$DIMAZIN
 70
     0
  9
$DIMDSEP
 70
    46
  9
$DIMATFIT
 70
     3
  9
$DIMFRAC
 70
     0
  9
$DIMLDRBLK
  1

  9
$DIMLUNIT
 70
     2
  9
$DIMLWD
 70
    -2
  9
$DIMLWE
 70
    -2
  9
$DIMTMOVE
 70
     0
  9
$DIMFXL
 40
1.0
  9
$DIMFXLON
 70
     0
  9
$DIMJOGANG
 40
0.7853981633974483
  9
$DIMTFILL
 70
     0
  9
$DIMTFILLCLR
 70
     0
  9
$DIMARCSYM
 70
     0
  9
$DIMLTYPE
  6

  9
$DIMLTEX1
  6

  9
$DIMLTEX2
  6

  9
$DIMTXTDIRECTION
 70
     0
  9
$LUNITS
 70
     2
  9
$LUPREC
 70
     4
  9
$SKETCHINC
 40
0.1
  9
$FILLETRAD
 40
0.5
  9
$AUNITS
 70
     0
  9
$AUPREC
 70
     0
  9
$MENU
  1
.
  9
$ELEVATION
 40
0.0
  9
$PELEVATION
 40
0.0
  9
$THICKNESS
 40
0.0
  9
$LIMCHECK
 70
     0
  9
$CHAMFERA
 40
0.5
  9
$CHAMFERB
 40
0.5
  9
$CHAMFERC
 40
1.0
  9
$CHAMFERD
 40
0.0
  9
$SKPOLY
 70
     0
  9
$TDCREATE
 40
2457917.625879618
  9
$TDUCREATE
 40
2457917.25087963
  9
$TDUPDATE
 40
2457917.625879618
  9
$TDUUPDATE
 40
2457917.25087963
  9
$TDINDWG
 40
0.0000000116
  9
$TDUSRTIMER
 40
0.0000000116
  9
$USRTIMER
 70
     1
  9
$ANGBASE
 50
0.0
  9
$ANGDIR
 70
     0
  9
$PDMODE
 70
     0
  9
$PDSIZE
 40
0.0
  9
$PLINEWID
 40
0.0
  9
$SPLFRAME
 70
     0
  9
$SPLINETYPE
 70
     6
  9
$SPLINESEGS
 70
     8
  9
$HANDSEED
  5
A3
  9
$SURFTAB1
 70
     6
  9
$SURFTAB2
 70
     6
  9
$SURFTYPE
 70
     6
  9
$SURFU
 70
     6
  9
$SURFV
 70
     6
  9
$UCSBASE
  2

  9
$UCSNAME
  2

  9
$UCSORG
 10
0.0
 20
0.0
 30
0.0
  9
$UCSXDIR
 10
1.0
 20
0.0
 30
0.0
  9
$UCSYDIR
 10
0.0
 20
1.0
 30
0.0
  9
$UCSORTHOREF
  2

  9
$UCSORTHOVIEW
 70
     0
  9
$UCSORGTOP
 10
0.0
 20
0.0
 30
0.0
  9
$UCSORGBOTTOM
 10
0.0
 20
0.0
 30
0.0
  9
$UCSORGLEFT
 10
0.0
 20
0.0
 30
0.0
  9
$UCSORGRIGHT
 10
0.0
 20
0.0
 30
0.0
  9
$UCSORGFRONT
 10
0.0
 20
0.0
 30
0.0
  9
$UCSORGBACK
 10
0.0
 20
0.0
 30
0.0
  9
$PUCSBASE
  2

  9
$PUCSNAME
  2

  9
$PUCSORG
 10
0.0
 20
0.0
 30
0.0
  9
$PUCSXDIR
 10
1.0
 20
0.0
 30
0.0
  9
$PUCSYDIR
 10
0.0
 20
1.0
 30
0.0
  9
$PUCSORTHOREF
  2

  9
$PUCSORTHOVIEW
 70
     0
  9
$PUCSORGTOP
 10
0.0
 20
0.0
 30
0.0
  9
$PUCSORGBOTTOM
 10
0.0
 20
0.0
 30
0.0
  9
$PUCSORGLEFT
 10
0.0
 20
0.0
 30
0.0
  9
$PUCSORGRIGHT
 10
0.0
 20
0.0
 30
0.0
  9
$PUCSORGFRONT
 10
0.0
 20
0.0
 30
0.0
  9
$PUCSORGBACK
 10
0.0
 20
0.0
 30
0.0
  9
$USERI1
 70
     0
  9
$USERI2
 70
     0
  9
$USERI3
 70
     0
  9
$USERI4
 70
     0
  9
$USERI5
 70
     0
  9
$USERR1
 40
0.0
  9
$USERR2
 40
0.0
  9
$USERR3
 40
0.0
  9
$USERR4
 40
0.0
  9
$USERR5
 40
0.0
  9
$WORLDVIEW
 70
     1
  9
$SHADEDGE
 70
     3
  9
$SHADEDIF
 70
    70
  9
$TILEMODE
 70
     1
  9
$MAXACTVP
 70
    64
  9
$PINSBASE
 10
0.0
 20
0.0
 30
0.0
  9
$PLIMCHECK
 70
     0
  9
$PEXTMIN
 10
1.000000000000000E+20
 20
1.000000000000000E+20
 30
1.000000000000000E+20
  9
$PEXTMAX
 10
-1.000000000000000E+20
 20
-1.000000000000000E+20
 30
-1.000000000000000E+20
  9
$PLIMMIN
 10
0.0
 20
0.0
  9
$PLIMMAX
 10
12.0
 20
9.0
  9
$UNITMODE
 70
     0
  9
$VISRETAIN
 70
     1
  9
$PLINEGEN
 70
     0
  9
$PSLTSCALE
 70
     1
  9
$TREEDEPTH
 70
  3020
  9
$CMLSTYLE
  2
Standard
  9
$CMLJUST
 70
     0
  9
$CMLSCALE
 40
1.0
  9
$PROXYGRAPHICS
 70
     1
  9
$MEASUREMENT
 70
     0
  9
$CELWEIGHT
370
    -1
  9
$ENDCAPS
280
     0
  9
$JOINSTYLE
280
     0
  9
$LWDISPLAY
290
     1
  9
$INSUNITS
 70
     1
  9
$HYPERLINKBASE
  1

  9
$STYLESHEET
  1

  9
$XEDIT
290
     1
  9
$CEPSNTYPE
380
     0
  9
$PSTYLEMODE
290
     1
  9
$FINGERPRINTGUID
  2
{908810A0-A6AD-C901-8D60-CF3366CB8582}
  9
$VERSIONGUID
  2
{FAEB1C32-E019-11D5-929B-00C0DF256EC4}
  9
$EXTNAMES
290
     1
  9
$PSVPSCALE
 40
0.0
  9
$OLESTARTUP
290
     0
  9
$SORTENTS
280
   127
  9
$INDEXCTL
280
     0
  9
$HIDETEXT
280
     1
  9
$XCLIPFRAME
280
     2
  9
$HALOGAP
280
     0
  9
$OBSCOLOR
 70
   257
  9
$OBSLTYPE
280
     0
  9
$INTERSECTIONDISPLAY
280
     0
  9
$INTERSECTIONCOLOR
 70
   257
  9
$DIMASSOC
280
     2
  9
$PROJECTNAME
  1

  9
$CAMERADISPLAY
290
     0
  9
$LENSLENGTH
 40
50.0
  9
$CAMERAHEIGHT
 40
0.0
  9
$STEPSPERSEC
 40
2.0
  9
$STEPSIZE
 40
6.0
  9
$3DDWFPREC
 40
2.0
  9
$PSOLWIDTH
 40
0.25
  9
$PSOLHEIGHT
 40
4.0
  9
$LOFTANG1
 40
1.570796326794897
  9
$LOFTANG2
 40
1.570796326794897
  9
$LOFTMAG1
 40
0.0
  9
$LOFTMAG2
 40
0.0
  9
$LOFTPARAM
 70
     7
  9
$LOFTNORMALS
280
     1
  9
$LATITUDE
 40
37.795
  9
$LONGITUDE
 40
-122.394
  9
$NORTHDIRECTION
 40
0.0
  9
$TIMEZONE
 70
 -8000
  9
$LIGHTGLYPHDISPLAY
280
     1
  9
$TILEMODELIGHTSYNCH
280
     1
  9
$CMATERIAL
347
3C
  9
$SOLIDHIST
280
     1
  9
$SHOWHIST
280
     1
  9
$DWFFRAME
280
     2
  9
$DGNFRAME
280
     2
  9
$REALWORLDSCALE
290
     1
  9
$INTERFERECOLOR
 62
   256
  9
$CSHADOW
280
     0
  9
$SHADOWPLANELOCATION
 40
0.0
  0
ENDSEC
  0
SECTION
  2
CLASSES
  0
CLASS
  1
ACDBDICTIONARYWDFLT
  2
AcDbDictionaryWithDefault
  3
ObjectDBX Classes
 90
        0
 91
        4
280
     0
281
     0
  0
CLASS
  1
VISUALSTYLE
  2
AcDbVisualStyle
  3
ObjectDBX Classes
 90
     4095
 91
        4
280
     0
281
     0
  0
CLASS
  1
MATERIAL
  2
AcDbMaterial
  3
ObjectDBX Classes
 90
     1153
 91
        4
280
     0
281
     0
  0
CLASS
  1
SUN
  2
AcDbSun
  3
SCENEOE
 90
     1024
 91
        4
280
     0
281
     0
  0
ENDSEC
  0
SECTION
  2
TABLES
  0
TABLE
  2
VPORT
  5
8
330
0
100
AcDbSymbolTable
 70
     1
  0
VPORT
  5
29
330
8
100
AcDbSymbolTableRecord
100
AcDbViewportTableRecord
  2
*Active
 70
     0
 10
0.0
 20
0.0
 11
1.0
 21
1.0
 12
0.0
 22
0.0
 13
0.0
 23
0.0
 14
0.5
 24
0.5
 15
0.5
 25
0.5
 16
0.0
 26
0.0
 36
1.0
 17
91.00082462281999
 27
-128.4993055234307
 37
0.0
 40
256.9986110468615
 41
0.7081814508812795
 42
50.0
 43
0.0
 44
0.0
 50
0.0
 51
0.0
 71
     0
 72
   100
 73
     1
 74
     3
 75
     0
 76
     0
 77
     0
 78
     0
281
     0
 65
     1
110
0.0
120
0.0
130
0.0
111
1.0
121
0.0
131
0.0
112
0.0
122
1.0
132
0.0
 79
     0
146
0.0
 60
     3
 61
     5
292
     1
282
     1
141
0.0
142
0.0
 63
   250
361
3F
  0
ENDTAB
  0
TABLE
  2
LTYPE
  5
5
330
0
100
AcDbSymbolTable
 70
     1
  0
LTYPE
  5
14
330
5
100
AcDbSymbolTableRecord
100
AcDbLinetypeTableRecord
  2
ByBlock
 70
     0
  3

 72
    65
 73
     0
 40
0.0
  0
LTYPE
  5
15
330
5
100
AcDbSymbolTableRecord
100
AcDbLinetypeTableRecord
  2
ByLayer
 70
     0
  3

 72
    65
 73
     0
 40
0.0
  0
LTYPE
  5
16
330
5
100
AcDbSymbolTableRecord
100
AcDbLinetypeTableRecord
  2
Continuous
 70
     0
  3
Solid line
 72
    65
 73
     0
 40
0.0
  0
ENDTAB
  0
TABLE
  2
LAYER
  5
2
330
0
100
AcDbSymbolTable
 70
     2
  0
LAYER
  5
10
330
2
100
AcDbSymbolTableRecord
100
AcDbLayerTableRecord
  2
0
 70
     0
 62
     7
  6
Continuous
370
    -3
390
F
347
3E
  0
LAYER
  5
40
330
2
100
AcDbSymbolTableRecord
100
AcDbLayerTableRecord
  2
_U+30EC_U+30A4_U+30E4_U+30FC 1
 70
     0
 62
     7
  6
Continuous
370
    -3
390
F
347
3E
  0
ENDTAB
  0
TABLE
  2
STYLE
  5
3
330
0
100
AcDbSymbolTable
 70
     1
  0
STYLE
  5
11
330
3
100
AcDbSymbolTableRecord
100
AcDbTextStyleTableRecord
  2
Standard
 70
     0
 40
0.0
 41
1.0
 50
0.0
 71
     0
 42
0.2
  3
txt
  4

  0
ENDTAB
  0
TABLE
  2
VIEW
  5
6
330
0
100
AcDbSymbolTable
 70
     0
  0
ENDTAB
  0
TABLE
  2
UCS
  5
7
330
0
100
AcDbSymbolTable
 70
     0
  0
ENDTAB
  0
TABLE
  2
APPID
  5
9
330
0
100
AcDbSymbolTable
 70
     1
  0
APPID
  5
12
330
9
100
AcDbSymbolTableRecord
100
AcDbRegAppTableRecord
  2
ACAD
 70
     0
  0
ENDTAB
  0
TABLE
  2
DIMSTYLE
  5
A
330
0
100
AcDbSymbolTable
 70
     1
100
AcDbDimStyleTable
  0
DIMSTYLE
105
27
330
A
100
AcDbSymbolTableRecord
100
AcDbDimStyleTableRecord
  2
Standard
 70
     0
178
     0
340
11
  0
ENDTAB
  0
TABLE
  2
BLOCK_RECORD
  5
1
330
0
100
AcDbSymbolTable
 70
     5
  0
BLOCK_RECORD
  5
1F
330
1
100
AcDbSymbolTableRecord
100
AcDbBlockTableRecord
  2
*Model_Space
340
22
 70
     0
280
     1
281
     0
  0
BLOCK_RECORD
  5
1B
330
1
100
AcDbSymbolTableRecord
100
AcDbBlockTableRecord
  2
*Paper_Space
340
1E
 70
     0
280
     1
281
     0
  0
BLOCK_RECORD
  5
23
330
1
100
AcDbSymbolTableRecord
100
AcDbBlockTableRecord
  2
*Paper_Space0
340
26
 70
     0
280
     1
281
     0
  0
BLOCK_RECORD
  5
4D
330
1
100
AcDbSymbolTableRecord
100
AcDbBlockTableRecord
  2
block 2
340
0
102
{BLKREFS
331
4E
102
}
 70
     0
280
     1
281
     0
  0
BLOCK_RECORD
  5
65
330
1
100
AcDbSymbolTableRecord
100
AcDbBlockTableRecord
  2
block 3
340
0
102
{BLKREFS
331
66
102
}
 70
     0
280
     1
281
     0
  0
BLOCK_RECORD
  5
76
330
1
100
AcDbSymbolTableRecord
100
AcDbBlockTableRecord
  2
block 4
340
0
102
{BLKREFS
331
77
102
}
 70
     0
280
     1
281
     0
  0
BLOCK_RECORD
  5
8E
330
1
100
AcDbSymbolTableRecord
100
AcDbBlockTableRecord
  2
block 5
340
0
102
{BLKREFS
331
8F
102
}
 70
     0
280
     1
281
     0
  0
ENDTAB
  0
ENDSEC
  0
SECTION
  2
BLOCKS
  0
BLOCK
  5
20
330
1F
100
AcDbEntity
  8
0
100
AcDbBlockBegin
  2
*Model_Space
 70
     0
 10
0.0
 20
0.0
 30
0.0
  3
*Model_Space
  1

  0
ENDBLK
  5
21
330
1F
100
AcDbEntity
  8
0
100
AcDbBlockEnd
  0
BLOCK
  5
1C
330
1B
100
AcDbEntity
 67
     1
  8
0
100
AcDbBlockBegin
  2
*Paper_Space
 70
     0
 10
0.0
 20
0.0
 30
0.0
  3
*Paper_Space
  1

  0
ENDBLK
  5
1D
330
1B
100
AcDbEntity
 67
     1
  8
0
100
AcDbBlockEnd
  0
BLOCK
  5
24
330
23
100
AcDbEntity
  8
0
100
AcDbBlockBegin
  2
*Paper_Space0
 70
     0
 10
0.0
 20
0.0
 30
0.0
  3
*Paper_Space0
  1

  0
ENDBLK
  5
25
330
23
100
AcDbEntity
  8
0
100
AcDbBlockEnd
  0
BLOCK
  5
4F
330
4D
100
AcDbEntity
  8
0
100
AcDbBlockBegin
  2
block 2
 70
     0
 10
0.0
 20
0.0
 30
0.0
  3
block 2
  1

  0
SPLINE
  5
51
330
4D
100
AcDbEntity
  8
_U+30EC_U+30A4_U+30E4_U+30FC 1
370
     0
100
AcDbSpline
210
0.0
220
0.0
230
1.0
 70
    11
 71
     3
 72
    26
 73
    22
 74
     0
 42
0.0000000001
 43
0.0000000001
 12
1.0
 22
0.0
 32
0.0
 13
1.0
 23
0.0
 33
0.0
 40
0.0
 40
0.0
 40
0.0
 40
0.0
 40
1.0
 40
1.0
 40
1.0
 40
2.0
 40
2.0
 40
2.0
 40
3.0
 40
3.0
 40
3.0
 40
4.0
 40
4.0
 40
4.0
 40
5.0
 40
5.0
 40
5.0
 40
6.0
 40
6.0
 40
6.0
 40
7.0
 40
7.0
 40
7.0
 40
7.0
 10
36.48872883202365
 20
-131.2722628795083
 30
0.0
 10
36.48872883202365
 20
-131.2722628795083
 30
0.0
 10
35.38440347422681
 20
-131.2722628795083
 30
0.0
 10
35.38440347422681
 20
-131.2722628795083
 30
0.0
 10
35.38440347422681
 20
-131.2722628795083
 30
0.0
 10
35.38440347422681
 20
-131.6023030269953
 30
0.0
 10
35.38440347422681
 20
-131.6023030269953
 30
0.0
 10
35.38440347422681
 20
-131.6023030269953
 30
0.0
 10
35.23626436836108
 20
-131.6023030269953
 30
0.0
 10
35.23626436836108
 20
-131.6023030269953
 30
0.0
 10
35.22162271254876
 20
-131.2701958222172
 30
0.0
 10
35.05866969609644
 20
-131.2236870331663
 30
0.0
 10
34.94446478076041
 20
-131.1940592119932
 30
0.0
 10
34.94446478076041
 20
-131.1940592119932
 30
0.0
 10
34.94446478076041
 20
-131.0479871634186
 30
0.0
 10
34.94446478076041
 20
-131.0479871634186
 30
0.0
 10
34.94446478076041
 20
-131.0479871634186
 30
0.0
 10
36.48872883202365
 20
-131.0479871634186
 30
0.0
 10
36.48872883202365
 20
-131.0479871634186
 30
0.0
 10
36.48872883202365
 20
-131.0479871634186
 30
0.0
 10
36.48872883202365
 20
-131.2722628795083
 30
0.0
 10
36.48872883202365
 20
-131.2722628795083
 30
0.0
  0
HATCH
  5
52
330
4D
100
AcDbEntity
  8
_U+30EC_U+30A4_U+30E4_U+30FC 1
 62
     7
420
 16777215
100
AcDbHatch
 10
0.0
 20
0.0
 30
0.0
210
0.0
220
0.0
230
1.0
  2
SOLID
 70
     1
 71
     0
 91
        1
 92
        1
 93
        1
 72
     4
 94
        3
 73
     0
 74
     1
 95
       26
 96
       22
 40
0.0
 40
0.0
 40
0.0
 40
0.0
 40
1.0
 40
1.0
 40
1.0
 40
2.0
 40
2.0
 40
2.0
 40
3.0
 40
3.0
 40
3.0
 40
4.0
 40
4.0
 40
4.0
 40
5.0
 40
5.0
 40
5.0
 40
6.0
 40
6.0
 40
6.0
 40
7.0
 40
7.0
 40
7.0
 40
7.0
 10
36.48872883202365
 20
-131.2722628795083
 10
36.48872883202365
 20
-131.2722628795083
 10
35.38440347422681
 20
-131.2722628795083
 10
35.38440347422681
 20
-131.2722628795083
 10
35.38440347422681
 20
-131.2722628795083
 10
35.38440347422681
 20
-131.6023030269953
 10
35.38440347422681
 20
-131.6023030269953
 10
35.38440347422681
 20
-131.6023030269953
 10
35.23626436836108
 20
-131.6023030269953
 10
35.23626436836108
 20
-131.6023030269953
 10
35.22162271254876
 20
-131.2701958222172
 10
35.05866969609644
 20
-131.2236870331663
 10
34.94446478076041
 20
-131.1940592119932
 10
34.94446478076041
 20
-131.1940592119932
 10
34.94446478076041
 20
-131.0479871634186
 10
34.94446478076041
 20
-131.0479871634186
 10
34.94446478076041
 20
-131.0479871634186
 10
36.48872883202365
 20
-131.0479871634186
 10
36.48872883202365
 20
-131.0479871634186
 10
36.48872883202365
 20
-131.0479871634186
 10
36.48872883202365
 20
-131.2722628795083
 10
36.48872883202365
 20
-131.2722628795083
 97
        0
 97
        0
 75
     2
 76
     1
 98
        0
  0
SPLINE
  5
53
330
4D
100
AcDbEntity
  8
_U+30EC_U+30A4_U+30E4_U+30FC 1
370
     0
100
AcDbSpline
210
0.0
220
0.0
230
1.0
 70
    11
 71
     3
 72
    29
 73
    25
 74
     0
 42
0.0000000001
 43
0.0000000001
 12
1.0
 22
0.0
 32
0.0
 13
1.0
 23
0.0
 33
0.0
 40
0.0
 40
0.0
 40
0.0
 40
0.0
 40
1.0
 40
1.0
 40
1.0
 40
2.0
 40
2.0
 40
2.0
 40
3.0
 40
3.0
 40
3.0
 40
4.0
 40
4.0
 40
4.0
 40
5.0
 40
5.0
 40
5.0
 40
6.0
 40
6.0
 40
6.0
 40
7.0
 40
7.0
 40
7.0
 40
8.0
 40
8.0
 40
8.0
 40
8.0
 10
36.31096190498476
 20
-129.6489338868586
 30
0.0
 10
36.52042371048795
 20
-129.7571098850954
 30
0.0
 10
36.53954399043108
 20
-129.9303981880035
 30
0.0
 10
36.53954399043108
 20
-130.046842415405
 30
0.0
 10
36.53954399043108
 20
-130.2077283745661
 30
0.0
 10
36.49303520138022
 20
-130.3493217990099
 30
0.0
 10
36.31096190498476
 20
-130.4444064344028
 30
0.0
 10
36.11648626484241
 20
-130.5481038085088
 30
0.0
 10
35.87946369545722
 20
-130.5670518336777
 30
0.0
 10
35.71651067900491
 20
-130.5670518336777
 30
0.0
 10
35.57267794249572
 20
-130.5670518336777
 30
0.0
 10
35.32101371729822
 20
-130.5501708658
 30
0.0
 10
35.12205945302505
 20
-130.4444064344028
 30
0.0
 10
34.91897107416956
 20
-130.3365749457145
 30
0.0
 10
34.89571667964413
 20
-130.1756889865533
 30
0.0
 10
34.89571667964413
 20
-130.046842415405
 30
0.0
 10
34.89571667964413
 20
-129.8880235135349
 30
0.0
 10
34.94015841140385
 20
-129.7443630318
 30
0.0
 10
35.12205945302505
 20
-129.6489338868586
 30
0.0
 10
35.31464029065051
 20
-129.5497151368834
 30
0.0
 10
35.54305012132257
 20
-129.5262884875837
 30
0.0
 10
35.71651067900491
 20
-129.5262884875837
 30
0.0
 10
35.88790417939608
 20
-129.5262884875837
 30
0.0
 10
36.11855332213356
 20
-129.5476480795922
 30
0.0
 10
36.31096190498476
 20
-129.6489338868586
 30
0.0
  0
SPLINE
  5
54
330
4D
100
AcDbEntity
  8
_U+30EC_U+30A4_U+30E4_U+30FC 1
370
     0
100
AcDbSpline
210
0.0
220
0.0
230
1.0
 70
    11
 71
     3
 72
    17
 73
    13
 74
     0
 42
0.0000000001
 43
0.0000000001
 12
1.0
 22
0.0
 32
0.0
 13
1.0
 23
0.0
 33
0.0
 40
0.0
 40
0.0
 40
0.0
 40
0.0
 40
1.0
 40
1.0
 40
1.0
 40
2.0
 40
2.0
 40
2.0
 40
3.0
 40
3.0
 40
3.0
 40
4.0
 40
4.0
 40
4.0
 40
4.0
 10
35.0882975172696
 20
-130.046842415405
 30
0.0
 10
35.0882975172696
 20
-130.2962673285371
 30
0.0
 10
35.37165662093139
 20
-130.3431206271364
 30
0.0
 10
35.71651067900491
 20
-130.3431206271364
 30
0.0
 10
36.03604328526183
 20
-130.3431206271364
 30
0.0
 10
36.34489609551447
 20
-130.3069471245413
 30
0.0
 10
36.34489609551447
 20
-130.046842415405
 30
0.0
 10
36.34489609551447
 20
-129.7991400500155
 30
0.0
 10
36.06343179436956
 20
-129.7505642036735
 30
0.0
 10
35.71651067900491
 20
-129.7505642036735
 30
0.0
 10
35.39715032752224
 20
-129.7505642036735
 30
0.0
 10
35.0882975172696
 20
-129.7888047635597
 30
0.0
 10
35.0882975172696
 20
-130.046842415405
 30
0.0
  0
HATCH
  5
55
330
4D
100
AcDbEntity
  8
_U+30EC_U+30A4_U+30E4_U+30FC 1
 62
     7
420
 16777215
100
AcDbHatch
 10
0.0
 20
0.0
 30
0.0
210
0.0
220
0.0
230
1.0
  2
SOLID
 70
     1
 71
     0
 91
        2
 92
        1
 93
        1
 72
     4
 94
        3
 73
     0
 74
     1
 95
       29
 96
       25
 40
0.0
 40
0.0
 40
0.0
 40
0.0
 40
1.0
 40
1.0
 40
1.0
 40
2.0
 40
2.0
 40
2.0
 40
3.0
 40
3.0
 40
3.0
 40
4.0
 40
4.0
 40
4.0
 40
5.0
 40
5.0
 40
5.0
 40
6.0
 40
6.0
 40
6.0
 40
7.0
 40
7.0
 40
7.0
 40
8.0
 40
8.0
 40
8.0
 40
8.0
 10
36.31096190498476
 20
-129.6489338868586
 10
36.52042371048795
 20
-129.7571098850954
 10
36.53954399043108
 20
-129.9303981880035
 10
36.53954399043108
 20
-130.046842415405
 10
36.53954399043108
 20
-130.2077283745661
 10
36.49303520138022
 20
-130.3493217990099
 10
36.31096190498476
 20
-130.4444064344028
 10
36.11648626484241
 20
-130.5481038085088
 10
35.87946369545722
 20
-130.5670518336777
 10
35.71651067900491
 20
-130.5670518336777
 10
35.57267794249572
 20
-130.5670518336777
 10
35.32101371729822
 20
-130.5501708658
 10
35.12205945302505
 20
-130.4444064344028
 10
34.91897107416956
 20
-130.3365749457145
 10
34.89571667964413
 20
-130.1756889865533
 10
34.89571667964413
 20
-130.046842415405
 10
34.89571667964413
 20
-129.8880235135349
 10
34.94015841140385
 20
-129.7443630318
 10
35.12205945302505
 20
-129.6489338868586
 10
35.31464029065051
 20
-129.5497151368834
 10
35.54305012132257
 20
-129.5262884875837
 10
35.71651067900491
 20
-129.5262884875837
 10
35.88790417939608
 20
-129.5262884875837
 10
36.11855332213356
 20
-129.5476480795922
 10
36.31096190498476
 20
-129.6489338868586
 97
        0
 97
        0
 92
        1
 93
        1
 72
     4
 94
        3
 73
     0
 74
     1
 95
       17
 96
       13
 40
0.0
 40
0.0
 40
0.0
 40
0.0
 40
1.0
 40
1.0
 40
1.0
 40
2.0
 40
2.0
 40
2.0
 40
3.0
 40
3.0
 40
3.0
 40
4.0
 40
4.0
 40
4.0
 40
4.0
 10
35.0882975172696
 20
-130.046842415405
 10
35.0882975172696
 20
-130.2962673285371
 10
35.37165662093139
 20
-130.3431206271364
 10
35.71651067900491
 20
-130.3431206271364
 10
36.03604328526183
 20
-130.3431206271364
 10
36.34489609551447
 20
-130.3069471245413
 10
36.34489609551447
 20
-130.046842415405
 10
36.34489609551447
 20
-129.7991400500155
 10
36.06343179436956
 20
-129.7505642036735
 10
35.71651067900491
 20
-129.7505642036735
 10
35.39715032752224
 20
-129.7505642036735
 10
35.0882975172696
 20
-129.7888047635597
 10
35.0882975172696
 20
-130.046842415405
 97
        0
 97
        0
 75
     2
 76
     1
 98
        0
  0
SPLINE
  5
56
330
4D
100
AcDbEntity
  8
_U+30EC_U+30A4_U+30E4_U+30FC 1
370
     0
100
AcDbSpline
210
0.0
220
0.0
230
1.0
 70
    11
 71
     3
 72
    29
 73
    25
 74
     0
 42
0.0000000001
 43
0.0000000001
 12
1.0
 22
0.0
 32
0.0
 13
1.0
 23
0.0
 33
0.0
 40
0.0
 40
0.0
 40
0.0
 40
0.0
 40
1.0
 40
1.0
 40
1.0
 40
2.0
 40
2.0
 40
2.0
 40
3.0
 40
3.0
 40
3.0
 40
4.0
 40
4.0
 40
4.0
 40
5.0
 40
5.0
 40
5.0
 40
6.0
 40
6.0
 40
6.0
 40
7.0
 40
7.0
 40
7.0
 40
8.0
 40
8.0
 40
8.0
 40
8.0
 10
36.31096190498476
 20
-128.4720892690973
 30
0.0
 10
36.52042371048795
 20
-128.5802652673341
 30
0.0
 10
36.53954399043108
 20
-128.7535535702422
 30
0.0
 10
36.53954399043108
 20
-128.8699977976436
 30
0.0
 10
36.53954399043108
 20
-129.0308837568048
 30
0.0
 10
36.49303520138022
 20
-129.1724771812486
 30
0.0
 10
36.31096190498476
 20
-129.2675618166415
 30
0.0
 10
36.11648626484241
 20
-129.3712591907475
 30
0.0
 10
35.87946369545722
 20
-129.3902072159163
 30
0.0
 10
35.71651067900491
 20
-129.3902072159163
 30
0.0
 10
35.57267794249572
 20
-129.3902072159163
 30
0.0
 10
35.32101371729822
 20
-129.3733262480386
 30
0.0
 10
35.12205945302505
 20
-129.2675618166415
 30
0.0
 10
34.91897107416956
 20
-129.1597303279531
 30
0.0
 10
34.89571667964413
 20
-128.998844368792
 30
0.0
 10
34.89571667964413
 20
-128.8699977976436
 30
0.0
 10
34.89571667964413
 20
-128.7111788957736
 30
0.0
 10
34.94015841140385
 20
-128.5675184140387
 30
0.0
 10
35.12205945302505
 20
-128.4720892690973
 30
0.0
 10
35.31464029065051
 20
-128.3728705191221
 30
0.0
 10
35.54305012132257
 20
-128.3494438698224
 30
0.0
 10
35.71651067900491
 20
-128.3494438698224
 30
0.0
 10
35.88790417939608
 20
-128.3494438698224
 30
0.0
 10
36.11855332213356
 20
-128.3708034618309
 30
0.0
 10
36.31096190498476
 20
-128.4720892690973
 30
0.0
  0
SPLINE
  5
57
330
4D
100
AcDbEntity
  8
_U+30EC_U+30A4_U+30E4_U+30FC 1
370
     0
100
AcDbSpline
210
0.0
220
0.0
230
1.0
 70
    11
 71
     3
 72
    17
 73
    13
 74
     0
 42
0.0000000001
 43
0.0000000001
 12
1.0
 22
0.0
 32
0.0
 13
1.0
 23
0.0
 33
0.0
 40
0.0
 40
0.0
 40
0.0
 40
0.0
 40
1.0
 40
1.0
 40
1.0
 40
2.0
 40
2.0
 40
2.0
 40
3.0
 40
3.0
 40
3.0
 40
4.0
 40
4.0
 40
4.0
 40
4.0
 10
35.0882975172696
 20
-128.8699977976436
 30
0.0
 10
35.0882975172696
 20
-129.1194227107757
 30
0.0
 10
35.37165662093139
 20
-129.1662760093751
 30
0.0
 10
35.71651067900491
 20
-129.1662760093751
 30
0.0
 10
36.03604328526183
 20
-129.1662760093751
 30
0.0
 10
36.34489609551447
 20
-129.13010250678
 30
0.0
 10
36.34489609551447
 20
-128.8699977976436
 30
0.0
 10
36.34489609551447
 20
-128.6222954322542
 30
0.0
 10
36.06343179436956
 20
-128.5737195859121
 30
0.0
 10
35.71651067900491
 20
-128.5737195859121
 30
0.0
 10
35.39715032752224
 20
-128.5737195859121
 30
0.0
 10
35.0882975172696
 20
-128.6119601457984
 30
0.0
 10
35.0882975172696
 20
-128.8699977976436
 30
0.0
  0
HATCH
  5
58
330
4D
100
AcDbEntity
  8
_U+30EC_U+30A4_U+30E4_U+30FC 1
 62
     7
420
 16777215
100
AcDbHatch
 10
0.0
 20
0.0
 30
0.0
210
0.0
220
0.0
230
1.0
  2
SOLID
 70
     1
 71
     0
 91
        2
 92
        1
 93
        1
 72
     4
 94
        3
 73
     0
 74
     1
 95
       29
 96
       25
 40
0.0
 40
0.0
 40
0.0
 40
0.0
 40
1.0
 40
1.0
 40
1.0
 40
2.0
 40
2.0
 40
2.0
 40
3.0
 40
3.0
 40
3.0
 40
4.0
 40
4.0
 40
4.0
 40
5.0
 40
5.0
 40
5.0
 40
6.0
 40
6.0
 40
6.0
 40
7.0
 40
7.0
 40
7.0
 40
8.0
 40
8.0
 40
8.0
 40
8.0
 10
36.31096190498476
 20
-128.4720892690973
 10
36.52042371048795
 20
-128.5802652673341
 10
36.53954399043108
 20
-128.7535535702422
 10
36.53954399043108
 20
-128.8699977976436
 10
36.53954399043108
 20
-129.0308837568048
 10
36.49303520138022
 20
-129.1724771812486
 10
36.31096190498476
 20
-129.2675618166415
 10
36.11648626484241
 20
-129.3712591907475
 10
35.87946369545722
 20
-129.3902072159163
 10
35.71651067900491
 20
-129.3902072159163
 10
35.57267794249572
 20
-129.3902072159163
 10
35.32101371729822
 20
-129.3733262480386
 10
35.12205945302505
 20
-129.2675618166415
 10
34.91897107416956
 20
-129.1597303279531
 10
34.89571667964413
 20
-128.998844368792
 10
34.89571667964413
 20
-128.8699977976436
 10
34.89571667964413
 20
-128.7111788957736
 10
34.94015841140385
 20
-128.5675184140387
 10
35.12205945302505
 20
-128.4720892690973
 10
35.31464029065051
 20
-128.3728705191221
 10
35.54305012132257
 20
-128.3494438698224
 10
35.71651067900491
 20
-128.3494438698224
 10
35.88790417939608
 20
-128.3494438698224
 10
36.11855332213356
 20
-128.3708034618309
 10
36.31096190498476
 20
-128.4720892690973
 97
        0
 97
        0
 92
        1
 93
        1
 72
     4
 94
        3
 73
     0
 74
     1
 95
       17
 96
       13
 40
0.0
 40
0.0
 40
0.0
 40
0.0
 40
1.0
 40
1.0
 40
1.0
 40
2.0
 40
2.0
 40
2.0
 40
3.0
 40
3.0
 40
3.0
 40
4.0
 40
4.0
 40
4.0
 40
4.0
 10
35.0882975172696
 20
-128.8699977976436
 10
35.0882975172696
 20
-129.1194227107757
 10
35.37165662093139
 20
-129.1662760093751
 10
35.71651067900491
 20
-129.1662760093751
 10
36.03604328526183
 20
-129.1662760093751
 10
36.34489609551447
 20
-129.13010250678
 10
36.34489609551447
 20
-128.8699977976436
 10
36.34489609551447
 20
-128.6222954322542
 10
36.06343179436956
 20
-128.5737195859121
 10
35.71651067900491
 20
-128.5737195859121
 10
35.39715032752224
 20
-128.5737195859121
 10
35.0882975172696
 20
-128.6119601457984
 10
35.0882975172696
 20
-128.8699977976436
 97
        0
 97
        0
 75
     2
 76
     1
 98
        0
  0
ENDBLK
  5
50
330
4D
100
AcDbEntity
  8
0
100
AcDbBlockEnd
  0
BLOCK
  5
67
330
65
100
AcDbEntity
  8
0
100
AcDbBlockBegin
  2
block 3
 70
     0
 10
0.0
 20
0.0
 30
0.0
  3
block 3
  1

  0
SPLINE
  5
69
330
65
100
AcDbEntity
  8
_U+30EC_U+30A4_U+30E4_U+30FC 1
370
     0
100
AcDbSpline
210
0.0
220
0.0
230
1.0
 70
    11
 71
     3
 72
    44
 73
    40
 74
     0
 42
0.0000000001
 43
0.0000000001
 12
1.0
 22
0.0
 32
0.0
 13
1.0
 23
0.0
 33
0.0
 40
0.0
 40
0.0
 40
0.0
 40
0.0
 40
1.0
 40
1.0
 40
1.0
 40
2.0
 40
2.0
 40
2.0
 40
3.0
 40
3.0
 40
3.0
 40
4.0
 40
4.0
 40
4.0
 40
5.0
 40
5.0
 40
5.0
 40
6.0
 40
6.0
 40
6.0
 40
7.0
 40
7.0
 40
7.0
 40
8.0
 40
8.0
 40
8.0
 40
9.0
 40
9.0
 40
9.0
 40
10.0
 40
10.0
 40
10.0
 40
11.0
 40
11.0
 40
11.0
 40
12.0
 40
12.0
 40
12.0
 40
13.0
 40
13.0
 40
13.0
 40
13.0
 10
36.47270913801724
 20
-186.114393399652
 30
0.0
 10
36.44928248871754
 20
-186.0699516678922
 30
0.0
 10
36.42826740625752
 20
-186.0172417069679
 30
0.0
 10
36.42602809419211
 20
-185.7864203094562
 30
0.0
 10
36.42189397960981
 20
-185.5431965681975
 30
0.0
 10
36.36263833726351
 20
-185.473261129847
 30
0.0
 10
36.18487141022462
 20
-185.473261129847
 30
0.0
 10
36.18487141022462
 20
-185.473261129847
 30
0.0
 10
35.77662759522251
 20
-185.473261129847
 30
0.0
 10
35.77662759522251
 20
-185.473261129847
 30
0.0
 10
35.77662759522251
 20
-185.473261129847
 30
0.0
 10
35.77662759522251
 20
-186.114393399652
 30
0.0
 10
35.77662759522251
 20
-186.114393399652
 30
0.0
 10
35.77662759522251
 20
-186.114393399652
 30
0.0
 10
35.54184433790274
 20
-186.114393399652
 30
0.0
 10
35.54184433790274
 20
-186.114393399652
 30
0.0
 10
35.54184433790274
 20
-186.114393399652
 30
0.0
 10
35.54184433790274
 20
-184.5699570936145
 30
0.0
 10
35.54184433790274
 20
-184.5699570936145
 30
0.0
 10
35.54184433790274
 20
-184.5699570936145
 30
0.0
 10
36.21673854346318
 20
-184.5699570936145
 30
0.0
 10
36.21673854346318
 20
-184.5699570936145
 30
0.0
 10
36.52335204165041
 20
-184.5699570936145
 30
0.0
 10
36.69043917268503
 20
-184.7415228487799
 30
0.0
 10
36.69043917268503
 20
-184.997493443334
 30
0.0
 10
36.69043917268503
 20
-185.0481363469671
 30
0.0
 10
36.68199868874617
 20
-185.1308186386131
 30
0.0
 10
36.63755695698644
 20
-185.2110893634195
 30
0.0
 10
36.57847356941441
 20
-185.3147867375255
 30
0.0
 10
36.5128445004204
 20
-185.3337347626943
 30
0.0
 10
36.45152180078296
 20
-185.3506157305721
 30
0.0
 10
36.58898111064443
 20
-185.3929904050406
 30
0.0
 10
36.65667723692958
 20
-185.4415662513827
 30
0.0
 10
36.66098360628614
 20
-185.756792488283
 30
0.0
 10
36.66511772086844
 20
-186.0275769934237
 30
0.0
 10
36.70111896868931
 20
-186.059271871888
 30
0.0
 10
36.76881509497446
 20
-186.114393399652
 30
0.0
 10
36.76881509497446
 20
-186.114393399652
 30
0.0
 10
36.47270913801724
 20
-186.114393399652
 30
0.0
 10
36.47270913801724
 20
-186.114393399652
 30
0.0
  0
SPLINE
  5
6A
330
65
100
AcDbEntity
  8
_U+30EC_U+30A4_U+30E4_U+30FC 1
370
     0
100
AcDbSpline
210
0.0
220
0.0
230
1.0
 70
    11
 71
     3
 72
    20
 73
    16
 74
     0
 42
0.0000000001
 43
0.0000000001
 12
1.0
 22
0.0
 32
0.0
 13
1.0
 23
0.0
 33
0.0
 40
0.0
 40
0.0
 40
0.0
 40
0.0
 40
1.0
 40
1.0
 40
1.0
 40
2.0
 40
2.0
 40
2.0
 40
3.0
 40
3.0
 40
3.0
 40
4.0
 40
4.0
 40
4.0
 40
5.0
 40
5.0
 40
5.0
 40
5.0
 10
36.22087265804548
 20
-184.7814859564088
 30
0.0
 10
36.22087265804548
 20
-184.7814859564088
 30
0.0
 10
35.77662759522251
 20
-184.7814859564088
 30
0.0
 10
35.77662759522251
 20
-184.7814859564088
 30
0.0
 10
35.77662759522251
 20
-184.7814859564088
 30
0.0
 10
35.77662759522251
 20
-185.2617322670526
 30
0.0
 10
35.77662759522251
 20
-185.2617322670526
 30
0.0
 10
35.77662759522251
 20
-185.2617322670526
 30
0.0
 10
36.21880560075433
 20
-185.2617322670526
 30
0.0
 10
36.21880560075433
 20
-185.2617322670526
 30
0.0
 10
36.31819660550379
 20
-185.2617322670526
 30
0.0
 10
36.45358885807411
 20
-185.1855956568286
 30
0.0
 10
36.45358885807411
 20
-185.0143744112117
 30
0.0
 10
36.45358885807411
 20
-184.9361707436965
 30
0.0
 10
36.41965466754439
 20
-184.7814859564088
 30
0.0
 10
36.22087265804548
 20
-184.7814859564088
 30
0.0
  0
HATCH
  5
6B
330
65
100
AcDbEntity
  8
_U+30EC_U+30A4_U+30E4_U+30FC 1
 62
     7
420
 16777215
100
AcDbHatch
 10
0.0
 20
0.0
 30
0.0
210
0.0
220
0.0
230
1.0
  2
SOLID
 70
     1
 71
     0
 91
        2
 92
        1
 93
        1
 72
     4
 94
        3
 73
     0
 74
     1
 95
       44
 96
       40
 40
0.0
 40
0.0
 40
0.0
 40
0.0
 40
1.0
 40
1.0
 40
1.0
 40
2.0
 40
2.0
 40
2.0
 40
3.0
 40
3.0
 40
3.0
 40
4.0
 40
4.0
 40
4.0
 40
5.0
 40
5.0
 40
5.0
 40
6.0
 40
6.0
 40
6.0
 40
7.0
 40
7.0
 40
7.0
 40
8.0
 40
8.0
 40
8.0
 40
9.0
 40
9.0
 40
9.0
 40
10.0
 40
10.0
 40
10.0
 40
11.0
 40
11.0
 40
11.0
 40
12.0
 40
12.0
 40
12.0
 40
13.0
 40
13.0
 40
13.0
 40
13.0
 10
36.47270913801724
 20
-186.114393399652
 10
36.44928248871754
 20
-186.0699516678922
 10
36.42826740625752
 20
-186.0172417069679
 10
36.42602809419211
 20
-185.7864203094562
 10
36.42189397960981
 20
-185.5431965681975
 10
36.36263833726351
 20
-185.473261129847
 10
36.18487141022462
 20
-185.473261129847
 10
36.18487141022462
 20
-185.473261129847
 10
35.77662759522251
 20
-185.473261129847
 10
35.77662759522251
 20
-185.473261129847
 10
35.77662759522251
 20
-185.473261129847
 10
35.77662759522251
 20
-186.114393399652
 10
35.77662759522251
 20
-186.114393399652
 10
35.77662759522251
 20
-186.114393399652
 10
35.54184433790274
 20
-186.114393399652
 10
35.54184433790274
 20
-186.114393399652
 10
35.54184433790274
 20
-186.114393399652
 10
35.54184433790274
 20
-184.5699570936145
 10
35.54184433790274
 20
-184.5699570936145
 10
35.54184433790274
 20
-184.5699570936145
 10
36.21673854346318
 20
-184.5699570936145
 10
36.21673854346318
 20
-184.5699570936145
 10
36.52335204165041
 20
-184.5699570936145
 10
36.69043917268503
 20
-184.7415228487799
 10
36.69043917268503
 20
-184.997493443334
 10
36.69043917268503
 20
-185.0481363469671
 10
36.68199868874617
 20
-185.1308186386131
 10
36.63755695698644
 20
-185.2110893634195
 10
36.57847356941441
 20
-185.3147867375255
 10
36.5128445004204
 20
-185.3337347626943
 10
36.45152180078296
 20
-185.3506157305721
 10
36.58898111064443
 20
-185.3929904050406
 10
36.65667723692958
 20
-185.4415662513827
 10
36.66098360628614
 20
-185.756792488283
 10
36.66511772086844
 20
-186.0275769934237
 10
36.70111896868931
 20
-186.059271871888
 10
36.76881509497446
 20
-186.114393399652
 10
36.76881509497446
 20
-186.114393399652
 10
36.47270913801724
 20
-186.114393399652
 10
36.47270913801724
 20
-186.114393399652
 97
        0
 97
        0
 92
        1
 93
        1
 72
     4
 94
        3
 73
     0
 74
     1
 95
       20
 96
       16
 40
0.0
 40
0.0
 40
0.0
 40
0.0
 40
1.0
 40
1.0
 40
1.0
 40
2.0
 40
2.0
 40
2.0
 40
3.0
 40
3.0
 40
3.0
 40
4.0
 40
4.0
 40
4.0
 40
5.0
 40
5.0
 40
5.0
 40
5.0
 10
36.22087265804548
 20
-184.7814859564088
 10
36.22087265804548
 20
-184.7814859564088
 10
35.77662759522251
 20
-184.7814859564088
 10
35.77662759522251
 20
-184.7814859564088
 10
35.77662759522251
 20
-184.7814859564088
 10
35.77662759522251
 20
-185.2617322670526
 10
35.77662759522251
 20
-185.2617322670526
 10
35.77662759522251
 20
-185.2617322670526
 10
36.21880560075433
 20
-185.2617322670526
 10
36.21880560075433
 20
-185.2617322670526
 10
36.31819660550379
 20
-185.2617322670526
 10
36.45358885807411
 20
-185.1855956568286
 10
36.45358885807411
 20
-185.0143744112117
 10
36.45358885807411
 20
-184.9361707436965
 10
36.41965466754439
 20
-184.7814859564088
 10
36.22087265804548
 20
-184.7814859564088
 97
        0
 97
        0
 75
     2
 76
     1
 98
        0
  0
SPLINE
  5
6C
330
65
100
AcDbEntity
  8
_U+30EC_U+30A4_U+30E4_U+30FC 1
370
     0
100
AcDbSpline
210
0.0
220
0.0
230
1.0
 70
    11
 71
     3
 72
    26
 73
    22
 74
     0
 42
0.0000000001
 43
0.0000000001
 12
1.0
 22
0.0
 32
0.0
 13
1.0
 23
0.0
 33
0.0
 40
0.0
 40
0.0
 40
0.0
 40
0.0
 40
1.0
 40
1.0
 40
1.0
 40
2.0
 40
2.0
 40
2.0
 40
3.0
 40
3.0
 40
3.0
 40
4.0
 40
4.0
 40
4.0
 40
5.0
 40
5.0
 40
5.0
 40
6.0
 40
6.0
 40
6.0
 40
7.0
 40
7.0
 40
7.0
 40
7.0
 10
37.35982122546908
 20
-186.114393399652
 30
0.0
 10
37.35982122546908
 20
-186.114393399652
 30
0.0
 10
37.35982122546908
 20
-185.0102402966294
 30
0.0
 10
37.35982122546908
 20
-185.0102402966294
 30
0.0
 10
37.35982122546908
 20
-185.0102402966294
 30
0.0
 10
37.02978107798214
 20
-185.0102402966294
 30
0.0
 10
37.02978107798214
 20
-185.0102402966294
 30
0.0
 10
37.02978107798214
 20
-185.0102402966294
 30
0.0
 10
37.02978107798214
 20
-184.8621011907636
 30
0.0
 10
37.02978107798214
 20
-184.8621011907636
 30
0.0
 10
37.36188828276023
 20
-184.8472872801771
 30
0.0
 10
37.40839707181109
 20
-184.6843342637248
 30
0.0
 10
37.43802489298425
 20
-184.5699570936145
 30
0.0
 10
37.43802489298425
 20
-184.5699570936145
 30
0.0
 10
37.58409694155884
 20
-184.5699570936145
 30
0.0
 10
37.58409694155884
 20
-184.5699570936145
 30
0.0
 10
37.58409694155884
 20
-184.5699570936145
 30
0.0
 10
37.58409694155884
 20
-186.114393399652
 30
0.0
 10
37.58409694155884
 20
-186.114393399652
 30
0.0
 10
37.58409694155884
 20
-186.114393399652
 30
0.0
 10
37.35982122546908
 20
-186.114393399652
 30
0.0
 10
37.35982122546908
 20
-186.114393399652
 30
0.0
  0
HATCH
  5
6D
330
65
100
AcDbEntity
  8
_U+30EC_U+30A4_U+30E4_U+30FC 1
 62
     7
420
 16777215
100
AcDbHatch
 10
0.0
 20
0.0
 30
0.0
210
0.0
220
0.0
230
1.0
  2
SOLID
 70
     1
 71
     0
 91
        1
 92
        1
 93
        1
 72
     4
 94
        3
 73
     0
 74
     1
 95
       26
 96
       22
 40
0.0
 40
0.0
 40
0.0
 40
0.0
 40
1.0
 40
1.0
 40
1.0
 40
2.0
 40
2.0
 40
2.0
 40
3.0
 40
3.0
 40
3.0
 40
4.0
 40
4.0
 40
4.0
 40
5.0
 40
5.0
 40
5.0
 40
6.0
 40
6.0
 40
6.0
 40
7.0
 40
7.0
 40
7.0
 40
7.0
 10
37.35982122546908
 20
-186.114393399652
 10
37.35982122546908
 20
-186.114393399652
 10
37.35982122546908
 20
-185.0102402966294
 10
37.35982122546908
 20
-185.0102402966294
 10
37.35982122546908
 20
-185.0102402966294
 10
37.02978107798214
 20
-185.0102402966294
 10
37.02978107798214
 20
-185.0102402966294
 10
37.02978107798214
 20
-185.0102402966294
 10
37.02978107798214
 20
-184.8621011907636
 10
37.02978107798214
 20
-184.8621011907636
 10
37.36188828276023
 20
-184.8472872801771
 10
37.40839707181109
 20
-184.6843342637248
 10
37.43802489298425
 20
-184.5699570936145
 10
37.43802489298425
 20
-184.5699570936145
 10
37.58409694155884
 20
-184.5699570936145
 10
37.58409694155884
 20
-184.5699570936145
 10
37.58409694155884
 20
-184.5699570936145
 10
37.58409694155884
 20
-186.114393399652
 10
37.58409694155884
 20
-186.114393399652
 10
37.58409694155884
 20
-186.114393399652
 10
37.35982122546908
 20
-186.114393399652
 10
37.35982122546908
 20
-186.114393399652
 97
        0
 97
        0
 75
     2
 76
     1
 98
        0
  0
ENDBLK
  5
68
330
65
100
AcDbEntity
  8
0
100
AcDbBlockEnd
  0
BLOCK
  5
78
330
76
100
AcDbEntity
  8
0
100
AcDbBlockBegin
  2
block 4
 70
     0
 10
0.0
 20
0.0
 30
0.0
  3
block 4
  1

  0
SPLINE
  5
7A
330
76
100
AcDbEntity
  8
_U+30EC_U+30A4_U+30E4_U+30FC 1
370
     0
100
AcDbSpline
210
0.0
220
0.0
230
1.0
 70
    11
 71
     3
 72
    26
 73
    22
 74
     0
 42
0.0000000001
 43
0.0000000001
 12
1.0
 22
0.0
 32
0.0
 13
1.0
 23
0.0
 33
0.0
 40
0.0
 40
0.0
 40
0.0
 40
0.0
 40
1.0
 40
1.0
 40
1.0
 40
2.0
 40
2.0
 40
2.0
 40
3.0
 40
3.0
 40
3.0
 40
4.0
 40
4.0
 40
4.0
 40
5.0
 40
5.0
 40
5.0
 40
6.0
 40
6.0
 40
6.0
 40
7.0
 40
7.0
 40
7.0
 40
7.0
 10
147.3363986176798
 20
-177.3755641917672
 30
0.0
 10
147.3363986176798
 20
-177.3755641917672
 30
0.0
 10
146.2322455146572
 20
-177.3755641917672
 30
0.0
 10
146.2322455146572
 20
-177.3755641917672
 30
0.0
 10
146.2322455146572
 20
-177.3755641917672
 30
0.0
 10
146.2322455146572
 20
-177.7056043392542
 30
0.0
 10
146.2322455146572
 20
-177.7056043392542
 30
0.0
 10
146.2322455146572
 20
-177.7056043392542
 30
0.0
 10
146.0841064087915
 20
-177.7056043392542
 30
0.0
 10
146.0841064087915
 20
-177.7056043392542
 30
0.0
 10
146.0692924982049
 20
-177.3734971344761
 30
0.0
 10
145.9063394817526
 20
-177.3269883454252
 30
0.0
 10
145.7919623116423
 20
-177.2973605242521
 30
0.0
 10
145.7919623116423
 20
-177.2973605242521
 30
0.0
 10
145.7919623116423
 20
-177.1512884756775
 30
0.0
 10
145.7919623116423
 20
-177.1512884756775
 30
0.0
 10
145.7919623116423
 20
-177.1512884756775
 30
0.0
 10
147.3363986176798
 20
-177.1512884756775
 30
0.0
 10
147.3363986176798
 20
-177.1512884756775
 30
0.0
 10
147.3363986176798
 20
-177.1512884756775
 30
0.0
 10
147.3363986176798
 20
-177.3755641917672
 30
0.0
 10
147.3363986176798
 20
-177.3755641917672
 30
0.0
  0
HATCH
  5
7B
330
76
100
AcDbEntity
  8
_U+30EC_U+30A4_U+30E4_U+30FC 1
 62
     7
420
 16777215
100
AcDbHatch
 10
0.0
 20
0.0
 30
0.0
210
0.0
220
0.0
230
1.0
  2
SOLID
 70
     1
 71
     0
 91
        1
 92
        1
 93
        1
 72
     4
 94
        3
 73
     0
 74
     1
 95
       26
 96
       22
 40
0.0
 40
0.0
 40
0.0
 40
0.0
 40
1.0
 40
1.0
 40
1.0
 40
2.0
 40
2.0
 40
2.0
 40
3.0
 40
3.0
 40
3.0
 40
4.0
 40
4.0
 40
4.0
 40
5.0
 40
5.0
 40
5.0
 40
6.0
 40
6.0
 40
6.0
 40
7.0
 40
7.0
 40
7.0
 40
7.0
 10
147.3363986176798
 20
-177.3755641917672
 10
147.3363986176798
 20
-177.3755641917672
 10
146.2322455146572
 20
-177.3755641917672
 10
146.2322455146572
 20
-177.3755641917672
 10
146.2322455146572
 20
-177.3755641917672
 10
146.2322455146572
 20
-177.7056043392542
 10
146.2322455146572
 20
-177.7056043392542
 10
146.2322455146572
 20
-177.7056043392542
 10
146.0841064087915
 20
-177.7056043392542
 10
146.0841064087915
 20
-177.7056043392542
 10
146.0692924982049
 20
-177.3734971344761
 10
145.9063394817526
 20
-177.3269883454252
 10
145.7919623116423
 20
-177.2973605242521
 10
145.7919623116423
 20
-177.2973605242521
 10
145.7919623116423
 20
-177.1512884756775
 10
145.7919623116423
 20
-177.1512884756775
 10
145.7919623116423
 20
-177.1512884756775
 10
147.3363986176798
 20
-177.1512884756775
 10
147.3363986176798
 20
-177.1512884756775
 10
147.3363986176798
 20
-177.1512884756775
 10
147.3363986176798
 20
-177.3755641917672
 10
147.3363986176798
 20
-177.3755641917672
 97
        0
 97
        0
 75
     2
 76
     1
 98
        0
  0
ENDBLK
  5
79
330
76
100
AcDbEntity
  8
0
100
AcDbBlockEnd
  0
BLOCK
  5
90
330
8E
100
AcDbEntity
  8
0
100
AcDbBlockBegin
  2
block 5
 70
     0
 10
0.0
 20
0.0
 30
0.0
  3
block 5
  1

  0
SPLINE
  5
92
330
8E
100
AcDbEntity
  8
_U+30EC_U+30A4_U+30E4_U+30FC 1
370
     0
100
AcDbSpline
210
0.0
220
0.0
230
1.0
 70
    11
 71
     3
 72
    26
 73
    22
 74
     0
 42
0.0000000001
 43
0.0000000001
 12
1.0
 22
0.0
 32
0.0
 13
1.0
 23
0.0
 33
0.0
 40
0.0
 40
0.0
 40
0.0
 40
0.0
 40
1.0
 40
1.0
 40
1.0
 40
2.0
 40
2.0
 40
2.0
 40
3.0
 40
3.0
 40
3.0
 40
4.0
 40
4.0
 40
4.0
 40
5.0
 40
5.0
 40
5.0
 40
6.0
 40
6.0
 40
6.0
 40
7.0
 40
7.0
 40
7.0
 40
7.0
 10
89.7271674037835
 20
-183.5905164471579
 30
0.0
 10
89.7271674037835
 20
-183.5905164471579
 30
0.0
 10
89.7271674037835
 20
-182.4860188345868
 30
0.0
 10
89.7271674037835
 20
-182.4860188345868
 30
0.0
 10
89.7271674037835
 20
-182.4860188345868
 30
0.0
 10
89.39712725629656
 20
-182.4860188345868
 30
0.0
 10
89.39712725629656
 20
-182.4860188345868
 30
0.0
 10
89.39712725629656
 20
-182.4860188345868
 30
0.0
 10
89.39712725629656
 20
-182.3378797287211
 30
0.0
 10
89.39712725629656
 20
-182.3378797287211
 30
0.0
 10
89.72923446107464
 20
-182.323410327683
 30
0.0
 10
89.77574325012552
 20
-182.1601128016822
 30
0.0
 10
89.80537107129867
 20
-182.0460801411204
 30
0.0
 10
89.80537107129867
 20
-182.0460801411204
 30
0.0
 10
89.95144311987326
 20
-182.0460801411204
 30
0.0
 10
89.95144311987326
 20
-182.0460801411204
 30
0.0
 10
89.95144311987326
 20
-182.0460801411204
 30
0.0
 10
89.95144311987326
 20
-183.5905164471579
 30
0.0
 10
89.95144311987326
 20
-183.5905164471579
 30
0.0
 10
89.95144311987326
 20
-183.5905164471579
 30
0.0
 10
89.7271674037835
 20
-183.5905164471579
 30
0.0
 10
89.7271674037835
 20
-183.5905164471579
 30
0.0
  0
HATCH
  5
93
330
8E
100
AcDbEntity
  8
_U+30EC_U+30A4_U+30E4_U+30FC 1
 62
     7
420
 16777215
100
AcDbHatch
 10
0.0
 20
0.0
 30
0.0
210
0.0
220
0.0
230
1.0
  2
SOLID
 70
     1
 71
     0
 91
        1
 92
        1
 93
        1
 72
     4
 94
        3
 73
     0
 74
     1
 95
       26
 96
       22
 40
0.0
 40
0.0
 40
0.0
 40
0.0
 40
1.0
 40
1.0
 40
1.0
 40
2.0
 40
2.0
 40
2.0
 40
3.0
 40
3.0
 40
3.0
 40
4.0
 40
4.0
 40
4.0
 40
5.0
 40
5.0
 40
5.0
 40
6.0
 40
6.0
 40
6.0
 40
7.0
 40
7.0
 40
7.0
 40
7.0
 10
89.7271674037835
 20
-183.5905164471579
 10
89.7271674037835
 20
-183.5905164471579
 10
89.7271674037835
 20
-182.4860188345868
 10
89.7271674037835
 20
-182.4860188345868
 10
89.7271674037835
 20
-182.4860188345868
 10
89.39712725629656
 20
-182.4860188345868
 10
89.39712725629656
 20
-182.4860188345868
 10
89.39712725629656
 20
-182.4860188345868
 10
89.39712725629656
 20
-182.3378797287211
 10
89.39712725629656
 20
-182.3378797287211
 10
89.72923446107464
 20
-182.323410327683
 10
89.77574325012552
 20
-182.1601128016822
 10
89.80537107129867
 20
-182.0460801411204
 10
89.80537107129867
 20
-182.0460801411204
 10
89.95144311987326
 20
-182.0460801411204
 10
89.95144311987326
 20
-182.0460801411204
 10
89.95144311987326
 20
-182.0460801411204
 10
89.95144311987326
 20
-183.5905164471579
 10
89.95144311987326
 20
-183.5905164471579
 10
89.95144311987326
 20
-183.5905164471579
 10
89.7271674037835
 20
-183.5905164471579
 10
89.7271674037835
 20
-183.5905164471579
 97
        0
 97
        0
 75
     2
 76
     1
 98
        0
  0
SPLINE
  5
94
330
8E
100
AcDbEntity
  8
_U+30EC_U+30A4_U+30E4_U+30FC 1
370
     0
100
AcDbSpline
210
0.0
220
0.0
230
1.0
 70
    11
 71
     3
 72
    29
 73
    25
 74
     0
 42
0.0000000001
 43
0.0000000001
 12
1.0
 22
0.0
 32
0.0
 13
1.0
 23
0.0
 33
0.0
 40
0.0
 40
0.0
 40
0.0
 40
0.0
 40
1.0
 40
1.0
 40
1.0
 40
2.0
 40
2.0
 40
2.0
 40
3.0
 40
3.0
 40
3.0
 40
4.0
 40
4.0
 40
4.0
 40
5.0
 40
5.0
 40
5.0
 40
6.0
 40
6.0
 40
6.0
 40
7.0
 40
7.0
 40
7.0
 40
8.0
 40
8.0
 40
8.0
 40
8.0
 10
91.35049639643321
 20
-183.412749520119
 30
0.0
 10
91.24232039819637
 20
-183.6222113256222
 30
0.0
 10
91.0690320952883
 20
-183.6411593507911
 30
0.0
 10
90.95258786788686
 20
-183.6411593507911
 30
0.0
 10
90.79170190872568
 20
-183.6411593507911
 30
0.0
 10
90.65010848428192
 20
-183.5946505617402
 30
0.0
 10
90.55502384888902
 20
-183.412749520119
 30
0.0
 10
90.451326474783
 20
-183.2181016252024
 30
0.0
 10
90.43237844961413
 20
-182.9810790558172
 30
0.0
 10
90.43237844961413
 20
-182.8181260393649
 30
0.0
 10
90.43237844961413
 20
-182.6741210480815
 30
0.0
 10
90.44925941749186
 20
-182.4226290776582
 30
0.0
 10
90.55502384888902
 20
-182.2235025586108
 30
0.0
 10
90.66285533757734
 20
-182.0205864345296
 30
0.0
 10
90.82374129673852
 20
-181.9975042947784
 30
0.0
 10
90.95258786788686
 20
-181.9975042947784
 30
0.0
 10
91.11140676975687
 20
-181.9975042947784
 30
0.0
 10
91.2550672514918
 20
-182.0416015169896
 30
0.0
 10
91.35049639643321
 20
-182.2235025586108
 30
0.0
 10
91.44971514640841
 20
-182.4164279057848
 30
0.0
 10
91.4731417957081
 20
-182.6444932269083
 30
0.0
 10
91.4731417957081
 20
-182.8181260393649
 30
0.0
 10
91.4731417957081
 20
-182.9896917945304
 30
0.0
 10
91.45178220369957
 20
-183.2201686824936
 30
0.0
 10
91.35049639643321
 20
-183.412749520119
 30
0.0
  0
SPLINE
  5
95
330
8E
100
AcDbEntity
  8
_U+30EC_U+30A4_U+30E4_U+30FC 1
370
     0
100
AcDbSpline
210
0.0
220
0.0
230
1.0
 70
    11
 71
     3
 72
    17
 73
    13
 74
     0
 42
0.0000000001
 43
0.0000000001
 12
1.0
 22
0.0
 32
0.0
 13
1.0
 23
0.0
 33
0.0
 40
0.0
 40
0.0
 40
0.0
 40
0.0
 40
1.0
 40
1.0
 40
1.0
 40
2.0
 40
2.0
 40
2.0
 40
3.0
 40
3.0
 40
3.0
 40
4.0
 40
4.0
 40
4.0
 40
4.0
 10
90.95258786788686
 20
-182.1897406228553
 30
0.0
 10
90.70316295475477
 20
-182.1897406228553
 30
0.0
 10
90.65630965615537
 20
-182.4732719812914
 30
0.0
 10
90.65630965615537
 20
-182.8181260393649
 30
0.0
 10
90.65630965615537
 20
-183.1378309003961
 30
0.0
 10
90.69248315875049
 20
-183.4465114558745
 30
0.0
 10
90.95258786788686
 20
-183.4465114558745
 30
0.0
 10
91.20029023327632
 20
-183.4465114558745
 30
0.0
 10
91.24886607961834
 20
-183.1650471547296
 30
0.0
 10
91.24886607961834
 20
-182.8181260393649
 30
0.0
 10
91.24886607961834
 20
-182.4987656878823
 30
0.0
 10
91.21062551973208
 20
-182.1897406228553
 30
0.0
 10
90.95258786788686
 20
-182.1897406228553
 30
0.0
  0
HATCH
  5
96
330
8E
100
AcDbEntity
  8
_U+30EC_U+30A4_U+30E4_U+30FC 1
 62
     7
420
 16777215
100
AcDbHatch
 10
0.0
 20
0.0
 30
0.0
210
0.0
220
0.0
230
1.0
  2
SOLID
 70
     1
 71
     0
 91
        2
 92
        1
 93
        1
 72
     4
 94
        3
 73
     0
 74
     1
 95
       29
 96
       25
 40
0.0
 40
0.0
 40
0.0
 40
0.0
 40
1.0
 40
1.0
 40
1.0
 40
2.0
 40
2.0
 40
2.0
 40
3.0
 40
3.0
 40
3.0
 40
4.0
 40
4.0
 40
4.0
 40
5.0
 40
5.0
 40
5.0
 40
6.0
 40
6.0
 40
6.0
 40
7.0
 40
7.0
 40
7.0
 40
8.0
 40
8.0
 40
8.0
 40
8.0
 10
91.35049639643321
 20
-183.412749520119
 10
91.24232039819637
 20
-183.6222113256222
 10
91.0690320952883
 20
-183.6411593507911
 10
90.95258786788686
 20
-183.6411593507911
 10
90.79170190872568
 20
-183.6411593507911
 10
90.65010848428192
 20
-183.5946505617402
 10
90.55502384888902
 20
-183.412749520119
 10
90.451326474783
 20
-183.2181016252024
 10
90.43237844961413
 20
-182.9810790558172
 10
90.43237844961413
 20
-182.8181260393649
 10
90.43237844961413
 20
-182.6741210480815
 10
90.44925941749186
 20
-182.4226290776582
 10
90.55502384888902
 20
-182.2235025586108
 10
90.66285533757734
 20
-182.0205864345296
 10
90.82374129673852
 20
-181.9975042947784
 10
90.95258786788686
 20
-181.9975042947784
 10
91.11140676975687
 20
-181.9975042947784
 10
91.2550672514918
 20
-182.0416015169896
 10
91.35049639643321
 20
-182.2235025586108
 10
91.44971514640841
 20
-182.4164279057848
 10
91.4731417957081
 20
-182.6444932269083
 10
91.4731417957081
 20
-182.8181260393649
 10
91.4731417957081
 20
-182.9896917945304
 10
91.45178220369957
 20
-183.2201686824936
 10
91.35049639643321
 20
-183.412749520119
 97
        0
 97
        0
 92
        1
 93
        1
 72
     4
 94
        3
 73
     0
 74
     1
 95
       17
 96
       13
 40
0.0
 40
0.0
 40
0.0
 40
0.0
 40
1.0
 40
1.0
 40
1.0
 40
2.0
 40
2.0
 40
2.0
 40
3.0
 40
3.0
 40
3.0
 40
4.0
 40
4.0
 40
4.0
 40
4.0
 10
90.95258786788686
 20
-182.1897406228553
 10
90.70316295475477
 20
-182.1897406228553
 10
90.65630965615537
 20
-182.4732719812914
 10
90.65630965615537
 20
-182.8181260393649
 10
90.65630965615537
 20
-183.1378309003961
 10
90.69248315875049
 20
-183.4465114558745
 10
90.95258786788686
 20
-183.4465114558745
 10
91.20029023327632
 20
-183.4465114558745
 10
91.24886607961834
 20
-183.1650471547296
 10
91.24886607961834
 20
-182.8181260393649
 10
91.24886607961834
 20
-182.4987656878823
 10
91.21062551973208
 20
-182.1897406228553
 10
90.95258786788686
 20
-182.1897406228553
 97
        0
 97
        0
 75
     2
 76
     1
 98
        0
  0
SPLINE
  5
97
330
8E
100
AcDbEntity
  8
_U+30EC_U+30A4_U+30E4_U+30FC 1
370
     0
100
AcDbSpline
210
0.0
220
0.0
230
1.0
 70
    11
 71
     3
 72
    29
 73
    25
 74
     0
 42
0.0000000001
 43
0.0000000001
 12
1.0
 22
0.0
 32
0.0
 13
1.0
 23
0.0
 33
0.0
 40
0.0
 40
0.0
 40
0.0
 40
0.0
 40
1.0
 40
1.0
 40
1.0
 40
2.0
 40
2.0
 40
2.0
 40
3.0
 40
3.0
 40
3.0
 40
4.0
 40
4.0
 40
4.0
 40
5.0
 40
5.0
 40
5.0
 40
6.0
 40
6.0
 40
6.0
 40
7.0
 40
7.0
 40
7.0
 40
8.0
 40
8.0
 40
8.0
 40
8.0
 10
92.52734101419456
 20
-183.412749520119
 30
0.0
 10
92.41916501595772
 20
-183.6222113256222
 30
0.0
 10
92.24587671304964
 20
-183.6411593507911
 30
0.0
 10
92.1294324856482
 20
-183.6411593507911
 30
0.0
 10
91.96854652648703
 20
-183.6411593507911
 30
0.0
 10
91.82695310204326
 20
-183.5946505617402
 30
0.0
 10
91.73186846665037
 20
-183.412749520119
 30
0.0
 10
91.62817109254435
 20
-183.2181016252024
 30
0.0
 10
91.60922306737548
 20
-182.9810790558172
 30
0.0
 10
91.60922306737548
 20
-182.8181260393649
 30
0.0
 10
91.60922306737548
 20
-182.6741210480815
 30
0.0
 10
91.6261040352532
 20
-182.4226290776582
 30
0.0
 10
91.73186846665037
 20
-182.2235025586108
 30
0.0
 10
91.83969995533869
 20
-182.0205864345296
 30
0.0
 10
92.00058591449985
 20
-181.9975042947784
 30
0.0
 10
92.1294324856482
 20
-181.9975042947784
 30
0.0
 10
92.28825138751822
 20
-181.9975042947784
 30
0.0
 10
92.43191186925314
 20
-182.0416015169896
 30
0.0
 10
92.52734101419456
 20
-182.2235025586108
 30
0.0
 10
92.62655976416976
 20
-182.4164279057848
 30
0.0
 10
92.64998641346945
 20
-182.6444932269083
 30
0.0
 10
92.64998641346945
 20
-182.8181260393649
 30
0.0
 10
92.64998641346945
 20
-182.9896917945304
 30
0.0
 10
92.6286268214609
 20
-183.2201686824936
 30
0.0
 10
92.52734101419456
 20
-183.412749520119
 30
0.0
  0
SPLINE
  5
98
330
8E
100
AcDbEntity
  8
_U+30EC_U+30A4_U+30E4_U+30FC 1
370
     0
100
AcDbSpline
210
0.0
220
0.0
230
1.0
 70
    11
 71
     3
 72
    17
 73
    13
 74
     0
 42
0.0000000001
 43
0.0000000001
 12
1.0
 22
0.0
 32
0.0
 13
1.0
 23
0.0
 33
0.0
 40
0.0
 40
0.0
 40
0.0
 40
0.0
 40
1.0
 40
1.0
 40
1.0
 40
2.0
 40
2.0
 40
2.0
 40
3.0
 40
3.0
 40
3.0
 40
4.0
 40
4.0
 40
4.0
 40
4.0
 10
92.1294324856482
 20
-182.1897406228553
 30
0.0
 10
91.8800075725161
 20
-182.1897406228553
 30
0.0
 10
91.83315427391672
 20
-182.4732719812914
 30
0.0
 10
91.83315427391672
 20
-182.8181260393649
 30
0.0
 10
91.83315427391672
 20
-183.1378309003961
 30
0.0
 10
91.86932777651184
 20
-183.4465114558745
 30
0.0
 10
92.1294324856482
 20
-183.4465114558745
 30
0.0
 10
92.37713485103767
 20
-183.4465114558745
 30
0.0
 10
92.42571069737969
 20
-183.1650471547296
 30
0.0
 10
92.42571069737969
 20
-182.8181260393649
 30
0.0
 10
92.42571069737969
 20
-182.4987656878823
 30
0.0
 10
92.38747013749341
 20
-182.1897406228553
 30
0.0
 10
92.1294324856482
 20
-182.1897406228553
 30
0.0
  0
HATCH
  5
99
330
8E
100
AcDbEntity
  8
_U+30EC_U+30A4_U+30E4_U+30FC 1
 62
     7
420
 16777215
100
AcDbHatch
 10
0.0
 20
0.0
 30
0.0
210
0.0
220
0.0
230
1.0
  2
SOLID
 70
     1
 71
     0
 91
        2
 92
        1
 93
        1
 72
     4
 94
        3
 73
     0
 74
     1
 95
       29
 96
       25
 40
0.0
 40
0.0
 40
0.0
 40
0.0
 40
1.0
 40
1.0
 40
1.0
 40
2.0
 40
2.0
 40
2.0
 40
3.0
 40
3.0
 40
3.0
 40
4.0
 40
4.0
 40
4.0
 40
5.0
 40
5.0
 40
5.0
 40
6.0
 40
6.0
 40
6.0
 40
7.0
 40
7.0
 40
7.0
 40
8.0
 40
8.0
 40
8.0
 40
8.0
 10
92.52734101419456
 20
-183.412749520119
 10
92.41916501595772
 20
-183.6222113256222
 10
92.24587671304964
 20
-183.6411593507911
 10
92.1294324856482
 20
-183.6411593507911
 10
91.96854652648703
 20
-183.6411593507911
 10
91.82695310204326
 20
-183.5946505617402
 10
91.73186846665037
 20
-183.412749520119
 10
91.62817109254435
 20
-183.2181016252024
 10
91.60922306737548
 20
-182.9810790558172
 10
91.60922306737548
 20
-182.8181260393649
 10
91.60922306737548
 20
-182.6741210480815
 10
91.6261040352532
 20
-182.4226290776582
 10
91.73186846665037
 20
-182.2235025586108
 10
91.83969995533869
 20
-182.0205864345296
 10
92.00058591449985
 20
-181.9975042947784
 10
92.1294324856482
 20
-181.9975042947784
 10
92.28825138751822
 20
-181.9975042947784
 10
92.43191186925314
 20
-182.0416015169896
 10
92.52734101419456
 20
-182.2235025586108
 10
92.62655976416976
 20
-182.4164279057848
 10
92.64998641346945
 20
-182.6444932269083
 10
92.64998641346945
 20
-182.8181260393649
 10
92.64998641346945
 20
-182.9896917945304
 10
92.6286268214609
 20
-183.2201686824936
 10
92.52734101419456
 20
-183.412749520119
 97
        0
 97
        0
 92
        1
 93
        1
 72
     4
 94
        3
 73
     0
 74
     1
 95
       17
 96
       13
 40
0.0
 40
0.0
 40
0.0
 40
0.0
 40
1.0
 40
1.0
 40
1.0
 40
2.0
 40
2.0
 40
2.0
 40
3.0
 40
3.0
 40
3.0
 40
4.0
 40
4.0
 40
4.0
 40
4.0
 10
92.1294324856482
 20
-182.1897406228553
 10
91.8800075725161
 20
-182.1897406228553
 10
91.83315427391672
 20
-182.4732719812914
 10
91.83315427391672
 20
-182.8181260393649
 10
91.83315427391672
 20
-183.1378309003961
 10
91.86932777651184
 20
-183.4465114558745
 10
92.1294324856482
 20
-183.4465114558745
 10
92.37713485103767
 20
-183.4465114558745
 10
92.42571069737969
 20
-183.1650471547296
 10
92.42571069737969
 20
-182.8181260393649
 10
92.42571069737969
 20
-182.4987656878823
 10
92.38747013749341
 20
-182.1897406228553
 10
92.1294324856482
 20
-182.1897406228553
 97
        0
 97
        0
 75
     2
 76
     1
 98
        0
  0
ENDBLK
  5
91
330
8E
100
AcDbEntity
  8
0
100
AcDbBlockEnd
  0
ENDSEC
  0
SECTION
  2
ENTITIES
  0
POLYLINE
  5
41
330
1F
100
AcDbEntity
  8
_U+30EC_U+30A4_U+30E4_U+30FC 1
 62
     7
420
 16777215
370
     9
100
AcDb2dPolyline
 66
     1
 10
0.0
 20
0.0
 30
0.0
  0
VERTEX
  5
42
330
41
100
AcDbEntity
  8
_U+30EC_U+30A4_U+30E4_U+30FC 1
 62
     7
420
 16777215
370
     9
100
AcDbVertex
100
AcDb2dVertex
 10
37.2056368285829
 20
-180.1857302327311
 30
0.0
  0
VERTEX
  5
43
330
41
100
AcDbEntity
  8
_U+30EC_U+30A4_U+30E4_U+30FC 1
 62
     7
420
 16777215
370
     9
100
AcDbVertex
100
AcDb2dVertex
 10
37.2056368285829
 20
-80.10500303552935
 30
0.0
  0
SEQEND
  5
44
330
41
100
AcDbEntity
  8
_U+30EC_U+30A4_U+30E4_U+30FC 1
 62
     7
420
 16777215
370
     9
  0
POLYLINE
  5
45
330
1F
100
AcDbEntity
  8
_U+30EC_U+30A4_U+30E4_U+30FC 1
 62
     7
420
 16777215
370
     9
100
AcDb2dPolyline
 66
     1
 10
0.0
 20
0.0
 30
0.0
  0
VERTEX
  5
46
330
45
100
AcDbEntity
  8
_U+30EC_U+30A4_U+30E4_U+30FC 1
 62
     7
420
 16777215
370
     9
100
AcDbVertex
100
AcDb2dVertex
 10
39.27718316462224
 20
-180.1857302327311
 30
0.0
  0
VERTEX
  5
47
330
45
100
AcDbEntity
  8
_U+30EC_U+30A4_U+30E4_U+30FC 1
 62
     7
420
 16777215
370
     9
100
AcDbVertex
100
AcDb2dVertex
 10
36.20071407644284
 20
-180.1857302327311
 30
0.0
  0
SEQEND
  5
48
330
45
100
AcDbEntity
  8
_U+30EC_U+30A4_U+30E4_U+30FC 1
 62
     7
420
 16777215
370
     9
  0
POLYLINE
  5
49
330
1F
100
AcDbEntity
  8
_U+30EC_U+30A4_U+30E4_U+30FC 1
 62
     7
420
 16777215
370
     9
100
AcDb2dPolyline
 66
     1
 10
0.0
 20
0.0
 30
0.0
  0
VERTEX
  5
4A
330
49
100
AcDbEntity
  8
_U+30EC_U+30A4_U+30E4_U+30FC 1
 62
     7
420
 16777215
370
     9
100
AcDbVertex
100
AcDb2dVertex
 10
39.07391261425255
 20
-80.18564803550899
 30
0.0
  0
VERTEX
  5
4B
330
49
100
AcDbEntity
  8
_U+30EC_U+30A4_U+30E4_U+30FC 1
 62
     7
420
 16777215
370
     9
100
AcDbVertex
100
AcDb2dVertex
 10
36.20071407644284
 20
-80.18564803550899
 30
0.0
  0
SEQEND
  5
4C
330
49
100
AcDbEntity
  8
_U+30EC_U+30A4_U+30E4_U+30FC 1
 62
     7
420
 16777215
370
     9
  0
INSERT
  5
4E
330
1F
100
AcDbEntity
  8
_U+30EC_U+30A4_U+30E4_U+30FC 1
100
AcDbBlockReference
  2
block 2
 10
0.0
 20
0.0
 30
0.0
  0
POLYLINE
  5
59
330
1F
100
AcDbEntity
  8
_U+30EC_U+30A4_U+30E4_U+30FC 1
 62
     7
420
 16777215
370
     9
100
AcDb2dPolyline
 66
     1
 10
0.0
 20
0.0
 30
0.0
  0
VERTEX
  5
5A
330
59
100
AcDbEntity
  8
_U+30EC_U+30A4_U+30E4_U+30FC 1
 62
     7
420
 16777215
370
     9
100
AcDbVertex
100
AcDb2dVertex
 10
40.26351452834772
 20
-180.7910263436909
 30
0.0
  0
VERTEX
  5
5B
330
59
100
AcDbEntity
  8
_U+30EC_U+30A4_U+30E4_U+30FC 1
 62
     7
420
 16777215
370
     9
100
AcDbVertex
100
AcDb2dVertex
 10
41.13445228390603
 20
-180.2887413438169
 30
0.0
  0
SEQEND
  5
5C
330
59
100
AcDbEntity
  8
_U+30EC_U+30A4_U+30E4_U+30FC 1
 62
     7
420
 16777215
370
     9
  0
POLYLINE
  5
5D
330
1F
100
AcDbEntity
  8
_U+30EC_U+30A4_U+30E4_U+30FC 1
 62
     7
420
 16777215
370
     9
100
AcDb2dPolyline
 66
     1
 10
0.0
 20
0.0
 30
0.0
  0
VERTEX
  5
5E
330
5D
100
AcDbEntity
  8
_U+30EC_U+30A4_U+30E4_U+30FC 1
 62
     7
420
 16777215
370
     9
100
AcDbVertex
100
AcDb2dVertex
 10
40.63181451895161
 20
-181.1582680102661
 30
0.0
  0
VERTEX
  5
5F
330
5D
100
AcDbEntity
  8
_U+30EC_U+30A4_U+30E4_U+30FC 1
 62
     7
420
 16777215
370
     9
100
AcDbVertex
100
AcDb2dVertex
 10
41.13445228390603
 20
-180.2887413438169
 30
0.0
  0
SEQEND
  5
60
330
5D
100
AcDbEntity
  8
_U+30EC_U+30A4_U+30E4_U+30FC 1
 62
     7
420
 16777215
370
     9
  0
POLYLINE
  5
61
330
1F
100
AcDbEntity
  8
_U+30EC_U+30A4_U+30E4_U+30FC 1
 62
     7
420
 16777215
370
     9
100
AcDb2dPolyline
 66
     1
 10
0.0
 20
0.0
 30
0.0
  0
VERTEX
  5
62
330
61
100
AcDbEntity
  8
_U+30EC_U+30A4_U+30E4_U+30FC 1
 62
     7
420
 16777215
370
     9
100
AcDbVertex
100
AcDb2dVertex
 10
37.65281792828547
 20
-183.7696702318351
 30
0.0
  0
VERTEX
  5
63
330
61
100
AcDbEntity
  8
_U+30EC_U+30A4_U+30E4_U+30FC 1
 62
     7
420
 16777215
370
     9
100
AcDbVertex
100
AcDb2dVertex
 10
41.13445228390603
 20
-180.2887413438169
 30
0.0
  0
SEQEND
  5
64
330
61
100
AcDbEntity
  8
_U+30EC_U+30A4_U+30E4_U+30FC 1
 62
     7
420
 16777215
370
     9
  0
INSERT
  5
66
330
1F
100
AcDbEntity
  8
_U+30EC_U+30A4_U+30E4_U+30FC 1
100
AcDbBlockReference
  2
block 3
 10
0.0
 20
0.0
 30
0.0
  0
POLYLINE
  5
6E
330
1F
100
AcDbEntity
  8
_U+30EC_U+30A4_U+30E4_U+30FC 1
 62
     7
420
 16777215
370
     9
100
AcDb2dPolyline
 66
     1
 10
0.0
 20
0.0
 30
0.0
  0
VERTEX
  5
6F
330
6E
100
AcDbEntity
  8
_U+30EC_U+30A4_U+30E4_U+30FC 1
 62
     7
420
 16777215
370
     9
100
AcDbVertex
100
AcDb2dVertex
 10
146.7259221855405
 20
-180.1850246771762
 30
0.0
  0
VERTEX
  5
70
330
6E
100
AcDbEntity
  8
_U+30EC_U+30A4_U+30E4_U+30FC 1
 62
     7
420
 16777215
370
     9
100
AcDbVertex
100
AcDb2dVertex
 10
142.0736616531767
 20
-180.1850246771762
 30
0.0
  0
SEQEND
  5
71
330
6E
100
AcDbEntity
  8
_U+30EC_U+30A4_U+30E4_U+30FC 1
 62
     7
420
 16777215
370
     9
  0
POLYLINE
  5
72
330
1F
100
AcDbEntity
  8
_U+30EC_U+30A4_U+30E4_U+30FC 1
 62
     7
420
 16777215
370
     9
100
AcDb2dPolyline
 66
     1
 10
0.0
 20
0.0
 30
0.0
  0
VERTEX
  5
73
330
72
100
AcDbEntity
  8
_U+30EC_U+30A4_U+30E4_U+30FC 1
 62
     7
420
 16777215
370
     9
100
AcDbVertex
100
AcDb2dVertex
 10
146.7259221855405
 20
-179.1849349552041
 30
0.0
  0
VERTEX
  5
74
330
72
100
AcDbEntity
  8
_U+30EC_U+30A4_U+30E4_U+30FC 1
 62
     7
420
 16777215
370
     9
100
AcDbVertex
100
AcDb2dVertex
 10
142.0736616531767
 20
-179.1849349552041
 30
0.0
  0
SEQEND
  5
75
330
72
100
AcDbEntity
  8
_U+30EC_U+30A4_U+30E4_U+30FC 1
 62
     7
420
 16777215
370
     9
  0
INSERT
  5
77
330
1F
100
AcDbEntity
  8
_U+30EC_U+30A4_U+30E4_U+30FC 1
100
AcDbBlockReference
  2
block 4
 10
0.0
 20
0.0
 30
0.0
  0
POLYLINE
  5
7C
330
1F
100
AcDbEntity
  8
_U+30EC_U+30A4_U+30E4_U+30FC 1
 62
     7
420
 16777215
370
     9
100
AcDb2dPolyline
 66
     1
 10
0.0
 20
0.0
 30
0.0
  0
VERTEX
  5
7D
330
7C
100
AcDbEntity
  8
_U+30EC_U+30A4_U+30E4_U+30FC 1
 62
     7
420
 16777215
370
     9
100
AcDbVertex
100
AcDb2dVertex
 10
145.0984487982302
 20
-180.179521343844
 30
0.0
  0
VERTEX
  5
7E
330
7C
100
AcDbEntity
  8
_U+30EC_U+30A4_U+30E4_U+30FC 1
 62
     7
420
 16777215
370
     9
100
AcDbVertex
100
AcDb2dVertex
 10
145.0984487982302
 20
-179.1794316218719
 30
0.0
  0
SEQEND
  5
7F
330
7C
100
AcDbEntity
  8
_U+30EC_U+30A4_U+30E4_U+30FC 1
 62
     7
420
 16777215
370
     9
  0
SPLINE
  5
80
330
1F
100
AcDbEntity
  8
_U+30EC_U+30A4_U+30E4_U+30FC 1
 62
     7
420
 16777215
370
     9
100
AcDbSpline
210
0.0
220
0.0
230
1.0
 70
    11
 71
     3
 72
    17
 73
    13
 74
     0
 42
0.0000000001
 43
0.0000000001
 12
1.0
 22
0.0
 32
0.0
 13
1.0
 23
0.0
 33
0.0
 40
0.0
 40
0.0
 40
0.0
 40
0.0
 40
1.0
 40
1.0
 40
1.0
 40
2.0
 40
2.0
 40
2.0
 40
3.0
 40
3.0
 40
3.0
 40
4.0
 40
4.0
 40
4.0
 40
4.0
 10
37.20598960635168
 20
-80.07399386887028
 30
0.0
 10
37.14467776849174
 20
-80.07399386887028
 30
0.0
 10
37.09437072031043
 20
-80.12362970219118
 30
0.0
 10
37.09437072031043
 20
-80.18564803550899
 30
0.0
 10
37.09437072031043
 20
-80.24696081327161
 30
0.0
 10
37.14467776849174
 20
-80.29726692437019
 30
0.0
 10
37.20598960635168
 20
-80.29726692437019
 30
0.0
 10
37.26730238256524
 20
-80.29726692437019
 30
0.0
 10
37.31693821463226
 20
-80.24696081327161
 30
0.0
 10
37.31693821463226
 20
-80.18564803550899
 30
0.0
 10
37.31693821463226
 20
-80.12362970219118
 30
0.0
 10
37.26730238256524
 20
-80.07399386887028
 30
0.0
 10
37.20598960635168
 20
-80.07399386887028
 30
0.0
  0
SPLINE
  5
81
330
1F
100
AcDbEntity
  8
_U+30EC_U+30A4_U+30E4_U+30FC 1
 62
     7
420
 16777215
370
     9
100
AcDbSpline
210
0.0
220
0.0
230
1.0
 70
    11
 71
     3
 72
    17
 73
    13
 74
     0
 42
0.0000000001
 43
0.0000000001
 12
1.0
 22
0.0
 32
0.0
 13
1.0
 23
0.0
 33
0.0
 40
0.0
 40
0.0
 40
0.0
 40
0.0
 40
1.0
 40
1.0
 40
1.0
 40
2.0
 40
2.0
 40
2.0
 40
3.0
 40
3.0
 40
3.0
 40
4.0
 40
4.0
 40
4.0
 40
4.0
 10
37.31693821463226
 20
-180.1850246771762
 30
0.0
 10
37.31693821463226
 20
-180.1244174549691
 30
0.0
 10
37.26730238256524
 20
-180.0741113438702
 30
0.0
 10
37.20598960635168
 20
-180.0741113438702
 30
0.0
 10
37.14467776849174
 20
-180.0741113438702
 30
0.0
 10
37.09437072031043
 20
-180.1244174549691
 30
0.0
 10
37.09437072031043
 20
-180.1850246771762
 30
0.0
 10
37.09437072031043
 20
-180.2470430104937
 30
0.0
 10
37.14467776849174
 20
-180.2973491215926
 30
0.0
 10
37.20598960635168
 20
-180.2973491215926
 30
0.0
 10
37.26730238256524
 20
-180.2973491215926
 30
0.0
 10
37.31693821463226
 20
-180.2470430104937
 30
0.0
 10
37.31693821463226
 20
-180.1850246771762
 30
0.0
  0
POLYLINE
  5
82
330
1F
100
AcDbEntity
  8
_U+30EC_U+30A4_U+30E4_U+30FC 1
 62
     7
420
 16777215
370
     9
100
AcDb2dPolyline
 66
     1
 10
0.0
 20
0.0
 30
0.0
  0
VERTEX
  5
83
330
82
100
AcDbEntity
  8
_U+30EC_U+30A4_U+30E4_U+30FC 1
 62
     7
420
 16777215
370
     9
100
AcDbVertex
100
AcDb2dVertex
 10
141.0683861232679
 20
-184.2826443983739
 30
0.0
  0
VERTEX
  5
84
330
82
100
AcDbEntity
  8
_U+30EC_U+30A4_U+30E4_U+30FC 1
 62
     7
420
 16777215
370
     9
100
AcDbVertex
100
AcDb2dVertex
 10
40.99147145422044
 20
-184.2826443983739
 30
0.0
  0
SEQEND
  5
85
330
82
100
AcDbEntity
  8
_U+30EC_U+30A4_U+30E4_U+30FC 1
 62
     7
420
 16777215
370
     9
  0
POLYLINE
  5
86
330
1F
100
AcDbEntity
  8
_U+30EC_U+30A4_U+30E4_U+30FC 1
 62
     7
420
 16777215
370
     9
100
AcDb2dPolyline
 66
     1
 10
0.0
 20
0.0
 30
0.0
  0
VERTEX
  5
87
330
86
100
AcDbEntity
  8
_U+30EC_U+30A4_U+30E4_U+30FC 1
 62
     7
420
 16777215
370
     9
100
AcDbVertex
100
AcDb2dVertex
 10
141.0683861232679
 20
-182.2110980100027
 30
0.0
  0
VERTEX
  5
88
330
86
100
AcDbEntity
  8
_U+30EC_U+30A4_U+30E4_U+30FC 1
 62
     7
420
 16777215
370
     9
100
AcDbVertex
100
AcDb2dVertex
 10
141.0683861232679
 20
-185.2875671759002
 30
0.0
  0
SEQEND
  5
89
330
86
100
AcDbEntity
  8
_U+30EC_U+30A4_U+30E4_U+30FC 1
 62
     7
420
 16777215
370
     9
  0
POLYLINE
  5
8A
330
1F
100
AcDbEntity
  8
_U+30EC_U+30A4_U+30E4_U+30FC 1
 62
     7
420
 16777215
370
     9
100
AcDb2dPolyline
 66
     1
 10
0.0
 20
0.0
 30
0.0
  0
VERTEX
  5
8B
330
8A
100
AcDbEntity
  8
_U+30EC_U+30A4_U+30E4_U+30FC 1
 62
     7
420
 16777215
370
     9
100
AcDbVertex
100
AcDb2dVertex
 10
41.07208117438613
 20
-182.4143685655073
 30
0.0
  0
VERTEX
  5
8C
330
8A
100
AcDbEntity
  8
_U+30EC_U+30A4_U+30E4_U+30FC 1
 62
     7
420
 16777215
370
     9
100
AcDbVertex
100
AcDb2dVertex
 10
41.07208117438613
 20
-185.2875671759002
 30
0.0
  0
SEQEND
  5
8D
330
8A
100
AcDbEntity
  8
_U+30EC_U+30A4_U+30E4_U+30FC 1
 62
     7
420
 16777215
370
     9
  0
INSERT
  5
8F
330
1F
100
AcDbEntity
  8
_U+30EC_U+30A4_U+30E4_U+30FC 1
100
AcDbBlockReference
  2
block 5
 10
0.0
 20
0.0
 30
0.0
  0
SPLINE
  5
9A
330
1F
100
AcDbEntity
  8
_U+30EC_U+30A4_U+30E4_U+30FC 1
 62
     7
420
 16777215
370
     9
100
AcDbSpline
210
0.0
220
0.0
230
1.0
 70
    11
 71
     3
 72
    17
 73
    13
 74
     0
 42
0.0000000001
 43
0.0000000001
 12
1.0
 22
0.0
 32
0.0
 13
1.0
 23
0.0
 33
0.0
 40
0.0
 40
0.0
 40
0.0
 40
0.0
 40
1.0
 40
1.0
 40
1.0
 40
2.0
 40
2.0
 40
2.0
 40
3.0
 40
3.0
 40
3.0
 40
4.0
 40
4.0
 40
4.0
 40
4.0
 10
40.97355034356654
 20
-184.2605957872683
 30
0.0
 10
40.97355034356654
 20
-184.3219085650309
 30
0.0
 10
41.02315089785667
 20
-184.3722146761291
 30
0.0
 10
41.08516922960779
 20
-184.3722146761291
 30
0.0
 10
41.14648200582135
 20
-184.3722146761291
 30
0.0
 10
41.19678811564904
 20
-184.3219085650309
 30
0.0
 10
41.19678811564904
 20
-184.2605957872683
 30
0.0
 10
41.19678811564904
 20
-184.1992477317281
 30
0.0
 10
41.14648200582135
 20
-184.1496471761847
 30
0.0
 10
41.08516922960779
 20
-184.1496471761847
 30
0.0
 10
41.02315089785667
 20
-184.1496471761847
 30
0.0
 10
40.97355034356654
 20
-184.1992477317281
 30
0.0
 10
40.97355034356654
 20
-184.2605957872683
 30
0.0
  0
SPLINE
  5
9B
330
1F
100
AcDbEntity
  8
_U+30EC_U+30A4_U+30E4_U+30FC 1
 62
     7
420
 16777215
370
     9
100
AcDbSpline
210
0.0
220
0.0
230
1.0
 70
    11
 71
     3
 72
    17
 73
    13
 74
     0
 42
0.0000000001
 43
0.0000000001
 12
1.0
 22
0.0
 32
0.0
 13
1.0
 23
0.0
 33
0.0
 40
0.0
 40
0.0
 40
0.0
 40
0.0
 40
1.0
 40
1.0
 40
1.0
 40
2.0
 40
2.0
 40
2.0
 40
3.0
 40
3.0
 40
3.0
 40
4.0
 40
4.0
 40
4.0
 40
4.0
 10
141.0367066796316
 20
-184.1496471761847
 30
0.0
 10
140.9760641811787
 20
-184.1496471761847
 30
0.0
 10
140.9257580713511
 20
-184.1992477317281
 30
0.0
 10
140.9257580713511
 20
-184.2605957872683
 30
0.0
 10
140.9257580713511
 20
-184.3219085650309
 30
0.0
 10
140.9760641811787
 20
-184.3722146761291
 30
0.0
 10
141.0367066796316
 20
-184.3722146761291
 30
0.0
 10
141.0993952891434
 20
-184.3722146761291
 30
0.0
 10
141.1497013989711
 20
-184.3219085650309
 30
0.0
 10
141.1497013989711
 20
-184.2605957872683
 30
0.0
 10
141.1497013989711
 20
-184.1992477317281
 30
0.0
 10
141.0993952891434
 20
-184.1496471761847
 30
0.0
 10
141.0367066796316
 20
-184.1496471761847
 30
0.0
  0
SPLINE
  5
9C
330
1F
100
AcDbEntity
  8
_U+30EC_U+30A4_U+30E4_U+30FC 1
 62
     7
420
 16777215
370
     9
100
AcDbSpline
210
0.0
220
0.0
230
1.0
 70
    11
 71
     3
 72
    17
 73
    13
 74
     0
 42
0.0000000001
 43
0.0000000001
 12
1.0
 22
0.0
 32
0.0
 13
1.0
 23
0.0
 33
0.0
 40
0.0
 40
0.0
 40
0.0
 40
0.0
 40
1.0
 40
1.0
 40
1.0
 40
2.0
 40
2.0
 40
2.0
 40
3.0
 40
3.0
 40
3.0
 40
4.0
 40
4.0
 40
4.0
 40
4.0
 10
145.2100676842714
 20
-179.1845821774263
 30
0.0
 10
145.2100676842714
 20
-179.1232693996637
 30
0.0
 10
145.1604671299813
 20
-179.0729632885648
 30
0.0
 10
145.0984487982302
 20
-179.0729632885648
 30
0.0
 10
145.0371360220166
 20
-179.0729632885648
 30
0.0
 10
144.9868299121889
 20
-179.1232693996637
 30
0.0
 10
144.9868299121889
 20
-179.1845821774263
 30
0.0
 10
144.9868299121889
 20
-179.2466005107438
 30
0.0
 10
145.0371360220166
 20
-179.2969066218427
 30
0.0
 10
145.0984487982302
 20
-179.2969066218427
 30
0.0
 10
145.1604671299813
 20
-179.2969066218427
 30
0.0
 10
145.2100676842714
 20
-179.2466005107438
 30
0.0
 10
145.2100676842714
 20
-179.1845821774263
 30
0.0
  0
SPLINE
  5
9D
330
1F
100
AcDbEntity
  8
_U+30EC_U+30A4_U+30E4_U+30FC 1
 62
     7
420
 16777215
370
     9
100
AcDbSpline
210
0.0
220
0.0
230
1.0
 70
    11
 71
     3
 72
    17
 73
    13
 74
     0
 42
0.0000000001
 43
0.0000000001
 12
1.0
 22
0.0
 32
0.0
 13
1.0
 23
0.0
 33
0.0
 40
0.0
 40
0.0
 40
0.0
 40
0.0
 40
1.0
 40
1.0
 40
1.0
 40
2.0
 40
2.0
 40
2.0
 40
3.0
 40
3.0
 40
3.0
 40
4.0
 40
4.0
 40
4.0
 40
4.0
 10
145.2100676842714
 20
-180.184707177176
 30
0.0
 10
145.2100676842714
 20
-180.1233591216358
 30
0.0
 10
145.1604671299813
 20
-180.0737585660925
 30
0.0
 10
145.0984487982302
 20
-180.0737585660925
 30
0.0
 10
145.0371360220166
 20
-180.0737585660925
 30
0.0
 10
144.9868299121889
 20
-180.1233591216358
 30
0.0
 10
144.9868299121889
 20
-180.184707177176
 30
0.0
 10
144.9868299121889
 20
-180.246690232716
 30
0.0
 10
145.0371360220166
 20
-180.2963260660369
 30
0.0
 10
145.0984487982302
 20
-180.2963260660369
 30
0.0
 10
145.1604671299813
 20
-180.2963260660369
 30
0.0
 10
145.2100676842714
 20
-180.246690232716
 30
0.0
 10
145.2100676842714
 20
-180.184707177176
 30
0.0
  0
SPLINE
  5
9E
330
1F
100
AcDbEntity
  8
_U+30EC_U+30A4_U+30E4_U+30FC 1
370
     0
100
AcDbSpline
210
0.0
220
0.0
230
1.0
 70
     8
 71
     3
 72
    14
 73
    10
 74
     0
 42
0.0000000001
 43
0.0000000001
 12
1.0
 22
0.0
 32
0.0
 13
1.0
 23
0.0
 33
0.0
 40
0.0
 40
0.0
 40
0.0
 40
0.0
 40
1.0
 40
1.0
 40
1.0
 40
2.0
 40
2.0
 40
2.0
 40
3.0
 40
3.0
 40
3.0
 40
3.0
 10
41.0729278410312
 20
-90.26151053299029
 30
0.0
 10
41.0729278410312
 20
-90.26151053299029
 30
0.0
 10
41.0729278410312
 20
-179.1856052329815
 30
0.0
 10
41.0729278410312
 20
-179.1856052329815
 30
0.0
 10
41.0729278410312
 20
-179.7357974550663
 30
0.0
 10
41.52286060733024
 20
-180.1857302327311
 30
0.0
 10
42.0728764266315
 20
-180.1857302327311
 30
0.0
 10
42.0728764266315
 20
-180.1857302327311
 30
0.0
 10
141.0732191787001
 20
-180.1857302327311
 30
0.0
 10
141.0732191787001
 20
-180.1857302327311
 30
0.0
  0
SPLINE
  5
9F
330
1F
100
AcDbEntity
  8
_U+30EC_U+30A4_U+30E4_U+30FC 1
 62
     7
420
 16777215
370
    25
100
AcDbSpline
210
0.0
220
0.0
230
1.0
 70
    11
 71
     3
 72
    32
 73
    28
 74
     0
 42
0.0000000001
 43
0.0000000001
 12
1.0
 22
0.0
 32
0.0
 13
1.0
 23
0.0
 33
0.0
 40
0.0
 40
0.0
 40
0.0
 40
0.0
 40
1.0
 40
1.0
 40
1.0
 40
2.0
 40
2.0
 40
2.0
 40
3.0
 40
3.0
 40
3.0
 40
4.0
 40
4.0
 40
4.0
 40
5.0
 40
5.0
 40
5.0
 40
6.0
 40
6.0
 40
6.0
 40
7.0
 40
7.0
 40
7.0
 40
8.0
 40
8.0
 40
8.0
 40
9.0
 40
9.0
 40
9.0
 40
9.0
 10
141.0732191787001
 20
-180.1857302327311
 30
0.0
 10
141.0732191787001
 20
-180.1857302327311
 30
0.0
 10
42.0728764266315
 20
-180.1857302327311
 30
0.0
 10
42.0728764266315
 20
-180.1857302327311
 30
0.0
 10
41.52286060733024
 20
-180.1857302327311
 30
0.0
 10
41.0729278410312
 20
-179.7357974550663
 30
0.0
 10
41.0729278410312
 20
-179.1856052329815
 30
0.0
 10
41.0729278410312
 20
-179.1856052329815
 30
0.0
 10
41.0729278410312
 20
-80.18578914662035
 30
0.0
 10
41.0729278410312
 20
-80.18578914662035
 30
0.0
 10
41.0729278410312
 20
-80.18578914662035
 30
0.0
 10
42.0728764266315
 20
-80.18578914662035
 30
0.0
 10
42.0728764266315
 20
-80.18578914662035
 30
0.0
 10
42.0728764266315
 20
-80.18578914662035
 30
0.0
 10
42.0728764266315
 20
-178.6753827331091
 30
0.0
 10
42.0728764266315
 20
-178.6753827331091
 30
0.0
 10
42.0728764266315
 20
-178.6753827331091
 30
0.0
 10
42.07202975998644
 20
-178.6781696775524
 30
0.0
 10
42.07202975998644
 20
-178.6781696775524
 30
0.0
 10
42.07202975998644
 20
-178.9558410663724
 30
0.0
 10
42.29766642089663
 20
-179.1814777329822
 30
0.0
 10
42.57551419158592
 20
-179.1814777329822
 30
0.0
 10
42.57551419158592
 20
-179.1814777329822
 30
0.0
 10
141.0697619565661
 20
-179.1814777329822
 30
0.0
 10
141.0697619565661
 20
-179.1814777329822
 30
0.0
 10
141.0697619565661
 20
-179.1814777329822
 30
0.0
 10
141.0732191787001
 20
-180.1857302327311
 30
0.0
 10
141.0732191787001
 20
-180.1857302327311
 30
0.0
  0
HATCH
  5
A0
330
1F
100
AcDbEntity
  8
_U+30EC_U+30A4_U+30E4_U+30FC 1
 62
   253
420
 10855845
100
AcDbHatch
 10
0.0
 20
0.0
 30
0.0
210
0.0
220
0.0
230
1.0
  2
SOLID
 70
     1
 71
     0
 91
        1
 92
        1
 93
        1
 72
     4
 94
        3
 73
     0
 74
     1
 95
       32
 96
       28
 40
0.0
 40
0.0
 40
0.0
 40
0.0
 40
1.0
 40
1.0
 40
1.0
 40
2.0
 40
2.0
 40
2.0
 40
3.0
 40
3.0
 40
3.0
 40
4.0
 40
4.0
 40
4.0
 40
5.0
 40
5.0
 40
5.0
 40
6.0
 40
6.0
 40
6.0
 40
7.0
 40
7.0
 40
7.0
 40
8.0
 40
8.0
 40
8.0
 40
9.0
 40
9.0
 40
9.0
 40
9.0
 10
141.0732191787001
 20
-180.1857302327311
 10
141.0732191787001
 20
-180.1857302327311
 10
42.0728764266315
 20
-180.1857302327311
 10
42.0728764266315
 20
-180.1857302327311
 10
41.52286060733024
 20
-180.1857302327311
 10
41.0729278410312
 20
-179.7357974550663
 10
41.0729278410312
 20
-179.1856052329815
 10
41.0729278410312
 20
-179.1856052329815
 10
41.0729278410312
 20
-80.18578914662035
 10
41.0729278410312
 20
-80.18578914662035
 10
41.0729278410312
 20
-80.18578914662035
 10
42.0728764266315
 20
-80.18578914662035
 10
42.0728764266315
 20
-80.18578914662035
 10
42.0728764266315
 20
-80.18578914662035
 10
42.0728764266315
 20
-178.6753827331091
 10
42.0728764266315
 20
-178.6753827331091
 10
42.0728764266315
 20
-178.6753827331091
 10
42.07202975998644
 20
-178.6781696775524
 10
42.07202975998644
 20
-178.6781696775524
 10
42.07202975998644
 20
-178.9558410663724
 10
42.29766642089663
 20
-179.1814777329822
 10
42.57551419158592
 20
-179.1814777329822
 10
42.57551419158592
 20
-179.1814777329822
 10
141.0697619565661
 20
-179.1814777329822
 10
141.0697619565661
 20
-179.1814777329822
 10
141.0697619565661
 20
-179.1814777329822
 10
141.0732191787001
 20
-180.1857302327311
 10
141.0732191787001
 20
-180.1857302327311
 97
        0
 97
        0
 75
     2
 76
     1
 98
        0
  0
ENDSEC
  0
SECTION
  2
OBJECTS
  0
DICTIONARY
  5
C
330
0
100
AcDbDictionary
281
     1
  3
ACAD_GROUP
350
D
  3
ACAD_LAYOUT
350
1A
  3
ACAD_MATERIAL
350
3B
  3
ACAD_MLEADERSTYLE
350
A2
  3
ACAD_MLINESTYLE
350
17
  3
ACAD_PLOTSETTINGS
350
19
  3
ACAD_PLOTSTYLENAME
350
E
  3
ACAD_TABLESTYLE
350
A1
  3
ACAD_VISUALSTYLE
350
2A
  0
SUN
  5
3F
330
29
100
AcDbSun
 90
        1
290
     0
 63
     7
421
 16777215
 40
1.0
291
     1
 91
  2455826
 92
 54000000
292
     0
 70
     2
 71
   256
280
     1
  0
DICTIONARY
  5
D
102
{ACAD_REACTORS
330
C
102
}
330
C
100
AcDbDictionary
281
     1
  0
DICTIONARY
  5
1A
102
{ACAD_REACTORS
330
C
102
}
330
C
100
AcDbDictionary
281
     1
  3
Layout1
350
1E
  3
Layout2
350
26
  3
Model
350
22
  0
DICTIONARY
  5
3B
102
{ACAD_REACTORS
330
C
102
}
330
C
100
AcDbDictionary
281
     1
  3
ByBlock
350
3D
  3
ByLayer
350
3C
  3
Global
350
3E
  0
DICTIONARY
  5
A2
102
{ACAD_REACTORS
330
C
102
}
330
C
100
AcDbDictionary
281
     1
  0
DICTIONARY
  5
17
102
{ACAD_REACTORS
330
C
102
}
330
C
100
AcDbDictionary
281
     1
  3
Standard
350
18
  0
DICTIONARY
  5
19
102
{ACAD_REACTORS
330
C
102
}
330
C
100
AcDbDictionary
281
     1
  0
ACDBDICTIONARYWDFLT
  5
E
102
{ACAD_REACTORS
330
C
102
}
330
C
100
AcDbDictionary
281
     1
  3
Normal
350
F
100
AcDbDictionaryWithDefault
340
F
  0
DICTIONARY
  5
A1
102
{ACAD_REACTORS
330
C
102
}
330
C
100
AcDbDictionary
281
     1
  0
DICTIONARY
  5
2A
102
{ACAD_REACTORS
330
C
102
}
330
C
100
AcDbDictionary
281
     1
  3
2dWireframe
350
2F
  3
3D Hidden
350
31
  3
3dWireframe
350
30
  3
Basic
350
32
  3
Brighten
350
36
  3
ColorChange
350
3A
  3
Conceptual
350
34
  3
Dim
350
35
  3
Facepattern
350
39
  3
Flat
350
2B
  3
FlatWithEdges
350
2C
  3
Gouraud
350
2D
  3
GouraudWithEdges
350
2E
  3
Linepattern
350
38
  3
Realistic
350
33
  3
Thicken
350
37
  0
LAYOUT
  5
1E
102
{ACAD_REACTORS
330
1A
102
}
330
1A
100
AcDbPlotSettings
  1

  2
none_device
  4

  6

 40
0.0
 41
0.0
 42
0.0
 43
0.0
 44
0.0
 45
0.0
 46
0.0
 47
0.0
 48
0.0
 49
0.0
140
0.0
141
0.0
142
1.0
143
1.0
 70
   688
 72
     0
 73
     0
 74
     5
  7

 75
    16
 76
     0
 77
     2
 78
   300
147
1.0
148
0.0
149
0.0
100
AcDbLayout
  1
Layout1
 70
     1
 71
     1
 10
0.0
 20
0.0
 11
12.0
 21
9.0
 12
0.0
 22
0.0
 32
0.0
 14
1.000000000000000E+20
 24
1.000000000000000E+20
 34
1.000000000000000E+20
 15
-1.000000000000000E+20
 25
-1.000000000000000E+20
 35
-1.000000000000000E+20
146
0.0
 13
0.0
 23
0.0
 33
0.0
 16
1.0
 26
0.0
 36
0.0
 17
0.0
 27
1.0
 37
0.0
 76
     0
330
1B
  0
LAYOUT
  5
26
102
{ACAD_REACTORS
330
1A
102
}
330
1A
100
AcDbPlotSettings
  1

  2
none_device
  4

  6

 40
0.0
 41
0.0
 42
0.0
 43
0.0
 44
0.0
 45
0.0
 46
0.0
 47
0.0
 48
0.0
 49
0.0
140
0.0
141
0.0
142
1.0
143
1.0
 70
   688
 72
     0
 73
     0
 74
     5
  7

 75
    16
 76
     0
 77
     2
 78
   300
147
1.0
148
0.0
149
0.0
100
AcDbLayout
  1
Layout2
 70
     1
 71
     2
 10
0.0
 20
0.0
 11
0.0
 21
0.0
 12
0.0
 22
0.0
 32
0.0
 14
0.0
 24
0.0
 34
0.0
 15
0.0
 25
0.0
 35
0.0
146
0.0
 13
0.0
 23
0.0
 33
0.0
 16
1.0
 26
0.0
 36
0.0
 17
0.0
 27
1.0
 37
0.0
 76
     0
330
23
  0
LAYOUT
  5
22
102
{ACAD_REACTORS
330
1A
102
}
330
1A
100
AcDbPlotSettings
  1

  2
none_device
  4

  6

 40
0.0
 41
0.0
 42
0.0
 43
0.0
 44
0.0
 45
0.0
 46
0.0
 47
0.0
 48
0.0
 49
0.0
140
0.0
141
0.0
142
1.0
143
1.0
 70
  1712
 72
     0
 73
     0
 74
     0
  7

 75
     0
 76
     0
 77
     2
 78
   300
147
1.0
148
0.0
149
0.0
100
AcDbLayout
  1
Model
 70
     1
 71
     0
 10
0.0
 20
0.0
 11
12.0
 21
9.0
 12
0.0
 22
0.0
 32
0.0
 14
1.000000000000000E+20
 24
1.000000000000000E+20
 34
1.000000000000000E+20
 15
-1.000000000000000E+20
 25
-1.000000000000000E+20
 35
-1.000000000000000E+20
146
0.0
 13
0.0
 23
0.0
 33
0.0
 16
1.0
 26
0.0
 36
0.0
 17
0.0
 27
1.0
 37
0.0
 76
     0
330
1F
331
29
  0
MATERIAL
  5
3D
102
{ACAD_REACTORS
330
3B
102
}
330
3B
100
AcDbMaterial
  1
ByBlock
 72
     1
 94
      127
  0
MATERIAL
  5
3C
102
{ACAD_REACTORS
330
3B
102
}
330
3B
100
AcDbMaterial
  1
ByLayer
 72
     1
 94
      127
  0
MATERIAL
  5
3E
102
{ACAD_REACTORS
330
3B
102
}
330
3B
100
AcDbMaterial
  1
Global
 72
     1
 94
      127
  0
MLINESTYLE
  5
18
102
{ACAD_REACTORS
330
17
102
}
330
17
100
AcDbMlineStyle
  2
Standard
 70
     0
  3

 62
   256
 51
90.0
 52
90.0
 71
     2
 49
0.5
 62
   256
  6
BYLAYER
 49
-0.5
 62
   256
  6
BYLAYER
  0
ACDBPLACEHOLDER
  5
F
102
{ACAD_REACTORS
330
E
102
}
330
E
  0
VISUALSTYLE
  5
2F
102
{ACAD_REACTORS
330
2A
102
}
330
2A
100
AcDbVisualStyle
  2
2dWireframe
 70
     4
177
     2
291
     0
 71
     0
176
     1
 72
     2
176
     1
 73
     0
176
     1
 90
        0
176
     1
 40
-0.6
176
     1
 41
-30.0
176
     1
 62
     5
 63
     7
421
 16777215
176
     1
 74
     1
176
     1
 91
        4
176
     1
 64
     7
176
     1
 65
   257
176
     1
 75
     1
176
     1
175
     1
176
     1
 42
1.0
176
     1
 92
        0
176
     1
 66
   257
176
     1
 43
1.0
176
     1
 76
     1
176
     1
 77
     6
176
     1
 78
     2
176
     1
 67
     7
176
     1
 79
     5
176
     1
170
     0
176
     1
171
     0
176
     1
290
     0
176
     1
 93
        1
176
     1
 44
0.0
176
     1
173
     0
176
     1
  0
VISUALSTYLE
  5
31
102
{ACAD_REACTORS
330
2A
102
}
330
2A
100
AcDbVisualStyle
  2
3D Hidden
 70
     6
177
     2
291
     0
 71
     1
176
     1
 72
     2
176
     1
 73
     2
176
     1
 90
        0
176
     1
 40
-0.6
176
     1
 41
-30.0
176
     1
 62
     5
 63
     7
421
 16777215
176
     1
 74
     2
176
     1
 91
        2
176
     1
 64
     7
176
     1
 65
   257
176
     1
 75
     2
176
     1
175
     1
176
     1
 42
40.0
176
     1
 92
        0
176
     1
 66
   257
176
     1
 43
1.0
176
     1
 76
     1
176
     1
 77
     6
176
     1
 78
     2
176
     1
 67
     7
176
     1
 79
     3
176
     1
170
     0
176
     1
171
     0
176
     1
290
     0
176
     1
 93
        1
176
     1
 44
0.0
176
     1
173
     0
176
     1
  0
VISUALSTYLE
  5
30
102
{ACAD_REACTORS
330
2A
102
}
330
2A
100
AcDbVisualStyle
  2
3dWireframe
 70
     5
177
     2
291
     0
 71
     0
176
     1
 72
     2
176
     1
 73
     0
176
     1
 90
        0
176
     1
 40
-0.6
176
     1
 41
-30.0
176
     1
 62
     5
 63
     7
421
 16777215
176
     1
 74
     1
176
     1
 91
        4
176
     1
 64
     7
176
     1
 65
   257
176
     1
 75
     1
176
     1
175
     1
176
     1
 42
1.0
176
     1
 92
        0
176
     1
 66
   257
176
     1
 43
1.0
176
     1
 76
     1
176
     1
 77
     6
176
     1
 78
     2
176
     1
 67
     7
176
     1
 79
     5
176
     1
170
     0
176
     1
171
     0
176
     1
290
     0
176
     1
 93
        1
176
     1
 44
0.0
176
     1
173
     0
176
     1
  0
VISUALSTYLE
  5
32
102
{ACAD_REACTORS
330
2A
102
}
330
2A
100
AcDbVisualStyle
  2
Basic
 70
     7
177
     2
291
     1
 71
     1
176
     1
 72
     0
176
     1
 73
     1
176
     1
 90
        0
176
     1
 40
-0.6
176
     1
 41
-30.0
176
     1
 62
     5
 63
     7
421
 16777215
176
     1
 74
     0
176
     1
 91
        4
176
     1
 64
     7
176
     1
 65
   257
176
     1
 75
     1
176
     1
175
     1
176
     1
 42
1.0
176
     1
 92
        8
176
     1
 66
     7
176
     1
 43
1.0
176
     1
 76
     1
176
     1
 77
     6
176
     1
 78
     2
176
     1
 67
     7
176
     1
 79
     5
176
     1
170
     0
176
     1
171
     0
176
     1
290
     0
176
     1
 93
        1
176
     1
 44
0.0
176
     1
173
     0
176
     1
  0
VISUALSTYLE
  5
36
102
{ACAD_REACTORS
330
2A
102
}
330
2A
100
AcDbVisualStyle
  2
Brighten
 70
    12
177
     2
291
     1
 71
     2
176
     1
 72
     2
176
     1
 73
     0
176
     1
 90
        0
176
     1
 40
-0.6
176
     1
 41
-30.0
176
     1
 62
     5
 63
     7
421
 16777215
176
     1
 74
     1
176
     1
 91
        4
176
     1
 64
     7
176
     1
 65
   257
176
     1
 75
     1
176
     1
175
     1
176
     1
 42
1.0
176
     1
 92
        8
176
     1
 66
     7
176
     1
 43
1.0
176
     1
 76
     1
176
     1
 77
     6
176
     1
 78
     2
176
     1
 67
     7
176
     1
 79
     5
176
     1
170
     0
176
     1
171
     0
176
     1
290
     0
176
     1
 93
        1
176
     1
 44
50.0
176
     1
173
     0
176
     1
  0
VISUALSTYLE
  5
3A
102
{ACAD_REACTORS
330
2A
102
}
330
2A
100
AcDbVisualStyle
  2
ColorChange
 70
    16
177
     2
291
     1
 71
     2
176
     1
 72
     2
176
     1
 73
     3
176
     1
 90
        0
176
     1
 40
-0.6
176
     1
 41
-30.0
176
     1
 62
     5
 63
     8
421
  8421504
176
     1
 74
     1
176
     1
 91
        4
176
     1
 64
     7
176
     1
 65
   257
176
     1
 75
     1
176
     1
175
     1
176
     1
 42
1.0
176
     1
 92
        8
176
     1
 66
     8
424
  8421504
176
     1
 43
1.0
176
     1
 76
     1
176
     1
 77
     6
176
     1
 78
     2
176
     1
 67
     7
176
     1
 79
     5
176
     1
170
     0
176
     1
171
     0
176
     1
290
     0
176
     1
 93
        1
176
     1
 44
0.0
176
     1
173
     0
176
     1
  0
VISUALSTYLE
  5
34
102
{ACAD_REACTORS
330
2A
102
}
330
2A
100
AcDbVisualStyle
  2
Conceptual
 70
     9
177
     2
291
     0
 71
     3
176
     1
 72
     2
176
     1
 73
     0
176
     1
 90
        0
176
     1
 40
-0.6
176
     1
 41
-30.0
176
     1
 62
     5
 63
     7
421
 16777215
176
     1
 74
     2
176
     1
 91
        2
176
     1
 64
     7
176
     1
 65
   257
176
     1
 75
     1
176
     1
175
     1
176
     1
 42
40.0
176
     1
 92
        8
176
     1
 66
     7
176
     1
 43
1.0
176
     1
 76
     1
176
     1
 77
     6
176
     1
 78
     2
176
     1
 67
     7
176
     1
 79
     3
176
     1
170
     0
176
     1
171
     0
176
     1
290
     0
176
     1
 93
        1
176
     1
 44
0.0
176
     1
173
     0
176
     1
  0
VISUALSTYLE
  5
35
102
{ACAD_REACTORS
330
2A
102
}
330
2A
100
AcDbVisualStyle
  2
Dim
 70
    11
177
     2
291
     1
 71
     2
176
     1
 72
     2
176
     1
 73
     0
176
     1
 90
        0
176
     1
 40
-0.6
176
     1
 41
-30.0
176
     1
 62
     5
 63
     7
421
 16777215
176
     1
 74
     1
176
     1
 91
        4
176
     1
 64
     7
176
     1
 65
   257
176
     1
 75
     1
176
     1
175
     1
176
     1
 42
1.0
176
     1
 92
        8
176
     1
 66
     7
176
     1
 43
1.0
176
     1
 76
     1
176
     1
 77
     6
176
     1
 78
     2
176
     1
 67
     7
176
     1
 79
     5
176
     1
170
     0
176
     1
171
     0
176
     1
290
     0
176
     1
 93
        1
176
     1
 44
-50.0
176
     1
173
     0
176
     1
  0
VISUALSTYLE
  5
39
102
{ACAD_REACTORS
330
2A
102
}
330
2A
100
AcDbVisualStyle
  2
Facepattern
 70
    15
177
     2
291
     1
 71
     2
176
     1
 72
     2
176
     1
 73
     0
176
     1
 90
        0
176
     1
 40
-0.6
176
     1
 41
-30.0
176
     1
 62
     5
 63
     7
421
 16777215
176
     1
 74
     1
176
     1
 91
        4
176
     1
 64
     7
176
     1
 65
   257
176
     1
 75
     1
176
     1
175
     1
176
     1
 42
1.0
176
     1
 92
        8
176
     1
 66
     7
176
     1
 43
1.0
176
     1
 76
     1
176
     1
 77
     6
176
     1
 78
     2
176
     1
 67
     7
176
     1
 79
     5
176
     1
170
     0
176
     1
171
     0
176
     1
290
     0
176
     1
 93
        1
176
     1
 44
0.0
176
     1
173
     0
176
     1
  0
VISUALSTYLE
  5
2B
102
{ACAD_REACTORS
330
2A
102
}
330
2A
100
AcDbVisualStyle
  2
Flat
 70
     0
177
     2
291
     1
 71
     2
176
     1
 72
     1
176
     1
 73
     1
176
     1
 90
        2
176
     1
 40
-0.6
176
     1
 41
30.0
176
     1
 62
     5
 63
     7
421
 16777215
176
     1
 74
     0
176
     1
 91
        4
176
     1
 64
     7
176
     1
 65
   257
176
     1
 75
     1
176
     1
175
     1
176
     1
 42
1.0
176
     1
 92
        8
176
     1
 66
     7
176
     1
 43
1.0
176
     1
 76
     1
176
     1
 77
     6
176
     1
 78
     2
176
     1
 67
     7
176
     1
 79
     5
176
     1
170
     0
176
     1
171
     0
176
     1
290
     0
176
     1
 93
       13
176
     1
 44
0.0
176
     1
173
     0
176
     1
  0
VISUALSTYLE
  5
2C
102
{ACAD_REACTORS
330
2A
102
}
330
2A
100
AcDbVisualStyle
  2
FlatWithEdges
 70
     1
177
     2
291
     1
 71
     2
176
     1
 72
     1
176
     1
 73
     1
176
     1
 90
        2
176
     1
 40
-0.6
176
     1
 41
30.0
176
     1
 62
     5
 63
     7
421
 16777215
176
     1
 74
     1
176
     1
 91
        4
176
     1
 64
     7
176
     1
 65
   257
176
     1
 75
     1
176
     1
175
     1
176
     1
 42
1.0
176
     1
 92
        0
176
     1
 66
   257
176
     1
 43
1.0
176
     1
 76
     1
176
     1
 77
     6
176
     1
 78
     2
176
     1
 67
     7
176
     1
 79
     5
176
     1
170
     0
176
     1
171
     0
176
     1
290
     0
176
     1
 93
       13
176
     1
 44
0.0
176
     1
173
     0
176
     1
  0
VISUALSTYLE
  5
2D
102
{ACAD_REACTORS
330
2A
102
}
330
2A
100
AcDbVisualStyle
  2
Gouraud
 70
     2
177
     2
291
     1
 71
     2
176
     1
 72
     2
176
     1
 73
     1
176
     1
 90
        2
176
     1
 40
-0.6
176
     1
 41
30.0
176
     1
 62
     5
 63
     7
421
 16777215
176
     1
 74
     0
176
     1
 91
        4
176
     1
 64
     7
176
     1
 65
   257
176
     1
 75
     1
176
     1
175
     1
176
     1
 42
1.0
176
     1
 92
        0
176
     1
 66
     7
176
     1
 43
1.0
176
     1
 76
     1
176
     1
 77
     6
176
     1
 78
     2
176
     1
 67
     7
176
     1
 79
     5
176
     1
170
     0
176
     1
171
     0
176
     1
290
     0
176
     1
 93
       13
176
     1
 44
0.0
176
     1
173
     0
176
     1
  0
VISUALSTYLE
  5
2E
102
{ACAD_REACTORS
330
2A
102
}
330
2A
100
AcDbVisualStyle
  2
GouraudWithEdges
 70
     3
177
     2
291
     1
 71
     2
176
     1
 72
     2
176
     1
 73
     1
176
     1
 90
        2
176
     1
 40
-0.6
176
     1
 41
30.0
176
     1
 62
     5
 63
     7
421
 16777215
176
     1
 74
     1
176
     1
 91
        4
176
     1
 64
     7
176
     1
 65
   257
176
     1
 75
     1
176
     1
175
     1
176
     1
 42
1.0
176
     1
 92
        0
176
     1
 66
   257
176
     1
 43
1.0
176
     1
 76
     1
176
     1
 77
     6
176
     1
 78
     2
176
     1
 67
     7
176
     1
 79
     5
176
     1
170
     0
176
     1
171
     0
176
     1
290
     0
176
     1
 93
       13
176
     1
 44
0.0
176
     1
173
     0
176
     1
  0
VISUALSTYLE
  5
38
102
{ACAD_REACTORS
330
2A
102
}
330
2A
100
AcDbVisualStyle
  2
Linepattern
 70
    14
177
     2
291
     1
 71
     2
176
     1
 72
     2
176
     1
 73
     0
176
     1
 90
        0
176
     1
 40
-0.6
176
     1
 41
-30.0
176
     1
 62
     5
 63
     7
421
 16777215
176
     1
 74
     1
176
     1
 91
        4
176
     1
 64
     7
176
     1
 65
   257
176
     1
 75
     7
176
     1
175
     7
176
     1
 42
1.0
176
     1
 92
        8
176
     1
 66
     7
176
     1
 43
1.0
176
     1
 76
     1
176
     1
 77
     6
176
     1
 78
     2
176
     1
 67
     7
176
     1
 79
     5
176
     1
170
     0
176
     1
171
     0
176
     1
290
     0
176
     1
 93
        1
176
     1
 44
0.0
176
     1
173
     0
176
     1
  0
VISUALSTYLE
  5
33
102
{ACAD_REACTORS
330
2A
102
}
330
2A
100
AcDbVisualStyle
  2
Realistic
 70
     8
177
     2
291
     0
 71
     2
176
     1
 72
     2
176
     1
 73
     0
176
     1
 90
        0
176
     1
 40
-0.6
176
     1
 41
-30.0
176
     1
 62
     5
 63
     7
421
 16777215
176
     1
 74
     1
176
     1
 91
        0
176
     1
 64
     7
176
     1
 65
   257
176
     1
 75
     1
176
     1
175
     1
176
     1
 42
1.0
176
     1
 92
        8
176
     1
 66
     8
424
  7895160
176
     1
 43
1.0
176
     1
 76
     1
176
     1
 77
     6
176
     1
 78
     2
176
     1
 67
     7
176
     1
 79
     5
176
     1
170
     0
176
     1
171
     0
176
     1
290
     0
176
     1
 93
       13
176
     1
 44
0.0
176
     1
173
     0
176
     1
  0
VISUALSTYLE
  5
37
102
{ACAD_REACTORS
330
2A
102
}
330
2A
100
AcDbVisualStyle
  2
Thicken
 70
    13
177
     2
291
     1
 71
     2
176
     1
 72
     2
176
     1
 73
     0
176
     1
 90
        0
176
     1
 40
-0.6
176
     1
 41
-30.0
176
     1
 62
     5
 63
     7
421
 16777215
176
     1
 74
     1
176
     1
 91
        4
176
     1
 64
     7
176
     1
 65
   257
176
     1
 75
     1
176
     1
175
     1
176
     1
 42
1.0
176
     1
 92
       12
176
     1
 66
     7
176
     1
 43
1.0
176
     1
 76
     1
176
     1
 77
     6
176
     1
 78
     2
176
     1
 67
     7
176
     1
 79
     5
176
     1
170
     0
176
     1
171
     0
176
     1
290
     0
176
     1
 93
        1
176
     1
 44
0.0
176
     1
173
     0
176
     1
  0
ENDSEC
  0
EOF
