  0
SECTION
  2
HEADER
  9
$ACADVER
  1
AC1024
  9
$ACADMAINTVER
 70
     6
  9
$DWGCODEPAGE
  3
UNDEFINED
  9
$INSBASE
 10
0.0
 20
0.0
 30
0.0
  9
$EXTMIN
 10
1.000000000000000E+20
 20
1.000000000000000E+20
 30
1.000000000000000E+20
  9
$EXTMAX
 10
-1.000000000000000E+20
 20
-1.000000000000000E+20
 30
-1.000000000000000E+20
  9
$LIMMIN
 10
0.0
 20
0.0
  9
$LIMMAX
 10
12.0
 20
9.0
  9
$ORTHOMODE
 70
     0
  9
$REGENMODE
 70
     1
  9
$FILLMODE
 70
     1
  9
$QTEXTMODE
 70
     0
  9
$MIRRTEXT
 70
     1
  9
$LTSCALE
 40
1.0
  9
$ATTMODE
 70
     1
  9
$TEXTSIZE
 40
0.2
  9
$TRACEWID
 40
0.05
  9
$TEXTSTYLE
  7
Standard
  9
$CLAYER
  8
0
  9
$CELTYPE
  6
ByLayer
  9
$CECOLOR
 62
   256
  9
$CELTSCALE
 40
1.0
  9
$DISPSILH
 70
     0
  9
$DIMSCALE
 40
1.0
  9
$DIMASZ
 40
0.18
  9
$DIMEXO
 40
0.0625
  9
$DIMDLI
 40
0.38
  9
$DIMRND
 40
0.0
  9
$DIMDLE
 40
0.0
  9
$DIMEXE
 40
0.18
  9
$DIMTP
 40
0.0
  9
$DIMTM
 40
0.0
  9
$DIMTXT
 40
0.18
  9
$DIMCEN
 40
0.09
  9
$DIMTSZ
 40
0.0
  9
$DIMTOL
 70
     0
  9
$DIMLIM
 70
     0
  9
$DIMTIH
 70
     1
  9
$DIMTOH
 70
     1
  9
$DIMSE1
 70
     0
  9
$DIMSE2
 70
     0
  9
$DIMTAD
 70
     0
  9
$DIMZIN
 70
     0
  9
$DIMBLK
  1

  9
$DIMASO
 70
     1
  9
$DIMSHO
 70
     1
  9
$DIMPOST
  1

  9
$DIMAPOST
  1

  9
$DIMALT
 70
     0
  9
$DIMALTD
 70
     2
  9
$DIMALTF
 40
25.4
  9
$DIMLFAC
 40
1.0
  9
$DIMTOFL
 70
     0
  9
$DIMTVP
 40
0.0
  9
$DIMTIX
 70
     0
  9
$DIMSOXD
 70
     0
  9
$DIMSAH
 70
     0
  9
$DIMBLK1
  1

  9
$DIMBLK2
  1

  9
$DIMSTYLE
  2
Standard
  9
$DIMCLRD
 70
     0
  9
$DIMCLRE
 70
     0
  9
$DIMCLRT
 70
     0
  9
$DIMTFAC
 40
1.0
  9
$DIMGAP
 40
0.09
  9
$DIMJUST
 70
     0
  9
$DIMSD1
 70
     0
  9
$DIMSD2
 70
     0
  9
$DIMTOLJ
 70
     1
  9
$DIMTZIN
 70
     0
  9
$DIMALTZ
 70
     0
  9
$DIMALTTZ
 70
     0
  9
$DIMUPT
 70
     0
  9
$DIMDEC
 70
     4
  9
$DIMTDEC
 70
     4
  9
$DIMALTU
 70
     2
  9
$DIMALTTD
 70
     2
  9
$DIMTXSTY
  7
Standard
  9
$DIMAUNIT
 70
     0
  9
$DIMADEC
 70
     0
  9
$DIMALTRND
 40
0.0
  9
$DIMAZIN
 70
     0
  9
$DIMDSEP
 70
    46
  9
$DIMATFIT
 70
     3
  9
$DIMFRAC
 70
     0
  9
$DIMLDRBLK
  1

  9
$DIMLUNIT
 70
     2
  9
$DIMLWD
 70
    -2
  9
$DIMLWE
 70
    -2
  9
$DIMTMOVE
 70
     0
  9
$DIMFXL
 40
1.0
  9
$DIMFXLON
 70
     0
  9
$DIMJOGANG
 40
0.7853981633974483
  9
$DIMTFILL
 70
     0
  9
$DIMTFILLCLR
 70
     0
  9
$DIMARCSYM
 70
     0
  9
$DIMLTYPE
  6

  9
$DIMLTEX1
  6

  9
$DIMLTEX2
  6

  9
$DIMTXTDIRECTION
 70
     0
  9
$LUNITS
 70
     2
  9
$LUPREC
 70
     4
  9
$SKETCHINC
 40
0.1
  9
$FILLETRAD
 40
0.5
  9
$AUNITS
 70
     0
  9
$AUPREC
 70
     0
  9
$MENU
  1
.
  9
$ELEVATION
 40
0.0
  9
$PELEVATION
 40
0.0
  9
$THICKNESS
 40
0.0
  9
$LIMCHECK
 70
     0
  9
$CHAMFERA
 40
0.5
  9
$CHAMFERB
 40
0.5
  9
$CHAMFERC
 40
1.0
  9
$CHAMFERD
 40
0.0
  9
$SKPOLY
 70
     0
  9
$TDCREATE
 40
2457917.625856481
  9
$TDUCREATE
 40
2457917.250856481
  9
$TDUPDATE
 40
2457917.625856481
  9
$TDUUPDATE
 40
2457917.250856481
  9
$TDINDWG
 40
0.0000000116
  9
$TDUSRTIMER
 40
0.0000000116
  9
$USRTIMER
 70
     1
  9
$ANGBASE
 50
0.0
  9
$ANGDIR
 70
     0
  9
$PDMODE
 70
     0
  9
$PDSIZE
 40
0.0
  9
$PLINEWID
 40
0.0
  9
$SPLFRAME
 70
     0
  9
$SPLINETYPE
 70
     6
  9
$SPLINESEGS
 70
     8
  9
$HANDSEED
  5
9A
  9
$SURFTAB1
 70
     6
  9
$SURFTAB2
 70
     6
  9
$SURFTYPE
 70
     6
  9
$SURFU
 70
     6
  9
$SURFV
 70
     6
  9
$UCSBASE
  2

  9
$UCSNAME
  2

  9
$UCSORG
 10
0.0
 20
0.0
 30
0.0
  9
$UCSXDIR
 10
1.0
 20
0.0
 30
0.0
  9
$UCSYDIR
 10
0.0
 20
1.0
 30
0.0
  9
$UCSORTHOREF
  2

  9
$UCSORTHOVIEW
 70
     0
  9
$UCSORGTOP
 10
0.0
 20
0.0
 30
0.0
  9
$UCSORGBOTTOM
 10
0.0
 20
0.0
 30
0.0
  9
$UCSORGLEFT
 10
0.0
 20
0.0
 30
0.0
  9
$UCSORGRIGHT
 10
0.0
 20
0.0
 30
0.0
  9
$UCSORGFRONT
 10
0.0
 20
0.0
 30
0.0
  9
$UCSORGBACK
 10
0.0
 20
0.0
 30
0.0
  9
$PUCSBASE
  2

  9
$PUCSNAME
  2

  9
$PUCSORG
 10
0.0
 20
0.0
 30
0.0
  9
$PUCSXDIR
 10
1.0
 20
0.0
 30
0.0
  9
$PUCSYDIR
 10
0.0
 20
1.0
 30
0.0
  9
$PUCSORTHOREF
  2

  9
$PUCSORTHOVIEW
 70
     0
  9
$PUCSORGTOP
 10
0.0
 20
0.0
 30
0.0
  9
$PUCSORGBOTTOM
 10
0.0
 20
0.0
 30
0.0
  9
$PUCSORGLEFT
 10
0.0
 20
0.0
 30
0.0
  9
$PUCSORGRIGHT
 10
0.0
 20
0.0
 30
0.0
  9
$PUCSORGFRONT
 10
0.0
 20
0.0
 30
0.0
  9
$PUCSORGBACK
 10
0.0
 20
0.0
 30
0.0
  9
$USERI1
 70
     0
  9
$USERI2
 70
     0
  9
$USERI3
 70
     0
  9
$USERI4
 70
     0
  9
$USERI5
 70
     0
  9
$USERR1
 40
0.0
  9
$USERR2
 40
0.0
  9
$USERR3
 40
0.0
  9
$USERR4
 40
0.0
  9
$USERR5
 40
0.0
  9
$WORLDVIEW
 70
     1
  9
$SHADEDGE
 70
     3
  9
$SHADEDIF
 70
    70
  9
$TILEMODE
 70
     1
  9
$MAXACTVP
 70
    64
  9
$PINSBASE
 10
0.0
 20
0.0
 30
0.0
  9
$PLIMCHECK
 70
     0
  9
$PEXTMIN
 10
1.000000000000000E+20
 20
1.000000000000000E+20
 30
1.000000000000000E+20
  9
$PEXTMAX
 10
-1.000000000000000E+20
 20
-1.000000000000000E+20
 30
-1.000000000000000E+20
  9
$PLIMMIN
 10
0.0
 20
0.0
  9
$PLIMMAX
 10
12.0
 20
9.0
  9
$UNITMODE
 70
     0
  9
$VISRETAIN
 70
     1
  9
$PLINEGEN
 70
     0
  9
$PSLTSCALE
 70
     1
  9
$TREEDEPTH
 70
  3020
  9
$CMLSTYLE
  2
Standard
  9
$CMLJUST
 70
     0
  9
$CMLSCALE
 40
1.0
  9
$PROXYGRAPHICS
 70
     1
  9
$MEASUREMENT
 70
     0
  9
$CELWEIGHT
370
    -1
  9
$ENDCAPS
280
     0
  9
$JOINSTYLE
280
     0
  9
$LWDISPLAY
290
     1
  9
$INSUNITS
 70
     1
  9
$HYPERLINKBASE
  1

  9
$STYLESHEET
  1

  9
$XEDIT
290
     1
  9
$CEPSNTYPE
380
     0
  9
$PSTYLEMODE
290
     1
  9
$FINGERPRINTGUID
  2
{53FCAD81-A192-031D-6CE3-08A0447F6AAF}
  9
$VERSIONGUID
  2
{FAEB1C32-E019-11D5-929B-00C0DF256EC4}
  9
$EXTNAMES
290
     1
  9
$PSVPSCALE
 40
0.0
  9
$OLESTARTUP
290
     0
  9
$SORTENTS
280
   127
  9
$INDEXCTL
280
     0
  9
$HIDETEXT
280
     1
  9
$XCLIPFRAME
280
     2
  9
$HALOGAP
280
     0
  9
$OBSCOLOR
 70
   257
  9
$OBSLTYPE
280
     0
  9
$INTERSECTIONDISPLAY
280
     0
  9
$INTERSECTIONCOLOR
 70
   257
  9
$DIMASSOC
280
     2
  9
$PROJECTNAME
  1

  9
$CAMERADISPLAY
290
     0
  9
$LENSLENGTH
 40
50.0
  9
$CAMERAHEIGHT
 40
0.0
  9
$STEPSPERSEC
 40
2.0
  9
$STEPSIZE
 40
6.0
  9
$3DDWFPREC
 40
2.0
  9
$PSOLWIDTH
 40
0.25
  9
$PSOLHEIGHT
 40
4.0
  9
$LOFTANG1
 40
1.570796326794897
  9
$LOFTANG2
 40
1.570796326794897
  9
$LOFTMAG1
 40
0.0
  9
$LOFTMAG2
 40
0.0
  9
$LOFTPARAM
 70
     7
  9
$LOFTNORMALS
280
     1
  9
$LATITUDE
 40
37.795
  9
$LONGITUDE
 40
-122.394
  9
$NORTHDIRECTION
 40
0.0
  9
$TIMEZONE
 70
 -8000
  9
$LIGHTGLYPHDISPLAY
280
     1
  9
$TILEMODELIGHTSYNCH
280
     1
  9
$CMATERIAL
347
3C
  9
$SOLIDHIST
280
     1
  9
$SHOWHIST
280
     1
  9
$DWFFRAME
280
     2
  9
$DGNFRAME
280
     2
  9
$REALWORLDSCALE
290
     1
  9
$INTERFERECOLOR
 62
   256
  9
$CSHADOW
280
     0
  9
$SHADOWPLANELOCATION
 40
0.0
  0
ENDSEC
  0
SECTION
  2
CLASSES
  0
CLASS
  1
ACDBDICTIONARYWDFLT
  2
AcDbDictionaryWithDefault
  3
ObjectDBX Classes
 90
        0
 91
        4
280
     0
281
     0
  0
CLASS
  1
VISUALSTYLE
  2
AcDbVisualStyle
  3
ObjectDBX Classes
 90
     4095
 91
        4
280
     0
281
     0
  0
CLASS
  1
MATERIAL
  2
AcDbMaterial
  3
ObjectDBX Classes
 90
     1153
 91
        4
280
     0
281
     0
  0
CLASS
  1
SUN
  2
AcDbSun
  3
SCENEOE
 90
     1024
 91
        4
280
     0
281
     0
  0
ENDSEC
  0
SECTION
  2
TABLES
  0
TABLE
  2
VPORT
  5
8
330
0
100
AcDbSymbolTable
 70
     1
  0
VPORT
  5
29
330
8
100
AcDbSymbolTableRecord
100
AcDbViewportTableRecord
  2
*Active
 70
     0
 10
0.0
 20
0.0
 11
1.0
 21
1.0
 12
0.0
 22
0.0
 13
0.0
 23
0.0
 14
0.5
 24
0.5
 15
0.5
 25
0.5
 16
0.0
 26
0.0
 36
1.0
 17
91.00082462281999
 27
-128.4993055234307
 37
0.0
 40
256.9986110468615
 41
0.7081814508812795
 42
50.0
 43
0.0
 44
0.0
 50
0.0
 51
0.0
 71
     0
 72
   100
 73
     1
 74
     3
 75
     0
 76
     0
 77
     0
 78
     0
281
     0
 65
     1
110
0.0
120
0.0
130
0.0
111
1.0
121
0.0
131
0.0
112
0.0
122
1.0
132
0.0
 79
     0
146
0.0
 60
     3
 61
     5
292
     1
282
     1
141
0.0
142
0.0
 63
   250
361
3F
  0
ENDTAB
  0
TABLE
  2
LTYPE
  5
5
330
0
100
AcDbSymbolTable
 70
     1
  0
LTYPE
  5
14
330
5
100
AcDbSymbolTableRecord
100
AcDbLinetypeTableRecord
  2
ByBlock
 70
     0
  3

 72
    65
 73
     0
 40
0.0
  0
LTYPE
  5
15
330
5
100
AcDbSymbolTableRecord
100
AcDbLinetypeTableRecord
  2
ByLayer
 70
     0
  3

 72
    65
 73
     0
 40
0.0
  0
LTYPE
  5
16
330
5
100
AcDbSymbolTableRecord
100
AcDbLinetypeTableRecord
  2
Continuous
 70
     0
  3
Solid line
 72
    65
 73
     0
 40
0.0
  0
ENDTAB
  0
TABLE
  2
LAYER
  5
2
330
0
100
AcDbSymbolTable
 70
     2
  0
LAYER
  5
10
330
2
100
AcDbSymbolTableRecord
100
AcDbLayerTableRecord
  2
0
 70
     0
 62
     7
  6
Continuous
370
    -3
390
F
347
3E
  0
LAYER
  5
40
330
2
100
AcDbSymbolTableRecord
100
AcDbLayerTableRecord
  2
_U+30EC_U+30A4_U+30E4_U+30FC 1
 70
     0
 62
     7
  6
Continuous
370
    -3
390
F
347
3E
  0
ENDTAB
  0
TABLE
  2
STYLE
  5
3
330
0
100
AcDbSymbolTable
 70
     1
  0
STYLE
  5
11
330
3
100
AcDbSymbolTableRecord
100
AcDbTextStyleTableRecord
  2
Standard
 70
     0
 40
0.0
 41
1.0
 50
0.0
 71
     0
 42
0.2
  3
txt
  4

  0
ENDTAB
  0
TABLE
  2
VIEW
  5
6
330
0
100
AcDbSymbolTable
 70
     0
  0
ENDTAB
  0
TABLE
  2
UCS
  5
7
330
0
100
AcDbSymbolTable
 70
     0
  0
ENDTAB
  0
TABLE
  2
APPID
  5
9
330
0
100
AcDbSymbolTable
 70
     1
  0
APPID
  5
12
330
9
100
AcDbSymbolTableRecord
100
AcDbRegAppTableRecord
  2
ACAD
 70
     0
  0
ENDTAB
  0
TABLE
  2
DIMSTYLE
  5
A
330
0
100
AcDbSymbolTable
 70
     1
100
AcDbDimStyleTable
  0
DIMSTYLE
105
27
330
A
100
AcDbSymbolTableRecord
100
AcDbDimStyleTableRecord
  2
Standard
 70
     0
178
     0
340
11
  0
ENDTAB
  0
TABLE
  2
BLOCK_RECORD
  5
1
330
0
100
AcDbSymbolTable
 70
     5
  0
BLOCK_RECORD
  5
1F
330
1
100
AcDbSymbolTableRecord
100
AcDbBlockTableRecord
  2
*Model_Space
340
22
 70
     0
280
     1
281
     0
  0
BLOCK_RECORD
  5
1B
330
1
100
AcDbSymbolTableRecord
100
AcDbBlockTableRecord
  2
*Paper_Space
340
1E
 70
     0
280
     1
281
     0
  0
BLOCK_RECORD
  5
23
330
1
100
AcDbSymbolTableRecord
100
AcDbBlockTableRecord
  2
*Paper_Space0
340
26
 70
     0
280
     1
281
     0
  0
BLOCK_RECORD
  5
4D
330
1
100
AcDbSymbolTableRecord
100
AcDbBlockTableRecord
  2
block 2
340
0
102
{BLKREFS
331
4E
102
}
 70
     0
280
     1
281
     0
  0
BLOCK_RECORD
  5
61
330
1
100
AcDbSymbolTableRecord
100
AcDbBlockTableRecord
  2
block 3
340
0
102
{BLKREFS
331
62
102
}
 70
     0
280
     1
281
     0
  0
BLOCK_RECORD
  5
72
330
1
100
AcDbSymbolTableRecord
100
AcDbBlockTableRecord
  2
block 4
340
0
102
{BLKREFS
331
73
102
}
 70
     0
280
     1
281
     0
  0
BLOCK_RECORD
  5
8A
330
1
100
AcDbSymbolTableRecord
100
AcDbBlockTableRecord
  2
block 5
340
0
102
{BLKREFS
331
8B
102
}
 70
     0
280
     1
281
     0
  0
ENDTAB
  0
ENDSEC
  0
SECTION
  2
BLOCKS
  0
BLOCK
  5
20
330
1F
100
AcDbEntity
  8
0
100
AcDbBlockBegin
  2
*Model_Space
 70
     0
 10
0.0
 20
0.0
 30
0.0
  3
*Model_Space
  1

  0
ENDBLK
  5
21
330
1F
100
AcDbEntity
  8
0
100
AcDbBlockEnd
  0
BLOCK
  5
1C
330
1B
100
AcDbEntity
 67
     1
  8
0
100
AcDbBlockBegin
  2
*Paper_Space
 70
     0
 10
0.0
 20
0.0
 30
0.0
  3
*Paper_Space
  1

  0
ENDBLK
  5
1D
330
1B
100
AcDbEntity
 67
     1
  8
0
100
AcDbBlockEnd
  0
BLOCK
  5
24
330
23
100
AcDbEntity
  8
0
100
AcDbBlockBegin
  2
*Paper_Space0
 70
     0
 10
0.0
 20
0.0
 30
0.0
  3
*Paper_Space0
  1

  0
ENDBLK
  5
25
330
23
100
AcDbEntity
  8
0
100
AcDbBlockEnd
  0
BLOCK
  5
4F
330
4D
100
AcDbEntity
  8
0
100
AcDbBlockBegin
  2
block 2
 70
     0
 10
0.0
 20
0.0
 30
0.0
  3
block 2
  1

  0
SPLINE
  5
51
330
4D
100
AcDbEntity
  8
_U+30EC_U+30A4_U+30E4_U+30FC 1
370
     0
100
AcDbSpline
210
0.0
220
0.0
230
1.0
 70
    11
 71
     3
 72
    26
 73
    22
 74
     0
 42
0.0000000001
 43
0.0000000001
 12
1.0
 22
0.0
 32
0.0
 13
1.0
 23
0.0
 33
0.0
 40
0.0
 40
0.0
 40
0.0
 40
0.0
 40
1.0
 40
1.0
 40
1.0
 40
2.0
 40
2.0
 40
2.0
 40
3.0
 40
3.0
 40
3.0
 40
4.0
 40
4.0
 40
4.0
 40
5.0
 40
5.0
 40
5.0
 40
6.0
 40
6.0
 40
6.0
 40
7.0
 40
7.0
 40
7.0
 40
7.0
 10
48.81097410889101
 20
-125.8806884450923
 30
0.0
 10
48.81097410889101
 20
-125.8806884450923
 30
0.0
 10
48.81097410889101
 20
-126.1177110144775
 30
0.0
 10
48.81097410889101
 20
-126.1177110144775
 30
0.0
 10
48.50212129863836
 20
-126.0922173078867
 30
0.0
 10
47.98380668288252
 20
-125.8996364702612
 30
0.0
 10
47.47823892042211
 20
-125.4934597125502
 30
0.0
 10
47.47823892042211
 20
-125.4934597125502
 30
0.0
 10
47.47823892042211
 20
-126.331306934563
 30
0.0
 10
47.47823892042211
 20
-126.331306934563
 30
0.0
 10
47.47823892042211
 20
-126.331306934563
 30
0.0
 10
47.26671005762777
 20
-126.331306934563
 30
0.0
 10
47.26671005762777
 20
-126.331306934563
 30
0.0
 10
47.26671005762777
 20
-126.331306934563
 30
0.0
 10
47.26671005762777
 20
-125.2564371431651
 30
0.0
 10
47.26671005762777
 20
-125.2564371431651
 30
0.0
 10
47.26671005762777
 20
-125.2564371431651
 30
0.0
 10
47.47823892042211
 20
-125.2564371431651
 30
0.0
 10
47.47823892042211
 20
-125.2564371431651
 30
0.0
 10
47.76797145073162
 20
-125.5802761187785
 30
0.0
 10
48.36035561942033
 20
-125.8469265093369
 30
0.0
 10
48.81097410889101
 20
-125.8806884450923
 30
0.0
  0
HATCH
  5
52
330
4D
100
AcDbEntity
  8
_U+30EC_U+30A4_U+30E4_U+30FC 1
 62
     7
420
 16777215
100
AcDbHatch
 10
0.0
 20
0.0
 30
0.0
210
0.0
220
0.0
230
1.0
  2
SOLID
 70
     1
 71
     0
 91
        1
 92
        1
 93
        1
 72
     4
 94
        3
 73
     0
 74
     1
 95
       26
 96
       22
 40
0.0
 40
0.0
 40
0.0
 40
0.0
 40
1.0
 40
1.0
 40
1.0
 40
2.0
 40
2.0
 40
2.0
 40
3.0
 40
3.0
 40
3.0
 40
4.0
 40
4.0
 40
4.0
 40
5.0
 40
5.0
 40
5.0
 40
6.0
 40
6.0
 40
6.0
 40
7.0
 40
7.0
 40
7.0
 40
7.0
 10
48.81097410889101
 20
-125.8806884450923
 10
48.81097410889101
 20
-125.8806884450923
 10
48.81097410889101
 20
-126.1177110144775
 10
48.81097410889101
 20
-126.1177110144775
 10
48.50212129863836
 20
-126.0922173078867
 10
47.98380668288252
 20
-125.8996364702612
 10
47.47823892042211
 20
-125.4934597125502
 10
47.47823892042211
 20
-125.4934597125502
 10
47.47823892042211
 20
-126.331306934563
 10
47.47823892042211
 20
-126.331306934563
 10
47.47823892042211
 20
-126.331306934563
 10
47.26671005762777
 20
-126.331306934563
 10
47.26671005762777
 20
-126.331306934563
 10
47.26671005762777
 20
-126.331306934563
 10
47.26671005762777
 20
-125.2564371431651
 10
47.26671005762777
 20
-125.2564371431651
 10
47.26671005762777
 20
-125.2564371431651
 10
47.47823892042211
 20
-125.2564371431651
 10
47.47823892042211
 20
-125.2564371431651
 10
47.76797145073162
 20
-125.5802761187785
 10
48.36035561942033
 20
-125.8469265093369
 10
48.81097410889101
 20
-125.8806884450923
 97
        0
 97
        0
 75
     2
 76
     1
 98
        0
  0
SPLINE
  5
53
330
4D
100
AcDbEntity
  8
_U+30EC_U+30A4_U+30E4_U+30FC 1
370
     0
100
AcDbSpline
210
0.0
220
0.0
230
1.0
 70
    11
 71
     3
 72
    53
 73
    49
 74
     0
 42
0.0000000001
 43
0.0000000001
 12
1.0
 22
0.0
 32
0.0
 13
1.0
 23
0.0
 33
0.0
 40
0.0
 40
0.0
 40
0.0
 40
0.0
 40
1.0
 40
1.0
 40
1.0
 40
2.0
 40
2.0
 40
2.0
 40
3.0
 40
3.0
 40
3.0
 40
4.0
 40
4.0
 40
4.0
 40
5.0
 40
5.0
 40
5.0
 40
6.0
 40
6.0
 40
6.0
 40
7.0
 40
7.0
 40
7.0
 40
8.0
 40
8.0
 40
8.0
 40
9.0
 40
9.0
 40
9.0
 40
10.0
 40
10.0
 40
10.0
 40
11.0
 40
11.0
 40
11.0
 40
12.0
 40
12.0
 40
12.0
 40
13.0
 40
13.0
 40
13.0
 40
14.0
 40
14.0
 40
14.0
 40
15.0
 40
15.0
 40
15.0
 40
16.0
 40
16.0
 40
16.0
 40
16.0
 10
48.86178926729844
 20
-124.6339083889804
 30
0.0
 10
48.86178926729844
 20
-124.7121120564956
 30
0.0
 10
48.84490829942072
 20
-124.8137423733105
 30
0.0
 10
48.78134628771786
 20
-124.9153726901253
 30
0.0
 10
48.67127548696413
 20
-125.0886609930334
 30
0.0
 10
48.54018960375037
 20
-125.110020585042
 30
0.0
 10
48.43235811506205
 20
-125.1289686102108
 30
0.0
 10
48.43235811506205
 20
-125.1289686102108
 30
0.0
 10
48.43235811506205
 20
-124.9067599514122
 30
0.0
 10
48.43235811506205
 20
-124.9067599514122
 30
0.0
 10
48.63114012456096
 20
-124.8519829331967
 30
0.0
 10
48.66076794573411
 20
-124.724858909791
 30
0.0
 10
48.66076794573411
 20
-124.6318413316893
 30
0.0
 10
48.66076794573411
 20
-124.4923149645366
 30
0.0
 10
48.56137694098466
 20
-124.3400417440886
 30
0.0
 10
48.32866074095603
 20
-124.3400417440886
 30
0.0
 10
48.07269014640197
 20
-124.3400417440886
 30
0.0
 10
48.00292696282566
 20
-124.5198757284187
 30
0.0
 10
48.00292696282566
 20
-124.6404540704024
 30
0.0
 10
48.00292696282566
 20
-124.6721489488667
 30
0.0
 10
48.00292696282566
 20
-124.8137423733105
 30
0.0
 10
48.13194578874827
 20
-124.9026258368299
 30
0.0
 10
48.13194578874827
 20
-124.9026258368299
 30
0.0
 10
48.11282550880513
 20
-125.0783257065776
 30
0.0
 10
48.11282550880513
 20
-125.0783257065776
 30
0.0
 10
48.11282550880513
 20
-125.0783257065776
 30
0.0
 10
47.26671005762777
 20
-124.9577473645939
 30
0.0
 10
47.26671005762777
 20
-124.9577473645939
 30
0.0
 10
47.26671005762777
 20
-124.9577473645939
 30
0.0
 10
47.26671005762777
 20
-124.1791557849274
 30
0.0
 10
47.26671005762777
 20
-124.1791557849274
 30
0.0
 10
47.26671005762777
 20
-124.1791557849274
 30
0.0
 10
47.46135795254438
 20
-124.1791557849274
 30
0.0
 10
47.46135795254438
 20
-124.1791557849274
 30
0.0
 10
47.46135795254438
 20
-124.1791557849274
 30
0.0
 10
47.46135795254438
 20
-124.7947943481416
 30
0.0
 10
47.46135795254438
 20
-124.7947943481416
 30
0.0
 10
47.46135795254438
 20
-124.7947943481416
 30
0.0
 10
47.88441567813307
 20
-124.8602511623613
 30
0.0
 10
47.88441567813307
 20
-124.8602511623613
 30
0.0
 10
47.85048148760335
 20
-124.7989284627239
 30
0.0
 10
47.81034612520019
 20
-124.7165906806264
 30
0.0
 10
47.81034612520019
 20
-124.5980793959338
 30
0.0
 10
47.81034612520019
 20
-124.3441758586709
 30
0.0
 10
47.99655353617795
 20
-124.1071532892857
 30
0.0
 10
48.30954046101289
 20
-124.1071532892857
 30
0.0
 10
48.62700600997866
 20
-124.1071532892857
 30
0.0
 10
48.86178926729844
 20
-124.3314290053755
 30
0.0
 10
48.86178926729844
 20
-124.6339083889804
 30
0.0
  0
HATCH
  5
54
330
4D
100
AcDbEntity
  8
_U+30EC_U+30A4_U+30E4_U+30FC 1
 62
     7
420
 16777215
100
AcDbHatch
 10
0.0
 20
0.0
 30
0.0
210
0.0
220
0.0
230
1.0
  2
SOLID
 70
     1
 71
     0
 91
        1
 92
        1
 93
        1
 72
     4
 94
        3
 73
     0
 74
     1
 95
       53
 96
       49
 40
0.0
 40
0.0
 40
0.0
 40
0.0
 40
1.0
 40
1.0
 40
1.0
 40
2.0
 40
2.0
 40
2.0
 40
3.0
 40
3.0
 40
3.0
 40
4.0
 40
4.0
 40
4.0
 40
5.0
 40
5.0
 40
5.0
 40
6.0
 40
6.0
 40
6.0
 40
7.0
 40
7.0
 40
7.0
 40
8.0
 40
8.0
 40
8.0
 40
9.0
 40
9.0
 40
9.0
 40
10.0
 40
10.0
 40
10.0
 40
11.0
 40
11.0
 40
11.0
 40
12.0
 40
12.0
 40
12.0
 40
13.0
 40
13.0
 40
13.0
 40
14.0
 40
14.0
 40
14.0
 40
15.0
 40
15.0
 40
15.0
 40
16.0
 40
16.0
 40
16.0
 40
16.0
 10
48.86178926729844
 20
-124.6339083889804
 10
48.86178926729844
 20
-124.7121120564956
 10
48.84490829942072
 20
-124.8137423733105
 10
48.78134628771786
 20
-124.9153726901253
 10
48.67127548696413
 20
-125.0886609930334
 10
48.54018960375037
 20
-125.110020585042
 10
48.43235811506205
 20
-125.1289686102108
 10
48.43235811506205
 20
-125.1289686102108
 10
48.43235811506205
 20
-124.9067599514122
 10
48.43235811506205
 20
-124.9067599514122
 10
48.63114012456096
 20
-124.8519829331967
 10
48.66076794573411
 20
-124.724858909791
 10
48.66076794573411
 20
-124.6318413316893
 10
48.66076794573411
 20
-124.4923149645366
 10
48.56137694098466
 20
-124.3400417440886
 10
48.32866074095603
 20
-124.3400417440886
 10
48.07269014640197
 20
-124.3400417440886
 10
48.00292696282566
 20
-124.5198757284187
 10
48.00292696282566
 20
-124.6404540704024
 10
48.00292696282566
 20
-124.6721489488667
 10
48.00292696282566
 20
-124.8137423733105
 10
48.13194578874827
 20
-124.9026258368299
 10
48.13194578874827
 20
-124.9026258368299
 10
48.11282550880513
 20
-125.0783257065776
 10
48.11282550880513
 20
-125.0783257065776
 10
48.11282550880513
 20
-125.0783257065776
 10
47.26671005762777
 20
-124.9577473645939
 10
47.26671005762777
 20
-124.9577473645939
 10
47.26671005762777
 20
-124.9577473645939
 10
47.26671005762777
 20
-124.1791557849274
 10
47.26671005762777
 20
-124.1791557849274
 10
47.26671005762777
 20
-124.1791557849274
 10
47.46135795254438
 20
-124.1791557849274
 10
47.46135795254438
 20
-124.1791557849274
 10
47.46135795254438
 20
-124.1791557849274
 10
47.46135795254438
 20
-124.7947943481416
 10
47.46135795254438
 20
-124.7947943481416
 10
47.46135795254438
 20
-124.7947943481416
 10
47.88441567813307
 20
-124.8602511623613
 10
47.88441567813307
 20
-124.8602511623613
 10
47.85048148760335
 20
-124.7989284627239
 10
47.81034612520019
 20
-124.7165906806264
 10
47.81034612520019
 20
-124.5980793959338
 10
47.81034612520019
 20
-124.3441758586709
 10
47.99655353617795
 20
-124.1071532892857
 10
48.30954046101289
 20
-124.1071532892857
 10
48.62700600997866
 20
-124.1071532892857
 10
48.86178926729844
 20
-124.3314290053755
 10
48.86178926729844
 20
-124.6339083889804
 97
        0
 97
        0
 75
     2
 76
     1
 98
        0
  0
ENDBLK
  5
50
330
4D
100
AcDbEntity
  8
0
100
AcDbBlockEnd
  0
BLOCK
  5
63
330
61
100
AcDbEntity
  8
0
100
AcDbBlockBegin
  2
block 3
 70
     0
 10
0.0
 20
0.0
 30
0.0
  3
block 3
  1

  0
SPLINE
  5
65
330
61
100
AcDbEntity
  8
_U+30EC_U+30A4_U+30E4_U+30FC 1
370
     0
100
AcDbSpline
210
0.0
220
0.0
230
1.0
 70
    11
 71
     3
 72
    44
 73
    40
 74
     0
 42
0.0000000001
 43
0.0000000001
 12
1.0
 22
0.0
 32
0.0
 13
1.0
 23
0.0
 33
0.0
 40
0.0
 40
0.0
 40
0.0
 40
0.0
 40
1.0
 40
1.0
 40
1.0
 40
2.0
 40
2.0
 40
2.0
 40
3.0
 40
3.0
 40
3.0
 40
4.0
 40
4.0
 40
4.0
 40
5.0
 40
5.0
 40
5.0
 40
6.0
 40
6.0
 40
6.0
 40
7.0
 40
7.0
 40
7.0
 40
8.0
 40
8.0
 40
8.0
 40
9.0
 40
9.0
 40
9.0
 40
10.0
 40
10.0
 40
10.0
 40
11.0
 40
11.0
 40
11.0
 40
12.0
 40
12.0
 40
12.0
 40
13.0
 40
13.0
 40
13.0
 40
13.0
 10
48.54501273742972
 20
-168.753868230381
 30
0.0
 10
48.52158608813002
 20
-168.7094264986213
 30
0.0
 10
48.50057100567
 20
-168.656716537697
 30
0.0
 10
48.49833169360458
 20
-168.4258951401852
 30
0.0
 10
48.49419757902228
 20
-168.1826713989266
 30
0.0
 10
48.43494193667599
 20
-168.112735960576
 30
0.0
 10
48.25717500963709
 20
-168.112735960576
 30
0.0
 10
48.25717500963709
 20
-168.112735960576
 30
0.0
 10
47.84893119463499
 20
-168.112735960576
 30
0.0
 10
47.84893119463499
 20
-168.112735960576
 30
0.0
 10
47.84893119463499
 20
-168.112735960576
 30
0.0
 10
47.84893119463499
 20
-168.753868230381
 30
0.0
 10
47.84893119463499
 20
-168.753868230381
 30
0.0
 10
47.84893119463499
 20
-168.753868230381
 30
0.0
 10
47.61414793731522
 20
-168.753868230381
 30
0.0
 10
47.61414793731522
 20
-168.753868230381
 30
0.0
 10
47.61414793731522
 20
-168.753868230381
 30
0.0
 10
47.61414793731522
 20
-167.2094319243435
 30
0.0
 10
47.61414793731522
 20
-167.2094319243435
 30
0.0
 10
47.61414793731522
 20
-167.2094319243435
 30
0.0
 10
48.28904214287566
 20
-167.2094319243435
 30
0.0
 10
48.28904214287566
 20
-167.2094319243435
 30
0.0
 10
48.59565564106289
 20
-167.2094319243435
 30
0.0
 10
48.76274277209751
 20
-167.3809976795089
 30
0.0
 10
48.76274277209751
 20
-167.636968274063
 30
0.0
 10
48.76274277209751
 20
-167.6876111776962
 30
0.0
 10
48.75430228815865
 20
-167.7702934693422
 30
0.0
 10
48.70986055639892
 20
-167.8505641941485
 30
0.0
 10
48.65077716882689
 20
-167.9542615682545
 30
0.0
 10
48.58514809983289
 20
-167.9732095934234
 30
0.0
 10
48.52382540019543
 20
-167.9900905613011
 30
0.0
 10
48.6612847100569
 20
-168.0324652357697
 30
0.0
 10
48.72898083634206
 20
-168.0810410821117
 30
0.0
 10
48.73328720569862
 20
-168.3962673190121
 30
0.0
 10
48.73742132028092
 20
-168.6670518241527
 30
0.0
 10
48.77342256810179
 20
-168.698746702617
 30
0.0
 10
48.84111869438694
 20
-168.753868230381
 30
0.0
 10
48.84111869438694
 20
-168.753868230381
 30
0.0
 10
48.54501273742972
 20
-168.753868230381
 30
0.0
 10
48.54501273742972
 20
-168.753868230381
 30
0.0
  0
SPLINE
  5
66
330
61
100
AcDbEntity
  8
_U+30EC_U+30A4_U+30E4_U+30FC 1
370
     0
100
AcDbSpline
210
0.0
220
0.0
230
1.0
 70
    11
 71
     3
 72
    20
 73
    16
 74
     0
 42
0.0000000001
 43
0.0000000001
 12
1.0
 22
0.0
 32
0.0
 13
1.0
 23
0.0
 33
0.0
 40
0.0
 40
0.0
 40
0.0
 40
0.0
 40
1.0
 40
1.0
 40
1.0
 40
2.0
 40
2.0
 40
2.0
 40
3.0
 40
3.0
 40
3.0
 40
4.0
 40
4.0
 40
4.0
 40
5.0
 40
5.0
 40
5.0
 40
5.0
 10
48.29317625745796
 20
-167.4209607871378
 30
0.0
 10
48.29317625745796
 20
-167.4209607871378
 30
0.0
 10
47.84893119463499
 20
-167.4209607871378
 30
0.0
 10
47.84893119463499
 20
-167.4209607871378
 30
0.0
 10
47.84893119463499
 20
-167.4209607871378
 30
0.0
 10
47.84893119463499
 20
-167.9012070977817
 30
0.0
 10
47.84893119463499
 20
-167.9012070977817
 30
0.0
 10
47.84893119463499
 20
-167.9012070977817
 30
0.0
 10
48.29110920016681
 20
-167.9012070977817
 30
0.0
 10
48.29110920016681
 20
-167.9012070977817
 30
0.0
 10
48.39050020491626
 20
-167.9012070977817
 30
0.0
 10
48.52589245748658
 20
-167.8250704875576
 30
0.0
 10
48.52589245748658
 20
-167.6538492419407
 30
0.0
 10
48.52589245748658
 20
-167.5756455744256
 30
0.0
 10
48.49195826695687
 20
-167.4209607871378
 30
0.0
 10
48.29317625745796
 20
-167.4209607871378
 30
0.0
  0
HATCH
  5
67
330
61
100
AcDbEntity
  8
_U+30EC_U+30A4_U+30E4_U+30FC 1
 62
     7
420
 16777215
100
AcDbHatch
 10
0.0
 20
0.0
 30
0.0
210
0.0
220
0.0
230
1.0
  2
SOLID
 70
     1
 71
     0
 91
        2
 92
        1
 93
        1
 72
     4
 94
        3
 73
     0
 74
     1
 95
       44
 96
       40
 40
0.0
 40
0.0
 40
0.0
 40
0.0
 40
1.0
 40
1.0
 40
1.0
 40
2.0
 40
2.0
 40
2.0
 40
3.0
 40
3.0
 40
3.0
 40
4.0
 40
4.0
 40
4.0
 40
5.0
 40
5.0
 40
5.0
 40
6.0
 40
6.0
 40
6.0
 40
7.0
 40
7.0
 40
7.0
 40
8.0
 40
8.0
 40
8.0
 40
9.0
 40
9.0
 40
9.0
 40
10.0
 40
10.0
 40
10.0
 40
11.0
 40
11.0
 40
11.0
 40
12.0
 40
12.0
 40
12.0
 40
13.0
 40
13.0
 40
13.0
 40
13.0
 10
48.54501273742972
 20
-168.753868230381
 10
48.52158608813002
 20
-168.7094264986213
 10
48.50057100567
 20
-168.656716537697
 10
48.49833169360458
 20
-168.4258951401852
 10
48.49419757902228
 20
-168.1826713989266
 10
48.43494193667599
 20
-168.112735960576
 10
48.25717500963709
 20
-168.112735960576
 10
48.25717500963709
 20
-168.112735960576
 10
47.84893119463499
 20
-168.112735960576
 10
47.84893119463499
 20
-168.112735960576
 10
47.84893119463499
 20
-168.112735960576
 10
47.84893119463499
 20
-168.753868230381
 10
47.84893119463499
 20
-168.753868230381
 10
47.84893119463499
 20
-168.753868230381
 10
47.61414793731522
 20
-168.753868230381
 10
47.61414793731522
 20
-168.753868230381
 10
47.61414793731522
 20
-168.753868230381
 10
47.61414793731522
 20
-167.2094319243435
 10
47.61414793731522
 20
-167.2094319243435
 10
47.61414793731522
 20
-167.2094319243435
 10
48.28904214287566
 20
-167.2094319243435
 10
48.28904214287566
 20
-167.2094319243435
 10
48.59565564106289
 20
-167.2094319243435
 10
48.76274277209751
 20
-167.3809976795089
 10
48.76274277209751
 20
-167.636968274063
 10
48.76274277209751
 20
-167.6876111776962
 10
48.75430228815865
 20
-167.7702934693422
 10
48.70986055639892
 20
-167.8505641941485
 10
48.65077716882689
 20
-167.9542615682545
 10
48.58514809983289
 20
-167.9732095934234
 10
48.52382540019543
 20
-167.9900905613011
 10
48.6612847100569
 20
-168.0324652357697
 10
48.72898083634206
 20
-168.0810410821117
 10
48.73328720569862
 20
-168.3962673190121
 10
48.73742132028092
 20
-168.6670518241527
 10
48.77342256810179
 20
-168.698746702617
 10
48.84111869438694
 20
-168.753868230381
 10
48.84111869438694
 20
-168.753868230381
 10
48.54501273742972
 20
-168.753868230381
 10
48.54501273742972
 20
-168.753868230381
 97
        0
 97
        0
 92
        1
 93
        1
 72
     4
 94
        3
 73
     0
 74
     1
 95
       20
 96
       16
 40
0.0
 40
0.0
 40
0.0
 40
0.0
 40
1.0
 40
1.0
 40
1.0
 40
2.0
 40
2.0
 40
2.0
 40
3.0
 40
3.0
 40
3.0
 40
4.0
 40
4.0
 40
4.0
 40
5.0
 40
5.0
 40
5.0
 40
5.0
 10
48.29317625745796
 20
-167.4209607871378
 10
48.29317625745796
 20
-167.4209607871378
 10
47.84893119463499
 20
-167.4209607871378
 10
47.84893119463499
 20
-167.4209607871378
 10
47.84893119463499
 20
-167.4209607871378
 10
47.84893119463499
 20
-167.9012070977817
 10
47.84893119463499
 20
-167.9012070977817
 10
47.84893119463499
 20
-167.9012070977817
 10
48.29110920016681
 20
-167.9012070977817
 10
48.29110920016681
 20
-167.9012070977817
 10
48.39050020491626
 20
-167.9012070977817
 10
48.52589245748658
 20
-167.8250704875576
 10
48.52589245748658
 20
-167.6538492419407
 10
48.52589245748658
 20
-167.5756455744256
 10
48.49195826695687
 20
-167.4209607871378
 10
48.29317625745796
 20
-167.4209607871378
 97
        0
 97
        0
 75
     2
 76
     1
 98
        0
  0
SPLINE
  5
68
330
61
100
AcDbEntity
  8
_U+30EC_U+30A4_U+30E4_U+30FC 1
370
     0
100
AcDbSpline
210
0.0
220
0.0
230
1.0
 70
    11
 71
     3
 72
    26
 73
    22
 74
     0
 42
0.0000000001
 43
0.0000000001
 12
1.0
 22
0.0
 32
0.0
 13
1.0
 23
0.0
 33
0.0
 40
0.0
 40
0.0
 40
0.0
 40
0.0
 40
1.0
 40
1.0
 40
1.0
 40
2.0
 40
2.0
 40
2.0
 40
3.0
 40
3.0
 40
3.0
 40
4.0
 40
4.0
 40
4.0
 40
5.0
 40
5.0
 40
5.0
 40
6.0
 40
6.0
 40
6.0
 40
7.0
 40
7.0
 40
7.0
 40
7.0
 10
49.43212482488156
 20
-168.753868230381
 30
0.0
 10
49.43212482488156
 20
-168.753868230381
 30
0.0
 10
49.43212482488156
 20
-167.6497151273584
 30
0.0
 10
49.43212482488156
 20
-167.6497151273584
 30
0.0
 10
49.43212482488156
 20
-167.6497151273584
 30
0.0
 10
49.10208467739462
 20
-167.6497151273584
 30
0.0
 10
49.10208467739462
 20
-167.6497151273584
 30
0.0
 10
49.10208467739462
 20
-167.6497151273584
 30
0.0
 10
49.10208467739462
 20
-167.5015760214927
 30
0.0
 10
49.10208467739462
 20
-167.5015760214927
 30
0.0
 10
49.4341918821727
 20
-167.4867621109061
 30
0.0
 10
49.48070067122358
 20
-167.3238090944538
 30
0.0
 10
49.51032849239672
 20
-167.2094319243435
 30
0.0
 10
49.51032849239672
 20
-167.2094319243435
 30
0.0
 10
49.65640054097132
 20
-167.2094319243435
 30
0.0
 10
49.65640054097132
 20
-167.2094319243435
 30
0.0
 10
49.65640054097132
 20
-167.2094319243435
 30
0.0
 10
49.65640054097132
 20
-168.753868230381
 30
0.0
 10
49.65640054097132
 20
-168.753868230381
 30
0.0
 10
49.65640054097132
 20
-168.753868230381
 30
0.0
 10
49.43212482488156
 20
-168.753868230381
 30
0.0
 10
49.43212482488156
 20
-168.753868230381
 30
0.0
  0
HATCH
  5
69
330
61
100
AcDbEntity
  8
_U+30EC_U+30A4_U+30E4_U+30FC 1
 62
     7
420
 16777215
100
AcDbHatch
 10
0.0
 20
0.0
 30
0.0
210
0.0
220
0.0
230
1.0
  2
SOLID
 70
     1
 71
     0
 91
        1
 92
        1
 93
        1
 72
     4
 94
        3
 73
     0
 74
     1
 95
       26
 96
       22
 40
0.0
 40
0.0
 40
0.0
 40
0.0
 40
1.0
 40
1.0
 40
1.0
 40
2.0
 40
2.0
 40
2.0
 40
3.0
 40
3.0
 40
3.0
 40
4.0
 40
4.0
 40
4.0
 40
5.0
 40
5.0
 40
5.0
 40
6.0
 40
6.0
 40
6.0
 40
7.0
 40
7.0
 40
7.0
 40
7.0
 10
49.43212482488156
 20
-168.753868230381
 10
49.43212482488156
 20
-168.753868230381
 10
49.43212482488156
 20
-167.6497151273584
 10
49.43212482488156
 20
-167.6497151273584
 10
49.43212482488156
 20
-167.6497151273584
 10
49.10208467739462
 20
-167.6497151273584
 10
49.10208467739462
 20
-167.6497151273584
 10
49.10208467739462
 20
-167.6497151273584
 10
49.10208467739462
 20
-167.5015760214927
 10
49.10208467739462
 20
-167.5015760214927
 10
49.4341918821727
 20
-167.4867621109061
 10
49.48070067122358
 20
-167.3238090944538
 10
49.51032849239672
 20
-167.2094319243435
 10
49.51032849239672
 20
-167.2094319243435
 10
49.65640054097132
 20
-167.2094319243435
 10
49.65640054097132
 20
-167.2094319243435
 10
49.65640054097132
 20
-167.2094319243435
 10
49.65640054097132
 20
-168.753868230381
 10
49.65640054097132
 20
-168.753868230381
 10
49.65640054097132
 20
-168.753868230381
 10
49.43212482488156
 20
-168.753868230381
 10
49.43212482488156
 20
-168.753868230381
 97
        0
 97
        0
 75
     2
 76
     1
 98
        0
  0
ENDBLK
  5
64
330
61
100
AcDbEntity
  8
0
100
AcDbBlockEnd
  0
BLOCK
  5
74
330
72
100
AcDbEntity
  8
0
100
AcDbBlockBegin
  2
block 4
 70
     0
 10
0.0
 20
0.0
 30
0.0
  3
block 4
  1

  0
SPLINE
  5
76
330
72
100
AcDbEntity
  8
_U+30EC_U+30A4_U+30E4_U+30FC 1
370
     0
100
AcDbSpline
210
0.0
220
0.0
230
1.0
 70
    11
 71
     3
 72
    26
 73
    22
 74
     0
 42
0.0000000001
 43
0.0000000001
 12
1.0
 22
0.0
 32
0.0
 13
1.0
 23
0.0
 33
0.0
 40
0.0
 40
0.0
 40
0.0
 40
0.0
 40
1.0
 40
1.0
 40
1.0
 40
2.0
 40
2.0
 40
2.0
 40
3.0
 40
3.0
 40
3.0
 40
4.0
 40
4.0
 40
4.0
 40
5.0
 40
5.0
 40
5.0
 40
6.0
 40
6.0
 40
6.0
 40
7.0
 40
7.0
 40
7.0
 40
7.0
 10
134.6587917415089
 20
-160.0150390224962
 30
0.0
 10
134.6587917415089
 20
-160.0150390224962
 30
0.0
 10
133.5546386384864
 20
-160.0150390224962
 30
0.0
 10
133.5546386384864
 20
-160.0150390224962
 30
0.0
 10
133.5546386384864
 20
-160.0150390224962
 30
0.0
 10
133.5546386384864
 20
-160.3450791699832
 30
0.0
 10
133.5546386384864
 20
-160.3450791699832
 30
0.0
 10
133.5546386384864
 20
-160.3450791699832
 30
0.0
 10
133.4064995326206
 20
-160.3450791699832
 30
0.0
 10
133.4064995326206
 20
-160.3450791699832
 30
0.0
 10
133.391685622034
 20
-160.0129719652051
 30
0.0
 10
133.2287326055817
 20
-159.9664631761542
 30
0.0
 10
133.1143554354714
 20
-159.9368353549811
 30
0.0
 10
133.1143554354714
 20
-159.9368353549811
 30
0.0
 10
133.1143554354714
 20
-159.7907633064065
 30
0.0
 10
133.1143554354714
 20
-159.7907633064065
 30
0.0
 10
133.1143554354714
 20
-159.7907633064065
 30
0.0
 10
134.6587917415089
 20
-159.7907633064065
 30
0.0
 10
134.6587917415089
 20
-159.7907633064065
 30
0.0
 10
134.6587917415089
 20
-159.7907633064065
 30
0.0
 10
134.6587917415089
 20
-160.0150390224962
 30
0.0
 10
134.6587917415089
 20
-160.0150390224962
 30
0.0
  0
HATCH
  5
77
330
72
100
AcDbEntity
  8
_U+30EC_U+30A4_U+30E4_U+30FC 1
 62
     7
420
 16777215
100
AcDbHatch
 10
0.0
 20
0.0
 30
0.0
210
0.0
220
0.0
230
1.0
  2
SOLID
 70
     1
 71
     0
 91
        1
 92
        1
 93
        1
 72
     4
 94
        3
 73
     0
 74
     1
 95
       26
 96
       22
 40
0.0
 40
0.0
 40
0.0
 40
0.0
 40
1.0
 40
1.0
 40
1.0
 40
2.0
 40
2.0
 40
2.0
 40
3.0
 40
3.0
 40
3.0
 40
4.0
 40
4.0
 40
4.0
 40
5.0
 40
5.0
 40
5.0
 40
6.0
 40
6.0
 40
6.0
 40
7.0
 40
7.0
 40
7.0
 40
7.0
 10
134.6587917415089
 20
-160.0150390224962
 10
134.6587917415089
 20
-160.0150390224962
 10
133.5546386384864
 20
-160.0150390224962
 10
133.5546386384864
 20
-160.0150390224962
 10
133.5546386384864
 20
-160.0150390224962
 10
133.5546386384864
 20
-160.3450791699832
 10
133.5546386384864
 20
-160.3450791699832
 10
133.5546386384864
 20
-160.3450791699832
 10
133.4064995326206
 20
-160.3450791699832
 10
133.4064995326206
 20
-160.3450791699832
 10
133.391685622034
 20
-160.0129719652051
 10
133.2287326055817
 20
-159.9664631761542
 10
133.1143554354714
 20
-159.9368353549811
 10
133.1143554354714
 20
-159.9368353549811
 10
133.1143554354714
 20
-159.7907633064065
 10
133.1143554354714
 20
-159.7907633064065
 10
133.1143554354714
 20
-159.7907633064065
 10
134.6587917415089
 20
-159.7907633064065
 10
134.6587917415089
 20
-159.7907633064065
 10
134.6587917415089
 20
-159.7907633064065
 10
134.6587917415089
 20
-160.0150390224962
 10
134.6587917415089
 20
-160.0150390224962
 97
        0
 97
        0
 75
     2
 76
     1
 98
        0
  0
ENDBLK
  5
75
330
72
100
AcDbEntity
  8
0
100
AcDbBlockEnd
  0
BLOCK
  5
8C
330
8A
100
AcDbEntity
  8
0
100
AcDbBlockBegin
  2
block 5
 70
     0
 10
0.0
 20
0.0
 30
0.0
  3
block 5
  1

  0
SPLINE
  5
8E
330
8A
100
AcDbEntity
  8
_U+30EC_U+30A4_U+30E4_U+30FC 1
370
     0
100
AcDbSpline
210
0.0
220
0.0
230
1.0
 70
    11
 71
     3
 72
    26
 73
    22
 74
     0
 42
0.0000000001
 43
0.0000000001
 12
1.0
 22
0.0
 32
0.0
 13
1.0
 23
0.0
 33
0.0
 40
0.0
 40
0.0
 40
0.0
 40
0.0
 40
1.0
 40
1.0
 40
1.0
 40
2.0
 40
2.0
 40
2.0
 40
3.0
 40
3.0
 40
3.0
 40
4.0
 40
4.0
 40
4.0
 40
5.0
 40
5.0
 40
5.0
 40
6.0
 40
6.0
 40
6.0
 40
7.0
 40
7.0
 40
7.0
 40
7.0
 10
90.09613713025375
 20
-166.229991277887
 30
0.0
 10
90.09613713025375
 20
-166.229991277887
 30
0.0
 10
89.85911456086856
 20
-166.229991277887
 30
0.0
 10
89.85911456086856
 20
-166.229991277887
 30
0.0
 10
89.88460826745941
 20
-165.92096621286
 30
0.0
 10
90.07718910508487
 20
-165.4024793423299
 30
0.0
 10
90.48336586279584
 20
-164.8970838346438
 30
0.0
 10
90.48336586279584
 20
-164.8970838346438
 30
0.0
 10
89.64551864078307
 20
-164.8970838346438
 30
0.0
 10
89.64551864078307
 20
-164.8970838346438
 30
0.0
 10
89.64551864078307
 20
-164.8970838346438
 30
0.0
 10
89.64551864078307
 20
-164.6855549718495
 30
0.0
 10
89.64551864078307
 20
-164.6855549718495
 30
0.0
 10
89.64551864078307
 20
-164.6855549718495
 30
0.0
 10
90.72038843218102
 20
-164.6855549718495
 30
0.0
 10
90.72038843218102
 20
-164.6855549718495
 30
0.0
 10
90.72038843218102
 20
-164.6855549718495
 30
0.0
 10
90.72038843218102
 20
-164.8970838346438
 30
0.0
 10
90.72038843218102
 20
-164.8970838346438
 30
0.0
 10
90.39654945656753
 20
-165.1868163649533
 30
0.0
 10
90.1298990660092
 20
-165.7793727884163
 30
0.0
 10
90.09613713025375
 20
-166.229991277887
 30
0.0
  0
HATCH
  5
8F
330
8A
100
AcDbEntity
  8
_U+30EC_U+30A4_U+30E4_U+30FC 1
 62
     7
420
 16777215
100
AcDbHatch
 10
0.0
 20
0.0
 30
0.0
210
0.0
220
0.0
230
1.0
  2
SOLID
 70
     1
 71
     0
 91
        1
 92
        1
 93
        1
 72
     4
 94
        3
 73
     0
 74
     1
 95
       26
 96
       22
 40
0.0
 40
0.0
 40
0.0
 40
0.0
 40
1.0
 40
1.0
 40
1.0
 40
2.0
 40
2.0
 40
2.0
 40
3.0
 40
3.0
 40
3.0
 40
4.0
 40
4.0
 40
4.0
 40
5.0
 40
5.0
 40
5.0
 40
6.0
 40
6.0
 40
6.0
 40
7.0
 40
7.0
 40
7.0
 40
7.0
 10
90.09613713025375
 20
-166.229991277887
 10
90.09613713025375
 20
-166.229991277887
 10
89.85911456086856
 20
-166.229991277887
 10
89.85911456086856
 20
-166.229991277887
 10
89.88460826745941
 20
-165.92096621286
 10
90.07718910508487
 20
-165.4024793423299
 10
90.48336586279584
 20
-164.8970838346438
 10
90.48336586279584
 20
-164.8970838346438
 10
89.64551864078307
 20
-164.8970838346438
 10
89.64551864078307
 20
-164.8970838346438
 10
89.64551864078307
 20
-164.8970838346438
 10
89.64551864078307
 20
-164.6855549718495
 10
89.64551864078307
 20
-164.6855549718495
 10
89.64551864078307
 20
-164.6855549718495
 10
90.72038843218102
 20
-164.6855549718495
 10
90.72038843218102
 20
-164.6855549718495
 10
90.72038843218102
 20
-164.6855549718495
 10
90.72038843218102
 20
-164.8970838346438
 10
90.72038843218102
 20
-164.8970838346438
 10
90.39654945656753
 20
-165.1868163649533
 10
90.1298990660092
 20
-165.7793727884163
 10
90.09613713025375
 20
-166.229991277887
 97
        0
 97
        0
 75
     2
 76
     1
 98
        0
  0
SPLINE
  5
90
330
8A
100
AcDbEntity
  8
_U+30EC_U+30A4_U+30E4_U+30FC 1
370
     0
100
AcDbSpline
210
0.0
220
0.0
230
1.0
 70
    11
 71
     3
 72
    53
 73
    49
 74
     0
 42
0.0000000001
 43
0.0000000001
 12
1.0
 22
0.0
 32
0.0
 13
1.0
 23
0.0
 33
0.0
 40
0.0
 40
0.0
 40
0.0
 40
0.0
 40
1.0
 40
1.0
 40
1.0
 40
2.0
 40
2.0
 40
2.0
 40
3.0
 40
3.0
 40
3.0
 40
4.0
 40
4.0
 40
4.0
 40
5.0
 40
5.0
 40
5.0
 40
6.0
 40
6.0
 40
6.0
 40
7.0
 40
7.0
 40
7.0
 40
8.0
 40
8.0
 40
8.0
 40
9.0
 40
9.0
 40
9.0
 40
10.0
 40
10.0
 40
10.0
 40
11.0
 40
11.0
 40
11.0
 40
12.0
 40
12.0
 40
12.0
 40
13.0
 40
13.0
 40
13.0
 40
14.0
 40
14.0
 40
14.0
 40
15.0
 40
15.0
 40
15.0
 40
16.0
 40
16.0
 40
16.0
 40
16.0
 10
91.34291718636567
 20
-166.2806341815201
 30
0.0
 10
91.2647135188505
 20
-166.2806341815201
 30
0.0
 10
91.16308320203562
 20
-166.2637532136424
 30
0.0
 10
91.06145288522075
 20
-166.2003634567138
 30
0.0
 10
90.88816458231268
 20
-166.0901204011858
 30
0.0
 10
90.86680499030413
 20
-165.9592067727463
 30
0.0
 10
90.84785696513526
 20
-165.8510307745095
 30
0.0
 10
90.84785696513526
 20
-165.8510307745095
 30
0.0
 10
91.07006562393387
 20
-165.8510307745095
 30
0.0
 10
91.07006562393387
 20
-165.8510307745095
 30
0.0
 10
91.12484264214935
 20
-166.0501572935569
 30
0.0
 10
91.25196666555507
 20
-166.0797851147301
 30
0.0
 10
91.34498424365681
 20
-166.0797851147301
 30
0.0
 10
91.48451061080944
 20
-166.0797851147301
 30
0.0
 10
91.63678383125747
 20
-165.9802218552063
 30
0.0
 10
91.63678383125747
 20
-165.747677909952
 30
0.0
 10
91.63678383125747
 20
-165.4913628058494
 30
0.0
 10
91.45694984692743
 20
-165.4217718770473
 30
0.0
 10
91.33637150494368
 20
-165.4217718770473
 30
0.0
 10
91.30467662647939
 20
-165.4217718770473
 30
0.0
 10
91.16308320203562
 20
-165.4217718770473
 30
0.0
 10
91.07419973851617
 20
-165.5506184481957
 30
0.0
 10
91.07419973851617
 20
-165.5506184481957
 30
0.0
 10
90.89849986876844
 20
-165.5316704230268
 30
0.0
 10
90.89849986876844
 20
-165.5316704230268
 30
0.0
 10
90.89849986876844
 20
-165.5316704230268
 30
0.0
 10
91.01907821075218
 20
-164.6855549718495
 30
0.0
 10
91.01907821075218
 20
-164.6855549718495
 30
0.0
 10
91.01907821075218
 20
-164.6855549718495
 30
0.0
 10
91.79766979041864
 20
-164.6855549718495
 30
0.0
 10
91.79766979041864
 20
-164.6855549718495
 30
0.0
 10
91.79766979041864
 20
-164.6855549718495
 30
0.0
 10
91.79766979041864
 20
-164.8802028667661
 30
0.0
 10
91.79766979041864
 20
-164.8802028667661
 30
0.0
 10
91.79766979041864
 20
-164.8802028667661
 30
0.0
 10
91.18203122720449
 20
-164.8802028667661
 30
0.0
 10
91.18203122720449
 20
-164.8802028667661
 30
0.0
 10
91.18203122720449
 20
-164.8802028667661
 30
0.0
 10
91.11657441298475
 20
-165.3032605923547
 30
0.0
 10
91.11657441298475
 20
-165.3032605923547
 30
0.0
 10
91.17789711262219
 20
-165.2694986565993
 30
0.0
 10
91.26023489471967
 20
-165.2291910394219
 30
0.0
 10
91.37874617941226
 20
-165.2291910394219
 30
0.0
 10
91.63264971667518
 20
-165.2291910394219
 30
0.0
 10
91.86967228606036
 20
-165.4155707051739
 30
0.0
 10
91.86967228606036
 20
-165.7283853752346
 30
0.0
 10
91.86967228606036
 20
-166.0460231789746
 30
0.0
 10
91.6453965699706
 20
-166.2806341815201
 30
0.0
 10
91.34291718636567
 20
-166.2806341815201
 30
0.0
  0
HATCH
  5
91
330
8A
100
AcDbEntity
  8
_U+30EC_U+30A4_U+30E4_U+30FC 1
 62
     7
420
 16777215
100
AcDbHatch
 10
0.0
 20
0.0
 30
0.0
210
0.0
220
0.0
230
1.0
  2
SOLID
 70
     1
 71
     0
 91
        1
 92
        1
 93
        1
 72
     4
 94
        3
 73
     0
 74
     1
 95
       53
 96
       49
 40
0.0
 40
0.0
 40
0.0
 40
0.0
 40
1.0
 40
1.0
 40
1.0
 40
2.0
 40
2.0
 40
2.0
 40
3.0
 40
3.0
 40
3.0
 40
4.0
 40
4.0
 40
4.0
 40
5.0
 40
5.0
 40
5.0
 40
6.0
 40
6.0
 40
6.0
 40
7.0
 40
7.0
 40
7.0
 40
8.0
 40
8.0
 40
8.0
 40
9.0
 40
9.0
 40
9.0
 40
10.0
 40
10.0
 40
10.0
 40
11.0
 40
11.0
 40
11.0
 40
12.0
 40
12.0
 40
12.0
 40
13.0
 40
13.0
 40
13.0
 40
14.0
 40
14.0
 40
14.0
 40
15.0
 40
15.0
 40
15.0
 40
16.0
 40
16.0
 40
16.0
 40
16.0
 10
91.34291718636567
 20
-166.2806341815201
 10
91.2647135188505
 20
-166.2806341815201
 10
91.16308320203562
 20
-166.2637532136424
 10
91.06145288522075
 20
-166.2003634567138
 10
90.88816458231268
 20
-166.0901204011858
 10
90.86680499030413
 20
-165.9592067727463
 10
90.84785696513526
 20
-165.8510307745095
 10
90.84785696513526
 20
-165.8510307745095
 10
91.07006562393387
 20
-165.8510307745095
 10
91.07006562393387
 20
-165.8510307745095
 10
91.12484264214935
 20
-166.0501572935569
 10
91.25196666555507
 20
-166.0797851147301
 10
91.34498424365681
 20
-166.0797851147301
 10
91.48451061080944
 20
-166.0797851147301
 10
91.63678383125747
 20
-165.9802218552063
 10
91.63678383125747
 20
-165.747677909952
 10
91.63678383125747
 20
-165.4913628058494
 10
91.45694984692743
 20
-165.4217718770473
 10
91.33637150494368
 20
-165.4217718770473
 10
91.30467662647939
 20
-165.4217718770473
 10
91.16308320203562
 20
-165.4217718770473
 10
91.07419973851617
 20
-165.5506184481957
 10
91.07419973851617
 20
-165.5506184481957
 10
90.89849986876844
 20
-165.5316704230268
 10
90.89849986876844
 20
-165.5316704230268
 10
90.89849986876844
 20
-165.5316704230268
 10
91.01907821075218
 20
-164.6855549718495
 10
91.01907821075218
 20
-164.6855549718495
 10
91.01907821075218
 20
-164.6855549718495
 10
91.79766979041864
 20
-164.6855549718495
 10
91.79766979041864
 20
-164.6855549718495
 10
91.79766979041864
 20
-164.6855549718495
 10
91.79766979041864
 20
-164.8802028667661
 10
91.79766979041864
 20
-164.8802028667661
 10
91.79766979041864
 20
-164.8802028667661
 10
91.18203122720449
 20
-164.8802028667661
 10
91.18203122720449
 20
-164.8802028667661
 10
91.18203122720449
 20
-164.8802028667661
 10
91.11657441298475
 20
-165.3032605923547
 10
91.11657441298475
 20
-165.3032605923547
 10
91.17789711262219
 20
-165.2694986565993
 10
91.26023489471967
 20
-165.2291910394219
 10
91.37874617941226
 20
-165.2291910394219
 10
91.63264971667518
 20
-165.2291910394219
 10
91.86967228606036
 20
-165.4155707051739
 10
91.86967228606036
 20
-165.7283853752346
 10
91.86967228606036
 20
-166.0460231789746
 10
91.6453965699706
 20
-166.2806341815201
 10
91.34291718636567
 20
-166.2806341815201
 97
        0
 97
        0
 75
     2
 76
     1
 98
        0
  0
ENDBLK
  5
8D
330
8A
100
AcDbEntity
  8
0
100
AcDbBlockEnd
  0
ENDSEC
  0
SECTION
  2
ENTITIES
  0
POLYLINE
  5
41
330
1F
100
AcDbEntity
  8
_U+30EC_U+30A4_U+30E4_U+30FC 1
 62
     7
420
 16777215
370
     9
100
AcDb2dPolyline
 66
     1
 10
0.0
 20
0.0
 30
0.0
  0
VERTEX
  5
42
330
41
100
AcDbEntity
  8
_U+30EC_U+30A4_U+30E4_U+30FC 1
 62
     7
420
 16777215
370
     9
100
AcDbVertex
100
AcDb2dVertex
 10
49.52805845865618
 20
-162.8245127370719
 30
0.0
  0
VERTEX
  5
43
330
41
100
AcDbEntity
  8
_U+30EC_U+30A4_U+30E4_U+30FC 1
 62
     7
420
 16777215
370
     9
100
AcDbVertex
100
AcDb2dVertex
 10
49.52805845865618
 20
-87.74278303361974
 30
0.0
  0
SEQEND
  5
44
330
41
100
AcDbEntity
  8
_U+30EC_U+30A4_U+30E4_U+30FC 1
 62
     7
420
 16777215
370
     9
  0
POLYLINE
  5
45
330
1F
100
AcDbEntity
  8
_U+30EC_U+30A4_U+30E4_U+30FC 1
 62
     7
420
 16777215
370
     9
100
AcDb2dPolyline
 66
     1
 10
0.0
 20
0.0
 30
0.0
  0
VERTEX
  5
46
330
45
100
AcDbEntity
  8
_U+30EC_U+30A4_U+30E4_U+30FC 1
 62
     7
420
 16777215
370
     9
100
AcDbVertex
100
AcDb2dVertex
 10
51.59960479469552
 20
-162.8245127370719
 30
0.0
  0
VERTEX
  5
47
330
45
100
AcDbEntity
  8
_U+30EC_U+30A4_U+30E4_U+30FC 1
 62
     7
420
 16777215
370
     9
100
AcDbVertex
100
AcDb2dVertex
 10
48.52313570651612
 20
-162.8245127370719
 30
0.0
  0
SEQEND
  5
48
330
45
100
AcDbEntity
  8
_U+30EC_U+30A4_U+30E4_U+30FC 1
 62
     7
420
 16777215
370
     9
  0
POLYLINE
  5
49
330
1F
100
AcDbEntity
  8
_U+30EC_U+30A4_U+30E4_U+30FC 1
 62
     7
420
 16777215
370
     9
100
AcDb2dPolyline
 66
     1
 10
0.0
 20
0.0
 30
0.0
  0
VERTEX
  5
4A
330
49
100
AcDbEntity
  8
_U+30EC_U+30A4_U+30E4_U+30FC 1
 62
     7
420
 16777215
370
     9
100
AcDbVertex
100
AcDb2dVertex
 10
51.39633424432583
 20
-87.82339275582187
 30
0.0
  0
VERTEX
  5
4B
330
49
100
AcDbEntity
  8
_U+30EC_U+30A4_U+30E4_U+30FC 1
 62
     7
420
 16777215
370
     9
100
AcDbVertex
100
AcDb2dVertex
 10
48.52313570651612
 20
-87.82339275582187
 30
0.0
  0
SEQEND
  5
4C
330
49
100
AcDbEntity
  8
_U+30EC_U+30A4_U+30E4_U+30FC 1
 62
     7
420
 16777215
370
     9
  0
INSERT
  5
4E
330
1F
100
AcDbEntity
  8
_U+30EC_U+30A4_U+30E4_U+30FC 1
100
AcDbBlockReference
  2
block 2
 10
0.0
 20
0.0
 30
0.0
  0
POLYLINE
  5
55
330
1F
100
AcDbEntity
  8
_U+30EC_U+30A4_U+30E4_U+30FC 1
 62
     7
420
 16777215
370
     9
100
AcDb2dPolyline
 66
     1
 10
0.0
 20
0.0
 30
0.0
  0
VERTEX
  5
56
330
55
100
AcDbEntity
  8
_U+30EC_U+30A4_U+30E4_U+30FC 1
 62
     7
420
 16777215
370
     9
100
AcDbVertex
100
AcDb2dVertex
 10
52.33599443136055
 20
-163.4305144035866
 30
0.0
  0
VERTEX
  5
57
330
55
100
AcDbEntity
  8
_U+30EC_U+30A4_U+30E4_U+30FC 1
 62
     7
420
 16777215
370
     9
100
AcDbVertex
100
AcDb2dVertex
 10
53.20693086480033
 20
-162.9282294037126
 30
0.0
  0
SEQEND
  5
58
330
55
100
AcDbEntity
  8
_U+30EC_U+30A4_U+30E4_U+30FC 1
 62
     7
420
 16777215
370
     9
  0
POLYLINE
  5
59
330
1F
100
AcDbEntity
  8
_U+30EC_U+30A4_U+30E4_U+30FC 1
 62
     7
420
 16777215
370
     9
100
AcDb2dPolyline
 66
     1
 10
0.0
 20
0.0
 30
0.0
  0
VERTEX
  5
5A
330
59
100
AcDbEntity
  8
_U+30EC_U+30A4_U+30E4_U+30FC 1
 62
     7
420
 16777215
370
     9
100
AcDbVertex
100
AcDb2dVertex
 10
52.70425782206903
 20
-163.7977560701618
 30
0.0
  0
VERTEX
  5
5B
330
59
100
AcDbEntity
  8
_U+30EC_U+30A4_U+30E4_U+30FC 1
 62
     7
420
 16777215
370
     9
100
AcDbVertex
100
AcDb2dVertex
 10
53.20693086480033
 20
-162.9282294037126
 30
0.0
  0
SEQEND
  5
5C
330
59
100
AcDbEntity
  8
_U+30EC_U+30A4_U+30E4_U+30FC 1
 62
     7
420
 16777215
370
     9
  0
POLYLINE
  5
5D
330
1F
100
AcDbEntity
  8
_U+30EC_U+30A4_U+30E4_U+30FC 1
 62
     7
420
 16777215
370
     9
100
AcDb2dPolyline
 66
     1
 10
0.0
 20
0.0
 30
0.0
  0
VERTEX
  5
5E
330
5D
100
AcDbEntity
  8
_U+30EC_U+30A4_U+30E4_U+30FC 1
 62
     7
420
 16777215
370
     9
100
AcDbVertex
100
AcDb2dVertex
 10
53.20693086480033
 20
-162.9282294037126
 30
0.0
  0
VERTEX
  5
5F
330
5D
100
AcDbEntity
  8
_U+30EC_U+30A4_U+30E4_U+30FC 1
 62
     7
420
 16777215
370
     9
100
AcDbVertex
100
AcDb2dVertex
 10
49.72529650917978
 20
-166.4091230139533
 30
0.0
  0
SEQEND
  5
60
330
5D
100
AcDbEntity
  8
_U+30EC_U+30A4_U+30E4_U+30FC 1
 62
     7
420
 16777215
370
     9
  0
INSERT
  5
62
330
1F
100
AcDbEntity
  8
_U+30EC_U+30A4_U+30E4_U+30FC 1
100
AcDbBlockReference
  2
block 3
 10
0.0
 20
0.0
 30
0.0
  0
POLYLINE
  5
6A
330
1F
100
AcDbEntity
  8
_U+30EC_U+30A4_U+30E4_U+30FC 1
 62
     7
420
 16777215
370
     9
100
AcDb2dPolyline
 66
     1
 10
0.0
 20
0.0
 30
0.0
  0
VERTEX
  5
6B
330
6A
100
AcDbEntity
  8
_U+30EC_U+30A4_U+30E4_U+30FC 1
 62
     7
420
 16777215
370
     9
100
AcDbVertex
100
AcDb2dVertex
 10
134.0459213024259
 20
-162.8245127370719
 30
0.0
  0
VERTEX
  5
6C
330
6A
100
AcDbEntity
  8
_U+30EC_U+30A4_U+30E4_U+30FC 1
 62
     7
420
 16777215
370
     9
100
AcDbVertex
100
AcDb2dVertex
 10
129.394334754431
 20
-162.8245127370719
 30
0.0
  0
SEQEND
  5
6D
330
6A
100
AcDbEntity
  8
_U+30EC_U+30A4_U+30E4_U+30FC 1
 62
     7
420
 16777215
370
     9
  0
POLYLINE
  5
6E
330
1F
100
AcDbEntity
  8
_U+30EC_U+30A4_U+30E4_U+30FC 1
 62
     7
420
 16777215
370
     9
100
AcDb2dPolyline
 66
     1
 10
0.0
 20
0.0
 30
0.0
  0
VERTEX
  5
6F
330
6E
100
AcDbEntity
  8
_U+30EC_U+30A4_U+30E4_U+30FC 1
 62
     7
420
 16777215
370
     9
100
AcDbVertex
100
AcDb2dVertex
 10
134.0459213024259
 20
-161.8243877373216
 30
0.0
  0
VERTEX
  5
70
330
6E
100
AcDbEntity
  8
_U+30EC_U+30A4_U+30E4_U+30FC 1
 62
     7
420
 16777215
370
     9
100
AcDbVertex
100
AcDb2dVertex
 10
129.394334754431
 20
-161.8243877373216
 30
0.0
  0
SEQEND
  5
71
330
6E
100
AcDbEntity
  8
_U+30EC_U+30A4_U+30E4_U+30FC 1
 62
     7
420
 16777215
370
     9
  0
INSERT
  5
73
330
1F
100
AcDbEntity
  8
_U+30EC_U+30A4_U+30E4_U+30FC 1
100
AcDbBlockReference
  2
block 4
 10
0.0
 20
0.0
 30
0.0
  0
POLYLINE
  5
78
330
1F
100
AcDbEntity
  8
_U+30EC_U+30A4_U+30E4_U+30FC 1
 62
     7
420
 16777215
370
     9
100
AcDb2dPolyline
 66
     1
 10
0.0
 20
0.0
 30
0.0
  0
VERTEX
  5
79
330
78
100
AcDbEntity
  8
_U+30EC_U+30A4_U+30E4_U+30FC 1
 62
     7
420
 16777215
370
     9
100
AcDbVertex
100
AcDb2dVertex
 10
132.4184516217238
 20
-162.8190094037397
 30
0.0
  0
VERTEX
  5
7A
330
78
100
AcDbEntity
  8
_U+30EC_U+30A4_U+30E4_U+30FC 1
 62
     7
420
 16777215
370
     9
100
AcDbVertex
100
AcDb2dVertex
 10
132.4184516217238
 20
-161.8188844039894
 30
0.0
  0
SEQEND
  5
7B
330
78
100
AcDbEntity
  8
_U+30EC_U+30A4_U+30E4_U+30FC 1
 62
     7
420
 16777215
370
     9
  0
SPLINE
  5
7C
330
1F
100
AcDbEntity
  8
_U+30EC_U+30A4_U+30E4_U+30FC 1
 62
     7
420
 16777215
370
     9
100
AcDbSpline
210
0.0
220
0.0
230
1.0
 70
    11
 71
     3
 72
    17
 73
    13
 74
     0
 42
0.0000000001
 43
0.0000000001
 12
1.0
 22
0.0
 32
0.0
 13
1.0
 23
0.0
 33
0.0
 40
0.0
 40
0.0
 40
0.0
 40
0.0
 40
1.0
 40
1.0
 40
1.0
 40
2.0
 40
2.0
 40
2.0
 40
3.0
 40
3.0
 40
3.0
 40
4.0
 40
4.0
 40
4.0
 40
4.0
 10
49.52841123642496
 20
-87.71145636696107
 30
0.0
 10
49.4670984602114
 20
-87.71145636696107
 30
0.0
 10
49.41679235038371
 20
-87.76105692250412
 30
0.0
 10
49.41679235038371
 20
-87.82307525582195
 30
0.0
 10
49.41679235038371
 20
-87.88438803358457
 30
0.0
 10
49.4670984602114
 20
-87.93469414468315
 30
0.0
 10
49.52841123642496
 20
-87.93469414468315
 30
0.0
 10
49.58972401263852
 20
-87.93469414468315
 30
0.0
 10
49.63936109870129
 20
-87.88438803358457
 30
0.0
 10
49.63936109870129
 20
-87.82307525582195
 30
0.0
 10
49.63936109870129
 20
-87.76105692250412
 30
0.0
 10
49.58972401263852
 20
-87.71145636696107
 30
0.0
 10
49.52841123642496
 20
-87.71145636696107
 30
0.0
  0
SPLINE
  5
7D
330
1F
100
AcDbEntity
  8
_U+30EC_U+30A4_U+30E4_U+30FC 1
 62
     7
420
 16777215
370
     9
100
AcDbSpline
210
0.0
220
0.0
230
1.0
 70
    11
 71
     3
 72
    17
 73
    13
 74
     0
 42
0.0000000001
 43
0.0000000001
 12
1.0
 22
0.0
 32
0.0
 13
1.0
 23
0.0
 33
0.0
 40
0.0
 40
0.0
 40
0.0
 40
0.0
 40
1.0
 40
1.0
 40
1.0
 40
2.0
 40
2.0
 40
2.0
 40
3.0
 40
3.0
 40
3.0
 40
4.0
 40
4.0
 40
4.0
 40
4.0
 10
49.63936109870129
 20
-162.8234896815161
 30
0.0
 10
49.63936109870129
 20
-162.7628471815315
 30
0.0
 10
49.58972401263852
 20
-162.7125410704332
 30
0.0
 10
49.52841123642496
 20
-162.7125410704332
 30
0.0
 10
49.4670984602114
 20
-162.7125410704332
 30
0.0
 10
49.41679235038371
 20
-162.7628471815315
 30
0.0
 10
49.41679235038371
 20
-162.8234896815161
 30
0.0
 10
49.41679235038371
 20
-162.8855080148343
 30
0.0
 10
49.4670984602114
 20
-162.935778848155
 30
0.0
 10
49.52841123642496
 20
-162.935778848155
 30
0.0
 10
49.58972401263852
 20
-162.935778848155
 30
0.0
 10
49.63936109870129
 20
-162.8855080148343
 30
0.0
 10
49.63936109870129
 20
-162.8234896815161
 30
0.0
  0
POLYLINE
  5
7E
330
1F
100
AcDbEntity
  8
_U+30EC_U+30A4_U+30E4_U+30FC 1
 62
     7
420
 16777215
370
     9
100
AcDb2dPolyline
 66
     1
 10
0.0
 20
0.0
 30
0.0
  0
VERTEX
  5
7F
330
7E
100
AcDbEntity
  8
_U+30EC_U+30A4_U+30E4_U+30FC 1
 62
     7
420
 16777215
370
     9
100
AcDbVertex
100
AcDb2dVertex
 10
128.3938922799545
 20
-166.922097180492
 30
0.0
  0
VERTEX
  5
80
330
7E
100
AcDbEntity
  8
_U+30EC_U+30A4_U+30E4_U+30FC 1
 62
     7
420
 16777215
370
     9
100
AcDbVertex
100
AcDb2dVertex
 10
53.31389443111605
 20
-166.922097180492
 30
0.0
  0
SEQEND
  5
81
330
7E
100
AcDbEntity
  8
_U+30EC_U+30A4_U+30E4_U+30FC 1
 62
     7
420
 16777215
370
     9
  0
POLYLINE
  5
82
330
1F
100
AcDbEntity
  8
_U+30EC_U+30A4_U+30E4_U+30FC 1
 62
     7
420
 16777215
370
     9
100
AcDb2dPolyline
 66
     1
 10
0.0
 20
0.0
 30
0.0
  0
VERTEX
  5
83
330
82
100
AcDbEntity
  8
_U+30EC_U+30A4_U+30E4_U+30FC 1
 62
     7
420
 16777215
370
     9
100
AcDbVertex
100
AcDb2dVertex
 10
128.3938922799545
 20
-164.8505860698984
 30
0.0
  0
VERTEX
  5
84
330
82
100
AcDbEntity
  8
_U+30EC_U+30A4_U+30E4_U+30FC 1
 62
     7
420
 16777215
370
     9
100
AcDbVertex
100
AcDb2dVertex
 10
128.3938922799545
 20
-167.9270552357958
 30
0.0
  0
SEQEND
  5
85
330
82
100
AcDbEntity
  8
_U+30EC_U+30A4_U+30E4_U+30FC 1
 62
     7
420
 16777215
370
     9
  0
POLYLINE
  5
86
330
1F
100
AcDbEntity
  8
_U+30EC_U+30A4_U+30E4_U+30FC 1
 62
     7
420
 16777215
370
     9
100
AcDb2dPolyline
 66
     1
 10
0.0
 20
0.0
 30
0.0
  0
VERTEX
  5
87
330
86
100
AcDbEntity
  8
_U+30EC_U+30A4_U+30E4_U+30FC 1
 62
     7
420
 16777215
370
     9
100
AcDbVertex
100
AcDb2dVertex
 10
53.39450280445941
 20
-165.0538213476254
 30
0.0
  0
VERTEX
  5
88
330
86
100
AcDbEntity
  8
_U+30EC_U+30A4_U+30E4_U+30FC 1
 62
     7
420
 16777215
370
     9
100
AcDbVertex
100
AcDb2dVertex
 10
53.39450280445941
 20
-167.9270552357958
 30
0.0
  0
SEQEND
  5
89
330
86
100
AcDbEntity
  8
_U+30EC_U+30A4_U+30E4_U+30FC 1
 62
     7
420
 16777215
370
     9
  0
INSERT
  5
8B
330
1F
100
AcDbEntity
  8
_U+30EC_U+30A4_U+30E4_U+30FC 1
100
AcDbBlockReference
  2
block 5
 10
0.0
 20
0.0
 30
0.0
  0
SPLINE
  5
92
330
1F
100
AcDbEntity
  8
_U+30EC_U+30A4_U+30E4_U+30FC 1
 62
     7
420
 16777215
370
     9
100
AcDbSpline
210
0.0
220
0.0
230
1.0
 70
    11
 71
     3
 72
    17
 73
    13
 74
     0
 42
0.0000000001
 43
0.0000000001
 12
1.0
 22
0.0
 32
0.0
 13
1.0
 23
0.0
 33
0.0
 40
0.0
 40
0.0
 40
0.0
 40
0.0
 40
1.0
 40
1.0
 40
1.0
 40
2.0
 40
2.0
 40
2.0
 40
3.0
 40
3.0
 40
3.0
 40
4.0
 40
4.0
 40
4.0
 40
4.0
 10
53.29597197363981
 20
-166.9000485693864
 30
0.0
 10
53.29597197363981
 20
-166.9613966249266
 30
0.0
 10
53.34557252792995
 20
-167.0116674582473
 30
0.0
 10
53.40759085968106
 20
-167.0116674582473
 30
0.0
 10
53.46890363589463
 20
-167.0116674582473
 30
0.0
 10
53.51921109773118
 20
-166.9613966249266
 30
0.0
 10
53.51921109773118
 20
-166.9000485693864
 30
0.0
 10
53.51921109773118
 20
-166.8387357916238
 30
0.0
 10
53.46890363589463
 20
-166.7891352360804
 30
0.0
 10
53.40759085968106
 20
-166.7891352360804
 30
0.0
 10
53.34557252792995
 20
-166.7891352360804
 30
0.0
 10
53.29597197363981
 20
-166.8387357916238
 30
0.0
 10
53.29597197363981
 20
-166.9000485693864
 30
0.0
  0
SPLINE
  5
93
330
1F
100
AcDbEntity
  8
_U+30EC_U+30A4_U+30E4_U+30FC 1
 62
     7
420
 16777215
370
     9
100
AcDbSpline
210
0.0
220
0.0
230
1.0
 70
    11
 71
     3
 72
    17
 73
    13
 74
     0
 42
0.0000000001
 43
0.0000000001
 12
1.0
 22
0.0
 32
0.0
 13
1.0
 23
0.0
 33
0.0
 40
0.0
 40
0.0
 40
0.0
 40
0.0
 40
1.0
 40
1.0
 40
1.0
 40
2.0
 40
2.0
 40
2.0
 40
3.0
 40
3.0
 40
3.0
 40
4.0
 40
4.0
 40
4.0
 40
4.0
 10
128.3621775585414
 20
-166.7891352360804
 30
0.0
 10
128.3015703378653
 20
-166.7891352360804
 30
0.0
 10
128.2512642280377
 20
-166.8387357916238
 30
0.0
 10
128.2512642280377
 20
-166.9000485693864
 30
0.0
 10
128.2512642280377
 20
-166.9613966249266
 30
0.0
 10
128.3015703378653
 20
-167.0116674582473
 30
0.0
 10
128.3621775585414
 20
-167.0116674582473
 30
0.0
 10
128.4241958902925
 20
-167.0116674582473
 30
0.0
 10
128.4745020001202
 20
-166.9613966249266
 30
0.0
 10
128.4745020001202
 20
-166.9000485693864
 30
0.0
 10
128.4745020001202
 20
-166.8387357916238
 30
0.0
 10
128.4241958902925
 20
-166.7891352360804
 30
0.0
 10
128.3621775585414
 20
-166.7891352360804
 30
0.0
  0
SPLINE
  5
94
330
1F
100
AcDbEntity
  8
_U+30EC_U+30A4_U+30E4_U+30FC 1
 62
     7
420
 16777215
370
     9
100
AcDbSpline
210
0.0
220
0.0
230
1.0
 70
    11
 71
     3
 72
    17
 73
    13
 74
     0
 42
0.0000000001
 43
0.0000000001
 12
1.0
 22
0.0
 32
0.0
 13
1.0
 23
0.0
 33
0.0
 40
0.0
 40
0.0
 40
0.0
 40
0.0
 40
1.0
 40
1.0
 40
1.0
 40
2.0
 40
2.0
 40
2.0
 40
3.0
 40
3.0
 40
3.0
 40
4.0
 40
4.0
 40
4.0
 40
4.0
 10
132.5300705077651
 20
-161.824070237322
 30
0.0
 10
132.5300705077651
 20
-161.7627221817819
 30
0.0
 10
132.480469953475
 20
-161.7124513484605
 30
0.0
 10
132.4184516217238
 20
-161.7124513484605
 30
0.0
 10
132.3571035677334
 20
-161.7124513484605
 30
0.0
 10
132.3068360780343
 20
-161.7627221817819
 30
0.0
 10
132.3068360780343
 20
-161.824070237322
 30
0.0
 10
132.3068360780343
 20
-161.886053292862
 30
0.0
 10
132.3571035677334
 20
-161.9363594039602
 30
0.0
 10
132.4184516217238
 20
-161.9363594039602
 30
0.0
 10
132.480469953475
 20
-161.9363594039602
 30
0.0
 10
132.5300705077651
 20
-161.886053292862
 30
0.0
 10
132.5300705077651
 20
-161.824070237322
 30
0.0
  0
SPLINE
  5
95
330
1F
100
AcDbEntity
  8
_U+30EC_U+30A4_U+30E4_U+30FC 1
 62
     7
420
 16777215
370
     9
100
AcDbSpline
210
0.0
220
0.0
230
1.0
 70
    11
 71
     3
 72
    17
 73
    13
 74
     0
 42
0.0000000001
 43
0.0000000001
 12
1.0
 22
0.0
 32
0.0
 13
1.0
 23
0.0
 33
0.0
 40
0.0
 40
0.0
 40
0.0
 40
0.0
 40
1.0
 40
1.0
 40
1.0
 40
2.0
 40
2.0
 40
2.0
 40
3.0
 40
3.0
 40
3.0
 40
4.0
 40
4.0
 40
4.0
 40
4.0
 10
132.5300705077651
 20
-162.8241599592941
 30
0.0
 10
132.5300705077651
 20
-162.7628471815315
 30
0.0
 10
132.480469953475
 20
-162.7132466259881
 30
0.0
 10
132.4184516217238
 20
-162.7132466259881
 30
0.0
 10
132.3571035677334
 20
-162.7132466259881
 30
0.0
 10
132.3068360780343
 20
-162.7628471815315
 30
0.0
 10
132.3068360780343
 20
-162.8241599592941
 30
0.0
 10
132.3068360780343
 20
-162.8861782926116
 30
0.0
 10
132.3571035677334
 20
-162.935778848155
 30
0.0
 10
132.4184516217238
 20
-162.935778848155
 30
0.0
 10
132.480469953475
 20
-162.935778848155
 30
0.0
 10
132.5300705077651
 20
-162.8861782926116
 30
0.0
 10
132.5300705077651
 20
-162.8241599592941
 30
0.0
  0
SPLINE
  5
96
330
1F
100
AcDbEntity
  8
_U+30EC_U+30A4_U+30E4_U+30FC 1
 62
     7
420
 16777215
370
    25
100
AcDbSpline
210
0.0
220
0.0
230
1.0
 70
    11
 71
     3
 72
    38
 73
    34
 74
     0
 42
0.0000000001
 43
0.0000000001
 12
1.0
 22
0.0
 32
0.0
 13
1.0
 23
0.0
 33
0.0
 40
0.0
 40
0.0
 40
0.0
 40
0.0
 40
1.0
 40
1.0
 40
1.0
 40
2.0
 40
2.0
 40
2.0
 40
3.0
 40
3.0
 40
3.0
 40
4.0
 40
4.0
 40
4.0
 40
5.0
 40
5.0
 40
5.0
 40
6.0
 40
6.0
 40
6.0
 40
7.0
 40
7.0
 40
7.0
 40
8.0
 40
8.0
 40
8.0
 40
9.0
 40
9.0
 40
9.0
 40
10.0
 40
10.0
 40
10.0
 40
11.0
 40
11.0
 40
11.0
 40
11.0
 10
128.3938922799545
 20
-162.8245127370719
 30
0.0
 10
128.3938922799545
 20
-162.8245127370719
 30
0.0
 10
128.3938922799545
 20
-161.8243877373216
 30
0.0
 10
128.3938922799545
 20
-161.8243877373216
 30
0.0
 10
128.3938922799545
 20
-161.8243877373216
 30
0.0
 10
128.3904350578204
 20
-161.8202602373229
 30
0.0
 10
128.3904350578204
 20
-161.8202602373229
 30
0.0
 10
128.3904350578204
 20
-161.8202602373229
 30
0.0
 10
54.8979358216592
 20
-161.8202602373229
 30
0.0
 10
54.8979358216592
 20
-161.8202602373229
 30
0.0
 10
54.6200880509699
 20
-161.8202602373229
 30
0.0
 10
54.39445276417928
 20
-161.5946235707125
 30
0.0
 10
54.39445276417928
 20
-161.3169521818932
 30
0.0
 10
54.39445276417928
 20
-161.3169521818932
 30
0.0
 10
54.39529805670477
 20
-161.3142005152268
 30
0.0
 10
54.39529805670477
 20
-161.3142005152268
 30
0.0
 10
54.39529805670477
 20
-161.3142005152268
 30
0.0
 10
54.39529805670477
 20
-87.82462747804371
 30
0.0
 10
54.39529805670477
 20
-87.82462747804371
 30
0.0
 10
54.39529805670477
 20
-87.82462747804371
 30
0.0
 10
53.39534947110448
 20
-87.82462747804371
 30
0.0
 10
53.39534947110448
 20
-87.82462747804371
 30
0.0
 10
53.39534947110448
 20
-87.82462747804371
 30
0.0
 10
53.39450280445941
 20
-87.82462747804371
 30
0.0
 10
53.39450280445941
 20
-87.82462747804371
 30
0.0
 10
53.39450280445941
 20
-87.82462747804371
 30
0.0
 10
53.39450280445941
 20
-161.8243877373216
 30
0.0
 10
53.39450280445941
 20
-161.8243877373216
 30
0.0
 10
53.39450280445941
 20
-162.3745799594064
 30
0.0
 10
53.84443557075845
 20
-162.8245127370719
 30
0.0
 10
54.39445276417928
 20
-162.8245127370719
 30
0.0
 10
54.39445276417928
 20
-162.8245127370719
 30
0.0
 10
128.3938922799545
 20
-162.8245127370719
 30
0.0
 10
128.3938922799545
 20
-162.8245127370719
 30
0.0
  0
HATCH
  5
97
330
1F
100
AcDbEntity
  8
_U+30EC_U+30A4_U+30E4_U+30FC 1
 62
   253
420
 10855845
100
AcDbHatch
 10
0.0
 20
0.0
 30
0.0
210
0.0
220
0.0
230
1.0
  2
SOLID
 70
     1
 71
     0
 91
        1
 92
        1
 93
        1
 72
     4
 94
        3
 73
     0
 74
     1
 95
       38
 96
       34
 40
0.0
 40
0.0
 40
0.0
 40
0.0
 40
1.0
 40
1.0
 40
1.0
 40
2.0
 40
2.0
 40
2.0
 40
3.0
 40
3.0
 40
3.0
 40
4.0
 40
4.0
 40
4.0
 40
5.0
 40
5.0
 40
5.0
 40
6.0
 40
6.0
 40
6.0
 40
7.0
 40
7.0
 40
7.0
 40
8.0
 40
8.0
 40
8.0
 40
9.0
 40
9.0
 40
9.0
 40
10.0
 40
10.0
 40
10.0
 40
11.0
 40
11.0
 40
11.0
 40
11.0
 10
128.3938922799545
 20
-162.8245127370719
 10
128.3938922799545
 20
-162.8245127370719
 10
128.3938922799545
 20
-161.8243877373216
 10
128.3938922799545
 20
-161.8243877373216
 10
128.3938922799545
 20
-161.8243877373216
 10
128.3904350578204
 20
-161.8202602373229
 10
128.3904350578204
 20
-161.8202602373229
 10
128.3904350578204
 20
-161.8202602373229
 10
54.8979358216592
 20
-161.8202602373229
 10
54.8979358216592
 20
-161.8202602373229
 10
54.6200880509699
 20
-161.8202602373229
 10
54.39445276417928
 20
-161.5946235707125
 10
54.39445276417928
 20
-161.3169521818932
 10
54.39445276417928
 20
-161.3169521818932
 10
54.39529805670477
 20
-161.3142005152268
 10
54.39529805670477
 20
-161.3142005152268
 10
54.39529805670477
 20
-161.3142005152268
 10
54.39529805670477
 20
-87.82462747804371
 10
54.39529805670477
 20
-87.82462747804371
 10
54.39529805670477
 20
-87.82462747804371
 10
53.39534947110448
 20
-87.82462747804371
 10
53.39534947110448
 20
-87.82462747804371
 10
53.39534947110448
 20
-87.82462747804371
 10
53.39450280445941
 20
-87.82462747804371
 10
53.39450280445941
 20
-87.82462747804371
 10
53.39450280445941
 20
-87.82462747804371
 10
53.39450280445941
 20
-161.8243877373216
 10
53.39450280445941
 20
-161.8243877373216
 10
53.39450280445941
 20
-162.3745799594064
 10
53.84443557075845
 20
-162.8245127370719
 10
54.39445276417928
 20
-162.8245127370719
 10
54.39445276417928
 20
-162.8245127370719
 10
128.3938922799545
 20
-162.8245127370719
 10
128.3938922799545
 20
-162.8245127370719
 97
        0
 97
        0
 75
     2
 76
     1
 98
        0
  0
ENDSEC
  0
SECTION
  2
OBJECTS
  0
DICTIONARY
  5
C
330
0
100
AcDbDictionary
281
     1
  3
ACAD_GROUP
350
D
  3
ACAD_LAYOUT
350
1A
  3
ACAD_MATERIAL
350
3B
  3
ACAD_MLEADERSTYLE
350
99
  3
ACAD_MLINESTYLE
350
17
  3
ACAD_PLOTSETTINGS
350
19
  3
ACAD_PLOTSTYLENAME
350
E
  3
ACAD_TABLESTYLE
350
98
  3
ACAD_VISUALSTYLE
350
2A
  0
SUN
  5
3F
330
29
100
AcDbSun
 90
        1
290
     0
 63
     7
421
 16777215
 40
1.0
291
     1
 91
  2455826
 92
 54000000
292
     0
 70
     2
 71
   256
280
     1
  0
DICTIONARY
  5
D
102
{ACAD_REACTORS
330
C
102
}
330
C
100
AcDbDictionary
281
     1
  0
DICTIONARY
  5
1A
102
{ACAD_REACTORS
330
C
102
}
330
C
100
AcDbDictionary
281
     1
  3
Layout1
350
1E
  3
Layout2
350
26
  3
Model
350
22
  0
DICTIONARY
  5
3B
102
{ACAD_REACTORS
330
C
102
}
330
C
100
AcDbDictionary
281
     1
  3
ByBlock
350
3D
  3
ByLayer
350
3C
  3
Global
350
3E
  0
DICTIONARY
  5
99
102
{ACAD_REACTORS
330
C
102
}
330
C
100
AcDbDictionary
281
     1
  0
DICTIONARY
  5
17
102
{ACAD_REACTORS
330
C
102
}
330
C
100
AcDbDictionary
281
     1
  3
Standard
350
18
  0
DICTIONARY
  5
19
102
{ACAD_REACTORS
330
C
102
}
330
C
100
AcDbDictionary
281
     1
  0
ACDBDICTIONARYWDFLT
  5
E
102
{ACAD_REACTORS
330
C
102
}
330
C
100
AcDbDictionary
281
     1
  3
Normal
350
F
100
AcDbDictionaryWithDefault
340
F
  0
DICTIONARY
  5
98
102
{ACAD_REACTORS
330
C
102
}
330
C
100
AcDbDictionary
281
     1
  0
DICTIONARY
  5
2A
102
{ACAD_REACTORS
330
C
102
}
330
C
100
AcDbDictionary
281
     1
  3
2dWireframe
350
2F
  3
3D Hidden
350
31
  3
3dWireframe
350
30
  3
Basic
350
32
  3
Brighten
350
36
  3
ColorChange
350
3A
  3
Conceptual
350
34
  3
Dim
350
35
  3
Facepattern
350
39
  3
Flat
350
2B
  3
FlatWithEdges
350
2C
  3
Gouraud
350
2D
  3
GouraudWithEdges
350
2E
  3
Linepattern
350
38
  3
Realistic
350
33
  3
Thicken
350
37
  0
LAYOUT
  5
1E
102
{ACAD_REACTORS
330
1A
102
}
330
1A
100
AcDbPlotSettings
  1

  2
none_device
  4

  6

 40
0.0
 41
0.0
 42
0.0
 43
0.0
 44
0.0
 45
0.0
 46
0.0
 47
0.0
 48
0.0
 49
0.0
140
0.0
141
0.0
142
1.0
143
1.0
 70
   688
 72
     0
 73
     0
 74
     5
  7

 75
    16
 76
     0
 77
     2
 78
   300
147
1.0
148
0.0
149
0.0
100
AcDbLayout
  1
Layout1
 70
     1
 71
     1
 10
0.0
 20
0.0
 11
12.0
 21
9.0
 12
0.0
 22
0.0
 32
0.0
 14
1.000000000000000E+20
 24
1.000000000000000E+20
 34
1.000000000000000E+20
 15
-1.000000000000000E+20
 25
-1.000000000000000E+20
 35
-1.000000000000000E+20
146
0.0
 13
0.0
 23
0.0
 33
0.0
 16
1.0
 26
0.0
 36
0.0
 17
0.0
 27
1.0
 37
0.0
 76
     0
330
1B
  0
LAYOUT
  5
26
102
{ACAD_REACTORS
330
1A
102
}
330
1A
100
AcDbPlotSettings
  1

  2
none_device
  4

  6

 40
0.0
 41
0.0
 42
0.0
 43
0.0
 44
0.0
 45
0.0
 46
0.0
 47
0.0
 48
0.0
 49
0.0
140
0.0
141
0.0
142
1.0
143
1.0
 70
   688
 72
     0
 73
     0
 74
     5
  7

 75
    16
 76
     0
 77
     2
 78
   300
147
1.0
148
0.0
149
0.0
100
AcDbLayout
  1
Layout2
 70
     1
 71
     2
 10
0.0
 20
0.0
 11
0.0
 21
0.0
 12
0.0
 22
0.0
 32
0.0
 14
0.0
 24
0.0
 34
0.0
 15
0.0
 25
0.0
 35
0.0
146
0.0
 13
0.0
 23
0.0
 33
0.0
 16
1.0
 26
0.0
 36
0.0
 17
0.0
 27
1.0
 37
0.0
 76
     0
330
23
  0
LAYOUT
  5
22
102
{ACAD_REACTORS
330
1A
102
}
330
1A
100
AcDbPlotSettings
  1

  2
none_device
  4

  6

 40
0.0
 41
0.0
 42
0.0
 43
0.0
 44
0.0
 45
0.0
 46
0.0
 47
0.0
 48
0.0
 49
0.0
140
0.0
141
0.0
142
1.0
143
1.0
 70
  1712
 72
     0
 73
     0
 74
     0
  7

 75
     0
 76
     0
 77
     2
 78
   300
147
1.0
148
0.0
149
0.0
100
AcDbLayout
  1
Model
 70
     1
 71
     0
 10
0.0
 20
0.0
 11
12.0
 21
9.0
 12
0.0
 22
0.0
 32
0.0
 14
1.000000000000000E+20
 24
1.000000000000000E+20
 34
1.000000000000000E+20
 15
-1.000000000000000E+20
 25
-1.000000000000000E+20
 35
-1.000000000000000E+20
146
0.0
 13
0.0
 23
0.0
 33
0.0
 16
1.0
 26
0.0
 36
0.0
 17
0.0
 27
1.0
 37
0.0
 76
     0
330
1F
331
29
  0
MATERIAL
  5
3D
102
{ACAD_REACTORS
330
3B
102
}
330
3B
100
AcDbMaterial
  1
ByBlock
 72
     1
 94
      127
  0
MATERIAL
  5
3C
102
{ACAD_REACTORS
330
3B
102
}
330
3B
100
AcDbMaterial
  1
ByLayer
 72
     1
 94
      127
  0
MATERIAL
  5
3E
102
{ACAD_REACTORS
330
3B
102
}
330
3B
100
AcDbMaterial
  1
Global
 72
     1
 94
      127
  0
MLINESTYLE
  5
18
102
{ACAD_REACTORS
330
17
102
}
330
17
100
AcDbMlineStyle
  2
Standard
 70
     0
  3

 62
   256
 51
90.0
 52
90.0
 71
     2
 49
0.5
 62
   256
  6
BYLAYER
 49
-0.5
 62
   256
  6
BYLAYER
  0
ACDBPLACEHOLDER
  5
F
102
{ACAD_REACTORS
330
E
102
}
330
E
  0
VISUALSTYLE
  5
2F
102
{ACAD_REACTORS
330
2A
102
}
330
2A
100
AcDbVisualStyle
  2
2dWireframe
 70
     4
177
     2
291
     0
 71
     0
176
     1
 72
     2
176
     1
 73
     0
176
     1
 90
        0
176
     1
 40
-0.6
176
     1
 41
-30.0
176
     1
 62
     5
 63
     7
421
 16777215
176
     1
 74
     1
176
     1
 91
        4
176
     1
 64
     7
176
     1
 65
   257
176
     1
 75
     1
176
     1
175
     1
176
     1
 42
1.0
176
     1
 92
        0
176
     1
 66
   257
176
     1
 43
1.0
176
     1
 76
     1
176
     1
 77
     6
176
     1
 78
     2
176
     1
 67
     7
176
     1
 79
     5
176
     1
170
     0
176
     1
171
     0
176
     1
290
     0
176
     1
 93
        1
176
     1
 44
0.0
176
     1
173
     0
176
     1
  0
VISUALSTYLE
  5
31
102
{ACAD_REACTORS
330
2A
102
}
330
2A
100
AcDbVisualStyle
  2
3D Hidden
 70
     6
177
     2
291
     0
 71
     1
176
     1
 72
     2
176
     1
 73
     2
176
     1
 90
        0
176
     1
 40
-0.6
176
     1
 41
-30.0
176
     1
 62
     5
 63
     7
421
 16777215
176
     1
 74
     2
176
     1
 91
        2
176
     1
 64
     7
176
     1
 65
   257
176
     1
 75
     2
176
     1
175
     1
176
     1
 42
40.0
176
     1
 92
        0
176
     1
 66
   257
176
     1
 43
1.0
176
     1
 76
     1
176
     1
 77
     6
176
     1
 78
     2
176
     1
 67
     7
176
     1
 79
     3
176
     1
170
     0
176
     1
171
     0
176
     1
290
     0
176
     1
 93
        1
176
     1
 44
0.0
176
     1
173
     0
176
     1
  0
VISUALSTYLE
  5
30
102
{ACAD_REACTORS
330
2A
102
}
330
2A
100
AcDbVisualStyle
  2
3dWireframe
 70
     5
177
     2
291
     0
 71
     0
176
     1
 72
     2
176
     1
 73
     0
176
     1
 90
        0
176
     1
 40
-0.6
176
     1
 41
-30.0
176
     1
 62
     5
 63
     7
421
 16777215
176
     1
 74
     1
176
     1
 91
        4
176
     1
 64
     7
176
     1
 65
   257
176
     1
 75
     1
176
     1
175
     1
176
     1
 42
1.0
176
     1
 92
        0
176
     1
 66
   257
176
     1
 43
1.0
176
     1
 76
     1
176
     1
 77
     6
176
     1
 78
     2
176
     1
 67
     7
176
     1
 79
     5
176
     1
170
     0
176
     1
171
     0
176
     1
290
     0
176
     1
 93
        1
176
     1
 44
0.0
176
     1
173
     0
176
     1
  0
VISUALSTYLE
  5
32
102
{ACAD_REACTORS
330
2A
102
}
330
2A
100
AcDbVisualStyle
  2
Basic
 70
     7
177
     2
291
     1
 71
     1
176
     1
 72
     0
176
     1
 73
     1
176
     1
 90
        0
176
     1
 40
-0.6
176
     1
 41
-30.0
176
     1
 62
     5
 63
     7
421
 16777215
176
     1
 74
     0
176
     1
 91
        4
176
     1
 64
     7
176
     1
 65
   257
176
     1
 75
     1
176
     1
175
     1
176
     1
 42
1.0
176
     1
 92
        8
176
     1
 66
     7
176
     1
 43
1.0
176
     1
 76
     1
176
     1
 77
     6
176
     1
 78
     2
176
     1
 67
     7
176
     1
 79
     5
176
     1
170
     0
176
     1
171
     0
176
     1
290
     0
176
     1
 93
        1
176
     1
 44
0.0
176
     1
173
     0
176
     1
  0
VISUALSTYLE
  5
36
102
{ACAD_REACTORS
330
2A
102
}
330
2A
100
AcDbVisualStyle
  2
Brighten
 70
    12
177
     2
291
     1
 71
     2
176
     1
 72
     2
176
     1
 73
     0
176
     1
 90
        0
176
     1
 40
-0.6
176
     1
 41
-30.0
176
     1
 62
     5
 63
     7
421
 16777215
176
     1
 74
     1
176
     1
 91
        4
176
     1
 64
     7
176
     1
 65
   257
176
     1
 75
     1
176
     1
175
     1
176
     1
 42
1.0
176
     1
 92
        8
176
     1
 66
     7
176
     1
 43
1.0
176
     1
 76
     1
176
     1
 77
     6
176
     1
 78
     2
176
     1
 67
     7
176
     1
 79
     5
176
     1
170
     0
176
     1
171
     0
176
     1
290
     0
176
     1
 93
        1
176
     1
 44
50.0
176
     1
173
     0
176
     1
  0
VISUALSTYLE
  5
3A
102
{ACAD_REACTORS
330
2A
102
}
330
2A
100
AcDbVisualStyle
  2
ColorChange
 70
    16
177
     2
291
     1
 71
     2
176
     1
 72
     2
176
     1
 73
     3
176
     1
 90
        0
176
     1
 40
-0.6
176
     1
 41
-30.0
176
     1
 62
     5
 63
     8
421
  8421504
176
     1
 74
     1
176
     1
 91
        4
176
     1
 64
     7
176
     1
 65
   257
176
     1
 75
     1
176
     1
175
     1
176
     1
 42
1.0
176
     1
 92
        8
176
     1
 66
     8
424
  8421504
176
     1
 43
1.0
176
     1
 76
     1
176
     1
 77
     6
176
     1
 78
     2
176
     1
 67
     7
176
     1
 79
     5
176
     1
170
     0
176
     1
171
     0
176
     1
290
     0
176
     1
 93
        1
176
     1
 44
0.0
176
     1
173
     0
176
     1
  0
VISUALSTYLE
  5
34
102
{ACAD_REACTORS
330
2A
102
}
330
2A
100
AcDbVisualStyle
  2
Conceptual
 70
     9
177
     2
291
     0
 71
     3
176
     1
 72
     2
176
     1
 73
     0
176
     1
 90
        0
176
     1
 40
-0.6
176
     1
 41
-30.0
176
     1
 62
     5
 63
     7
421
 16777215
176
     1
 74
     2
176
     1
 91
        2
176
     1
 64
     7
176
     1
 65
   257
176
     1
 75
     1
176
     1
175
     1
176
     1
 42
40.0
176
     1
 92
        8
176
     1
 66
     7
176
     1
 43
1.0
176
     1
 76
     1
176
     1
 77
     6
176
     1
 78
     2
176
     1
 67
     7
176
     1
 79
     3
176
     1
170
     0
176
     1
171
     0
176
     1
290
     0
176
     1
 93
        1
176
     1
 44
0.0
176
     1
173
     0
176
     1
  0
VISUALSTYLE
  5
35
102
{ACAD_REACTORS
330
2A
102
}
330
2A
100
AcDbVisualStyle
  2
Dim
 70
    11
177
     2
291
     1
 71
     2
176
     1
 72
     2
176
     1
 73
     0
176
     1
 90
        0
176
     1
 40
-0.6
176
     1
 41
-30.0
176
     1
 62
     5
 63
     7
421
 16777215
176
     1
 74
     1
176
     1
 91
        4
176
     1
 64
     7
176
     1
 65
   257
176
     1
 75
     1
176
     1
175
     1
176
     1
 42
1.0
176
     1
 92
        8
176
     1
 66
     7
176
     1
 43
1.0
176
     1
 76
     1
176
     1
 77
     6
176
     1
 78
     2
176
     1
 67
     7
176
     1
 79
     5
176
     1
170
     0
176
     1
171
     0
176
     1
290
     0
176
     1
 93
        1
176
     1
 44
-50.0
176
     1
173
     0
176
     1
  0
VISUALSTYLE
  5
39
102
{ACAD_REACTORS
330
2A
102
}
330
2A
100
AcDbVisualStyle
  2
Facepattern
 70
    15
177
     2
291
     1
 71
     2
176
     1
 72
     2
176
     1
 73
     0
176
     1
 90
        0
176
     1
 40
-0.6
176
     1
 41
-30.0
176
     1
 62
     5
 63
     7
421
 16777215
176
     1
 74
     1
176
     1
 91
        4
176
     1
 64
     7
176
     1
 65
   257
176
     1
 75
     1
176
     1
175
     1
176
     1
 42
1.0
176
     1
 92
        8
176
     1
 66
     7
176
     1
 43
1.0
176
     1
 76
     1
176
     1
 77
     6
176
     1
 78
     2
176
     1
 67
     7
176
     1
 79
     5
176
     1
170
     0
176
     1
171
     0
176
     1
290
     0
176
     1
 93
        1
176
     1
 44
0.0
176
     1
173
     0
176
     1
  0
VISUALSTYLE
  5
2B
102
{ACAD_REACTORS
330
2A
102
}
330
2A
100
AcDbVisualStyle
  2
Flat
 70
     0
177
     2
291
     1
 71
     2
176
     1
 72
     1
176
     1
 73
     1
176
     1
 90
        2
176
     1
 40
-0.6
176
     1
 41
30.0
176
     1
 62
     5
 63
     7
421
 16777215
176
     1
 74
     0
176
     1
 91
        4
176
     1
 64
     7
176
     1
 65
   257
176
     1
 75
     1
176
     1
175
     1
176
     1
 42
1.0
176
     1
 92
        8
176
     1
 66
     7
176
     1
 43
1.0
176
     1
 76
     1
176
     1
 77
     6
176
     1
 78
     2
176
     1
 67
     7
176
     1
 79
     5
176
     1
170
     0
176
     1
171
     0
176
     1
290
     0
176
     1
 93
       13
176
     1
 44
0.0
176
     1
173
     0
176
     1
  0
VISUALSTYLE
  5
2C
102
{ACAD_REACTORS
330
2A
102
}
330
2A
100
AcDbVisualStyle
  2
FlatWithEdges
 70
     1
177
     2
291
     1
 71
     2
176
     1
 72
     1
176
     1
 73
     1
176
     1
 90
        2
176
     1
 40
-0.6
176
     1
 41
30.0
176
     1
 62
     5
 63
     7
421
 16777215
176
     1
 74
     1
176
     1
 91
        4
176
     1
 64
     7
176
     1
 65
   257
176
     1
 75
     1
176
     1
175
     1
176
     1
 42
1.0
176
     1
 92
        0
176
     1
 66
   257
176
     1
 43
1.0
176
     1
 76
     1
176
     1
 77
     6
176
     1
 78
     2
176
     1
 67
     7
176
     1
 79
     5
176
     1
170
     0
176
     1
171
     0
176
     1
290
     0
176
     1
 93
       13
176
     1
 44
0.0
176
     1
173
     0
176
     1
  0
VISUALSTYLE
  5
2D
102
{ACAD_REACTORS
330
2A
102
}
330
2A
100
AcDbVisualStyle
  2
Gouraud
 70
     2
177
     2
291
     1
 71
     2
176
     1
 72
     2
176
     1
 73
     1
176
     1
 90
        2
176
     1
 40
-0.6
176
     1
 41
30.0
176
     1
 62
     5
 63
     7
421
 16777215
176
     1
 74
     0
176
     1
 91
        4
176
     1
 64
     7
176
     1
 65
   257
176
     1
 75
     1
176
     1
175
     1
176
     1
 42
1.0
176
     1
 92
        0
176
     1
 66
     7
176
     1
 43
1.0
176
     1
 76
     1
176
     1
 77
     6
176
     1
 78
     2
176
     1
 67
     7
176
     1
 79
     5
176
     1
170
     0
176
     1
171
     0
176
     1
290
     0
176
     1
 93
       13
176
     1
 44
0.0
176
     1
173
     0
176
     1
  0
VISUALSTYLE
  5
2E
102
{ACAD_REACTORS
330
2A
102
}
330
2A
100
AcDbVisualStyle
  2
GouraudWithEdges
 70
     3
177
     2
291
     1
 71
     2
176
     1
 72
     2
176
     1
 73
     1
176
     1
 90
        2
176
     1
 40
-0.6
176
     1
 41
30.0
176
     1
 62
     5
 63
     7
421
 16777215
176
     1
 74
     1
176
     1
 91
        4
176
     1
 64
     7
176
     1
 65
   257
176
     1
 75
     1
176
     1
175
     1
176
     1
 42
1.0
176
     1
 92
        0
176
     1
 66
   257
176
     1
 43
1.0
176
     1
 76
     1
176
     1
 77
     6
176
     1
 78
     2
176
     1
 67
     7
176
     1
 79
     5
176
     1
170
     0
176
     1
171
     0
176
     1
290
     0
176
     1
 93
       13
176
     1
 44
0.0
176
     1
173
     0
176
     1
  0
VISUALSTYLE
  5
38
102
{ACAD_REACTORS
330
2A
102
}
330
2A
100
AcDbVisualStyle
  2
Linepattern
 70
    14
177
     2
291
     1
 71
     2
176
     1
 72
     2
176
     1
 73
     0
176
     1
 90
        0
176
     1
 40
-0.6
176
     1
 41
-30.0
176
     1
 62
     5
 63
     7
421
 16777215
176
     1
 74
     1
176
     1
 91
        4
176
     1
 64
     7
176
     1
 65
   257
176
     1
 75
     7
176
     1
175
     7
176
     1
 42
1.0
176
     1
 92
        8
176
     1
 66
     7
176
     1
 43
1.0
176
     1
 76
     1
176
     1
 77
     6
176
     1
 78
     2
176
     1
 67
     7
176
     1
 79
     5
176
     1
170
     0
176
     1
171
     0
176
     1
290
     0
176
     1
 93
        1
176
     1
 44
0.0
176
     1
173
     0
176
     1
  0
VISUALSTYLE
  5
33
102
{ACAD_REACTORS
330
2A
102
}
330
2A
100
AcDbVisualStyle
  2
Realistic
 70
     8
177
     2
291
     0
 71
     2
176
     1
 72
     2
176
     1
 73
     0
176
     1
 90
        0
176
     1
 40
-0.6
176
     1
 41
-30.0
176
     1
 62
     5
 63
     7
421
 16777215
176
     1
 74
     1
176
     1
 91
        0
176
     1
 64
     7
176
     1
 65
   257
176
     1
 75
     1
176
     1
175
     1
176
     1
 42
1.0
176
     1
 92
        8
176
     1
 66
     8
424
  7895160
176
     1
 43
1.0
176
     1
 76
     1
176
     1
 77
     6
176
     1
 78
     2
176
     1
 67
     7
176
     1
 79
     5
176
     1
170
     0
176
     1
171
     0
176
     1
290
     0
176
     1
 93
       13
176
     1
 44
0.0
176
     1
173
     0
176
     1
  0
VISUALSTYLE
  5
37
102
{ACAD_REACTORS
330
2A
102
}
330
2A
100
AcDbVisualStyle
  2
Thicken
 70
    13
177
     2
291
     1
 71
     2
176
     1
 72
     2
176
     1
 73
     0
176
     1
 90
        0
176
     1
 40
-0.6
176
     1
 41
-30.0
176
     1
 62
     5
 63
     7
421
 16777215
176
     1
 74
     1
176
     1
 91
        4
176
     1
 64
     7
176
     1
 65
   257
176
     1
 75
     1
176
     1
175
     1
176
     1
 42
1.0
176
     1
 92
       12
176
     1
 66
     7
176
     1
 43
1.0
176
     1
 76
     1
176
     1
 77
     6
176
     1
 78
     2
176
     1
 67
     7
176
     1
 79
     5
176
     1
170
     0
176
     1
171
     0
176
     1
290
     0
176
     1
 93
        1
176
     1
 44
0.0
176
     1
173
     0
176
     1
  0
ENDSEC
  0
EOF
