  0
SECTION
  2
HEADER
  9
$ACADVER
  1
AC1024
  9
$ACADMAINTVER
 70
     6
  9
$DWGCODEPAGE
  3
UNDEFINED
  9
$INSBASE
 10
0.0
 20
0.0
 30
0.0
  9
$EXTMIN
 10
1.000000000000000E+20
 20
1.000000000000000E+20
 30
1.000000000000000E+20
  9
$EXTMAX
 10
-1.000000000000000E+20
 20
-1.000000000000000E+20
 30
-1.000000000000000E+20
  9
$LIMMIN
 10
0.0
 20
0.0
  9
$LIMMAX
 10
12.0
 20
9.0
  9
$ORTHOMODE
 70
     0
  9
$REGENMODE
 70
     1
  9
$FILLMODE
 70
     1
  9
$QTEXTMODE
 70
     0
  9
$MIRRTEXT
 70
     1
  9
$LTSCALE
 40
1.0
  9
$ATTMODE
 70
     1
  9
$TEXTSIZE
 40
0.2
  9
$TRACEWID
 40
0.05
  9
$TEXTSTYLE
  7
Standard
  9
$CLAYER
  8
0
  9
$CELTYPE
  6
ByLayer
  9
$CECOLOR
 62
   256
  9
$CELTSCALE
 40
1.0
  9
$DISPSILH
 70
     0
  9
$DIMSCALE
 40
1.0
  9
$DIMASZ
 40
0.18
  9
$DIMEXO
 40
0.0625
  9
$DIMDLI
 40
0.38
  9
$DIMRND
 40
0.0
  9
$DIMDLE
 40
0.0
  9
$DIMEXE
 40
0.18
  9
$DIMTP
 40
0.0
  9
$DIMTM
 40
0.0
  9
$DIMTXT
 40
0.18
  9
$DIMCEN
 40
0.09
  9
$DIMTSZ
 40
0.0
  9
$DIMTOL
 70
     0
  9
$DIMLIM
 70
     0
  9
$DIMTIH
 70
     1
  9
$DIMTOH
 70
     1
  9
$DIMSE1
 70
     0
  9
$DIMSE2
 70
     0
  9
$DIMTAD
 70
     0
  9
$DIMZIN
 70
     0
  9
$DIMBLK
  1

  9
$DIMASO
 70
     1
  9
$DIMSHO
 70
     1
  9
$DIMPOST
  1

  9
$DIMAPOST
  1

  9
$DIMALT
 70
     0
  9
$DIMALTD
 70
     2
  9
$DIMALTF
 40
25.4
  9
$DIMLFAC
 40
1.0
  9
$DIMTOFL
 70
     0
  9
$DIMTVP
 40
0.0
  9
$DIMTIX
 70
     0
  9
$DIMSOXD
 70
     0
  9
$DIMSAH
 70
     0
  9
$DIMBLK1
  1

  9
$DIMBLK2
  1

  9
$DIMSTYLE
  2
Standard
  9
$DIMCLRD
 70
     0
  9
$DIMCLRE
 70
     0
  9
$DIMCLRT
 70
     0
  9
$DIMTFAC
 40
1.0
  9
$DIMGAP
 40
0.09
  9
$DIMJUST
 70
     0
  9
$DIMSD1
 70
     0
  9
$DIMSD2
 70
     0
  9
$DIMTOLJ
 70
     1
  9
$DIMTZIN
 70
     0
  9
$DIMALTZ
 70
     0
  9
$DIMALTTZ
 70
     0
  9
$DIMUPT
 70
     0
  9
$DIMDEC
 70
     4
  9
$DIMTDEC
 70
     4
  9
$DIMALTU
 70
     2
  9
$DIMALTTD
 70
     2
  9
$DIMTXSTY
  7
Standard
  9
$DIMAUNIT
 70
     0
  9
$DIMADEC
 70
     0
  9
$DIMALTRND
 40
0.0
  9
$DIMAZIN
 70
     0
  9
$DIMDSEP
 70
    46
  9
$DIMATFIT
 70
     3
  9
$DIMFRAC
 70
     0
  9
$DIMLDRBLK
  1

  9
$DIMLUNIT
 70
     2
  9
$DIMLWD
 70
    -2
  9
$DIMLWE
 70
    -2
  9
$DIMTMOVE
 70
     0
  9
$DIMFXL
 40
1.0
  9
$DIMFXLON
 70
     0
  9
$DIMJOGANG
 40
0.7853981633974483
  9
$DIMTFILL
 70
     0
  9
$DIMTFILLCLR
 70
     0
  9
$DIMARCSYM
 70
     0
  9
$DIMLTYPE
  6

  9
$DIMLTEX1
  6

  9
$DIMLTEX2
  6

  9
$DIMTXTDIRECTION
 70
     0
  9
$LUNITS
 70
     2
  9
$LUPREC
 70
     4
  9
$SKETCHINC
 40
0.1
  9
$FILLETRAD
 40
0.5
  9
$AUNITS
 70
     0
  9
$AUPREC
 70
     0
  9
$MENU
  1
.
  9
$ELEVATION
 40
0.0
  9
$PELEVATION
 40
0.0
  9
$THICKNESS
 40
0.0
  9
$LIMCHECK
 70
     0
  9
$CHAMFERA
 40
0.5
  9
$CHAMFERB
 40
0.5
  9
$CHAMFERC
 40
1.0
  9
$CHAMFERD
 40
0.0
  9
$SKPOLY
 70
     0
  9
$TDCREATE
 40
2457917.625451377
  9
$TDUCREATE
 40
2457917.250451389
  9
$TDUPDATE
 40
2457917.625451377
  9
$TDUUPDATE
 40
2457917.250451389
  9
$TDINDWG
 40
0.0000000116
  9
$TDUSRTIMER
 40
0.0000000116
  9
$USRTIMER
 70
     1
  9
$ANGBASE
 50
0.0
  9
$ANGDIR
 70
     0
  9
$PDMODE
 70
     0
  9
$PDSIZE
 40
0.0
  9
$PLINEWID
 40
0.0
  9
$SPLFRAME
 70
     0
  9
$SPLINETYPE
 70
     6
  9
$SPLINESEGS
 70
     8
  9
$HANDSEED
  5
C5
  9
$SURFTAB1
 70
     6
  9
$SURFTAB2
 70
     6
  9
$SURFTYPE
 70
     6
  9
$SURFU
 70
     6
  9
$SURFV
 70
     6
  9
$UCSBASE
  2

  9
$UCSNAME
  2

  9
$UCSORG
 10
0.0
 20
0.0
 30
0.0
  9
$UCSXDIR
 10
1.0
 20
0.0
 30
0.0
  9
$UCSYDIR
 10
0.0
 20
1.0
 30
0.0
  9
$UCSORTHOREF
  2

  9
$UCSORTHOVIEW
 70
     0
  9
$UCSORGTOP
 10
0.0
 20
0.0
 30
0.0
  9
$UCSORGBOTTOM
 10
0.0
 20
0.0
 30
0.0
  9
$UCSORGLEFT
 10
0.0
 20
0.0
 30
0.0
  9
$UCSORGRIGHT
 10
0.0
 20
0.0
 30
0.0
  9
$UCSORGFRONT
 10
0.0
 20
0.0
 30
0.0
  9
$UCSORGBACK
 10
0.0
 20
0.0
 30
0.0
  9
$PUCSBASE
  2

  9
$PUCSNAME
  2

  9
$PUCSORG
 10
0.0
 20
0.0
 30
0.0
  9
$PUCSXDIR
 10
1.0
 20
0.0
 30
0.0
  9
$PUCSYDIR
 10
0.0
 20
1.0
 30
0.0
  9
$PUCSORTHOREF
  2

  9
$PUCSORTHOVIEW
 70
     0
  9
$PUCSORGTOP
 10
0.0
 20
0.0
 30
0.0
  9
$PUCSORGBOTTOM
 10
0.0
 20
0.0
 30
0.0
  9
$PUCSORGLEFT
 10
0.0
 20
0.0
 30
0.0
  9
$PUCSORGRIGHT
 10
0.0
 20
0.0
 30
0.0
  9
$PUCSORGFRONT
 10
0.0
 20
0.0
 30
0.0
  9
$PUCSORGBACK
 10
0.0
 20
0.0
 30
0.0
  9
$USERI1
 70
     0
  9
$USERI2
 70
     0
  9
$USERI3
 70
     0
  9
$USERI4
 70
     0
  9
$USERI5
 70
     0
  9
$USERR1
 40
0.0
  9
$USERR2
 40
0.0
  9
$USERR3
 40
0.0
  9
$USERR4
 40
0.0
  9
$USERR5
 40
0.0
  9
$WORLDVIEW
 70
     1
  9
$SHADEDGE
 70
     3
  9
$SHADEDIF
 70
    70
  9
$TILEMODE
 70
     1
  9
$MAXACTVP
 70
    64
  9
$PINSBASE
 10
0.0
 20
0.0
 30
0.0
  9
$PLIMCHECK
 70
     0
  9
$PEXTMIN
 10
1.000000000000000E+20
 20
1.000000000000000E+20
 30
1.000000000000000E+20
  9
$PEXTMAX
 10
-1.000000000000000E+20
 20
-1.000000000000000E+20
 30
-1.000000000000000E+20
  9
$PLIMMIN
 10
0.0
 20
0.0
  9
$PLIMMAX
 10
12.0
 20
9.0
  9
$UNITMODE
 70
     0
  9
$VISRETAIN
 70
     1
  9
$PLINEGEN
 70
     0
  9
$PSLTSCALE
 70
     1
  9
$TREEDEPTH
 70
  3020
  9
$CMLSTYLE
  2
Standard
  9
$CMLJUST
 70
     0
  9
$CMLSCALE
 40
1.0
  9
$PROXYGRAPHICS
 70
     1
  9
$MEASUREMENT
 70
     0
  9
$CELWEIGHT
370
    -1
  9
$ENDCAPS
280
     0
  9
$JOINSTYLE
280
     0
  9
$LWDISPLAY
290
     1
  9
$INSUNITS
 70
     1
  9
$HYPERLINKBASE
  1

  9
$STYLESHEET
  1

  9
$XEDIT
290
     1
  9
$CEPSNTYPE
380
     0
  9
$PSTYLEMODE
290
     1
  9
$FINGERPRINTGUID
  2
{77111822-6DF9-9D9F-C17A-E5A4296D4D07}
  9
$VERSIONGUID
  2
{FAEB1C32-E019-11D5-929B-00C0DF256EC4}
  9
$EXTNAMES
290
     1
  9
$PSVPSCALE
 40
0.0
  9
$OLESTARTUP
290
     0
  9
$SORTENTS
280
   127
  9
$INDEXCTL
280
     0
  9
$HIDETEXT
280
     1
  9
$XCLIPFRAME
280
     2
  9
$HALOGAP
280
     0
  9
$OBSCOLOR
 70
   257
  9
$OBSLTYPE
280
     0
  9
$INTERSECTIONDISPLAY
280
     0
  9
$INTERSECTIONCOLOR
 70
   257
  9
$DIMASSOC
280
     2
  9
$PROJECTNAME
  1

  9
$CAMERADISPLAY
290
     0
  9
$LENSLENGTH
 40
50.0
  9
$CAMERAHEIGHT
 40
0.0
  9
$STEPSPERSEC
 40
2.0
  9
$STEPSIZE
 40
6.0
  9
$3DDWFPREC
 40
2.0
  9
$PSOLWIDTH
 40
0.25
  9
$PSOLHEIGHT
 40
4.0
  9
$LOFTANG1
 40
1.570796326794897
  9
$LOFTANG2
 40
1.570796326794897
  9
$LOFTMAG1
 40
0.0
  9
$LOFTMAG2
 40
0.0
  9
$LOFTPARAM
 70
     7
  9
$LOFTNORMALS
280
     1
  9
$LATITUDE
 40
37.795
  9
$LONGITUDE
 40
-122.394
  9
$NORTHDIRECTION
 40
0.0
  9
$TIMEZONE
 70
 -8000
  9
$LIGHTGLYPHDISPLAY
280
     1
  9
$TILEMODELIGHTSYNCH
280
     1
  9
$CMATERIAL
347
3C
  9
$SOLIDHIST
280
     1
  9
$SHOWHIST
280
     1
  9
$DWFFRAME
280
     2
  9
$DGNFRAME
280
     2
  9
$REALWORLDSCALE
290
     1
  9
$INTERFERECOLOR
 62
   256
  9
$CSHADOW
280
     0
  9
$SHADOWPLANELOCATION
 40
0.0
  0
ENDSEC
  0
SECTION
  2
CLASSES
  0
CLASS
  1
ACDBDICTIONARYWDFLT
  2
AcDbDictionaryWithDefault
  3
ObjectDBX Classes
 90
        0
 91
        4
280
     0
281
     0
  0
CLASS
  1
VISUALSTYLE
  2
AcDbVisualStyle
  3
ObjectDBX Classes
 90
     4095
 91
        4
280
     0
281
     0
  0
CLASS
  1
MATERIAL
  2
AcDbMaterial
  3
ObjectDBX Classes
 90
     1153
 91
        4
280
     0
281
     0
  0
CLASS
  1
SUN
  2
AcDbSun
  3
SCENEOE
 90
     1024
 91
        4
280
     0
281
     0
  0
ENDSEC
  0
SECTION
  2
TABLES
  0
TABLE
  2
VPORT
  5
8
330
0
100
AcDbSymbolTable
 70
     1
  0
VPORT
  5
29
330
8
100
AcDbSymbolTableRecord
100
AcDbViewportTableRecord
  2
*Active
 70
     0
 10
0.0
 20
0.0
 11
1.0
 21
1.0
 12
0.0
 22
0.0
 13
0.0
 23
0.0
 14
0.5
 24
0.5
 15
0.5
 25
0.5
 16
0.0
 26
0.0
 36
1.0
 17
91.00082462281999
 27
-128.4993055234307
 37
0.0
 40
256.9986110468615
 41
0.7081814508812795
 42
50.0
 43
0.0
 44
0.0
 50
0.0
 51
0.0
 71
     0
 72
   100
 73
     1
 74
     3
 75
     0
 76
     0
 77
     0
 78
     0
281
     0
 65
     1
110
0.0
120
0.0
130
0.0
111
1.0
121
0.0
131
0.0
112
0.0
122
1.0
132
0.0
 79
     0
146
0.0
 60
     3
 61
     5
292
     1
282
     1
141
0.0
142
0.0
 63
   250
361
3F
  0
ENDTAB
  0
TABLE
  2
LTYPE
  5
5
330
0
100
AcDbSymbolTable
 70
     1
  0
LTYPE
  5
14
330
5
100
AcDbSymbolTableRecord
100
AcDbLinetypeTableRecord
  2
ByBlock
 70
     0
  3

 72
    65
 73
     0
 40
0.0
  0
LTYPE
  5
15
330
5
100
AcDbSymbolTableRecord
100
AcDbLinetypeTableRecord
  2
ByLayer
 70
     0
  3

 72
    65
 73
     0
 40
0.0
  0
LTYPE
  5
16
330
5
100
AcDbSymbolTableRecord
100
AcDbLinetypeTableRecord
  2
Continuous
 70
     0
  3
Solid line
 72
    65
 73
     0
 40
0.0
  0
ENDTAB
  0
TABLE
  2
LAYER
  5
2
330
0
100
AcDbSymbolTable
 70
     2
  0
LAYER
  5
10
330
2
100
AcDbSymbolTableRecord
100
AcDbLayerTableRecord
  2
0
 70
     0
 62
     7
  6
Continuous
370
    -3
390
F
347
3E
  0
LAYER
  5
40
330
2
100
AcDbSymbolTableRecord
100
AcDbLayerTableRecord
  2
_U+30EC_U+30A4_U+30E4_U+30FC 1
 70
     0
 62
     7
  6
Continuous
370
    -3
390
F
347
3E
  0
ENDTAB
  0
TABLE
  2
STYLE
  5
3
330
0
100
AcDbSymbolTable
 70
     1
  0
STYLE
  5
11
330
3
100
AcDbSymbolTableRecord
100
AcDbTextStyleTableRecord
  2
Standard
 70
     0
 40
0.0
 41
1.0
 50
0.0
 71
     0
 42
0.2
  3
txt
  4

  0
ENDTAB
  0
TABLE
  2
VIEW
  5
6
330
0
100
AcDbSymbolTable
 70
     0
  0
ENDTAB
  0
TABLE
  2
UCS
  5
7
330
0
100
AcDbSymbolTable
 70
     0
  0
ENDTAB
  0
TABLE
  2
APPID
  5
9
330
0
100
AcDbSymbolTable
 70
     1
  0
APPID
  5
12
330
9
100
AcDbSymbolTableRecord
100
AcDbRegAppTableRecord
  2
ACAD
 70
     0
  0
ENDTAB
  0
TABLE
  2
DIMSTYLE
  5
A
330
0
100
AcDbSymbolTable
 70
     1
100
AcDbDimStyleTable
  0
DIMSTYLE
105
27
330
A
100
AcDbSymbolTableRecord
100
AcDbDimStyleTableRecord
  2
Standard
 70
     0
178
     0
340
11
  0
ENDTAB
  0
TABLE
  2
BLOCK_RECORD
  5
1
330
0
100
AcDbSymbolTable
 70
     5
  0
BLOCK_RECORD
  5
1F
330
1
100
AcDbSymbolTableRecord
100
AcDbBlockTableRecord
  2
*Model_Space
340
22
 70
     0
280
     1
281
     0
  0
BLOCK_RECORD
  5
1B
330
1
100
AcDbSymbolTableRecord
100
AcDbBlockTableRecord
  2
*Paper_Space
340
1E
 70
     0
280
     1
281
     0
  0
BLOCK_RECORD
  5
23
330
1
100
AcDbSymbolTableRecord
100
AcDbBlockTableRecord
  2
*Paper_Space0
340
26
 70
     0
280
     1
281
     0
  0
BLOCK_RECORD
  5
68
330
1
100
AcDbSymbolTableRecord
100
AcDbBlockTableRecord
  2
block 2
340
0
102
{BLKREFS
331
69
102
}
 70
     0
280
     1
281
     0
  0
BLOCK_RECORD
  5
71
330
1
100
AcDbSymbolTableRecord
100
AcDbBlockTableRecord
  2
block 3
340
0
102
{BLKREFS
331
72
102
}
 70
     0
280
     1
281
     0
  0
BLOCK_RECORD
  5
7A
330
1
100
AcDbSymbolTableRecord
100
AcDbBlockTableRecord
  2
block 4
340
0
102
{BLKREFS
331
7B
102
}
 70
     0
280
     1
281
     0
  0
BLOCK_RECORD
  5
83
330
1
100
AcDbSymbolTableRecord
100
AcDbBlockTableRecord
  2
block 5
340
0
102
{BLKREFS
331
84
102
}
 70
     0
280
     1
281
     0
  0
ENDTAB
  0
ENDSEC
  0
SECTION
  2
BLOCKS
  0
BLOCK
  5
20
330
1F
100
AcDbEntity
  8
0
100
AcDbBlockBegin
  2
*Model_Space
 70
     0
 10
0.0
 20
0.0
 30
0.0
  3
*Model_Space
  1

  0
ENDBLK
  5
21
330
1F
100
AcDbEntity
  8
0
100
AcDbBlockEnd
  0
BLOCK
  5
1C
330
1B
100
AcDbEntity
 67
     1
  8
0
100
AcDbBlockBegin
  2
*Paper_Space
 70
     0
 10
0.0
 20
0.0
 30
0.0
  3
*Paper_Space
  1

  0
ENDBLK
  5
1D
330
1B
100
AcDbEntity
 67
     1
  8
0
100
AcDbBlockEnd
  0
BLOCK
  5
24
330
23
100
AcDbEntity
  8
0
100
AcDbBlockBegin
  2
*Paper_Space0
 70
     0
 10
0.0
 20
0.0
 30
0.0
  3
*Paper_Space0
  1

  0
ENDBLK
  5
25
330
23
100
AcDbEntity
  8
0
100
AcDbBlockEnd
  0
BLOCK
  5
6A
330
68
100
AcDbEntity
  8
0
100
AcDbBlockBegin
  2
block 2
 70
     0
 10
0.0
 20
0.0
 30
0.0
  3
block 2
  1

  0
SPLINE
  5
6C
330
68
100
AcDbEntity
  8
_U+30EC_U+30A4_U+30E4_U+30FC 1
370
     0
100
AcDbSpline
210
0.0
220
0.0
230
1.0
 70
    11
 71
     3
 72
    44
 73
    40
 74
     0
 42
0.0000000001
 43
0.0000000001
 12
1.0
 22
0.0
 32
0.0
 13
1.0
 23
0.0
 33
0.0
 40
0.0
 40
0.0
 40
0.0
 40
0.0
 40
1.0
 40
1.0
 40
1.0
 40
2.0
 40
2.0
 40
2.0
 40
3.0
 40
3.0
 40
3.0
 40
4.0
 40
4.0
 40
4.0
 40
5.0
 40
5.0
 40
5.0
 40
6.0
 40
6.0
 40
6.0
 40
7.0
 40
7.0
 40
7.0
 40
8.0
 40
8.0
 40
8.0
 40
9.0
 40
9.0
 40
9.0
 40
10.0
 40
10.0
 40
10.0
 40
11.0
 40
11.0
 40
11.0
 40
12.0
 40
12.0
 40
12.0
 40
13.0
 40
13.0
 40
13.0
 40
13.0
 10
91.24042559567948
 20
-107.5793076987996
 30
0.0
 10
91.0075371408766
 20
-107.7379543458954
 30
0.0
 10
90.90797388135287
 20
-107.8120238988282
 30
0.0
 10
90.8559529395256
 20
-107.9558566353374
 30
0.0
 10
90.8559529395256
 20
-107.9558566353374
 30
0.0
 10
91.68846026353623
 20
-107.9558566353374
 30
0.0
 10
91.68846026353623
 20
-107.9558566353374
 30
0.0
 10
91.68846026353623
 20
-107.9558566353374
 30
0.0
 10
91.68846026353623
 20
-108.1610120714841
 30
0.0
 10
91.68846026353623
 20
-108.1610120714841
 30
0.0
 10
91.68846026353623
 20
-108.1610120714841
 30
0.0
 10
90.58930254896727
 20
-108.1610120714841
 30
0.0
 10
90.58930254896727
 20
-108.1610120714841
 30
0.0
 10
90.62340899427123
 20
-107.8034111601151
 30
0.0
 10
90.69334443262181
 20
-107.7252074925999
 30
0.0
 10
91.10468883356064
 20
-107.4268622235773
 30
0.0
 10
91.37840166986373
 20
-107.2280802140784
 30
0.0
 10
91.44868161776283
 20
-107.1603840877932
 30
0.0
 10
91.44868161776283
 20
-107.0229247779318
 30
0.0
 10
91.44868161776283
 20
-106.9044134932392
 30
0.0
 10
91.37185598844177
 20
-106.7733276100254
 30
0.0
 10
91.16118839951874
 20
-106.7733276100254
 30
0.0
 10
90.88316919385908
 20
-106.7733276100254
 30
0.0
 10
90.87421194559742
 20
-107.0038044979886
 30
0.0
 10
90.8697333214666
 20
-107.1202487253901
 30
0.0
 10
90.8697333214666
 20
-107.1202487253901
 30
0.0
 10
90.62995467569321
 20
-107.1202487253901
 30
0.0
 10
90.62995467569321
 20
-107.1202487253901
 30
0.0
 10
90.63891192395486
 20
-106.9932969567586
 30
0.0
 10
90.65028073905619
 20
-106.8811590987137
 30
0.0
 10
90.73640812618743
 20
-106.7626478140212
 30
0.0
 10
90.85388588223445
 20
-106.6019341096342
 30
0.0
 10
91.05266789173336
 20
-106.5679999191045
 30
0.0
 10
91.17703583875088
 20
-106.5679999191045
 30
0.0
 10
91.47348630525663
 20
-106.5679999191045
 30
0.0
 10
91.6950059449582
 20
-106.7521402727911
 30
0.0
 10
91.6950059449582
 20
-107.0249918352229
 30
0.0
 10
91.6950059449582
 20
-107.253401665895
 30
0.0
 10
91.57063799794068
 20
-107.3529649254187
 30
0.0
 10
91.24042559567948
 20
-107.5793076987996
 30
0.0
  0
HATCH
  5
6D
330
68
100
AcDbEntity
  8
_U+30EC_U+30A4_U+30E4_U+30FC 1
 62
   179
420
  2234388
100
AcDbHatch
 10
0.0
 20
0.0
 30
0.0
210
0.0
220
0.0
230
1.0
  2
SOLID
 70
     1
 71
     0
 91
        1
 92
        1
 93
        1
 72
     4
 94
        3
 73
     0
 74
     1
 95
       44
 96
       40
 40
0.0
 40
0.0
 40
0.0
 40
0.0
 40
1.0
 40
1.0
 40
1.0
 40
2.0
 40
2.0
 40
2.0
 40
3.0
 40
3.0
 40
3.0
 40
4.0
 40
4.0
 40
4.0
 40
5.0
 40
5.0
 40
5.0
 40
6.0
 40
6.0
 40
6.0
 40
7.0
 40
7.0
 40
7.0
 40
8.0
 40
8.0
 40
8.0
 40
9.0
 40
9.0
 40
9.0
 40
10.0
 40
10.0
 40
10.0
 40
11.0
 40
11.0
 40
11.0
 40
12.0
 40
12.0
 40
12.0
 40
13.0
 40
13.0
 40
13.0
 40
13.0
 10
91.24042559567948
 20
-107.5793076987996
 10
91.0075371408766
 20
-107.7379543458954
 10
90.90797388135287
 20
-107.8120238988282
 10
90.8559529395256
 20
-107.9558566353374
 10
90.8559529395256
 20
-107.9558566353374
 10
91.68846026353623
 20
-107.9558566353374
 10
91.68846026353623
 20
-107.9558566353374
 10
91.68846026353623
 20
-107.9558566353374
 10
91.68846026353623
 20
-108.1610120714841
 10
91.68846026353623
 20
-108.1610120714841
 10
91.68846026353623
 20
-108.1610120714841
 10
90.58930254896727
 20
-108.1610120714841
 10
90.58930254896727
 20
-108.1610120714841
 10
90.62340899427123
 20
-107.8034111601151
 10
90.69334443262181
 20
-107.7252074925999
 10
91.10468883356064
 20
-107.4268622235773
 10
91.37840166986373
 20
-107.2280802140784
 10
91.44868161776283
 20
-107.1603840877932
 10
91.44868161776283
 20
-107.0229247779318
 10
91.44868161776283
 20
-106.9044134932392
 10
91.37185598844177
 20
-106.7733276100254
 10
91.16118839951874
 20
-106.7733276100254
 10
90.88316919385908
 20
-106.7733276100254
 10
90.87421194559742
 20
-107.0038044979886
 10
90.8697333214666
 20
-107.1202487253901
 10
90.8697333214666
 20
-107.1202487253901
 10
90.62995467569321
 20
-107.1202487253901
 10
90.62995467569321
 20
-107.1202487253901
 10
90.63891192395486
 20
-106.9932969567586
 10
90.65028073905619
 20
-106.8811590987137
 10
90.73640812618743
 20
-106.7626478140212
 10
90.85388588223445
 20
-106.6019341096342
 10
91.05266789173336
 20
-106.5679999191045
 10
91.17703583875088
 20
-106.5679999191045
 10
91.47348630525663
 20
-106.5679999191045
 10
91.6950059449582
 20
-106.7521402727911
 10
91.6950059449582
 20
-107.0249918352229
 10
91.6950059449582
 20
-107.253401665895
 10
91.57063799794068
 20
-107.3529649254187
 10
91.24042559567948
 20
-107.5793076987996
 97
        0
 97
        0
 75
     2
 76
     1
 98
        0
  0
SPLINE
  5
6E
330
68
100
AcDbEntity
  8
_U+30EC_U+30A4_U+30E4_U+30FC 1
370
     0
100
AcDbSpline
210
0.0
220
0.0
230
1.0
 70
    11
 71
     3
 72
    29
 73
    25
 74
     0
 42
0.0000000001
 43
0.0000000001
 12
1.0
 22
0.0
 32
0.0
 13
1.0
 23
0.0
 33
0.0
 40
0.0
 40
0.0
 40
0.0
 40
0.0
 40
1.0
 40
1.0
 40
1.0
 40
2.0
 40
2.0
 40
2.0
 40
3.0
 40
3.0
 40
3.0
 40
4.0
 40
4.0
 40
4.0
 40
5.0
 40
5.0
 40
5.0
 40
6.0
 40
6.0
 40
6.0
 40
7.0
 40
7.0
 40
7.0
 40
8.0
 40
8.0
 40
8.0
 40
8.0
 10
92.82396373547456
 20
-107.9832451444452
 30
0.0
 10
92.7085530367187
 20
-108.1927069499484
 30
0.0
 10
92.52320689961226
 20
-108.2118272298915
 30
0.0
 10
92.39883895259474
 20
-108.2118272298915
 30
0.0
 10
92.2272731974293
 20
-108.2118272298915
 30
0.0
 10
92.0756889960783
 20
-108.1653184408406
 30
0.0
 10
91.97405867926344
 20
-107.9832451444452
 30
0.0
 10
91.8631266046384
 20
-107.7885972495286
 30
0.0
 10
91.84280054127541
 20
-107.5517469349176
 30
0.0
 10
91.84280054127541
 20
-107.3887939184653
 30
0.0
 10
91.84280054127541
 20
-107.2449611819561
 30
0.0
 10
91.86071503779871
 20
-106.9932969567586
 30
0.0
 10
91.97405867926344
 20
-106.7943426924854
 30
0.0
 10
92.08912486847078
 20
-106.59125431363
 30
0.0
 10
92.26103513318475
 20
-106.5679999191045
 30
0.0
 10
92.39883895259474
 20
-106.5679999191045
 30
0.0
 10
92.56868216001756
 20
-106.5679999191045
 30
0.0
 10
92.7223334186597
 20
-106.6124416508643
 30
0.0
 10
92.82396373547456
 20
-106.7943426924854
 30
0.0
 10
92.93041718596879
 20
-106.9869235301109
 30
0.0
 10
92.95522187346259
 20
-107.215333360783
 30
0.0
 10
92.95522187346259
 20
-107.3887939184653
 30
0.0
 10
92.95522187346259
 20
-107.5601874188565
 30
0.0
 10
92.93248424325994
 20
-107.790836561594
 30
0.0
 10
92.82396373547456
 20
-107.9832451444452
 30
0.0
  0
SPLINE
  5
6F
330
68
100
AcDbEntity
  8
_U+30EC_U+30A4_U+30E4_U+30FC 1
370
     0
100
AcDbSpline
210
0.0
220
0.0
230
1.0
 70
    11
 71
     3
 72
    17
 73
    13
 74
     0
 42
0.0000000001
 43
0.0000000001
 12
1.0
 22
0.0
 32
0.0
 13
1.0
 23
0.0
 33
0.0
 40
0.0
 40
0.0
 40
0.0
 40
0.0
 40
1.0
 40
1.0
 40
1.0
 40
2.0
 40
2.0
 40
2.0
 40
3.0
 40
3.0
 40
3.0
 40
4.0
 40
4.0
 40
4.0
 40
4.0
 10
92.39883895259474
 20
-106.76058075673
 30
0.0
 10
92.1321885620364
 20
-106.76058075673
 30
0.0
 10
92.08257918704881
 20
-107.0441121151661
 30
0.0
 10
92.08257918704881
 20
-107.3887939184653
 30
0.0
 10
92.08257918704881
 20
-107.7083265247222
 30
0.0
 10
92.12081974693508
 20
-108.0171793349749
 30
0.0
 10
92.39883895259474
 20
-108.0171793349749
 30
0.0
 10
92.66342228586193
 20
-108.0171793349749
 30
0.0
 10
92.71544322768919
 20
-107.73571503383
 30
0.0
 10
92.71544322768919
 20
-107.3887939184653
 30
0.0
 10
92.71544322768919
 20
-107.0694335669827
 30
0.0
 10
92.67479110096325
 20
-106.76058075673
 30
0.0
 10
92.39883895259474
 20
-106.76058075673
 30
0.0
  0
HATCH
  5
70
330
68
100
AcDbEntity
  8
_U+30EC_U+30A4_U+30E4_U+30FC 1
 62
   179
420
  2234388
100
AcDbHatch
 10
0.0
 20
0.0
 30
0.0
210
0.0
220
0.0
230
1.0
  2
SOLID
 70
     1
 71
     0
 91
        2
 92
        1
 93
        1
 72
     4
 94
        3
 73
     0
 74
     1
 95
       29
 96
       25
 40
0.0
 40
0.0
 40
0.0
 40
0.0
 40
1.0
 40
1.0
 40
1.0
 40
2.0
 40
2.0
 40
2.0
 40
3.0
 40
3.0
 40
3.0
 40
4.0
 40
4.0
 40
4.0
 40
5.0
 40
5.0
 40
5.0
 40
6.0
 40
6.0
 40
6.0
 40
7.0
 40
7.0
 40
7.0
 40
8.0
 40
8.0
 40
8.0
 40
8.0
 10
92.82396373547456
 20
-107.9832451444452
 10
92.7085530367187
 20
-108.1927069499484
 10
92.52320689961226
 20
-108.2118272298915
 10
92.39883895259474
 20
-108.2118272298915
 10
92.2272731974293
 20
-108.2118272298915
 10
92.0756889960783
 20
-108.1653184408406
 10
91.97405867926344
 20
-107.9832451444452
 10
91.8631266046384
 20
-107.7885972495286
 10
91.84280054127541
 20
-107.5517469349176
 10
91.84280054127541
 20
-107.3887939184653
 10
91.84280054127541
 20
-107.2449611819561
 10
91.86071503779871
 20
-106.9932969567586
 10
91.97405867926344
 20
-106.7943426924854
 10
92.08912486847078
 20
-106.59125431363
 10
92.26103513318475
 20
-106.5679999191045
 10
92.39883895259474
 20
-106.5679999191045
 10
92.56868216001756
 20
-106.5679999191045
 10
92.7223334186597
 20
-106.6124416508643
 10
92.82396373547456
 20
-106.7943426924854
 10
92.93041718596879
 20
-106.9869235301109
 10
92.95522187346259
 20
-107.215333360783
 10
92.95522187346259
 20
-107.3887939184653
 10
92.95522187346259
 20
-107.5601874188565
 10
92.93248424325994
 20
-107.790836561594
 10
92.82396373547456
 20
-107.9832451444452
 97
        0
 97
        0
 92
        1
 93
        1
 72
     4
 94
        3
 73
     0
 74
     1
 95
       17
 96
       13
 40
0.0
 40
0.0
 40
0.0
 40
0.0
 40
1.0
 40
1.0
 40
1.0
 40
2.0
 40
2.0
 40
2.0
 40
3.0
 40
3.0
 40
3.0
 40
4.0
 40
4.0
 40
4.0
 40
4.0
 10
92.39883895259474
 20
-106.76058075673
 10
92.1321885620364
 20
-106.76058075673
 10
92.08257918704881
 20
-107.0441121151661
 10
92.08257918704881
 20
-107.3887939184653
 10
92.08257918704881
 20
-107.7083265247222
 10
92.12081974693508
 20
-108.0171793349749
 10
92.39883895259474
 20
-108.0171793349749
 10
92.66342228586193
 20
-108.0171793349749
 10
92.71544322768919
 20
-107.73571503383
 10
92.71544322768919
 20
-107.3887939184653
 10
92.71544322768919
 20
-107.0694335669827
 10
92.67479110096325
 20
-106.76058075673
 10
92.39883895259474
 20
-106.76058075673
 97
        0
 97
        0
 75
     2
 76
     1
 98
        0
  0
ENDBLK
  5
6B
330
68
100
AcDbEntity
  8
0
100
AcDbBlockEnd
  0
BLOCK
  5
73
330
71
100
AcDbEntity
  8
0
100
AcDbBlockBegin
  2
block 3
 70
     0
 10
0.0
 20
0.0
 30
0.0
  3
block 3
  1

  0
SPLINE
  5
75
330
71
100
AcDbEntity
  8
_U+30EC_U+30A4_U+30E4_U+30FC 1
370
     0
100
AcDbSpline
210
0.0
220
0.0
230
1.0
 70
    11
 71
     3
 72
    44
 73
    40
 74
     0
 42
0.0000000001
 43
0.0000000001
 12
1.0
 22
0.0
 32
0.0
 13
1.0
 23
0.0
 33
0.0
 40
0.0
 40
0.0
 40
0.0
 40
0.0
 40
1.0
 40
1.0
 40
1.0
 40
2.0
 40
2.0
 40
2.0
 40
3.0
 40
3.0
 40
3.0
 40
4.0
 40
4.0
 40
4.0
 40
5.0
 40
5.0
 40
5.0
 40
6.0
 40
6.0
 40
6.0
 40
7.0
 40
7.0
 40
7.0
 40
8.0
 40
8.0
 40
8.0
 40
9.0
 40
9.0
 40
9.0
 40
10.0
 40
10.0
 40
10.0
 40
11.0
 40
11.0
 40
11.0
 40
12.0
 40
12.0
 40
12.0
 40
13.0
 40
13.0
 40
13.0
 40
13.0
 10
111.2455783142025
 20
-123.3375189578809
 30
0.0
 10
111.4043972160725
 20
-123.5704074126838
 30
0.0
 10
111.4784667690054
 20
-123.6699706722075
 30
0.0
 10
111.6221272507403
 20
-123.7216471044863
 30
0.0
 10
111.6221272507403
 20
-123.7216471044863
 30
0.0
 10
111.6221272507403
 20
-122.890001054347
 30
0.0
 10
111.6221272507403
 20
-122.890001054347
 30
0.0
 10
111.6221272507403
 20
-122.890001054347
 30
0.0
 10
111.8274549416612
 20
-122.890001054347
 30
0.0
 10
111.8274549416612
 20
-122.890001054347
 30
0.0
 10
111.8274549416612
 20
-122.890001054347
 30
0.0
 10
111.8274549416612
 20
-123.9886420045931
 30
0.0
 10
111.8274549416612
 20
-123.9886420045931
 30
0.0
 10
111.4698540302923
 20
-123.9545355592892
 30
0.0
 10
111.3916503627771
 20
-123.8846001209386
 30
0.0
 10
111.0933050937545
 20
-123.4732557199997
 30
0.0
 10
110.8945230842555
 20
-123.1997151384709
 30
0.0
 10
110.8266547031961
 20
-123.1294351905718
 30
0.0
 10
110.6891953933347
 20
-123.1294351905718
 30
0.0
 10
110.5706841086421
 20
-123.1294351905718
 30
0.0
 10
110.4397704802026
 20
-123.2062608198929
 30
0.0
 10
110.4397704802026
 20
-123.4167561540417
 30
0.0
 10
110.4397704802026
 20
-123.6947753597013
 30
0.0
 10
110.6702473681658
 20
-123.703732607963
 30
0.0
 10
110.7866915955672
 20
-123.7082112320938
 30
0.0
 10
110.7866915955672
 20
-123.7082112320938
 30
0.0
 10
110.7866915955672
 20
-123.9479898778672
 30
0.0
 10
110.7866915955672
 20
-123.9479898778672
 30
0.0
 10
110.6595675721615
 20
-123.938688120057
 30
0.0
 10
110.5476019688909
 20
-123.9276638145042
 30
0.0
 10
110.4290906841983
 20
-123.841536427373
 30
0.0
 10
110.2682047250371
 20
-123.7240586713259
 30
0.0
 10
110.2344427892817
 20
-123.525276661827
 30
0.0
 10
110.2344427892817
 20
-123.4009087148095
 30
0.0
 10
110.2344427892817
 20
-123.104630503078
 30
0.0
 10
110.418410888194
 20
-122.8831108633764
 30
0.0
 10
110.6912624506258
 20
-122.8831108633764
 30
0.0
 10
110.9200167908464
 20
-122.8831108633764
 30
0.0
 10
111.0192355408216
 20
-123.007478810394
 30
0.0
 10
111.2455783142025
 20
-123.3375189578809
 30
0.0
  0
HATCH
  5
76
330
71
100
AcDbEntity
  8
_U+30EC_U+30A4_U+30E4_U+30FC 1
 62
   179
420
  2234388
100
AcDbHatch
 10
0.0
 20
0.0
 30
0.0
210
0.0
220
0.0
230
1.0
  2
SOLID
 70
     1
 71
     0
 91
        1
 92
        1
 93
        1
 72
     4
 94
        3
 73
     0
 74
     1
 95
       44
 96
       40
 40
0.0
 40
0.0
 40
0.0
 40
0.0
 40
1.0
 40
1.0
 40
1.0
 40
2.0
 40
2.0
 40
2.0
 40
3.0
 40
3.0
 40
3.0
 40
4.0
 40
4.0
 40
4.0
 40
5.0
 40
5.0
 40
5.0
 40
6.0
 40
6.0
 40
6.0
 40
7.0
 40
7.0
 40
7.0
 40
8.0
 40
8.0
 40
8.0
 40
9.0
 40
9.0
 40
9.0
 40
10.0
 40
10.0
 40
10.0
 40
11.0
 40
11.0
 40
11.0
 40
12.0
 40
12.0
 40
12.0
 40
13.0
 40
13.0
 40
13.0
 40
13.0
 10
111.2455783142025
 20
-123.3375189578809
 10
111.4043972160725
 20
-123.5704074126838
 10
111.4784667690054
 20
-123.6699706722075
 10
111.6221272507403
 20
-123.7216471044863
 10
111.6221272507403
 20
-123.7216471044863
 10
111.6221272507403
 20
-122.890001054347
 10
111.6221272507403
 20
-122.890001054347
 10
111.6221272507403
 20
-122.890001054347
 10
111.8274549416612
 20
-122.890001054347
 10
111.8274549416612
 20
-122.890001054347
 10
111.8274549416612
 20
-122.890001054347
 10
111.8274549416612
 20
-123.9886420045931
 10
111.8274549416612
 20
-123.9886420045931
 10
111.4698540302923
 20
-123.9545355592892
 10
111.3916503627771
 20
-123.8846001209386
 10
111.0933050937545
 20
-123.4732557199997
 10
110.8945230842555
 20
-123.1997151384709
 10
110.8266547031961
 20
-123.1294351905718
 10
110.6891953933347
 20
-123.1294351905718
 10
110.5706841086421
 20
-123.1294351905718
 10
110.4397704802026
 20
-123.2062608198929
 10
110.4397704802026
 20
-123.4167561540417
 10
110.4397704802026
 20
-123.6947753597013
 10
110.6702473681658
 20
-123.703732607963
 10
110.7866915955672
 20
-123.7082112320938
 10
110.7866915955672
 20
-123.7082112320938
 10
110.7866915955672
 20
-123.9479898778672
 10
110.7866915955672
 20
-123.9479898778672
 10
110.6595675721615
 20
-123.938688120057
 10
110.5476019688909
 20
-123.9276638145042
 10
110.4290906841983
 20
-123.841536427373
 10
110.2682047250371
 20
-123.7240586713259
 10
110.2344427892817
 20
-123.525276661827
 10
110.2344427892817
 20
-123.4009087148095
 10
110.2344427892817
 20
-123.104630503078
 10
110.418410888194
 20
-122.8831108633764
 10
110.6912624506258
 20
-122.8831108633764
 10
110.9200167908464
 20
-122.8831108633764
 10
111.0192355408216
 20
-123.007478810394
 10
111.2455783142025
 20
-123.3375189578809
 97
        0
 97
        0
 75
     2
 76
     1
 98
        0
  0
SPLINE
  5
77
330
71
100
AcDbEntity
  8
_U+30EC_U+30A4_U+30E4_U+30FC 1
370
     0
100
AcDbSpline
210
0.0
220
0.0
230
1.0
 70
    11
 71
     3
 72
    29
 73
    25
 74
     0
 42
0.0000000001
 43
0.0000000001
 12
1.0
 22
0.0
 32
0.0
 13
1.0
 23
0.0
 33
0.0
 40
0.0
 40
0.0
 40
0.0
 40
0.0
 40
1.0
 40
1.0
 40
1.0
 40
2.0
 40
2.0
 40
2.0
 40
3.0
 40
3.0
 40
3.0
 40
4.0
 40
4.0
 40
4.0
 40
5.0
 40
5.0
 40
5.0
 40
6.0
 40
6.0
 40
6.0
 40
7.0
 40
7.0
 40
7.0
 40
8.0
 40
8.0
 40
8.0
 40
8.0
 10
111.6496880146223
 20
-121.7541530728601
 30
0.0
 10
111.8591498201255
 20
-121.8695637716159
 30
0.0
 10
111.8780978452944
 20
-122.0549099087224
 30
0.0
 10
111.8780978452944
 20
-122.1792778557399
 30
0.0
 10
111.8780978452944
 20
-122.3508436109053
 30
0.0
 10
111.8315890562435
 20
-122.5024278122563
 30
0.0
 10
111.6496880146223
 20
-122.6040581290712
 30
0.0
 10
111.4550401197057
 20
-122.7149902036963
 30
0.0
 10
111.218362059869
 20
-122.7353162670592
 30
0.0
 10
111.0554090434167
 20
-122.7353162670592
 30
0.0
 10
110.9114040521333
 20
-122.7353162670592
 30
0.0
 10
110.6595675721615
 20
-122.7170572609874
 30
0.0
 10
110.4607855626626
 20
-122.6040581290712
 30
0.0
 10
110.2578694385814
 20
-122.4889919398639
 30
0.0
 10
110.2344427892817
 20
-122.3170816751499
 30
0.0
 10
110.2344427892817
 20
-122.1792778557399
 30
0.0
 10
110.2344427892817
 20
-122.0094346483171
 30
0.0
 10
110.2788845210414
 20
-121.855783389675
 30
0.0
 10
110.4607855626626
 20
-121.7541530728601
 30
0.0
 10
110.653366400288
 20
-121.6476996223659
 30
0.0
 10
110.8817762309601
 20
-121.6228949348721
 30
0.0
 10
111.0554090434167
 20
-121.6228949348721
 30
0.0
 10
111.2266302890336
 20
-121.6228949348721
 30
0.0
 10
111.4571071769968
 20
-121.6456325650747
 30
0.0
 10
111.6496880146223
 20
-121.7541530728601
 30
0.0
  0
SPLINE
  5
78
330
71
100
AcDbEntity
  8
_U+30EC_U+30A4_U+30E4_U+30FC 1
370
     0
100
AcDbSpline
210
0.0
220
0.0
230
1.0
 70
    11
 71
     3
 72
    17
 73
    13
 74
     0
 42
0.0000000001
 43
0.0000000001
 12
1.0
 22
0.0
 32
0.0
 13
1.0
 23
0.0
 33
0.0
 40
0.0
 40
0.0
 40
0.0
 40
0.0
 40
1.0
 40
1.0
 40
1.0
 40
2.0
 40
2.0
 40
2.0
 40
3.0
 40
3.0
 40
3.0
 40
4.0
 40
4.0
 40
4.0
 40
4.0
 10
110.4270236269071
 20
-122.1792778557399
 30
0.0
 10
110.4270236269071
 20
-122.4459282462983
 30
0.0
 10
110.7105549853432
 20
-122.4955376212858
 30
0.0
 10
111.0554090434167
 20
-122.4955376212858
 30
0.0
 10
111.3747693948994
 20
-122.4955376212858
 30
0.0
 10
111.6834499503777
 20
-122.4572970613996
 30
0.0
 10
111.6834499503777
 20
-122.1792778557399
 30
0.0
 10
111.6834499503777
 20
-121.9146945224727
 30
0.0
 10
111.4023301587814
 20
-121.8626735806454
 30
0.0
 10
111.0554090434167
 20
-121.8626735806454
 30
0.0
 10
110.7357041823855
 20
-121.8626735806454
 30
0.0
 10
110.4270236269071
 20
-121.9033257073714
 30
0.0
 10
110.4270236269071
 20
-122.1792778557399
 30
0.0
  0
HATCH
  5
79
330
71
100
AcDbEntity
  8
_U+30EC_U+30A4_U+30E4_U+30FC 1
 62
   179
420
  2234388
100
AcDbHatch
 10
0.0
 20
0.0
 30
0.0
210
0.0
220
0.0
230
1.0
  2
SOLID
 70
     1
 71
     0
 91
        2
 92
        1
 93
        1
 72
     4
 94
        3
 73
     0
 74
     1
 95
       29
 96
       25
 40
0.0
 40
0.0
 40
0.0
 40
0.0
 40
1.0
 40
1.0
 40
1.0
 40
2.0
 40
2.0
 40
2.0
 40
3.0
 40
3.0
 40
3.0
 40
4.0
 40
4.0
 40
4.0
 40
5.0
 40
5.0
 40
5.0
 40
6.0
 40
6.0
 40
6.0
 40
7.0
 40
7.0
 40
7.0
 40
8.0
 40
8.0
 40
8.0
 40
8.0
 10
111.6496880146223
 20
-121.7541530728601
 10
111.8591498201255
 20
-121.8695637716159
 10
111.8780978452944
 20
-122.0549099087224
 10
111.8780978452944
 20
-122.1792778557399
 10
111.8780978452944
 20
-122.3508436109053
 10
111.8315890562435
 20
-122.5024278122563
 10
111.6496880146223
 20
-122.6040581290712
 10
111.4550401197057
 20
-122.7149902036963
 10
111.218362059869
 20
-122.7353162670592
 10
111.0554090434167
 20
-122.7353162670592
 10
110.9114040521333
 20
-122.7353162670592
 10
110.6595675721615
 20
-122.7170572609874
 10
110.4607855626626
 20
-122.6040581290712
 10
110.2578694385814
 20
-122.4889919398639
 10
110.2344427892817
 20
-122.3170816751499
 10
110.2344427892817
 20
-122.1792778557399
 10
110.2344427892817
 20
-122.0094346483171
 10
110.2788845210414
 20
-121.855783389675
 10
110.4607855626626
 20
-121.7541530728601
 10
110.653366400288
 20
-121.6476996223659
 10
110.8817762309601
 20
-121.6228949348721
 10
111.0554090434167
 20
-121.6228949348721
 10
111.2266302890336
 20
-121.6228949348721
 10
111.4571071769968
 20
-121.6456325650747
 10
111.6496880146223
 20
-121.7541530728601
 97
        0
 97
        0
 92
        1
 93
        1
 72
     4
 94
        3
 73
     0
 74
     1
 95
       17
 96
       13
 40
0.0
 40
0.0
 40
0.0
 40
0.0
 40
1.0
 40
1.0
 40
1.0
 40
2.0
 40
2.0
 40
2.0
 40
3.0
 40
3.0
 40
3.0
 40
4.0
 40
4.0
 40
4.0
 40
4.0
 10
110.4270236269071
 20
-122.1792778557399
 10
110.4270236269071
 20
-122.4459282462983
 10
110.7105549853432
 20
-122.4955376212858
 10
111.0554090434167
 20
-122.4955376212858
 10
111.3747693948994
 20
-122.4955376212858
 10
111.6834499503777
 20
-122.4572970613996
 10
111.6834499503777
 20
-122.1792778557399
 10
111.6834499503777
 20
-121.9146945224727
 10
111.4023301587814
 20
-121.8626735806454
 10
111.0554090434167
 20
-121.8626735806454
 10
110.7357041823855
 20
-121.8626735806454
 10
110.4270236269071
 20
-121.9033257073714
 10
110.4270236269071
 20
-122.1792778557399
 97
        0
 97
        0
 75
     2
 76
     1
 98
        0
  0
ENDBLK
  5
74
330
71
100
AcDbEntity
  8
0
100
AcDbBlockEnd
  0
BLOCK
  5
7C
330
7A
100
AcDbEntity
  8
0
100
AcDbBlockBegin
  2
block 4
 70
     0
 10
0.0
 20
0.0
 30
0.0
  3
block 4
  1

  0
SPLINE
  5
7E
330
7A
100
AcDbEntity
  8
_U+30EC_U+30A4_U+30E4_U+30FC 1
370
     0
100
AcDbSpline
210
0.0
220
0.0
230
1.0
 70
    11
 71
     3
 72
    26
 73
    22
 74
     0
 42
0.0000000001
 43
0.0000000001
 12
1.0
 22
0.0
 32
0.0
 13
1.0
 23
0.0
 33
0.0
 40
0.0
 40
0.0
 40
0.0
 40
0.0
 40
1.0
 40
1.0
 40
1.0
 40
2.0
 40
2.0
 40
2.0
 40
3.0
 40
3.0
 40
3.0
 40
4.0
 40
4.0
 40
4.0
 40
5.0
 40
5.0
 40
5.0
 40
6.0
 40
6.0
 40
6.0
 40
7.0
 40
7.0
 40
7.0
 40
7.0
 10
94.99954153440984
 20
-150.1613769155847
 30
0.0
 10
94.99954153440984
 20
-150.1613769155847
 30
0.0
 10
94.99954153440984
 20
-149.0572238125621
 30
0.0
 10
94.99954153440984
 20
-149.0572238125621
 30
0.0
 10
94.99954153440984
 20
-149.0572238125621
 30
0.0
 10
94.64710826626879
 20
-149.0572238125621
 30
0.0
 10
94.64710826626879
 20
-149.0572238125621
 30
0.0
 10
94.64710826626879
 20
-149.0572238125621
 30
0.0
 10
94.64710826626879
 20
-148.9090847066963
 30
0.0
 10
94.64710826626879
 20
-148.9090847066963
 30
0.0
 10
95.00195310124951
 20
-148.8942707961098
 30
0.0
 10
95.05156247623711
 20
-148.7313177796574
 30
0.0
 10
95.08325735470142
 20
-148.6169406095472
 30
0.0
 10
95.08325735470142
 20
-148.6169406095472
 30
0.0
 10
95.23932018018323
 20
-148.6169406095472
 30
0.0
 10
95.23932018018323
 20
-148.6169406095472
 30
0.0
 10
95.23932018018323
 20
-148.6169406095472
 30
0.0
 10
95.23932018018323
 20
-150.1613769155847
 30
0.0
 10
95.23932018018323
 20
-150.1613769155847
 30
0.0
 10
95.23932018018323
 20
-150.1613769155847
 30
0.0
 10
94.99954153440984
 20
-150.1613769155847
 30
0.0
 10
94.99954153440984
 20
-150.1613769155847
 30
0.0
  0
HATCH
  5
7F
330
7A
100
AcDbEntity
  8
_U+30EC_U+30A4_U+30E4_U+30FC 1
 62
   179
420
  2234388
100
AcDbHatch
 10
0.0
 20
0.0
 30
0.0
210
0.0
220
0.0
230
1.0
  2
SOLID
 70
     1
 71
     0
 91
        1
 92
        1
 93
        1
 72
     4
 94
        3
 73
     0
 74
     1
 95
       26
 96
       22
 40
0.0
 40
0.0
 40
0.0
 40
0.0
 40
1.0
 40
1.0
 40
1.0
 40
2.0
 40
2.0
 40
2.0
 40
3.0
 40
3.0
 40
3.0
 40
4.0
 40
4.0
 40
4.0
 40
5.0
 40
5.0
 40
5.0
 40
6.0
 40
6.0
 40
6.0
 40
7.0
 40
7.0
 40
7.0
 40
7.0
 10
94.99954153440984
 20
-150.1613769155847
 10
94.99954153440984
 20
-150.1613769155847
 10
94.99954153440984
 20
-149.0572238125621
 10
94.99954153440984
 20
-149.0572238125621
 10
94.99954153440984
 20
-149.0572238125621
 10
94.64710826626879
 20
-149.0572238125621
 10
94.64710826626879
 20
-149.0572238125621
 10
94.64710826626879
 20
-149.0572238125621
 10
94.64710826626879
 20
-148.9090847066963
 10
94.64710826626879
 20
-148.9090847066963
 10
95.00195310124951
 20
-148.8942707961098
 10
95.05156247623711
 20
-148.7313177796574
 10
95.08325735470142
 20
-148.6169406095472
 10
95.08325735470142
 20
-148.6169406095472
 10
95.23932018018323
 20
-148.6169406095472
 10
95.23932018018323
 20
-148.6169406095472
 10
95.23932018018323
 20
-148.6169406095472
 10
95.23932018018323
 20
-150.1613769155847
 10
95.23932018018323
 20
-150.1613769155847
 10
95.23932018018323
 20
-150.1613769155847
 10
94.99954153440984
 20
-150.1613769155847
 10
94.99954153440984
 20
-150.1613769155847
 97
        0
 97
        0
 75
     2
 76
     1
 98
        0
  0
SPLINE
  5
80
330
7A
100
AcDbEntity
  8
_U+30EC_U+30A4_U+30E4_U+30FC 1
370
     0
100
AcDbSpline
210
0.0
220
0.0
230
1.0
 70
    11
 71
     3
 72
    32
 73
    28
 74
     0
 42
0.0000000001
 43
0.0000000001
 12
1.0
 22
0.0
 32
0.0
 13
1.0
 23
0.0
 33
0.0
 40
0.0
 40
0.0
 40
0.0
 40
0.0
 40
1.0
 40
1.0
 40
1.0
 40
2.0
 40
2.0
 40
2.0
 40
3.0
 40
3.0
 40
3.0
 40
4.0
 40
4.0
 40
4.0
 40
5.0
 40
5.0
 40
5.0
 40
6.0
 40
6.0
 40
6.0
 40
7.0
 40
7.0
 40
7.0
 40
8.0
 40
8.0
 40
8.0
 40
9.0
 40
9.0
 40
9.0
 40
9.0
 10
96.31418997158119
 20
-150.2120198192178
 30
0.0
 10
95.76228567484415
 20
-150.2120198192178
 30
0.0
 10
95.7533284265825
 20
-149.6580484651897
 30
0.0
 10
95.7533284265825
 20
-149.4441080355556
 30
0.0
 10
95.7533284265825
 20
-149.2136311475924
 30
0.0
 10
95.77365448994549
 20
-148.566297705914
 30
0.0
 10
96.35484209830713
 20
-148.566297705914
 30
0.0
 10
96.54018823541357
 20
-148.566297705914
 30
0.0
 10
96.80236000184108
 20
-148.6362331442646
 30
0.0
 10
96.84301212856703
 20
-148.9683403490426
 30
0.0
 10
96.84301212856703
 20
-148.9683403490426
 30
0.0
 10
96.61460229789496
 20
-148.9683403490426
 30
0.0
 10
96.61460229789496
 20
-148.9683403490426
 30
0.0
 10
96.60357799234217
 20
-148.9111517639875
 30
0.0
 10
96.56947154703819
 20
-148.7630126581218
 30
0.0
 10
96.35243053146745
 20
-148.7630126581218
 30
0.0
 10
96.04030488050381
 20
-148.7630126581218
 30
0.0
 10
95.99758569648672
 20
-149.0909857483175
 30
0.0
 10
95.98380531454572
 20
-149.2959689296899
 30
0.0
 10
96.08336857406944
 20
-149.2177652621747
 30
0.0
 10
96.15571557925969
 20
-149.1585096198284
 30
0.0
 10
96.35001896462778
 20
-149.1585096198284
 30
0.0
 10
96.54225529270472
 20
-149.1585096198284
 30
0.0
 10
96.86574975876968
 20
-149.2666856180653
 30
0.0
 10
96.86574975876968
 20
-149.6728623757762
 30
0.0
 10
96.86574975876968
 20
-149.9922227272589
 30
0.0
 10
96.65318736732976
 20
-150.2120198192178
 30
0.0
 10
96.31418997158119
 20
-150.2120198192178
 30
0.0
  0
SPLINE
  5
81
330
7A
100
AcDbEntity
  8
_U+30EC_U+30A4_U+30E4_U+30FC 1
370
     0
100
AcDbSpline
210
0.0
220
0.0
230
1.0
 70
    11
 71
     3
 72
    17
 73
    13
 74
     0
 42
0.0000000001
 43
0.0000000001
 12
1.0
 22
0.0
 32
0.0
 13
1.0
 23
0.0
 33
0.0
 40
0.0
 40
0.0
 40
0.0
 40
0.0
 40
1.0
 40
1.0
 40
1.0
 40
2.0
 40
2.0
 40
2.0
 40
3.0
 40
3.0
 40
3.0
 40
4.0
 40
4.0
 40
4.0
 40
4.0
 10
96.33210446810448
 20
-149.353157514745
 30
0.0
 10
96.05167369560515
 20
-149.353157514745
 30
0.0
 10
96.01102156887919
 20
-149.5646863775394
 30
0.0
 10
96.01102156887919
 20
-149.6811306049408
 30
0.0
 10
96.01102156887919
 20
-149.8568304746886
 30
0.0
 10
96.11265188569406
 20
-150.0197834911409
 30
0.0
 10
96.30936683790183
 20
-150.0197834911409
 30
0.0
 10
96.43821340905018
 20
-150.0197834911409
 30
0.0
 10
96.62597111299628
 20
-149.9605278487946
 30
0.0
 10
96.62597111299628
 20
-149.6749294330674
 30
0.0
 10
96.62597111299628
 20
-149.4506537169776
 30
0.0
 10
96.47679847848497
 20
-149.353157514745
 30
0.0
 10
96.33210446810448
 20
-149.353157514745
 30
0.0
  0
HATCH
  5
82
330
7A
100
AcDbEntity
  8
_U+30EC_U+30A4_U+30E4_U+30FC 1
 62
   179
420
  2234388
100
AcDbHatch
 10
0.0
 20
0.0
 30
0.0
210
0.0
220
0.0
230
1.0
  2
SOLID
 70
     1
 71
     0
 91
        2
 92
        1
 93
        1
 72
     4
 94
        3
 73
     0
 74
     1
 95
       32
 96
       28
 40
0.0
 40
0.0
 40
0.0
 40
0.0
 40
1.0
 40
1.0
 40
1.0
 40
2.0
 40
2.0
 40
2.0
 40
3.0
 40
3.0
 40
3.0
 40
4.0
 40
4.0
 40
4.0
 40
5.0
 40
5.0
 40
5.0
 40
6.0
 40
6.0
 40
6.0
 40
7.0
 40
7.0
 40
7.0
 40
8.0
 40
8.0
 40
8.0
 40
9.0
 40
9.0
 40
9.0
 40
9.0
 10
96.31418997158119
 20
-150.2120198192178
 10
95.76228567484415
 20
-150.2120198192178
 10
95.7533284265825
 20
-149.6580484651897
 10
95.7533284265825
 20
-149.4441080355556
 10
95.7533284265825
 20
-149.2136311475924
 10
95.77365448994549
 20
-148.566297705914
 10
96.35484209830713
 20
-148.566297705914
 10
96.54018823541357
 20
-148.566297705914
 10
96.80236000184108
 20
-148.6362331442646
 10
96.84301212856703
 20
-148.9683403490426
 10
96.84301212856703
 20
-148.9683403490426
 10
96.61460229789496
 20
-148.9683403490426
 10
96.61460229789496
 20
-148.9683403490426
 10
96.60357799234217
 20
-148.9111517639875
 10
96.56947154703819
 20
-148.7630126581218
 10
96.35243053146745
 20
-148.7630126581218
 10
96.04030488050381
 20
-148.7630126581218
 10
95.99758569648672
 20
-149.0909857483175
 10
95.98380531454572
 20
-149.2959689296899
 10
96.08336857406944
 20
-149.2177652621747
 10
96.15571557925969
 20
-149.1585096198284
 10
96.35001896462778
 20
-149.1585096198284
 10
96.54225529270472
 20
-149.1585096198284
 10
96.86574975876968
 20
-149.2666856180653
 10
96.86574975876968
 20
-149.6728623757762
 10
96.86574975876968
 20
-149.9922227272589
 10
96.65318736732976
 20
-150.2120198192178
 10
96.31418997158119
 20
-150.2120198192178
 97
        0
 97
        0
 92
        1
 93
        1
 72
     4
 94
        3
 73
     0
 74
     1
 95
       17
 96
       13
 40
0.0
 40
0.0
 40
0.0
 40
0.0
 40
1.0
 40
1.0
 40
1.0
 40
2.0
 40
2.0
 40
2.0
 40
3.0
 40
3.0
 40
3.0
 40
4.0
 40
4.0
 40
4.0
 40
4.0
 10
96.33210446810448
 20
-149.353157514745
 10
96.05167369560515
 20
-149.353157514745
 10
96.01102156887919
 20
-149.5646863775394
 10
96.01102156887919
 20
-149.6811306049408
 10
96.01102156887919
 20
-149.8568304746886
 10
96.11265188569406
 20
-150.0197834911409
 10
96.30936683790183
 20
-150.0197834911409
 10
96.43821340905018
 20
-150.0197834911409
 10
96.62597111299628
 20
-149.9605278487946
 10
96.62597111299628
 20
-149.6749294330674
 10
96.62597111299628
 20
-149.4506537169776
 10
96.47679847848497
 20
-149.353157514745
 10
96.33210446810448
 20
-149.353157514745
 97
        0
 97
        0
 75
     2
 76
     1
 98
        0
  0
ENDBLK
  5
7D
330
7A
100
AcDbEntity
  8
0
100
AcDbBlockEnd
  0
BLOCK
  5
85
330
83
100
AcDbEntity
  8
0
100
AcDbBlockBegin
  2
block 5
 70
     0
 10
0.0
 20
0.0
 30
0.0
  3
block 5
  1

  0
SPLINE
  5
87
330
83
100
AcDbEntity
  8
_U+30EC_U+30A4_U+30E4_U+30FC 1
370
     0
100
AcDbSpline
210
0.0
220
0.0
230
1.0
 70
    11
 71
     3
 72
    26
 73
    22
 74
     0
 42
0.0000000001
 43
0.0000000001
 12
1.0
 22
0.0
 32
0.0
 13
1.0
 23
0.0
 33
0.0
 40
0.0
 40
0.0
 40
0.0
 40
0.0
 40
1.0
 40
1.0
 40
1.0
 40
2.0
 40
2.0
 40
2.0
 40
3.0
 40
3.0
 40
3.0
 40
4.0
 40
4.0
 40
4.0
 40
5.0
 40
5.0
 40
5.0
 40
6.0
 40
6.0
 40
6.0
 40
7.0
 40
7.0
 40
7.0
 40
7.0
 10
111.8274549416612
 20
-140.988810186107
 30
0.0
 10
111.8274549416612
 20
-140.988810186107
 30
0.0
 10
110.7233018386386
 20
-140.988810186107
 30
0.0
 10
110.7233018386386
 20
-140.988810186107
 30
0.0
 10
110.7233018386386
 20
-140.988810186107
 30
0.0
 10
110.7233018386386
 20
-141.341243454248
 30
0.0
 10
110.7233018386386
 20
-141.341243454248
 30
0.0
 10
110.7233018386386
 20
-141.341243454248
 30
0.0
 10
110.5751627327729
 20
-141.341243454248
 30
0.0
 10
110.5751627327729
 20
-141.341243454248
 30
0.0
 10
110.5603488221863
 20
-140.9863986192673
 30
0.0
 10
110.397395805734
 20
-140.9367892442797
 30
0.0
 10
110.2830186356237
 20
-140.9050943658154
 30
0.0
 10
110.2830186356237
 20
-140.9050943658154
 30
0.0
 10
110.2830186356237
 20
-140.7490315403336
 30
0.0
 10
110.2830186356237
 20
-140.7490315403336
 30
0.0
 10
110.2830186356237
 20
-140.7490315403336
 30
0.0
 10
111.8274549416612
 20
-140.7490315403336
 30
0.0
 10
111.8274549416612
 20
-140.7490315403336
 30
0.0
 10
111.8274549416612
 20
-140.7490315403336
 30
0.0
 10
111.8274549416612
 20
-140.988810186107
 30
0.0
 10
111.8274549416612
 20
-140.988810186107
 30
0.0
  0
HATCH
  5
88
330
83
100
AcDbEntity
  8
_U+30EC_U+30A4_U+30E4_U+30FC 1
 62
   179
420
  2234388
100
AcDbHatch
 10
0.0
 20
0.0
 30
0.0
210
0.0
220
0.0
230
1.0
  2
SOLID
 70
     1
 71
     0
 91
        1
 92
        1
 93
        1
 72
     4
 94
        3
 73
     0
 74
     1
 95
       26
 96
       22
 40
0.0
 40
0.0
 40
0.0
 40
0.0
 40
1.0
 40
1.0
 40
1.0
 40
2.0
 40
2.0
 40
2.0
 40
3.0
 40
3.0
 40
3.0
 40
4.0
 40
4.0
 40
4.0
 40
5.0
 40
5.0
 40
5.0
 40
6.0
 40
6.0
 40
6.0
 40
7.0
 40
7.0
 40
7.0
 40
7.0
 10
111.8274549416612
 20
-140.988810186107
 10
111.8274549416612
 20
-140.988810186107
 10
110.7233018386386
 20
-140.988810186107
 10
110.7233018386386
 20
-140.988810186107
 10
110.7233018386386
 20
-140.988810186107
 10
110.7233018386386
 20
-141.341243454248
 10
110.7233018386386
 20
-141.341243454248
 10
110.7233018386386
 20
-141.341243454248
 10
110.5751627327729
 20
-141.341243454248
 10
110.5751627327729
 20
-141.341243454248
 10
110.5603488221863
 20
-140.9863986192673
 10
110.397395805734
 20
-140.9367892442797
 10
110.2830186356237
 20
-140.9050943658154
 10
110.2830186356237
 20
-140.9050943658154
 10
110.2830186356237
 20
-140.7490315403336
 10
110.2830186356237
 20
-140.7490315403336
 10
110.2830186356237
 20
-140.7490315403336
 10
111.8274549416612
 20
-140.7490315403336
 10
111.8274549416612
 20
-140.7490315403336
 10
111.8274549416612
 20
-140.7490315403336
 10
111.8274549416612
 20
-140.988810186107
 10
111.8274549416612
 20
-140.988810186107
 97
        0
 97
        0
 75
     2
 76
     1
 98
        0
  0
SPLINE
  5
89
330
83
100
AcDbEntity
  8
_U+30EC_U+30A4_U+30E4_U+30FC 1
370
     0
100
AcDbSpline
210
0.0
220
0.0
230
1.0
 70
    11
 71
     3
 72
    62
 73
    58
 74
     0
 42
0.0000000001
 43
0.0000000001
 12
1.0
 22
0.0
 32
0.0
 13
1.0
 23
0.0
 33
0.0
 40
0.0
 40
0.0
 40
0.0
 40
0.0
 40
1.0
 40
1.0
 40
1.0
 40
2.0
 40
2.0
 40
2.0
 40
3.0
 40
3.0
 40
3.0
 40
4.0
 40
4.0
 40
4.0
 40
5.0
 40
5.0
 40
5.0
 40
6.0
 40
6.0
 40
6.0
 40
7.0
 40
7.0
 40
7.0
 40
8.0
 40
8.0
 40
8.0
 40
9.0
 40
9.0
 40
9.0
 40
10.0
 40
10.0
 40
10.0
 40
11.0
 40
11.0
 40
11.0
 40
12.0
 40
12.0
 40
12.0
 40
13.0
 40
13.0
 40
13.0
 40
14.0
 40
14.0
 40
14.0
 40
15.0
 40
15.0
 40
15.0
 40
16.0
 40
16.0
 40
16.0
 40
17.0
 40
17.0
 40
17.0
 40
18.0
 40
18.0
 40
18.0
 40
19.0
 40
19.0
 40
19.0
 40
19.0
 10
111.8780978452944
 20
-139.6879421308766
 30
0.0
 10
111.8780978452944
 20
-139.7895724476915
 30
0.0
 10
111.8570827628344
 20
-140.0224609024944
 30
0.0
 10
111.6710476066309
 20
-140.1557860977736
 30
0.0
 10
111.5587374938117
 20
-140.2350232939343
 30
0.0
 10
111.4595187438365
 20
-140.2395019180651
 30
0.0
 10
111.3747693948994
 20
-140.2439805421959
 30
0.0
 10
111.3747693948994
 20
-140.2439805421959
 30
0.0
 10
111.3747693948994
 20
-140.0090250301019
 30
0.0
 10
111.3747693948994
 20
-140.0090250301019
 30
0.0
 10
111.4488389478322
 20
-140.0066134632623
 30
0.0
 10
111.6834499503777
 20
-139.9952446481609
 30
0.0
 10
111.6834499503777
 20
-139.6924207550074
 30
0.0
 10
111.6834499503777
 20
-139.5453151777873
 30
0.0
 10
111.6138590215757
 20
-139.3827066708835
 30
0.0
 10
111.3854491909036
 20
-139.3827066708835
 30
0.0
 10
111.2690049635022
 20
-139.3827066708835
 30
0.0
 10
111.2204291171602
 20
-139.4233587976094
 30
0.0
 10
111.1887342386959
 20
-139.4574652429134
 30
0.0
 10
111.114664685763
 20
-139.5363579295256
 30
0.0
 10
111.1019178324676
 20
-139.6607258765432
 30
0.0
 10
111.1019178324676
 20
-139.7196370093409
 30
0.0
 10
111.1019178324676
 20
-139.7399630727039
 30
0.0
 10
111.1039848897587
 20
-139.7782036325902
 30
0.0
 10
111.108119004341
 20
-139.8078314537633
 30
0.0
 10
111.108119004341
 20
-139.8078314537633
 30
0.0
 10
110.9134711094244
 20
-139.8078314537633
 30
0.0
 10
110.9134711094244
 20
-139.8078314537633
 30
0.0
 10
110.9200167908464
 20
-139.7671793270374
 30
0.0
 10
110.9220838481375
 20
-139.7217040666321
 30
0.0
 10
110.9220838481375
 20
-139.7151583852101
 30
0.0
 10
110.9220838481375
 20
-139.644878437311
 30
0.0
 10
110.900724256129
 20
-139.4323160458711
 30
0.0
 10
110.6640461962923
 20
-139.4323160458711
 30
0.0
 10
110.4862792692534
 20
-139.4323160458711
 30
0.0
 10
110.4311577414894
 20
-139.5725314321208
 30
0.0
 10
110.4311577414894
 20
-139.6900091881678
 30
0.0
 10
110.4311577414894
 20
-139.9728515275068
 30
0.0
 10
110.6640461962923
 20
-139.9818087757685
 30
0.0
 10
110.7357041823855
 20
-139.9862873998993
 30
0.0
 10
110.7357041823855
 20
-139.9862873998993
 30
0.0
 10
110.7357041823855
 20
-140.20332841547
 30
0.0
 10
110.7357041823855
 20
-140.20332841547
 30
0.0
 10
110.6109917258195
 20
-140.1943711672083
 30
0.0
 10
110.2344427892817
 20
-140.1650878555837
 30
0.0
 10
110.2344427892817
 20
-139.6765733157753
 30
0.0
 10
110.2344427892817
 20
-139.4367946700019
 30
0.0
 10
110.3615668126874
 20
-139.1791015277052
 30
0.0
 10
110.6575005148703
 20
-139.1791015277052
 30
0.0
 10
110.8438801806224
 20
-139.1791015277052
 30
0.0
 10
110.9262179627198
 20
-139.2810763540686
 30
0.0
 10
110.9875406623573
 20
-139.3871852950143
 30
0.0
 10
111.0151014262393
 20
-139.3217284807946
 30
0.0
 10
111.0953721510456
 20
-139.127080585878
 30
0.0
 10
111.3727023376082
 20
-139.127080585878
 30
0.0
 10
111.7110107142598
 20
-139.127080585878
 30
0.0
 10
111.8780978452944
 20
-139.3916639191451
 30
0.0
 10
111.8780978452944
 20
-139.6879421308766
 30
0.0
  0
HATCH
  5
8A
330
83
100
AcDbEntity
  8
_U+30EC_U+30A4_U+30E4_U+30FC 1
 62
   179
420
  2234388
100
AcDbHatch
 10
0.0
 20
0.0
 30
0.0
210
0.0
220
0.0
230
1.0
  2
SOLID
 70
     1
 71
     0
 91
        1
 92
        1
 93
        1
 72
     4
 94
        3
 73
     0
 74
     1
 95
       62
 96
       58
 40
0.0
 40
0.0
 40
0.0
 40
0.0
 40
1.0
 40
1.0
 40
1.0
 40
2.0
 40
2.0
 40
2.0
 40
3.0
 40
3.0
 40
3.0
 40
4.0
 40
4.0
 40
4.0
 40
5.0
 40
5.0
 40
5.0
 40
6.0
 40
6.0
 40
6.0
 40
7.0
 40
7.0
 40
7.0
 40
8.0
 40
8.0
 40
8.0
 40
9.0
 40
9.0
 40
9.0
 40
10.0
 40
10.0
 40
10.0
 40
11.0
 40
11.0
 40
11.0
 40
12.0
 40
12.0
 40
12.0
 40
13.0
 40
13.0
 40
13.0
 40
14.0
 40
14.0
 40
14.0
 40
15.0
 40
15.0
 40
15.0
 40
16.0
 40
16.0
 40
16.0
 40
17.0
 40
17.0
 40
17.0
 40
18.0
 40
18.0
 40
18.0
 40
19.0
 40
19.0
 40
19.0
 40
19.0
 10
111.8780978452944
 20
-139.6879421308766
 10
111.8780978452944
 20
-139.7895724476915
 10
111.8570827628344
 20
-140.0224609024944
 10
111.6710476066309
 20
-140.1557860977736
 10
111.5587374938117
 20
-140.2350232939343
 10
111.4595187438365
 20
-140.2395019180651
 10
111.3747693948994
 20
-140.2439805421959
 10
111.3747693948994
 20
-140.2439805421959
 10
111.3747693948994
 20
-140.0090250301019
 10
111.3747693948994
 20
-140.0090250301019
 10
111.4488389478322
 20
-140.0066134632623
 10
111.6834499503777
 20
-139.9952446481609
 10
111.6834499503777
 20
-139.6924207550074
 10
111.6834499503777
 20
-139.5453151777873
 10
111.6138590215757
 20
-139.3827066708835
 10
111.3854491909036
 20
-139.3827066708835
 10
111.2690049635022
 20
-139.3827066708835
 10
111.2204291171602
 20
-139.4233587976094
 10
111.1887342386959
 20
-139.4574652429134
 10
111.114664685763
 20
-139.5363579295256
 10
111.1019178324676
 20
-139.6607258765432
 10
111.1019178324676
 20
-139.7196370093409
 10
111.1019178324676
 20
-139.7399630727039
 10
111.1039848897587
 20
-139.7782036325902
 10
111.108119004341
 20
-139.8078314537633
 10
111.108119004341
 20
-139.8078314537633
 10
110.9134711094244
 20
-139.8078314537633
 10
110.9134711094244
 20
-139.8078314537633
 10
110.9200167908464
 20
-139.7671793270374
 10
110.9220838481375
 20
-139.7217040666321
 10
110.9220838481375
 20
-139.7151583852101
 10
110.9220838481375
 20
-139.644878437311
 10
110.900724256129
 20
-139.4323160458711
 10
110.6640461962923
 20
-139.4323160458711
 10
110.4862792692534
 20
-139.4323160458711
 10
110.4311577414894
 20
-139.5725314321208
 10
110.4311577414894
 20
-139.6900091881678
 10
110.4311577414894
 20
-139.9728515275068
 10
110.6640461962923
 20
-139.9818087757685
 10
110.7357041823855
 20
-139.9862873998993
 10
110.7357041823855
 20
-139.9862873998993
 10
110.7357041823855
 20
-140.20332841547
 10
110.7357041823855
 20
-140.20332841547
 10
110.6109917258195
 20
-140.1943711672083
 10
110.2344427892817
 20
-140.1650878555837
 10
110.2344427892817
 20
-139.6765733157753
 10
110.2344427892817
 20
-139.4367946700019
 10
110.3615668126874
 20
-139.1791015277052
 10
110.6575005148703
 20
-139.1791015277052
 10
110.8438801806224
 20
-139.1791015277052
 10
110.9262179627198
 20
-139.2810763540686
 10
110.9875406623573
 20
-139.3871852950143
 10
111.0151014262393
 20
-139.3217284807946
 10
111.0953721510456
 20
-139.127080585878
 10
111.3727023376082
 20
-139.127080585878
 10
111.7110107142598
 20
-139.127080585878
 10
111.8780978452944
 20
-139.3916639191451
 10
111.8780978452944
 20
-139.6879421308766
 97
        0
 97
        0
 75
     2
 76
     1
 98
        0
  0
ENDBLK
  5
86
330
83
100
AcDbEntity
  8
0
100
AcDbBlockEnd
  0
ENDSEC
  0
SECTION
  2
ENTITIES
  0
POLYLINE
  5
41
330
1F
100
AcDbEntity
  8
_U+30EC_U+30A4_U+30E4_U+30FC 1
 62
   179
420
  2234388
370
    25
100
AcDb2dPolyline
 66
     1
 10
0.0
 20
0.0
 30
0.0
  0
VERTEX
  5
42
330
41
100
AcDbEntity
  8
_U+30EC_U+30A4_U+30E4_U+30FC 1
 62
   179
420
  2234388
370
    25
100
AcDbVertex
100
AcDb2dVertex
 10
81.77053541385985
 20
-113.3057310827846
 30
0.0
  0
VERTEX
  5
43
330
41
100
AcDbEntity
  8
_U+30EC_U+30A4_U+30E4_U+30FC 1
 62
   179
420
  2234388
370
    25
100
AcDbVertex
100
AcDb2dVertex
 10
81.77053541385985
 20
-130.8058019117429
 30
0.0
  0
SEQEND
  5
44
330
41
100
AcDbEntity
  8
_U+30EC_U+30A4_U+30E4_U+30FC 1
 62
   179
420
  2234388
370
    25
  0
POLYLINE
  5
45
330
1F
100
AcDbEntity
  8
_U+30EC_U+30A4_U+30E4_U+30FC 1
 62
   179
420
  2234388
370
    25
100
AcDb2dPolyline
 66
     1
 10
0.0
 20
0.0
 30
0.0
  0
VERTEX
  5
46
330
45
100
AcDbEntity
  8
_U+30EC_U+30A4_U+30E4_U+30FC 1
 62
   179
420
  2234388
370
    25
100
AcDbVertex
100
AcDb2dVertex
 10
83.77043258506043
 20
-132.8056638556876
 30
0.0
  0
VERTEX
  5
47
330
45
100
AcDbEntity
  8
_U+30EC_U+30A4_U+30E4_U+30FC 1
 62
   179
420
  2234388
370
    25
100
AcDbVertex
100
AcDb2dVertex
 10
101.2706440830373
 20
-132.8056638556876
 30
0.0
  0
SEQEND
  5
48
330
45
100
AcDbEntity
  8
_U+30EC_U+30A4_U+30E4_U+30FC 1
 62
   179
420
  2234388
370
    25
  0
POLYLINE
  5
49
330
1F
100
AcDbEntity
  8
_U+30EC_U+30A4_U+30E4_U+30FC 1
 62
   179
420
  2234388
370
    25
100
AcDb2dPolyline
 66
     1
 10
0.0
 20
0.0
 30
0.0
  0
VERTEX
  5
4A
330
49
100
AcDbEntity
  8
_U+30EC_U+30A4_U+30E4_U+30FC 1
 62
   179
420
  2234388
370
    25
100
AcDbVertex
100
AcDb2dVertex
 10
88.2703952480346
 20
-133.8057888554373
 30
0.0
  0
VERTEX
  5
4B
330
49
100
AcDbEntity
  8
_U+30EC_U+30A4_U+30E4_U+30FC 1
 62
   179
420
  2234388
370
    25
100
AcDbVertex
100
AcDb2dVertex
 10
101.2706440830373
 20
-133.8057888554373
 30
0.0
  0
SEQEND
  5
4C
330
49
100
AcDbEntity
  8
_U+30EC_U+30A4_U+30E4_U+30FC 1
 62
   179
420
  2234388
370
    25
  0
POLYLINE
  5
4D
330
1F
100
AcDbEntity
  8
_U+30EC_U+30A4_U+30E4_U+30FC 1
 62
   179
420
  2234388
370
    25
100
AcDb2dPolyline
 66
     1
 10
0.0
 20
0.0
 30
0.0
  0
VERTEX
  5
4E
330
4D
100
AcDbEntity
  8
_U+30EC_U+30A4_U+30E4_U+30FC 1
 62
   179
420
  2234388
370
    25
100
AcDbVertex
100
AcDb2dVertex
 10
80.77044571715203
 20
-113.3057310827846
 30
0.0
  0
VERTEX
  5
4F
330
4D
100
AcDbEntity
  8
_U+30EC_U+30A4_U+30E4_U+30FC 1
 62
   179
420
  2234388
370
    25
100
AcDbVertex
100
AcDb2dVertex
 10
80.77044571715203
 20
-126.3058038573123
 30
0.0
  0
SEQEND
  5
50
330
4D
100
AcDbEntity
  8
_U+30EC_U+30A4_U+30E4_U+30FC 1
 62
   179
420
  2234388
370
    25
  0
POLYLINE
  5
51
330
1F
100
AcDbEntity
  8
_U+30EC_U+30A4_U+30E4_U+30FC 1
 62
   179
420
  2234388
370
    25
100
AcDb2dPolyline
 66
     1
 10
0.0
 20
0.0
 30
0.0
  0
VERTEX
  5
52
330
51
100
AcDbEntity
  8
_U+30EC_U+30A4_U+30E4_U+30FC 1
 62
   179
420
  2234388
370
    25
100
AcDbVertex
100
AcDb2dVertex
 10
87.78119831607061
 20
-134.3056749664239
 30
0.0
  0
VERTEX
  5
53
330
51
100
AcDbEntity
  8
_U+30EC_U+30A4_U+30E4_U+30FC 1
 62
   179
420
  2234388
370
    25
100
AcDbVertex
100
AcDb2dVertex
 10
87.78119831607061
 20
-146.305975518979
 30
0.0
  0
SEQEND
  5
54
330
51
100
AcDbEntity
  8
_U+30EC_U+30A4_U+30E4_U+30FC 1
 62
   179
420
  2234388
370
    25
  0
POLYLINE
  5
55
330
1F
100
AcDbEntity
  8
_U+30EC_U+30A4_U+30E4_U+30FC 1
 62
   179
420
  2234388
370
    25
100
AcDb2dPolyline
 66
     1
 10
0.0
 20
0.0
 30
0.0
  0
VERTEX
  5
56
330
55
100
AcDbEntity
  8
_U+30EC_U+30A4_U+30E4_U+30FC 1
 62
   179
420
  2234388
370
    25
100
AcDbVertex
100
AcDb2dVertex
 10
88.28108441442856
 20
-146.8058616299649
 30
0.0
  0
VERTEX
  5
57
330
55
100
AcDbEntity
  8
_U+30EC_U+30A4_U+30E4_U+30FC 1
 62
   179
420
  2234388
370
    25
100
AcDbVertex
100
AcDb2dVertex
 10
103.7814340189817
 20
-146.8058616299649
 30
0.0
  0
SEQEND
  5
58
330
55
100
AcDbEntity
  8
_U+30EC_U+30A4_U+30E4_U+30FC 1
 62
   179
420
  2234388
370
    25
  0
POLYLINE
  5
59
330
1F
100
AcDbEntity
  8
_U+30EC_U+30A4_U+30E4_U+30FC 1
 62
   179
420
  2234388
370
    25
100
AcDb2dPolyline
 66
     1
 10
0.0
 20
0.0
 30
0.0
  0
VERTEX
  5
5A
330
59
100
AcDbEntity
  8
_U+30EC_U+30A4_U+30E4_U+30FC 1
 62
   179
420
  2234388
370
    25
100
AcDbVertex
100
AcDb2dVertex
 10
68.27057686938359
 20
-126.8390980238457
 30
0.0
  0
VERTEX
  5
5B
330
59
100
AcDbEntity
  8
_U+30EC_U+30A4_U+30E4_U+30FC 1
 62
   179
420
  2234388
370
    25
100
AcDbVertex
100
AcDb2dVertex
 10
80.27055961879408
 20
-126.8390980238457
 30
0.0
  0
SEQEND
  5
5C
330
59
100
AcDbEntity
  8
_U+30EC_U+30A4_U+30E4_U+30FC 1
 62
   179
420
  2234388
370
    25
  0
POLYLINE
  5
5D
330
1F
100
AcDbEntity
  8
_U+30EC_U+30A4_U+30E4_U+30FC 1
 62
   179
420
  2234388
370
    25
100
AcDb2dPolyline
 66
     1
 10
0.0
 20
0.0
 30
0.0
  0
VERTEX
  5
5E
330
5D
100
AcDbEntity
  8
_U+30EC_U+30A4_U+30E4_U+30FC 1
 62
   179
420
  2234388
370
    25
100
AcDbVertex
100
AcDb2dVertex
 10
67.77037498305725
 20
-110.8390735834015
 30
0.0
  0
VERTEX
  5
5F
330
5D
100
AcDbEntity
  8
_U+30EC_U+30A4_U+30E4_U+30FC 1
 62
   179
420
  2234388
370
    25
100
AcDbVertex
100
AcDb2dVertex
 10
67.77037498305725
 20
-126.3392471906376
 30
0.0
  0
SEQEND
  5
60
330
5D
100
AcDbEntity
  8
_U+30EC_U+30A4_U+30E4_U+30FC 1
 62
   179
420
  2234388
370
    25
  0
SPLINE
  5
61
330
1F
100
AcDbEntity
  8
_U+30EC_U+30A4_U+30E4_U+30FC 1
 62
   179
420
  2234388
370
    25
100
AcDbSpline
210
0.0
220
0.0
230
1.0
 70
     8
 71
     3
 72
     8
 73
     4
 74
     0
 42
0.0000000001
 43
0.0000000001
 12
1.0
 22
0.0
 32
0.0
 13
1.0
 23
0.0
 33
0.0
 40
0.0
 40
0.0
 40
0.0
 40
0.0
 40
1.0
 40
1.0
 40
1.0
 40
1.0
 10
87.78119831607061
 20
-146.305975518979
 30
0.0
 10
87.78119831607061
 20
-146.5819182966877
 30
0.0
 10
88.00514164369068
 20
-146.8058616299649
 30
0.0
 10
88.28108441442856
 20
-146.8058616299649
 30
0.0
  0
SPLINE
  5
62
330
1F
100
AcDbEntity
  8
_U+30EC_U+30A4_U+30E4_U+30FC 1
 62
   179
420
  2234388
370
    25
100
AcDbSpline
210
0.0
220
0.0
230
1.0
 70
     8
 71
     3
 72
     8
 73
     4
 74
     0
 42
0.0000000001
 43
0.0000000001
 12
1.0
 22
0.0
 32
0.0
 13
1.0
 23
0.0
 33
0.0
 40
0.0
 40
0.0
 40
0.0
 40
0.0
 40
1.0
 40
1.0
 40
1.0
 40
1.0
 10
88.28108441442856
 20
-133.8057888554373
 30
0.0
 10
88.00514164369068
 20
-133.8057888554373
 30
0.0
 10
87.78119831607061
 20
-134.0297321887145
 30
0.0
 10
87.78119831607061
 20
-134.3056749664239
 30
0.0
  0
SPLINE
  5
63
330
1F
100
AcDbEntity
  8
_U+30EC_U+30A4_U+30E4_U+30FC 1
 62
   179
420
  2234388
370
    25
100
AcDbSpline
210
0.0
220
0.0
230
1.0
 70
     8
 71
     3
 72
    11
 73
     7
 74
     0
 42
0.0000000001
 43
0.0000000001
 12
1.0
 22
0.0
 32
0.0
 13
1.0
 23
0.0
 33
0.0
 40
0.0
 40
0.0
 40
0.0
 40
0.0
 40
1.0
 40
1.0
 40
1.0
 40
2.0
 40
2.0
 40
2.0
 40
2.0
 10
101.2706440830373
 20
-133.8057888554373
 30
0.0
 10
101.5465868537752
 20
-133.8057888554373
 30
0.0
 10
101.7705301813952
 20
-133.58184552216
 30
0.0
 10
101.7705301813952
 20
-133.3059027444513
 30
0.0
 10
101.7705301813952
 20
-133.0296071889649
 30
0.0
 10
101.5465868537752
 20
-132.8056638556876
 30
0.0
 10
101.2706440830373
 20
-132.8056638556876
 30
0.0
  0
SPLINE
  5
64
330
1F
100
AcDbEntity
  8
_U+30EC_U+30A4_U+30E4_U+30FC 1
 62
   179
420
  2234388
370
    25
100
AcDbSpline
210
0.0
220
0.0
230
1.0
 70
     8
 71
     3
 72
     8
 73
     4
 74
     0
 42
0.0000000001
 43
0.0000000001
 12
1.0
 22
0.0
 32
0.0
 13
1.0
 23
0.0
 33
0.0
 40
0.0
 40
0.0
 40
0.0
 40
0.0
 40
1.0
 40
1.0
 40
1.0
 40
1.0
 10
67.77037498305725
 20
-126.3392471906376
 30
0.0
 10
67.77037498305725
 20
-126.6151899683462
 30
0.0
 10
67.99428132087692
 20
-126.8390980238457
 30
0.0
 10
68.27057686938359
 20
-126.8390980238457
 30
0.0
  0
SPLINE
  5
65
330
1F
100
AcDbEntity
  8
_U+30EC_U+30A4_U+30E4_U+30FC 1
 62
   179
420
  2234388
370
    25
100
AcDbSpline
210
0.0
220
0.0
230
1.0
 70
     8
 71
     3
 72
     8
 73
     4
 74
     0
 42
0.0000000001
 43
0.0000000001
 12
1.0
 22
0.0
 32
0.0
 13
1.0
 23
0.0
 33
0.0
 40
0.0
 40
0.0
 40
0.0
 40
0.0
 40
1.0
 40
1.0
 40
1.0
 40
1.0
 10
80.27055961879408
 20
-126.8390980238457
 30
0.0
 10
80.54650238953197
 20
-126.8390980238457
 30
0.0
 10
80.77044571715203
 20
-126.6151899683462
 30
0.0
 10
80.77044571715203
 20
-126.3392471906376
 30
0.0
  0
SPLINE
  5
66
330
1F
100
AcDbEntity
  8
_U+30EC_U+30A4_U+30E4_U+30FC 1
 62
   179
420
  2234388
370
    25
100
AcDbSpline
210
0.0
220
0.0
230
1.0
 70
     8
 71
     3
 72
    11
 73
     7
 74
     0
 42
0.0000000001
 43
0.0000000001
 12
1.0
 22
0.0
 32
0.0
 13
1.0
 23
0.0
 33
0.0
 40
0.0
 40
0.0
 40
0.0
 40
0.0
 40
1.0
 40
1.0
 40
1.0
 40
2.0
 40
2.0
 40
2.0
 40
2.0
 10
81.77053541385985
 20
-113.3057310827846
 30
0.0
 10
81.77053541385985
 20
-113.0294355272982
 30
0.0
 10
81.54662736401666
 20
-112.8058449717987
 30
0.0
 10
81.27033181550999
 20
-112.8058449717987
 30
0.0
 10
80.99403626700332
 20
-112.8058449717987
 30
0.0
 10
80.77044571715203
 20
-113.0294355272982
 30
0.0
 10
80.77044571715203
 20
-113.3057310827846
 30
0.0
  0
SPLINE
  5
67
330
1F
100
AcDbEntity
  8
_U+30EC_U+30A4_U+30E4_U+30FC 1
 62
   179
420
  2234388
370
    25
100
AcDbSpline
210
0.0
220
0.0
230
1.0
 70
     8
 71
     3
 72
     8
 73
     4
 74
     0
 42
0.0000000001
 43
0.0000000001
 12
1.0
 22
0.0
 32
0.0
 13
1.0
 23
0.0
 33
0.0
 40
0.0
 40
0.0
 40
0.0
 40
0.0
 40
1.0
 40
1.0
 40
1.0
 40
1.0
 10
81.77053541385985
 20
-130.8058019117429
 30
0.0
 10
81.77053541385985
 20
-131.9102785781338
 30
0.0
 10
82.66592066879444
 20
-132.8056638556876
 30
0.0
 10
83.77043258506043
 20
-132.8056638556876
 30
0.0
  0
INSERT
  5
69
330
1F
100
AcDbEntity
  8
_U+30EC_U+30A4_U+30E4_U+30FC 1
100
AcDbBlockReference
  2
block 2
 10
0.0
 20
0.0
 30
0.0
  0
INSERT
  5
72
330
1F
100
AcDbEntity
  8
_U+30EC_U+30A4_U+30E4_U+30FC 1
100
AcDbBlockReference
  2
block 3
 10
0.0
 20
0.0
 30
0.0
  0
INSERT
  5
7B
330
1F
100
AcDbEntity
  8
_U+30EC_U+30A4_U+30E4_U+30FC 1
100
AcDbBlockReference
  2
block 4
 10
0.0
 20
0.0
 30
0.0
  0
INSERT
  5
84
330
1F
100
AcDbEntity
  8
_U+30EC_U+30A4_U+30E4_U+30FC 1
100
AcDbBlockReference
  2
block 5
 10
0.0
 20
0.0
 30
0.0
  0
SPLINE
  5
8B
330
1F
100
AcDbEntity
  8
_U+30EC_U+30A4_U+30E4_U+30FC 1
 62
   179
420
  2234388
370
     9
100
AcDbSpline
210
0.0
220
0.0
230
1.0
 70
    11
 71
     3
 72
    17
 73
    13
 74
     0
 42
0.0000000001
 43
0.0000000001
 12
1.0
 22
0.0
 32
0.0
 13
1.0
 23
0.0
 33
0.0
 40
0.0
 40
0.0
 40
0.0
 40
0.0
 40
1.0
 40
1.0
 40
1.0
 40
2.0
 40
2.0
 40
2.0
 40
3.0
 40
3.0
 40
3.0
 40
4.0
 40
4.0
 40
4.0
 40
4.0
 10
81.87044207797769
 20
-108.8057683061319
 30
0.0
 10
81.87044207797769
 20
-108.7506291394791
 30
0.0
 10
81.82567457911979
 20
-108.7058616394903
 30
0.0
 10
81.77053541385985
 20
-108.7058616394903
 30
0.0
 10
81.715078748608
 20
-108.7058616394903
 30
0.0
 10
81.67027597197323
 20
-108.7506291394791
 30
0.0
 10
81.67027597197323
 20
-108.8057683061319
 30
0.0
 10
81.67027597197323
 20
-108.8608721950071
 30
0.0
 10
81.715078748608
 20
-108.9056749727735
 30
0.0
 10
81.77053541385985
 20
-108.9056749727735
 30
0.0
 10
81.82567457911979
 20
-108.9056749727735
 30
0.0
 10
81.87044207797769
 20
-108.8608721950071
 30
0.0
 10
81.87044207797769
 20
-108.8057683061319
 30
0.0
  0
SPLINE
  5
8C
330
1F
100
AcDbEntity
  8
_U+30EC_U+30A4_U+30E4_U+30FC 1
 62
   179
420
  2234388
370
     9
100
AcDbSpline
210
0.0
220
0.0
230
1.0
 70
    11
 71
     3
 72
    17
 73
    13
 74
     0
 42
0.0000000001
 43
0.0000000001
 12
1.0
 22
0.0
 32
0.0
 13
1.0
 23
0.0
 33
0.0
 40
0.0
 40
0.0
 40
0.0
 40
0.0
 40
1.0
 40
1.0
 40
1.0
 40
2.0
 40
2.0
 40
2.0
 40
3.0
 40
3.0
 40
3.0
 40
4.0
 40
4.0
 40
4.0
 40
4.0
 10
101.8704368455131
 20
-108.8057683061319
 30
0.0
 10
101.8704368455131
 20
-108.7506291394791
 30
0.0
 10
101.8256340688783
 20
-108.7058616394903
 30
0.0
 10
101.7705301813952
 20
-108.7058616394903
 30
0.0
 10
101.7153910161353
 20
-108.7058616394903
 30
0.0
 10
101.6706235172774
 20
-108.7506291394791
 30
0.0
 10
101.6706235172774
 20
-108.8057683061319
 30
0.0
 10
101.6706235172774
 20
-108.8608721950071
 30
0.0
 10
101.7153910161353
 20
-108.9056749727735
 30
0.0
 10
101.7705301813952
 20
-108.9056749727735
 30
0.0
 10
101.8256340688783
 20
-108.9056749727735
 30
0.0
 10
101.8704368455131
 20
-108.8608721950071
 30
0.0
 10
101.8704368455131
 20
-108.8057683061319
 30
0.0
  0
SPLINE
  5
8D
330
1F
100
AcDbEntity
  8
_U+30EC_U+30A4_U+30E4_U+30FC 1
 62
   179
420
  2234388
370
     9
100
AcDbSpline
210
0.0
220
0.0
230
1.0
 70
    11
 71
     3
 72
    17
 73
    13
 74
     0
 42
0.0000000001
 43
0.0000000001
 12
1.0
 22
0.0
 32
0.0
 13
1.0
 23
0.0
 33
0.0
 40
0.0
 40
0.0
 40
0.0
 40
0.0
 40
1.0
 40
1.0
 40
1.0
 40
2.0
 40
2.0
 40
2.0
 40
3.0
 40
3.0
 40
3.0
 40
4.0
 40
4.0
 40
4.0
 40
4.0
 10
112.5733262946818
 20
-112.8058449717987
 30
0.0
 10
112.5733262946818
 20
-112.7503883051457
 30
0.0
 10
112.5285235180471
 20
-112.7056208051568
 30
0.0
 10
112.473419630564
 20
-112.7056208051568
 30
0.0
 10
112.4182833052285
 20
-112.7056208051568
 30
0.0
 10
112.3735129664462
 20
-112.7503883051457
 30
0.0
 10
112.3735129664462
 20
-112.8058449717987
 30
0.0
 10
112.3735129664462
 20
-112.8609841384515
 30
0.0
 10
112.4182833052285
 20
-112.9057869162178
 30
0.0
 10
112.473419630564
 20
-112.9057869162178
 30
0.0
 10
112.5285235180471
 20
-112.9057869162178
 30
0.0
 10
112.5733262946818
 20
-112.8609841384515
 30
0.0
 10
112.5733262946818
 20
-112.8058449717987
 30
0.0
  0
SPLINE
  5
8E
330
1F
100
AcDbEntity
  8
_U+30EC_U+30A4_U+30E4_U+30FC 1
 62
   179
420
  2234388
370
     9
100
AcDbSpline
210
0.0
220
0.0
230
1.0
 70
    11
 71
     3
 72
    17
 73
    13
 74
     0
 42
0.0000000001
 43
0.0000000001
 12
1.0
 22
0.0
 32
0.0
 13
1.0
 23
0.0
 33
0.0
 40
0.0
 40
0.0
 40
0.0
 40
0.0
 40
1.0
 40
1.0
 40
1.0
 40
2.0
 40
2.0
 40
2.0
 40
3.0
 40
3.0
 40
3.0
 40
4.0
 40
4.0
 40
4.0
 40
4.0
 10
112.5733262946818
 20
-132.8056638556876
 30
0.0
 10
112.5733262946818
 20
-132.7505599668127
 30
0.0
 10
112.5285235180471
 20
-132.705757189046
 30
0.0
 10
112.473419630564
 20
-132.705757189046
 30
0.0
 10
112.4182833052285
 20
-132.705757189046
 30
0.0
 10
112.3735129664462
 20
-132.7505599668127
 30
0.0
 10
112.3735129664462
 20
-132.8056638556876
 30
0.0
 10
112.3735129664462
 20
-132.8608030223407
 30
0.0
 10
112.4182833052285
 20
-132.9055705223292
 30
0.0
 10
112.473419630564
 20
-132.9055705223292
 30
0.0
 10
112.5285235180471
 20
-132.9055705223292
 30
0.0
 10
112.5733262946818
 20
-132.8608030223407
 30
0.0
 10
112.5733262946818
 20
-132.8056638556876
 30
0.0
  0
SPLINE
  5
8F
330
1F
100
AcDbEntity
  8
_U+30EC_U+30A4_U+30E4_U+30FC 1
 62
   179
420
  2234388
370
     9
100
AcDbSpline
210
0.0
220
0.0
230
1.0
 70
    11
 71
     3
 72
    17
 73
    13
 74
     0
 42
0.0000000001
 43
0.0000000001
 12
1.0
 22
0.0
 32
0.0
 13
1.0
 23
0.0
 33
0.0
 40
0.0
 40
0.0
 40
0.0
 40
0.0
 40
1.0
 40
1.0
 40
1.0
 40
2.0
 40
2.0
 40
2.0
 40
3.0
 40
3.0
 40
3.0
 40
4.0
 40
4.0
 40
4.0
 40
4.0
 10
112.5733262946818
 20
-133.8057888554373
 30
0.0
 10
112.5733262946818
 20
-133.7503321887846
 30
0.0
 10
112.5285235180471
 20
-133.7058821887956
 30
0.0
 10
112.473419630564
 20
-133.7058821887956
 30
0.0
 10
112.4182833052285
 20
-133.7058821887956
 30
0.0
 10
112.3735129664462
 20
-133.7503321887846
 30
0.0
 10
112.3735129664462
 20
-133.8057888554373
 30
0.0
 10
112.3735129664462
 20
-133.8612455220899
 30
0.0
 10
112.4182833052285
 20
-133.9060482998566
 30
0.0
 10
112.473419630564
 20
-133.9060482998566
 30
0.0
 10
112.5285235180471
 20
-133.9060482998566
 30
0.0
 10
112.5733262946818
 20
-133.8612455220899
 30
0.0
 10
112.5733262946818
 20
-133.8057888554373
 30
0.0
  0
SPLINE
  5
90
330
1F
100
AcDbEntity
  8
_U+30EC_U+30A4_U+30E4_U+30FC 1
 62
   179
420
  2234388
370
     9
100
AcDbSpline
210
0.0
220
0.0
230
1.0
 70
    11
 71
     3
 72
    17
 73
    13
 74
     0
 42
0.0000000001
 43
0.0000000001
 12
1.0
 22
0.0
 32
0.0
 13
1.0
 23
0.0
 33
0.0
 40
0.0
 40
0.0
 40
0.0
 40
0.0
 40
1.0
 40
1.0
 40
1.0
 40
2.0
 40
2.0
 40
2.0
 40
3.0
 40
3.0
 40
3.0
 40
4.0
 40
4.0
 40
4.0
 40
4.0
 10
112.5733262946818
 20
-146.8058616299649
 30
0.0
 10
112.5733262946818
 20
-146.7504049633123
 30
0.0
 10
112.5285235180471
 20
-146.7059549633233
 30
0.0
 10
112.473419630564
 20
-146.7059549633233
 30
0.0
 10
112.4182833052285
 20
-146.7059549633233
 30
0.0
 10
112.3735129664462
 20
-146.7504049633123
 30
0.0
 10
112.3735129664462
 20
-146.8058616299649
 30
0.0
 10
112.3735129664462
 20
-146.8609655188405
 30
0.0
 10
112.4182833052285
 20
-146.9057682966072
 30
0.0
 10
112.473419630564
 20
-146.9057682966072
 30
0.0
 10
112.5285235180471
 20
-146.9057682966072
 30
0.0
 10
112.5733262946818
 20
-146.8609655188405
 30
0.0
 10
112.5733262946818
 20
-146.8058616299649
 30
0.0
  0
SPLINE
  5
91
330
1F
100
AcDbEntity
  8
_U+30EC_U+30A4_U+30E4_U+30FC 1
 62
   179
420
  2234388
370
     9
100
AcDbSpline
210
0.0
220
0.0
230
1.0
 70
    11
 71
     3
 72
    17
 73
    13
 74
     0
 42
0.0000000001
 43
0.0000000001
 12
1.0
 22
0.0
 32
0.0
 13
1.0
 23
0.0
 33
0.0
 40
0.0
 40
0.0
 40
0.0
 40
0.0
 40
1.0
 40
1.0
 40
1.0
 40
2.0
 40
2.0
 40
2.0
 40
3.0
 40
3.0
 40
3.0
 40
4.0
 40
4.0
 40
4.0
 40
4.0
 10
103.7814340189817
 20
-150.805938295632
 30
0.0
 10
103.7814340189817
 20
-150.7504816289787
 30
0.0
 10
103.7366312423469
 20
-150.7057141289902
 30
0.0
 10
103.6815273548639
 20
-150.7057141289902
 30
0.0
 10
103.6263881896039
 20
-150.7057141289902
 30
0.0
 10
103.581620690746
 20
-150.7504816289787
 30
0.0
 10
103.581620690746
 20
-150.805938295632
 30
0.0
 10
103.581620690746
 20
-150.8610774622845
 30
0.0
 10
103.6263881896039
 20
-150.9058449622737
 30
0.0
 10
103.6815273548639
 20
-150.9058449622737
 30
0.0
 10
103.7366312423469
 20
-150.9058449622737
 30
0.0
 10
103.7814340189817
 20
-150.8610774622845
 30
0.0
 10
103.7814340189817
 20
-150.805938295632
 30
0.0
  0
SPLINE
  5
92
330
1F
100
AcDbEntity
  8
_U+30EC_U+30A4_U+30E4_U+30FC 1
 62
   179
420
  2234388
370
     9
100
AcDbSpline
210
0.0
220
0.0
230
1.0
 70
    11
 71
     3
 72
    17
 73
    13
 74
     0
 42
0.0000000001
 43
0.0000000001
 12
1.0
 22
0.0
 32
0.0
 13
1.0
 23
0.0
 33
0.0
 40
0.0
 40
0.0
 40
0.0
 40
0.0
 40
1.0
 40
1.0
 40
1.0
 40
2.0
 40
2.0
 40
2.0
 40
3.0
 40
3.0
 40
3.0
 40
4.0
 40
4.0
 40
4.0
 40
4.0
 10
87.78119831607061
 20
-150.805938295632
 30
0.0
 10
87.78119831607061
 20
-150.7504816289787
 30
0.0
 10
87.73643081721272
 20
-150.7057141289902
 30
0.0
 10
87.68129165195278
 20
-150.7057141289902
 30
0.0
 10
87.6261877644697
 20
-150.7057141289902
 30
0.0
 10
87.58138498783494
 20
-150.7504816289787
 30
0.0
 10
87.58138498783494
 20
-150.805938295632
 30
0.0
 10
87.58138498783494
 20
-150.8610774622845
 30
0.0
 10
87.6261877644697
 20
-150.9058449622737
 30
0.0
 10
87.68129165195278
 20
-150.9058449622737
 30
0.0
 10
87.73643081721272
 20
-150.9058449622737
 30
0.0
 10
87.78119831607061
 20
-150.8610774622845
 30
0.0
 10
87.78119831607061
 20
-150.805938295632
 30
0.0
  0
POLYLINE
  5
93
330
1F
100
AcDbEntity
  8
_U+30EC_U+30A4_U+30E4_U+30FC 1
 62
   179
420
  2234388
370
     9
100
AcDb2dPolyline
 66
     1
 10
0.0
 20
0.0
 30
0.0
  0
VERTEX
  5
94
330
93
100
AcDbEntity
  8
_U+30EC_U+30A4_U+30E4_U+30FC 1
 62
   179
420
  2234388
370
     9
100
AcDbVertex
100
AcDb2dVertex
 10
81.77053541385985
 20
-108.8057683061319
 30
0.0
  0
VERTEX
  5
95
330
93
100
AcDbEntity
  8
_U+30EC_U+30A4_U+30E4_U+30FC 1
 62
   179
420
  2234388
370
     9
100
AcDbVertex
100
AcDb2dVertex
 10
101.7705301813952
 20
-108.8057683061319
 30
0.0
  0
SEQEND
  5
96
330
93
100
AcDbEntity
  8
_U+30EC_U+30A4_U+30E4_U+30FC 1
 62
   179
420
  2234388
370
     9
  0
POLYLINE
  5
97
330
1F
100
AcDbEntity
  8
_U+30EC_U+30A4_U+30E4_U+30FC 1
 62
   179
420
  2234388
370
     9
100
AcDb2dPolyline
 66
     1
 10
0.0
 20
0.0
 30
0.0
  0
VERTEX
  5
98
330
97
100
AcDbEntity
  8
_U+30EC_U+30A4_U+30E4_U+30FC 1
 62
   179
420
  2234388
370
     9
100
AcDbVertex
100
AcDb2dVertex
 10
81.77053541385985
 20
-110.7660133056418
 30
0.0
  0
VERTEX
  5
99
330
97
100
AcDbEntity
  8
_U+30EC_U+30A4_U+30E4_U+30FC 1
 62
   179
420
  2234388
370
     9
100
AcDbVertex
100
AcDb2dVertex
 10
81.77053541385985
 20
-107.8059960841597
 30
0.0
  0
SEQEND
  5
9A
330
97
100
AcDbEntity
  8
_U+30EC_U+30A4_U+30E4_U+30FC 1
 62
   179
420
  2234388
370
     9
  0
POLYLINE
  5
9B
330
1F
100
AcDbEntity
  8
_U+30EC_U+30A4_U+30E4_U+30FC 1
 62
   179
420
  2234388
370
     9
100
AcDb2dPolyline
 66
     1
 10
0.0
 20
0.0
 30
0.0
  0
VERTEX
  5
9C
330
9B
100
AcDbEntity
  8
_U+30EC_U+30A4_U+30E4_U+30FC 1
 62
   179
420
  2234388
370
     9
100
AcDbVertex
100
AcDb2dVertex
 10
101.7705301813952
 20
-130.765832189531
 30
0.0
  0
VERTEX
  5
9D
330
9B
100
AcDbEntity
  8
_U+30EC_U+30A4_U+30E4_U+30FC 1
 62
   179
420
  2234388
370
     9
100
AcDbVertex
100
AcDb2dVertex
 10
101.7705301813952
 20
-107.8059960841597
 30
0.0
  0
SEQEND
  5
9E
330
9B
100
AcDbEntity
  8
_U+30EC_U+30A4_U+30E4_U+30FC 1
 62
   179
420
  2234388
370
     9
  0
POLYLINE
  5
9F
330
1F
100
AcDbEntity
  8
_U+30EC_U+30A4_U+30E4_U+30FC 1
 62
   179
420
  2234388
370
     9
100
AcDb2dPolyline
 66
     1
 10
0.0
 20
0.0
 30
0.0
  0
VERTEX
  5
A0
330
9F
100
AcDbEntity
  8
_U+30EC_U+30A4_U+30E4_U+30FC 1
 62
   179
420
  2234388
370
     9
100
AcDbVertex
100
AcDb2dVertex
 10
112.473419630564
 20
-112.8058449717987
 30
0.0
  0
VERTEX
  5
A1
330
9F
100
AcDbEntity
  8
_U+30EC_U+30A4_U+30E4_U+30FC 1
 62
   179
420
  2234388
370
     9
100
AcDbVertex
100
AcDb2dVertex
 10
112.473419630564
 20
-132.8056638556876
 30
0.0
  0
SEQEND
  5
A2
330
9F
100
AcDbEntity
  8
_U+30EC_U+30A4_U+30E4_U+30FC 1
 62
   179
420
  2234388
370
     9
  0
POLYLINE
  5
A3
330
1F
100
AcDbEntity
  8
_U+30EC_U+30A4_U+30E4_U+30FC 1
 62
   179
420
  2234388
370
     9
100
AcDb2dPolyline
 66
     1
 10
0.0
 20
0.0
 30
0.0
  0
VERTEX
  5
A4
330
A3
100
AcDbEntity
  8
_U+30EC_U+30A4_U+30E4_U+30FC 1
 62
   179
420
  2234388
370
     9
100
AcDbVertex
100
AcDb2dVertex
 10
90.51317991303863
 20
-112.8058449717987
 30
0.0
  0
VERTEX
  5
A5
330
A3
100
AcDbEntity
  8
_U+30EC_U+30A4_U+30E4_U+30FC 1
 62
   179
420
  2234388
370
     9
100
AcDbVertex
100
AcDb2dVertex
 10
113.4735093272718
 20
-112.8058449717987
 30
0.0
  0
SEQEND
  5
A6
330
A3
100
AcDbEntity
  8
_U+30EC_U+30A4_U+30E4_U+30FC 1
 62
   179
420
  2234388
370
     9
  0
POLYLINE
  5
A7
330
1F
100
AcDbEntity
  8
_U+30EC_U+30A4_U+30E4_U+30FC 1
 62
   179
420
  2234388
370
     9
100
AcDb2dPolyline
 66
     1
 10
0.0
 20
0.0
 30
0.0
  0
VERTEX
  5
A8
330
A7
100
AcDbEntity
  8
_U+30EC_U+30A4_U+30E4_U+30FC 1
 62
   179
420
  2234388
370
     9
100
AcDbVertex
100
AcDb2dVertex
 10
110.5134921805659
 20
-132.8056638556876
 30
0.0
  0
VERTEX
  5
A9
330
A7
100
AcDbEntity
  8
_U+30EC_U+30A4_U+30E4_U+30FC 1
 62
   179
420
  2234388
370
     9
100
AcDbVertex
100
AcDb2dVertex
 10
113.4735093272718
 20
-132.8056638556876
 30
0.0
  0
SEQEND
  5
AA
330
A7
100
AcDbEntity
  8
_U+30EC_U+30A4_U+30E4_U+30FC 1
 62
   179
420
  2234388
370
     9
  0
POLYLINE
  5
AB
330
1F
100
AcDbEntity
  8
_U+30EC_U+30A4_U+30E4_U+30FC 1
 62
   179
420
  2234388
370
     9
100
AcDb2dPolyline
 66
     1
 10
0.0
 20
0.0
 30
0.0
  0
VERTEX
  5
AC
330
AB
100
AcDbEntity
  8
_U+30EC_U+30A4_U+30E4_U+30FC 1
 62
   179
420
  2234388
370
     9
100
AcDbVertex
100
AcDb2dVertex
 10
87.68129165195278
 20
-150.805938295632
 30
0.0
  0
VERTEX
  5
AD
330
AB
100
AcDbEntity
  8
_U+30EC_U+30A4_U+30E4_U+30FC 1
 62
   179
420
  2234388
370
     9
100
AcDbVertex
100
AcDb2dVertex
 10
103.6815273548639
 20
-150.805938295632
 30
0.0
  0
SEQEND
  5
AE
330
AB
100
AcDbEntity
  8
_U+30EC_U+30A4_U+30E4_U+30FC 1
 62
   179
420
  2234388
370
     9
  0
POLYLINE
  5
AF
330
1F
100
AcDbEntity
  8
_U+30EC_U+30A4_U+30E4_U+30FC 1
 62
   179
420
  2234388
370
     9
100
AcDb2dPolyline
 66
     1
 10
0.0
 20
0.0
 30
0.0
  0
VERTEX
  5
B0
330
AF
100
AcDbEntity
  8
_U+30EC_U+30A4_U+30E4_U+30FC 1
 62
   179
420
  2234388
370
     9
100
AcDbVertex
100
AcDb2dVertex
 10
87.68129165195278
 20
-148.8456932961222
 30
0.0
  0
VERTEX
  5
B1
330
AF
100
AcDbEntity
  8
_U+30EC_U+30A4_U+30E4_U+30FC 1
 62
   179
420
  2234388
370
     9
100
AcDbVertex
100
AcDb2dVertex
 10
87.68129165195278
 20
-151.8067688509372
 30
0.0
  0
SEQEND
  5
B2
330
AF
100
AcDbEntity
  8
_U+30EC_U+30A4_U+30E4_U+30FC 1
 62
   179
420
  2234388
370
     9
  0
POLYLINE
  5
B3
330
1F
100
AcDbEntity
  8
_U+30EC_U+30A4_U+30E4_U+30FC 1
 62
   179
420
  2234388
370
     9
100
AcDb2dPolyline
 66
     1
 10
0.0
 20
0.0
 30
0.0
  0
VERTEX
  5
B4
330
B3
100
AcDbEntity
  8
_U+30EC_U+30A4_U+30E4_U+30FC 1
 62
   179
420
  2234388
370
     9
100
AcDbVertex
100
AcDb2dVertex
 10
103.6815273548639
 20
-149.3459321848859
 30
0.0
  0
VERTEX
  5
B5
330
B3
100
AcDbEntity
  8
_U+30EC_U+30A4_U+30E4_U+30FC 1
 62
   179
420
  2234388
370
     9
100
AcDbVertex
100
AcDb2dVertex
 10
103.6815273548639
 20
-151.8067688509372
 30
0.0
  0
SEQEND
  5
B6
330
B3
100
AcDbEntity
  8
_U+30EC_U+30A4_U+30E4_U+30FC 1
 62
   179
420
  2234388
370
     9
  0
POLYLINE
  5
B7
330
1F
100
AcDbEntity
  8
_U+30EC_U+30A4_U+30E4_U+30FC 1
 62
   179
420
  2234388
370
     9
100
AcDb2dPolyline
 66
     1
 10
0.0
 20
0.0
 30
0.0
  0
VERTEX
  5
B8
330
B7
100
AcDbEntity
  8
_U+30EC_U+30A4_U+30E4_U+30FC 1
 62
   179
420
  2234388
370
     9
100
AcDbVertex
100
AcDb2dVertex
 10
112.473419630564
 20
-146.8058616299649
 30
0.0
  0
VERTEX
  5
B9
330
B7
100
AcDbEntity
  8
_U+30EC_U+30A4_U+30E4_U+30FC 1
 62
   179
420
  2234388
370
     9
100
AcDbVertex
100
AcDb2dVertex
 10
112.473419630564
 20
-133.8057888554373
 30
0.0
  0
SEQEND
  5
BA
330
B7
100
AcDbEntity
  8
_U+30EC_U+30A4_U+30E4_U+30FC 1
 62
   179
420
  2234388
370
     9
  0
POLYLINE
  5
BB
330
1F
100
AcDbEntity
  8
_U+30EC_U+30A4_U+30E4_U+30FC 1
 62
   179
420
  2234388
370
     9
100
AcDb2dPolyline
 66
     1
 10
0.0
 20
0.0
 30
0.0
  0
VERTEX
  5
BC
330
BB
100
AcDbEntity
  8
_U+30EC_U+30A4_U+30E4_U+30FC 1
 62
   179
420
  2234388
370
     9
100
AcDbVertex
100
AcDb2dVertex
 10
109.0134811077233
 20
-146.8058616299649
 30
0.0
  0
VERTEX
  5
BD
330
BB
100
AcDbEntity
  8
_U+30EC_U+30A4_U+30E4_U+30FC 1
 62
   179
420
  2234388
370
     9
100
AcDbVertex
100
AcDb2dVertex
 10
113.4735093272718
 20
-146.8058616299649
 30
0.0
  0
SEQEND
  5
BE
330
BB
100
AcDbEntity
  8
_U+30EC_U+30A4_U+30E4_U+30FC 1
 62
   179
420
  2234388
370
     9
  0
POLYLINE
  5
BF
330
1F
100
AcDbEntity
  8
_U+30EC_U+30A4_U+30E4_U+30FC 1
 62
   179
420
  2234388
370
     9
100
AcDb2dPolyline
 66
     1
 10
0.0
 20
0.0
 30
0.0
  0
VERTEX
  5
C0
330
BF
100
AcDbEntity
  8
_U+30EC_U+30A4_U+30E4_U+30FC 1
 62
   179
420
  2234388
370
     9
100
AcDbVertex
100
AcDb2dVertex
 10
110.5134921805659
 20
-133.8057888554373
 30
0.0
  0
VERTEX
  5
C1
330
BF
100
AcDbEntity
  8
_U+30EC_U+30A4_U+30E4_U+30FC 1
 62
   179
420
  2234388
370
     9
100
AcDbVertex
100
AcDb2dVertex
 10
113.4735093272718
 20
-133.8057888554373
 30
0.0
  0
SEQEND
  5
C2
330
BF
100
AcDbEntity
  8
_U+30EC_U+30A4_U+30E4_U+30FC 1
 62
   179
420
  2234388
370
     9
  0
ENDSEC
  0
SECTION
  2
OBJECTS
  0
DICTIONARY
  5
C
330
0
100
AcDbDictionary
281
     1
  3
ACAD_GROUP
350
D
  3
ACAD_LAYOUT
350
1A
  3
ACAD_MATERIAL
350
3B
  3
ACAD_MLEADERSTYLE
350
C4
  3
ACAD_MLINESTYLE
350
17
  3
ACAD_PLOTSETTINGS
350
19
  3
ACAD_PLOTSTYLENAME
350
E
  3
ACAD_TABLESTYLE
350
C3
  3
ACAD_VISUALSTYLE
350
2A
  0
SUN
  5
3F
330
29
100
AcDbSun
 90
        1
290
     0
 63
     7
421
 16777215
 40
1.0
291
     1
 91
  2455826
 92
 54000000
292
     0
 70
     2
 71
   256
280
     1
  0
DICTIONARY
  5
D
102
{ACAD_REACTORS
330
C
102
}
330
C
100
AcDbDictionary
281
     1
  0
DICTIONARY
  5
1A
102
{ACAD_REACTORS
330
C
102
}
330
C
100
AcDbDictionary
281
     1
  3
Layout1
350
1E
  3
Layout2
350
26
  3
Model
350
22
  0
DICTIONARY
  5
3B
102
{ACAD_REACTORS
330
C
102
}
330
C
100
AcDbDictionary
281
     1
  3
ByBlock
350
3D
  3
ByLayer
350
3C
  3
Global
350
3E
  0
DICTIONARY
  5
C4
102
{ACAD_REACTORS
330
C
102
}
330
C
100
AcDbDictionary
281
     1
  0
DICTIONARY
  5
17
102
{ACAD_REACTORS
330
C
102
}
330
C
100
AcDbDictionary
281
     1
  3
Standard
350
18
  0
DICTIONARY
  5
19
102
{ACAD_REACTORS
330
C
102
}
330
C
100
AcDbDictionary
281
     1
  0
ACDBDICTIONARYWDFLT
  5
E
102
{ACAD_REACTORS
330
C
102
}
330
C
100
AcDbDictionary
281
     1
  3
Normal
350
F
100
AcDbDictionaryWithDefault
340
F
  0
DICTIONARY
  5
C3
102
{ACAD_REACTORS
330
C
102
}
330
C
100
AcDbDictionary
281
     1
  0
DICTIONARY
  5
2A
102
{ACAD_REACTORS
330
C
102
}
330
C
100
AcDbDictionary
281
     1
  3
2dWireframe
350
2F
  3
3D Hidden
350
31
  3
3dWireframe
350
30
  3
Basic
350
32
  3
Brighten
350
36
  3
ColorChange
350
3A
  3
Conceptual
350
34
  3
Dim
350
35
  3
Facepattern
350
39
  3
Flat
350
2B
  3
FlatWithEdges
350
2C
  3
Gouraud
350
2D
  3
GouraudWithEdges
350
2E
  3
Linepattern
350
38
  3
Realistic
350
33
  3
Thicken
350
37
  0
LAYOUT
  5
1E
102
{ACAD_REACTORS
330
1A
102
}
330
1A
100
AcDbPlotSettings
  1

  2
none_device
  4

  6

 40
0.0
 41
0.0
 42
0.0
 43
0.0
 44
0.0
 45
0.0
 46
0.0
 47
0.0
 48
0.0
 49
0.0
140
0.0
141
0.0
142
1.0
143
1.0
 70
   688
 72
     0
 73
     0
 74
     5
  7

 75
    16
 76
     0
 77
     2
 78
   300
147
1.0
148
0.0
149
0.0
100
AcDbLayout
  1
Layout1
 70
     1
 71
     1
 10
0.0
 20
0.0
 11
12.0
 21
9.0
 12
0.0
 22
0.0
 32
0.0
 14
1.000000000000000E+20
 24
1.000000000000000E+20
 34
1.000000000000000E+20
 15
-1.000000000000000E+20
 25
-1.000000000000000E+20
 35
-1.000000000000000E+20
146
0.0
 13
0.0
 23
0.0
 33
0.0
 16
1.0
 26
0.0
 36
0.0
 17
0.0
 27
1.0
 37
0.0
 76
     0
330
1B
  0
LAYOUT
  5
26
102
{ACAD_REACTORS
330
1A
102
}
330
1A
100
AcDbPlotSettings
  1

  2
none_device
  4

  6

 40
0.0
 41
0.0
 42
0.0
 43
0.0
 44
0.0
 45
0.0
 46
0.0
 47
0.0
 48
0.0
 49
0.0
140
0.0
141
0.0
142
1.0
143
1.0
 70
   688
 72
     0
 73
     0
 74
     5
  7

 75
    16
 76
     0
 77
     2
 78
   300
147
1.0
148
0.0
149
0.0
100
AcDbLayout
  1
Layout2
 70
     1
 71
     2
 10
0.0
 20
0.0
 11
0.0
 21
0.0
 12
0.0
 22
0.0
 32
0.0
 14
0.0
 24
0.0
 34
0.0
 15
0.0
 25
0.0
 35
0.0
146
0.0
 13
0.0
 23
0.0
 33
0.0
 16
1.0
 26
0.0
 36
0.0
 17
0.0
 27
1.0
 37
0.0
 76
     0
330
23
  0
LAYOUT
  5
22
102
{ACAD_REACTORS
330
1A
102
}
330
1A
100
AcDbPlotSettings
  1

  2
none_device
  4

  6

 40
0.0
 41
0.0
 42
0.0
 43
0.0
 44
0.0
 45
0.0
 46
0.0
 47
0.0
 48
0.0
 49
0.0
140
0.0
141
0.0
142
1.0
143
1.0
 70
  1712
 72
     0
 73
     0
 74
     0
  7

 75
     0
 76
     0
 77
     2
 78
   300
147
1.0
148
0.0
149
0.0
100
AcDbLayout
  1
Model
 70
     1
 71
     0
 10
0.0
 20
0.0
 11
12.0
 21
9.0
 12
0.0
 22
0.0
 32
0.0
 14
1.000000000000000E+20
 24
1.000000000000000E+20
 34
1.000000000000000E+20
 15
-1.000000000000000E+20
 25
-1.000000000000000E+20
 35
-1.000000000000000E+20
146
0.0
 13
0.0
 23
0.0
 33
0.0
 16
1.0
 26
0.0
 36
0.0
 17
0.0
 27
1.0
 37
0.0
 76
     0
330
1F
331
29
  0
MATERIAL
  5
3D
102
{ACAD_REACTORS
330
3B
102
}
330
3B
100
AcDbMaterial
  1
ByBlock
 72
     1
 94
      127
  0
MATERIAL
  5
3C
102
{ACAD_REACTORS
330
3B
102
}
330
3B
100
AcDbMaterial
  1
ByLayer
 72
     1
 94
      127
  0
MATERIAL
  5
3E
102
{ACAD_REACTORS
330
3B
102
}
330
3B
100
AcDbMaterial
  1
Global
 72
     1
 94
      127
  0
MLINESTYLE
  5
18
102
{ACAD_REACTORS
330
17
102
}
330
17
100
AcDbMlineStyle
  2
Standard
 70
     0
  3

 62
   256
 51
90.0
 52
90.0
 71
     2
 49
0.5
 62
   256
  6
BYLAYER
 49
-0.5
 62
   256
  6
BYLAYER
  0
ACDBPLACEHOLDER
  5
F
102
{ACAD_REACTORS
330
E
102
}
330
E
  0
VISUALSTYLE
  5
2F
102
{ACAD_REACTORS
330
2A
102
}
330
2A
100
AcDbVisualStyle
  2
2dWireframe
 70
     4
177
     2
291
     0
 71
     0
176
     1
 72
     2
176
     1
 73
     0
176
     1
 90
        0
176
     1
 40
-0.6
176
     1
 41
-30.0
176
     1
 62
     5
 63
     7
421
 16777215
176
     1
 74
     1
176
     1
 91
        4
176
     1
 64
     7
176
     1
 65
   257
176
     1
 75
     1
176
     1
175
     1
176
     1
 42
1.0
176
     1
 92
        0
176
     1
 66
   257
176
     1
 43
1.0
176
     1
 76
     1
176
     1
 77
     6
176
     1
 78
     2
176
     1
 67
     7
176
     1
 79
     5
176
     1
170
     0
176
     1
171
     0
176
     1
290
     0
176
     1
 93
        1
176
     1
 44
0.0
176
     1
173
     0
176
     1
  0
VISUALSTYLE
  5
31
102
{ACAD_REACTORS
330
2A
102
}
330
2A
100
AcDbVisualStyle
  2
3D Hidden
 70
     6
177
     2
291
     0
 71
     1
176
     1
 72
     2
176
     1
 73
     2
176
     1
 90
        0
176
     1
 40
-0.6
176
     1
 41
-30.0
176
     1
 62
     5
 63
     7
421
 16777215
176
     1
 74
     2
176
     1
 91
        2
176
     1
 64
     7
176
     1
 65
   257
176
     1
 75
     2
176
     1
175
     1
176
     1
 42
40.0
176
     1
 92
        0
176
     1
 66
   257
176
     1
 43
1.0
176
     1
 76
     1
176
     1
 77
     6
176
     1
 78
     2
176
     1
 67
     7
176
     1
 79
     3
176
     1
170
     0
176
     1
171
     0
176
     1
290
     0
176
     1
 93
        1
176
     1
 44
0.0
176
     1
173
     0
176
     1
  0
VISUALSTYLE
  5
30
102
{ACAD_REACTORS
330
2A
102
}
330
2A
100
AcDbVisualStyle
  2
3dWireframe
 70
     5
177
     2
291
     0
 71
     0
176
     1
 72
     2
176
     1
 73
     0
176
     1
 90
        0
176
     1
 40
-0.6
176
     1
 41
-30.0
176
     1
 62
     5
 63
     7
421
 16777215
176
     1
 74
     1
176
     1
 91
        4
176
     1
 64
     7
176
     1
 65
   257
176
     1
 75
     1
176
     1
175
     1
176
     1
 42
1.0
176
     1
 92
        0
176
     1
 66
   257
176
     1
 43
1.0
176
     1
 76
     1
176
     1
 77
     6
176
     1
 78
     2
176
     1
 67
     7
176
     1
 79
     5
176
     1
170
     0
176
     1
171
     0
176
     1
290
     0
176
     1
 93
        1
176
     1
 44
0.0
176
     1
173
     0
176
     1
  0
VISUALSTYLE
  5
32
102
{ACAD_REACTORS
330
2A
102
}
330
2A
100
AcDbVisualStyle
  2
Basic
 70
     7
177
     2
291
     1
 71
     1
176
     1
 72
     0
176
     1
 73
     1
176
     1
 90
        0
176
     1
 40
-0.6
176
     1
 41
-30.0
176
     1
 62
     5
 63
     7
421
 16777215
176
     1
 74
     0
176
     1
 91
        4
176
     1
 64
     7
176
     1
 65
   257
176
     1
 75
     1
176
     1
175
     1
176
     1
 42
1.0
176
     1
 92
        8
176
     1
 66
     7
176
     1
 43
1.0
176
     1
 76
     1
176
     1
 77
     6
176
     1
 78
     2
176
     1
 67
     7
176
     1
 79
     5
176
     1
170
     0
176
     1
171
     0
176
     1
290
     0
176
     1
 93
        1
176
     1
 44
0.0
176
     1
173
     0
176
     1
  0
VISUALSTYLE
  5
36
102
{ACAD_REACTORS
330
2A
102
}
330
2A
100
AcDbVisualStyle
  2
Brighten
 70
    12
177
     2
291
     1
 71
     2
176
     1
 72
     2
176
     1
 73
     0
176
     1
 90
        0
176
     1
 40
-0.6
176
     1
 41
-30.0
176
     1
 62
     5
 63
     7
421
 16777215
176
     1
 74
     1
176
     1
 91
        4
176
     1
 64
     7
176
     1
 65
   257
176
     1
 75
     1
176
     1
175
     1
176
     1
 42
1.0
176
     1
 92
        8
176
     1
 66
     7
176
     1
 43
1.0
176
     1
 76
     1
176
     1
 77
     6
176
     1
 78
     2
176
     1
 67
     7
176
     1
 79
     5
176
     1
170
     0
176
     1
171
     0
176
     1
290
     0
176
     1
 93
        1
176
     1
 44
50.0
176
     1
173
     0
176
     1
  0
VISUALSTYLE
  5
3A
102
{ACAD_REACTORS
330
2A
102
}
330
2A
100
AcDbVisualStyle
  2
ColorChange
 70
    16
177
     2
291
     1
 71
     2
176
     1
 72
     2
176
     1
 73
     3
176
     1
 90
        0
176
     1
 40
-0.6
176
     1
 41
-30.0
176
     1
 62
     5
 63
     8
421
  8421504
176
     1
 74
     1
176
     1
 91
        4
176
     1
 64
     7
176
     1
 65
   257
176
     1
 75
     1
176
     1
175
     1
176
     1
 42
1.0
176
     1
 92
        8
176
     1
 66
     8
424
  8421504
176
     1
 43
1.0
176
     1
 76
     1
176
     1
 77
     6
176
     1
 78
     2
176
     1
 67
     7
176
     1
 79
     5
176
     1
170
     0
176
     1
171
     0
176
     1
290
     0
176
     1
 93
        1
176
     1
 44
0.0
176
     1
173
     0
176
     1
  0
VISUALSTYLE
  5
34
102
{ACAD_REACTORS
330
2A
102
}
330
2A
100
AcDbVisualStyle
  2
Conceptual
 70
     9
177
     2
291
     0
 71
     3
176
     1
 72
     2
176
     1
 73
     0
176
     1
 90
        0
176
     1
 40
-0.6
176
     1
 41
-30.0
176
     1
 62
     5
 63
     7
421
 16777215
176
     1
 74
     2
176
     1
 91
        2
176
     1
 64
     7
176
     1
 65
   257
176
     1
 75
     1
176
     1
175
     1
176
     1
 42
40.0
176
     1
 92
        8
176
     1
 66
     7
176
     1
 43
1.0
176
     1
 76
     1
176
     1
 77
     6
176
     1
 78
     2
176
     1
 67
     7
176
     1
 79
     3
176
     1
170
     0
176
     1
171
     0
176
     1
290
     0
176
     1
 93
        1
176
     1
 44
0.0
176
     1
173
     0
176
     1
  0
VISUALSTYLE
  5
35
102
{ACAD_REACTORS
330
2A
102
}
330
2A
100
AcDbVisualStyle
  2
Dim
 70
    11
177
     2
291
     1
 71
     2
176
     1
 72
     2
176
     1
 73
     0
176
     1
 90
        0
176
     1
 40
-0.6
176
     1
 41
-30.0
176
     1
 62
     5
 63
     7
421
 16777215
176
     1
 74
     1
176
     1
 91
        4
176
     1
 64
     7
176
     1
 65
   257
176
     1
 75
     1
176
     1
175
     1
176
     1
 42
1.0
176
     1
 92
        8
176
     1
 66
     7
176
     1
 43
1.0
176
     1
 76
     1
176
     1
 77
     6
176
     1
 78
     2
176
     1
 67
     7
176
     1
 79
     5
176
     1
170
     0
176
     1
171
     0
176
     1
290
     0
176
     1
 93
        1
176
     1
 44
-50.0
176
     1
173
     0
176
     1
  0
VISUALSTYLE
  5
39
102
{ACAD_REACTORS
330
2A
102
}
330
2A
100
AcDbVisualStyle
  2
Facepattern
 70
    15
177
     2
291
     1
 71
     2
176
     1
 72
     2
176
     1
 73
     0
176
     1
 90
        0
176
     1
 40
-0.6
176
     1
 41
-30.0
176
     1
 62
     5
 63
     7
421
 16777215
176
     1
 74
     1
176
     1
 91
        4
176
     1
 64
     7
176
     1
 65
   257
176
     1
 75
     1
176
     1
175
     1
176
     1
 42
1.0
176
     1
 92
        8
176
     1
 66
     7
176
     1
 43
1.0
176
     1
 76
     1
176
     1
 77
     6
176
     1
 78
     2
176
     1
 67
     7
176
     1
 79
     5
176
     1
170
     0
176
     1
171
     0
176
     1
290
     0
176
     1
 93
        1
176
     1
 44
0.0
176
     1
173
     0
176
     1
  0
VISUALSTYLE
  5
2B
102
{ACAD_REACTORS
330
2A
102
}
330
2A
100
AcDbVisualStyle
  2
Flat
 70
     0
177
     2
291
     1
 71
     2
176
     1
 72
     1
176
     1
 73
     1
176
     1
 90
        2
176
     1
 40
-0.6
176
     1
 41
30.0
176
     1
 62
     5
 63
     7
421
 16777215
176
     1
 74
     0
176
     1
 91
        4
176
     1
 64
     7
176
     1
 65
   257
176
     1
 75
     1
176
     1
175
     1
176
     1
 42
1.0
176
     1
 92
        8
176
     1
 66
     7
176
     1
 43
1.0
176
     1
 76
     1
176
     1
 77
     6
176
     1
 78
     2
176
     1
 67
     7
176
     1
 79
     5
176
     1
170
     0
176
     1
171
     0
176
     1
290
     0
176
     1
 93
       13
176
     1
 44
0.0
176
     1
173
     0
176
     1
  0
VISUALSTYLE
  5
2C
102
{ACAD_REACTORS
330
2A
102
}
330
2A
100
AcDbVisualStyle
  2
FlatWithEdges
 70
     1
177
     2
291
     1
 71
     2
176
     1
 72
     1
176
     1
 73
     1
176
     1
 90
        2
176
     1
 40
-0.6
176
     1
 41
30.0
176
     1
 62
     5
 63
     7
421
 16777215
176
     1
 74
     1
176
     1
 91
        4
176
     1
 64
     7
176
     1
 65
   257
176
     1
 75
     1
176
     1
175
     1
176
     1
 42
1.0
176
     1
 92
        0
176
     1
 66
   257
176
     1
 43
1.0
176
     1
 76
     1
176
     1
 77
     6
176
     1
 78
     2
176
     1
 67
     7
176
     1
 79
     5
176
     1
170
     0
176
     1
171
     0
176
     1
290
     0
176
     1
 93
       13
176
     1
 44
0.0
176
     1
173
     0
176
     1
  0
VISUALSTYLE
  5
2D
102
{ACAD_REACTORS
330
2A
102
}
330
2A
100
AcDbVisualStyle
  2
Gouraud
 70
     2
177
     2
291
     1
 71
     2
176
     1
 72
     2
176
     1
 73
     1
176
     1
 90
        2
176
     1
 40
-0.6
176
     1
 41
30.0
176
     1
 62
     5
 63
     7
421
 16777215
176
     1
 74
     0
176
     1
 91
        4
176
     1
 64
     7
176
     1
 65
   257
176
     1
 75
     1
176
     1
175
     1
176
     1
 42
1.0
176
     1
 92
        0
176
     1
 66
     7
176
     1
 43
1.0
176
     1
 76
     1
176
     1
 77
     6
176
     1
 78
     2
176
     1
 67
     7
176
     1
 79
     5
176
     1
170
     0
176
     1
171
     0
176
     1
290
     0
176
     1
 93
       13
176
     1
 44
0.0
176
     1
173
     0
176
     1
  0
VISUALSTYLE
  5
2E
102
{ACAD_REACTORS
330
2A
102
}
330
2A
100
AcDbVisualStyle
  2
GouraudWithEdges
 70
     3
177
     2
291
     1
 71
     2
176
     1
 72
     2
176
     1
 73
     1
176
     1
 90
        2
176
     1
 40
-0.6
176
     1
 41
30.0
176
     1
 62
     5
 63
     7
421
 16777215
176
     1
 74
     1
176
     1
 91
        4
176
     1
 64
     7
176
     1
 65
   257
176
     1
 75
     1
176
     1
175
     1
176
     1
 42
1.0
176
     1
 92
        0
176
     1
 66
   257
176
     1
 43
1.0
176
     1
 76
     1
176
     1
 77
     6
176
     1
 78
     2
176
     1
 67
     7
176
     1
 79
     5
176
     1
170
     0
176
     1
171
     0
176
     1
290
     0
176
     1
 93
       13
176
     1
 44
0.0
176
     1
173
     0
176
     1
  0
VISUALSTYLE
  5
38
102
{ACAD_REACTORS
330
2A
102
}
330
2A
100
AcDbVisualStyle
  2
Linepattern
 70
    14
177
     2
291
     1
 71
     2
176
     1
 72
     2
176
     1
 73
     0
176
     1
 90
        0
176
     1
 40
-0.6
176
     1
 41
-30.0
176
     1
 62
     5
 63
     7
421
 16777215
176
     1
 74
     1
176
     1
 91
        4
176
     1
 64
     7
176
     1
 65
   257
176
     1
 75
     7
176
     1
175
     7
176
     1
 42
1.0
176
     1
 92
        8
176
     1
 66
     7
176
     1
 43
1.0
176
     1
 76
     1
176
     1
 77
     6
176
     1
 78
     2
176
     1
 67
     7
176
     1
 79
     5
176
     1
170
     0
176
     1
171
     0
176
     1
290
     0
176
     1
 93
        1
176
     1
 44
0.0
176
     1
173
     0
176
     1
  0
VISUALSTYLE
  5
33
102
{ACAD_REACTORS
330
2A
102
}
330
2A
100
AcDbVisualStyle
  2
Realistic
 70
     8
177
     2
291
     0
 71
     2
176
     1
 72
     2
176
     1
 73
     0
176
     1
 90
        0
176
     1
 40
-0.6
176
     1
 41
-30.0
176
     1
 62
     5
 63
     7
421
 16777215
176
     1
 74
     1
176
     1
 91
        0
176
     1
 64
     7
176
     1
 65
   257
176
     1
 75
     1
176
     1
175
     1
176
     1
 42
1.0
176
     1
 92
        8
176
     1
 66
     8
424
  7895160
176
     1
 43
1.0
176
     1
 76
     1
176
     1
 77
     6
176
     1
 78
     2
176
     1
 67
     7
176
     1
 79
     5
176
     1
170
     0
176
     1
171
     0
176
     1
290
     0
176
     1
 93
       13
176
     1
 44
0.0
176
     1
173
     0
176
     1
  0
VISUALSTYLE
  5
37
102
{ACAD_REACTORS
330
2A
102
}
330
2A
100
AcDbVisualStyle
  2
Thicken
 70
    13
177
     2
291
     1
 71
     2
176
     1
 72
     2
176
     1
 73
     0
176
     1
 90
        0
176
     1
 40
-0.6
176
     1
 41
-30.0
176
     1
 62
     5
 63
     7
421
 16777215
176
     1
 74
     1
176
     1
 91
        4
176
     1
 64
     7
176
     1
 65
   257
176
     1
 75
     1
176
     1
175
     1
176
     1
 42
1.0
176
     1
 92
       12
176
     1
 66
     7
176
     1
 43
1.0
176
     1
 76
     1
176
     1
 77
     6
176
     1
 78
     2
176
     1
 67
     7
176
     1
 79
     5
176
     1
170
     0
176
     1
171
     0
176
     1
290
     0
176
     1
 93
        1
176
     1
 44
0.0
176
     1
173
     0
176
     1
  0
ENDSEC
  0
EOF
