  0
SECTION
  2
HEADER
  9
$ACADVER
  1
AC1024
  9
$ACADMAINTVER
 70
     6
  9
$DWGCODEPAGE
  3
UNDEFINED
  9
$INSBASE
 10
0.0
 20
0.0
 30
0.0
  9
$EXTMIN
 10
1.000000000000000E+20
 20
1.000000000000000E+20
 30
1.000000000000000E+20
  9
$EXTMAX
 10
-1.000000000000000E+20
 20
-1.000000000000000E+20
 30
-1.000000000000000E+20
  9
$LIMMIN
 10
0.0
 20
0.0
  9
$LIMMAX
 10
12.0
 20
9.0
  9
$ORTHOMODE
 70
     0
  9
$REGENMODE
 70
     1
  9
$FILLMODE
 70
     1
  9
$QTEXTMODE
 70
     0
  9
$MIRRTEXT
 70
     1
  9
$LTSCALE
 40
1.0
  9
$ATTMODE
 70
     1
  9
$TEXTSIZE
 40
0.2
  9
$TRACEWID
 40
0.05
  9
$TEXTSTYLE
  7
Standard
  9
$CLAYER
  8
0
  9
$CELTYPE
  6
ByLayer
  9
$CECOLOR
 62
   256
  9
$CELTSCALE
 40
1.0
  9
$DISPSILH
 70
     0
  9
$DIMSCALE
 40
1.0
  9
$DIMASZ
 40
0.18
  9
$DIMEXO
 40
0.0625
  9
$DIMDLI
 40
0.38
  9
$DIMRND
 40
0.0
  9
$DIMDLE
 40
0.0
  9
$DIMEXE
 40
0.18
  9
$DIMTP
 40
0.0
  9
$DIMTM
 40
0.0
  9
$DIMTXT
 40
0.18
  9
$DIMCEN
 40
0.09
  9
$DIMTSZ
 40
0.0
  9
$DIMTOL
 70
     0
  9
$DIMLIM
 70
     0
  9
$DIMTIH
 70
     1
  9
$DIMTOH
 70
     1
  9
$DIMSE1
 70
     0
  9
$DIMSE2
 70
     0
  9
$DIMTAD
 70
     0
  9
$DIMZIN
 70
     0
  9
$DIMBLK
  1

  9
$DIMASO
 70
     1
  9
$DIMSHO
 70
     1
  9
$DIMPOST
  1

  9
$DIMAPOST
  1

  9
$DIMALT
 70
     0
  9
$DIMALTD
 70
     2
  9
$DIMALTF
 40
25.4
  9
$DIMLFAC
 40
1.0
  9
$DIMTOFL
 70
     0
  9
$DIMTVP
 40
0.0
  9
$DIMTIX
 70
     0
  9
$DIMSOXD
 70
     0
  9
$DIMSAH
 70
     0
  9
$DIMBLK1
  1

  9
$DIMBLK2
  1

  9
$DIMSTYLE
  2
Standard
  9
$DIMCLRD
 70
     0
  9
$DIMCLRE
 70
     0
  9
$DIMCLRT
 70
     0
  9
$DIMTFAC
 40
1.0
  9
$DIMGAP
 40
0.09
  9
$DIMJUST
 70
     0
  9
$DIMSD1
 70
     0
  9
$DIMSD2
 70
     0
  9
$DIMTOLJ
 70
     1
  9
$DIMTZIN
 70
     0
  9
$DIMALTZ
 70
     0
  9
$DIMALTTZ
 70
     0
  9
$DIMUPT
 70
     0
  9
$DIMDEC
 70
     4
  9
$DIMTDEC
 70
     4
  9
$DIMALTU
 70
     2
  9
$DIMALTTD
 70
     2
  9
$DIMTXSTY
  7
Standard
  9
$DIMAUNIT
 70
     0
  9
$DIMADEC
 70
     0
  9
$DIMALTRND
 40
0.0
  9
$DIMAZIN
 70
     0
  9
$DIMDSEP
 70
    46
  9
$DIMATFIT
 70
     3
  9
$DIMFRAC
 70
     0
  9
$DIMLDRBLK
  1

  9
$DIMLUNIT
 70
     2
  9
$DIMLWD
 70
    -2
  9
$DIMLWE
 70
    -2
  9
$DIMTMOVE
 70
     0
  9
$DIMFXL
 40
1.0
  9
$DIMFXLON
 70
     0
  9
$DIMJOGANG
 40
0.7853981633974483
  9
$DIMTFILL
 70
     0
  9
$DIMTFILLCLR
 70
     0
  9
$DIMARCSYM
 70
     0
  9
$DIMLTYPE
  6

  9
$DIMLTEX1
  6

  9
$DIMLTEX2
  6

  9
$DIMTXTDIRECTION
 70
     0
  9
$LUNITS
 70
     2
  9
$LUPREC
 70
     4
  9
$SKETCHINC
 40
0.1
  9
$FILLETRAD
 40
0.5
  9
$AUNITS
 70
     0
  9
$AUPREC
 70
     0
  9
$MENU
  1
.
  9
$ELEVATION
 40
0.0
  9
$PELEVATION
 40
0.0
  9
$THICKNESS
 40
0.0
  9
$LIMCHECK
 70
     0
  9
$CHAMFERA
 40
0.5
  9
$CHAMFERB
 40
0.5
  9
$CHAMFERC
 40
1.0
  9
$CHAMFERD
 40
0.0
  9
$SKPOLY
 70
     0
  9
$TDCREATE
 40
2457917.625358785
  9
$TDUCREATE
 40
2457917.250358796
  9
$TDUPDATE
 40
2457917.625358785
  9
$TDUUPDATE
 40
2457917.250358796
  9
$TDINDWG
 40
0.0000000116
  9
$TDUSRTIMER
 40
0.0000000116
  9
$USRTIMER
 70
     1
  9
$ANGBASE
 50
0.0
  9
$ANGDIR
 70
     0
  9
$PDMODE
 70
     0
  9
$PDSIZE
 40
0.0
  9
$PLINEWID
 40
0.0
  9
$SPLFRAME
 70
     0
  9
$SPLINETYPE
 70
     6
  9
$SPLINESEGS
 70
     8
  9
$HANDSEED
  5
A6
  9
$SURFTAB1
 70
     6
  9
$SURFTAB2
 70
     6
  9
$SURFTYPE
 70
     6
  9
$SURFU
 70
     6
  9
$SURFV
 70
     6
  9
$UCSBASE
  2

  9
$UCSNAME
  2

  9
$UCSORG
 10
0.0
 20
0.0
 30
0.0
  9
$UCSXDIR
 10
1.0
 20
0.0
 30
0.0
  9
$UCSYDIR
 10
0.0
 20
1.0
 30
0.0
  9
$UCSORTHOREF
  2

  9
$UCSORTHOVIEW
 70
     0
  9
$UCSORGTOP
 10
0.0
 20
0.0
 30
0.0
  9
$UCSORGBOTTOM
 10
0.0
 20
0.0
 30
0.0
  9
$UCSORGLEFT
 10
0.0
 20
0.0
 30
0.0
  9
$UCSORGRIGHT
 10
0.0
 20
0.0
 30
0.0
  9
$UCSORGFRONT
 10
0.0
 20
0.0
 30
0.0
  9
$UCSORGBACK
 10
0.0
 20
0.0
 30
0.0
  9
$PUCSBASE
  2

  9
$PUCSNAME
  2

  9
$PUCSORG
 10
0.0
 20
0.0
 30
0.0
  9
$PUCSXDIR
 10
1.0
 20
0.0
 30
0.0
  9
$PUCSYDIR
 10
0.0
 20
1.0
 30
0.0
  9
$PUCSORTHOREF
  2

  9
$PUCSORTHOVIEW
 70
     0
  9
$PUCSORGTOP
 10
0.0
 20
0.0
 30
0.0
  9
$PUCSORGBOTTOM
 10
0.0
 20
0.0
 30
0.0
  9
$PUCSORGLEFT
 10
0.0
 20
0.0
 30
0.0
  9
$PUCSORGRIGHT
 10
0.0
 20
0.0
 30
0.0
  9
$PUCSORGFRONT
 10
0.0
 20
0.0
 30
0.0
  9
$PUCSORGBACK
 10
0.0
 20
0.0
 30
0.0
  9
$USERI1
 70
     0
  9
$USERI2
 70
     0
  9
$USERI3
 70
     0
  9
$USERI4
 70
     0
  9
$USERI5
 70
     0
  9
$USERR1
 40
0.0
  9
$USERR2
 40
0.0
  9
$USERR3
 40
0.0
  9
$USERR4
 40
0.0
  9
$USERR5
 40
0.0
  9
$WORLDVIEW
 70
     1
  9
$SHADEDGE
 70
     3
  9
$SHADEDIF
 70
    70
  9
$TILEMODE
 70
     1
  9
$MAXACTVP
 70
    64
  9
$PINSBASE
 10
0.0
 20
0.0
 30
0.0
  9
$PLIMCHECK
 70
     0
  9
$PEXTMIN
 10
1.000000000000000E+20
 20
1.000000000000000E+20
 30
1.000000000000000E+20
  9
$PEXTMAX
 10
-1.000000000000000E+20
 20
-1.000000000000000E+20
 30
-1.000000000000000E+20
  9
$PLIMMIN
 10
0.0
 20
0.0
  9
$PLIMMAX
 10
12.0
 20
9.0
  9
$UNITMODE
 70
     0
  9
$VISRETAIN
 70
     1
  9
$PLINEGEN
 70
     0
  9
$PSLTSCALE
 70
     1
  9
$TREEDEPTH
 70
  3020
  9
$CMLSTYLE
  2
Standard
  9
$CMLJUST
 70
     0
  9
$CMLSCALE
 40
1.0
  9
$PROXYGRAPHICS
 70
     1
  9
$MEASUREMENT
 70
     0
  9
$CELWEIGHT
370
    -1
  9
$ENDCAPS
280
     0
  9
$JOINSTYLE
280
     0
  9
$LWDISPLAY
290
     1
  9
$INSUNITS
 70
     1
  9
$HYPERLINKBASE
  1

  9
$STYLESHEET
  1

  9
$XEDIT
290
     1
  9
$CEPSNTYPE
380
     0
  9
$PSTYLEMODE
290
     1
  9
$FINGERPRINTGUID
  2
{E96DA77C-17EC-E733-B28A-E8AFD23956FF}
  9
$VERSIONGUID
  2
{FAEB1C32-E019-11D5-929B-00C0DF256EC4}
  9
$EXTNAMES
290
     1
  9
$PSVPSCALE
 40
0.0
  9
$OLESTARTUP
290
     0
  9
$SORTENTS
280
   127
  9
$INDEXCTL
280
     0
  9
$HIDETEXT
280
     1
  9
$XCLIPFRAME
280
     2
  9
$HALOGAP
280
     0
  9
$OBSCOLOR
 70
   257
  9
$OBSLTYPE
280
     0
  9
$INTERSECTIONDISPLAY
280
     0
  9
$INTERSECTIONCOLOR
 70
   257
  9
$DIMASSOC
280
     2
  9
$PROJECTNAME
  1

  9
$CAMERADISPLAY
290
     0
  9
$LENSLENGTH
 40
50.0
  9
$CAMERAHEIGHT
 40
0.0
  9
$STEPSPERSEC
 40
2.0
  9
$STEPSIZE
 40
6.0
  9
$3DDWFPREC
 40
2.0
  9
$PSOLWIDTH
 40
0.25
  9
$PSOLHEIGHT
 40
4.0
  9
$LOFTANG1
 40
1.570796326794897
  9
$LOFTANG2
 40
1.570796326794897
  9
$LOFTMAG1
 40
0.0
  9
$LOFTMAG2
 40
0.0
  9
$LOFTPARAM
 70
     7
  9
$LOFTNORMALS
280
     1
  9
$LATITUDE
 40
37.795
  9
$LONGITUDE
 40
-122.394
  9
$NORTHDIRECTION
 40
0.0
  9
$TIMEZONE
 70
 -8000
  9
$LIGHTGLYPHDISPLAY
280
     1
  9
$TILEMODELIGHTSYNCH
280
     1
  9
$CMATERIAL
347
3C
  9
$SOLIDHIST
280
     1
  9
$SHOWHIST
280
     1
  9
$DWFFRAME
280
     2
  9
$DGNFRAME
280
     2
  9
$REALWORLDSCALE
290
     1
  9
$INTERFERECOLOR
 62
   256
  9
$CSHADOW
280
     0
  9
$SHADOWPLANELOCATION
 40
0.0
  0
ENDSEC
  0
SECTION
  2
CLASSES
  0
CLASS
  1
ACDBDICTIONARYWDFLT
  2
AcDbDictionaryWithDefault
  3
ObjectDBX Classes
 90
        0
 91
        4
280
     0
281
     0
  0
CLASS
  1
VISUALSTYLE
  2
AcDbVisualStyle
  3
ObjectDBX Classes
 90
     4095
 91
        4
280
     0
281
     0
  0
CLASS
  1
MATERIAL
  2
AcDbMaterial
  3
ObjectDBX Classes
 90
     1153
 91
        4
280
     0
281
     0
  0
CLASS
  1
SUN
  2
AcDbSun
  3
SCENEOE
 90
     1024
 91
        4
280
     0
281
     0
  0
ENDSEC
  0
SECTION
  2
TABLES
  0
TABLE
  2
VPORT
  5
8
330
0
100
AcDbSymbolTable
 70
     1
  0
VPORT
  5
29
330
8
100
AcDbSymbolTableRecord
100
AcDbViewportTableRecord
  2
*Active
 70
     0
 10
0.0
 20
0.0
 11
1.0
 21
1.0
 12
0.0
 22
0.0
 13
0.0
 23
0.0
 14
0.5
 24
0.5
 15
0.5
 25
0.5
 16
0.0
 26
0.0
 36
1.0
 17
91.00082462281999
 27
-128.4993055234307
 37
0.0
 40
256.9986110468615
 41
0.7081814508812795
 42
50.0
 43
0.0
 44
0.0
 50
0.0
 51
0.0
 71
     0
 72
   100
 73
     1
 74
     3
 75
     0
 76
     0
 77
     0
 78
     0
281
     0
 65
     1
110
0.0
120
0.0
130
0.0
111
1.0
121
0.0
131
0.0
112
0.0
122
1.0
132
0.0
 79
     0
146
0.0
 60
     3
 61
     5
292
     1
282
     1
141
0.0
142
0.0
 63
   250
361
3F
  0
ENDTAB
  0
TABLE
  2
LTYPE
  5
5
330
0
100
AcDbSymbolTable
 70
     1
  0
LTYPE
  5
14
330
5
100
AcDbSymbolTableRecord
100
AcDbLinetypeTableRecord
  2
ByBlock
 70
     0
  3

 72
    65
 73
     0
 40
0.0
  0
LTYPE
  5
15
330
5
100
AcDbSymbolTableRecord
100
AcDbLinetypeTableRecord
  2
ByLayer
 70
     0
  3

 72
    65
 73
     0
 40
0.0
  0
LTYPE
  5
16
330
5
100
AcDbSymbolTableRecord
100
AcDbLinetypeTableRecord
  2
Continuous
 70
     0
  3
Solid line
 72
    65
 73
     0
 40
0.0
  0
ENDTAB
  0
TABLE
  2
LAYER
  5
2
330
0
100
AcDbSymbolTable
 70
     2
  0
LAYER
  5
10
330
2
100
AcDbSymbolTableRecord
100
AcDbLayerTableRecord
  2
0
 70
     0
 62
     7
  6
Continuous
370
    -3
390
F
347
3E
  0
LAYER
  5
40
330
2
100
AcDbSymbolTableRecord
100
AcDbLayerTableRecord
  2
_U+30EC_U+30A4_U+30E4_U+30FC 1
 70
     0
 62
     7
  6
Continuous
370
    -3
390
F
347
3E
  0
ENDTAB
  0
TABLE
  2
STYLE
  5
3
330
0
100
AcDbSymbolTable
 70
     1
  0
STYLE
  5
11
330
3
100
AcDbSymbolTableRecord
100
AcDbTextStyleTableRecord
  2
Standard
 70
     0
 40
0.0
 41
1.0
 50
0.0
 71
     0
 42
0.2
  3
txt
  4

  0
ENDTAB
  0
TABLE
  2
VIEW
  5
6
330
0
100
AcDbSymbolTable
 70
     0
  0
ENDTAB
  0
TABLE
  2
UCS
  5
7
330
0
100
AcDbSymbolTable
 70
     0
  0
ENDTAB
  0
TABLE
  2
APPID
  5
9
330
0
100
AcDbSymbolTable
 70
     1
  0
APPID
  5
12
330
9
100
AcDbSymbolTableRecord
100
AcDbRegAppTableRecord
  2
ACAD
 70
     0
  0
ENDTAB
  0
TABLE
  2
DIMSTYLE
  5
A
330
0
100
AcDbSymbolTable
 70
     1
100
AcDbDimStyleTable
  0
DIMSTYLE
105
27
330
A
100
AcDbSymbolTableRecord
100
AcDbDimStyleTableRecord
  2
Standard
 70
     0
178
     0
340
11
  0
ENDTAB
  0
TABLE
  2
BLOCK_RECORD
  5
1
330
0
100
AcDbSymbolTable
 70
     4
  0
BLOCK_RECORD
  5
1F
330
1
100
AcDbSymbolTableRecord
100
AcDbBlockTableRecord
  2
*Model_Space
340
22
 70
     0
280
     1
281
     0
  0
BLOCK_RECORD
  5
1B
330
1
100
AcDbSymbolTableRecord
100
AcDbBlockTableRecord
  2
*Paper_Space
340
1E
 70
     0
280
     1
281
     0
  0
BLOCK_RECORD
  5
23
330
1
100
AcDbSymbolTableRecord
100
AcDbBlockTableRecord
  2
*Paper_Space0
340
26
 70
     0
280
     1
281
     0
  0
BLOCK_RECORD
  5
8A
330
1
100
AcDbSymbolTableRecord
100
AcDbBlockTableRecord
  2
block 2
340
0
102
{BLKREFS
331
8B
102
}
 70
     0
280
     1
281
     0
  0
BLOCK_RECORD
  5
94
330
1
100
AcDbSymbolTableRecord
100
AcDbBlockTableRecord
  2
block 3
340
0
102
{BLKREFS
331
95
102
}
 70
     0
280
     1
281
     0
  0
BLOCK_RECORD
  5
9C
330
1
100
AcDbSymbolTableRecord
100
AcDbBlockTableRecord
  2
block 4
340
0
102
{BLKREFS
331
9D
102
}
 70
     0
280
     1
281
     0
  0
ENDTAB
  0
ENDSEC
  0
SECTION
  2
BLOCKS
  0
BLOCK
  5
20
330
1F
100
AcDbEntity
  8
0
100
AcDbBlockBegin
  2
*Model_Space
 70
     0
 10
0.0
 20
0.0
 30
0.0
  3
*Model_Space
  1

  0
ENDBLK
  5
21
330
1F
100
AcDbEntity
  8
0
100
AcDbBlockEnd
  0
BLOCK
  5
1C
330
1B
100
AcDbEntity
 67
     1
  8
0
100
AcDbBlockBegin
  2
*Paper_Space
 70
     0
 10
0.0
 20
0.0
 30
0.0
  3
*Paper_Space
  1

  0
ENDBLK
  5
1D
330
1B
100
AcDbEntity
 67
     1
  8
0
100
AcDbBlockEnd
  0
BLOCK
  5
24
330
23
100
AcDbEntity
  8
0
100
AcDbBlockBegin
  2
*Paper_Space0
 70
     0
 10
0.0
 20
0.0
 30
0.0
  3
*Paper_Space0
  1

  0
ENDBLK
  5
25
330
23
100
AcDbEntity
  8
0
100
AcDbBlockEnd
  0
BLOCK
  5
8C
330
8A
100
AcDbEntity
  8
0
100
AcDbBlockBegin
  2
block 2
 70
     0
 10
0.0
 20
0.0
 30
0.0
  3
block 2
  1

  0
SPLINE
  5
8E
330
8A
100
AcDbEntity
  8
_U+30EC_U+30A4_U+30E4_U+30FC 1
370
     0
100
AcDbSpline
210
0.0
220
0.0
230
1.0
 70
    11
 71
     3
 72
    26
 73
    22
 74
     0
 42
0.0000000001
 43
0.0000000001
 12
1.0
 22
0.0
 32
0.0
 13
1.0
 23
0.0
 33
0.0
 40
0.0
 40
0.0
 40
0.0
 40
0.0
 40
1.0
 40
1.0
 40
1.0
 40
2.0
 40
2.0
 40
2.0
 40
3.0
 40
3.0
 40
3.0
 40
4.0
 40
4.0
 40
4.0
 40
5.0
 40
5.0
 40
5.0
 40
6.0
 40
6.0
 40
6.0
 40
7.0
 40
7.0
 40
7.0
 40
7.0
 10
97.28019474564523
 20
-123.0574326949301
 30
0.0
 10
97.28019474564523
 20
-123.0574326949301
 30
0.0
 10
97.28019474564523
 20
-121.9531073371333
 30
0.0
 10
97.28019474564523
 20
-121.9531073371333
 30
0.0
 10
97.28019474564523
 20
-121.9531073371333
 30
0.0
 10
96.92776147750418
 20
-121.9531073371333
 30
0.0
 10
96.92776147750418
 20
-121.9531073371333
 30
0.0
 10
96.92776147750418
 20
-121.9531073371333
 30
0.0
 10
96.92776147750418
 20
-121.8051404860418
 30
0.0
 10
96.92776147750418
 20
-121.8051404860418
 30
0.0
 10
97.2826063124849
 20
-121.7903265754552
 30
0.0
 10
97.33221568747251
 20
-121.6273735590029
 30
0.0
 10
97.3639105659368
 20
-121.5131686436669
 30
0.0
 10
97.3639105659368
 20
-121.5131686436669
 30
0.0
 10
97.51997339141862
 20
-121.5131686436669
 30
0.0
 10
97.51997339141862
 20
-121.5131686436669
 30
0.0
 10
97.51997339141862
 20
-121.5131686436669
 30
0.0
 10
97.51997339141862
 20
-123.0574326949301
 30
0.0
 10
97.51997339141862
 20
-123.0574326949301
 30
0.0
 10
97.51997339141862
 20
-123.0574326949301
 30
0.0
 10
97.28019474564523
 20
-123.0574326949301
 30
0.0
 10
97.28019474564523
 20
-123.0574326949301
 30
0.0
  0
HATCH
  5
8F
330
8A
100
AcDbEntity
  8
_U+30EC_U+30A4_U+30E4_U+30FC 1
 62
   179
420
  2234388
100
AcDbHatch
 10
0.0
 20
0.0
 30
0.0
210
0.0
220
0.0
230
1.0
  2
SOLID
 70
     1
 71
     0
 91
        1
 92
        1
 93
        1
 72
     4
 94
        3
 73
     0
 74
     1
 95
       26
 96
       22
 40
0.0
 40
0.0
 40
0.0
 40
0.0
 40
1.0
 40
1.0
 40
1.0
 40
2.0
 40
2.0
 40
2.0
 40
3.0
 40
3.0
 40
3.0
 40
4.0
 40
4.0
 40
4.0
 40
5.0
 40
5.0
 40
5.0
 40
6.0
 40
6.0
 40
6.0
 40
7.0
 40
7.0
 40
7.0
 40
7.0
 10
97.28019474564523
 20
-123.0574326949301
 10
97.28019474564523
 20
-123.0574326949301
 10
97.28019474564523
 20
-121.9531073371333
 10
97.28019474564523
 20
-121.9531073371333
 10
97.28019474564523
 20
-121.9531073371333
 10
96.92776147750418
 20
-121.9531073371333
 10
96.92776147750418
 20
-121.9531073371333
 10
96.92776147750418
 20
-121.9531073371333
 10
96.92776147750418
 20
-121.8051404860418
 10
96.92776147750418
 20
-121.8051404860418
 10
97.2826063124849
 20
-121.7903265754552
 10
97.33221568747251
 20
-121.6273735590029
 10
97.3639105659368
 20
-121.5131686436669
 10
97.3639105659368
 20
-121.5131686436669
 10
97.51997339141862
 20
-121.5131686436669
 10
97.51997339141862
 20
-121.5131686436669
 10
97.51997339141862
 20
-121.5131686436669
 10
97.51997339141862
 20
-123.0574326949301
 10
97.51997339141862
 20
-123.0574326949301
 10
97.51997339141862
 20
-123.0574326949301
 10
97.28019474564523
 20
-123.0574326949301
 10
97.28019474564523
 20
-123.0574326949301
 97
        0
 97
        0
 75
     2
 76
     1
 98
        0
  0
SPLINE
  5
90
330
8A
100
AcDbEntity
  8
_U+30EC_U+30A4_U+30E4_U+30FC 1
370
     0
100
AcDbSpline
210
0.0
220
0.0
230
1.0
 70
    11
 71
     3
 72
    29
 73
    25
 74
     0
 42
0.0000000001
 43
0.0000000001
 12
1.0
 22
0.0
 32
0.0
 13
1.0
 23
0.0
 33
0.0
 40
0.0
 40
0.0
 40
0.0
 40
0.0
 40
1.0
 40
1.0
 40
1.0
 40
2.0
 40
2.0
 40
2.0
 40
3.0
 40
3.0
 40
3.0
 40
4.0
 40
4.0
 40
4.0
 40
5.0
 40
5.0
 40
5.0
 40
6.0
 40
6.0
 40
6.0
 40
7.0
 40
7.0
 40
7.0
 40
8.0
 40
8.0
 40
8.0
 40
8.0
 10
98.59002004913722
 20
-123.1082478533375
 30
0.0
 10
98.30545516205558
 20
-123.1082478533375
 30
0.0
 10
98.0339816378179
 20
-122.9706162887018
 30
0.0
 10
98.0339816378179
 20
-122.621628116046
 30
0.0
 10
98.0339816378179
 20
-122.3656575214919
 30
0.0
 10
98.18556583916889
 20
-122.2704006313248
 30
0.0
 10
98.29856497108509
 20
-122.2090779316873
 30
0.0
 10
98.16523977580592
 20
-122.149822289341
 30
0.0
 10
98.0835910128055
 20
-122.035617374005
 30
0.0
 10
98.0835910128055
 20
-121.8749036696181
 30
0.0
 10
98.0835910128055
 20
-121.5998127951209
 30
0.0
 10
98.29615340424542
 20
-121.4644205425506
 30
0.0
 10
98.59002004913722
 20
-121.4644205425506
 30
0.0
 10
98.89318845183921
 20
-121.4644205425506
 30
0.0
 10
99.09644908546895
 20
-121.6082532790598
 30
0.0
 10
99.09644908546895
 20
-121.8749036696181
 30
0.0
 10
99.09644908546895
 20
-122.035617374005
 30
0.0
 10
99.0130777747259
 20
-122.149822289341
 30
0.0
 10
98.8794080698982
 20
-122.2090779316873
 30
0.0
 10
98.9744927052911
 20
-122.2598930900947
 30
0.0
 10
99.1439914031654
 20
-122.3551499802619
 30
0.0
 10
99.1439914031654
 20
-122.6174940014637
 30
0.0
 10
99.1439914031654
 20
-122.9918036259361
 30
0.0
 10
98.84564613414275
 20
-123.1082478533375
 30
0.0
 10
98.59002004913722
 20
-123.1082478533375
 30
0.0
  0
SPLINE
  5
91
330
8A
100
AcDbEntity
  8
_U+30EC_U+30A4_U+30E4_U+30FC 1
370
     0
100
AcDbSpline
210
0.0
220
0.0
230
1.0
 70
    11
 71
     3
 72
    17
 73
    13
 74
     0
 42
0.0000000001
 43
0.0000000001
 12
1.0
 22
0.0
 32
0.0
 13
1.0
 23
0.0
 33
0.0
 40
0.0
 40
0.0
 40
0.0
 40
0.0
 40
1.0
 40
1.0
 40
1.0
 40
2.0
 40
2.0
 40
2.0
 40
3.0
 40
3.0
 40
3.0
 40
4.0
 40
4.0
 40
4.0
 40
4.0
 10
98.59002004913722
 20
-122.3170816751499
 30
0.0
 10
98.43636879049508
 20
-122.3170816751499
 30
0.0
 10
98.27376028359129
 20
-122.4037258266039
 30
0.0
 10
98.27376028359129
 20
-122.6068142054594
 30
0.0
 10
98.27376028359129
 20
-122.811969641606
 30
0.0
 10
98.4091525361616
 20
-122.9135999584209
 30
0.0
 10
98.59002004913722
 20
-122.9135999584209
 30
0.0
 10
98.78914656818466
 20
-122.9135999584209
 30
0.0
 10
98.90662432423169
 20
-122.790954559146
 30
0.0
 10
98.90662432423169
 20
-122.6131876321071
 30
0.0
 10
98.90662432423169
 20
-122.3909789733085
 30
0.0
 10
98.73264700222657
 20
-122.3170816751499
 30
0.0
 10
98.59002004913722
 20
-122.3170816751499
 30
0.0
  0
SPLINE
  5
92
330
8A
100
AcDbEntity
  8
_U+30EC_U+30A4_U+30E4_U+30FC 1
370
     0
100
AcDbSpline
210
0.0
220
0.0
230
1.0
 70
    11
 71
     3
 72
    17
 73
    13
 74
     0
 42
0.0000000001
 43
0.0000000001
 12
1.0
 22
0.0
 32
0.0
 13
1.0
 23
0.0
 33
0.0
 40
0.0
 40
0.0
 40
0.0
 40
0.0
 40
1.0
 40
1.0
 40
1.0
 40
2.0
 40
2.0
 40
2.0
 40
3.0
 40
3.0
 40
3.0
 40
4.0
 40
4.0
 40
4.0
 40
4.0
 10
98.59002004913722
 20
-121.657001380176
 30
0.0
 10
98.41363116029243
 20
-121.657001380176
 30
0.0
 10
98.32336965857888
 20
-121.7520860155689
 30
0.0
 10
98.32336965857888
 20
-121.8874782681392
 30
0.0
 10
98.32336965857888
 20
-122.0102959221884
 30
0.0
 10
98.40019528789996
 20
-122.128807206881
 30
0.0
 10
98.59002004913722
 20
-122.128807206881
 30
0.0
 10
98.78018931992301
 20
-122.128807206881
 30
0.0
 10
98.85701494924409
 20
-122.0102959221884
 30
0.0
 10
98.85701494924409
 20
-121.8874782681392
 30
0.0
 10
98.85701494924409
 20
-121.7520860155689
 30
0.0
 10
98.76434188069086
 20
-121.657001380176
 30
0.0
 10
98.59002004913722
 20
-121.657001380176
 30
0.0
  0
HATCH
  5
93
330
8A
100
AcDbEntity
  8
_U+30EC_U+30A4_U+30E4_U+30FC 1
 62
   179
420
  2234388
100
AcDbHatch
 10
0.0
 20
0.0
 30
0.0
210
0.0
220
0.0
230
1.0
  2
SOLID
 70
     1
 71
     0
 91
        3
 92
        1
 93
        1
 72
     4
 94
        3
 73
     0
 74
     1
 95
       29
 96
       25
 40
0.0
 40
0.0
 40
0.0
 40
0.0
 40
1.0
 40
1.0
 40
1.0
 40
2.0
 40
2.0
 40
2.0
 40
3.0
 40
3.0
 40
3.0
 40
4.0
 40
4.0
 40
4.0
 40
5.0
 40
5.0
 40
5.0
 40
6.0
 40
6.0
 40
6.0
 40
7.0
 40
7.0
 40
7.0
 40
8.0
 40
8.0
 40
8.0
 40
8.0
 10
98.59002004913722
 20
-123.1082478533375
 10
98.30545516205558
 20
-123.1082478533375
 10
98.0339816378179
 20
-122.9706162887018
 10
98.0339816378179
 20
-122.621628116046
 10
98.0339816378179
 20
-122.3656575214919
 10
98.18556583916889
 20
-122.2704006313248
 10
98.29856497108509
 20
-122.2090779316873
 10
98.16523977580592
 20
-122.149822289341
 10
98.0835910128055
 20
-122.035617374005
 10
98.0835910128055
 20
-121.8749036696181
 10
98.0835910128055
 20
-121.5998127951209
 10
98.29615340424542
 20
-121.4644205425506
 10
98.59002004913722
 20
-121.4644205425506
 10
98.89318845183921
 20
-121.4644205425506
 10
99.09644908546895
 20
-121.6082532790598
 10
99.09644908546895
 20
-121.8749036696181
 10
99.09644908546895
 20
-122.035617374005
 10
99.0130777747259
 20
-122.149822289341
 10
98.8794080698982
 20
-122.2090779316873
 10
98.9744927052911
 20
-122.2598930900947
 10
99.1439914031654
 20
-122.3551499802619
 10
99.1439914031654
 20
-122.6174940014637
 10
99.1439914031654
 20
-122.9918036259361
 10
98.84564613414275
 20
-123.1082478533375
 10
98.59002004913722
 20
-123.1082478533375
 97
        0
 97
        0
 92
        1
 93
        1
 72
     4
 94
        3
 73
     0
 74
     1
 95
       17
 96
       13
 40
0.0
 40
0.0
 40
0.0
 40
0.0
 40
1.0
 40
1.0
 40
1.0
 40
2.0
 40
2.0
 40
2.0
 40
3.0
 40
3.0
 40
3.0
 40
4.0
 40
4.0
 40
4.0
 40
4.0
 10
98.59002004913722
 20
-122.3170816751499
 10
98.43636879049508
 20
-122.3170816751499
 10
98.27376028359129
 20
-122.4037258266039
 10
98.27376028359129
 20
-122.6068142054594
 10
98.27376028359129
 20
-122.811969641606
 10
98.4091525361616
 20
-122.9135999584209
 10
98.59002004913722
 20
-122.9135999584209
 10
98.78914656818466
 20
-122.9135999584209
 10
98.90662432423169
 20
-122.790954559146
 10
98.90662432423169
 20
-122.6131876321071
 10
98.90662432423169
 20
-122.3909789733085
 10
98.73264700222657
 20
-122.3170816751499
 10
98.59002004913722
 20
-122.3170816751499
 97
        0
 97
        0
 92
        1
 93
        1
 72
     4
 94
        3
 73
     0
 74
     1
 95
       17
 96
       13
 40
0.0
 40
0.0
 40
0.0
 40
0.0
 40
1.0
 40
1.0
 40
1.0
 40
2.0
 40
2.0
 40
2.0
 40
3.0
 40
3.0
 40
3.0
 40
4.0
 40
4.0
 40
4.0
 40
4.0
 10
98.59002004913722
 20
-121.657001380176
 10
98.41363116029243
 20
-121.657001380176
 10
98.32336965857888
 20
-121.7520860155689
 10
98.32336965857888
 20
-121.8874782681392
 10
98.32336965857888
 20
-122.0102959221884
 10
98.40019528789996
 20
-122.128807206881
 10
98.59002004913722
 20
-122.128807206881
 10
98.78018931992301
 20
-122.128807206881
 10
98.85701494924409
 20
-122.0102959221884
 10
98.85701494924409
 20
-121.8874782681392
 10
98.85701494924409
 20
-121.7520860155689
 10
98.76434188069086
 20
-121.657001380176
 10
98.59002004913722
 20
-121.657001380176
 97
        0
 97
        0
 75
     2
 76
     1
 98
        0
  0
ENDBLK
  5
8D
330
8A
100
AcDbEntity
  8
0
100
AcDbBlockEnd
  0
BLOCK
  5
96
330
94
100
AcDbEntity
  8
0
100
AcDbBlockBegin
  2
block 3
 70
     0
 10
0.0
 20
0.0
 30
0.0
  3
block 3
  1

  0
SPLINE
  5
98
330
94
100
AcDbEntity
  8
_U+30EC_U+30A4_U+30E4_U+30FC 1
370
     0
100
AcDbSpline
210
0.0
220
0.0
230
1.0
 70
    11
 71
     3
 72
    26
 73
    22
 74
     0
 42
0.0000000001
 43
0.0000000001
 12
1.0
 22
0.0
 32
0.0
 13
1.0
 23
0.0
 33
0.0
 40
0.0
 40
0.0
 40
0.0
 40
0.0
 40
1.0
 40
1.0
 40
1.0
 40
2.0
 40
2.0
 40
2.0
 40
3.0
 40
3.0
 40
3.0
 40
4.0
 40
4.0
 40
4.0
 40
5.0
 40
5.0
 40
5.0
 40
6.0
 40
6.0
 40
6.0
 40
7.0
 40
7.0
 40
7.0
 40
7.0
 10
103.3156575262544
 20
-134.8861680435354
 30
0.0
 10
103.3156575262544
 20
-134.8861680435354
 30
0.0
 10
102.2115044232318
 20
-134.8861680435354
 30
0.0
 10
102.2115044232318
 20
-134.8861680435354
 30
0.0
 10
102.2115044232318
 20
-134.8861680435354
 30
0.0
 10
102.2115044232318
 20
-135.2386013116765
 30
0.0
 10
102.2115044232318
 20
-135.2386013116765
 30
0.0
 10
102.2115044232318
 20
-135.2386013116765
 30
0.0
 10
102.0633653173661
 20
-135.2386013116765
 30
0.0
 10
102.0633653173661
 20
-135.2386013116765
 30
0.0
 10
102.0485514067795
 20
-134.8837564766957
 30
0.0
 10
101.8855983903272
 20
-134.8341471017081
 30
0.0
 10
101.7712212202169
 20
-134.8024522232438
 30
0.0
 10
101.7712212202169
 20
-134.8024522232438
 30
0.0
 10
101.7712212202169
 20
-134.646389397762
 30
0.0
 10
101.7712212202169
 20
-134.646389397762
 30
0.0
 10
101.7712212202169
 20
-134.646389397762
 30
0.0
 10
103.3156575262544
 20
-134.646389397762
 30
0.0
 10
103.3156575262544
 20
-134.646389397762
 30
0.0
 10
103.3156575262544
 20
-134.646389397762
 30
0.0
 10
103.3156575262544
 20
-134.8861680435354
 30
0.0
 10
103.3156575262544
 20
-134.8861680435354
 30
0.0
  0
HATCH
  5
99
330
94
100
AcDbEntity
  8
_U+30EC_U+30A4_U+30E4_U+30FC 1
 62
   179
420
  2234388
100
AcDbHatch
 10
0.0
 20
0.0
 30
0.0
210
0.0
220
0.0
230
1.0
  2
SOLID
 70
     1
 71
     0
 91
        1
 92
        1
 93
        1
 72
     4
 94
        3
 73
     0
 74
     1
 95
       26
 96
       22
 40
0.0
 40
0.0
 40
0.0
 40
0.0
 40
1.0
 40
1.0
 40
1.0
 40
2.0
 40
2.0
 40
2.0
 40
3.0
 40
3.0
 40
3.0
 40
4.0
 40
4.0
 40
4.0
 40
5.0
 40
5.0
 40
5.0
 40
6.0
 40
6.0
 40
6.0
 40
7.0
 40
7.0
 40
7.0
 40
7.0
 10
103.3156575262544
 20
-134.8861680435354
 10
103.3156575262544
 20
-134.8861680435354
 10
102.2115044232318
 20
-134.8861680435354
 10
102.2115044232318
 20
-134.8861680435354
 10
102.2115044232318
 20
-134.8861680435354
 10
102.2115044232318
 20
-135.2386013116765
 10
102.2115044232318
 20
-135.2386013116765
 10
102.2115044232318
 20
-135.2386013116765
 10
102.0633653173661
 20
-135.2386013116765
 10
102.0633653173661
 20
-135.2386013116765
 10
102.0485514067795
 20
-134.8837564766957
 10
101.8855983903272
 20
-134.8341471017081
 10
101.7712212202169
 20
-134.8024522232438
 10
101.7712212202169
 20
-134.8024522232438
 10
101.7712212202169
 20
-134.646389397762
 10
101.7712212202169
 20
-134.646389397762
 10
101.7712212202169
 20
-134.646389397762
 10
103.3156575262544
 20
-134.646389397762
 10
103.3156575262544
 20
-134.646389397762
 10
103.3156575262544
 20
-134.646389397762
 10
103.3156575262544
 20
-134.8861680435354
 10
103.3156575262544
 20
-134.8861680435354
 97
        0
 97
        0
 75
     2
 76
     1
 98
        0
  0
SPLINE
  5
9A
330
94
100
AcDbEntity
  8
_U+30EC_U+30A4_U+30E4_U+30FC 1
370
     0
100
AcDbSpline
210
0.0
220
0.0
230
1.0
 70
    11
 71
     3
 72
    62
 73
    58
 74
     0
 42
0.0000000001
 43
0.0000000001
 12
1.0
 22
0.0
 32
0.0
 13
1.0
 23
0.0
 33
0.0
 40
0.0
 40
0.0
 40
0.0
 40
0.0
 40
1.0
 40
1.0
 40
1.0
 40
2.0
 40
2.0
 40
2.0
 40
3.0
 40
3.0
 40
3.0
 40
4.0
 40
4.0
 40
4.0
 40
5.0
 40
5.0
 40
5.0
 40
6.0
 40
6.0
 40
6.0
 40
7.0
 40
7.0
 40
7.0
 40
8.0
 40
8.0
 40
8.0
 40
9.0
 40
9.0
 40
9.0
 40
10.0
 40
10.0
 40
10.0
 40
11.0
 40
11.0
 40
11.0
 40
12.0
 40
12.0
 40
12.0
 40
13.0
 40
13.0
 40
13.0
 40
14.0
 40
14.0
 40
14.0
 40
15.0
 40
15.0
 40
15.0
 40
16.0
 40
16.0
 40
16.0
 40
17.0
 40
17.0
 40
17.0
 40
18.0
 40
18.0
 40
18.0
 40
19.0
 40
19.0
 40
19.0
 40
19.0
 10
103.3663004298876
 20
-133.5852999883051
 30
0.0
 10
103.3663004298876
 20
-133.6869303051199
 30
0.0
 10
103.3452853474276
 20
-133.9198187599228
 30
0.0
 10
103.1592501912241
 20
-134.053143955202
 30
0.0
 10
103.0469400784049
 20
-134.1323811513628
 30
0.0
 10
102.9477213284297
 20
-134.1368597754936
 30
0.0
 10
102.8629719794926
 20
-134.1413383996244
 30
0.0
 10
102.8629719794926
 20
-134.1413383996244
 30
0.0
 10
102.8629719794926
 20
-133.9063828875304
 30
0.0
 10
102.8629719794926
 20
-133.9063828875304
 30
0.0
 10
102.9370415324255
 20
-133.9039713206907
 30
0.0
 10
103.171652534971
 20
-133.8926025055894
 30
0.0
 10
103.171652534971
 20
-133.5897786124359
 30
0.0
 10
103.171652534971
 20
-133.4426730352157
 30
0.0
 10
103.1020616061689
 20
-133.2800645283119
 30
0.0
 10
102.8736517754969
 20
-133.2800645283119
 30
0.0
 10
102.7572075480954
 20
-133.2800645283119
 30
0.0
 10
102.7086317017534
 20
-133.3207166550379
 30
0.0
 10
102.6769368232891
 20
-133.3548231003419
 30
0.0
 10
102.6028672703562
 20
-133.4337157869541
 30
0.0
 10
102.5901204170608
 20
-133.5580837339716
 30
0.0
 10
102.5901204170608
 20
-133.6169948667694
 30
0.0
 10
102.5901204170608
 20
-133.6373209301323
 30
0.0
 10
102.592187474352
 20
-133.6755614900186
 30
0.0
 10
102.5963215889343
 20
-133.7051893111918
 30
0.0
 10
102.5963215889343
 20
-133.7051893111918
 30
0.0
 10
102.4016736940176
 20
-133.7051893111918
 30
0.0
 10
102.4016736940176
 20
-133.7051893111918
 30
0.0
 10
102.4082193754396
 20
-133.6645371844658
 30
0.0
 10
102.4102864327308
 20
-133.6190619240605
 30
0.0
 10
102.4102864327308
 20
-133.6125162426385
 30
0.0
 10
102.4102864327308
 20
-133.5422362947394
 30
0.0
 10
102.3889268407222
 20
-133.3296739032995
 30
0.0
 10
102.1522487808856
 20
-133.3296739032995
 30
0.0
 10
101.9744818538467
 20
-133.3296739032995
 30
0.0
 10
101.9193603260827
 20
-133.4698892895492
 30
0.0
 10
101.9193603260827
 20
-133.5873670455962
 30
0.0
 10
101.9193603260827
 20
-133.8702093849352
 30
0.0
 10
102.1522487808856
 20
-133.8791666331969
 30
0.0
 10
102.2239067669787
 20
-133.8836452573277
 30
0.0
 10
102.2239067669787
 20
-133.8836452573277
 30
0.0
 10
102.2239067669787
 20
-134.1006862728985
 30
0.0
 10
102.2239067669787
 20
-134.1006862728985
 30
0.0
 10
102.0991943104127
 20
-134.0917290246368
 30
0.0
 10
101.7226453738749
 20
-134.0624457130122
 30
0.0
 10
101.7226453738749
 20
-133.5739311732037
 30
0.0
 10
101.7226453738749
 20
-133.3341525274303
 30
0.0
 10
101.8497693972806
 20
-133.0764593851337
 30
0.0
 10
102.1457030994636
 20
-133.0764593851337
 30
0.0
 10
102.3320827652156
 20
-133.0764593851337
 30
0.0
 10
102.4144205473131
 20
-133.1784342114971
 30
0.0
 10
102.4757432469505
 20
-133.2845431524428
 30
0.0
 10
102.5033040108325
 20
-133.219086338223
 30
0.0
 10
102.5835747356388
 20
-133.0244384433064
 30
0.0
 10
102.8609049222014
 20
-133.0244384433064
 30
0.0
 10
103.199213298853
 20
-133.0244384433064
 30
0.0
 10
103.3663004298876
 20
-133.2890217765736
 30
0.0
 10
103.3663004298876
 20
-133.5852999883051
 30
0.0
  0
HATCH
  5
9B
330
94
100
AcDbEntity
  8
_U+30EC_U+30A4_U+30E4_U+30FC 1
 62
   179
420
  2234388
100
AcDbHatch
 10
0.0
 20
0.0
 30
0.0
210
0.0
220
0.0
230
1.0
  2
SOLID
 70
     1
 71
     0
 91
        1
 92
        1
 93
        1
 72
     4
 94
        3
 73
     0
 74
     1
 95
       62
 96
       58
 40
0.0
 40
0.0
 40
0.0
 40
0.0
 40
1.0
 40
1.0
 40
1.0
 40
2.0
 40
2.0
 40
2.0
 40
3.0
 40
3.0
 40
3.0
 40
4.0
 40
4.0
 40
4.0
 40
5.0
 40
5.0
 40
5.0
 40
6.0
 40
6.0
 40
6.0
 40
7.0
 40
7.0
 40
7.0
 40
8.0
 40
8.0
 40
8.0
 40
9.0
 40
9.0
 40
9.0
 40
10.0
 40
10.0
 40
10.0
 40
11.0
 40
11.0
 40
11.0
 40
12.0
 40
12.0
 40
12.0
 40
13.0
 40
13.0
 40
13.0
 40
14.0
 40
14.0
 40
14.0
 40
15.0
 40
15.0
 40
15.0
 40
16.0
 40
16.0
 40
16.0
 40
17.0
 40
17.0
 40
17.0
 40
18.0
 40
18.0
 40
18.0
 40
19.0
 40
19.0
 40
19.0
 40
19.0
 10
103.3663004298876
 20
-133.5852999883051
 10
103.3663004298876
 20
-133.6869303051199
 10
103.3452853474276
 20
-133.9198187599228
 10
103.1592501912241
 20
-134.053143955202
 10
103.0469400784049
 20
-134.1323811513628
 10
102.9477213284297
 20
-134.1368597754936
 10
102.8629719794926
 20
-134.1413383996244
 10
102.8629719794926
 20
-134.1413383996244
 10
102.8629719794926
 20
-133.9063828875304
 10
102.8629719794926
 20
-133.9063828875304
 10
102.9370415324255
 20
-133.9039713206907
 10
103.171652534971
 20
-133.8926025055894
 10
103.171652534971
 20
-133.5897786124359
 10
103.171652534971
 20
-133.4426730352157
 10
103.1020616061689
 20
-133.2800645283119
 10
102.8736517754969
 20
-133.2800645283119
 10
102.7572075480954
 20
-133.2800645283119
 10
102.7086317017534
 20
-133.3207166550379
 10
102.6769368232891
 20
-133.3548231003419
 10
102.6028672703562
 20
-133.4337157869541
 10
102.5901204170608
 20
-133.5580837339716
 10
102.5901204170608
 20
-133.6169948667694
 10
102.5901204170608
 20
-133.6373209301323
 10
102.592187474352
 20
-133.6755614900186
 10
102.5963215889343
 20
-133.7051893111918
 10
102.5963215889343
 20
-133.7051893111918
 10
102.4016736940176
 20
-133.7051893111918
 10
102.4016736940176
 20
-133.7051893111918
 10
102.4082193754396
 20
-133.6645371844658
 10
102.4102864327308
 20
-133.6190619240605
 10
102.4102864327308
 20
-133.6125162426385
 10
102.4102864327308
 20
-133.5422362947394
 10
102.3889268407222
 20
-133.3296739032995
 10
102.1522487808856
 20
-133.3296739032995
 10
101.9744818538467
 20
-133.3296739032995
 10
101.9193603260827
 20
-133.4698892895492
 10
101.9193603260827
 20
-133.5873670455962
 10
101.9193603260827
 20
-133.8702093849352
 10
102.1522487808856
 20
-133.8791666331969
 10
102.2239067669787
 20
-133.8836452573277
 10
102.2239067669787
 20
-133.8836452573277
 10
102.2239067669787
 20
-134.1006862728985
 10
102.2239067669787
 20
-134.1006862728985
 10
102.0991943104127
 20
-134.0917290246368
 10
101.7226453738749
 20
-134.0624457130122
 10
101.7226453738749
 20
-133.5739311732037
 10
101.7226453738749
 20
-133.3341525274303
 10
101.8497693972806
 20
-133.0764593851337
 10
102.1457030994636
 20
-133.0764593851337
 10
102.3320827652156
 20
-133.0764593851337
 10
102.4144205473131
 20
-133.1784342114971
 10
102.4757432469505
 20
-133.2845431524428
 10
102.5033040108325
 20
-133.219086338223
 10
102.5835747356388
 20
-133.0244384433064
 10
102.8609049222014
 20
-133.0244384433064
 10
103.199213298853
 20
-133.0244384433064
 10
103.3663004298876
 20
-133.2890217765736
 10
103.3663004298876
 20
-133.5852999883051
 97
        0
 97
        0
 75
     2
 76
     1
 98
        0
  0
ENDBLK
  5
97
330
94
100
AcDbEntity
  8
0
100
AcDbBlockEnd
  0
BLOCK
  5
9E
330
9C
100
AcDbEntity
  8
0
100
AcDbBlockBegin
  2
block 4
 70
     0
 10
0.0
 20
0.0
 30
0.0
  3
block 4
  1

  0
SPLINE
  5
A0
330
9C
100
AcDbEntity
  8
_U+30EC_U+30A4_U+30E4_U+30FC 1
370
     0
100
AcDbSpline
210
0.0
220
0.0
230
1.0
 70
    11
 71
     3
 72
    44
 73
    40
 74
     0
 42
0.0000000001
 43
0.0000000001
 12
1.0
 22
0.0
 32
0.0
 13
1.0
 23
0.0
 33
0.0
 40
0.0
 40
0.0
 40
0.0
 40
0.0
 40
1.0
 40
1.0
 40
1.0
 40
2.0
 40
2.0
 40
2.0
 40
3.0
 40
3.0
 40
3.0
 40
4.0
 40
4.0
 40
4.0
 40
5.0
 40
5.0
 40
5.0
 40
6.0
 40
6.0
 40
6.0
 40
7.0
 40
7.0
 40
7.0
 40
8.0
 40
8.0
 40
8.0
 40
9.0
 40
9.0
 40
9.0
 40
10.0
 40
10.0
 40
10.0
 40
11.0
 40
11.0
 40
11.0
 40
12.0
 40
12.0
 40
12.0
 40
13.0
 40
13.0
 40
13.0
 40
13.0
 10
86.93164467227751
 20
-144.4759358362768
 30
0.0
 10
86.69875621747462
 20
-144.6347547381469
 30
0.0
 10
86.59936521272516
 20
-144.7088242910797
 30
0.0
 10
86.5473442708979
 20
-144.8524847728147
 30
0.0
 10
86.5473442708979
 20
-144.8524847728147
 30
0.0
 10
87.37933483058572
 20
-144.8524847728147
 30
0.0
 10
87.37933483058572
 20
-144.8524847728147
 30
0.0
 10
87.37933483058572
 20
-144.8524847728147
 30
0.0
 10
87.37933483058572
 20
-145.0578124637356
 30
0.0
 10
87.37933483058572
 20
-145.0578124637356
 30
0.0
 10
87.37933483058572
 20
-145.0578124637356
 30
0.0
 10
86.28052162556529
 20
-145.0578124637356
 30
0.0
 10
86.28052162556529
 20
-145.0578124637356
 30
0.0
 10
86.314455816095
 20
-144.7002115523666
 30
0.0
 10
86.38456350921983
 20
-144.6220078848515
 30
0.0
 10
86.79608016493293
 20
-144.3236626158288
 30
0.0
 10
87.06962074646177
 20
-144.1248806063299
 30
0.0
 10
87.1397284395866
 20
-144.0570122252705
 30
0.0
 10
87.1397284395866
 20
-143.919552915409
 30
0.0
 10
87.1397284395866
 20
-143.8010416307164
 30
0.0
 10
87.06273055549127
 20
-143.6701280022769
 30
0.0
 10
86.85257973089102
 20
-143.6701280022769
 30
0.0
 10
86.57456052523136
 20
-143.6701280022769
 30
0.0
 10
86.56543102219545
 20
-143.9006048902401
 30
0.0
 10
86.56095239806463
 20
-144.0170491176416
 30
0.0
 10
86.56095239806463
 20
-144.0170491176416
 30
0.0
 10
86.3213460070655
 20
-144.0170491176416
 30
0.0
 10
86.3213460070655
 20
-144.0170491176416
 30
0.0
 10
86.33030325532715
 20
-143.8899250942358
 30
0.0
 10
86.34167207042847
 20
-143.7779594909652
 30
0.0
 10
86.42745494801119
 20
-143.6594482062727
 30
0.0
 10
86.54510495883248
 20
-143.4985622471115
 30
0.0
 10
86.74405922310565
 20
-143.464800311356
 30
0.0
 10
86.86842717012317
 20
-143.464800311356
 30
0.0
 10
87.1645331270804
 20
-143.464800311356
 30
0.0
 10
87.38605276678196
 20
-143.6487684102684
 30
0.0
 10
87.38605276678196
 20
-143.9216199727002
 30
0.0
 10
87.38605276678196
 20
-144.1503743129207
 30
0.0
 10
87.26185707453871
 20
-144.2495930628959
 30
0.0
 10
86.93164467227751
 20
-144.4759358362768
 30
0.0
  0
HATCH
  5
A1
330
9C
100
AcDbEntity
  8
_U+30EC_U+30A4_U+30E4_U+30FC 1
 62
   179
420
  2234388
100
AcDbHatch
 10
0.0
 20
0.0
 30
0.0
210
0.0
220
0.0
230
1.0
  2
SOLID
 70
     1
 71
     0
 91
        1
 92
        1
 93
        1
 72
     4
 94
        3
 73
     0
 74
     1
 95
       44
 96
       40
 40
0.0
 40
0.0
 40
0.0
 40
0.0
 40
1.0
 40
1.0
 40
1.0
 40
2.0
 40
2.0
 40
2.0
 40
3.0
 40
3.0
 40
3.0
 40
4.0
 40
4.0
 40
4.0
 40
5.0
 40
5.0
 40
5.0
 40
6.0
 40
6.0
 40
6.0
 40
7.0
 40
7.0
 40
7.0
 40
8.0
 40
8.0
 40
8.0
 40
9.0
 40
9.0
 40
9.0
 40
10.0
 40
10.0
 40
10.0
 40
11.0
 40
11.0
 40
11.0
 40
12.0
 40
12.0
 40
12.0
 40
13.0
 40
13.0
 40
13.0
 40
13.0
 10
86.93164467227751
 20
-144.4759358362768
 10
86.69875621747462
 20
-144.6347547381469
 10
86.59936521272516
 20
-144.7088242910797
 10
86.5473442708979
 20
-144.8524847728147
 10
86.5473442708979
 20
-144.8524847728147
 10
87.37933483058572
 20
-144.8524847728147
 10
87.37933483058572
 20
-144.8524847728147
 10
87.37933483058572
 20
-144.8524847728147
 10
87.37933483058572
 20
-145.0578124637356
 10
87.37933483058572
 20
-145.0578124637356
 10
87.37933483058572
 20
-145.0578124637356
 10
86.28052162556529
 20
-145.0578124637356
 10
86.28052162556529
 20
-145.0578124637356
 10
86.314455816095
 20
-144.7002115523666
 10
86.38456350921983
 20
-144.6220078848515
 10
86.79608016493293
 20
-144.3236626158288
 10
87.06962074646177
 20
-144.1248806063299
 10
87.1397284395866
 20
-144.0570122252705
 10
87.1397284395866
 20
-143.919552915409
 10
87.1397284395866
 20
-143.8010416307164
 10
87.06273055549127
 20
-143.6701280022769
 10
86.85257973089102
 20
-143.6701280022769
 10
86.57456052523136
 20
-143.6701280022769
 10
86.56543102219545
 20
-143.9006048902401
 10
86.56095239806463
 20
-144.0170491176416
 10
86.56095239806463
 20
-144.0170491176416
 10
86.3213460070655
 20
-144.0170491176416
 10
86.3213460070655
 20
-144.0170491176416
 10
86.33030325532715
 20
-143.8899250942358
 10
86.34167207042847
 20
-143.7779594909652
 10
86.42745494801119
 20
-143.6594482062727
 10
86.54510495883248
 20
-143.4985622471115
 10
86.74405922310565
 20
-143.464800311356
 10
86.86842717012317
 20
-143.464800311356
 10
87.1645331270804
 20
-143.464800311356
 10
87.38605276678196
 20
-143.6487684102684
 10
87.38605276678196
 20
-143.9216199727002
 10
87.38605276678196
 20
-144.1503743129207
 10
87.26185707453871
 20
-144.2495930628959
 10
86.93164467227751
 20
-144.4759358362768
 97
        0
 97
        0
 75
     2
 76
     1
 98
        0
  0
SPLINE
  5
A2
330
9C
100
AcDbEntity
  8
_U+30EC_U+30A4_U+30E4_U+30FC 1
370
     0
100
AcDbSpline
210
0.0
220
0.0
230
1.0
 70
    11
 71
     3
 72
    53
 73
    49
 74
     0
 42
0.0000000001
 43
0.0000000001
 12
1.0
 22
0.0
 32
0.0
 13
1.0
 23
0.0
 33
0.0
 40
0.0
 40
0.0
 40
0.0
 40
0.0
 40
1.0
 40
1.0
 40
1.0
 40
2.0
 40
2.0
 40
2.0
 40
3.0
 40
3.0
 40
3.0
 40
4.0
 40
4.0
 40
4.0
 40
5.0
 40
5.0
 40
5.0
 40
6.0
 40
6.0
 40
6.0
 40
7.0
 40
7.0
 40
7.0
 40
8.0
 40
8.0
 40
8.0
 40
9.0
 40
9.0
 40
9.0
 40
10.0
 40
10.0
 40
10.0
 40
11.0
 40
11.0
 40
11.0
 40
12.0
 40
12.0
 40
12.0
 40
13.0
 40
13.0
 40
13.0
 40
14.0
 40
14.0
 40
14.0
 40
15.0
 40
15.0
 40
15.0
 40
16.0
 40
16.0
 40
16.0
 40
16.0
 10
88.06973196582979
 20
-145.1084553673687
 30
0.0
 10
87.98601614553822
 20
-145.1084553673687
 30
0.0
 10
87.87749563775286
 20
-145.091574399491
 30
0.0
 10
87.76897512996749
 20
-145.0281846425624
 30
0.0
 10
87.58362899286104
 20
-144.9182860965829
 30
0.0
 10
87.5608913626584
 20
-144.7870279585949
 30
0.0
 10
87.54056529929542
 20
-144.6791964699066
 30
0.0
 10
87.54056529929542
 20
-144.6791964699066
 30
0.0
 10
87.77793237822914
 20
-144.6791964699066
 30
0.0
 10
87.77793237822914
 20
-144.6791964699066
 30
0.0
 10
87.8368435110269
 20
-144.8779784794055
 30
0.0
 10
87.97240801837148
 20
-144.9076063005787
 30
0.0
 10
88.0719712778952
 20
-144.9076063005787
 30
0.0
 10
88.22114391240652
 20
-144.9076063005787
 30
0.0
 10
88.38392467408458
 20
-144.8080430410549
 30
0.0
 10
88.38392467408458
 20
-144.5754990958006
 30
0.0
 10
88.38392467408458
 20
-144.3195285012465
 30
0.0
 10
88.19168834600764
 20
-144.2495930628959
 30
0.0
 10
88.0628417748593
 20
-144.2495930628959
 30
0.0
 10
88.02890758432959
 20
-144.2495930628959
 30
0.0
 10
87.87749563775286
 20
-144.2495930628959
 30
0.0
 10
87.78258325713422
 20
-144.3787841435928
 30
0.0
 10
87.78258325713422
 20
-144.3787841435928
 30
0.0
 10
87.5948255531881
 20
-144.3598361184239
 30
0.0
 10
87.5948255531881
 20
-144.3598361184239
 30
0.0
 10
87.5948255531881
 20
-144.3598361184239
 30
0.0
 10
87.72384437911072
 20
-143.513376157698
 30
0.0
 10
87.72384437911072
 20
-143.513376157698
 30
0.0
 10
87.72384437911072
 20
-143.513376157698
 30
0.0
 10
88.55583493879854
 20
-143.513376157698
 30
0.0
 10
88.55583493879854
 20
-143.513376157698
 30
0.0
 10
88.55583493879854
 20
-143.513376157698
 30
0.0
 10
88.55583493879854
 20
-143.7080240526147
 30
0.0
 10
88.55583493879854
 20
-143.7080240526147
 30
0.0
 10
88.55583493879854
 20
-143.7080240526147
 30
0.0
 10
87.89782170111583
 20
-143.7080240526147
 30
0.0
 10
87.89782170111583
 20
-143.7080240526147
 30
0.0
 10
87.89782170111583
 20
-143.7080240526147
 30
0.0
 10
87.82771400799099
 20
-144.1310817782033
 30
0.0
 10
87.82771400799099
 20
-144.1310817782033
 30
0.0
 10
87.893343076985
 20
-144.0973198424479
 30
0.0
 10
87.9815375214074
 20
-144.0570122252705
 30
0.0
 10
88.10814478049033
 20
-144.0570122252705
 30
0.0
 10
88.37944604995376
 20
-144.0570122252705
 30
0.0
 10
88.63266056811962
 20
-144.2433918910225
 30
0.0
 10
88.63266056811962
 20
-144.5565510706317
 30
0.0
 10
88.63266056811962
 20
-144.8738443648232
 30
0.0
 10
88.39288192234623
 20
-145.1084553673687
 30
0.0
 10
88.06973196582979
 20
-145.1084553673687
 30
0.0
  0
HATCH
  5
A3
330
9C
100
AcDbEntity
  8
_U+30EC_U+30A4_U+30E4_U+30FC 1
 62
   179
420
  2234388
100
AcDbHatch
 10
0.0
 20
0.0
 30
0.0
210
0.0
220
0.0
230
1.0
  2
SOLID
 70
     1
 71
     0
 91
        1
 92
        1
 93
        1
 72
     4
 94
        3
 73
     0
 74
     1
 95
       53
 96
       49
 40
0.0
 40
0.0
 40
0.0
 40
0.0
 40
1.0
 40
1.0
 40
1.0
 40
2.0
 40
2.0
 40
2.0
 40
3.0
 40
3.0
 40
3.0
 40
4.0
 40
4.0
 40
4.0
 40
5.0
 40
5.0
 40
5.0
 40
6.0
 40
6.0
 40
6.0
 40
7.0
 40
7.0
 40
7.0
 40
8.0
 40
8.0
 40
8.0
 40
9.0
 40
9.0
 40
9.0
 40
10.0
 40
10.0
 40
10.0
 40
11.0
 40
11.0
 40
11.0
 40
12.0
 40
12.0
 40
12.0
 40
13.0
 40
13.0
 40
13.0
 40
14.0
 40
14.0
 40
14.0
 40
15.0
 40
15.0
 40
15.0
 40
16.0
 40
16.0
 40
16.0
 40
16.0
 10
88.06973196582979
 20
-145.1084553673687
 10
87.98601614553822
 20
-145.1084553673687
 10
87.87749563775286
 20
-145.091574399491
 10
87.76897512996749
 20
-145.0281846425624
 10
87.58362899286104
 20
-144.9182860965829
 10
87.5608913626584
 20
-144.7870279585949
 10
87.54056529929542
 20
-144.6791964699066
 10
87.54056529929542
 20
-144.6791964699066
 10
87.77793237822914
 20
-144.6791964699066
 10
87.77793237822914
 20
-144.6791964699066
 10
87.8368435110269
 20
-144.8779784794055
 10
87.97240801837148
 20
-144.9076063005787
 10
88.0719712778952
 20
-144.9076063005787
 10
88.22114391240652
 20
-144.9076063005787
 10
88.38392467408458
 20
-144.8080430410549
 10
88.38392467408458
 20
-144.5754990958006
 10
88.38392467408458
 20
-144.3195285012465
 10
88.19168834600764
 20
-144.2495930628959
 10
88.0628417748593
 20
-144.2495930628959
 10
88.02890758432959
 20
-144.2495930628959
 10
87.87749563775286
 20
-144.2495930628959
 10
87.78258325713422
 20
-144.3787841435928
 10
87.78258325713422
 20
-144.3787841435928
 10
87.5948255531881
 20
-144.3598361184239
 10
87.5948255531881
 20
-144.3598361184239
 10
87.5948255531881
 20
-144.3598361184239
 10
87.72384437911072
 20
-143.513376157698
 10
87.72384437911072
 20
-143.513376157698
 10
87.72384437911072
 20
-143.513376157698
 10
88.55583493879854
 20
-143.513376157698
 10
88.55583493879854
 20
-143.513376157698
 10
88.55583493879854
 20
-143.513376157698
 10
88.55583493879854
 20
-143.7080240526147
 10
88.55583493879854
 20
-143.7080240526147
 10
88.55583493879854
 20
-143.7080240526147
 10
87.89782170111583
 20
-143.7080240526147
 10
87.89782170111583
 20
-143.7080240526147
 10
87.89782170111583
 20
-143.7080240526147
 10
87.82771400799099
 20
-144.1310817782033
 10
87.82771400799099
 20
-144.1310817782033
 10
87.893343076985
 20
-144.0973198424479
 10
87.9815375214074
 20
-144.0570122252705
 10
88.10814478049033
 20
-144.0570122252705
 10
88.37944604995376
 20
-144.0570122252705
 10
88.63266056811962
 20
-144.2433918910225
 10
88.63266056811962
 20
-144.5565510706317
 10
88.63266056811962
 20
-144.8738443648232
 10
88.39288192234623
 20
-145.1084553673687
 10
88.06973196582979
 20
-145.1084553673687
 97
        0
 97
        0
 75
     2
 76
     1
 98
        0
  0
ENDBLK
  5
9F
330
9C
100
AcDbEntity
  8
0
100
AcDbBlockEnd
  0
ENDSEC
  0
SECTION
  2
ENTITIES
  0
POLYLINE
  5
41
330
1F
100
AcDbEntity
  8
_U+30EC_U+30A4_U+30E4_U+30FC 1
 62
   179
420
  2234388
370
    25
100
AcDb2dPolyline
 66
     1
 10
0.0
 20
0.0
 30
0.0
  0
VERTEX
  5
42
330
41
100
AcDbEntity
  8
_U+30EC_U+30A4_U+30E4_U+30FC 1
 62
   179
420
  2234388
370
    25
100
AcDbVertex
100
AcDb2dVertex
 10
76.46130054930971
 20
-127.7022746902968
 30
0.0
  0
VERTEX
  5
43
330
41
100
AcDbEntity
  8
_U+30EC_U+30A4_U+30E4_U+30FC 1
 62
   179
420
  2234388
370
    25
100
AcDbVertex
100
AcDb2dVertex
 10
88.46124802094332
 20
-127.7022746902968
 30
0.0
  0
SEQEND
  5
44
330
41
100
AcDbEntity
  8
_U+30EC_U+30A4_U+30E4_U+30FC 1
 62
   179
420
  2234388
370
    25
  0
POLYLINE
  5
45
330
1F
100
AcDbEntity
  8
_U+30EC_U+30A4_U+30E4_U+30FC 1
 62
   179
420
  2234388
370
    25
100
AcDb2dPolyline
 66
     1
 10
0.0
 20
0.0
 30
0.0
  0
VERTEX
  5
46
330
45
100
AcDbEntity
  8
_U+30EC_U+30A4_U+30E4_U+30FC 1
 62
   179
420
  2234388
370
    25
100
AcDbVertex
100
AcDb2dVertex
 10
88.96148689707006
 20
-109.7023530281301
 30
0.0
  0
VERTEX
  5
47
330
45
100
AcDbEntity
  8
_U+30EC_U+30A4_U+30E4_U+30FC 1
 62
   179
420
  2234388
370
    25
100
AcDbVertex
100
AcDb2dVertex
 10
88.96148689707006
 20
-127.2023885793105
 30
0.0
  0
SEQEND
  5
48
330
45
100
AcDbEntity
  8
_U+30EC_U+30A4_U+30E4_U+30FC 1
 62
   179
420
  2234388
370
    25
  0
POLYLINE
  5
49
330
1F
100
AcDbEntity
  8
_U+30EC_U+30A4_U+30E4_U+30FC 1
 62
   179
420
  2234388
370
    25
100
AcDb2dPolyline
 66
     1
 10
0.0
 20
0.0
 30
0.0
  0
VERTEX
  5
4A
330
49
100
AcDbEntity
  8
_U+30EC_U+30A4_U+30E4_U+30FC 1
 62
   179
420
  2234388
370
    25
100
AcDbVertex
100
AcDb2dVertex
 10
89.46137299542801
 20
-140.7025238537133
 30
0.0
  0
VERTEX
  5
4B
330
49
100
AcDbEntity
  8
_U+30EC_U+30A4_U+30E4_U+30FC 1
 62
   179
420
  2234388
370
    25
100
AcDbVertex
100
AcDb2dVertex
 10
99.46128218475351
 20
-140.7025238537133
 30
0.0
  0
SEQEND
  5
4C
330
49
100
AcDbEntity
  8
_U+30EC_U+30A4_U+30E4_U+30FC 1
 62
   179
420
  2234388
370
    25
  0
POLYLINE
  5
4D
330
1F
100
AcDbEntity
  8
_U+30EC_U+30A4_U+30E4_U+30FC 1
 62
   179
420
  2234388
370
    25
100
AcDb2dPolyline
 66
     1
 10
0.0
 20
0.0
 30
0.0
  0
VERTEX
  5
4E
330
4D
100
AcDbEntity
  8
_U+30EC_U+30A4_U+30E4_U+30FC 1
 62
   179
420
  2234388
370
    25
100
AcDbVertex
100
AcDb2dVertex
 10
76.96153942543644
 20
-141.7022960756859
 30
0.0
  0
VERTEX
  5
4F
330
4D
100
AcDbEntity
  8
_U+30EC_U+30A4_U+30E4_U+30FC 1
 62
   179
420
  2234388
370
    25
100
AcDbVertex
100
AcDb2dVertex
 10
99.46128218475351
 20
-141.7022960756859
 30
0.0
  0
SEQEND
  5
50
330
4D
100
AcDbEntity
  8
_U+30EC_U+30A4_U+30E4_U+30FC 1
 62
   179
420
  2234388
370
    25
  0
POLYLINE
  5
51
330
1F
100
AcDbEntity
  8
_U+30EC_U+30A4_U+30E4_U+30FC 1
 62
   179
420
  2234388
370
    25
100
AcDb2dPolyline
 66
     1
 10
0.0
 20
0.0
 30
0.0
  0
VERTEX
  5
52
330
51
100
AcDbEntity
  8
_U+30EC_U+30A4_U+30E4_U+30FC 1
 62
   179
420
  2234388
370
    25
100
AcDbVertex
100
AcDb2dVertex
 10
74.96132475424395
 20
-117.202338026255
 30
0.0
  0
VERTEX
  5
53
330
51
100
AcDbEntity
  8
_U+30EC_U+30A4_U+30E4_U+30FC 1
 62
   179
420
  2234388
370
    25
100
AcDbVertex
100
AcDb2dVertex
 10
74.96132475424395
 20
-139.7020813539634
 30
0.0
  0
SEQEND
  5
54
330
51
100
AcDbEntity
  8
_U+30EC_U+30A4_U+30E4_U+30FC 1
 62
   179
420
  2234388
370
    25
  0
POLYLINE
  5
55
330
1F
100
AcDbEntity
  8
_U+30EC_U+30A4_U+30E4_U+30FC 1
 62
   179
420
  2234388
370
    25
100
AcDb2dPolyline
 66
     1
 10
0.0
 20
0.0
 30
0.0
  0
VERTEX
  5
56
330
55
100
AcDbEntity
  8
_U+30EC_U+30A4_U+30E4_U+30FC 1
 62
   179
420
  2234388
370
    25
100
AcDbVertex
100
AcDb2dVertex
 10
88.96148689707006
 20
-128.2025135790605
 30
0.0
  0
VERTEX
  5
57
330
55
100
AcDbEntity
  8
_U+30EC_U+30A4_U+30E4_U+30FC 1
 62
   179
420
  2234388
370
    25
100
AcDbVertex
100
AcDb2dVertex
 10
88.96148689707006
 20
-140.2022849649496
 30
0.0
  0
SEQEND
  5
58
330
55
100
AcDbEntity
  8
_U+30EC_U+30A4_U+30E4_U+30FC 1
 62
   179
420
  2234388
370
    25
  0
POLYLINE
  5
59
330
1F
100
AcDbEntity
  8
_U+30EC_U+30A4_U+30E4_U+30FC 1
 62
   179
420
  2234388
370
    25
100
AcDb2dPolyline
 66
     1
 10
0.0
 20
0.0
 30
0.0
  0
VERTEX
  5
5A
330
59
100
AcDbEntity
  8
_U+30EC_U+30A4_U+30E4_U+30FC 1
 62
   179
420
  2234388
370
    25
100
AcDbVertex
100
AcDb2dVertex
 10
89.46137299542801
 20
-127.7022746902968
 30
0.0
  0
VERTEX
  5
5B
330
59
100
AcDbEntity
  8
_U+30EC_U+30A4_U+30E4_U+30FC 1
 62
   179
420
  2234388
370
    25
100
AcDbVertex
100
AcDb2dVertex
 10
106.9619372711736
 20
-127.7022746902968
 30
0.0
  0
SEQEND
  5
5C
330
59
100
AcDbEntity
  8
_U+30EC_U+30A4_U+30E4_U+30FC 1
 62
   179
420
  2234388
370
    25
  0
POLYLINE
  5
5D
330
1F
100
AcDbEntity
  8
_U+30EC_U+30A4_U+30E4_U+30FC 1
 62
   179
420
  2234388
370
    25
100
AcDb2dPolyline
 66
     1
 10
0.0
 20
0.0
 30
0.0
  0
VERTEX
  5
5E
330
5D
100
AcDbEntity
  8
_U+30EC_U+30A4_U+30E4_U+30FC 1
 62
   179
420
  2234388
370
    25
100
AcDbVertex
100
AcDb2dVertex
 10
75.96141445095175
 20
-117.202338026255
 30
0.0
  0
VERTEX
  5
5F
330
5D
100
AcDbEntity
  8
_U+30EC_U+30A4_U+30E4_U+30FC 1
 62
   179
420
  2234388
370
    25
100
AcDbVertex
100
AcDb2dVertex
 10
75.96141445095175
 20
-127.2023885793105
 30
0.0
  0
SEQEND
  5
60
330
5D
100
AcDbEntity
  8
_U+30EC_U+30A4_U+30E4_U+30FC 1
 62
   179
420
  2234388
370
    25
  0
SPLINE
  5
61
330
1F
100
AcDbEntity
  8
_U+30EC_U+30A4_U+30E4_U+30FC 1
 62
   179
420
  2234388
370
    25
100
AcDbSpline
210
0.0
220
0.0
230
1.0
 70
     8
 71
     3
 72
    11
 73
     7
 74
     0
 42
0.0000000001
 43
0.0000000001
 12
1.0
 22
0.0
 32
0.0
 13
1.0
 23
0.0
 33
0.0
 40
0.0
 40
0.0
 40
0.0
 40
0.0
 40
1.0
 40
1.0
 40
1.0
 40
2.0
 40
2.0
 40
2.0
 40
2.0
 10
99.46128218475351
 20
-141.7022960756859
 30
0.0
 10
99.73757773326018
 20
-141.7022960756859
 30
0.0
 10
99.96152106088024
 20
-141.4783527424079
 30
0.0
 10
99.96152106088024
 20
-141.202762742477
 30
0.0
 10
99.96152106088024
 20
-140.9264671869906
 30
0.0
 10
99.73757773326018
 20
-140.7025238537133
 30
0.0
 10
99.46128218475351
 20
-140.7025238537133
 30
0.0
  0
SPLINE
  5
62
330
1F
100
AcDbEntity
  8
_U+30EC_U+30A4_U+30E4_U+30FC 1
 62
   179
420
  2234388
370
    25
100
AcDbSpline
210
0.0
220
0.0
230
1.0
 70
     8
 71
     3
 72
     8
 73
     4
 74
     0
 42
0.0000000001
 43
0.0000000001
 12
1.0
 22
0.0
 32
0.0
 13
1.0
 23
0.0
 33
0.0
 40
0.0
 40
0.0
 40
0.0
 40
0.0
 40
1.0
 40
1.0
 40
1.0
 40
1.0
 10
88.96148689707006
 20
-140.2022849649496
 30
0.0
 10
88.96148689707006
 20
-140.478580520436
 30
0.0
 10
89.18507744692134
 20
-140.7025238537133
 30
0.0
 10
89.46137299542801
 20
-140.7025238537133
 30
0.0
  0
SPLINE
  5
63
330
1F
100
AcDbEntity
  8
_U+30EC_U+30A4_U+30E4_U+30FC 1
 62
   179
420
  2234388
370
    25
100
AcDbSpline
210
0.0
220
0.0
230
1.0
 70
     8
 71
     3
 72
     8
 73
     4
 74
     0
 42
0.0000000001
 43
0.0000000001
 12
1.0
 22
0.0
 32
0.0
 13
1.0
 23
0.0
 33
0.0
 40
0.0
 40
0.0
 40
0.0
 40
0.0
 40
1.0
 40
1.0
 40
1.0
 40
1.0
 10
88.46124802094332
 20
-127.7022746902968
 30
0.0
 10
88.73757884722687
 20
-127.7022746902968
 30
0.0
 10
88.96148689707006
 20
-127.478366634797
 30
0.0
 10
88.96148689707006
 20
-127.2023885793105
 30
0.0
  0
SPLINE
  5
64
330
1F
100
AcDbEntity
  8
_U+30EC_U+30A4_U+30E4_U+30FC 1
 62
   179
420
  2234388
370
    25
100
AcDbSpline
210
0.0
220
0.0
230
1.0
 70
     8
 71
     3
 72
     8
 73
     4
 74
     0
 42
0.0000000001
 43
0.0000000001
 12
1.0
 22
0.0
 32
0.0
 13
1.0
 23
0.0
 33
0.0
 40
0.0
 40
0.0
 40
0.0
 40
0.0
 40
1.0
 40
1.0
 40
1.0
 40
1.0
 10
89.46137299542801
 20
-127.7022746902968
 30
0.0
 10
89.18507744692134
 20
-127.7022746902968
 30
0.0
 10
88.96148689707006
 20
-127.926218023574
 30
0.0
 10
88.96148689707006
 20
-128.2025135790605
 30
0.0
  0
SPLINE
  5
65
330
1F
100
AcDbEntity
  8
_U+30EC_U+30A4_U+30E4_U+30FC 1
 62
   179
420
  2234388
370
    25
100
AcDbSpline
210
0.0
220
0.0
230
1.0
 70
     8
 71
     3
 72
    11
 73
     7
 74
     0
 42
0.0000000001
 43
0.0000000001
 12
1.0
 22
0.0
 32
0.0
 13
1.0
 23
0.0
 33
0.0
 40
0.0
 40
0.0
 40
0.0
 40
0.0
 40
1.0
 40
1.0
 40
1.0
 40
2.0
 40
2.0
 40
2.0
 40
2.0
 10
75.96141445095175
 20
-117.202338026255
 30
0.0
 10
75.96141445095175
 20
-116.9261835818796
 30
0.0
 10
75.73750831439907
 20
-116.7024519152687
 30
0.0
 10
75.4615283525938
 20
-116.7024519152687
 30
0.0
 10
75.18523280408714
 20
-116.7024519152687
 30
0.0
 10
74.96132475424395
 20
-116.9261835818796
 30
0.0
 10
74.96132475424395
 20
-117.202338026255
 30
0.0
  0
SPLINE
  5
66
330
1F
100
AcDbEntity
  8
_U+30EC_U+30A4_U+30E4_U+30FC 1
 62
   179
420
  2234388
370
    25
100
AcDbSpline
210
0.0
220
0.0
230
1.0
 70
     8
 71
     3
 72
     8
 73
     4
 74
     0
 42
0.0000000001
 43
0.0000000001
 12
1.0
 22
0.0
 32
0.0
 13
1.0
 23
0.0
 33
0.0
 40
0.0
 40
0.0
 40
0.0
 40
0.0
 40
1.0
 40
1.0
 40
1.0
 40
1.0
 10
75.96141445095175
 20
-127.2023885793105
 30
0.0
 10
75.96141445095175
 20
-127.478366634797
 30
0.0
 10
76.18500500080305
 20
-127.7022746902968
 30
0.0
 10
76.46130054930971
 20
-127.7022746902968
 30
0.0
  0
SPLINE
  5
67
330
1F
100
AcDbEntity
  8
_U+30EC_U+30A4_U+30E4_U+30FC 1
 62
   179
420
  2234388
370
    25
100
AcDbSpline
210
0.0
220
0.0
230
1.0
 70
     8
 71
     3
 72
     8
 73
     4
 74
     0
 42
0.0000000001
 43
0.0000000001
 12
1.0
 22
0.0
 32
0.0
 13
1.0
 23
0.0
 33
0.0
 40
0.0
 40
0.0
 40
0.0
 40
0.0
 40
1.0
 40
1.0
 40
1.0
 40
1.0
 10
74.96132475424395
 20
-139.7020813539634
 30
0.0
 10
74.96132475424395
 20
-140.8072635759091
 30
0.0
 10
75.85702750917045
 20
-141.7022960756859
 30
0.0
 10
76.96153942543644
 20
-141.7022960756859
 30
0.0
  0
SPLINE
  5
68
330
1F
100
AcDbEntity
  8
_U+30EC_U+30A4_U+30E4_U+30FC 1
 62
   179
420
  2234388
370
     9
100
AcDbSpline
210
0.0
220
0.0
230
1.0
 70
    11
 71
     3
 72
    17
 73
    13
 74
     0
 42
0.0000000001
 43
0.0000000001
 12
1.0
 22
0.0
 32
0.0
 13
1.0
 23
0.0
 33
0.0
 40
0.0
 40
0.0
 40
0.0
 40
0.0
 40
1.0
 40
1.0
 40
1.0
 40
2.0
 40
2.0
 40
2.0
 40
3.0
 40
3.0
 40
3.0
 40
4.0
 40
4.0
 40
4.0
 40
4.0
 10
75.061233314568
 20
-145.7027255191301
 30
0.0
 10
75.061233314568
 20
-145.6469160746997
 30
0.0
 10
75.01643053680161
 20
-145.6021485747105
 30
0.0
 10
74.96132475424395
 20
-145.6021485747105
 30
0.0
 10
74.906185588984
 20
-145.6021485747105
 30
0.0
 10
74.86141809012611
 20
-145.6469160746997
 30
0.0
 10
74.86141809012611
 20
-145.7027255191301
 30
0.0
 10
74.86141809012611
 20
-145.7578646857826
 30
0.0
 10
74.906185588984
 20
-145.8026321857717
 30
0.0
 10
74.96132475424395
 20
-145.8026321857717
 30
0.0
 10
75.01643053680161
 20
-145.8026321857717
 30
0.0
 10
75.061233314568
 20
-145.7578646857826
 30
0.0
 10
75.061233314568
 20
-145.7027255191301
 30
0.0
  0
SPLINE
  5
69
330
1F
100
AcDbEntity
  8
_U+30EC_U+30A4_U+30E4_U+30FC 1
 62
   179
420
  2234388
370
     9
100
AcDbSpline
210
0.0
220
0.0
230
1.0
 70
    11
 71
     3
 72
    17
 73
    13
 74
     0
 42
0.0000000001
 43
0.0000000001
 12
1.0
 22
0.0
 32
0.0
 13
1.0
 23
0.0
 33
0.0
 40
0.0
 40
0.0
 40
0.0
 40
0.0
 40
1.0
 40
1.0
 40
1.0
 40
2.0
 40
2.0
 40
2.0
 40
3.0
 40
3.0
 40
3.0
 40
4.0
 40
4.0
 40
4.0
 40
4.0
 10
100.0614277249981
 20
-145.7027255191301
 30
0.0
 10
100.0614277249981
 20
-145.6469160746997
 30
0.0
 10
100.0166249483633
 20
-145.6021485747105
 30
0.0
 10
99.96152106088024
 20
-145.6021485747105
 30
0.0
 10
99.9063818956203
 20
-145.6021485747105
 30
0.0
 10
99.8616143967624
 20
-145.6469160746997
 30
0.0
 10
99.8616143967624
 20
-145.7027255191301
 30
0.0
 10
99.8616143967624
 20
-145.7578646857826
 30
0.0
 10
99.9063818956203
 20
-145.8026321857717
 30
0.0
 10
99.96152106088024
 20
-145.8026321857717
 30
0.0
 10
100.0166249483633
 20
-145.8026321857717
 30
0.0
 10
100.0614277249981
 20
-145.7578646857826
 30
0.0
 10
100.0614277249981
 20
-145.7027255191301
 30
0.0
  0
SPLINE
  5
6A
330
1F
100
AcDbEntity
  8
_U+30EC_U+30A4_U+30E4_U+30FC 1
 62
   179
420
  2234388
370
     9
100
AcDbSpline
210
0.0
220
0.0
230
1.0
 70
    11
 71
     3
 72
    17
 73
    13
 74
     0
 42
0.0000000001
 43
0.0000000001
 12
1.0
 22
0.0
 32
0.0
 13
1.0
 23
0.0
 33
0.0
 40
0.0
 40
0.0
 40
0.0
 40
0.0
 40
1.0
 40
1.0
 40
1.0
 40
2.0
 40
2.0
 40
2.0
 40
3.0
 40
3.0
 40
3.0
 40
4.0
 40
4.0
 40
4.0
 40
4.0
 10
104.0618570673831
 20
-140.7025238537133
 30
0.0
 10
104.0618570673831
 20
-140.6473846870603
 30
0.0
 10
104.0170895685252
 20
-140.6026171870717
 30
0.0
 10
103.9619504032652
 20
-140.6026171870717
 30
0.0
 10
103.9064937380134
 20
-140.6026171870717
 30
0.0
 10
103.8620437391474
 20
-140.6473846870603
 30
0.0
 10
103.8620437391474
 20
-140.7025238537133
 30
0.0
 10
103.8620437391474
 20
-140.7576277425882
 30
0.0
 10
103.9064937380134
 20
-140.802430520355
 30
0.0
 10
103.9619504032652
 20
-140.802430520355
 30
0.0
 10
104.0170895685252
 20
-140.802430520355
 30
0.0
 10
104.0618570673831
 20
-140.7576277425882
 30
0.0
 10
104.0618570673831
 20
-140.7025238537133
 30
0.0
  0
SPLINE
  5
6B
330
1F
100
AcDbEntity
  8
_U+30EC_U+30A4_U+30E4_U+30FC 1
 62
   179
420
  2234388
370
     9
100
AcDbSpline
210
0.0
220
0.0
230
1.0
 70
    11
 71
     3
 72
    17
 73
    13
 74
     0
 42
0.0000000001
 43
0.0000000001
 12
1.0
 22
0.0
 32
0.0
 13
1.0
 23
0.0
 33
0.0
 40
0.0
 40
0.0
 40
0.0
 40
0.0
 40
1.0
 40
1.0
 40
1.0
 40
2.0
 40
2.0
 40
2.0
 40
3.0
 40
3.0
 40
3.0
 40
4.0
 40
4.0
 40
4.0
 40
4.0
 10
104.0618570673831
 20
-127.7022746902968
 30
0.0
 10
104.0618570673831
 20
-127.6471708014215
 30
0.0
 10
104.0170895685252
 20
-127.6023680236551
 30
0.0
 10
103.9619504032652
 20
-127.6023680236551
 30
0.0
 10
103.9064937380134
 20
-127.6023680236551
 30
0.0
 10
103.8620437391474
 20
-127.6471708014215
 30
0.0
 10
103.8620437391474
 20
-127.7022746902968
 30
0.0
 10
103.8620437391474
 20
-127.7574138569495
 30
0.0
 10
103.9064937380134
 20
-127.8021813569384
 30
0.0
 10
103.9619504032652
 20
-127.8021813569384
 30
0.0
 10
104.0170895685252
 20
-127.8021813569384
 30
0.0
 10
104.0618570673831
 20
-127.7574138569495
 30
0.0
 10
104.0618570673831
 20
-127.7022746902968
 30
0.0
  0
SPLINE
  5
6C
330
1F
100
AcDbEntity
  8
_U+30EC_U+30A4_U+30E4_U+30FC 1
 62
   179
420
  2234388
370
     9
100
AcDbSpline
210
0.0
220
0.0
230
1.0
 70
    11
 71
     3
 72
    17
 73
    13
 74
     0
 42
0.0000000001
 43
0.0000000001
 12
1.0
 22
0.0
 32
0.0
 13
1.0
 23
0.0
 33
0.0
 40
0.0
 40
0.0
 40
0.0
 40
0.0
 40
1.0
 40
1.0
 40
1.0
 40
2.0
 40
2.0
 40
2.0
 40
3.0
 40
3.0
 40
3.0
 40
4.0
 40
4.0
 40
4.0
 40
4.0
 10
107.0618439352915
 20
-123.7025155246299
 30
0.0
 10
107.0618439352915
 20
-123.647411635755
 30
0.0
 10
107.0170764364336
 20
-123.6026088579882
 30
0.0
 10
106.9619372711736
 20
-123.6026088579882
 30
0.0
 10
106.9068360843843
 20
-123.6026088579882
 30
0.0
 10
106.8620333066176
 20
-123.647411635755
 30
0.0
 10
106.8620333066176
 20
-123.7025155246299
 30
0.0
 10
106.8620333066176
 20
-123.757654691283
 30
0.0
 10
106.9068360843843
 20
-123.8024221912715
 30
0.0
 10
106.9619372711736
 20
-123.8024221912715
 30
0.0
 10
107.0170764364336
 20
-123.8024221912715
 30
0.0
 10
107.0618439352915
 20
-123.757654691283
 30
0.0
 10
107.0618439352915
 20
-123.7025155246299
 30
0.0
  0
SPLINE
  5
6D
330
1F
100
AcDbEntity
  8
_U+30EC_U+30A4_U+30E4_U+30FC 1
 62
   179
420
  2234388
370
     9
100
AcDbSpline
210
0.0
220
0.0
230
1.0
 70
    11
 71
     3
 72
    17
 73
    13
 74
     0
 42
0.0000000001
 43
0.0000000001
 12
1.0
 22
0.0
 32
0.0
 13
1.0
 23
0.0
 33
0.0
 40
0.0
 40
0.0
 40
0.0
 40
0.0
 40
1.0
 40
1.0
 40
1.0
 40
2.0
 40
2.0
 40
2.0
 40
3.0
 40
3.0
 40
3.0
 40
4.0
 40
4.0
 40
4.0
 40
4.0
 10
89.06139356118788
 20
-123.7025155246299
 30
0.0
 10
89.06139356118788
 20
-123.647411635755
 30
0.0
 10
89.01662606233
 20
-123.6026088579882
 30
0.0
 10
88.96148689707006
 20
-123.6026088579882
 30
0.0
 10
88.9060302318182
 20
-123.6026088579882
 30
0.0
 10
88.86122745518344
 20
-123.647411635755
 30
0.0
 10
88.86122745518344
 20
-123.7025155246299
 30
0.0
 10
88.86122745518344
 20
-123.757654691283
 30
0.0
 10
88.9060302318182
 20
-123.8024221912715
 30
0.0
 10
88.96148689707006
 20
-123.8024221912715
 30
0.0
 10
89.01662606233
 20
-123.8024221912715
 30
0.0
 10
89.06139356118788
 20
-123.757654691283
 30
0.0
 10
89.06139356118788
 20
-123.7025155246299
 30
0.0
  0
POLYLINE
  5
6E
330
1F
100
AcDbEntity
  8
_U+30EC_U+30A4_U+30E4_U+30FC 1
 62
   179
420
  2234388
370
     9
100
AcDb2dPolyline
 66
     1
 10
0.0
 20
0.0
 30
0.0
  0
VERTEX
  5
6F
330
6E
100
AcDbEntity
  8
_U+30EC_U+30A4_U+30E4_U+30FC 1
 62
   179
420
  2234388
370
     9
100
AcDbVertex
100
AcDb2dVertex
 10
88.96148689707006
 20
-123.7025155246299
 30
0.0
  0
VERTEX
  5
70
330
6E
100
AcDbEntity
  8
_U+30EC_U+30A4_U+30E4_U+30FC 1
 62
   179
420
  2234388
370
     9
100
AcDbVertex
100
AcDb2dVertex
 10
106.9619372711736
 20
-123.7025155246299
 30
0.0
  0
SEQEND
  5
71
330
6E
100
AcDbEntity
  8
_U+30EC_U+30A4_U+30E4_U+30FC 1
 62
   179
420
  2234388
370
     9
  0
POLYLINE
  5
72
330
1F
100
AcDbEntity
  8
_U+30EC_U+30A4_U+30E4_U+30FC 1
 62
   179
420
  2234388
370
     9
100
AcDb2dPolyline
 66
     1
 10
0.0
 20
0.0
 30
0.0
  0
VERTEX
  5
73
330
72
100
AcDbEntity
  8
_U+30EC_U+30A4_U+30E4_U+30FC 1
 62
   179
420
  2234388
370
     9
100
AcDbVertex
100
AcDb2dVertex
 10
106.9619372711736
 20
-125.1625569131539
 30
0.0
  0
VERTEX
  5
74
330
72
100
AcDbEntity
  8
_U+30EC_U+30A4_U+30E4_U+30FC 1
 62
   179
420
  2234388
370
     9
100
AcDbVertex
100
AcDb2dVertex
 10
106.9619372711736
 20
-122.7024258026577
 30
0.0
  0
SEQEND
  5
75
330
72
100
AcDbEntity
  8
_U+30EC_U+30A4_U+30E4_U+30FC 1
 62
   179
420
  2234388
370
     9
  0
POLYLINE
  5
76
330
1F
100
AcDbEntity
  8
_U+30EC_U+30A4_U+30E4_U+30FC 1
 62
   179
420
  2234388
370
     9
100
AcDb2dPolyline
 66
     1
 10
0.0
 20
0.0
 30
0.0
  0
VERTEX
  5
77
330
76
100
AcDbEntity
  8
_U+30EC_U+30A4_U+30E4_U+30FC 1
 62
   179
420
  2234388
370
     9
100
AcDbVertex
100
AcDb2dVertex
 10
103.9619504032652
 20
-140.7025238537133
 30
0.0
  0
VERTEX
  5
78
330
76
100
AcDbEntity
  8
_U+30EC_U+30A4_U+30E4_U+30FC 1
 62
   179
420
  2234388
370
     9
100
AcDbVertex
100
AcDb2dVertex
 10
103.9619504032652
 20
-127.7022746902968
 30
0.0
  0
SEQEND
  5
79
330
76
100
AcDbEntity
  8
_U+30EC_U+30A4_U+30E4_U+30FC 1
 62
   179
420
  2234388
370
     9
  0
POLYLINE
  5
7A
330
1F
100
AcDbEntity
  8
_U+30EC_U+30A4_U+30E4_U+30FC 1
 62
   179
420
  2234388
370
     9
100
AcDb2dPolyline
 66
     1
 10
0.0
 20
0.0
 30
0.0
  0
VERTEX
  5
7B
330
7A
100
AcDbEntity
  8
_U+30EC_U+30A4_U+30E4_U+30FC 1
 62
   179
420
  2234388
370
     9
100
AcDbVertex
100
AcDb2dVertex
 10
102.0017054532752
 20
-140.7025238537133
 30
0.0
  0
VERTEX
  5
7C
330
7A
100
AcDbEntity
  8
_U+30EC_U+30A4_U+30E4_U+30FC 1
 62
   179
420
  2234388
370
     9
100
AcDbVertex
100
AcDb2dVertex
 10
104.9617225999811
 20
-140.7025238537133
 30
0.0
  0
SEQEND
  5
7D
330
7A
100
AcDbEntity
  8
_U+30EC_U+30A4_U+30E4_U+30FC 1
 62
   179
420
  2234388
370
     9
  0
POLYLINE
  5
7E
330
1F
100
AcDbEntity
  8
_U+30EC_U+30A4_U+30E4_U+30FC 1
 62
   179
420
  2234388
370
     9
100
AcDb2dPolyline
 66
     1
 10
0.0
 20
0.0
 30
0.0
  0
VERTEX
  5
7F
330
7E
100
AcDbEntity
  8
_U+30EC_U+30A4_U+30E4_U+30FC 1
 62
   179
420
  2234388
370
     9
100
AcDbVertex
100
AcDb2dVertex
 10
74.96132475424395
 20
-145.7027255191301
 30
0.0
  0
VERTEX
  5
80
330
7E
100
AcDbEntity
  8
_U+30EC_U+30A4_U+30E4_U+30FC 1
 62
   179
420
  2234388
370
     9
100
AcDbVertex
100
AcDb2dVertex
 10
99.96152106088024
 20
-145.7027255191301
 30
0.0
  0
SEQEND
  5
81
330
7E
100
AcDbEntity
  8
_U+30EC_U+30A4_U+30E4_U+30FC 1
 62
   179
420
  2234388
370
     9
  0
POLYLINE
  5
82
330
1F
100
AcDbEntity
  8
_U+30EC_U+30A4_U+30E4_U+30FC 1
 62
   179
420
  2234388
370
     9
100
AcDb2dPolyline
 66
     1
 10
0.0
 20
0.0
 30
0.0
  0
VERTEX
  5
83
330
82
100
AcDbEntity
  8
_U+30EC_U+30A4_U+30E4_U+30FC 1
 62
   179
420
  2234388
370
     9
100
AcDbVertex
100
AcDb2dVertex
 10
74.96132475424395
 20
-142.2424694088839
 30
0.0
  0
VERTEX
  5
84
330
82
100
AcDbEntity
  8
_U+30EC_U+30A4_U+30E4_U+30FC 1
 62
   179
420
  2234388
370
     9
100
AcDbVertex
100
AcDb2dVertex
 10
74.96132475424395
 20
-146.702497741102
 30
0.0
  0
SEQEND
  5
85
330
82
100
AcDbEntity
  8
_U+30EC_U+30A4_U+30E4_U+30FC 1
 62
   179
420
  2234388
370
     9
  0
POLYLINE
  5
86
330
1F
100
AcDbEntity
  8
_U+30EC_U+30A4_U+30E4_U+30FC 1
 62
   179
420
  2234388
370
     9
100
AcDb2dPolyline
 66
     1
 10
0.0
 20
0.0
 30
0.0
  0
VERTEX
  5
87
330
86
100
AcDbEntity
  8
_U+30EC_U+30A4_U+30E4_U+30FC 1
 62
   179
420
  2234388
370
     9
100
AcDbVertex
100
AcDb2dVertex
 10
99.96152106088024
 20
-143.7424805196202
 30
0.0
  0
VERTEX
  5
88
330
86
100
AcDbEntity
  8
_U+30EC_U+30A4_U+30E4_U+30FC 1
 62
   179
420
  2234388
370
     9
100
AcDbVertex
100
AcDb2dVertex
 10
99.96152106088024
 20
-146.702497741102
 30
0.0
  0
SEQEND
  5
89
330
86
100
AcDbEntity
  8
_U+30EC_U+30A4_U+30E4_U+30FC 1
 62
   179
420
  2234388
370
     9
  0
INSERT
  5
8B
330
1F
100
AcDbEntity
  8
_U+30EC_U+30A4_U+30E4_U+30FC 1
100
AcDbBlockReference
  2
block 2
 10
0.0
 20
0.0
 30
0.0
  0
INSERT
  5
95
330
1F
100
AcDbEntity
  8
_U+30EC_U+30A4_U+30E4_U+30FC 1
100
AcDbBlockReference
  2
block 3
 10
0.0
 20
0.0
 30
0.0
  0
INSERT
  5
9D
330
1F
100
AcDbEntity
  8
_U+30EC_U+30A4_U+30E4_U+30FC 1
100
AcDbBlockReference
  2
block 4
 10
0.0
 20
0.0
 30
0.0
  0
ENDSEC
  0
SECTION
  2
OBJECTS
  0
DICTIONARY
  5
C
330
0
100
AcDbDictionary
281
     1
  3
ACAD_GROUP
350
D
  3
ACAD_LAYOUT
350
1A
  3
ACAD_MATERIAL
350
3B
  3
ACAD_MLEADERSTYLE
350
A5
  3
ACAD_MLINESTYLE
350
17
  3
ACAD_PLOTSETTINGS
350
19
  3
ACAD_PLOTSTYLENAME
350
E
  3
ACAD_TABLESTYLE
350
A4
  3
ACAD_VISUALSTYLE
350
2A
  0
SUN
  5
3F
330
29
100
AcDbSun
 90
        1
290
     0
 63
     7
421
 16777215
 40
1.0
291
     1
 91
  2455826
 92
 54000000
292
     0
 70
     2
 71
   256
280
     1
  0
DICTIONARY
  5
D
102
{ACAD_REACTORS
330
C
102
}
330
C
100
AcDbDictionary
281
     1
  0
DICTIONARY
  5
1A
102
{ACAD_REACTORS
330
C
102
}
330
C
100
AcDbDictionary
281
     1
  3
Layout1
350
1E
  3
Layout2
350
26
  3
Model
350
22
  0
DICTIONARY
  5
3B
102
{ACAD_REACTORS
330
C
102
}
330
C
100
AcDbDictionary
281
     1
  3
ByBlock
350
3D
  3
ByLayer
350
3C
  3
Global
350
3E
  0
DICTIONARY
  5
A5
102
{ACAD_REACTORS
330
C
102
}
330
C
100
AcDbDictionary
281
     1
  0
DICTIONARY
  5
17
102
{ACAD_REACTORS
330
C
102
}
330
C
100
AcDbDictionary
281
     1
  3
Standard
350
18
  0
DICTIONARY
  5
19
102
{ACAD_REACTORS
330
C
102
}
330
C
100
AcDbDictionary
281
     1
  0
ACDBDICTIONARYWDFLT
  5
E
102
{ACAD_REACTORS
330
C
102
}
330
C
100
AcDbDictionary
281
     1
  3
Normal
350
F
100
AcDbDictionaryWithDefault
340
F
  0
DICTIONARY
  5
A4
102
{ACAD_REACTORS
330
C
102
}
330
C
100
AcDbDictionary
281
     1
  0
DICTIONARY
  5
2A
102
{ACAD_REACTORS
330
C
102
}
330
C
100
AcDbDictionary
281
     1
  3
2dWireframe
350
2F
  3
3D Hidden
350
31
  3
3dWireframe
350
30
  3
Basic
350
32
  3
Brighten
350
36
  3
ColorChange
350
3A
  3
Conceptual
350
34
  3
Dim
350
35
  3
Facepattern
350
39
  3
Flat
350
2B
  3
FlatWithEdges
350
2C
  3
Gouraud
350
2D
  3
GouraudWithEdges
350
2E
  3
Linepattern
350
38
  3
Realistic
350
33
  3
Thicken
350
37
  0
LAYOUT
  5
1E
102
{ACAD_REACTORS
330
1A
102
}
330
1A
100
AcDbPlotSettings
  1

  2
none_device
  4

  6

 40
0.0
 41
0.0
 42
0.0
 43
0.0
 44
0.0
 45
0.0
 46
0.0
 47
0.0
 48
0.0
 49
0.0
140
0.0
141
0.0
142
1.0
143
1.0
 70
   688
 72
     0
 73
     0
 74
     5
  7

 75
    16
 76
     0
 77
     2
 78
   300
147
1.0
148
0.0
149
0.0
100
AcDbLayout
  1
Layout1
 70
     1
 71
     1
 10
0.0
 20
0.0
 11
12.0
 21
9.0
 12
0.0
 22
0.0
 32
0.0
 14
1.000000000000000E+20
 24
1.000000000000000E+20
 34
1.000000000000000E+20
 15
-1.000000000000000E+20
 25
-1.000000000000000E+20
 35
-1.000000000000000E+20
146
0.0
 13
0.0
 23
0.0
 33
0.0
 16
1.0
 26
0.0
 36
0.0
 17
0.0
 27
1.0
 37
0.0
 76
     0
330
1B
  0
LAYOUT
  5
26
102
{ACAD_REACTORS
330
1A
102
}
330
1A
100
AcDbPlotSettings
  1

  2
none_device
  4

  6

 40
0.0
 41
0.0
 42
0.0
 43
0.0
 44
0.0
 45
0.0
 46
0.0
 47
0.0
 48
0.0
 49
0.0
140
0.0
141
0.0
142
1.0
143
1.0
 70
   688
 72
     0
 73
     0
 74
     5
  7

 75
    16
 76
     0
 77
     2
 78
   300
147
1.0
148
0.0
149
0.0
100
AcDbLayout
  1
Layout2
 70
     1
 71
     2
 10
0.0
 20
0.0
 11
0.0
 21
0.0
 12
0.0
 22
0.0
 32
0.0
 14
0.0
 24
0.0
 34
0.0
 15
0.0
 25
0.0
 35
0.0
146
0.0
 13
0.0
 23
0.0
 33
0.0
 16
1.0
 26
0.0
 36
0.0
 17
0.0
 27
1.0
 37
0.0
 76
     0
330
23
  0
LAYOUT
  5
22
102
{ACAD_REACTORS
330
1A
102
}
330
1A
100
AcDbPlotSettings
  1

  2
none_device
  4

  6

 40
0.0
 41
0.0
 42
0.0
 43
0.0
 44
0.0
 45
0.0
 46
0.0
 47
0.0
 48
0.0
 49
0.0
140
0.0
141
0.0
142
1.0
143
1.0
 70
  1712
 72
     0
 73
     0
 74
     0
  7

 75
     0
 76
     0
 77
     2
 78
   300
147
1.0
148
0.0
149
0.0
100
AcDbLayout
  1
Model
 70
     1
 71
     0
 10
0.0
 20
0.0
 11
12.0
 21
9.0
 12
0.0
 22
0.0
 32
0.0
 14
1.000000000000000E+20
 24
1.000000000000000E+20
 34
1.000000000000000E+20
 15
-1.000000000000000E+20
 25
-1.000000000000000E+20
 35
-1.000000000000000E+20
146
0.0
 13
0.0
 23
0.0
 33
0.0
 16
1.0
 26
0.0
 36
0.0
 17
0.0
 27
1.0
 37
0.0
 76
     0
330
1F
331
29
  0
MATERIAL
  5
3D
102
{ACAD_REACTORS
330
3B
102
}
330
3B
100
AcDbMaterial
  1
ByBlock
 72
     1
 94
      127
  0
MATERIAL
  5
3C
102
{ACAD_REACTORS
330
3B
102
}
330
3B
100
AcDbMaterial
  1
ByLayer
 72
     1
 94
      127
  0
MATERIAL
  5
3E
102
{ACAD_REACTORS
330
3B
102
}
330
3B
100
AcDbMaterial
  1
Global
 72
     1
 94
      127
  0
MLINESTYLE
  5
18
102
{ACAD_REACTORS
330
17
102
}
330
17
100
AcDbMlineStyle
  2
Standard
 70
     0
  3

 62
   256
 51
90.0
 52
90.0
 71
     2
 49
0.5
 62
   256
  6
BYLAYER
 49
-0.5
 62
   256
  6
BYLAYER
  0
ACDBPLACEHOLDER
  5
F
102
{ACAD_REACTORS
330
E
102
}
330
E
  0
VISUALSTYLE
  5
2F
102
{ACAD_REACTORS
330
2A
102
}
330
2A
100
AcDbVisualStyle
  2
2dWireframe
 70
     4
177
     2
291
     0
 71
     0
176
     1
 72
     2
176
     1
 73
     0
176
     1
 90
        0
176
     1
 40
-0.6
176
     1
 41
-30.0
176
     1
 62
     5
 63
     7
421
 16777215
176
     1
 74
     1
176
     1
 91
        4
176
     1
 64
     7
176
     1
 65
   257
176
     1
 75
     1
176
     1
175
     1
176
     1
 42
1.0
176
     1
 92
        0
176
     1
 66
   257
176
     1
 43
1.0
176
     1
 76
     1
176
     1
 77
     6
176
     1
 78
     2
176
     1
 67
     7
176
     1
 79
     5
176
     1
170
     0
176
     1
171
     0
176
     1
290
     0
176
     1
 93
        1
176
     1
 44
0.0
176
     1
173
     0
176
     1
  0
VISUALSTYLE
  5
31
102
{ACAD_REACTORS
330
2A
102
}
330
2A
100
AcDbVisualStyle
  2
3D Hidden
 70
     6
177
     2
291
     0
 71
     1
176
     1
 72
     2
176
     1
 73
     2
176
     1
 90
        0
176
     1
 40
-0.6
176
     1
 41
-30.0
176
     1
 62
     5
 63
     7
421
 16777215
176
     1
 74
     2
176
     1
 91
        2
176
     1
 64
     7
176
     1
 65
   257
176
     1
 75
     2
176
     1
175
     1
176
     1
 42
40.0
176
     1
 92
        0
176
     1
 66
   257
176
     1
 43
1.0
176
     1
 76
     1
176
     1
 77
     6
176
     1
 78
     2
176
     1
 67
     7
176
     1
 79
     3
176
     1
170
     0
176
     1
171
     0
176
     1
290
     0
176
     1
 93
        1
176
     1
 44
0.0
176
     1
173
     0
176
     1
  0
VISUALSTYLE
  5
30
102
{ACAD_REACTORS
330
2A
102
}
330
2A
100
AcDbVisualStyle
  2
3dWireframe
 70
     5
177
     2
291
     0
 71
     0
176
     1
 72
     2
176
     1
 73
     0
176
     1
 90
        0
176
     1
 40
-0.6
176
     1
 41
-30.0
176
     1
 62
     5
 63
     7
421
 16777215
176
     1
 74
     1
176
     1
 91
        4
176
     1
 64
     7
176
     1
 65
   257
176
     1
 75
     1
176
     1
175
     1
176
     1
 42
1.0
176
     1
 92
        0
176
     1
 66
   257
176
     1
 43
1.0
176
     1
 76
     1
176
     1
 77
     6
176
     1
 78
     2
176
     1
 67
     7
176
     1
 79
     5
176
     1
170
     0
176
     1
171
     0
176
     1
290
     0
176
     1
 93
        1
176
     1
 44
0.0
176
     1
173
     0
176
     1
  0
VISUALSTYLE
  5
32
102
{ACAD_REACTORS
330
2A
102
}
330
2A
100
AcDbVisualStyle
  2
Basic
 70
     7
177
     2
291
     1
 71
     1
176
     1
 72
     0
176
     1
 73
     1
176
     1
 90
        0
176
     1
 40
-0.6
176
     1
 41
-30.0
176
     1
 62
     5
 63
     7
421
 16777215
176
     1
 74
     0
176
     1
 91
        4
176
     1
 64
     7
176
     1
 65
   257
176
     1
 75
     1
176
     1
175
     1
176
     1
 42
1.0
176
     1
 92
        8
176
     1
 66
     7
176
     1
 43
1.0
176
     1
 76
     1
176
     1
 77
     6
176
     1
 78
     2
176
     1
 67
     7
176
     1
 79
     5
176
     1
170
     0
176
     1
171
     0
176
     1
290
     0
176
     1
 93
        1
176
     1
 44
0.0
176
     1
173
     0
176
     1
  0
VISUALSTYLE
  5
36
102
{ACAD_REACTORS
330
2A
102
}
330
2A
100
AcDbVisualStyle
  2
Brighten
 70
    12
177
     2
291
     1
 71
     2
176
     1
 72
     2
176
     1
 73
     0
176
     1
 90
        0
176
     1
 40
-0.6
176
     1
 41
-30.0
176
     1
 62
     5
 63
     7
421
 16777215
176
     1
 74
     1
176
     1
 91
        4
176
     1
 64
     7
176
     1
 65
   257
176
     1
 75
     1
176
     1
175
     1
176
     1
 42
1.0
176
     1
 92
        8
176
     1
 66
     7
176
     1
 43
1.0
176
     1
 76
     1
176
     1
 77
     6
176
     1
 78
     2
176
     1
 67
     7
176
     1
 79
     5
176
     1
170
     0
176
     1
171
     0
176
     1
290
     0
176
     1
 93
        1
176
     1
 44
50.0
176
     1
173
     0
176
     1
  0
VISUALSTYLE
  5
3A
102
{ACAD_REACTORS
330
2A
102
}
330
2A
100
AcDbVisualStyle
  2
ColorChange
 70
    16
177
     2
291
     1
 71
     2
176
     1
 72
     2
176
     1
 73
     3
176
     1
 90
        0
176
     1
 40
-0.6
176
     1
 41
-30.0
176
     1
 62
     5
 63
     8
421
  8421504
176
     1
 74
     1
176
     1
 91
        4
176
     1
 64
     7
176
     1
 65
   257
176
     1
 75
     1
176
     1
175
     1
176
     1
 42
1.0
176
     1
 92
        8
176
     1
 66
     8
424
  8421504
176
     1
 43
1.0
176
     1
 76
     1
176
     1
 77
     6
176
     1
 78
     2
176
     1
 67
     7
176
     1
 79
     5
176
     1
170
     0
176
     1
171
     0
176
     1
290
     0
176
     1
 93
        1
176
     1
 44
0.0
176
     1
173
     0
176
     1
  0
VISUALSTYLE
  5
34
102
{ACAD_REACTORS
330
2A
102
}
330
2A
100
AcDbVisualStyle
  2
Conceptual
 70
     9
177
     2
291
     0
 71
     3
176
     1
 72
     2
176
     1
 73
     0
176
     1
 90
        0
176
     1
 40
-0.6
176
     1
 41
-30.0
176
     1
 62
     5
 63
     7
421
 16777215
176
     1
 74
     2
176
     1
 91
        2
176
     1
 64
     7
176
     1
 65
   257
176
     1
 75
     1
176
     1
175
     1
176
     1
 42
40.0
176
     1
 92
        8
176
     1
 66
     7
176
     1
 43
1.0
176
     1
 76
     1
176
     1
 77
     6
176
     1
 78
     2
176
     1
 67
     7
176
     1
 79
     3
176
     1
170
     0
176
     1
171
     0
176
     1
290
     0
176
     1
 93
        1
176
     1
 44
0.0
176
     1
173
     0
176
     1
  0
VISUALSTYLE
  5
35
102
{ACAD_REACTORS
330
2A
102
}
330
2A
100
AcDbVisualStyle
  2
Dim
 70
    11
177
     2
291
     1
 71
     2
176
     1
 72
     2
176
     1
 73
     0
176
     1
 90
        0
176
     1
 40
-0.6
176
     1
 41
-30.0
176
     1
 62
     5
 63
     7
421
 16777215
176
     1
 74
     1
176
     1
 91
        4
176
     1
 64
     7
176
     1
 65
   257
176
     1
 75
     1
176
     1
175
     1
176
     1
 42
1.0
176
     1
 92
        8
176
     1
 66
     7
176
     1
 43
1.0
176
     1
 76
     1
176
     1
 77
     6
176
     1
 78
     2
176
     1
 67
     7
176
     1
 79
     5
176
     1
170
     0
176
     1
171
     0
176
     1
290
     0
176
     1
 93
        1
176
     1
 44
-50.0
176
     1
173
     0
176
     1
  0
VISUALSTYLE
  5
39
102
{ACAD_REACTORS
330
2A
102
}
330
2A
100
AcDbVisualStyle
  2
Facepattern
 70
    15
177
     2
291
     1
 71
     2
176
     1
 72
     2
176
     1
 73
     0
176
     1
 90
        0
176
     1
 40
-0.6
176
     1
 41
-30.0
176
     1
 62
     5
 63
     7
421
 16777215
176
     1
 74
     1
176
     1
 91
        4
176
     1
 64
     7
176
     1
 65
   257
176
     1
 75
     1
176
     1
175
     1
176
     1
 42
1.0
176
     1
 92
        8
176
     1
 66
     7
176
     1
 43
1.0
176
     1
 76
     1
176
     1
 77
     6
176
     1
 78
     2
176
     1
 67
     7
176
     1
 79
     5
176
     1
170
     0
176
     1
171
     0
176
     1
290
     0
176
     1
 93
        1
176
     1
 44
0.0
176
     1
173
     0
176
     1
  0
VISUALSTYLE
  5
2B
102
{ACAD_REACTORS
330
2A
102
}
330
2A
100
AcDbVisualStyle
  2
Flat
 70
     0
177
     2
291
     1
 71
     2
176
     1
 72
     1
176
     1
 73
     1
176
     1
 90
        2
176
     1
 40
-0.6
176
     1
 41
30.0
176
     1
 62
     5
 63
     7
421
 16777215
176
     1
 74
     0
176
     1
 91
        4
176
     1
 64
     7
176
     1
 65
   257
176
     1
 75
     1
176
     1
175
     1
176
     1
 42
1.0
176
     1
 92
        8
176
     1
 66
     7
176
     1
 43
1.0
176
     1
 76
     1
176
     1
 77
     6
176
     1
 78
     2
176
     1
 67
     7
176
     1
 79
     5
176
     1
170
     0
176
     1
171
     0
176
     1
290
     0
176
     1
 93
       13
176
     1
 44
0.0
176
     1
173
     0
176
     1
  0
VISUALSTYLE
  5
2C
102
{ACAD_REACTORS
330
2A
102
}
330
2A
100
AcDbVisualStyle
  2
FlatWithEdges
 70
     1
177
     2
291
     1
 71
     2
176
     1
 72
     1
176
     1
 73
     1
176
     1
 90
        2
176
     1
 40
-0.6
176
     1
 41
30.0
176
     1
 62
     5
 63
     7
421
 16777215
176
     1
 74
     1
176
     1
 91
        4
176
     1
 64
     7
176
     1
 65
   257
176
     1
 75
     1
176
     1
175
     1
176
     1
 42
1.0
176
     1
 92
        0
176
     1
 66
   257
176
     1
 43
1.0
176
     1
 76
     1
176
     1
 77
     6
176
     1
 78
     2
176
     1
 67
     7
176
     1
 79
     5
176
     1
170
     0
176
     1
171
     0
176
     1
290
     0
176
     1
 93
       13
176
     1
 44
0.0
176
     1
173
     0
176
     1
  0
VISUALSTYLE
  5
2D
102
{ACAD_REACTORS
330
2A
102
}
330
2A
100
AcDbVisualStyle
  2
Gouraud
 70
     2
177
     2
291
     1
 71
     2
176
     1
 72
     2
176
     1
 73
     1
176
     1
 90
        2
176
     1
 40
-0.6
176
     1
 41
30.0
176
     1
 62
     5
 63
     7
421
 16777215
176
     1
 74
     0
176
     1
 91
        4
176
     1
 64
     7
176
     1
 65
   257
176
     1
 75
     1
176
     1
175
     1
176
     1
 42
1.0
176
     1
 92
        0
176
     1
 66
     7
176
     1
 43
1.0
176
     1
 76
     1
176
     1
 77
     6
176
     1
 78
     2
176
     1
 67
     7
176
     1
 79
     5
176
     1
170
     0
176
     1
171
     0
176
     1
290
     0
176
     1
 93
       13
176
     1
 44
0.0
176
     1
173
     0
176
     1
  0
VISUALSTYLE
  5
2E
102
{ACAD_REACTORS
330
2A
102
}
330
2A
100
AcDbVisualStyle
  2
GouraudWithEdges
 70
     3
177
     2
291
     1
 71
     2
176
     1
 72
     2
176
     1
 73
     1
176
     1
 90
        2
176
     1
 40
-0.6
176
     1
 41
30.0
176
     1
 62
     5
 63
     7
421
 16777215
176
     1
 74
     1
176
     1
 91
        4
176
     1
 64
     7
176
     1
 65
   257
176
     1
 75
     1
176
     1
175
     1
176
     1
 42
1.0
176
     1
 92
        0
176
     1
 66
   257
176
     1
 43
1.0
176
     1
 76
     1
176
     1
 77
     6
176
     1
 78
     2
176
     1
 67
     7
176
     1
 79
     5
176
     1
170
     0
176
     1
171
     0
176
     1
290
     0
176
     1
 93
       13
176
     1
 44
0.0
176
     1
173
     0
176
     1
  0
VISUALSTYLE
  5
38
102
{ACAD_REACTORS
330
2A
102
}
330
2A
100
AcDbVisualStyle
  2
Linepattern
 70
    14
177
     2
291
     1
 71
     2
176
     1
 72
     2
176
     1
 73
     0
176
     1
 90
        0
176
     1
 40
-0.6
176
     1
 41
-30.0
176
     1
 62
     5
 63
     7
421
 16777215
176
     1
 74
     1
176
     1
 91
        4
176
     1
 64
     7
176
     1
 65
   257
176
     1
 75
     7
176
     1
175
     7
176
     1
 42
1.0
176
     1
 92
        8
176
     1
 66
     7
176
     1
 43
1.0
176
     1
 76
     1
176
     1
 77
     6
176
     1
 78
     2
176
     1
 67
     7
176
     1
 79
     5
176
     1
170
     0
176
     1
171
     0
176
     1
290
     0
176
     1
 93
        1
176
     1
 44
0.0
176
     1
173
     0
176
     1
  0
VISUALSTYLE
  5
33
102
{ACAD_REACTORS
330
2A
102
}
330
2A
100
AcDbVisualStyle
  2
Realistic
 70
     8
177
     2
291
     0
 71
     2
176
     1
 72
     2
176
     1
 73
     0
176
     1
 90
        0
176
     1
 40
-0.6
176
     1
 41
-30.0
176
     1
 62
     5
 63
     7
421
 16777215
176
     1
 74
     1
176
     1
 91
        0
176
     1
 64
     7
176
     1
 65
   257
176
     1
 75
     1
176
     1
175
     1
176
     1
 42
1.0
176
     1
 92
        8
176
     1
 66
     8
424
  7895160
176
     1
 43
1.0
176
     1
 76
     1
176
     1
 77
     6
176
     1
 78
     2
176
     1
 67
     7
176
     1
 79
     5
176
     1
170
     0
176
     1
171
     0
176
     1
290
     0
176
     1
 93
       13
176
     1
 44
0.0
176
     1
173
     0
176
     1
  0
VISUALSTYLE
  5
37
102
{ACAD_REACTORS
330
2A
102
}
330
2A
100
AcDbVisualStyle
  2
Thicken
 70
    13
177
     2
291
     1
 71
     2
176
     1
 72
     2
176
     1
 73
     0
176
     1
 90
        0
176
     1
 40
-0.6
176
     1
 41
-30.0
176
     1
 62
     5
 63
     7
421
 16777215
176
     1
 74
     1
176
     1
 91
        4
176
     1
 64
     7
176
     1
 65
   257
176
     1
 75
     1
176
     1
175
     1
176
     1
 42
1.0
176
     1
 92
       12
176
     1
 66
     7
176
     1
 43
1.0
176
     1
 76
     1
176
     1
 77
     6
176
     1
 78
     2
176
     1
 67
     7
176
     1
 79
     5
176
     1
170
     0
176
     1
171
     0
176
     1
290
     0
176
     1
 93
        1
176
     1
 44
0.0
176
     1
173
     0
176
     1
  0
ENDSEC
  0
EOF
