  0
SECTION
  2
HEADER
  9
$ACADVER
  1
AC1024
  9
$ACADMAINTVER
 70
     6
  9
$DWGCODEPAGE
  3
UNDEFINED
  9
$INSBASE
 10
0.0
 20
0.0
 30
0.0
  9
$EXTMIN
 10
1.000000000000000E+20
 20
1.000000000000000E+20
 30
1.000000000000000E+20
  9
$EXTMAX
 10
-1.000000000000000E+20
 20
-1.000000000000000E+20
 30
-1.000000000000000E+20
  9
$LIMMIN
 10
0.0
 20
0.0
  9
$LIMMAX
 10
12.0
 20
9.0
  9
$ORTHOMODE
 70
     0
  9
$REGENMODE
 70
     1
  9
$FILLMODE
 70
     1
  9
$QTEXTMODE
 70
     0
  9
$MIRRTEXT
 70
     1
  9
$LTSCALE
 40
1.0
  9
$ATTMODE
 70
     1
  9
$TEXTSIZE
 40
0.2
  9
$TRACEWID
 40
0.05
  9
$TEXTSTYLE
  7
Standard
  9
$CLAYER
  8
0
  9
$CELTYPE
  6
ByLayer
  9
$CECOLOR
 62
   256
  9
$CELTSCALE
 40
1.0
  9
$DISPSILH
 70
     0
  9
$DIMSCALE
 40
1.0
  9
$DIMASZ
 40
0.18
  9
$DIMEXO
 40
0.0625
  9
$DIMDLI
 40
0.38
  9
$DIMRND
 40
0.0
  9
$DIMDLE
 40
0.0
  9
$DIMEXE
 40
0.18
  9
$DIMTP
 40
0.0
  9
$DIMTM
 40
0.0
  9
$DIMTXT
 40
0.18
  9
$DIMCEN
 40
0.09
  9
$DIMTSZ
 40
0.0
  9
$DIMTOL
 70
     0
  9
$DIMLIM
 70
     0
  9
$DIMTIH
 70
     1
  9
$DIMTOH
 70
     1
  9
$DIMSE1
 70
     0
  9
$DIMSE2
 70
     0
  9
$DIMTAD
 70
     0
  9
$DIMZIN
 70
     0
  9
$DIMBLK
  1

  9
$DIMASO
 70
     1
  9
$DIMSHO
 70
     1
  9
$DIMPOST
  1

  9
$DIMAPOST
  1

  9
$DIMALT
 70
     0
  9
$DIMALTD
 70
     2
  9
$DIMALTF
 40
25.4
  9
$DIMLFAC
 40
1.0
  9
$DIMTOFL
 70
     0
  9
$DIMTVP
 40
0.0
  9
$DIMTIX
 70
     0
  9
$DIMSOXD
 70
     0
  9
$DIMSAH
 70
     0
  9
$DIMBLK1
  1

  9
$DIMBLK2
  1

  9
$DIMSTYLE
  2
Standard
  9
$DIMCLRD
 70
     0
  9
$DIMCLRE
 70
     0
  9
$DIMCLRT
 70
     0
  9
$DIMTFAC
 40
1.0
  9
$DIMGAP
 40
0.09
  9
$DIMJUST
 70
     0
  9
$DIMSD1
 70
     0
  9
$DIMSD2
 70
     0
  9
$DIMTOLJ
 70
     1
  9
$DIMTZIN
 70
     0
  9
$DIMALTZ
 70
     0
  9
$DIMALTTZ
 70
     0
  9
$DIMUPT
 70
     0
  9
$DIMDEC
 70
     4
  9
$DIMTDEC
 70
     4
  9
$DIMALTU
 70
     2
  9
$DIMALTTD
 70
     2
  9
$DIMTXSTY
  7
Standard
  9
$DIMAUNIT
 70
     0
  9
$DIMADEC
 70
     0
  9
$DIMALTRND
 40
0.0
  9
$DIMAZIN
 70
     0
  9
$DIMDSEP
 70
    46
  9
$DIMATFIT
 70
     3
  9
$DIMFRAC
 70
     0
  9
$DIMLDRBLK
  1

  9
$DIMLUNIT
 70
     2
  9
$DIMLWD
 70
    -2
  9
$DIMLWE
 70
    -2
  9
$DIMTMOVE
 70
     0
  9
$DIMFXL
 40
1.0
  9
$DIMFXLON
 70
     0
  9
$DIMJOGANG
 40
0.7853981633974483
  9
$DIMTFILL
 70
     0
  9
$DIMTFILLCLR
 70
     0
  9
$DIMARCSYM
 70
     0
  9
$DIMLTYPE
  6

  9
$DIMLTEX1
  6

  9
$DIMLTEX2
  6

  9
$DIMTXTDIRECTION
 70
     0
  9
$LUNITS
 70
     2
  9
$LUPREC
 70
     4
  9
$SKETCHINC
 40
0.1
  9
$FILLETRAD
 40
0.5
  9
$AUNITS
 70
     0
  9
$AUPREC
 70
     0
  9
$MENU
  1
.
  9
$ELEVATION
 40
0.0
  9
$PELEVATION
 40
0.0
  9
$THICKNESS
 40
0.0
  9
$LIMCHECK
 70
     0
  9
$CHAMFERA
 40
0.5
  9
$CHAMFERB
 40
0.5
  9
$CHAMFERC
 40
1.0
  9
$CHAMFERD
 40
0.0
  9
$SKPOLY
 70
     0
  9
$TDCREATE
 40
2457917.625057871
  9
$TDUCREATE
 40
2457917.250057871
  9
$TDUPDATE
 40
2457917.625057871
  9
$TDUUPDATE
 40
2457917.250057871
  9
$TDINDWG
 40
0.0000000116
  9
$TDUSRTIMER
 40
0.0000000116
  9
$USRTIMER
 70
     1
  9
$ANGBASE
 50
0.0
  9
$ANGDIR
 70
     0
  9
$PDMODE
 70
     0
  9
$PDSIZE
 40
0.0
  9
$PLINEWID
 40
0.0
  9
$SPLFRAME
 70
     0
  9
$SPLINETYPE
 70
     6
  9
$SPLINESEGS
 70
     8
  9
$HANDSEED
  5
A6
  9
$SURFTAB1
 70
     6
  9
$SURFTAB2
 70
     6
  9
$SURFTYPE
 70
     6
  9
$SURFU
 70
     6
  9
$SURFV
 70
     6
  9
$UCSBASE
  2

  9
$UCSNAME
  2

  9
$UCSORG
 10
0.0
 20
0.0
 30
0.0
  9
$UCSXDIR
 10
1.0
 20
0.0
 30
0.0
  9
$UCSYDIR
 10
0.0
 20
1.0
 30
0.0
  9
$UCSORTHOREF
  2

  9
$UCSORTHOVIEW
 70
     0
  9
$UCSORGTOP
 10
0.0
 20
0.0
 30
0.0
  9
$UCSORGBOTTOM
 10
0.0
 20
0.0
 30
0.0
  9
$UCSORGLEFT
 10
0.0
 20
0.0
 30
0.0
  9
$UCSORGRIGHT
 10
0.0
 20
0.0
 30
0.0
  9
$UCSORGFRONT
 10
0.0
 20
0.0
 30
0.0
  9
$UCSORGBACK
 10
0.0
 20
0.0
 30
0.0
  9
$PUCSBASE
  2

  9
$PUCSNAME
  2

  9
$PUCSORG
 10
0.0
 20
0.0
 30
0.0
  9
$PUCSXDIR
 10
1.0
 20
0.0
 30
0.0
  9
$PUCSYDIR
 10
0.0
 20
1.0
 30
0.0
  9
$PUCSORTHOREF
  2

  9
$PUCSORTHOVIEW
 70
     0
  9
$PUCSORGTOP
 10
0.0
 20
0.0
 30
0.0
  9
$PUCSORGBOTTOM
 10
0.0
 20
0.0
 30
0.0
  9
$PUCSORGLEFT
 10
0.0
 20
0.0
 30
0.0
  9
$PUCSORGRIGHT
 10
0.0
 20
0.0
 30
0.0
  9
$PUCSORGFRONT
 10
0.0
 20
0.0
 30
0.0
  9
$PUCSORGBACK
 10
0.0
 20
0.0
 30
0.0
  9
$USERI1
 70
     0
  9
$USERI2
 70
     0
  9
$USERI3
 70
     0
  9
$USERI4
 70
     0
  9
$USERI5
 70
     0
  9
$USERR1
 40
0.0
  9
$USERR2
 40
0.0
  9
$USERR3
 40
0.0
  9
$USERR4
 40
0.0
  9
$USERR5
 40
0.0
  9
$WORLDVIEW
 70
     1
  9
$SHADEDGE
 70
     3
  9
$SHADEDIF
 70
    70
  9
$TILEMODE
 70
     1
  9
$MAXACTVP
 70
    64
  9
$PINSBASE
 10
0.0
 20
0.0
 30
0.0
  9
$PLIMCHECK
 70
     0
  9
$PEXTMIN
 10
1.000000000000000E+20
 20
1.000000000000000E+20
 30
1.000000000000000E+20
  9
$PEXTMAX
 10
-1.000000000000000E+20
 20
-1.000000000000000E+20
 30
-1.000000000000000E+20
  9
$PLIMMIN
 10
0.0
 20
0.0
  9
$PLIMMAX
 10
12.0
 20
9.0
  9
$UNITMODE
 70
     0
  9
$VISRETAIN
 70
     1
  9
$PLINEGEN
 70
     0
  9
$PSLTSCALE
 70
     1
  9
$TREEDEPTH
 70
  3020
  9
$CMLSTYLE
  2
Standard
  9
$CMLJUST
 70
     0
  9
$CMLSCALE
 40
1.0
  9
$PROXYGRAPHICS
 70
     1
  9
$MEASUREMENT
 70
     0
  9
$CELWEIGHT
370
    -1
  9
$ENDCAPS
280
     0
  9
$JOINSTYLE
280
     0
  9
$LWDISPLAY
290
     1
  9
$INSUNITS
 70
     1
  9
$HYPERLINKBASE
  1

  9
$STYLESHEET
  1

  9
$XEDIT
290
     1
  9
$CEPSNTYPE
380
     0
  9
$PSTYLEMODE
290
     1
  9
$FINGERPRINTGUID
  2
{E9CF4689-43B5-76D3-34B5-EF69A87968C5}
  9
$VERSIONGUID
  2
{FAEB1C32-E019-11D5-929B-00C0DF256EC4}
  9
$EXTNAMES
290
     1
  9
$PSVPSCALE
 40
0.0
  9
$OLESTARTUP
290
     0
  9
$SORTENTS
280
   127
  9
$INDEXCTL
280
     0
  9
$HIDETEXT
280
     1
  9
$XCLIPFRAME
280
     2
  9
$HALOGAP
280
     0
  9
$OBSCOLOR
 70
   257
  9
$OBSLTYPE
280
     0
  9
$INTERSECTIONDISPLAY
280
     0
  9
$INTERSECTIONCOLOR
 70
   257
  9
$DIMASSOC
280
     2
  9
$PROJECTNAME
  1

  9
$CAMERADISPLAY
290
     0
  9
$LENSLENGTH
 40
50.0
  9
$CAMERAHEIGHT
 40
0.0
  9
$STEPSPERSEC
 40
2.0
  9
$STEPSIZE
 40
6.0
  9
$3DDWFPREC
 40
2.0
  9
$PSOLWIDTH
 40
0.25
  9
$PSOLHEIGHT
 40
4.0
  9
$LOFTANG1
 40
1.570796326794897
  9
$LOFTANG2
 40
1.570796326794897
  9
$LOFTMAG1
 40
0.0
  9
$LOFTMAG2
 40
0.0
  9
$LOFTPARAM
 70
     7
  9
$LOFTNORMALS
280
     1
  9
$LATITUDE
 40
37.795
  9
$LONGITUDE
 40
-122.394
  9
$NORTHDIRECTION
 40
0.0
  9
$TIMEZONE
 70
 -8000
  9
$LIGHTGLYPHDISPLAY
280
     1
  9
$TILEMODELIGHTSYNCH
280
     1
  9
$CMATERIAL
347
3C
  9
$SOLIDHIST
280
     1
  9
$SHOWHIST
280
     1
  9
$DWFFRAME
280
     2
  9
$DGNFRAME
280
     2
  9
$REALWORLDSCALE
290
     1
  9
$INTERFERECOLOR
 62
   256
  9
$CSHADOW
280
     0
  9
$SHADOWPLANELOCATION
 40
0.0
  0
ENDSEC
  0
SECTION
  2
CLASSES
  0
CLASS
  1
ACDBDICTIONARYWDFLT
  2
AcDbDictionaryWithDefault
  3
ObjectDBX Classes
 90
        0
 91
        4
280
     0
281
     0
  0
CLASS
  1
VISUALSTYLE
  2
AcDbVisualStyle
  3
ObjectDBX Classes
 90
     4095
 91
        4
280
     0
281
     0
  0
CLASS
  1
MATERIAL
  2
AcDbMaterial
  3
ObjectDBX Classes
 90
     1153
 91
        4
280
     0
281
     0
  0
CLASS
  1
SUN
  2
AcDbSun
  3
SCENEOE
 90
     1024
 91
        4
280
     0
281
     0
  0
ENDSEC
  0
SECTION
  2
TABLES
  0
TABLE
  2
VPORT
  5
8
330
0
100
AcDbSymbolTable
 70
     1
  0
VPORT
  5
29
330
8
100
AcDbSymbolTableRecord
100
AcDbViewportTableRecord
  2
*Active
 70
     0
 10
0.0
 20
0.0
 11
1.0
 21
1.0
 12
0.0
 22
0.0
 13
0.0
 23
0.0
 14
0.5
 24
0.5
 15
0.5
 25
0.5
 16
0.0
 26
0.0
 36
1.0
 17
91.00082462281999
 27
-128.4993055234307
 37
0.0
 40
256.9986110468615
 41
0.7081814508812795
 42
50.0
 43
0.0
 44
0.0
 50
0.0
 51
0.0
 71
     0
 72
   100
 73
     1
 74
     3
 75
     0
 76
     0
 77
     0
 78
     0
281
     0
 65
     1
110
0.0
120
0.0
130
0.0
111
1.0
121
0.0
131
0.0
112
0.0
122
1.0
132
0.0
 79
     0
146
0.0
 60
     3
 61
     5
292
     1
282
     1
141
0.0
142
0.0
 63
   250
361
3F
  0
ENDTAB
  0
TABLE
  2
LTYPE
  5
5
330
0
100
AcDbSymbolTable
 70
     1
  0
LTYPE
  5
14
330
5
100
AcDbSymbolTableRecord
100
AcDbLinetypeTableRecord
  2
ByBlock
 70
     0
  3

 72
    65
 73
     0
 40
0.0
  0
LTYPE
  5
15
330
5
100
AcDbSymbolTableRecord
100
AcDbLinetypeTableRecord
  2
ByLayer
 70
     0
  3

 72
    65
 73
     0
 40
0.0
  0
LTYPE
  5
16
330
5
100
AcDbSymbolTableRecord
100
AcDbLinetypeTableRecord
  2
Continuous
 70
     0
  3
Solid line
 72
    65
 73
     0
 40
0.0
  0
ENDTAB
  0
TABLE
  2
LAYER
  5
2
330
0
100
AcDbSymbolTable
 70
     2
  0
LAYER
  5
10
330
2
100
AcDbSymbolTableRecord
100
AcDbLayerTableRecord
  2
0
 70
     0
 62
     7
  6
Continuous
370
    -3
390
F
347
3E
  0
LAYER
  5
40
330
2
100
AcDbSymbolTableRecord
100
AcDbLayerTableRecord
  2
_U+30EC_U+30A4_U+30E4_U+30FC 1
 70
     0
 62
     7
  6
Continuous
370
    -3
390
F
347
3E
  0
ENDTAB
  0
TABLE
  2
STYLE
  5
3
330
0
100
AcDbSymbolTable
 70
     1
  0
STYLE
  5
11
330
3
100
AcDbSymbolTableRecord
100
AcDbTextStyleTableRecord
  2
Standard
 70
     0
 40
0.0
 41
1.0
 50
0.0
 71
     0
 42
0.2
  3
txt
  4

  0
ENDTAB
  0
TABLE
  2
VIEW
  5
6
330
0
100
AcDbSymbolTable
 70
     0
  0
ENDTAB
  0
TABLE
  2
UCS
  5
7
330
0
100
AcDbSymbolTable
 70
     0
  0
ENDTAB
  0
TABLE
  2
APPID
  5
9
330
0
100
AcDbSymbolTable
 70
     1
  0
APPID
  5
12
330
9
100
AcDbSymbolTableRecord
100
AcDbRegAppTableRecord
  2
ACAD
 70
     0
  0
ENDTAB
  0
TABLE
  2
DIMSTYLE
  5
A
330
0
100
AcDbSymbolTable
 70
     1
100
AcDbDimStyleTable
  0
DIMSTYLE
105
27
330
A
100
AcDbSymbolTableRecord
100
AcDbDimStyleTableRecord
  2
Standard
 70
     0
178
     0
340
11
  0
ENDTAB
  0
TABLE
  2
BLOCK_RECORD
  5
1
330
0
100
AcDbSymbolTable
 70
     5
  0
BLOCK_RECORD
  5
1F
330
1
100
AcDbSymbolTableRecord
100
AcDbBlockTableRecord
  2
*Model_Space
340
22
 70
     0
280
     1
281
     0
  0
BLOCK_RECORD
  5
1B
330
1
100
AcDbSymbolTableRecord
100
AcDbBlockTableRecord
  2
*Paper_Space
340
1E
 70
     0
280
     1
281
     0
  0
BLOCK_RECORD
  5
23
330
1
100
AcDbSymbolTableRecord
100
AcDbBlockTableRecord
  2
*Paper_Space0
340
26
 70
     0
280
     1
281
     0
  0
BLOCK_RECORD
  5
41
330
1
100
AcDbSymbolTableRecord
100
AcDbBlockTableRecord
  2
block 2
340
0
102
{BLKREFS
331
42
102
}
 70
     0
280
     1
281
     0
  0
BLOCK_RECORD
  5
49
330
1
100
AcDbSymbolTableRecord
100
AcDbBlockTableRecord
  2
block 3
340
0
102
{BLKREFS
331
4A
102
}
 70
     0
280
     1
281
     0
  0
BLOCK_RECORD
  5
51
330
1
100
AcDbSymbolTableRecord
100
AcDbBlockTableRecord
  2
block 4
340
0
102
{BLKREFS
331
52
102
}
 70
     0
280
     1
281
     0
  0
BLOCK_RECORD
  5
91
330
1
100
AcDbSymbolTableRecord
100
AcDbBlockTableRecord
  2
block 5
340
0
102
{BLKREFS
331
92
102
}
 70
     0
280
     1
281
     0
  0
ENDTAB
  0
ENDSEC
  0
SECTION
  2
BLOCKS
  0
BLOCK
  5
20
330
1F
100
AcDbEntity
  8
0
100
AcDbBlockBegin
  2
*Model_Space
 70
     0
 10
0.0
 20
0.0
 30
0.0
  3
*Model_Space
  1

  0
ENDBLK
  5
21
330
1F
100
AcDbEntity
  8
0
100
AcDbBlockEnd
  0
BLOCK
  5
1C
330
1B
100
AcDbEntity
 67
     1
  8
0
100
AcDbBlockBegin
  2
*Paper_Space
 70
     0
 10
0.0
 20
0.0
 30
0.0
  3
*Paper_Space
  1

  0
ENDBLK
  5
1D
330
1B
100
AcDbEntity
 67
     1
  8
0
100
AcDbBlockEnd
  0
BLOCK
  5
24
330
23
100
AcDbEntity
  8
0
100
AcDbBlockBegin
  2
*Paper_Space0
 70
     0
 10
0.0
 20
0.0
 30
0.0
  3
*Paper_Space0
  1

  0
ENDBLK
  5
25
330
23
100
AcDbEntity
  8
0
100
AcDbBlockEnd
  0
BLOCK
  5
43
330
41
100
AcDbEntity
  8
0
100
AcDbBlockBegin
  2
block 2
 70
     0
 10
0.0
 20
0.0
 30
0.0
  3
block 2
  1

  0
SPLINE
  5
45
330
41
100
AcDbEntity
  8
_U+30EC_U+30A4_U+30E4_U+30FC 1
370
     0
100
AcDbSpline
210
0.0
220
0.0
230
1.0
 70
    11
 71
     3
 72
    29
 73
    25
 74
     0
 42
0.0000000001
 43
0.0000000001
 12
1.0
 22
0.0
 32
0.0
 13
1.0
 23
0.0
 33
0.0
 40
0.0
 40
0.0
 40
0.0
 40
0.0
 40
1.0
 40
1.0
 40
1.0
 40
2.0
 40
2.0
 40
2.0
 40
3.0
 40
3.0
 40
3.0
 40
4.0
 40
4.0
 40
4.0
 40
5.0
 40
5.0
 40
5.0
 40
6.0
 40
6.0
 40
6.0
 40
7.0
 40
7.0
 40
7.0
 40
8.0
 40
8.0
 40
8.0
 40
8.0
 10
90.79979788311603
 20
-138.9331217100584
 30
0.0
 10
90.53331974733196
 20
-138.9331217100584
 30
0.0
 10
90.27941621006904
 20
-138.7953178906484
 30
0.0
 10
90.27941621006904
 20
-138.4466742275411
 30
0.0
 10
90.27941621006904
 20
-138.1903591234385
 30
0.0
 10
90.42118188928707
 20
-138.0952744880456
 30
0.0
 10
90.52694632068425
 20
-138.0339517884082
 30
0.0
 10
90.40206160934393
 20
-137.9746961460619
 30
0.0
 10
90.3259249991199
 20
-137.8603189759516
 30
0.0
 10
90.3259249991199
 20
-137.6997775263389
 30
0.0
 10
90.3259249991199
 20
-137.424858906616
 30
0.0
 10
90.52487926339309
 20
-137.2891221444972
 30
0.0
 10
90.79979788311603
 20
-137.2891221444972
 30
0.0
 10
91.0833292415521
 20
-137.2891221444972
 30
0.0
 10
91.2738430218864
 20
-137.4331271357806
 30
0.0
 10
91.2738430218864
 20
-137.6997775263389
 30
0.0
 10
91.2738430218864
 20
-137.8603189759516
 30
0.0
 10
91.19529484482271
 20
-137.9746961460619
 30
0.0
 10
91.07058238825667
 20
-138.0339517884082
 30
0.0
 10
91.1594658517761
 20
-138.0849392015899
 30
0.0
 10
91.31828475364613
 20
-138.1800238369828
 30
0.0
 10
91.31828475364613
 20
-138.4425401129588
 30
0.0
 10
91.31828475364613
 20
-138.816677482657
 30
0.0
 10
91.03888750979236
 20
-138.9331217100584
 30
0.0
 10
90.79979788311603
 20
-138.9331217100584
 30
0.0
  0
SPLINE
  5
46
330
41
100
AcDbEntity
  8
_U+30EC_U+30A4_U+30E4_U+30FC 1
370
     0
100
AcDbSpline
210
0.0
220
0.0
230
1.0
 70
    11
 71
     3
 72
    17
 73
    13
 74
     0
 42
0.0000000001
 43
0.0000000001
 12
1.0
 22
0.0
 32
0.0
 13
1.0
 23
0.0
 33
0.0
 40
0.0
 40
0.0
 40
0.0
 40
0.0
 40
1.0
 40
1.0
 40
1.0
 40
2.0
 40
2.0
 40
2.0
 40
3.0
 40
3.0
 40
3.0
 40
4.0
 40
4.0
 40
4.0
 40
4.0
 10
90.79979788311603
 20
-138.142127786645
 30
0.0
 10
90.65596514660685
 20
-138.142127786645
 30
0.0
 10
90.50369192615881
 20
-138.2285996833248
 30
0.0
 10
90.50369192615881
 20
-138.431515807406
 30
0.0
 10
90.50369192615881
 20
-138.6368434983269
 30
0.0
 10
90.63064369479027
 20
-138.7384738151418
 30
0.0
 10
90.79979788311603
 20
-138.7384738151418
 30
0.0
 10
90.98583303931952
 20
-138.7384738151418
 30
0.0
 10
91.09607609484752
 20
-138.6158284158669
 30
0.0
 10
91.09607609484752
 20
-138.438061488828
 30
0.0
 10
91.09607609484752
 20
-138.2158528300294
 30
0.0
 10
90.9331230783952
 20
-138.142127786645
 30
0.0
 10
90.79979788311603
 20
-138.142127786645
 30
0.0
  0
SPLINE
  5
47
330
41
100
AcDbEntity
  8
_U+30EC_U+30A4_U+30E4_U+30FC 1
370
     0
100
AcDbSpline
210
0.0
220
0.0
230
1.0
 70
    11
 71
     3
 72
    17
 73
    13
 74
     0
 42
0.0000000001
 43
0.0000000001
 12
1.0
 22
0.0
 32
0.0
 13
1.0
 23
0.0
 33
0.0
 40
0.0
 40
0.0
 40
0.0
 40
0.0
 40
1.0
 40
1.0
 40
1.0
 40
2.0
 40
2.0
 40
2.0
 40
3.0
 40
3.0
 40
3.0
 40
4.0
 40
4.0
 40
4.0
 40
4.0
 10
90.79979788311603
 20
-137.4820474916712
 30
0.0
 10
90.63477780937257
 20
-137.4820474916712
 30
0.0
 10
90.55020071520967
 20
-137.5771321270641
 30
0.0
 10
90.55020071520967
 20
-137.7121798700859
 30
0.0
 10
90.55020071520967
 20
-137.8351697789093
 30
0.0
 10
90.6222032108514
 20
-137.9536810636019
 30
0.0
 10
90.79979788311603
 20
-137.9536810636019
 30
0.0
 10
90.97756481015492
 20
-137.9536810636019
 30
0.0
 10
91.04956730579664
 20
-137.8351697789093
 30
0.0
 10
91.04956730579664
 20
-137.7121798700859
 30
0.0
 10
91.04956730579664
 20
-137.5771321270641
 30
0.0
 10
90.96275089956835
 20
-137.4820474916712
 30
0.0
 10
90.79979788311603
 20
-137.4820474916712
 30
0.0
  0
HATCH
  5
48
330
41
100
AcDbEntity
  8
_U+30EC_U+30A4_U+30E4_U+30FC 1
 62
   179
420
  2234388
100
AcDbHatch
 10
0.0
 20
0.0
 30
0.0
210
0.0
220
0.0
230
1.0
  2
SOLID
 70
     1
 71
     0
 91
        3
 92
        1
 93
        1
 72
     4
 94
        3
 73
     0
 74
     1
 95
       29
 96
       25
 40
0.0
 40
0.0
 40
0.0
 40
0.0
 40
1.0
 40
1.0
 40
1.0
 40
2.0
 40
2.0
 40
2.0
 40
3.0
 40
3.0
 40
3.0
 40
4.0
 40
4.0
 40
4.0
 40
5.0
 40
5.0
 40
5.0
 40
6.0
 40
6.0
 40
6.0
 40
7.0
 40
7.0
 40
7.0
 40
8.0
 40
8.0
 40
8.0
 40
8.0
 10
90.79979788311603
 20
-138.9331217100584
 10
90.53331974733196
 20
-138.9331217100584
 10
90.27941621006904
 20
-138.7953178906484
 10
90.27941621006904
 20
-138.4466742275411
 10
90.27941621006904
 20
-138.1903591234385
 10
90.42118188928707
 20
-138.0952744880456
 10
90.52694632068425
 20
-138.0339517884082
 10
90.40206160934393
 20
-137.9746961460619
 10
90.3259249991199
 20
-137.8603189759516
 10
90.3259249991199
 20
-137.6997775263389
 10
90.3259249991199
 20
-137.424858906616
 10
90.52487926339309
 20
-137.2891221444972
 10
90.79979788311603
 20
-137.2891221444972
 10
91.0833292415521
 20
-137.2891221444972
 10
91.2738430218864
 20
-137.4331271357806
 10
91.2738430218864
 20
-137.6997775263389
 10
91.2738430218864
 20
-137.8603189759516
 10
91.19529484482271
 20
-137.9746961460619
 10
91.07058238825667
 20
-138.0339517884082
 10
91.1594658517761
 20
-138.0849392015899
 10
91.31828475364613
 20
-138.1800238369828
 10
91.31828475364613
 20
-138.4425401129588
 10
91.31828475364613
 20
-138.816677482657
 10
91.03888750979236
 20
-138.9331217100584
 10
90.79979788311603
 20
-138.9331217100584
 97
        0
 97
        0
 92
        1
 93
        1
 72
     4
 94
        3
 73
     0
 74
     1
 95
       17
 96
       13
 40
0.0
 40
0.0
 40
0.0
 40
0.0
 40
1.0
 40
1.0
 40
1.0
 40
2.0
 40
2.0
 40
2.0
 40
3.0
 40
3.0
 40
3.0
 40
4.0
 40
4.0
 40
4.0
 40
4.0
 10
90.79979788311603
 20
-138.142127786645
 10
90.65596514660685
 20
-138.142127786645
 10
90.50369192615881
 20
-138.2285996833248
 10
90.50369192615881
 20
-138.431515807406
 10
90.50369192615881
 20
-138.6368434983269
 10
90.63064369479027
 20
-138.7384738151418
 10
90.79979788311603
 20
-138.7384738151418
 10
90.98583303931952
 20
-138.7384738151418
 10
91.09607609484752
 20
-138.6158284158669
 10
91.09607609484752
 20
-138.438061488828
 10
91.09607609484752
 20
-138.2158528300294
 10
90.9331230783952
 20
-138.142127786645
 10
90.79979788311603
 20
-138.142127786645
 97
        0
 97
        0
 92
        1
 93
        1
 72
     4
 94
        3
 73
     0
 74
     1
 95
       17
 96
       13
 40
0.0
 40
0.0
 40
0.0
 40
0.0
 40
1.0
 40
1.0
 40
1.0
 40
2.0
 40
2.0
 40
2.0
 40
3.0
 40
3.0
 40
3.0
 40
4.0
 40
4.0
 40
4.0
 40
4.0
 10
90.79979788311603
 20
-137.4820474916712
 10
90.63477780937257
 20
-137.4820474916712
 10
90.55020071520967
 20
-137.5771321270641
 10
90.55020071520967
 20
-137.7121798700859
 10
90.55020071520967
 20
-137.8351697789093
 10
90.6222032108514
 20
-137.9536810636019
 10
90.79979788311603
 20
-137.9536810636019
 10
90.97756481015492
 20
-137.9536810636019
 10
91.04956730579664
 20
-137.8351697789093
 10
91.04956730579664
 20
-137.7121798700859
 10
91.04956730579664
 20
-137.5771321270641
 10
90.96275089956835
 20
-137.4820474916712
 10
90.79979788311603
 20
-137.4820474916712
 97
        0
 97
        0
 75
     2
 76
     1
 98
        0
  0
ENDBLK
  5
44
330
41
100
AcDbEntity
  8
0
100
AcDbBlockEnd
  0
BLOCK
  5
4B
330
49
100
AcDbEntity
  8
0
100
AcDbBlockBegin
  2
block 3
 70
     0
 10
0.0
 20
0.0
 30
0.0
  3
block 3
  1

  0
SPLINE
  5
4D
330
49
100
AcDbEntity
  8
_U+30EC_U+30A4_U+30E4_U+30FC 1
370
     0
100
AcDbSpline
210
0.0
220
0.0
230
1.0
 70
    11
 71
     3
 72
    26
 73
    22
 74
     0
 42
0.0000000001
 43
0.0000000001
 12
1.0
 22
0.0
 32
0.0
 13
1.0
 23
0.0
 33
0.0
 40
0.0
 40
0.0
 40
0.0
 40
0.0
 40
1.0
 40
1.0
 40
1.0
 40
2.0
 40
2.0
 40
2.0
 40
3.0
 40
3.0
 40
3.0
 40
4.0
 40
4.0
 40
4.0
 40
5.0
 40
5.0
 40
5.0
 40
6.0
 40
6.0
 40
6.0
 40
7.0
 40
7.0
 40
7.0
 40
7.0
 10
78.66272648858084
 20
-138.8821342968767
 30
0.0
 10
78.66272648858084
 20
-138.8821342968767
 30
0.0
 10
78.66272648858084
 20
-137.7779811938541
 30
0.0
 10
78.66272648858084
 20
-137.7779811938541
 30
0.0
 10
78.66272648858084
 20
-137.7779811938541
 30
0.0
 10
78.33268634109392
 20
-137.7779811938541
 30
0.0
 10
78.33268634109392
 20
-137.7779811938541
 30
0.0
 10
78.33268634109392
 20
-137.7779811938541
 30
0.0
 10
78.33268634109392
 20
-137.6301865975369
 30
0.0
 10
78.33268634109392
 20
-137.6301865975369
 30
0.0
 10
78.664793545872
 20
-137.6150281774018
 30
0.0
 10
78.71130233492288
 20
-137.452419670498
 30
0.0
 10
78.74093015609603
 20
-137.3380425003877
 30
0.0
 10
78.74093015609603
 20
-137.3380425003877
 30
0.0
 10
78.88700220467061
 20
-137.3380425003877
 30
0.0
 10
78.88700220467061
 20
-137.3380425003877
 30
0.0
 10
78.88700220467061
 20
-137.3380425003877
 30
0.0
 10
78.88700220467061
 20
-138.8821342968767
 30
0.0
 10
78.88700220467061
 20
-138.8821342968767
 30
0.0
 10
78.88700220467061
 20
-138.8821342968767
 30
0.0
 10
78.66272648858084
 20
-138.8821342968767
 30
0.0
 10
78.66272648858084
 20
-138.8821342968767
 30
0.0
  0
HATCH
  5
4E
330
49
100
AcDbEntity
  8
_U+30EC_U+30A4_U+30E4_U+30FC 1
 62
   179
420
  2234388
100
AcDbHatch
 10
0.0
 20
0.0
 30
0.0
210
0.0
220
0.0
230
1.0
  2
SOLID
 70
     1
 71
     0
 91
        1
 92
        1
 93
        1
 72
     4
 94
        3
 73
     0
 74
     1
 95
       26
 96
       22
 40
0.0
 40
0.0
 40
0.0
 40
0.0
 40
1.0
 40
1.0
 40
1.0
 40
2.0
 40
2.0
 40
2.0
 40
3.0
 40
3.0
 40
3.0
 40
4.0
 40
4.0
 40
4.0
 40
5.0
 40
5.0
 40
5.0
 40
6.0
 40
6.0
 40
6.0
 40
7.0
 40
7.0
 40
7.0
 40
7.0
 10
78.66272648858084
 20
-138.8821342968767
 10
78.66272648858084
 20
-138.8821342968767
 10
78.66272648858084
 20
-137.7779811938541
 10
78.66272648858084
 20
-137.7779811938541
 10
78.66272648858084
 20
-137.7779811938541
 10
78.33268634109392
 20
-137.7779811938541
 10
78.33268634109392
 20
-137.7779811938541
 10
78.33268634109392
 20
-137.7779811938541
 10
78.33268634109392
 20
-137.6301865975369
 10
78.33268634109392
 20
-137.6301865975369
 10
78.664793545872
 20
-137.6150281774018
 10
78.71130233492288
 20
-137.452419670498
 10
78.74093015609603
 20
-137.3380425003877
 10
78.74093015609603
 20
-137.3380425003877
 10
78.88700220467061
 20
-137.3380425003877
 10
78.88700220467061
 20
-137.3380425003877
 10
78.88700220467061
 20
-137.3380425003877
 10
78.88700220467061
 20
-138.8821342968767
 10
78.88700220467061
 20
-138.8821342968767
 10
78.88700220467061
 20
-138.8821342968767
 10
78.66272648858084
 20
-138.8821342968767
 10
78.66272648858084
 20
-138.8821342968767
 97
        0
 97
        0
 75
     2
 76
     1
 98
        0
  0
SPLINE
  5
4F
330
49
100
AcDbEntity
  8
_U+30EC_U+30A4_U+30E4_U+30FC 1
370
     0
100
AcDbSpline
210
0.0
220
0.0
230
1.0
 70
    11
 71
     3
 72
    53
 73
    49
 74
     0
 42
0.0000000001
 43
0.0000000001
 12
1.0
 22
0.0
 32
0.0
 13
1.0
 23
0.0
 33
0.0
 40
0.0
 40
0.0
 40
0.0
 40
0.0
 40
1.0
 40
1.0
 40
1.0
 40
2.0
 40
2.0
 40
2.0
 40
3.0
 40
3.0
 40
3.0
 40
4.0
 40
4.0
 40
4.0
 40
5.0
 40
5.0
 40
5.0
 40
6.0
 40
6.0
 40
6.0
 40
7.0
 40
7.0
 40
7.0
 40
8.0
 40
8.0
 40
8.0
 40
9.0
 40
9.0
 40
9.0
 40
10.0
 40
10.0
 40
10.0
 40
11.0
 40
11.0
 40
11.0
 40
12.0
 40
12.0
 40
12.0
 40
13.0
 40
13.0
 40
13.0
 40
14.0
 40
14.0
 40
14.0
 40
15.0
 40
15.0
 40
15.0
 40
16.0
 40
16.0
 40
16.0
 40
16.0
 10
79.86919892751534
 20
-138.9331217100584
 30
0.0
 10
79.7908230052259
 20
-138.9331217100584
 30
0.0
 10
79.6893649431853
 20
-138.9158962326322
 30
0.0
 10
79.58773462637043
 20
-138.8525064757035
 30
0.0
 10
79.4142740686881
 20
-138.7426079297241
 30
0.0
 10
79.39308673145382
 20
-138.611349791736
 30
0.0
 10
79.37413870628494
 20
-138.5038628125963
 30
0.0
 10
79.37413870628494
 20
-138.5038628125963
 30
0.0
 10
79.59617511030929
 20
-138.5038628125963
 30
0.0
 10
79.59617511030929
 20
-138.5038628125963
 30
0.0
 10
79.65129663807329
 20
-138.7023003125466
 30
0.0
 10
79.77824840670475
 20
-138.7319281337198
 30
0.0
 10
79.8712659848065
 20
-138.7319281337198
 30
0.0
 10
80.01079235195911
 20
-138.7319281337198
 30
0.0
 10
80.16323782718142
 20
-138.6327093837446
 30
0.0
 10
80.16323782718142
 20
-138.3998209289417
 30
0.0
 10
80.16323782718142
 20
-138.1441948439362
 30
0.0
 10
79.98340384285137
 20
-138.0742594055856
 30
0.0
 10
79.86282550086763
 20
-138.0742594055856
 30
0.0
 10
79.83113062240334
 20
-138.0742594055856
 30
0.0
 10
79.6893649431853
 20
-138.0742594055856
 30
0.0
 10
79.60048147966586
 20
-138.2034504862825
 30
0.0
 10
79.60048147966586
 20
-138.2034504862825
 30
0.0
 10
79.42495386469237
 20
-138.1841579515651
 30
0.0
 10
79.42495386469237
 20
-138.1841579515651
 30
0.0
 10
79.42495386469237
 20
-138.1841579515651
 30
0.0
 10
79.54553220667611
 20
-137.3380425003877
 30
0.0
 10
79.54553220667611
 20
-137.3380425003877
 30
0.0
 10
79.54553220667611
 20
-137.3380425003877
 30
0.0
 10
80.32395153156833
 20
-137.3380425003877
 30
0.0
 10
80.32395153156833
 20
-137.3380425003877
 30
0.0
 10
80.32395153156833
 20
-137.3380425003877
 30
0.0
 10
80.32395153156833
 20
-137.5326903953043
 30
0.0
 10
80.32395153156833
 20
-137.5326903953043
 30
0.0
 10
80.32395153156833
 20
-137.5326903953043
 30
0.0
 10
79.70831296835418
 20
-137.5326903953043
 30
0.0
 10
79.70831296835418
 20
-137.5326903953043
 30
0.0
 10
79.70831296835418
 20
-137.5326903953043
 30
0.0
 10
79.64285615413444
 20
-137.955748120893
 30
0.0
 10
79.64285615413444
 20
-137.955748120893
 30
0.0
 10
79.70417885377188
 20
-137.921641675589
 30
0.0
 10
79.7866888906436
 20
-137.8816785679601
 30
0.0
 10
79.90502792056193
 20
-137.8816785679601
 30
0.0
 10
80.15893145782485
 20
-137.8816785679601
 30
0.0
 10
80.39595402721004
 20
-138.0677137241636
 30
0.0
 10
80.39595402721004
 20
-138.3808729037729
 30
0.0
 10
80.39595402721004
 20
-138.6981661979644
 30
0.0
 10
80.17167831112027
 20
-138.9331217100584
 30
0.0
 10
79.86919892751534
 20
-138.9331217100584
 30
0.0
  0
HATCH
  5
50
330
49
100
AcDbEntity
  8
_U+30EC_U+30A4_U+30E4_U+30FC 1
 62
   179
420
  2234388
100
AcDbHatch
 10
0.0
 20
0.0
 30
0.0
210
0.0
220
0.0
230
1.0
  2
SOLID
 70
     1
 71
     0
 91
        1
 92
        1
 93
        1
 72
     4
 94
        3
 73
     0
 74
     1
 95
       53
 96
       49
 40
0.0
 40
0.0
 40
0.0
 40
0.0
 40
1.0
 40
1.0
 40
1.0
 40
2.0
 40
2.0
 40
2.0
 40
3.0
 40
3.0
 40
3.0
 40
4.0
 40
4.0
 40
4.0
 40
5.0
 40
5.0
 40
5.0
 40
6.0
 40
6.0
 40
6.0
 40
7.0
 40
7.0
 40
7.0
 40
8.0
 40
8.0
 40
8.0
 40
9.0
 40
9.0
 40
9.0
 40
10.0
 40
10.0
 40
10.0
 40
11.0
 40
11.0
 40
11.0
 40
12.0
 40
12.0
 40
12.0
 40
13.0
 40
13.0
 40
13.0
 40
14.0
 40
14.0
 40
14.0
 40
15.0
 40
15.0
 40
15.0
 40
16.0
 40
16.0
 40
16.0
 40
16.0
 10
79.86919892751534
 20
-138.9331217100584
 10
79.7908230052259
 20
-138.9331217100584
 10
79.6893649431853
 20
-138.9158962326322
 10
79.58773462637043
 20
-138.8525064757035
 10
79.4142740686881
 20
-138.7426079297241
 10
79.39308673145382
 20
-138.611349791736
 10
79.37413870628494
 20
-138.5038628125963
 10
79.37413870628494
 20
-138.5038628125963
 10
79.59617511030929
 20
-138.5038628125963
 10
79.59617511030929
 20
-138.5038628125963
 10
79.65129663807329
 20
-138.7023003125466
 10
79.77824840670475
 20
-138.7319281337198
 10
79.8712659848065
 20
-138.7319281337198
 10
80.01079235195911
 20
-138.7319281337198
 10
80.16323782718142
 20
-138.6327093837446
 10
80.16323782718142
 20
-138.3998209289417
 10
80.16323782718142
 20
-138.1441948439362
 10
79.98340384285137
 20
-138.0742594055856
 10
79.86282550086763
 20
-138.0742594055856
 10
79.83113062240334
 20
-138.0742594055856
 10
79.6893649431853
 20
-138.0742594055856
 10
79.60048147966586
 20
-138.2034504862825
 10
79.60048147966586
 20
-138.2034504862825
 10
79.42495386469237
 20
-138.1841579515651
 10
79.42495386469237
 20
-138.1841579515651
 10
79.42495386469237
 20
-138.1841579515651
 10
79.54553220667611
 20
-137.3380425003877
 10
79.54553220667611
 20
-137.3380425003877
 10
79.54553220667611
 20
-137.3380425003877
 10
80.32395153156833
 20
-137.3380425003877
 10
80.32395153156833
 20
-137.3380425003877
 10
80.32395153156833
 20
-137.3380425003877
 10
80.32395153156833
 20
-137.5326903953043
 10
80.32395153156833
 20
-137.5326903953043
 10
80.32395153156833
 20
-137.5326903953043
 10
79.70831296835418
 20
-137.5326903953043
 10
79.70831296835418
 20
-137.5326903953043
 10
79.70831296835418
 20
-137.5326903953043
 10
79.64285615413444
 20
-137.955748120893
 10
79.64285615413444
 20
-137.955748120893
 10
79.70417885377188
 20
-137.921641675589
 10
79.7866888906436
 20
-137.8816785679601
 10
79.90502792056193
 20
-137.8816785679601
 10
80.15893145782485
 20
-137.8816785679601
 10
80.39595402721004
 20
-138.0677137241636
 10
80.39595402721004
 20
-138.3808729037729
 10
80.39595402721004
 20
-138.6981661979644
 10
80.17167831112027
 20
-138.9331217100584
 10
79.86919892751534
 20
-138.9331217100584
 97
        0
 97
        0
 75
     2
 76
     1
 98
        0
  0
ENDBLK
  5
4C
330
49
100
AcDbEntity
  8
0
100
AcDbBlockEnd
  0
BLOCK
  5
53
330
51
100
AcDbEntity
  8
0
100
AcDbBlockBegin
  2
block 4
 70
     0
 10
0.0
 20
0.0
 30
0.0
  3
block 4
  1

  0
SPLINE
  5
55
330
51
100
AcDbEntity
  8
_U+30EC_U+30A4_U+30E4_U+30FC 1
370
     0
100
AcDbSpline
210
0.0
220
0.0
230
1.0
 70
    11
 71
     3
 72
    26
 73
    22
 74
     0
 42
0.0000000001
 43
0.0000000001
 12
1.0
 22
0.0
 32
0.0
 13
1.0
 23
0.0
 33
0.0
 40
0.0
 40
0.0
 40
0.0
 40
0.0
 40
1.0
 40
1.0
 40
1.0
 40
2.0
 40
2.0
 40
2.0
 40
3.0
 40
3.0
 40
3.0
 40
4.0
 40
4.0
 40
4.0
 40
5.0
 40
5.0
 40
5.0
 40
6.0
 40
6.0
 40
6.0
 40
7.0
 40
7.0
 40
7.0
 40
7.0
 10
101.6630452219801
 20
-138.8821342968767
 30
0.0
 10
101.6630452219801
 20
-138.8821342968767
 30
0.0
 10
101.6630452219801
 20
-137.7779811938541
 30
0.0
 10
101.6630452219801
 20
-137.7779811938541
 30
0.0
 10
101.6630452219801
 20
-137.7779811938541
 30
0.0
 10
101.3330050744931
 20
-137.7779811938541
 30
0.0
 10
101.3330050744931
 20
-137.7779811938541
 30
0.0
 10
101.3330050744931
 20
-137.7779811938541
 30
0.0
 10
101.3330050744931
 20
-137.6301865975369
 30
0.0
 10
101.3330050744931
 20
-137.6301865975369
 30
0.0
 10
101.6651122792712
 20
-137.6150281774018
 30
0.0
 10
101.7116210683221
 20
-137.452419670498
 30
0.0
 10
101.7412488894953
 20
-137.3380425003877
 30
0.0
 10
101.7412488894953
 20
-137.3380425003877
 30
0.0
 10
101.8873209380698
 20
-137.3380425003877
 30
0.0
 10
101.8873209380698
 20
-137.3380425003877
 30
0.0
 10
101.8873209380698
 20
-137.3380425003877
 30
0.0
 10
101.8873209380698
 20
-138.8821342968767
 30
0.0
 10
101.8873209380698
 20
-138.8821342968767
 30
0.0
 10
101.8873209380698
 20
-138.8821342968767
 30
0.0
 10
101.6630452219801
 20
-138.8821342968767
 30
0.0
 10
101.6630452219801
 20
-138.8821342968767
 30
0.0
  0
HATCH
  5
56
330
51
100
AcDbEntity
  8
_U+30EC_U+30A4_U+30E4_U+30FC 1
 62
   179
420
  2234388
100
AcDbHatch
 10
0.0
 20
0.0
 30
0.0
210
0.0
220
0.0
230
1.0
  2
SOLID
 70
     1
 71
     0
 91
        1
 92
        1
 93
        1
 72
     4
 94
        3
 73
     0
 74
     1
 95
       26
 96
       22
 40
0.0
 40
0.0
 40
0.0
 40
0.0
 40
1.0
 40
1.0
 40
1.0
 40
2.0
 40
2.0
 40
2.0
 40
3.0
 40
3.0
 40
3.0
 40
4.0
 40
4.0
 40
4.0
 40
5.0
 40
5.0
 40
5.0
 40
6.0
 40
6.0
 40
6.0
 40
7.0
 40
7.0
 40
7.0
 40
7.0
 10
101.6630452219801
 20
-138.8821342968767
 10
101.6630452219801
 20
-138.8821342968767
 10
101.6630452219801
 20
-137.7779811938541
 10
101.6630452219801
 20
-137.7779811938541
 10
101.6630452219801
 20
-137.7779811938541
 10
101.3330050744931
 20
-137.7779811938541
 10
101.3330050744931
 20
-137.7779811938541
 10
101.3330050744931
 20
-137.7779811938541
 10
101.3330050744931
 20
-137.6301865975369
 10
101.3330050744931
 20
-137.6301865975369
 10
101.6651122792712
 20
-137.6150281774018
 10
101.7116210683221
 20
-137.452419670498
 10
101.7412488894953
 20
-137.3380425003877
 10
101.7412488894953
 20
-137.3380425003877
 10
101.8873209380698
 20
-137.3380425003877
 10
101.8873209380698
 20
-137.3380425003877
 10
101.8873209380698
 20
-137.3380425003877
 10
101.8873209380698
 20
-138.8821342968767
 10
101.8873209380698
 20
-138.8821342968767
 10
101.8873209380698
 20
-138.8821342968767
 10
101.6630452219801
 20
-138.8821342968767
 10
101.6630452219801
 20
-138.8821342968767
 97
        0
 97
        0
 75
     2
 76
     1
 98
        0
  0
SPLINE
  5
57
330
51
100
AcDbEntity
  8
_U+30EC_U+30A4_U+30E4_U+30FC 1
370
     0
100
AcDbSpline
210
0.0
220
0.0
230
1.0
 70
    11
 71
     3
 72
    53
 73
    49
 74
     0
 42
0.0000000001
 43
0.0000000001
 12
1.0
 22
0.0
 32
0.0
 13
1.0
 23
0.0
 33
0.0
 40
0.0
 40
0.0
 40
0.0
 40
0.0
 40
1.0
 40
1.0
 40
1.0
 40
2.0
 40
2.0
 40
2.0
 40
3.0
 40
3.0
 40
3.0
 40
4.0
 40
4.0
 40
4.0
 40
5.0
 40
5.0
 40
5.0
 40
6.0
 40
6.0
 40
6.0
 40
7.0
 40
7.0
 40
7.0
 40
8.0
 40
8.0
 40
8.0
 40
9.0
 40
9.0
 40
9.0
 40
10.0
 40
10.0
 40
10.0
 40
11.0
 40
11.0
 40
11.0
 40
12.0
 40
12.0
 40
12.0
 40
13.0
 40
13.0
 40
13.0
 40
14.0
 40
14.0
 40
14.0
 40
15.0
 40
15.0
 40
15.0
 40
16.0
 40
16.0
 40
16.0
 40
16.0
 10
102.8695176609146
 20
-138.9331217100584
 30
0.0
 10
102.7913139933994
 20
-138.9331217100584
 30
0.0
 10
102.6896836765845
 20
-138.9158962326322
 30
0.0
 10
102.5880533597697
 20
-138.8525064757035
 30
0.0
 10
102.4147650568616
 20
-138.7426079297241
 30
0.0
 10
102.393405464853
 20
-138.611349791736
 30
0.0
 10
102.3744574396842
 20
-138.5038628125963
 30
0.0
 10
102.3744574396842
 20
-138.5038628125963
 30
0.0
 10
102.5966660984828
 20
-138.5038628125963
 30
0.0
 10
102.5966660984828
 20
-138.5038628125963
 30
0.0
 10
102.6514431166983
 20
-138.7023003125466
 30
0.0
 10
102.778567140104
 20
-138.7319281337198
 30
0.0
 10
102.8715847182057
 20
-138.7319281337198
 30
0.0
 10
103.0111110853583
 20
-138.7319281337198
 30
0.0
 10
103.1633843058064
 20
-138.6327093837446
 30
0.0
 10
103.1633843058064
 20
-138.3998209289417
 30
0.0
 10
103.1633843058064
 20
-138.1441948439362
 30
0.0
 10
102.9835503214763
 20
-138.0742594055856
 30
0.0
 10
102.8629719794926
 20
-138.0742594055856
 30
0.0
 10
102.8312771010283
 20
-138.0742594055856
 30
0.0
 10
102.6896836765845
 20
-138.0742594055856
 30
0.0
 10
102.6008002130651
 20
-138.2034504862825
 30
0.0
 10
102.6008002130651
 20
-138.2034504862825
 30
0.0
 10
102.4251003433173
 20
-138.1841579515651
 30
0.0
 10
102.4251003433173
 20
-138.1841579515651
 30
0.0
 10
102.4251003433173
 20
-138.1841579515651
 30
0.0
 10
102.5456786853011
 20
-137.3380425003877
 30
0.0
 10
102.5456786853011
 20
-137.3380425003877
 30
0.0
 10
102.5456786853011
 20
-137.3380425003877
 30
0.0
 10
103.3242702649676
 20
-137.3380425003877
 30
0.0
 10
103.3242702649676
 20
-137.3380425003877
 30
0.0
 10
103.3242702649676
 20
-137.3380425003877
 30
0.0
 10
103.3242702649676
 20
-137.5326903953043
 30
0.0
 10
103.3242702649676
 20
-137.5326903953043
 30
0.0
 10
103.3242702649676
 20
-137.5326903953043
 30
0.0
 10
102.7086317017534
 20
-137.5326903953043
 30
0.0
 10
102.7086317017534
 20
-137.5326903953043
 30
0.0
 10
102.7086317017534
 20
-137.5326903953043
 30
0.0
 10
102.6431748875337
 20
-137.955748120893
 30
0.0
 10
102.6431748875337
 20
-137.955748120893
 30
0.0
 10
102.7044975871711
 20
-137.921641675589
 30
0.0
 10
102.7868353692686
 20
-137.8816785679601
 30
0.0
 10
102.9053466539612
 20
-137.8816785679601
 30
0.0
 10
103.1592501912241
 20
-137.8816785679601
 30
0.0
 10
103.3962727606093
 20
-138.0677137241636
 30
0.0
 10
103.3962727606093
 20
-138.3808729037729
 30
0.0
 10
103.3962727606093
 20
-138.6981661979644
 30
0.0
 10
103.1719970445195
 20
-138.9331217100584
 30
0.0
 10
102.8695176609146
 20
-138.9331217100584
 30
0.0
  0
HATCH
  5
58
330
51
100
AcDbEntity
  8
_U+30EC_U+30A4_U+30E4_U+30FC 1
 62
   179
420
  2234388
100
AcDbHatch
 10
0.0
 20
0.0
 30
0.0
210
0.0
220
0.0
230
1.0
  2
SOLID
 70
     1
 71
     0
 91
        1
 92
        1
 93
        1
 72
     4
 94
        3
 73
     0
 74
     1
 95
       53
 96
       49
 40
0.0
 40
0.0
 40
0.0
 40
0.0
 40
1.0
 40
1.0
 40
1.0
 40
2.0
 40
2.0
 40
2.0
 40
3.0
 40
3.0
 40
3.0
 40
4.0
 40
4.0
 40
4.0
 40
5.0
 40
5.0
 40
5.0
 40
6.0
 40
6.0
 40
6.0
 40
7.0
 40
7.0
 40
7.0
 40
8.0
 40
8.0
 40
8.0
 40
9.0
 40
9.0
 40
9.0
 40
10.0
 40
10.0
 40
10.0
 40
11.0
 40
11.0
 40
11.0
 40
12.0
 40
12.0
 40
12.0
 40
13.0
 40
13.0
 40
13.0
 40
14.0
 40
14.0
 40
14.0
 40
15.0
 40
15.0
 40
15.0
 40
16.0
 40
16.0
 40
16.0
 40
16.0
 10
102.8695176609146
 20
-138.9331217100584
 10
102.7913139933994
 20
-138.9331217100584
 10
102.6896836765845
 20
-138.9158962326322
 10
102.5880533597697
 20
-138.8525064757035
 10
102.4147650568616
 20
-138.7426079297241
 10
102.393405464853
 20
-138.611349791736
 10
102.3744574396842
 20
-138.5038628125963
 10
102.3744574396842
 20
-138.5038628125963
 10
102.5966660984828
 20
-138.5038628125963
 10
102.5966660984828
 20
-138.5038628125963
 10
102.6514431166983
 20
-138.7023003125466
 10
102.778567140104
 20
-138.7319281337198
 10
102.8715847182057
 20
-138.7319281337198
 10
103.0111110853583
 20
-138.7319281337198
 10
103.1633843058064
 20
-138.6327093837446
 10
103.1633843058064
 20
-138.3998209289417
 10
103.1633843058064
 20
-138.1441948439362
 10
102.9835503214763
 20
-138.0742594055856
 10
102.8629719794926
 20
-138.0742594055856
 10
102.8312771010283
 20
-138.0742594055856
 10
102.6896836765845
 20
-138.0742594055856
 10
102.6008002130651
 20
-138.2034504862825
 10
102.6008002130651
 20
-138.2034504862825
 10
102.4251003433173
 20
-138.1841579515651
 10
102.4251003433173
 20
-138.1841579515651
 10
102.4251003433173
 20
-138.1841579515651
 10
102.5456786853011
 20
-137.3380425003877
 10
102.5456786853011
 20
-137.3380425003877
 10
102.5456786853011
 20
-137.3380425003877
 10
103.3242702649676
 20
-137.3380425003877
 10
103.3242702649676
 20
-137.3380425003877
 10
103.3242702649676
 20
-137.3380425003877
 10
103.3242702649676
 20
-137.5326903953043
 10
103.3242702649676
 20
-137.5326903953043
 10
103.3242702649676
 20
-137.5326903953043
 10
102.7086317017534
 20
-137.5326903953043
 10
102.7086317017534
 20
-137.5326903953043
 10
102.7086317017534
 20
-137.5326903953043
 10
102.6431748875337
 20
-137.955748120893
 10
102.6431748875337
 20
-137.955748120893
 10
102.7044975871711
 20
-137.921641675589
 10
102.7868353692686
 20
-137.8816785679601
 10
102.9053466539612
 20
-137.8816785679601
 10
103.1592501912241
 20
-137.8816785679601
 10
103.3962727606093
 20
-138.0677137241636
 10
103.3962727606093
 20
-138.3808729037729
 10
103.3962727606093
 20
-138.6981661979644
 10
103.1719970445195
 20
-138.9331217100584
 10
102.8695176609146
 20
-138.9331217100584
 97
        0
 97
        0
 75
     2
 76
     1
 98
        0
  0
ENDBLK
  5
54
330
51
100
AcDbEntity
  8
0
100
AcDbBlockEnd
  0
BLOCK
  5
93
330
91
100
AcDbEntity
  8
0
100
AcDbBlockBegin
  2
block 5
 70
     0
 10
0.0
 20
0.0
 30
0.0
  3
block 5
  1

  0
SPLINE
  5
95
330
91
100
AcDbEntity
  8
_U+30EC_U+30A4_U+30E4_U+30FC 1
370
     0
100
AcDbSpline
210
0.0
220
0.0
230
1.0
 70
    11
 71
     3
 72
    44
 73
    40
 74
     0
 42
0.0000000001
 43
0.0000000001
 12
1.0
 22
0.0
 32
0.0
 13
1.0
 23
0.0
 33
0.0
 40
0.0
 40
0.0
 40
0.0
 40
0.0
 40
1.0
 40
1.0
 40
1.0
 40
2.0
 40
2.0
 40
2.0
 40
3.0
 40
3.0
 40
3.0
 40
4.0
 40
4.0
 40
4.0
 40
5.0
 40
5.0
 40
5.0
 40
6.0
 40
6.0
 40
6.0
 40
7.0
 40
7.0
 40
7.0
 40
8.0
 40
8.0
 40
8.0
 40
9.0
 40
9.0
 40
9.0
 40
10.0
 40
10.0
 40
10.0
 40
11.0
 40
11.0
 40
11.0
 40
12.0
 40
12.0
 40
12.0
 40
13.0
 40
13.0
 40
13.0
 40
13.0
 10
97.57268335234295
 20
-126.0422634233505
 30
0.0
 10
97.73150225421296
 20
-126.2599934580183
 30
0.0
 10
97.80557180714584
 20
-126.3530110361201
 30
0.0
 10
97.94923228888075
 20
-126.4019313920106
 30
0.0
 10
97.94923228888075
 20
-126.4019313920106
 30
0.0
 10
97.94923228888075
 20
-125.6233398123442
 30
0.0
 10
97.94923228888075
 20
-125.6233398123442
 30
0.0
 10
97.94923228888075
 20
-125.6233398123442
 30
0.0
 10
98.15455997980165
 20
-125.6233398123442
 30
0.0
 10
98.15455997980165
 20
-125.6233398123442
 30
0.0
 10
98.15455997980165
 20
-125.6233398123442
 30
0.0
 10
98.15455997980165
 20
-126.6513563051427
 30
0.0
 10
98.15455997980165
 20
-126.6513563051427
 30
0.0
 10
97.79695906843271
 20
-126.6196614266784
 30
0.0
 10
97.71875540091754
 20
-126.5542046124587
 30
0.0
 10
97.4204101318949
 20
-126.1690429372077
 30
0.0
 10
97.22162812239598
 20
-125.9130723426537
 30
0.0
 10
97.15375974133656
 20
-125.8476155284339
 30
0.0
 10
97.0163004314751
 20
-125.8476155284339
 30
0.0
 10
96.8977891467825
 20
-125.8476155284339
 30
0.0
 10
96.76687551834301
 20
-125.9196180240757
 30
0.0
 10
96.76687551834301
 20
-126.1163329762834
 30
0.0
 10
96.76687551834301
 20
-126.3764376854198
 30
0.0
 10
96.99735240630622
 20
-126.3847059145844
 30
0.0
 10
97.11379663370766
 20
-126.3891845387152
 30
0.0
 10
97.11379663370766
 20
-126.3891845387152
 30
0.0
 10
97.11379663370766
 20
-126.613460254805
 30
0.0
 10
97.11379663370766
 20
-126.613460254805
 30
0.0
 10
96.98667261030195
 20
-126.6048475160919
 30
0.0
 10
96.87470700703133
 20
-126.5941677200876
 30
0.0
 10
96.75619572233873
 20
-126.5138969952813
 30
0.0
 10
96.59530976317757
 20
-126.4039984493018
 30
0.0
 10
96.56154782742212
 20
-126.2176187835498
 30
0.0
 10
96.56154782742212
 20
-126.1015190656968
 30
0.0
 10
96.56154782742212
 20
-125.8241888791342
 30
0.0
 10
96.74551592633446
 20
-125.6167941309222
 30
0.0
 10
97.01836748876624
 20
-125.6167941309222
 30
0.0
 10
97.24712182898683
 20
-125.6167941309222
 30
0.0
 10
97.34634057896203
 20
-125.7332383583236
 30
0.0
 10
97.57268335234295
 20
-126.0422634233505
 30
0.0
  0
HATCH
  5
96
330
91
100
AcDbEntity
  8
_U+30EC_U+30A4_U+30E4_U+30FC 1
 62
   179
420
  2234388
100
AcDbHatch
 10
0.0
 20
0.0
 30
0.0
210
0.0
220
0.0
230
1.0
  2
SOLID
 70
     1
 71
     0
 91
        1
 92
        1
 93
        1
 72
     4
 94
        3
 73
     0
 74
     1
 95
       44
 96
       40
 40
0.0
 40
0.0
 40
0.0
 40
0.0
 40
1.0
 40
1.0
 40
1.0
 40
2.0
 40
2.0
 40
2.0
 40
3.0
 40
3.0
 40
3.0
 40
4.0
 40
4.0
 40
4.0
 40
5.0
 40
5.0
 40
5.0
 40
6.0
 40
6.0
 40
6.0
 40
7.0
 40
7.0
 40
7.0
 40
8.0
 40
8.0
 40
8.0
 40
9.0
 40
9.0
 40
9.0
 40
10.0
 40
10.0
 40
10.0
 40
11.0
 40
11.0
 40
11.0
 40
12.0
 40
12.0
 40
12.0
 40
13.0
 40
13.0
 40
13.0
 40
13.0
 10
97.57268335234295
 20
-126.0422634233505
 10
97.73150225421296
 20
-126.2599934580183
 10
97.80557180714584
 20
-126.3530110361201
 10
97.94923228888075
 20
-126.4019313920106
 10
97.94923228888075
 20
-126.4019313920106
 10
97.94923228888075
 20
-125.6233398123442
 10
97.94923228888075
 20
-125.6233398123442
 10
97.94923228888075
 20
-125.6233398123442
 10
98.15455997980165
 20
-125.6233398123442
 10
98.15455997980165
 20
-125.6233398123442
 10
98.15455997980165
 20
-125.6233398123442
 10
98.15455997980165
 20
-126.6513563051427
 10
98.15455997980165
 20
-126.6513563051427
 10
97.79695906843271
 20
-126.6196614266784
 10
97.71875540091754
 20
-126.5542046124587
 10
97.4204101318949
 20
-126.1690429372077
 10
97.22162812239598
 20
-125.9130723426537
 10
97.15375974133656
 20
-125.8476155284339
 10
97.0163004314751
 20
-125.8476155284339
 10
96.8977891467825
 20
-125.8476155284339
 10
96.76687551834301
 20
-125.9196180240757
 10
96.76687551834301
 20
-126.1163329762834
 10
96.76687551834301
 20
-126.3764376854198
 10
96.99735240630622
 20
-126.3847059145844
 10
97.11379663370766
 20
-126.3891845387152
 10
97.11379663370766
 20
-126.3891845387152
 10
97.11379663370766
 20
-126.613460254805
 10
97.11379663370766
 20
-126.613460254805
 10
96.98667261030195
 20
-126.6048475160919
 10
96.87470700703133
 20
-126.5941677200876
 10
96.75619572233873
 20
-126.5138969952813
 10
96.59530976317757
 20
-126.4039984493018
 10
96.56154782742212
 20
-126.2176187835498
 10
96.56154782742212
 20
-126.1015190656968
 10
96.56154782742212
 20
-125.8241888791342
 10
96.74551592633446
 20
-125.6167941309222
 10
97.01836748876624
 20
-125.6167941309222
 10
97.24712182898683
 20
-125.6167941309222
 10
97.34634057896203
 20
-125.7332383583236
 10
97.57268335234295
 20
-126.0422634233505
 97
        0
 97
        0
 75
     2
 76
     1
 98
        0
  0
SPLINE
  5
97
330
91
100
AcDbEntity
  8
_U+30EC_U+30A4_U+30E4_U+30FC 1
370
     0
100
AcDbSpline
210
0.0
220
0.0
230
1.0
 70
    11
 71
     3
 72
    29
 73
    25
 74
     0
 42
0.0000000001
 43
0.0000000001
 12
1.0
 22
0.0
 32
0.0
 13
1.0
 23
0.0
 33
0.0
 40
0.0
 40
0.0
 40
0.0
 40
0.0
 40
1.0
 40
1.0
 40
1.0
 40
2.0
 40
2.0
 40
2.0
 40
3.0
 40
3.0
 40
3.0
 40
4.0
 40
4.0
 40
4.0
 40
5.0
 40
5.0
 40
5.0
 40
6.0
 40
6.0
 40
6.0
 40
7.0
 40
7.0
 40
7.0
 40
8.0
 40
8.0
 40
8.0
 40
8.0
 10
97.97679305276274
 20
-124.5605278551446
 30
0.0
 10
98.18625485826594
 20
-124.6687038533814
 30
0.0
 10
98.20520288343481
 20
-124.8419921562895
 30
0.0
 10
98.20520288343481
 20
-124.958436383691
 30
0.0
 10
98.20520288343481
 20
-125.1193223428521
 30
0.0
 10
98.15869409438395
 20
-125.2609157672959
 30
0.0
 10
97.97679305276274
 20
-125.3560004026888
 30
0.0
 10
97.78214515784613
 20
-125.4596977767948
 30
0.0
 10
97.54512258846094
 20
-125.4786458019637
 30
0.0
 10
97.38251408155715
 20
-125.4786458019637
 30
0.0
 10
97.23850909027371
 20
-125.4786458019637
 30
0.0
 10
96.98667261030195
 20
-125.461764834086
 30
0.0
 10
96.78789060080304
 20
-125.3560004026888
 30
0.0
 10
96.58497447672181
 20
-125.2481689140005
 30
0.0
 10
96.56154782742212
 20
-125.0872829548393
 30
0.0
 10
96.56154782742212
 20
-124.958436383691
 30
0.0
 10
96.56154782742212
 20
-124.7996174818209
 30
0.0
 10
96.60598955918184
 20
-124.655957000086
 30
0.0
 10
96.78789060080304
 20
-124.5605278551446
 30
0.0
 10
96.9804714384285
 20
-124.4613091051694
 30
0.0
 10
97.20888126910056
 20
-124.4378824558697
 30
0.0
 10
97.38251408155715
 20
-124.4378824558697
 30
0.0
 10
97.55373532717407
 20
-124.4378824558697
 30
0.0
 10
97.78421221513729
 20
-124.4592420478782
 30
0.0
 10
97.97679305276274
 20
-124.5605278551446
 30
0.0
  0
SPLINE
  5
98
330
91
100
AcDbEntity
  8
_U+30EC_U+30A4_U+30E4_U+30FC 1
370
     0
100
AcDbSpline
210
0.0
220
0.0
230
1.0
 70
    11
 71
     3
 72
    17
 73
    13
 74
     0
 42
0.0000000001
 43
0.0000000001
 12
1.0
 22
0.0
 32
0.0
 13
1.0
 23
0.0
 33
0.0
 40
0.0
 40
0.0
 40
0.0
 40
0.0
 40
1.0
 40
1.0
 40
1.0
 40
2.0
 40
2.0
 40
2.0
 40
3.0
 40
3.0
 40
3.0
 40
4.0
 40
4.0
 40
4.0
 40
4.0
 10
96.75412866504759
 20
-124.958436383691
 30
0.0
 10
96.75412866504759
 20
-125.207861296823
 30
0.0
 10
97.03766002348364
 20
-125.2547145954224
 30
0.0
 10
97.38251408155715
 20
-125.2547145954224
 30
0.0
 10
97.70187443303982
 20
-125.2547145954224
 30
0.0
 10
98.0105549885182
 20
-125.2185410928273
 30
0.0
 10
98.0105549885182
 20
-124.958436383691
 30
0.0
 10
98.0105549885182
 20
-124.7107340183015
 30
0.0
 10
97.72943519692181
 20
-124.6621581719595
 30
0.0
 10
97.38251408155715
 20
-124.6621581719595
 30
0.0
 10
97.06280922052596
 20
-124.6621581719595
 30
0.0
 10
96.75412866504759
 20
-124.7003987318457
 30
0.0
 10
96.75412866504759
 20
-124.958436383691
 30
0.0
  0
HATCH
  5
99
330
91
100
AcDbEntity
  8
_U+30EC_U+30A4_U+30E4_U+30FC 1
 62
   179
420
  2234388
100
AcDbHatch
 10
0.0
 20
0.0
 30
0.0
210
0.0
220
0.0
230
1.0
  2
SOLID
 70
     1
 71
     0
 91
        2
 92
        1
 93
        1
 72
     4
 94
        3
 73
     0
 74
     1
 95
       29
 96
       25
 40
0.0
 40
0.0
 40
0.0
 40
0.0
 40
1.0
 40
1.0
 40
1.0
 40
2.0
 40
2.0
 40
2.0
 40
3.0
 40
3.0
 40
3.0
 40
4.0
 40
4.0
 40
4.0
 40
5.0
 40
5.0
 40
5.0
 40
6.0
 40
6.0
 40
6.0
 40
7.0
 40
7.0
 40
7.0
 40
8.0
 40
8.0
 40
8.0
 40
8.0
 10
97.97679305276274
 20
-124.5605278551446
 10
98.18625485826594
 20
-124.6687038533814
 10
98.20520288343481
 20
-124.8419921562895
 10
98.20520288343481
 20
-124.958436383691
 10
98.20520288343481
 20
-125.1193223428521
 10
98.15869409438395
 20
-125.2609157672959
 10
97.97679305276274
 20
-125.3560004026888
 10
97.78214515784613
 20
-125.4596977767948
 10
97.54512258846094
 20
-125.4786458019637
 10
97.38251408155715
 20
-125.4786458019637
 10
97.23850909027371
 20
-125.4786458019637
 10
96.98667261030195
 20
-125.461764834086
 10
96.78789060080304
 20
-125.3560004026888
 10
96.58497447672181
 20
-125.2481689140005
 10
96.56154782742212
 20
-125.0872829548393
 10
96.56154782742212
 20
-124.958436383691
 10
96.56154782742212
 20
-124.7996174818209
 10
96.60598955918184
 20
-124.655957000086
 10
96.78789060080304
 20
-124.5605278551446
 10
96.9804714384285
 20
-124.4613091051694
 10
97.20888126910056
 20
-124.4378824558697
 10
97.38251408155715
 20
-124.4378824558697
 10
97.55373532717407
 20
-124.4378824558697
 10
97.78421221513729
 20
-124.4592420478782
 10
97.97679305276274
 20
-124.5605278551446
 97
        0
 97
        0
 92
        1
 93
        1
 72
     4
 94
        3
 73
     0
 74
     1
 95
       17
 96
       13
 40
0.0
 40
0.0
 40
0.0
 40
0.0
 40
1.0
 40
1.0
 40
1.0
 40
2.0
 40
2.0
 40
2.0
 40
3.0
 40
3.0
 40
3.0
 40
4.0
 40
4.0
 40
4.0
 40
4.0
 10
96.75412866504759
 20
-124.958436383691
 10
96.75412866504759
 20
-125.207861296823
 10
97.03766002348364
 20
-125.2547145954224
 10
97.38251408155715
 20
-125.2547145954224
 10
97.70187443303982
 20
-125.2547145954224
 10
98.0105549885182
 20
-125.2185410928273
 10
98.0105549885182
 20
-124.958436383691
 10
98.0105549885182
 20
-124.7107340183015
 10
97.72943519692181
 20
-124.6621581719595
 10
97.38251408155715
 20
-124.6621581719595
 10
97.06280922052596
 20
-124.6621581719595
 10
96.75412866504759
 20
-124.7003987318457
 10
96.75412866504759
 20
-124.958436383691
 97
        0
 97
        0
 75
     2
 76
     1
 98
        0
  0
ENDBLK
  5
94
330
91
100
AcDbEntity
  8
0
100
AcDbBlockEnd
  0
ENDSEC
  0
SECTION
  2
ENTITIES
  0
INSERT
  5
42
330
1F
100
AcDbEntity
  8
_U+30EC_U+30A4_U+30E4_U+30FC 1
100
AcDbBlockReference
  2
block 2
 10
0.0
 20
0.0
 30
0.0
  0
INSERT
  5
4A
330
1F
100
AcDbEntity
  8
_U+30EC_U+30A4_U+30E4_U+30FC 1
100
AcDbBlockReference
  2
block 3
 10
0.0
 20
0.0
 30
0.0
  0
INSERT
  5
52
330
1F
100
AcDbEntity
  8
_U+30EC_U+30A4_U+30E4_U+30FC 1
100
AcDbBlockReference
  2
block 4
 10
0.0
 20
0.0
 30
0.0
  0
SPLINE
  5
59
330
1F
100
AcDbEntity
  8
_U+30EC_U+30A4_U+30E4_U+30FC 1
 62
   179
420
  2234388
370
     9
100
AcDbSpline
210
0.0
220
0.0
230
1.0
 70
    11
 71
     3
 72
    17
 73
    13
 74
     0
 42
0.0000000001
 43
0.0000000001
 12
1.0
 22
0.0
 32
0.0
 13
1.0
 23
0.0
 33
0.0
 40
0.0
 40
0.0
 40
0.0
 40
0.0
 40
1.0
 40
1.0
 40
1.0
 40
2.0
 40
2.0
 40
2.0
 40
3.0
 40
3.0
 40
3.0
 40
4.0
 40
4.0
 40
4.0
 40
4.0
 10
71.9001662212295
 20
-139.5287616317846
 30
0.0
 10
71.9001662212295
 20
-139.4729521873542
 30
0.0
 10
71.8553987223716
 20
-139.428184687365
 30
0.0
 10
71.79990677934288
 20
-139.428184687365
 30
0.0
 10
71.7448028918598
 20
-139.428184687365
 30
0.0
 10
71.70000011522505
 20
-139.4729521873542
 30
0.0
 10
71.70000011522505
 20
-139.5287616317846
 30
0.0
 10
71.70000011522505
 20
-139.5839007984371
 30
0.0
 10
71.7448028918598
 20
-139.6287035762038
 30
0.0
 10
71.79990677934288
 20
-139.6287035762038
 30
0.0
 10
71.8553987223716
 20
-139.6287035762038
 30
0.0
 10
71.9001662212295
 20
-139.5839007984371
 30
0.0
 10
71.9001662212295
 20
-139.5287616317846
 30
0.0
  0
SPLINE
  5
5A
330
1F
100
AcDbEntity
  8
_U+30EC_U+30A4_U+30E4_U+30FC 1
 62
   179
420
  2234388
370
     9
100
AcDbSpline
210
0.0
220
0.0
230
1.0
 70
    11
 71
     3
 72
    17
 73
    13
 74
     0
 42
0.0000000001
 43
0.0000000001
 12
1.0
 22
0.0
 32
0.0
 13
1.0
 23
0.0
 33
0.0
 40
0.0
 40
0.0
 40
0.0
 40
0.0
 40
1.0
 40
1.0
 40
1.0
 40
2.0
 40
2.0
 40
2.0
 40
3.0
 40
3.0
 40
3.0
 40
4.0
 40
4.0
 40
4.0
 40
4.0
 10
109.8999058073309
 20
-139.5287616317846
 30
0.0
 10
109.8999058073309
 20
-139.4729521873542
 30
0.0
 10
109.855138308473
 20
-139.428184687365
 30
0.0
 10
109.7999991432131
 20
-139.428184687365
 30
0.0
 10
109.74489525573
 20
-139.428184687365
 30
0.0
 10
109.7000924790953
 20
-139.4729521873542
 30
0.0
 10
109.7000924790953
 20
-139.5287616317846
 30
0.0
 10
109.7000924790953
 20
-139.5839007984371
 30
0.0
 10
109.74489525573
 20
-139.6287035762038
 30
0.0
 10
109.7999991432131
 20
-139.6287035762038
 30
0.0
 10
109.855138308473
 20
-139.6287035762038
 30
0.0
 10
109.8999058073309
 20
-139.5839007984371
 30
0.0
 10
109.8999058073309
 20
-139.5287616317846
 30
0.0
  0
SPLINE
  5
5B
330
1F
100
AcDbEntity
  8
_U+30EC_U+30A4_U+30E4_U+30FC 1
 62
   179
420
  2234388
370
     9
100
AcDbSpline
210
0.0
220
0.0
230
1.0
 70
    11
 71
     3
 72
    17
 73
    13
 74
     0
 42
0.0000000001
 43
0.0000000001
 12
1.0
 22
0.0
 32
0.0
 13
1.0
 23
0.0
 33
0.0
 40
0.0
 40
0.0
 40
0.0
 40
0.0
 40
1.0
 40
1.0
 40
1.0
 40
2.0
 40
2.0
 40
2.0
 40
3.0
 40
3.0
 40
3.0
 40
4.0
 40
4.0
 40
4.0
 40
4.0
 10
86.9001358385484
 20
-139.5287616317846
 30
0.0
 10
86.9001358385484
 20
-139.4729521873542
 30
0.0
 10
86.85533306191363
 20
-139.428184687365
 30
0.0
 10
86.80022917443056
 20
-139.428184687365
 30
0.0
 10
86.74473723140183
 20
-139.428184687365
 30
0.0
 10
86.69996973254395
 20
-139.4729521873542
 30
0.0
 10
86.69996973254395
 20
-139.5287616317846
 30
0.0
 10
86.69996973254395
 20
-139.5839007984371
 30
0.0
 10
86.74473723140183
 20
-139.6287035762038
 30
0.0
 10
86.80022917443056
 20
-139.6287035762038
 30
0.0
 10
86.85533306191363
 20
-139.6287035762038
 30
0.0
 10
86.9001358385484
 20
-139.5839007984371
 30
0.0
 10
86.9001358385484
 20
-139.5287616317846
 30
0.0
  0
SPLINE
  5
5C
330
1F
100
AcDbEntity
  8
_U+30EC_U+30A4_U+30E4_U+30FC 1
 62
   179
420
  2234388
370
     9
100
AcDbSpline
210
0.0
220
0.0
230
1.0
 70
    11
 71
     3
 72
    17
 73
    13
 74
     0
 42
0.0000000001
 43
0.0000000001
 12
1.0
 22
0.0
 32
0.0
 13
1.0
 23
0.0
 33
0.0
 40
0.0
 40
0.0
 40
0.0
 40
0.0
 40
1.0
 40
1.0
 40
1.0
 40
2.0
 40
2.0
 40
2.0
 40
3.0
 40
3.0
 40
3.0
 40
4.0
 40
4.0
 40
4.0
 40
4.0
 10
94.89997146778892
 20
-139.5287616317846
 30
0.0
 10
94.89997146778892
 20
-139.4729521873542
 30
0.0
 10
94.85520396893102
 20
-139.428184687365
 30
0.0
 10
94.80006480367108
 20
-139.428184687365
 30
0.0
 10
94.744960916188
 20
-139.428184687365
 30
0.0
 10
94.70015813955324
 20
-139.4729521873542
 30
0.0
 10
94.70015813955324
 20
-139.5287616317846
 30
0.0
 10
94.70015813955324
 20
-139.5839007984371
 30
0.0
 10
94.744960916188
 20
-139.6287035762038
 30
0.0
 10
94.80006480367108
 20
-139.6287035762038
 30
0.0
 10
94.85520396893102
 20
-139.6287035762038
 30
0.0
 10
94.89997146778892
 20
-139.5839007984371
 30
0.0
 10
94.89997146778892
 20
-139.5287616317846
 30
0.0
  0
POLYLINE
  5
5D
330
1F
100
AcDbEntity
  8
_U+30EC_U+30A4_U+30E4_U+30FC 1
 62
   179
420
  2234388
370
     9
100
AcDb2dPolyline
 66
     1
 10
0.0
 20
0.0
 30
0.0
  0
VERTEX
  5
5E
330
5D
100
AcDbEntity
  8
_U+30EC_U+30A4_U+30E4_U+30FC 1
 62
   179
420
  2234388
370
     9
100
AcDbVertex
100
AcDb2dVertex
 10
86.80022917443056
 20
-139.5287616317846
 30
0.0
  0
VERTEX
  5
5F
330
5D
100
AcDbEntity
  8
_U+30EC_U+30A4_U+30E4_U+30FC 1
 62
   179
420
  2234388
370
     9
100
AcDbVertex
100
AcDb2dVertex
 10
94.80006480367108
 20
-139.5287616317846
 30
0.0
  0
SEQEND
  5
60
330
5D
100
AcDbEntity
  8
_U+30EC_U+30A4_U+30E4_U+30FC 1
 62
   179
420
  2234388
370
     9
  0
POLYLINE
  5
61
330
1F
100
AcDbEntity
  8
_U+30EC_U+30A4_U+30E4_U+30FC 1
 62
   179
420
  2234388
370
     9
100
AcDb2dPolyline
 66
     1
 10
0.0
 20
0.0
 30
0.0
  0
VERTEX
  5
62
330
61
100
AcDbEntity
  8
_U+30EC_U+30A4_U+30E4_U+30FC 1
 62
   179
420
  2234388
370
     9
100
AcDbVertex
100
AcDb2dVertex
 10
86.80022917443056
 20
-138.0694257988158
 30
0.0
  0
VERTEX
  5
63
330
61
100
AcDbEntity
  8
_U+30EC_U+30A4_U+30E4_U+30FC 1
 62
   179
420
  2234388
370
     9
100
AcDbVertex
100
AcDb2dVertex
 10
86.80022917443056
 20
-140.5292394093121
 30
0.0
  0
SEQEND
  5
64
330
61
100
AcDbEntity
  8
_U+30EC_U+30A4_U+30E4_U+30FC 1
 62
   179
420
  2234388
370
     9
  0
POLYLINE
  5
65
330
1F
100
AcDbEntity
  8
_U+30EC_U+30A4_U+30E4_U+30FC 1
 62
   179
420
  2234388
370
     9
100
AcDb2dPolyline
 66
     1
 10
0.0
 20
0.0
 30
0.0
  0
VERTEX
  5
66
330
65
100
AcDbEntity
  8
_U+30EC_U+30A4_U+30E4_U+30FC 1
 62
   179
420
  2234388
370
     9
100
AcDbVertex
100
AcDb2dVertex
 10
94.80006480367108
 20
-138.0694257988158
 30
0.0
  0
VERTEX
  5
67
330
65
100
AcDbEntity
  8
_U+30EC_U+30A4_U+30E4_U+30FC 1
 62
   179
420
  2234388
370
     9
100
AcDbVertex
100
AcDb2dVertex
 10
94.80006480367108
 20
-140.5292394093121
 30
0.0
  0
SEQEND
  5
68
330
65
100
AcDbEntity
  8
_U+30EC_U+30A4_U+30E4_U+30FC 1
 62
   179
420
  2234388
370
     9
  0
POLYLINE
  5
69
330
1F
100
AcDbEntity
  8
_U+30EC_U+30A4_U+30E4_U+30FC 1
 62
   179
420
  2234388
370
     9
100
AcDb2dPolyline
 66
     1
 10
0.0
 20
0.0
 30
0.0
  0
VERTEX
  5
6A
330
69
100
AcDbEntity
  8
_U+30EC_U+30A4_U+30E4_U+30FC 1
 62
   179
420
  2234388
370
     9
100
AcDbVertex
100
AcDb2dVertex
 10
71.79990677934288
 20
-139.5287616317846
 30
0.0
  0
VERTEX
  5
6B
330
69
100
AcDbEntity
  8
_U+30EC_U+30A4_U+30E4_U+30FC 1
 62
   179
420
  2234388
370
     9
100
AcDbVertex
100
AcDb2dVertex
 10
86.80022917443056
 20
-139.5287616317846
 30
0.0
  0
SEQEND
  5
6C
330
69
100
AcDbEntity
  8
_U+30EC_U+30A4_U+30E4_U+30FC 1
 62
   179
420
  2234388
370
     9
  0
POLYLINE
  5
6D
330
1F
100
AcDbEntity
  8
_U+30EC_U+30A4_U+30E4_U+30FC 1
 62
   179
420
  2234388
370
     9
100
AcDb2dPolyline
 66
     1
 10
0.0
 20
0.0
 30
0.0
  0
VERTEX
  5
6E
330
6D
100
AcDbEntity
  8
_U+30EC_U+30A4_U+30E4_U+30FC 1
 62
   179
420
  2234388
370
     9
100
AcDbVertex
100
AcDb2dVertex
 10
71.79990677934288
 20
-137.0696535768439
 30
0.0
  0
VERTEX
  5
6F
330
6D
100
AcDbEntity
  8
_U+30EC_U+30A4_U+30E4_U+30FC 1
 62
   179
420
  2234388
370
     9
100
AcDbVertex
100
AcDb2dVertex
 10
71.79990677934288
 20
-140.5292394093121
 30
0.0
  0
SEQEND
  5
70
330
6D
100
AcDbEntity
  8
_U+30EC_U+30A4_U+30E4_U+30FC 1
 62
   179
420
  2234388
370
     9
  0
POLYLINE
  5
71
330
1F
100
AcDbEntity
  8
_U+30EC_U+30A4_U+30E4_U+30FC 1
 62
   179
420
  2234388
370
     9
100
AcDb2dPolyline
 66
     1
 10
0.0
 20
0.0
 30
0.0
  0
VERTEX
  5
72
330
71
100
AcDbEntity
  8
_U+30EC_U+30A4_U+30E4_U+30FC 1
 62
   179
420
  2234388
370
     9
100
AcDbVertex
100
AcDb2dVertex
 10
94.80006480367108
 20
-139.5287616317846
 30
0.0
  0
VERTEX
  5
73
330
71
100
AcDbEntity
  8
_U+30EC_U+30A4_U+30E4_U+30FC 1
 62
   179
420
  2234388
370
     9
100
AcDbVertex
100
AcDb2dVertex
 10
109.7999991432131
 20
-139.5287616317846
 30
0.0
  0
SEQEND
  5
74
330
71
100
AcDbEntity
  8
_U+30EC_U+30A4_U+30E4_U+30FC 1
 62
   179
420
  2234388
370
     9
  0
POLYLINE
  5
75
330
1F
100
AcDbEntity
  8
_U+30EC_U+30A4_U+30E4_U+30FC 1
 62
   179
420
  2234388
370
     9
100
AcDb2dPolyline
 66
     1
 10
0.0
 20
0.0
 30
0.0
  0
VERTEX
  5
76
330
75
100
AcDbEntity
  8
_U+30EC_U+30A4_U+30E4_U+30FC 1
 62
   179
420
  2234388
370
     9
100
AcDbVertex
100
AcDb2dVertex
 10
109.7999991432131
 20
-137.0696535768439
 30
0.0
  0
VERTEX
  5
77
330
75
100
AcDbEntity
  8
_U+30EC_U+30A4_U+30E4_U+30FC 1
 62
   179
420
  2234388
370
     9
100
AcDbVertex
100
AcDb2dVertex
 10
109.7999991432131
 20
-140.5292394093121
 30
0.0
  0
SEQEND
  5
78
330
75
100
AcDbEntity
  8
_U+30EC_U+30A4_U+30E4_U+30FC 1
 62
   179
420
  2234388
370
     9
  0
POLYLINE
  5
79
330
1F
100
AcDbEntity
  8
_U+30EC_U+30A4_U+30E4_U+30FC 1
 62
   179
420
  2234388
370
    25
100
AcDb2dPolyline
 66
     1
 10
0.0
 20
0.0
 30
0.0
  0
VERTEX
  5
7A
330
79
100
AcDbEntity
  8
_U+30EC_U+30A4_U+30E4_U+30FC 1
 62
   179
420
  2234388
370
    25
100
AcDbVertex
100
AcDb2dVertex
 10
71.79990677934288
 20
-115.5474574711132
 30
0.0
  0
VERTEX
  5
7B
330
79
100
AcDbEntity
  8
_U+30EC_U+30A4_U+30E4_U+30FC 1
 62
   179
420
  2234388
370
    25
100
AcDbVertex
100
AcDb2dVertex
 10
85.80010419994586
 20
-115.5474574711132
 30
0.0
  0
SEQEND
  5
7C
330
79
100
AcDbEntity
  8
_U+30EC_U+30A4_U+30E4_U+30FC 1
 62
   179
420
  2234388
370
    25
  0
POLYLINE
  5
7D
330
1F
100
AcDbEntity
  8
_U+30EC_U+30A4_U+30E4_U+30FC 1
 62
   179
420
  2234388
370
    25
100
AcDb2dPolyline
 66
     1
 10
0.0
 20
0.0
 30
0.0
  0
VERTEX
  5
7E
330
7D
100
AcDbEntity
  8
_U+30EC_U+30A4_U+30E4_U+30FC 1
 62
   179
420
  2234388
370
    25
100
AcDbVertex
100
AcDb2dVertex
 10
87.80031887113836
 20
-135.5476291327796
 30
0.0
  0
VERTEX
  5
7F
330
7D
100
AcDbEntity
  8
_U+30EC_U+30A4_U+30E4_U+30FC 1
 62
   179
420
  2234388
370
    25
100
AcDbVertex
100
AcDb2dVertex
 10
93.80029260695517
 20
-135.5476291327796
 30
0.0
  0
SEQEND
  5
80
330
7D
100
AcDbEntity
  8
_U+30EC_U+30A4_U+30E4_U+30FC 1
 62
   179
420
  2234388
370
    25
  0
POLYLINE
  5
81
330
1F
100
AcDbEntity
  8
_U+30EC_U+30A4_U+30E4_U+30FC 1
 62
   179
420
  2234388
370
    25
100
AcDb2dPolyline
 66
     1
 10
0.0
 20
0.0
 30
0.0
  0
VERTEX
  5
82
330
81
100
AcDbEntity
  8
_U+30EC_U+30A4_U+30E4_U+30FC 1
 62
   179
420
  2234388
370
    25
100
AcDbVertex
100
AcDb2dVertex
 10
94.80006480367108
 20
-116.5472296930855
 30
0.0
  0
VERTEX
  5
83
330
81
100
AcDbEntity
  8
_U+30EC_U+30A4_U+30E4_U+30FC 1
 62
   179
420
  2234388
370
    25
100
AcDbVertex
100
AcDb2dVertex
 10
94.80006480367108
 20
-134.5471866330297
 30
0.0
  0
SEQEND
  5
84
330
81
100
AcDbEntity
  8
_U+30EC_U+30A4_U+30E4_U+30FC 1
 62
   179
420
  2234388
370
    25
  0
POLYLINE
  5
85
330
1F
100
AcDbEntity
  8
_U+30EC_U+30A4_U+30E4_U+30FC 1
 62
   179
420
  2234388
370
    25
100
AcDb2dPolyline
 66
     1
 10
0.0
 20
0.0
 30
0.0
  0
VERTEX
  5
86
330
85
100
AcDbEntity
  8
_U+30EC_U+30A4_U+30E4_U+30FC 1
 62
   179
420
  2234388
370
    25
100
AcDbVertex
100
AcDb2dVertex
 10
86.80022917443056
 20
-116.5472296930855
 30
0.0
  0
VERTEX
  5
87
330
85
100
AcDbEntity
  8
_U+30EC_U+30A4_U+30E4_U+30FC 1
 62
   179
420
  2234388
370
    25
100
AcDbVertex
100
AcDb2dVertex
 10
86.80022917443056
 20
-134.5471866330297
 30
0.0
  0
SEQEND
  5
88
330
85
100
AcDbEntity
  8
_U+30EC_U+30A4_U+30E4_U+30FC 1
 62
   179
420
  2234388
370
    25
  0
POLYLINE
  5
89
330
1F
100
AcDbEntity
  8
_U+30EC_U+30A4_U+30E4_U+30FC 1
 62
   179
420
  2234388
370
    25
100
AcDb2dPolyline
 66
     1
 10
0.0
 20
0.0
 30
0.0
  0
VERTEX
  5
8A
330
89
100
AcDbEntity
  8
_U+30EC_U+30A4_U+30E4_U+30FC 1
 62
   179
420
  2234388
370
    25
100
AcDbVertex
100
AcDb2dVertex
 10
95.79983700038699
 20
-115.5474574711132
 30
0.0
  0
VERTEX
  5
8B
330
89
100
AcDbEntity
  8
_U+30EC_U+30A4_U+30E4_U+30FC 1
 62
   179
420
  2234388
370
    25
100
AcDbVertex
100
AcDb2dVertex
 10
109.7999991432131
 20
-115.5474574711132
 30
0.0
  0
SEQEND
  5
8C
330
89
100
AcDbEntity
  8
_U+30EC_U+30A4_U+30E4_U+30FC 1
 62
   179
420
  2234388
370
    25
  0
SPLINE
  5
8D
330
1F
100
AcDbEntity
  8
_U+30EC_U+30A4_U+30E4_U+30FC 1
 62
   179
420
  2234388
370
    25
100
AcDbSpline
210
0.0
220
0.0
230
1.0
 70
     8
 71
     3
 72
     8
 73
     4
 74
     0
 42
0.0000000001
 43
0.0000000001
 12
1.0
 22
0.0
 32
0.0
 13
1.0
 23
0.0
 33
0.0
 40
0.0
 40
0.0
 40
0.0
 40
0.0
 40
1.0
 40
1.0
 40
1.0
 40
1.0
 10
95.79983700038699
 20
-115.5474574711132
 30
0.0
 10
95.24791618113433
 20
-115.5474574711132
 30
0.0
 10
94.80006480367108
 20
-115.9953441376678
 30
0.0
 10
94.80006480367108
 20
-116.5472296930855
 30
0.0
  0
SPLINE
  5
8E
330
1F
100
AcDbEntity
  8
_U+30EC_U+30A4_U+30E4_U+30FC 1
 62
   179
420
  2234388
370
    25
100
AcDbSpline
210
0.0
220
0.0
230
1.0
 70
     8
 71
     3
 72
     8
 73
     4
 74
     0
 42
0.0000000001
 43
0.0000000001
 12
1.0
 22
0.0
 32
0.0
 13
1.0
 23
0.0
 33
0.0
 40
0.0
 40
0.0
 40
0.0
 40
0.0
 40
1.0
 40
1.0
 40
1.0
 40
1.0
 10
93.80029260695517
 20
-135.5476291327796
 30
0.0
 10
94.35221342620783
 20
-135.5476291327796
 30
0.0
 10
94.80006480367108
 20
-135.0997777440025
 30
0.0
 10
94.80006480367108
 20
-134.5471866330297
 30
0.0
  0
SPLINE
  5
8F
330
1F
100
AcDbEntity
  8
_U+30EC_U+30A4_U+30E4_U+30FC 1
 62
   179
420
  2234388
370
    25
100
AcDbSpline
210
0.0
220
0.0
230
1.0
 70
     8
 71
     3
 72
     8
 73
     4
 74
     0
 42
0.0000000001
 43
0.0000000001
 12
1.0
 22
0.0
 32
0.0
 13
1.0
 23
0.0
 33
0.0
 40
0.0
 40
0.0
 40
0.0
 40
0.0
 40
1.0
 40
1.0
 40
1.0
 40
1.0
 10
86.80022917443056
 20
-134.5471866330297
 30
0.0
 10
86.80022917443056
 20
-135.0997777440025
 30
0.0
 10
87.24772777412502
 20
-135.5476291327796
 30
0.0
 10
87.80031887113836
 20
-135.5476291327796
 30
0.0
  0
SPLINE
  5
90
330
1F
100
AcDbEntity
  8
_U+30EC_U+30A4_U+30E4_U+30FC 1
 62
   179
420
  2234388
370
    25
100
AcDbSpline
210
0.0
220
0.0
230
1.0
 70
     8
 71
     3
 72
     8
 73
     4
 74
     0
 42
0.0000000001
 43
0.0000000001
 12
1.0
 22
0.0
 32
0.0
 13
1.0
 23
0.0
 33
0.0
 40
0.0
 40
0.0
 40
0.0
 40
0.0
 40
1.0
 40
1.0
 40
1.0
 40
1.0
 10
86.80022917443056
 20
-116.5472296930855
 30
0.0
 10
86.80022917443056
 20
-115.9953441376678
 30
0.0
 10
86.35269529695921
 20
-115.5474574711132
 30
0.0
 10
85.80010419994586
 20
-115.5474574711132
 30
0.0
  0
INSERT
  5
92
330
1F
100
AcDbEntity
  8
_U+30EC_U+30A4_U+30E4_U+30FC 1
100
AcDbBlockReference
  2
block 5
 10
0.0
 20
0.0
 30
0.0
  0
SPLINE
  5
9A
330
1F
100
AcDbEntity
  8
_U+30EC_U+30A4_U+30E4_U+30FC 1
 62
   179
420
  2234388
370
     9
100
AcDbSpline
210
0.0
220
0.0
230
1.0
 70
    11
 71
     3
 72
    17
 73
    13
 74
     0
 42
0.0000000001
 43
0.0000000001
 12
1.0
 22
0.0
 32
0.0
 13
1.0
 23
0.0
 33
0.0
 40
0.0
 40
0.0
 40
0.0
 40
0.0
 40
1.0
 40
1.0
 40
1.0
 40
2.0
 40
2.0
 40
2.0
 40
3.0
 40
3.0
 40
3.0
 40
4.0
 40
4.0
 40
4.0
 40
4.0
 10
98.90043608795078
 20
-135.5476291327796
 30
0.0
 10
98.90043608795078
 20
-135.4918196883491
 30
0.0
 10
98.85563331131601
 20
-135.4470169105824
 30
0.0
 10
98.79982386829539
 20
-135.4470169105824
 30
0.0
 10
98.74471998081232
 20
-135.4470169105824
 30
0.0
 10
98.69991720417755
 20
-135.4918196883491
 30
0.0
 10
98.69991720417755
 20
-135.5476291327796
 30
0.0
 10
98.69991720417755
 20
-135.6027330216551
 30
0.0
 10
98.74471998081232
 20
-135.6475357994212
 30
0.0
 10
98.79982386829539
 20
-135.6475357994212
 30
0.0
 10
98.85563331131601
 20
-135.6475357994212
 30
0.0
 10
98.90043608795078
 20
-135.6027330216551
 30
0.0
 10
98.90043608795078
 20
-135.5476291327796
 30
0.0
  0
SPLINE
  5
9B
330
1F
100
AcDbEntity
  8
_U+30EC_U+30A4_U+30E4_U+30FC 1
 62
   179
420
  2234388
370
     9
100
AcDbSpline
210
0.0
220
0.0
230
1.0
 70
    11
 71
     3
 72
    17
 73
    13
 74
     0
 42
0.0000000001
 43
0.0000000001
 12
1.0
 22
0.0
 32
0.0
 13
1.0
 23
0.0
 33
0.0
 40
0.0
 40
0.0
 40
0.0
 40
0.0
 40
1.0
 40
1.0
 40
1.0
 40
2.0
 40
2.0
 40
2.0
 40
3.0
 40
3.0
 40
3.0
 40
4.0
 40
4.0
 40
4.0
 40
4.0
 10
98.90043608795078
 20
-115.5474574711132
 30
0.0
 10
98.90043608795078
 20
-115.492353582238
 30
0.0
 10
98.85563331131601
 20
-115.4475508044716
 30
0.0
 10
98.79982386829539
 20
-115.4475508044716
 30
0.0
 10
98.74471998081232
 20
-115.4475508044716
 30
0.0
 10
98.69991720417755
 20
-115.492353582238
 30
0.0
 10
98.69991720417755
 20
-115.5474574711132
 30
0.0
 10
98.69991720417755
 20
-115.602596637766
 30
0.0
 10
98.74471998081232
 20
-115.6473641377549
 30
0.0
 10
98.79982386829539
 20
-115.6473641377549
 30
0.0
 10
98.85563331131601
 20
-115.6473641377549
 30
0.0
 10
98.90043608795078
 20
-115.602596637766
 30
0.0
 10
98.90043608795078
 20
-115.5474574711132
 30
0.0
  0
POLYLINE
  5
9C
330
1F
100
AcDbEntity
  8
_U+30EC_U+30A4_U+30E4_U+30FC 1
 62
   179
420
  2234388
370
     9
100
AcDb2dPolyline
 66
     1
 10
0.0
 20
0.0
 30
0.0
  0
VERTEX
  5
9D
330
9C
100
AcDbEntity
  8
_U+30EC_U+30A4_U+30E4_U+30FC 1
 62
   179
420
  2234388
370
     9
100
AcDbVertex
100
AcDb2dVertex
 10
98.79982386829539
 20
-135.5476291327796
 30
0.0
  0
VERTEX
  5
9E
330
9C
100
AcDbEntity
  8
_U+30EC_U+30A4_U+30E4_U+30FC 1
 62
   179
420
  2234388
370
     9
100
AcDbVertex
100
AcDb2dVertex
 10
98.79982386829539
 20
-115.5474574711132
 30
0.0
  0
SEQEND
  5
9F
330
9C
100
AcDbEntity
  8
_U+30EC_U+30A4_U+30E4_U+30FC 1
 62
   179
420
  2234388
370
     9
  0
POLYLINE
  5
A0
330
1F
100
AcDbEntity
  8
_U+30EC_U+30A4_U+30E4_U+30FC 1
 62
   179
420
  2234388
370
     9
100
AcDb2dPolyline
 66
     1
 10
0.0
 20
0.0
 30
0.0
  0
VERTEX
  5
A1
330
A0
100
AcDbEntity
  8
_U+30EC_U+30A4_U+30E4_U+30FC 1
 62
   179
420
  2234388
370
     9
100
AcDbVertex
100
AcDb2dVertex
 10
96.34001031993935
 20
-135.5476291327796
 30
0.0
  0
VERTEX
  5
A2
330
A0
100
AcDbEntity
  8
_U+30EC_U+30A4_U+30E4_U+30FC 1
 62
   179
420
  2234388
370
     9
100
AcDbVertex
100
AcDb2dVertex
 10
99.80026634277198
 20
-135.5476291327796
 30
0.0
  0
SEQEND
  5
A3
330
A0
100
AcDbEntity
  8
_U+30EC_U+30A4_U+30E4_U+30FC 1
 62
   179
420
  2234388
370
     9
  0
ENDSEC
  0
SECTION
  2
OBJECTS
  0
DICTIONARY
  5
C
330
0
100
AcDbDictionary
281
     1
  3
ACAD_GROUP
350
D
  3
ACAD_LAYOUT
350
1A
  3
ACAD_MATERIAL
350
3B
  3
ACAD_MLEADERSTYLE
350
A5
  3
ACAD_MLINESTYLE
350
17
  3
ACAD_PLOTSETTINGS
350
19
  3
ACAD_PLOTSTYLENAME
350
E
  3
ACAD_TABLESTYLE
350
A4
  3
ACAD_VISUALSTYLE
350
2A
  0
SUN
  5
3F
330
29
100
AcDbSun
 90
        1
290
     0
 63
     7
421
 16777215
 40
1.0
291
     1
 91
  2455826
 92
 54000000
292
     0
 70
     2
 71
   256
280
     1
  0
DICTIONARY
  5
D
102
{ACAD_REACTORS
330
C
102
}
330
C
100
AcDbDictionary
281
     1
  0
DICTIONARY
  5
1A
102
{ACAD_REACTORS
330
C
102
}
330
C
100
AcDbDictionary
281
     1
  3
Layout1
350
1E
  3
Layout2
350
26
  3
Model
350
22
  0
DICTIONARY
  5
3B
102
{ACAD_REACTORS
330
C
102
}
330
C
100
AcDbDictionary
281
     1
  3
ByBlock
350
3D
  3
ByLayer
350
3C
  3
Global
350
3E
  0
DICTIONARY
  5
A5
102
{ACAD_REACTORS
330
C
102
}
330
C
100
AcDbDictionary
281
     1
  0
DICTIONARY
  5
17
102
{ACAD_REACTORS
330
C
102
}
330
C
100
AcDbDictionary
281
     1
  3
Standard
350
18
  0
DICTIONARY
  5
19
102
{ACAD_REACTORS
330
C
102
}
330
C
100
AcDbDictionary
281
     1
  0
ACDBDICTIONARYWDFLT
  5
E
102
{ACAD_REACTORS
330
C
102
}
330
C
100
AcDbDictionary
281
     1
  3
Normal
350
F
100
AcDbDictionaryWithDefault
340
F
  0
DICTIONARY
  5
A4
102
{ACAD_REACTORS
330
C
102
}
330
C
100
AcDbDictionary
281
     1
  0
DICTIONARY
  5
2A
102
{ACAD_REACTORS
330
C
102
}
330
C
100
AcDbDictionary
281
     1
  3
2dWireframe
350
2F
  3
3D Hidden
350
31
  3
3dWireframe
350
30
  3
Basic
350
32
  3
Brighten
350
36
  3
ColorChange
350
3A
  3
Conceptual
350
34
  3
Dim
350
35
  3
Facepattern
350
39
  3
Flat
350
2B
  3
FlatWithEdges
350
2C
  3
Gouraud
350
2D
  3
GouraudWithEdges
350
2E
  3
Linepattern
350
38
  3
Realistic
350
33
  3
Thicken
350
37
  0
LAYOUT
  5
1E
102
{ACAD_REACTORS
330
1A
102
}
330
1A
100
AcDbPlotSettings
  1

  2
none_device
  4

  6

 40
0.0
 41
0.0
 42
0.0
 43
0.0
 44
0.0
 45
0.0
 46
0.0
 47
0.0
 48
0.0
 49
0.0
140
0.0
141
0.0
142
1.0
143
1.0
 70
   688
 72
     0
 73
     0
 74
     5
  7

 75
    16
 76
     0
 77
     2
 78
   300
147
1.0
148
0.0
149
0.0
100
AcDbLayout
  1
Layout1
 70
     1
 71
     1
 10
0.0
 20
0.0
 11
12.0
 21
9.0
 12
0.0
 22
0.0
 32
0.0
 14
1.000000000000000E+20
 24
1.000000000000000E+20
 34
1.000000000000000E+20
 15
-1.000000000000000E+20
 25
-1.000000000000000E+20
 35
-1.000000000000000E+20
146
0.0
 13
0.0
 23
0.0
 33
0.0
 16
1.0
 26
0.0
 36
0.0
 17
0.0
 27
1.0
 37
0.0
 76
     0
330
1B
  0
LAYOUT
  5
26
102
{ACAD_REACTORS
330
1A
102
}
330
1A
100
AcDbPlotSettings
  1

  2
none_device
  4

  6

 40
0.0
 41
0.0
 42
0.0
 43
0.0
 44
0.0
 45
0.0
 46
0.0
 47
0.0
 48
0.0
 49
0.0
140
0.0
141
0.0
142
1.0
143
1.0
 70
   688
 72
     0
 73
     0
 74
     5
  7

 75
    16
 76
     0
 77
     2
 78
   300
147
1.0
148
0.0
149
0.0
100
AcDbLayout
  1
Layout2
 70
     1
 71
     2
 10
0.0
 20
0.0
 11
0.0
 21
0.0
 12
0.0
 22
0.0
 32
0.0
 14
0.0
 24
0.0
 34
0.0
 15
0.0
 25
0.0
 35
0.0
146
0.0
 13
0.0
 23
0.0
 33
0.0
 16
1.0
 26
0.0
 36
0.0
 17
0.0
 27
1.0
 37
0.0
 76
     0
330
23
  0
LAYOUT
  5
22
102
{ACAD_REACTORS
330
1A
102
}
330
1A
100
AcDbPlotSettings
  1

  2
none_device
  4

  6

 40
0.0
 41
0.0
 42
0.0
 43
0.0
 44
0.0
 45
0.0
 46
0.0
 47
0.0
 48
0.0
 49
0.0
140
0.0
141
0.0
142
1.0
143
1.0
 70
  1712
 72
     0
 73
     0
 74
     0
  7

 75
     0
 76
     0
 77
     2
 78
   300
147
1.0
148
0.0
149
0.0
100
AcDbLayout
  1
Model
 70
     1
 71
     0
 10
0.0
 20
0.0
 11
12.0
 21
9.0
 12
0.0
 22
0.0
 32
0.0
 14
1.000000000000000E+20
 24
1.000000000000000E+20
 34
1.000000000000000E+20
 15
-1.000000000000000E+20
 25
-1.000000000000000E+20
 35
-1.000000000000000E+20
146
0.0
 13
0.0
 23
0.0
 33
0.0
 16
1.0
 26
0.0
 36
0.0
 17
0.0
 27
1.0
 37
0.0
 76
     0
330
1F
331
29
  0
MATERIAL
  5
3D
102
{ACAD_REACTORS
330
3B
102
}
330
3B
100
AcDbMaterial
  1
ByBlock
 72
     1
 94
      127
  0
MATERIAL
  5
3C
102
{ACAD_REACTORS
330
3B
102
}
330
3B
100
AcDbMaterial
  1
ByLayer
 72
     1
 94
      127
  0
MATERIAL
  5
3E
102
{ACAD_REACTORS
330
3B
102
}
330
3B
100
AcDbMaterial
  1
Global
 72
     1
 94
      127
  0
MLINESTYLE
  5
18
102
{ACAD_REACTORS
330
17
102
}
330
17
100
AcDbMlineStyle
  2
Standard
 70
     0
  3

 62
   256
 51
90.0
 52
90.0
 71
     2
 49
0.5
 62
   256
  6
BYLAYER
 49
-0.5
 62
   256
  6
BYLAYER
  0
ACDBPLACEHOLDER
  5
F
102
{ACAD_REACTORS
330
E
102
}
330
E
  0
VISUALSTYLE
  5
2F
102
{ACAD_REACTORS
330
2A
102
}
330
2A
100
AcDbVisualStyle
  2
2dWireframe
 70
     4
177
     2
291
     0
 71
     0
176
     1
 72
     2
176
     1
 73
     0
176
     1
 90
        0
176
     1
 40
-0.6
176
     1
 41
-30.0
176
     1
 62
     5
 63
     7
421
 16777215
176
     1
 74
     1
176
     1
 91
        4
176
     1
 64
     7
176
     1
 65
   257
176
     1
 75
     1
176
     1
175
     1
176
     1
 42
1.0
176
     1
 92
        0
176
     1
 66
   257
176
     1
 43
1.0
176
     1
 76
     1
176
     1
 77
     6
176
     1
 78
     2
176
     1
 67
     7
176
     1
 79
     5
176
     1
170
     0
176
     1
171
     0
176
     1
290
     0
176
     1
 93
        1
176
     1
 44
0.0
176
     1
173
     0
176
     1
  0
VISUALSTYLE
  5
31
102
{ACAD_REACTORS
330
2A
102
}
330
2A
100
AcDbVisualStyle
  2
3D Hidden
 70
     6
177
     2
291
     0
 71
     1
176
     1
 72
     2
176
     1
 73
     2
176
     1
 90
        0
176
     1
 40
-0.6
176
     1
 41
-30.0
176
     1
 62
     5
 63
     7
421
 16777215
176
     1
 74
     2
176
     1
 91
        2
176
     1
 64
     7
176
     1
 65
   257
176
     1
 75
     2
176
     1
175
     1
176
     1
 42
40.0
176
     1
 92
        0
176
     1
 66
   257
176
     1
 43
1.0
176
     1
 76
     1
176
     1
 77
     6
176
     1
 78
     2
176
     1
 67
     7
176
     1
 79
     3
176
     1
170
     0
176
     1
171
     0
176
     1
290
     0
176
     1
 93
        1
176
     1
 44
0.0
176
     1
173
     0
176
     1
  0
VISUALSTYLE
  5
30
102
{ACAD_REACTORS
330
2A
102
}
330
2A
100
AcDbVisualStyle
  2
3dWireframe
 70
     5
177
     2
291
     0
 71
     0
176
     1
 72
     2
176
     1
 73
     0
176
     1
 90
        0
176
     1
 40
-0.6
176
     1
 41
-30.0
176
     1
 62
     5
 63
     7
421
 16777215
176
     1
 74
     1
176
     1
 91
        4
176
     1
 64
     7
176
     1
 65
   257
176
     1
 75
     1
176
     1
175
     1
176
     1
 42
1.0
176
     1
 92
        0
176
     1
 66
   257
176
     1
 43
1.0
176
     1
 76
     1
176
     1
 77
     6
176
     1
 78
     2
176
     1
 67
     7
176
     1
 79
     5
176
     1
170
     0
176
     1
171
     0
176
     1
290
     0
176
     1
 93
        1
176
     1
 44
0.0
176
     1
173
     0
176
     1
  0
VISUALSTYLE
  5
32
102
{ACAD_REACTORS
330
2A
102
}
330
2A
100
AcDbVisualStyle
  2
Basic
 70
     7
177
     2
291
     1
 71
     1
176
     1
 72
     0
176
     1
 73
     1
176
     1
 90
        0
176
     1
 40
-0.6
176
     1
 41
-30.0
176
     1
 62
     5
 63
     7
421
 16777215
176
     1
 74
     0
176
     1
 91
        4
176
     1
 64
     7
176
     1
 65
   257
176
     1
 75
     1
176
     1
175
     1
176
     1
 42
1.0
176
     1
 92
        8
176
     1
 66
     7
176
     1
 43
1.0
176
     1
 76
     1
176
     1
 77
     6
176
     1
 78
     2
176
     1
 67
     7
176
     1
 79
     5
176
     1
170
     0
176
     1
171
     0
176
     1
290
     0
176
     1
 93
        1
176
     1
 44
0.0
176
     1
173
     0
176
     1
  0
VISUALSTYLE
  5
36
102
{ACAD_REACTORS
330
2A
102
}
330
2A
100
AcDbVisualStyle
  2
Brighten
 70
    12
177
     2
291
     1
 71
     2
176
     1
 72
     2
176
     1
 73
     0
176
     1
 90
        0
176
     1
 40
-0.6
176
     1
 41
-30.0
176
     1
 62
     5
 63
     7
421
 16777215
176
     1
 74
     1
176
     1
 91
        4
176
     1
 64
     7
176
     1
 65
   257
176
     1
 75
     1
176
     1
175
     1
176
     1
 42
1.0
176
     1
 92
        8
176
     1
 66
     7
176
     1
 43
1.0
176
     1
 76
     1
176
     1
 77
     6
176
     1
 78
     2
176
     1
 67
     7
176
     1
 79
     5
176
     1
170
     0
176
     1
171
     0
176
     1
290
     0
176
     1
 93
        1
176
     1
 44
50.0
176
     1
173
     0
176
     1
  0
VISUALSTYLE
  5
3A
102
{ACAD_REACTORS
330
2A
102
}
330
2A
100
AcDbVisualStyle
  2
ColorChange
 70
    16
177
     2
291
     1
 71
     2
176
     1
 72
     2
176
     1
 73
     3
176
     1
 90
        0
176
     1
 40
-0.6
176
     1
 41
-30.0
176
     1
 62
     5
 63
     8
421
  8421504
176
     1
 74
     1
176
     1
 91
        4
176
     1
 64
     7
176
     1
 65
   257
176
     1
 75
     1
176
     1
175
     1
176
     1
 42
1.0
176
     1
 92
        8
176
     1
 66
     8
424
  8421504
176
     1
 43
1.0
176
     1
 76
     1
176
     1
 77
     6
176
     1
 78
     2
176
     1
 67
     7
176
     1
 79
     5
176
     1
170
     0
176
     1
171
     0
176
     1
290
     0
176
     1
 93
        1
176
     1
 44
0.0
176
     1
173
     0
176
     1
  0
VISUALSTYLE
  5
34
102
{ACAD_REACTORS
330
2A
102
}
330
2A
100
AcDbVisualStyle
  2
Conceptual
 70
     9
177
     2
291
     0
 71
     3
176
     1
 72
     2
176
     1
 73
     0
176
     1
 90
        0
176
     1
 40
-0.6
176
     1
 41
-30.0
176
     1
 62
     5
 63
     7
421
 16777215
176
     1
 74
     2
176
     1
 91
        2
176
     1
 64
     7
176
     1
 65
   257
176
     1
 75
     1
176
     1
175
     1
176
     1
 42
40.0
176
     1
 92
        8
176
     1
 66
     7
176
     1
 43
1.0
176
     1
 76
     1
176
     1
 77
     6
176
     1
 78
     2
176
     1
 67
     7
176
     1
 79
     3
176
     1
170
     0
176
     1
171
     0
176
     1
290
     0
176
     1
 93
        1
176
     1
 44
0.0
176
     1
173
     0
176
     1
  0
VISUALSTYLE
  5
35
102
{ACAD_REACTORS
330
2A
102
}
330
2A
100
AcDbVisualStyle
  2
Dim
 70
    11
177
     2
291
     1
 71
     2
176
     1
 72
     2
176
     1
 73
     0
176
     1
 90
        0
176
     1
 40
-0.6
176
     1
 41
-30.0
176
     1
 62
     5
 63
     7
421
 16777215
176
     1
 74
     1
176
     1
 91
        4
176
     1
 64
     7
176
     1
 65
   257
176
     1
 75
     1
176
     1
175
     1
176
     1
 42
1.0
176
     1
 92
        8
176
     1
 66
     7
176
     1
 43
1.0
176
     1
 76
     1
176
     1
 77
     6
176
     1
 78
     2
176
     1
 67
     7
176
     1
 79
     5
176
     1
170
     0
176
     1
171
     0
176
     1
290
     0
176
     1
 93
        1
176
     1
 44
-50.0
176
     1
173
     0
176
     1
  0
VISUALSTYLE
  5
39
102
{ACAD_REACTORS
330
2A
102
}
330
2A
100
AcDbVisualStyle
  2
Facepattern
 70
    15
177
     2
291
     1
 71
     2
176
     1
 72
     2
176
     1
 73
     0
176
     1
 90
        0
176
     1
 40
-0.6
176
     1
 41
-30.0
176
     1
 62
     5
 63
     7
421
 16777215
176
     1
 74
     1
176
     1
 91
        4
176
     1
 64
     7
176
     1
 65
   257
176
     1
 75
     1
176
     1
175
     1
176
     1
 42
1.0
176
     1
 92
        8
176
     1
 66
     7
176
     1
 43
1.0
176
     1
 76
     1
176
     1
 77
     6
176
     1
 78
     2
176
     1
 67
     7
176
     1
 79
     5
176
     1
170
     0
176
     1
171
     0
176
     1
290
     0
176
     1
 93
        1
176
     1
 44
0.0
176
     1
173
     0
176
     1
  0
VISUALSTYLE
  5
2B
102
{ACAD_REACTORS
330
2A
102
}
330
2A
100
AcDbVisualStyle
  2
Flat
 70
     0
177
     2
291
     1
 71
     2
176
     1
 72
     1
176
     1
 73
     1
176
     1
 90
        2
176
     1
 40
-0.6
176
     1
 41
30.0
176
     1
 62
     5
 63
     7
421
 16777215
176
     1
 74
     0
176
     1
 91
        4
176
     1
 64
     7
176
     1
 65
   257
176
     1
 75
     1
176
     1
175
     1
176
     1
 42
1.0
176
     1
 92
        8
176
     1
 66
     7
176
     1
 43
1.0
176
     1
 76
     1
176
     1
 77
     6
176
     1
 78
     2
176
     1
 67
     7
176
     1
 79
     5
176
     1
170
     0
176
     1
171
     0
176
     1
290
     0
176
     1
 93
       13
176
     1
 44
0.0
176
     1
173
     0
176
     1
  0
VISUALSTYLE
  5
2C
102
{ACAD_REACTORS
330
2A
102
}
330
2A
100
AcDbVisualStyle
  2
FlatWithEdges
 70
     1
177
     2
291
     1
 71
     2
176
     1
 72
     1
176
     1
 73
     1
176
     1
 90
        2
176
     1
 40
-0.6
176
     1
 41
30.0
176
     1
 62
     5
 63
     7
421
 16777215
176
     1
 74
     1
176
     1
 91
        4
176
     1
 64
     7
176
     1
 65
   257
176
     1
 75
     1
176
     1
175
     1
176
     1
 42
1.0
176
     1
 92
        0
176
     1
 66
   257
176
     1
 43
1.0
176
     1
 76
     1
176
     1
 77
     6
176
     1
 78
     2
176
     1
 67
     7
176
     1
 79
     5
176
     1
170
     0
176
     1
171
     0
176
     1
290
     0
176
     1
 93
       13
176
     1
 44
0.0
176
     1
173
     0
176
     1
  0
VISUALSTYLE
  5
2D
102
{ACAD_REACTORS
330
2A
102
}
330
2A
100
AcDbVisualStyle
  2
Gouraud
 70
     2
177
     2
291
     1
 71
     2
176
     1
 72
     2
176
     1
 73
     1
176
     1
 90
        2
176
     1
 40
-0.6
176
     1
 41
30.0
176
     1
 62
     5
 63
     7
421
 16777215
176
     1
 74
     0
176
     1
 91
        4
176
     1
 64
     7
176
     1
 65
   257
176
     1
 75
     1
176
     1
175
     1
176
     1
 42
1.0
176
     1
 92
        0
176
     1
 66
     7
176
     1
 43
1.0
176
     1
 76
     1
176
     1
 77
     6
176
     1
 78
     2
176
     1
 67
     7
176
     1
 79
     5
176
     1
170
     0
176
     1
171
     0
176
     1
290
     0
176
     1
 93
       13
176
     1
 44
0.0
176
     1
173
     0
176
     1
  0
VISUALSTYLE
  5
2E
102
{ACAD_REACTORS
330
2A
102
}
330
2A
100
AcDbVisualStyle
  2
GouraudWithEdges
 70
     3
177
     2
291
     1
 71
     2
176
     1
 72
     2
176
     1
 73
     1
176
     1
 90
        2
176
     1
 40
-0.6
176
     1
 41
30.0
176
     1
 62
     5
 63
     7
421
 16777215
176
     1
 74
     1
176
     1
 91
        4
176
     1
 64
     7
176
     1
 65
   257
176
     1
 75
     1
176
     1
175
     1
176
     1
 42
1.0
176
     1
 92
        0
176
     1
 66
   257
176
     1
 43
1.0
176
     1
 76
     1
176
     1
 77
     6
176
     1
 78
     2
176
     1
 67
     7
176
     1
 79
     5
176
     1
170
     0
176
     1
171
     0
176
     1
290
     0
176
     1
 93
       13
176
     1
 44
0.0
176
     1
173
     0
176
     1
  0
VISUALSTYLE
  5
38
102
{ACAD_REACTORS
330
2A
102
}
330
2A
100
AcDbVisualStyle
  2
Linepattern
 70
    14
177
     2
291
     1
 71
     2
176
     1
 72
     2
176
     1
 73
     0
176
     1
 90
        0
176
     1
 40
-0.6
176
     1
 41
-30.0
176
     1
 62
     5
 63
     7
421
 16777215
176
     1
 74
     1
176
     1
 91
        4
176
     1
 64
     7
176
     1
 65
   257
176
     1
 75
     7
176
     1
175
     7
176
     1
 42
1.0
176
     1
 92
        8
176
     1
 66
     7
176
     1
 43
1.0
176
     1
 76
     1
176
     1
 77
     6
176
     1
 78
     2
176
     1
 67
     7
176
     1
 79
     5
176
     1
170
     0
176
     1
171
     0
176
     1
290
     0
176
     1
 93
        1
176
     1
 44
0.0
176
     1
173
     0
176
     1
  0
VISUALSTYLE
  5
33
102
{ACAD_REACTORS
330
2A
102
}
330
2A
100
AcDbVisualStyle
  2
Realistic
 70
     8
177
     2
291
     0
 71
     2
176
     1
 72
     2
176
     1
 73
     0
176
     1
 90
        0
176
     1
 40
-0.6
176
     1
 41
-30.0
176
     1
 62
     5
 63
     7
421
 16777215
176
     1
 74
     1
176
     1
 91
        0
176
     1
 64
     7
176
     1
 65
   257
176
     1
 75
     1
176
     1
175
     1
176
     1
 42
1.0
176
     1
 92
        8
176
     1
 66
     8
424
  7895160
176
     1
 43
1.0
176
     1
 76
     1
176
     1
 77
     6
176
     1
 78
     2
176
     1
 67
     7
176
     1
 79
     5
176
     1
170
     0
176
     1
171
     0
176
     1
290
     0
176
     1
 93
       13
176
     1
 44
0.0
176
     1
173
     0
176
     1
  0
VISUALSTYLE
  5
37
102
{ACAD_REACTORS
330
2A
102
}
330
2A
100
AcDbVisualStyle
  2
Thicken
 70
    13
177
     2
291
     1
 71
     2
176
     1
 72
     2
176
     1
 73
     0
176
     1
 90
        0
176
     1
 40
-0.6
176
     1
 41
-30.0
176
     1
 62
     5
 63
     7
421
 16777215
176
     1
 74
     1
176
     1
 91
        4
176
     1
 64
     7
176
     1
 65
   257
176
     1
 75
     1
176
     1
175
     1
176
     1
 42
1.0
176
     1
 92
       12
176
     1
 66
     7
176
     1
 43
1.0
176
     1
 76
     1
176
     1
 77
     6
176
     1
 78
     2
176
     1
 67
     7
176
     1
 79
     5
176
     1
170
     0
176
     1
171
     0
176
     1
290
     0
176
     1
 93
        1
176
     1
 44
0.0
176
     1
173
     0
176
     1
  0
ENDSEC
  0
EOF
