  0
SECTION
  2
HEADER
  9
$ACADVER
  1
AC1024
  9
$ACADMAINTVER
 70
     6
  9
$DWGCODEPAGE
  3
UNDEFINED
  9
$INSBASE
 10
0.0
 20
0.0
 30
0.0
  9
$EXTMIN
 10
1.000000000000000E+20
 20
1.000000000000000E+20
 30
1.000000000000000E+20
  9
$EXTMAX
 10
-1.000000000000000E+20
 20
-1.000000000000000E+20
 30
-1.000000000000000E+20
  9
$LIMMIN
 10
0.0
 20
0.0
  9
$LIMMAX
 10
12.0
 20
9.0
  9
$ORTHOMODE
 70
     0
  9
$REGENMODE
 70
     1
  9
$FILLMODE
 70
     1
  9
$QTEXTMODE
 70
     0
  9
$MIRRTEXT
 70
     1
  9
$LTSCALE
 40
1.0
  9
$ATTMODE
 70
     1
  9
$TEXTSIZE
 40
0.2
  9
$TRACEWID
 40
0.05
  9
$TEXTSTYLE
  7
Standard
  9
$CLAYER
  8
0
  9
$CELTYPE
  6
ByLayer
  9
$CECOLOR
 62
   256
  9
$CELTSCALE
 40
1.0
  9
$DISPSILH
 70
     0
  9
$DIMSCALE
 40
1.0
  9
$DIMASZ
 40
0.18
  9
$DIMEXO
 40
0.0625
  9
$DIMDLI
 40
0.38
  9
$DIMRND
 40
0.0
  9
$DIMDLE
 40
0.0
  9
$DIMEXE
 40
0.18
  9
$DIMTP
 40
0.0
  9
$DIMTM
 40
0.0
  9
$DIMTXT
 40
0.18
  9
$DIMCEN
 40
0.09
  9
$DIMTSZ
 40
0.0
  9
$DIMTOL
 70
     0
  9
$DIMLIM
 70
     0
  9
$DIMTIH
 70
     1
  9
$DIMTOH
 70
     1
  9
$DIMSE1
 70
     0
  9
$DIMSE2
 70
     0
  9
$DIMTAD
 70
     0
  9
$DIMZIN
 70
     0
  9
$DIMBLK
  1

  9
$DIMASO
 70
     1
  9
$DIMSHO
 70
     1
  9
$DIMPOST
  1

  9
$DIMAPOST
  1

  9
$DIMALT
 70
     0
  9
$DIMALTD
 70
     2
  9
$DIMALTF
 40
25.4
  9
$DIMLFAC
 40
1.0
  9
$DIMTOFL
 70
     0
  9
$DIMTVP
 40
0.0
  9
$DIMTIX
 70
     0
  9
$DIMSOXD
 70
     0
  9
$DIMSAH
 70
     0
  9
$DIMBLK1
  1

  9
$DIMBLK2
  1

  9
$DIMSTYLE
  2
Standard
  9
$DIMCLRD
 70
     0
  9
$DIMCLRE
 70
     0
  9
$DIMCLRT
 70
     0
  9
$DIMTFAC
 40
1.0
  9
$DIMGAP
 40
0.09
  9
$DIMJUST
 70
     0
  9
$DIMSD1
 70
     0
  9
$DIMSD2
 70
     0
  9
$DIMTOLJ
 70
     1
  9
$DIMTZIN
 70
     0
  9
$DIMALTZ
 70
     0
  9
$DIMALTTZ
 70
     0
  9
$DIMUPT
 70
     0
  9
$DIMDEC
 70
     4
  9
$DIMTDEC
 70
     4
  9
$DIMALTU
 70
     2
  9
$DIMALTTD
 70
     2
  9
$DIMTXSTY
  7
Standard
  9
$DIMAUNIT
 70
     0
  9
$DIMADEC
 70
     0
  9
$DIMALTRND
 40
0.0
  9
$DIMAZIN
 70
     0
  9
$DIMDSEP
 70
    46
  9
$DIMATFIT
 70
     3
  9
$DIMFRAC
 70
     0
  9
$DIMLDRBLK
  1

  9
$DIMLUNIT
 70
     2
  9
$DIMLWD
 70
    -2
  9
$DIMLWE
 70
    -2
  9
$DIMTMOVE
 70
     0
  9
$DIMFXL
 40
1.0
  9
$DIMFXLON
 70
     0
  9
$DIMJOGANG
 40
0.7853981633974483
  9
$DIMTFILL
 70
     0
  9
$DIMTFILLCLR
 70
     0
  9
$DIMARCSYM
 70
     0
  9
$DIMLTYPE
  6

  9
$DIMLTEX1
  6

  9
$DIMLTEX2
  6

  9
$DIMTXTDIRECTION
 70
     0
  9
$LUNITS
 70
     2
  9
$LUPREC
 70
     4
  9
$SKETCHINC
 40
0.1
  9
$FILLETRAD
 40
0.5
  9
$AUNITS
 70
     0
  9
$AUPREC
 70
     0
  9
$MENU
  1
.
  9
$ELEVATION
 40
0.0
  9
$PELEVATION
 40
0.0
  9
$THICKNESS
 40
0.0
  9
$LIMCHECK
 70
     0
  9
$CHAMFERA
 40
0.5
  9
$CHAMFERB
 40
0.5
  9
$CHAMFERC
 40
1.0
  9
$CHAMFERD
 40
0.0
  9
$SKPOLY
 70
     0
  9
$TDCREATE
 40
2457917.625
  9
$TDUCREATE
 40
2457917.25
  9
$TDUPDATE
 40
2457917.625
  9
$TDUUPDATE
 40
2457917.25
  9
$TDINDWG
 40
0.0000000116
  9
$TDUSRTIMER
 40
0.0000000116
  9
$USRTIMER
 70
     1
  9
$ANGBASE
 50
0.0
  9
$ANGDIR
 70
     0
  9
$PDMODE
 70
     0
  9
$PDSIZE
 40
0.0
  9
$PLINEWID
 40
0.0
  9
$SPLFRAME
 70
     0
  9
$SPLINETYPE
 70
     6
  9
$SPLINESEGS
 70
     8
  9
$HANDSEED
  5
A7
  9
$SURFTAB1
 70
     6
  9
$SURFTAB2
 70
     6
  9
$SURFTYPE
 70
     6
  9
$SURFU
 70
     6
  9
$SURFV
 70
     6
  9
$UCSBASE
  2

  9
$UCSNAME
  2

  9
$UCSORG
 10
0.0
 20
0.0
 30
0.0
  9
$UCSXDIR
 10
1.0
 20
0.0
 30
0.0
  9
$UCSYDIR
 10
0.0
 20
1.0
 30
0.0
  9
$UCSORTHOREF
  2

  9
$UCSORTHOVIEW
 70
     0
  9
$UCSORGTOP
 10
0.0
 20
0.0
 30
0.0
  9
$UCSORGBOTTOM
 10
0.0
 20
0.0
 30
0.0
  9
$UCSORGLEFT
 10
0.0
 20
0.0
 30
0.0
  9
$UCSORGRIGHT
 10
0.0
 20
0.0
 30
0.0
  9
$UCSORGFRONT
 10
0.0
 20
0.0
 30
0.0
  9
$UCSORGBACK
 10
0.0
 20
0.0
 30
0.0
  9
$PUCSBASE
  2

  9
$PUCSNAME
  2

  9
$PUCSORG
 10
0.0
 20
0.0
 30
0.0
  9
$PUCSXDIR
 10
1.0
 20
0.0
 30
0.0
  9
$PUCSYDIR
 10
0.0
 20
1.0
 30
0.0
  9
$PUCSORTHOREF
  2

  9
$PUCSORTHOVIEW
 70
     0
  9
$PUCSORGTOP
 10
0.0
 20
0.0
 30
0.0
  9
$PUCSORGBOTTOM
 10
0.0
 20
0.0
 30
0.0
  9
$PUCSORGLEFT
 10
0.0
 20
0.0
 30
0.0
  9
$PUCSORGRIGHT
 10
0.0
 20
0.0
 30
0.0
  9
$PUCSORGFRONT
 10
0.0
 20
0.0
 30
0.0
  9
$PUCSORGBACK
 10
0.0
 20
0.0
 30
0.0
  9
$USERI1
 70
     0
  9
$USERI2
 70
     0
  9
$USERI3
 70
     0
  9
$USERI4
 70
     0
  9
$USERI5
 70
     0
  9
$USERR1
 40
0.0
  9
$USERR2
 40
0.0
  9
$USERR3
 40
0.0
  9
$USERR4
 40
0.0
  9
$USERR5
 40
0.0
  9
$WORLDVIEW
 70
     1
  9
$SHADEDGE
 70
     3
  9
$SHADEDIF
 70
    70
  9
$TILEMODE
 70
     1
  9
$MAXACTVP
 70
    64
  9
$PINSBASE
 10
0.0
 20
0.0
 30
0.0
  9
$PLIMCHECK
 70
     0
  9
$PEXTMIN
 10
1.000000000000000E+20
 20
1.000000000000000E+20
 30
1.000000000000000E+20
  9
$PEXTMAX
 10
-1.000000000000000E+20
 20
-1.000000000000000E+20
 30
-1.000000000000000E+20
  9
$PLIMMIN
 10
0.0
 20
0.0
  9
$PLIMMAX
 10
12.0
 20
9.0
  9
$UNITMODE
 70
     0
  9
$VISRETAIN
 70
     1
  9
$PLINEGEN
 70
     0
  9
$PSLTSCALE
 70
     1
  9
$TREEDEPTH
 70
  3020
  9
$CMLSTYLE
  2
Standard
  9
$CMLJUST
 70
     0
  9
$CMLSCALE
 40
1.0
  9
$PROXYGRAPHICS
 70
     1
  9
$MEASUREMENT
 70
     0
  9
$CELWEIGHT
370
    -1
  9
$ENDCAPS
280
     0
  9
$JOINSTYLE
280
     0
  9
$LWDISPLAY
290
     1
  9
$INSUNITS
 70
     1
  9
$HYPERLINKBASE
  1

  9
$STYLESHEET
  1

  9
$XEDIT
290
     1
  9
$CEPSNTYPE
380
     0
  9
$PSTYLEMODE
290
     1
  9
$FINGERPRINTGUID
  2
{1487171B-5EEC-1215-0610-1DC36C9280D9}
  9
$VERSIONGUID
  2
{FAEB1C32-E019-11D5-929B-00C0DF256EC4}
  9
$EXTNAMES
290
     1
  9
$PSVPSCALE
 40
0.0
  9
$OLESTARTUP
290
     0
  9
$SORTENTS
280
   127
  9
$INDEXCTL
280
     0
  9
$HIDETEXT
280
     1
  9
$XCLIPFRAME
280
     2
  9
$HALOGAP
280
     0
  9
$OBSCOLOR
 70
   257
  9
$OBSLTYPE
280
     0
  9
$INTERSECTIONDISPLAY
280
     0
  9
$INTERSECTIONCOLOR
 70
   257
  9
$DIMASSOC
280
     2
  9
$PROJECTNAME
  1

  9
$CAMERADISPLAY
290
     0
  9
$LENSLENGTH
 40
50.0
  9
$CAMERAHEIGHT
 40
0.0
  9
$STEPSPERSEC
 40
2.0
  9
$STEPSIZE
 40
6.0
  9
$3DDWFPREC
 40
2.0
  9
$PSOLWIDTH
 40
0.25
  9
$PSOLHEIGHT
 40
4.0
  9
$LOFTANG1
 40
1.570796326794897
  9
$LOFTANG2
 40
1.570796326794897
  9
$LOFTMAG1
 40
0.0
  9
$LOFTMAG2
 40
0.0
  9
$LOFTPARAM
 70
     7
  9
$LOFTNORMALS
280
     1
  9
$LATITUDE
 40
37.795
  9
$LONGITUDE
 40
-122.394
  9
$NORTHDIRECTION
 40
0.0
  9
$TIMEZONE
 70
 -8000
  9
$LIGHTGLYPHDISPLAY
280
     1
  9
$TILEMODELIGHTSYNCH
280
     1
  9
$CMATERIAL
347
3C
  9
$SOLIDHIST
280
     1
  9
$SHOWHIST
280
     1
  9
$DWFFRAME
280
     2
  9
$DGNFRAME
280
     2
  9
$REALWORLDSCALE
290
     1
  9
$INTERFERECOLOR
 62
   256
  9
$CSHADOW
280
     0
  9
$SHADOWPLANELOCATION
 40
0.0
  0
ENDSEC
  0
SECTION
  2
CLASSES
  0
CLASS
  1
ACDBDICTIONARYWDFLT
  2
AcDbDictionaryWithDefault
  3
ObjectDBX Classes
 90
        0
 91
        4
280
     0
281
     0
  0
CLASS
  1
VISUALSTYLE
  2
AcDbVisualStyle
  3
ObjectDBX Classes
 90
     4095
 91
        4
280
     0
281
     0
  0
CLASS
  1
MATERIAL
  2
AcDbMaterial
  3
ObjectDBX Classes
 90
     1153
 91
        4
280
     0
281
     0
  0
CLASS
  1
SUN
  2
AcDbSun
  3
SCENEOE
 90
     1024
 91
        4
280
     0
281
     0
  0
ENDSEC
  0
SECTION
  2
TABLES
  0
TABLE
  2
VPORT
  5
8
330
0
100
AcDbSymbolTable
 70
     1
  0
VPORT
  5
29
330
8
100
AcDbSymbolTableRecord
100
AcDbViewportTableRecord
  2
*Active
 70
     0
 10
0.0
 20
0.0
 11
1.0
 21
1.0
 12
0.0
 22
0.0
 13
0.0
 23
0.0
 14
0.5
 24
0.5
 15
0.5
 25
0.5
 16
0.0
 26
0.0
 36
1.0
 17
91.00082462281999
 27
-128.4993055234307
 37
0.0
 40
256.9986110468615
 41
0.7081814508812795
 42
50.0
 43
0.0
 44
0.0
 50
0.0
 51
0.0
 71
     0
 72
   100
 73
     1
 74
     3
 75
     0
 76
     0
 77
     0
 78
     0
281
     0
 65
     1
110
0.0
120
0.0
130
0.0
111
1.0
121
0.0
131
0.0
112
0.0
122
1.0
132
0.0
 79
     0
146
0.0
 60
     3
 61
     5
292
     1
282
     1
141
0.0
142
0.0
 63
   250
361
3F
  0
ENDTAB
  0
TABLE
  2
LTYPE
  5
5
330
0
100
AcDbSymbolTable
 70
     1
  0
LTYPE
  5
14
330
5
100
AcDbSymbolTableRecord
100
AcDbLinetypeTableRecord
  2
ByBlock
 70
     0
  3

 72
    65
 73
     0
 40
0.0
  0
LTYPE
  5
15
330
5
100
AcDbSymbolTableRecord
100
AcDbLinetypeTableRecord
  2
ByLayer
 70
     0
  3

 72
    65
 73
     0
 40
0.0
  0
LTYPE
  5
16
330
5
100
AcDbSymbolTableRecord
100
AcDbLinetypeTableRecord
  2
Continuous
 70
     0
  3
Solid line
 72
    65
 73
     0
 40
0.0
  0
ENDTAB
  0
TABLE
  2
LAYER
  5
2
330
0
100
AcDbSymbolTable
 70
     2
  0
LAYER
  5
10
330
2
100
AcDbSymbolTableRecord
100
AcDbLayerTableRecord
  2
0
 70
     0
 62
     7
  6
Continuous
370
    -3
390
F
347
3E
  0
LAYER
  5
40
330
2
100
AcDbSymbolTableRecord
100
AcDbLayerTableRecord
  2
_U+30EC_U+30A4_U+30E4_U+30FC 1
 70
     0
 62
     7
  6
Continuous
370
    -3
390
F
347
3E
  0
ENDTAB
  0
TABLE
  2
STYLE
  5
3
330
0
100
AcDbSymbolTable
 70
     1
  0
STYLE
  5
11
330
3
100
AcDbSymbolTableRecord
100
AcDbTextStyleTableRecord
  2
Standard
 70
     0
 40
0.0
 41
1.0
 50
0.0
 71
     0
 42
0.2
  3
txt
  4

  0
ENDTAB
  0
TABLE
  2
VIEW
  5
6
330
0
100
AcDbSymbolTable
 70
     0
  0
ENDTAB
  0
TABLE
  2
UCS
  5
7
330
0
100
AcDbSymbolTable
 70
     0
  0
ENDTAB
  0
TABLE
  2
APPID
  5
9
330
0
100
AcDbSymbolTable
 70
     1
  0
APPID
  5
12
330
9
100
AcDbSymbolTableRecord
100
AcDbRegAppTableRecord
  2
ACAD
 70
     0
  0
ENDTAB
  0
TABLE
  2
DIMSTYLE
  5
A
330
0
100
AcDbSymbolTable
 70
     1
100
AcDbDimStyleTable
  0
DIMSTYLE
105
27
330
A
100
AcDbSymbolTableRecord
100
AcDbDimStyleTableRecord
  2
Standard
 70
     0
178
     0
340
11
  0
ENDTAB
  0
TABLE
  2
BLOCK_RECORD
  5
1
330
0
100
AcDbSymbolTable
 70
     5
  0
BLOCK_RECORD
  5
1F
330
1
100
AcDbSymbolTableRecord
100
AcDbBlockTableRecord
  2
*Model_Space
340
22
 70
     0
280
     1
281
     0
  0
BLOCK_RECORD
  5
1B
330
1
100
AcDbSymbolTableRecord
100
AcDbBlockTableRecord
  2
*Paper_Space
340
1E
 70
     0
280
     1
281
     0
  0
BLOCK_RECORD
  5
23
330
1
100
AcDbSymbolTableRecord
100
AcDbBlockTableRecord
  2
*Paper_Space0
340
26
 70
     0
280
     1
281
     0
  0
BLOCK_RECORD
  5
51
330
1
100
AcDbSymbolTableRecord
100
AcDbBlockTableRecord
  2
block 2
340
0
102
{BLKREFS
331
52
102
}
 70
     0
280
     1
281
     0
  0
BLOCK_RECORD
  5
61
330
1
100
AcDbSymbolTableRecord
100
AcDbBlockTableRecord
  2
block 3
340
0
102
{BLKREFS
331
62
102
}
 70
     0
280
     1
281
     0
  0
BLOCK_RECORD
  5
72
330
1
100
AcDbSymbolTableRecord
100
AcDbBlockTableRecord
  2
block 4
340
0
102
{BLKREFS
331
73
102
}
 70
     0
280
     1
281
     0
  0
BLOCK_RECORD
  5
9D
330
1
100
AcDbSymbolTableRecord
100
AcDbBlockTableRecord
  2
block 5
340
0
102
{BLKREFS
331
9E
102
}
 70
     0
280
     1
281
     0
  0
ENDTAB
  0
ENDSEC
  0
SECTION
  2
BLOCKS
  0
BLOCK
  5
20
330
1F
100
AcDbEntity
  8
0
100
AcDbBlockBegin
  2
*Model_Space
 70
     0
 10
0.0
 20
0.0
 30
0.0
  3
*Model_Space
  1

  0
ENDBLK
  5
21
330
1F
100
AcDbEntity
  8
0
100
AcDbBlockEnd
  0
BLOCK
  5
1C
330
1B
100
AcDbEntity
 67
     1
  8
0
100
AcDbBlockBegin
  2
*Paper_Space
 70
     0
 10
0.0
 20
0.0
 30
0.0
  3
*Paper_Space
  1

  0
ENDBLK
  5
1D
330
1B
100
AcDbEntity
 67
     1
  8
0
100
AcDbBlockEnd
  0
BLOCK
  5
24
330
23
100
AcDbEntity
  8
0
100
AcDbBlockBegin
  2
*Paper_Space0
 70
     0
 10
0.0
 20
0.0
 30
0.0
  3
*Paper_Space0
  1

  0
ENDBLK
  5
25
330
23
100
AcDbEntity
  8
0
100
AcDbBlockEnd
  0
BLOCK
  5
53
330
51
100
AcDbEntity
  8
0
100
AcDbBlockBegin
  2
block 2
 70
     0
 10
0.0
 20
0.0
 30
0.0
  3
block 2
  1

  0
SPLINE
  5
55
330
51
100
AcDbEntity
  8
_U+30EC_U+30A4_U+30E4_U+30FC 1
370
     0
100
AcDbSpline
210
0.0
220
0.0
230
1.0
 70
    11
 71
     3
 72
    29
 73
    25
 74
     0
 42
0.0000000001
 43
0.0000000001
 12
1.0
 22
0.0
 32
0.0
 13
1.0
 23
0.0
 33
0.0
 40
0.0
 40
0.0
 40
0.0
 40
0.0
 40
1.0
 40
1.0
 40
1.0
 40
2.0
 40
2.0
 40
2.0
 40
3.0
 40
3.0
 40
3.0
 40
4.0
 40
4.0
 40
4.0
 40
5.0
 40
5.0
 40
5.0
 40
6.0
 40
6.0
 40
6.0
 40
7.0
 40
7.0
 40
7.0
 40
8.0
 40
8.0
 40
8.0
 40
8.0
 10
90.82735864699802
 20
-141.4008436061428
 30
0.0
 10
90.56088051121395
 20
-141.4008436061428
 30
0.0
 10
90.30697697395104
 20
-141.2633842962814
 30
0.0
 10
90.30697697395104
 20
-140.914051614077
 30
0.0
 10
90.30697697395104
 20
-140.6584255290715
 30
0.0
 10
90.44874265316906
 20
-140.5629963841301
 30
0.0
 10
90.55450708456624
 20
-140.5016736844926
 30
0.0
 10
90.42962237322593
 20
-140.4424180421464
 30
0.0
 10
90.35348576300191
 20
-140.3283853815846
 30
0.0
 10
90.35348576300191
 20
-140.1674994224234
 30
0.0
 10
90.35348576300191
 20
-139.8922362931519
 30
0.0
 10
90.55244002727508
 20
-139.7571885501302
 30
0.0
 10
90.82735864699802
 20
-139.7571885501302
 30
0.0
 10
91.11089000543409
 20
-139.7571885501302
 30
0.0
 10
91.3014037857684
 20
-139.9008490318651
 30
0.0
 10
91.3014037857684
 20
-140.1674994224234
 30
0.0
 10
91.3014037857684
 20
-140.3283853815846
 30
0.0
 10
91.2228556087047
 20
-140.4424180421464
 30
0.0
 10
91.09814315213866
 20
-140.5016736844926
 30
0.0
 10
91.18702661565811
 20
-140.5523165881258
 30
0.0
 10
91.34584551752813
 20
-140.6477457330672
 30
0.0
 10
91.34584551752813
 20
-140.9099174994948
 30
0.0
 10
91.34584551752813
 20
-141.2843993787414
 30
0.0
 10
91.06644827367437
 20
-141.4008436061428
 30
0.0
 10
90.82735864699802
 20
-141.4008436061428
 30
0.0
  0
SPLINE
  5
56
330
51
100
AcDbEntity
  8
_U+30EC_U+30A4_U+30E4_U+30FC 1
370
     0
100
AcDbSpline
210
0.0
220
0.0
230
1.0
 70
    11
 71
     3
 72
    17
 73
    13
 74
     0
 42
0.0000000001
 43
0.0000000001
 12
1.0
 22
0.0
 32
0.0
 13
1.0
 23
0.0
 33
0.0
 40
0.0
 40
0.0
 40
0.0
 40
0.0
 40
1.0
 40
1.0
 40
1.0
 40
2.0
 40
2.0
 40
2.0
 40
3.0
 40
3.0
 40
3.0
 40
4.0
 40
4.0
 40
4.0
 40
4.0
 10
90.82735864699802
 20
-140.609505173181
 30
0.0
 10
90.68352591048884
 20
-140.609505173181
 30
0.0
 10
90.5312526900408
 20
-140.6963215794093
 30
0.0
 10
90.5312526900408
 20
-140.899582213039
 30
0.0
 10
90.5312526900408
 20
-141.1045653944114
 30
0.0
 10
90.65820445867226
 20
-141.2061957112262
 30
0.0
 10
90.82735864699802
 20
-141.2061957112262
 30
0.0
 10
91.01339380320152
 20
-141.2061957112262
 30
0.0
 10
91.12363685872951
 20
-141.0835503119513
 30
0.0
 10
91.12363685872951
 20
-140.9057833849124
 30
0.0
 10
91.12363685872951
 20
-140.6835747261138
 30
0.0
 10
90.96068384227719
 20
-140.609505173181
 30
0.0
 10
90.82735864699802
 20
-140.609505173181
 30
0.0
  0
SPLINE
  5
57
330
51
100
AcDbEntity
  8
_U+30EC_U+30A4_U+30E4_U+30FC 1
370
     0
100
AcDbSpline
210
0.0
220
0.0
230
1.0
 70
    11
 71
     3
 72
    17
 73
    13
 74
     0
 42
0.0000000001
 43
0.0000000001
 12
1.0
 22
0.0
 32
0.0
 13
1.0
 23
0.0
 33
0.0
 40
0.0
 40
0.0
 40
0.0
 40
0.0
 40
1.0
 40
1.0
 40
1.0
 40
2.0
 40
2.0
 40
2.0
 40
3.0
 40
3.0
 40
3.0
 40
4.0
 40
4.0
 40
4.0
 40
4.0
 10
90.82735864699802
 20
-139.9494248782071
 30
0.0
 10
90.66233857325456
 20
-139.9494248782071
 30
0.0
 10
90.57776147909168
 20
-140.0445095136
 30
0.0
 10
90.57776147909168
 20
-140.1802462757188
 30
0.0
 10
90.57776147909168
 20
-140.3028916749937
 30
0.0
 10
90.6497639747334
 20
-140.4214029596863
 30
0.0
 10
90.82735864699802
 20
-140.4214029596863
 30
0.0
 10
91.00512557403692
 20
-140.4214029596863
 30
0.0
 10
91.07712806967864
 20
-140.3028916749937
 30
0.0
 10
91.07712806967864
 20
-140.1802462757188
 30
0.0
 10
91.07712806967864
 20
-140.0445095136
 30
0.0
 10
90.99031166345034
 20
-139.9494248782071
 30
0.0
 10
90.82735864699802
 20
-139.9494248782071
 30
0.0
  0
HATCH
  5
58
330
51
100
AcDbEntity
  8
_U+30EC_U+30A4_U+30E4_U+30FC 1
 62
   179
420
  2234388
100
AcDbHatch
 10
0.0
 20
0.0
 30
0.0
210
0.0
220
0.0
230
1.0
  2
SOLID
 70
     1
 71
     0
 91
        3
 92
        1
 93
        1
 72
     4
 94
        3
 73
     0
 74
     1
 95
       29
 96
       25
 40
0.0
 40
0.0
 40
0.0
 40
0.0
 40
1.0
 40
1.0
 40
1.0
 40
2.0
 40
2.0
 40
2.0
 40
3.0
 40
3.0
 40
3.0
 40
4.0
 40
4.0
 40
4.0
 40
5.0
 40
5.0
 40
5.0
 40
6.0
 40
6.0
 40
6.0
 40
7.0
 40
7.0
 40
7.0
 40
8.0
 40
8.0
 40
8.0
 40
8.0
 10
90.82735864699802
 20
-141.4008436061428
 10
90.56088051121395
 20
-141.4008436061428
 10
90.30697697395104
 20
-141.2633842962814
 10
90.30697697395104
 20
-140.914051614077
 10
90.30697697395104
 20
-140.6584255290715
 10
90.44874265316906
 20
-140.5629963841301
 10
90.55450708456624
 20
-140.5016736844926
 10
90.42962237322593
 20
-140.4424180421464
 10
90.35348576300191
 20
-140.3283853815846
 10
90.35348576300191
 20
-140.1674994224234
 10
90.35348576300191
 20
-139.8922362931519
 10
90.55244002727508
 20
-139.7571885501302
 10
90.82735864699802
 20
-139.7571885501302
 10
91.11089000543409
 20
-139.7571885501302
 10
91.3014037857684
 20
-139.9008490318651
 10
91.3014037857684
 20
-140.1674994224234
 10
91.3014037857684
 20
-140.3283853815846
 10
91.2228556087047
 20
-140.4424180421464
 10
91.09814315213866
 20
-140.5016736844926
 10
91.18702661565811
 20
-140.5523165881258
 10
91.34584551752813
 20
-140.6477457330672
 10
91.34584551752813
 20
-140.9099174994948
 10
91.34584551752813
 20
-141.2843993787414
 10
91.06644827367437
 20
-141.4008436061428
 10
90.82735864699802
 20
-141.4008436061428
 97
        0
 97
        0
 92
        1
 93
        1
 72
     4
 94
        3
 73
     0
 74
     1
 95
       17
 96
       13
 40
0.0
 40
0.0
 40
0.0
 40
0.0
 40
1.0
 40
1.0
 40
1.0
 40
2.0
 40
2.0
 40
2.0
 40
3.0
 40
3.0
 40
3.0
 40
4.0
 40
4.0
 40
4.0
 40
4.0
 10
90.82735864699802
 20
-140.609505173181
 10
90.68352591048884
 20
-140.609505173181
 10
90.5312526900408
 20
-140.6963215794093
 10
90.5312526900408
 20
-140.899582213039
 10
90.5312526900408
 20
-141.1045653944114
 10
90.65820445867226
 20
-141.2061957112262
 10
90.82735864699802
 20
-141.2061957112262
 10
91.01339380320152
 20
-141.2061957112262
 10
91.12363685872951
 20
-141.0835503119513
 10
91.12363685872951
 20
-140.9057833849124
 10
91.12363685872951
 20
-140.6835747261138
 10
90.96068384227719
 20
-140.609505173181
 10
90.82735864699802
 20
-140.609505173181
 97
        0
 97
        0
 92
        1
 93
        1
 72
     4
 94
        3
 73
     0
 74
     1
 95
       17
 96
       13
 40
0.0
 40
0.0
 40
0.0
 40
0.0
 40
1.0
 40
1.0
 40
1.0
 40
2.0
 40
2.0
 40
2.0
 40
3.0
 40
3.0
 40
3.0
 40
4.0
 40
4.0
 40
4.0
 40
4.0
 10
90.82735864699802
 20
-139.9494248782071
 10
90.66233857325456
 20
-139.9494248782071
 10
90.57776147909168
 20
-140.0445095136
 10
90.57776147909168
 20
-140.1802462757188
 10
90.57776147909168
 20
-140.3028916749937
 10
90.6497639747334
 20
-140.4214029596863
 10
90.82735864699802
 20
-140.4214029596863
 10
91.00512557403692
 20
-140.4214029596863
 10
91.07712806967864
 20
-140.3028916749937
 10
91.07712806967864
 20
-140.1802462757188
 10
91.07712806967864
 20
-140.0445095136
 10
90.99031166345034
 20
-139.9494248782071
 10
90.82735864699802
 20
-139.9494248782071
 97
        0
 97
        0
 75
     2
 76
     1
 98
        0
  0
ENDBLK
  5
54
330
51
100
AcDbEntity
  8
0
100
AcDbBlockEnd
  0
BLOCK
  5
63
330
61
100
AcDbEntity
  8
0
100
AcDbBlockBegin
  2
block 3
 70
     0
 10
0.0
 20
0.0
 30
0.0
  3
block 3
  1

  0
SPLINE
  5
65
330
61
100
AcDbEntity
  8
_U+30EC_U+30A4_U+30E4_U+30FC 1
370
     0
100
AcDbSpline
210
0.0
220
0.0
230
1.0
 70
    11
 71
     3
 72
    26
 73
    22
 74
     0
 42
0.0000000001
 43
0.0000000001
 12
1.0
 22
0.0
 32
0.0
 13
1.0
 23
0.0
 33
0.0
 40
0.0
 40
0.0
 40
0.0
 40
0.0
 40
1.0
 40
1.0
 40
1.0
 40
2.0
 40
2.0
 40
2.0
 40
3.0
 40
3.0
 40
3.0
 40
4.0
 40
4.0
 40
4.0
 40
5.0
 40
5.0
 40
5.0
 40
6.0
 40
6.0
 40
6.0
 40
7.0
 40
7.0
 40
7.0
 40
7.0
 10
81.19039304610865
 20
-141.3502007025097
 30
0.0
 10
81.19039304610865
 20
-141.3502007025097
 30
0.0
 10
81.19039304610865
 20
-140.2457030899386
 30
0.0
 10
81.19039304610865
 20
-140.2457030899386
 30
0.0
 10
81.19039304610865
 20
-140.2457030899386
 30
0.0
 10
80.86035289862173
 20
-140.2457030899386
 30
0.0
 10
80.86035289862173
 20
-140.2457030899386
 30
0.0
 10
80.86035289862173
 20
-140.2457030899386
 30
0.0
 10
80.86035289862173
 20
-140.0975639840728
 30
0.0
 10
80.86035289862173
 20
-140.0975639840728
 30
0.0
 10
81.19246010339981
 20
-140.0830945830348
 30
0.0
 10
81.23896889245067
 20
-139.9197970570339
 30
0.0
 10
81.26859671362382
 20
-139.8057643964722
 30
0.0
 10
81.26859671362382
 20
-139.8057643964722
 30
0.0
 10
81.41466876219842
 20
-139.8057643964722
 30
0.0
 10
81.41466876219842
 20
-139.8057643964722
 30
0.0
 10
81.41466876219842
 20
-139.8057643964722
 30
0.0
 10
81.41466876219842
 20
-141.3502007025097
 30
0.0
 10
81.41466876219842
 20
-141.3502007025097
 30
0.0
 10
81.41466876219842
 20
-141.3502007025097
 30
0.0
 10
81.19039304610865
 20
-141.3502007025097
 30
0.0
 10
81.19039304610865
 20
-141.3502007025097
 30
0.0
  0
HATCH
  5
66
330
61
100
AcDbEntity
  8
_U+30EC_U+30A4_U+30E4_U+30FC 1
 62
   179
420
  2234388
100
AcDbHatch
 10
0.0
 20
0.0
 30
0.0
210
0.0
220
0.0
230
1.0
  2
SOLID
 70
     1
 71
     0
 91
        1
 92
        1
 93
        1
 72
     4
 94
        3
 73
     0
 74
     1
 95
       26
 96
       22
 40
0.0
 40
0.0
 40
0.0
 40
0.0
 40
1.0
 40
1.0
 40
1.0
 40
2.0
 40
2.0
 40
2.0
 40
3.0
 40
3.0
 40
3.0
 40
4.0
 40
4.0
 40
4.0
 40
5.0
 40
5.0
 40
5.0
 40
6.0
 40
6.0
 40
6.0
 40
7.0
 40
7.0
 40
7.0
 40
7.0
 10
81.19039304610865
 20
-141.3502007025097
 10
81.19039304610865
 20
-141.3502007025097
 10
81.19039304610865
 20
-140.2457030899386
 10
81.19039304610865
 20
-140.2457030899386
 10
81.19039304610865
 20
-140.2457030899386
 10
80.86035289862173
 20
-140.2457030899386
 10
80.86035289862173
 20
-140.2457030899386
 10
80.86035289862173
 20
-140.2457030899386
 10
80.86035289862173
 20
-140.0975639840728
 10
80.86035289862173
 20
-140.0975639840728
 10
81.19246010339981
 20
-140.0830945830348
 10
81.23896889245067
 20
-139.9197970570339
 10
81.26859671362382
 20
-139.8057643964722
 10
81.26859671362382
 20
-139.8057643964722
 10
81.41466876219842
 20
-139.8057643964722
 10
81.41466876219842
 20
-139.8057643964722
 10
81.41466876219842
 20
-139.8057643964722
 10
81.41466876219842
 20
-141.3502007025097
 10
81.41466876219842
 20
-141.3502007025097
 10
81.41466876219842
 20
-141.3502007025097
 10
81.19039304610865
 20
-141.3502007025097
 10
81.19039304610865
 20
-141.3502007025097
 97
        0
 97
        0
 75
     2
 76
     1
 98
        0
  0
SPLINE
  5
67
330
61
100
AcDbEntity
  8
_U+30EC_U+30A4_U+30E4_U+30FC 1
370
     0
100
AcDbSpline
210
0.0
220
0.0
230
1.0
 70
    11
 71
     3
 72
    29
 73
    25
 74
     0
 42
0.0000000001
 43
0.0000000001
 12
1.0
 22
0.0
 32
0.0
 13
1.0
 23
0.0
 33
0.0
 40
0.0
 40
0.0
 40
0.0
 40
0.0
 40
1.0
 40
1.0
 40
1.0
 40
2.0
 40
2.0
 40
2.0
 40
3.0
 40
3.0
 40
3.0
 40
4.0
 40
4.0
 40
4.0
 40
5.0
 40
5.0
 40
5.0
 40
6.0
 40
6.0
 40
6.0
 40
7.0
 40
7.0
 40
7.0
 40
8.0
 40
8.0
 40
8.0
 40
8.0
 10
82.81354978398412
 20
-141.1724337754708
 30
0.0
 10
82.7057182952958
 20
-141.381895580974
 30
0.0
 10
82.53225773761346
 20
-141.4008436061428
 30
0.0
 10
82.41581351021202
 20
-141.4008436061428
 30
0.0
 10
82.25509980582511
 20
-141.4008436061428
 30
0.0
 10
82.11333412660709
 20
-141.354334817092
 30
0.0
 10
82.01807723643994
 20
-141.1724337754708
 30
0.0
 10
81.91455211710817
 20
-140.9774413710057
 30
0.0
 10
81.89543183716503
 20
-140.740763311169
 30
0.0
 10
81.89543183716503
 20
-140.5778102947167
 30
0.0
 10
81.89543183716503
 20
-140.4338053034332
 30
0.0
 10
81.91231280504276
 20
-140.18231333301
 30
0.0
 10
82.01807723643994
 20
-139.9831868139625
 30
0.0
 10
82.12608097990251
 20
-139.7802706898813
 30
0.0
 10
82.28679468428942
 20
-139.7571885501302
 30
0.0
 10
82.41581351021202
 20
-139.7571885501302
 30
0.0
 10
82.57446015730778
 20
-139.7571885501302
 30
0.0
 10
82.71829289381697
 20
-139.8012857723413
 30
0.0
 10
82.81354978398412
 20
-139.9831868139625
 30
0.0
 10
82.91294078873358
 20
-140.1761121611365
 30
0.0
 10
82.93619518325902
 20
-140.4041774822601
 30
0.0
 10
82.93619518325902
 20
-140.5778102947167
 30
0.0
 10
82.93619518325902
 20
-140.7493760498821
 30
0.0
 10
82.91518010079899
 20
-140.9798529378453
 30
0.0
 10
82.81354978398412
 20
-141.1724337754708
 30
0.0
  0
SPLINE
  5
68
330
61
100
AcDbEntity
  8
_U+30EC_U+30A4_U+30E4_U+30FC 1
370
     0
100
AcDbSpline
210
0.0
220
0.0
230
1.0
 70
    11
 71
     3
 72
    17
 73
    13
 74
     0
 42
0.0000000001
 43
0.0000000001
 12
1.0
 22
0.0
 32
0.0
 13
1.0
 23
0.0
 33
0.0
 40
0.0
 40
0.0
 40
0.0
 40
0.0
 40
1.0
 40
1.0
 40
1.0
 40
2.0
 40
2.0
 40
2.0
 40
3.0
 40
3.0
 40
3.0
 40
4.0
 40
4.0
 40
4.0
 40
4.0
 10
82.41581351021202
 20
-139.9494248782071
 30
0.0
 10
82.16621634230567
 20
-139.9494248782071
 30
0.0
 10
82.1197075532548
 20
-140.2333007461917
 30
0.0
 10
82.1197075532548
 20
-140.5778102947167
 30
0.0
 10
82.1197075532548
 20
-140.8975151557478
 30
0.0
 10
82.15570880107566
 20
-141.2061957112262
 30
0.0
 10
82.41581351021202
 20
-141.2061957112262
 30
0.0
 10
82.66334362082722
 20
-141.2061957112262
 30
0.0
 10
82.71209172194351
 20
-140.9247314100813
 30
0.0
 10
82.71209172194351
 20
-140.5778102947167
 30
0.0
 10
82.71209172194351
 20
-140.258449943234
 30
0.0
 10
82.67385116205723
 20
-139.9494248782071
 30
0.0
 10
82.41581351021202
 20
-139.9494248782071
 30
0.0
  0
HATCH
  5
69
330
61
100
AcDbEntity
  8
_U+30EC_U+30A4_U+30E4_U+30FC 1
 62
   179
420
  2234388
100
AcDbHatch
 10
0.0
 20
0.0
 30
0.0
210
0.0
220
0.0
230
1.0
  2
SOLID
 70
     1
 71
     0
 91
        2
 92
        1
 93
        1
 72
     4
 94
        3
 73
     0
 74
     1
 95
       29
 96
       25
 40
0.0
 40
0.0
 40
0.0
 40
0.0
 40
1.0
 40
1.0
 40
1.0
 40
2.0
 40
2.0
 40
2.0
 40
3.0
 40
3.0
 40
3.0
 40
4.0
 40
4.0
 40
4.0
 40
5.0
 40
5.0
 40
5.0
 40
6.0
 40
6.0
 40
6.0
 40
7.0
 40
7.0
 40
7.0
 40
8.0
 40
8.0
 40
8.0
 40
8.0
 10
82.81354978398412
 20
-141.1724337754708
 10
82.7057182952958
 20
-141.381895580974
 10
82.53225773761346
 20
-141.4008436061428
 10
82.41581351021202
 20
-141.4008436061428
 10
82.25509980582511
 20
-141.4008436061428
 10
82.11333412660709
 20
-141.354334817092
 10
82.01807723643994
 20
-141.1724337754708
 10
81.91455211710817
 20
-140.9774413710057
 10
81.89543183716503
 20
-140.740763311169
 10
81.89543183716503
 20
-140.5778102947167
 10
81.89543183716503
 20
-140.4338053034332
 10
81.91231280504276
 20
-140.18231333301
 10
82.01807723643994
 20
-139.9831868139625
 10
82.12608097990251
 20
-139.7802706898813
 10
82.28679468428942
 20
-139.7571885501302
 10
82.41581351021202
 20
-139.7571885501302
 10
82.57446015730778
 20
-139.7571885501302
 10
82.71829289381697
 20
-139.8012857723413
 10
82.81354978398412
 20
-139.9831868139625
 10
82.91294078873358
 20
-140.1761121611365
 10
82.93619518325902
 20
-140.4041774822601
 10
82.93619518325902
 20
-140.5778102947167
 10
82.93619518325902
 20
-140.7493760498821
 10
82.91518010079899
 20
-140.9798529378453
 10
82.81354978398412
 20
-141.1724337754708
 97
        0
 97
        0
 92
        1
 93
        1
 72
     4
 94
        3
 73
     0
 74
     1
 95
       17
 96
       13
 40
0.0
 40
0.0
 40
0.0
 40
0.0
 40
1.0
 40
1.0
 40
1.0
 40
2.0
 40
2.0
 40
2.0
 40
3.0
 40
3.0
 40
3.0
 40
4.0
 40
4.0
 40
4.0
 40
4.0
 10
82.41581351021202
 20
-139.9494248782071
 10
82.16621634230567
 20
-139.9494248782071
 10
82.1197075532548
 20
-140.2333007461917
 10
82.1197075532548
 20
-140.5778102947167
 10
82.1197075532548
 20
-140.8975151557478
 10
82.15570880107566
 20
-141.2061957112262
 10
82.41581351021202
 20
-141.2061957112262
 10
82.66334362082722
 20
-141.2061957112262
 10
82.71209172194351
 20
-140.9247314100813
 10
82.71209172194351
 20
-140.5778102947167
 10
82.71209172194351
 20
-140.258449943234
 10
82.67385116205723
 20
-139.9494248782071
 10
82.41581351021202
 20
-139.9494248782071
 97
        0
 97
        0
 75
     2
 76
     1
 98
        0
  0
ENDBLK
  5
64
330
61
100
AcDbEntity
  8
0
100
AcDbBlockEnd
  0
BLOCK
  5
74
330
72
100
AcDbEntity
  8
0
100
AcDbBlockBegin
  2
block 4
 70
     0
 10
0.0
 20
0.0
 30
0.0
  3
block 4
  1

  0
SPLINE
  5
76
330
72
100
AcDbEntity
  8
_U+30EC_U+30A4_U+30E4_U+30FC 1
370
     0
100
AcDbSpline
210
0.0
220
0.0
230
1.0
 70
    11
 71
     3
 72
    26
 73
    22
 74
     0
 42
0.0000000001
 43
0.0000000001
 12
1.0
 22
0.0
 32
0.0
 13
1.0
 23
0.0
 33
0.0
 40
0.0
 40
0.0
 40
0.0
 40
0.0
 40
1.0
 40
1.0
 40
1.0
 40
2.0
 40
2.0
 40
2.0
 40
3.0
 40
3.0
 40
3.0
 40
4.0
 40
4.0
 40
4.0
 40
5.0
 40
5.0
 40
5.0
 40
6.0
 40
6.0
 40
6.0
 40
7.0
 40
7.0
 40
7.0
 40
7.0
 10
99.19050019221626
 20
-141.3502007025097
 30
0.0
 10
99.19050019221626
 20
-141.3502007025097
 30
0.0
 10
99.19050019221626
 20
-140.2457030899386
 30
0.0
 10
99.19050019221626
 20
-140.2457030899386
 30
0.0
 10
99.19050019221626
 20
-140.2457030899386
 30
0.0
 10
98.86046004472934
 20
-140.2457030899386
 30
0.0
 10
98.86046004472934
 20
-140.2457030899386
 30
0.0
 10
98.86046004472934
 20
-140.2457030899386
 30
0.0
 10
98.86046004472934
 20
-140.0975639840728
 30
0.0
 10
98.86046004472934
 20
-140.0975639840728
 30
0.0
 10
99.19256724950742
 20
-140.0830945830348
 30
0.0
 10
99.2390760385583
 20
-139.9197970570339
 30
0.0
 10
99.26870385973145
 20
-139.8057643964722
 30
0.0
 10
99.26870385973145
 20
-139.8057643964722
 30
0.0
 10
99.41477590830603
 20
-139.8057643964722
 30
0.0
 10
99.41477590830603
 20
-139.8057643964722
 30
0.0
 10
99.41477590830603
 20
-139.8057643964722
 30
0.0
 10
99.41477590830603
 20
-141.3502007025097
 30
0.0
 10
99.41477590830603
 20
-141.3502007025097
 30
0.0
 10
99.41477590830603
 20
-141.3502007025097
 30
0.0
 10
99.19050019221626
 20
-141.3502007025097
 30
0.0
 10
99.19050019221626
 20
-141.3502007025097
 30
0.0
  0
HATCH
  5
77
330
72
100
AcDbEntity
  8
_U+30EC_U+30A4_U+30E4_U+30FC 1
 62
   179
420
  2234388
100
AcDbHatch
 10
0.0
 20
0.0
 30
0.0
210
0.0
220
0.0
230
1.0
  2
SOLID
 70
     1
 71
     0
 91
        1
 92
        1
 93
        1
 72
     4
 94
        3
 73
     0
 74
     1
 95
       26
 96
       22
 40
0.0
 40
0.0
 40
0.0
 40
0.0
 40
1.0
 40
1.0
 40
1.0
 40
2.0
 40
2.0
 40
2.0
 40
3.0
 40
3.0
 40
3.0
 40
4.0
 40
4.0
 40
4.0
 40
5.0
 40
5.0
 40
5.0
 40
6.0
 40
6.0
 40
6.0
 40
7.0
 40
7.0
 40
7.0
 40
7.0
 10
99.19050019221626
 20
-141.3502007025097
 10
99.19050019221626
 20
-141.3502007025097
 10
99.19050019221626
 20
-140.2457030899386
 10
99.19050019221626
 20
-140.2457030899386
 10
99.19050019221626
 20
-140.2457030899386
 10
98.86046004472934
 20
-140.2457030899386
 10
98.86046004472934
 20
-140.2457030899386
 10
98.86046004472934
 20
-140.2457030899386
 10
98.86046004472934
 20
-140.0975639840728
 10
98.86046004472934
 20
-140.0975639840728
 10
99.19256724950742
 20
-140.0830945830348
 10
99.2390760385583
 20
-139.9197970570339
 10
99.26870385973145
 20
-139.8057643964722
 10
99.26870385973145
 20
-139.8057643964722
 10
99.41477590830603
 20
-139.8057643964722
 10
99.41477590830603
 20
-139.8057643964722
 10
99.41477590830603
 20
-139.8057643964722
 10
99.41477590830603
 20
-141.3502007025097
 10
99.41477590830603
 20
-141.3502007025097
 10
99.41477590830603
 20
-141.3502007025097
 10
99.19050019221626
 20
-141.3502007025097
 10
99.19050019221626
 20
-141.3502007025097
 97
        0
 97
        0
 75
     2
 76
     1
 98
        0
  0
SPLINE
  5
78
330
72
100
AcDbEntity
  8
_U+30EC_U+30A4_U+30E4_U+30FC 1
370
     0
100
AcDbSpline
210
0.0
220
0.0
230
1.0
 70
    11
 71
     3
 72
    29
 73
    25
 74
     0
 42
0.0000000001
 43
0.0000000001
 12
1.0
 22
0.0
 32
0.0
 13
1.0
 23
0.0
 33
0.0
 40
0.0
 40
0.0
 40
0.0
 40
0.0
 40
1.0
 40
1.0
 40
1.0
 40
2.0
 40
2.0
 40
2.0
 40
3.0
 40
3.0
 40
3.0
 40
4.0
 40
4.0
 40
4.0
 40
5.0
 40
5.0
 40
5.0
 40
6.0
 40
6.0
 40
6.0
 40
7.0
 40
7.0
 40
7.0
 40
8.0
 40
8.0
 40
8.0
 40
8.0
 10
100.813829184866
 20
-141.1724337754708
 30
0.0
 10
100.7056531866291
 20
-141.381895580974
 30
0.0
 10
100.5323648837211
 20
-141.4008436061428
 30
0.0
 10
100.4159206563196
 20
-141.4008436061428
 30
0.0
 10
100.2550346971585
 20
-141.4008436061428
 30
0.0
 10
100.1134412727147
 20
-141.354334817092
 30
0.0
 10
100.0183566373218
 20
-141.1724337754708
 30
0.0
 10
99.91465926321578
 20
-140.9774413710057
 30
0.0
 10
99.89536672849839
 20
-140.740763311169
 30
0.0
 10
99.89536672849839
 20
-140.5778102947167
 30
0.0
 10
99.89536672849839
 20
-140.4338053034332
 30
0.0
 10
99.91259220592464
 20
-140.18231333301
 30
0.0
 10
100.0183566373218
 20
-139.9831868139625
 30
0.0
 10
100.1261881260101
 20
-139.7802706898813
 30
0.0
 10
100.2870740851713
 20
-139.7571885501302
 30
0.0
 10
100.4159206563196
 20
-139.7571885501302
 30
0.0
 10
100.5747395581896
 20
-139.7571885501302
 30
0.0
 10
100.7184000399246
 20
-139.8012857723413
 30
0.0
 10
100.813829184866
 20
-139.9831868139625
 30
0.0
 10
100.9130479348412
 20
-140.1761121611365
 30
0.0
 10
100.9364745841409
 20
-140.4041774822601
 30
0.0
 10
100.9364745841409
 20
-140.5778102947167
 30
0.0
 10
100.9364745841409
 20
-140.7493760498821
 30
0.0
 10
100.9151149921323
 20
-140.9798529378453
 30
0.0
 10
100.813829184866
 20
-141.1724337754708
 30
0.0
  0
SPLINE
  5
79
330
72
100
AcDbEntity
  8
_U+30EC_U+30A4_U+30E4_U+30FC 1
370
     0
100
AcDbSpline
210
0.0
220
0.0
230
1.0
 70
    11
 71
     3
 72
    17
 73
    13
 74
     0
 42
0.0000000001
 43
0.0000000001
 12
1.0
 22
0.0
 32
0.0
 13
1.0
 23
0.0
 33
0.0
 40
0.0
 40
0.0
 40
0.0
 40
0.0
 40
1.0
 40
1.0
 40
1.0
 40
2.0
 40
2.0
 40
2.0
 40
3.0
 40
3.0
 40
3.0
 40
4.0
 40
4.0
 40
4.0
 40
4.0
 10
100.4159206563196
 20
-139.9494248782071
 30
0.0
 10
100.166151233639
 20
-139.9494248782071
 30
0.0
 10
100.1196424445882
 20
-140.2333007461917
 30
0.0
 10
100.1196424445882
 20
-140.5778102947167
 30
0.0
 10
100.1196424445882
 20
-140.8975151557478
 30
0.0
 10
100.1558159471833
 20
-141.2061957112262
 30
0.0
 10
100.4159206563196
 20
-141.2061957112262
 30
0.0
 10
100.6636230217091
 20
-141.2061957112262
 30
0.0
 10
100.7121988680511
 20
-140.9247314100813
 30
0.0
 10
100.7121988680511
 20
-140.5778102947167
 30
0.0
 10
100.7121988680511
 20
-140.258449943234
 30
0.0
 10
100.6739583081648
 20
-139.9494248782071
 30
0.0
 10
100.4159206563196
 20
-139.9494248782071
 30
0.0
  0
HATCH
  5
7A
330
72
100
AcDbEntity
  8
_U+30EC_U+30A4_U+30E4_U+30FC 1
 62
   179
420
  2234388
100
AcDbHatch
 10
0.0
 20
0.0
 30
0.0
210
0.0
220
0.0
230
1.0
  2
SOLID
 70
     1
 71
     0
 91
        2
 92
        1
 93
        1
 72
     4
 94
        3
 73
     0
 74
     1
 95
       29
 96
       25
 40
0.0
 40
0.0
 40
0.0
 40
0.0
 40
1.0
 40
1.0
 40
1.0
 40
2.0
 40
2.0
 40
2.0
 40
3.0
 40
3.0
 40
3.0
 40
4.0
 40
4.0
 40
4.0
 40
5.0
 40
5.0
 40
5.0
 40
6.0
 40
6.0
 40
6.0
 40
7.0
 40
7.0
 40
7.0
 40
8.0
 40
8.0
 40
8.0
 40
8.0
 10
100.813829184866
 20
-141.1724337754708
 10
100.7056531866291
 20
-141.381895580974
 10
100.5323648837211
 20
-141.4008436061428
 10
100.4159206563196
 20
-141.4008436061428
 10
100.2550346971585
 20
-141.4008436061428
 10
100.1134412727147
 20
-141.354334817092
 10
100.0183566373218
 20
-141.1724337754708
 10
99.91465926321578
 20
-140.9774413710057
 10
99.89536672849839
 20
-140.740763311169
 10
99.89536672849839
 20
-140.5778102947167
 10
99.89536672849839
 20
-140.4338053034332
 10
99.91259220592464
 20
-140.18231333301
 10
100.0183566373218
 20
-139.9831868139625
 10
100.1261881260101
 20
-139.7802706898813
 10
100.2870740851713
 20
-139.7571885501302
 10
100.4159206563196
 20
-139.7571885501302
 10
100.5747395581896
 20
-139.7571885501302
 10
100.7184000399246
 20
-139.8012857723413
 10
100.813829184866
 20
-139.9831868139625
 10
100.9130479348412
 20
-140.1761121611365
 10
100.9364745841409
 20
-140.4041774822601
 10
100.9364745841409
 20
-140.5778102947167
 10
100.9364745841409
 20
-140.7493760498821
 10
100.9151149921323
 20
-140.9798529378453
 10
100.813829184866
 20
-141.1724337754708
 97
        0
 97
        0
 92
        1
 93
        1
 72
     4
 94
        3
 73
     0
 74
     1
 95
       17
 96
       13
 40
0.0
 40
0.0
 40
0.0
 40
0.0
 40
1.0
 40
1.0
 40
1.0
 40
2.0
 40
2.0
 40
2.0
 40
3.0
 40
3.0
 40
3.0
 40
4.0
 40
4.0
 40
4.0
 40
4.0
 10
100.4159206563196
 20
-139.9494248782071
 10
100.166151233639
 20
-139.9494248782071
 10
100.1196424445882
 20
-140.2333007461917
 10
100.1196424445882
 20
-140.5778102947167
 10
100.1196424445882
 20
-140.8975151557478
 10
100.1558159471833
 20
-141.2061957112262
 10
100.4159206563196
 20
-141.2061957112262
 10
100.6636230217091
 20
-141.2061957112262
 10
100.7121988680511
 20
-140.9247314100813
 10
100.7121988680511
 20
-140.5778102947167
 10
100.7121988680511
 20
-140.258449943234
 10
100.6739583081648
 20
-139.9494248782071
 10
100.4159206563196
 20
-139.9494248782071
 97
        0
 97
        0
 75
     2
 76
     1
 98
        0
  0
ENDBLK
  5
75
330
72
100
AcDbEntity
  8
0
100
AcDbBlockEnd
  0
BLOCK
  5
9F
330
9D
100
AcDbEntity
  8
0
100
AcDbBlockBegin
  2
block 5
 70
     0
 10
0.0
 20
0.0
 30
0.0
  3
block 5
  1

  0
SPLINE
  5
A1
330
9D
100
AcDbEntity
  8
_U+30EC_U+30A4_U+30E4_U+30FC 1
370
     0
100
AcDbSpline
210
0.0
220
0.0
230
1.0
 70
    11
 71
     3
 72
    44
 73
    40
 74
     0
 42
0.0000000001
 43
0.0000000001
 12
1.0
 22
0.0
 32
0.0
 13
1.0
 23
0.0
 33
0.0
 40
0.0
 40
0.0
 40
0.0
 40
0.0
 40
1.0
 40
1.0
 40
1.0
 40
2.0
 40
2.0
 40
2.0
 40
3.0
 40
3.0
 40
3.0
 40
4.0
 40
4.0
 40
4.0
 40
5.0
 40
5.0
 40
5.0
 40
6.0
 40
6.0
 40
6.0
 40
7.0
 40
7.0
 40
7.0
 40
8.0
 40
8.0
 40
8.0
 40
9.0
 40
9.0
 40
9.0
 40
10.0
 40
10.0
 40
10.0
 40
11.0
 40
11.0
 40
11.0
 40
12.0
 40
12.0
 40
12.0
 40
13.0
 40
13.0
 40
13.0
 40
13.0
 10
97.59989960667642
 20
-126.0126356021774
 30
0.0
 10
97.75871850854644
 20
-126.2303656368452
 30
0.0
 10
97.8327880614793
 20
-126.3233832149469
 30
0.0
 10
97.97644854321423
 20
-126.3723035708375
 30
0.0
 10
97.97644854321423
 20
-126.3723035708375
 30
0.0
 10
97.97644854321423
 20
-125.593711991171
 30
0.0
 10
97.97644854321423
 20
-125.593711991171
 30
0.0
 10
97.97644854321423
 20
-125.593711991171
 30
0.0
 10
98.18177623413511
 20
-125.593711991171
 30
0.0
 10
98.18177623413511
 20
-125.593711991171
 30
0.0
 10
98.18177623413511
 20
-125.593711991171
 30
0.0
 10
98.18177623413511
 20
-126.6217284839696
 30
0.0
 10
98.18177623413511
 20
-126.6217284839696
 30
0.0
 10
97.82417532276618
 20
-126.5900336055053
 30
0.0
 10
97.74597165525101
 20
-126.5245767912855
 30
0.0
 10
97.44762638622838
 20
-126.1394151160346
 30
0.0
 10
97.24884437672947
 20
-125.8834445214805
 30
0.0
 10
97.18097599567004
 20
-125.8179877072608
 30
0.0
 10
97.04351668580857
 20
-125.8179877072608
 30
0.0
 10
96.92500540111598
 20
-125.8179877072608
 30
0.0
 10
96.79409177267648
 20
-125.8899902029025
 30
0.0
 10
96.79409177267648
 20
-126.0867051551103
 30
0.0
 10
96.79409177267648
 20
-126.3468098642466
 30
0.0
 10
97.0245686606397
 20
-126.3550780934112
 30
0.0
 10
97.14101288804115
 20
-126.3595567175421
 30
0.0
 10
97.14101288804115
 20
-126.3595567175421
 30
0.0
 10
97.14101288804115
 20
-126.5838324336318
 30
0.0
 10
97.14101288804115
 20
-126.5838324336318
 30
0.0
 10
97.01388886463542
 20
-126.5752196949187
 30
0.0
 10
96.9019232613648
 20
-126.5645398989144
 30
0.0
 10
96.78341197667221
 20
-126.4842691741081
 30
0.0
 10
96.62252601751103
 20
-126.3743706281286
 30
0.0
 10
96.58876408175558
 20
-126.1879909623766
 30
0.0
 10
96.58876408175558
 20
-126.0718912445237
 30
0.0
 10
96.58876408175558
 20
-125.7945610579611
 30
0.0
 10
96.77273218066793
 20
-125.5871663097491
 30
0.0
 10
97.04558374309973
 20
-125.5871663097491
 30
0.0
 10
97.2743380833203
 20
-125.5871663097491
 30
0.0
 10
97.37355683329551
 20
-125.7036105371505
 30
0.0
 10
97.59989960667642
 20
-126.0126356021774
 30
0.0
  0
HATCH
  5
A2
330
9D
100
AcDbEntity
  8
_U+30EC_U+30A4_U+30E4_U+30FC 1
 62
   179
420
  2234388
100
AcDbHatch
 10
0.0
 20
0.0
 30
0.0
210
0.0
220
0.0
230
1.0
  2
SOLID
 70
     1
 71
     0
 91
        1
 92
        1
 93
        1
 72
     4
 94
        3
 73
     0
 74
     1
 95
       44
 96
       40
 40
0.0
 40
0.0
 40
0.0
 40
0.0
 40
1.0
 40
1.0
 40
1.0
 40
2.0
 40
2.0
 40
2.0
 40
3.0
 40
3.0
 40
3.0
 40
4.0
 40
4.0
 40
4.0
 40
5.0
 40
5.0
 40
5.0
 40
6.0
 40
6.0
 40
6.0
 40
7.0
 40
7.0
 40
7.0
 40
8.0
 40
8.0
 40
8.0
 40
9.0
 40
9.0
 40
9.0
 40
10.0
 40
10.0
 40
10.0
 40
11.0
 40
11.0
 40
11.0
 40
12.0
 40
12.0
 40
12.0
 40
13.0
 40
13.0
 40
13.0
 40
13.0
 10
97.59989960667642
 20
-126.0126356021774
 10
97.75871850854644
 20
-126.2303656368452
 10
97.8327880614793
 20
-126.3233832149469
 10
97.97644854321423
 20
-126.3723035708375
 10
97.97644854321423
 20
-126.3723035708375
 10
97.97644854321423
 20
-125.593711991171
 10
97.97644854321423
 20
-125.593711991171
 10
97.97644854321423
 20
-125.593711991171
 10
98.18177623413511
 20
-125.593711991171
 10
98.18177623413511
 20
-125.593711991171
 10
98.18177623413511
 20
-125.593711991171
 10
98.18177623413511
 20
-126.6217284839696
 10
98.18177623413511
 20
-126.6217284839696
 10
97.82417532276618
 20
-126.5900336055053
 10
97.74597165525101
 20
-126.5245767912855
 10
97.44762638622838
 20
-126.1394151160346
 10
97.24884437672947
 20
-125.8834445214805
 10
97.18097599567004
 20
-125.8179877072608
 10
97.04351668580857
 20
-125.8179877072608
 10
96.92500540111598
 20
-125.8179877072608
 10
96.79409177267648
 20
-125.8899902029025
 10
96.79409177267648
 20
-126.0867051551103
 10
96.79409177267648
 20
-126.3468098642466
 10
97.0245686606397
 20
-126.3550780934112
 10
97.14101288804115
 20
-126.3595567175421
 10
97.14101288804115
 20
-126.3595567175421
 10
97.14101288804115
 20
-126.5838324336318
 10
97.14101288804115
 20
-126.5838324336318
 10
97.01388886463542
 20
-126.5752196949187
 10
96.9019232613648
 20
-126.5645398989144
 10
96.78341197667221
 20
-126.4842691741081
 10
96.62252601751103
 20
-126.3743706281286
 10
96.58876408175558
 20
-126.1879909623766
 10
96.58876408175558
 20
-126.0718912445237
 10
96.58876408175558
 20
-125.7945610579611
 10
96.77273218066793
 20
-125.5871663097491
 10
97.04558374309973
 20
-125.5871663097491
 10
97.2743380833203
 20
-125.5871663097491
 10
97.37355683329551
 20
-125.7036105371505
 10
97.59989960667642
 20
-126.0126356021774
 97
        0
 97
        0
 75
     2
 76
     1
 98
        0
  0
SPLINE
  5
A3
330
9D
100
AcDbEntity
  8
_U+30EC_U+30A4_U+30E4_U+30FC 1
370
     0
100
AcDbSpline
210
0.0
220
0.0
230
1.0
 70
    11
 71
     3
 72
    53
 73
    49
 74
     0
 42
0.0000000001
 43
0.0000000001
 12
1.0
 22
0.0
 32
0.0
 13
1.0
 23
0.0
 33
0.0
 40
0.0
 40
0.0
 40
0.0
 40
0.0
 40
1.0
 40
1.0
 40
1.0
 40
2.0
 40
2.0
 40
2.0
 40
3.0
 40
3.0
 40
3.0
 40
4.0
 40
4.0
 40
4.0
 40
5.0
 40
5.0
 40
5.0
 40
6.0
 40
6.0
 40
6.0
 40
7.0
 40
7.0
 40
7.0
 40
8.0
 40
8.0
 40
8.0
 40
9.0
 40
9.0
 40
9.0
 40
10.0
 40
10.0
 40
10.0
 40
11.0
 40
11.0
 40
11.0
 40
12.0
 40
12.0
 40
12.0
 40
13.0
 40
13.0
 40
13.0
 40
14.0
 40
14.0
 40
14.0
 40
15.0
 40
15.0
 40
15.0
 40
16.0
 40
16.0
 40
16.0
 40
16.0
 10
98.23241913776829
 20
-124.9477565876867
 30
0.0
 10
98.23241913776829
 20
-125.0259602552019
 30
0.0
 10
98.21553816989056
 20
-125.1275905720167
 30
0.0
 10
98.15214841296196
 20
-125.2292208888316
 30
0.0
 10
98.0422498669825
 20
-125.4025091917397
 30
0.0
 10
97.91099172899447
 20
-125.4238687837482
 30
0.0
 10
97.80316024030616
 20
-125.4428168089171
 30
0.0
 10
97.80316024030616
 20
-125.4428168089171
 30
0.0
 10
97.80316024030616
 20
-125.2206081501185
 30
0.0
 10
97.80316024030616
 20
-125.2206081501185
 30
0.0
 10
98.00194224980507
 20
-125.165831131903
 30
0.0
 10
98.03157007097822
 20
-125.0387071084973
 30
0.0
 10
98.03157007097822
 20
-124.9456895303955
 30
0.0
 10
98.03157007097822
 20
-124.8061631632429
 30
0.0
 10
97.9320068114545
 20
-124.6538899427949
 30
0.0
 10
97.69946286620014
 20
-124.6538899427949
 30
0.0
 10
97.44349227164608
 20
-124.6538899427949
 30
0.0
 10
97.37355683329551
 20
-124.8337239271249
 30
0.0
 10
97.37355683329551
 20
-124.9543022691087
 30
0.0
 10
97.37355683329551
 20
-124.9859971475729
 30
0.0
 10
97.37355683329551
 20
-125.1275905720167
 30
0.0
 10
97.50274791399238
 20
-125.2164740355362
 30
0.0
 10
97.50274791399238
 20
-125.2164740355362
 30
0.0
 10
97.4837998888235
 20
-125.3921739052839
 30
0.0
 10
97.4837998888235
 20
-125.3921739052839
 30
0.0
 10
97.4837998888235
 20
-125.3921739052839
 30
0.0
 10
96.63733992809762
 20
-125.2715955633002
 30
0.0
 10
96.63733992809762
 20
-125.2715955633002
 30
0.0
 10
96.63733992809762
 20
-125.2715955633002
 30
0.0
 10
96.63733992809762
 20
-124.4930039836337
 30
0.0
 10
96.63733992809762
 20
-124.4930039836337
 30
0.0
 10
96.63733992809762
 20
-124.4930039836337
 30
0.0
 10
96.83198782301423
 20
-124.4930039836337
 30
0.0
 10
96.83198782301423
 20
-124.4930039836337
 30
0.0
 10
96.83198782301423
 20
-124.4930039836337
 30
0.0
 10
96.83198782301423
 20
-125.1086425468478
 30
0.0
 10
96.83198782301423
 20
-125.1086425468478
 30
0.0
 10
96.83198782301423
 20
-125.1086425468478
 30
0.0
 10
97.25504554860291
 20
-125.1740993610676
 30
0.0
 10
97.25504554860291
 20
-125.1740993610676
 30
0.0
 10
97.22128361284746
 20
-125.1127766614301
 30
0.0
 10
97.18097599567004
 20
-125.0304388793327
 30
0.0
 10
97.18097599567004
 20
-124.9119275946401
 30
0.0
 10
97.18097599567004
 20
-124.6580240573772
 30
0.0
 10
97.36735566142205
 20
-124.421001487992
 30
0.0
 10
97.68051484103127
 20
-124.421001487992
 30
0.0
 10
97.99780813522277
 20
-124.421001487992
 30
0.0
 10
98.23241913776829
 20
-124.6452772040817
 30
0.0
 10
98.23241913776829
 20
-124.9477565876867
 30
0.0
  0
HATCH
  5
A4
330
9D
100
AcDbEntity
  8
_U+30EC_U+30A4_U+30E4_U+30FC 1
 62
   179
420
  2234388
100
AcDbHatch
 10
0.0
 20
0.0
 30
0.0
210
0.0
220
0.0
230
1.0
  2
SOLID
 70
     1
 71
     0
 91
        1
 92
        1
 93
        1
 72
     4
 94
        3
 73
     0
 74
     1
 95
       53
 96
       49
 40
0.0
 40
0.0
 40
0.0
 40
0.0
 40
1.0
 40
1.0
 40
1.0
 40
2.0
 40
2.0
 40
2.0
 40
3.0
 40
3.0
 40
3.0
 40
4.0
 40
4.0
 40
4.0
 40
5.0
 40
5.0
 40
5.0
 40
6.0
 40
6.0
 40
6.0
 40
7.0
 40
7.0
 40
7.0
 40
8.0
 40
8.0
 40
8.0
 40
9.0
 40
9.0
 40
9.0
 40
10.0
 40
10.0
 40
10.0
 40
11.0
 40
11.0
 40
11.0
 40
12.0
 40
12.0
 40
12.0
 40
13.0
 40
13.0
 40
13.0
 40
14.0
 40
14.0
 40
14.0
 40
15.0
 40
15.0
 40
15.0
 40
16.0
 40
16.0
 40
16.0
 40
16.0
 10
98.23241913776829
 20
-124.9477565876867
 10
98.23241913776829
 20
-125.0259602552019
 10
98.21553816989056
 20
-125.1275905720167
 10
98.15214841296196
 20
-125.2292208888316
 10
98.0422498669825
 20
-125.4025091917397
 10
97.91099172899447
 20
-125.4238687837482
 10
97.80316024030616
 20
-125.4428168089171
 10
97.80316024030616
 20
-125.4428168089171
 10
97.80316024030616
 20
-125.2206081501185
 10
97.80316024030616
 20
-125.2206081501185
 10
98.00194224980507
 20
-125.165831131903
 10
98.03157007097822
 20
-125.0387071084973
 10
98.03157007097822
 20
-124.9456895303955
 10
98.03157007097822
 20
-124.8061631632429
 10
97.9320068114545
 20
-124.6538899427949
 10
97.69946286620014
 20
-124.6538899427949
 10
97.44349227164608
 20
-124.6538899427949
 10
97.37355683329551
 20
-124.8337239271249
 10
97.37355683329551
 20
-124.9543022691087
 10
97.37355683329551
 20
-124.9859971475729
 10
97.37355683329551
 20
-125.1275905720167
 10
97.50274791399238
 20
-125.2164740355362
 10
97.50274791399238
 20
-125.2164740355362
 10
97.4837998888235
 20
-125.3921739052839
 10
97.4837998888235
 20
-125.3921739052839
 10
97.4837998888235
 20
-125.3921739052839
 10
96.63733992809762
 20
-125.2715955633002
 10
96.63733992809762
 20
-125.2715955633002
 10
96.63733992809762
 20
-125.2715955633002
 10
96.63733992809762
 20
-124.4930039836337
 10
96.63733992809762
 20
-124.4930039836337
 10
96.63733992809762
 20
-124.4930039836337
 10
96.83198782301423
 20
-124.4930039836337
 10
96.83198782301423
 20
-124.4930039836337
 10
96.83198782301423
 20
-124.4930039836337
 10
96.83198782301423
 20
-125.1086425468478
 10
96.83198782301423
 20
-125.1086425468478
 10
96.83198782301423
 20
-125.1086425468478
 10
97.25504554860291
 20
-125.1740993610676
 10
97.25504554860291
 20
-125.1740993610676
 10
97.22128361284746
 20
-125.1127766614301
 10
97.18097599567004
 20
-125.0304388793327
 10
97.18097599567004
 20
-124.9119275946401
 10
97.18097599567004
 20
-124.6580240573772
 10
97.36735566142205
 20
-124.421001487992
 10
97.68051484103127
 20
-124.421001487992
 10
97.99780813522277
 20
-124.421001487992
 10
98.23241913776829
 20
-124.6452772040817
 10
98.23241913776829
 20
-124.9477565876867
 97
        0
 97
        0
 75
     2
 76
     1
 98
        0
  0
ENDBLK
  5
A0
330
9D
100
AcDbEntity
  8
0
100
AcDbBlockEnd
  0
ENDSEC
  0
SECTION
  2
ENTITIES
  0
SPLINE
  5
41
330
1F
100
AcDbEntity
  8
_U+30EC_U+30A4_U+30E4_U+30FC 1
 62
   179
420
  2234388
370
     9
100
AcDbSpline
210
0.0
220
0.0
230
1.0
 70
    11
 71
     3
 72
    17
 73
    13
 74
     0
 42
0.0000000001
 43
0.0000000001
 12
1.0
 22
0.0
 32
0.0
 13
1.0
 23
0.0
 33
0.0
 40
0.0
 40
0.0
 40
0.0
 40
0.0
 40
1.0
 40
1.0
 40
1.0
 40
2.0
 40
2.0
 40
2.0
 40
3.0
 40
3.0
 40
3.0
 40
4.0
 40
4.0
 40
4.0
 40
4.0
 10
76.92778053632365
 20
-141.9958071867231
 30
0.0
 10
76.92778053632365
 20
-141.9407032978482
 30
0.0
 10
76.88297775855693
 20
-141.8959005200814
 30
0.0
 10
76.82769553996219
 20
-141.8959005200814
 30
0.0
 10
76.77255831414006
 20
-141.8959005200814
 30
0.0
 10
76.72778887584435
 20
-141.9407032978482
 30
0.0
 10
76.72778887584435
 20
-141.9958071867231
 30
0.0
 10
76.72778887584435
 20
-142.0516166311535
 30
0.0
 10
76.77255831414006
 20
-142.0964194089202
 30
0.0
 10
76.82769553996219
 20
-142.0964194089202
 30
0.0
 10
76.88297775855693
 20
-142.0964194089202
 30
0.0
 10
76.92778053632365
 20
-142.0516166311535
 30
0.0
 10
76.92778053632365
 20
-141.9958071867231
 30
0.0
  0
SPLINE
  5
42
330
1F
100
AcDbEntity
  8
_U+30EC_U+30A4_U+30E4_U+30FC 1
 62
   179
420
  2234388
370
     9
100
AcDbSpline
210
0.0
220
0.0
230
1.0
 70
    11
 71
     3
 72
    17
 73
    13
 74
     0
 42
0.0000000001
 43
0.0000000001
 12
1.0
 22
0.0
 32
0.0
 13
1.0
 23
0.0
 33
0.0
 40
0.0
 40
0.0
 40
0.0
 40
0.0
 40
1.0
 40
1.0
 40
1.0
 40
2.0
 40
2.0
 40
2.0
 40
3.0
 40
3.0
 40
3.0
 40
4.0
 40
4.0
 40
4.0
 40
4.0
 10
104.9276089897403
 20
-141.9958071867231
 30
0.0
 10
104.9276089897403
 20
-141.9407032978482
 30
0.0
 10
104.8828414908825
 20
-141.8959005200814
 30
0.0
 10
104.8277023256225
 20
-141.8959005200814
 30
0.0
 10
104.7725984381394
 20
-141.8959005200814
 30
0.0
 10
104.7277956615047
 20
-141.9407032978482
 30
0.0
 10
104.7277956615047
 20
-141.9958071867231
 30
0.0
 10
104.7277956615047
 20
-142.0516166311535
 30
0.0
 10
104.7725984381394
 20
-142.0964194089202
 30
0.0
 10
104.8277023256225
 20
-142.0964194089202
 30
0.0
 10
104.8828414908825
 20
-142.0964194089202
 30
0.0
 10
104.9276089897403
 20
-142.0516166311535
 30
0.0
 10
104.9276089897403
 20
-141.9958071867231
 30
0.0
  0
SPLINE
  5
43
330
1F
100
AcDbEntity
  8
_U+30EC_U+30A4_U+30E4_U+30FC 1
 62
   179
420
  2234388
370
     9
100
AcDbSpline
210
0.0
220
0.0
230
1.0
 70
    11
 71
     3
 72
    17
 73
    13
 74
     0
 42
0.0000000001
 43
0.0000000001
 12
1.0
 22
0.0
 32
0.0
 13
1.0
 23
0.0
 33
0.0
 40
0.0
 40
0.0
 40
0.0
 40
0.0
 40
1.0
 40
1.0
 40
1.0
 40
2.0
 40
2.0
 40
2.0
 40
3.0
 40
3.0
 40
3.0
 40
4.0
 40
4.0
 40
4.0
 40
4.0
 10
86.92768778228992
 20
-141.9958071867231
 30
0.0
 10
86.92768778228992
 20
-141.9407032978482
 30
0.0
 10
86.88288500565517
 20
-141.8959005200814
 30
0.0
 10
86.82778331162646
 20
-141.8959005200814
 30
0.0
 10
86.77246556402775
 20
-141.8959005200814
 30
0.0
 10
86.72769806516986
 20
-141.9407032978482
 30
0.0
 10
86.72769806516986
 20
-141.9958071867231
 30
0.0
 10
86.72769806516986
 20
-142.0516166311535
 30
0.0
 10
86.77246556402775
 20
-142.0964194089202
 30
0.0
 10
86.82778331162646
 20
-142.0964194089202
 30
0.0
 10
86.88288500565517
 20
-142.0964194089202
 30
0.0
 10
86.92768778228992
 20
-142.0516166311535
 30
0.0
 10
86.92768778228992
 20
-141.9958071867231
 30
0.0
  0
SPLINE
  5
44
330
1F
100
AcDbEntity
  8
_U+30EC_U+30A4_U+30E4_U+30FC 1
 62
   179
420
  2234388
370
     9
100
AcDbSpline
210
0.0
220
0.0
230
1.0
 70
    11
 71
     3
 72
    17
 73
    13
 74
     0
 42
0.0000000001
 43
0.0000000001
 12
1.0
 22
0.0
 32
0.0
 13
1.0
 23
0.0
 33
0.0
 40
0.0
 40
0.0
 40
0.0
 40
0.0
 40
1.0
 40
1.0
 40
1.0
 40
2.0
 40
2.0
 40
2.0
 40
3.0
 40
3.0
 40
3.0
 40
4.0
 40
4.0
 40
4.0
 40
4.0
 10
94.92752341153044
 20
-141.9958071867231
 30
0.0
 10
94.92752341153044
 20
-141.9407032978482
 30
0.0
 10
94.88275830961291
 20
-141.8959005200814
 30
0.0
 10
94.82761674741262
 20
-141.8959005200814
 30
0.0
 10
94.77251285992955
 20
-141.8959005200814
 30
0.0
 10
94.72771008329478
 20
-141.9407032978482
 30
0.0
 10
94.72771008329478
 20
-141.9958071867231
 30
0.0
 10
94.72771008329478
 20
-142.0516166311535
 30
0.0
 10
94.77251285992955
 20
-142.0964194089202
 30
0.0
 10
94.82761674741262
 20
-142.0964194089202
 30
0.0
 10
94.88275830961291
 20
-142.0964194089202
 30
0.0
 10
94.92752341153044
 20
-142.0516166311535
 30
0.0
 10
94.92752341153044
 20
-141.9958071867231
 30
0.0
  0
POLYLINE
  5
45
330
1F
100
AcDbEntity
  8
_U+30EC_U+30A4_U+30E4_U+30FC 1
 62
   179
420
  2234388
370
     9
100
AcDb2dPolyline
 66
     1
 10
0.0
 20
0.0
 30
0.0
  0
VERTEX
  5
46
330
45
100
AcDbEntity
  8
_U+30EC_U+30A4_U+30E4_U+30FC 1
 62
   179
420
  2234388
370
     9
100
AcDbVertex
100
AcDb2dVertex
 10
86.82778331162646
 20
-141.9958071867231
 30
0.0
  0
VERTEX
  5
47
330
45
100
AcDbEntity
  8
_U+30EC_U+30A4_U+30E4_U+30FC 1
 62
   179
420
  2234388
370
     9
100
AcDbVertex
100
AcDb2dVertex
 10
94.82761674741262
 20
-141.9958071867231
 30
0.0
  0
SEQEND
  5
48
330
45
100
AcDbEntity
  8
_U+30EC_U+30A4_U+30E4_U+30FC 1
 62
   179
420
  2234388
370
     9
  0
POLYLINE
  5
49
330
1F
100
AcDbEntity
  8
_U+30EC_U+30A4_U+30E4_U+30FC 1
 62
   179
420
  2234388
370
     9
100
AcDb2dPolyline
 66
     1
 10
0.0
 20
0.0
 30
0.0
  0
VERTEX
  5
4A
330
49
100
AcDbEntity
  8
_U+30EC_U+30A4_U+30E4_U+30FC 1
 62
   179
420
  2234388
370
     9
100
AcDbVertex
100
AcDb2dVertex
 10
86.82778331162646
 20
-140.5357657981993
 30
0.0
  0
VERTEX
  5
4B
330
49
100
AcDbEntity
  8
_U+30EC_U+30A4_U+30E4_U+30FC 1
 62
   179
420
  2234388
370
     9
100
AcDbVertex
100
AcDb2dVertex
 10
86.82778331162646
 20
-142.9962849642511
 30
0.0
  0
SEQEND
  5
4C
330
49
100
AcDbEntity
  8
_U+30EC_U+30A4_U+30E4_U+30FC 1
 62
   179
420
  2234388
370
     9
  0
POLYLINE
  5
4D
330
1F
100
AcDbEntity
  8
_U+30EC_U+30A4_U+30E4_U+30FC 1
 62
   179
420
  2234388
370
     9
100
AcDb2dPolyline
 66
     1
 10
0.0
 20
0.0
 30
0.0
  0
VERTEX
  5
4E
330
4D
100
AcDbEntity
  8
_U+30EC_U+30A4_U+30E4_U+30FC 1
 62
   179
420
  2234388
370
     9
100
AcDbVertex
100
AcDb2dVertex
 10
94.82761674741262
 20
-140.5357657981993
 30
0.0
  0
VERTEX
  5
4F
330
4D
100
AcDbEntity
  8
_U+30EC_U+30A4_U+30E4_U+30FC 1
 62
   179
420
  2234388
370
     9
100
AcDbVertex
100
AcDb2dVertex
 10
94.82761674741262
 20
-142.9962849642511
 30
0.0
  0
SEQEND
  5
50
330
4D
100
AcDbEntity
  8
_U+30EC_U+30A4_U+30E4_U+30FC 1
 62
   179
420
  2234388
370
     9
  0
INSERT
  5
52
330
1F
100
AcDbEntity
  8
_U+30EC_U+30A4_U+30E4_U+30FC 1
100
AcDbBlockReference
  2
block 2
 10
0.0
 20
0.0
 30
0.0
  0
POLYLINE
  5
59
330
1F
100
AcDbEntity
  8
_U+30EC_U+30A4_U+30E4_U+30FC 1
 62
   179
420
  2234388
370
     9
100
AcDb2dPolyline
 66
     1
 10
0.0
 20
0.0
 30
0.0
  0
VERTEX
  5
5A
330
59
100
AcDbEntity
  8
_U+30EC_U+30A4_U+30E4_U+30FC 1
 62
   179
420
  2234388
370
     9
100
AcDbVertex
100
AcDb2dVertex
 10
76.82769553996219
 20
-141.9958071867231
 30
0.0
  0
VERTEX
  5
5B
330
59
100
AcDbEntity
  8
_U+30EC_U+30A4_U+30E4_U+30FC 1
 62
   179
420
  2234388
370
     9
100
AcDbVertex
100
AcDb2dVertex
 10
86.82778331162646
 20
-141.9958071867231
 30
0.0
  0
SEQEND
  5
5C
330
59
100
AcDbEntity
  8
_U+30EC_U+30A4_U+30E4_U+30FC 1
 62
   179
420
  2234388
370
     9
  0
POLYLINE
  5
5D
330
1F
100
AcDbEntity
  8
_U+30EC_U+30A4_U+30E4_U+30FC 1
 62
   179
420
  2234388
370
     9
100
AcDb2dPolyline
 66
     1
 10
0.0
 20
0.0
 30
0.0
  0
VERTEX
  5
5E
330
5D
100
AcDbEntity
  8
_U+30EC_U+30A4_U+30E4_U+30FC 1
 62
   179
420
  2234388
370
     9
100
AcDbVertex
100
AcDb2dVertex
 10
76.82769553996219
 20
-139.536028854005
 30
0.0
  0
VERTEX
  5
5F
330
5D
100
AcDbEntity
  8
_U+30EC_U+30A4_U+30E4_U+30FC 1
 62
   179
420
  2234388
370
     9
100
AcDbVertex
100
AcDb2dVertex
 10
76.82769553996219
 20
-142.9962849642511
 30
0.0
  0
SEQEND
  5
60
330
5D
100
AcDbEntity
  8
_U+30EC_U+30A4_U+30E4_U+30FC 1
 62
   179
420
  2234388
370
     9
  0
INSERT
  5
62
330
1F
100
AcDbEntity
  8
_U+30EC_U+30A4_U+30E4_U+30FC 1
100
AcDbBlockReference
  2
block 3
 10
0.0
 20
0.0
 30
0.0
  0
POLYLINE
  5
6A
330
1F
100
AcDbEntity
  8
_U+30EC_U+30A4_U+30E4_U+30FC 1
 62
   179
420
  2234388
370
     9
100
AcDb2dPolyline
 66
     1
 10
0.0
 20
0.0
 30
0.0
  0
VERTEX
  5
6B
330
6A
100
AcDbEntity
  8
_U+30EC_U+30A4_U+30E4_U+30FC 1
 62
   179
420
  2234388
370
     9
100
AcDbVertex
100
AcDb2dVertex
 10
94.82761674741262
 20
-141.9958071867231
 30
0.0
  0
VERTEX
  5
6C
330
6A
100
AcDbEntity
  8
_U+30EC_U+30A4_U+30E4_U+30FC 1
 62
   179
420
  2234388
370
     9
100
AcDbVertex
100
AcDb2dVertex
 10
104.8277023256225
 20
-141.9958071867231
 30
0.0
  0
SEQEND
  5
6D
330
6A
100
AcDbEntity
  8
_U+30EC_U+30A4_U+30E4_U+30FC 1
 62
   179
420
  2234388
370
     9
  0
POLYLINE
  5
6E
330
1F
100
AcDbEntity
  8
_U+30EC_U+30A4_U+30E4_U+30FC 1
 62
   179
420
  2234388
370
     9
100
AcDb2dPolyline
 66
     1
 10
0.0
 20
0.0
 30
0.0
  0
VERTEX
  5
6F
330
6E
100
AcDbEntity
  8
_U+30EC_U+30A4_U+30E4_U+30FC 1
 62
   179
420
  2234388
370
     9
100
AcDbVertex
100
AcDb2dVertex
 10
104.8277023256225
 20
-139.536028854005
 30
0.0
  0
VERTEX
  5
70
330
6E
100
AcDbEntity
  8
_U+30EC_U+30A4_U+30E4_U+30FC 1
 62
   179
420
  2234388
370
     9
100
AcDbVertex
100
AcDb2dVertex
 10
104.8277023256225
 20
-142.9962849642511
 30
0.0
  0
SEQEND
  5
71
330
6E
100
AcDbEntity
  8
_U+30EC_U+30A4_U+30E4_U+30FC 1
 62
   179
420
  2234388
370
     9
  0
INSERT
  5
73
330
1F
100
AcDbEntity
  8
_U+30EC_U+30A4_U+30E4_U+30FC 1
100
AcDbBlockReference
  2
block 4
 10
0.0
 20
0.0
 30
0.0
  0
POLYLINE
  5
7B
330
1F
100
AcDbEntity
  8
_U+30EC_U+30A4_U+30E4_U+30FC 1
 62
   179
420
  2234388
370
    25
100
AcDb2dPolyline
 66
     1
 10
0.0
 20
0.0
 30
0.0
  0
VERTEX
  5
7C
330
7B
100
AcDbEntity
  8
_U+30EC_U+30A4_U+30E4_U+30FC 1
 62
   179
420
  2234388
370
    25
100
AcDbVertex
100
AcDb2dVertex
 10
76.82769553996219
 20
-113.0168766384124
 30
0.0
  0
VERTEX
  5
7D
330
7B
100
AcDbEntity
  8
_U+30EC_U+30A4_U+30E4_U+30FC 1
 62
   179
420
  2234388
370
    25
100
AcDbVertex
100
AcDb2dVertex
 10
85.82765831187648
 20
-113.0168766384124
 30
0.0
  0
SEQEND
  5
7E
330
7B
100
AcDbEntity
  8
_U+30EC_U+30A4_U+30E4_U+30FC 1
 62
   179
420
  2234388
370
    25
  0
POLYLINE
  5
7F
330
1F
100
AcDbEntity
  8
_U+30EC_U+30A4_U+30E4_U+30FC 1
 62
   179
420
  2234388
370
    25
100
AcDb2dPolyline
 66
     1
 10
0.0
 20
0.0
 30
0.0
  0
VERTEX
  5
80
330
7F
100
AcDbEntity
  8
_U+30EC_U+30A4_U+30E4_U+30FC 1
 62
   179
420
  2234388
370
    25
100
AcDbVertex
100
AcDb2dVertex
 10
87.8276944259955
 20
-138.0167207988289
 30
0.0
  0
VERTEX
  5
81
330
7F
100
AcDbEntity
  8
_U+30EC_U+30A4_U+30E4_U+30FC 1
 62
   179
420
  2234388
370
    25
100
AcDbVertex
100
AcDb2dVertex
 10
93.82787982847358
 20
-138.0167207988289
 30
0.0
  0
SEQEND
  5
82
330
7F
100
AcDbEntity
  8
_U+30EC_U+30A4_U+30E4_U+30FC 1
 62
   179
420
  2234388
370
    25
  0
POLYLINE
  5
83
330
1F
100
AcDbEntity
  8
_U+30EC_U+30A4_U+30E4_U+30FC 1
 62
   179
420
  2234388
370
    25
100
AcDb2dPolyline
 66
     1
 10
0.0
 20
0.0
 30
0.0
  0
VERTEX
  5
84
330
83
100
AcDbEntity
  8
_U+30EC_U+30A4_U+30E4_U+30FC 1
 62
   179
420
  2234388
370
    25
100
AcDbVertex
100
AcDb2dVertex
 10
94.82761674741262
 20
-114.0166488603846
 30
0.0
  0
VERTEX
  5
85
330
83
100
AcDbEntity
  8
_U+30EC_U+30A4_U+30E4_U+30FC 1
 62
   179
420
  2234388
370
    25
100
AcDbVertex
100
AcDb2dVertex
 10
94.82761674741262
 20
-137.016948576857
 30
0.0
  0
SEQEND
  5
86
330
83
100
AcDbEntity
  8
_U+30EC_U+30A4_U+30E4_U+30FC 1
 62
   179
420
  2234388
370
    25
  0
POLYLINE
  5
87
330
1F
100
AcDbEntity
  8
_U+30EC_U+30A4_U+30E4_U+30FC 1
 62
   179
420
  2234388
370
    25
100
AcDb2dPolyline
 66
     1
 10
0.0
 20
0.0
 30
0.0
  0
VERTEX
  5
88
330
87
100
AcDbEntity
  8
_U+30EC_U+30A4_U+30E4_U+30FC 1
 62
   179
420
  2234388
370
    25
100
AcDbVertex
100
AcDb2dVertex
 10
86.82778331162646
 20
-114.0166488603846
 30
0.0
  0
VERTEX
  5
89
330
87
100
AcDbEntity
  8
_U+30EC_U+30A4_U+30E4_U+30FC 1
 62
   179
420
  2234388
370
    25
100
AcDbVertex
100
AcDb2dVertex
 10
86.82778331162646
 20
-137.016948576857
 30
0.0
  0
SEQEND
  5
8A
330
87
100
AcDbEntity
  8
_U+30EC_U+30A4_U+30E4_U+30FC 1
 62
   179
420
  2234388
370
    25
  0
POLYLINE
  5
8B
330
1F
100
AcDbEntity
  8
_U+30EC_U+30A4_U+30E4_U+30FC 1
 62
   179
420
  2234388
370
    25
100
AcDb2dPolyline
 66
     1
 10
0.0
 20
0.0
 30
0.0
  0
VERTEX
  5
8C
330
8B
100
AcDbEntity
  8
_U+30EC_U+30A4_U+30E4_U+30FC 1
 62
   179
420
  2234388
370
    25
100
AcDbVertex
100
AcDb2dVertex
 10
95.82738894412851
 20
-113.0168766384124
 30
0.0
  0
VERTEX
  5
8D
330
8B
100
AcDbEntity
  8
_U+30EC_U+30A4_U+30E4_U+30FC 1
 62
   179
420
  2234388
370
    25
100
AcDbVertex
100
AcDb2dVertex
 10
104.8277023256225
 20
-113.0168766384124
 30
0.0
  0
SEQEND
  5
8E
330
8B
100
AcDbEntity
  8
_U+30EC_U+30A4_U+30E4_U+30FC 1
 62
   179
420
  2234388
370
    25
  0
SPLINE
  5
8F
330
1F
100
AcDbEntity
  8
_U+30EC_U+30A4_U+30E4_U+30FC 1
 62
   179
420
  2234388
370
    25
100
AcDbSpline
210
0.0
220
0.0
230
1.0
 70
     8
 71
     3
 72
     8
 73
     4
 74
     0
 42
0.0000000001
 43
0.0000000001
 12
1.0
 22
0.0
 32
0.0
 13
1.0
 23
0.0
 33
0.0
 40
0.0
 40
0.0
 40
0.0
 40
0.0
 40
1.0
 40
1.0
 40
1.0
 40
1.0
 10
95.82738894412851
 20
-113.0168766384124
 30
0.0
 10
95.27550340265275
 20
-113.0168766384124
 30
0.0
 10
94.82761674741262
 20
-113.4647280271895
 30
0.0
 10
94.82761674741262
 20
-114.0166488603846
 30
0.0
  0
SPLINE
  5
90
330
1F
100
AcDbEntity
  8
_U+30EC_U+30A4_U+30E4_U+30FC 1
 62
   179
420
  2234388
370
    25
100
AcDbSpline
210
0.0
220
0.0
230
1.0
 70
     8
 71
     3
 72
     8
 73
     4
 74
     0
 42
0.0000000001
 43
0.0000000001
 12
1.0
 22
0.0
 32
0.0
 13
1.0
 23
0.0
 33
0.0
 40
0.0
 40
0.0
 40
0.0
 40
0.0
 40
1.0
 40
1.0
 40
1.0
 40
1.0
 10
93.82787982847358
 20
-138.0167207988289
 30
0.0
 10
94.37976536994937
 20
-138.0167207988289
 30
0.0
 10
94.82761674741262
 20
-137.5695396878299
 30
0.0
 10
94.82761674741262
 20
-137.016948576857
 30
0.0
  0
SPLINE
  5
91
330
1F
100
AcDbEntity
  8
_U+30EC_U+30A4_U+30E4_U+30FC 1
 62
   179
420
  2234388
370
    25
100
AcDbSpline
210
0.0
220
0.0
230
1.0
 70
     8
 71
     3
 72
     8
 73
     4
 74
     0
 42
0.0000000001
 43
0.0000000001
 12
1.0
 22
0.0
 32
0.0
 13
1.0
 23
0.0
 33
0.0
 40
0.0
 40
0.0
 40
0.0
 40
0.0
 40
1.0
 40
1.0
 40
1.0
 40
1.0
 10
86.82778331162646
 20
-137.016948576857
 30
0.0
 10
86.82778331162646
 20
-137.5695396878299
 30
0.0
 10
87.27545831151463
 20
-138.0167207988289
 30
0.0
 10
87.8276944259955
 20
-138.0167207988289
 30
0.0
  0
SPLINE
  5
92
330
1F
100
AcDbEntity
  8
_U+30EC_U+30A4_U+30E4_U+30FC 1
 62
   179
420
  2234388
370
    25
100
AcDbSpline
210
0.0
220
0.0
230
1.0
 70
     8
 71
     3
 72
     8
 73
     4
 74
     0
 42
0.0000000001
 43
0.0000000001
 12
1.0
 22
0.0
 32
0.0
 13
1.0
 23
0.0
 33
0.0
 40
0.0
 40
0.0
 40
0.0
 40
0.0
 40
1.0
 40
1.0
 40
1.0
 40
1.0
 10
86.82778331162646
 20
-114.0166488603846
 30
0.0
 10
86.82778331162646
 20
-113.4647280271895
 30
0.0
 10
86.38007085181636
 20
-113.0168766384124
 30
0.0
 10
85.82765831187648
 20
-113.0168766384124
 30
0.0
  0
SPLINE
  5
93
330
1F
100
AcDbEntity
  8
_U+30EC_U+30A4_U+30E4_U+30FC 1
 62
   179
420
  2234388
370
     9
100
AcDbSpline
210
0.0
220
0.0
230
1.0
 70
    11
 71
     3
 72
    17
 73
    13
 74
     0
 42
0.0000000001
 43
0.0000000001
 12
1.0
 22
0.0
 32
0.0
 13
1.0
 23
0.0
 33
0.0
 40
0.0
 40
0.0
 40
0.0
 40
0.0
 40
1.0
 40
1.0
 40
1.0
 40
2.0
 40
2.0
 40
2.0
 40
3.0
 40
3.0
 40
3.0
 40
4.0
 40
4.0
 40
4.0
 40
4.0
 10
98.92798803169232
 20
-138.0167207988289
 30
0.0
 10
98.92798803169232
 20
-137.961616909954
 30
0.0
 10
98.88318525505755
 20
-137.9168141321873
 30
0.0
 10
98.82737581203692
 20
-137.9168141321873
 30
0.0
 10
98.77227192455385
 20
-137.9168141321873
 30
0.0
 10
98.7274691479191
 20
-137.961616909954
 30
0.0
 10
98.7274691479191
 20
-138.0167207988289
 30
0.0
 10
98.7274691479191
 20
-138.0725302432593
 30
0.0
 10
98.77227192455385
 20
-138.1173330210261
 30
0.0
 10
98.82737581203692
 20
-138.1173330210261
 30
0.0
 10
98.88318525505755
 20
-138.1173330210261
 30
0.0
 10
98.92798803169232
 20
-138.0725302432593
 30
0.0
 10
98.92798803169232
 20
-138.0167207988289
 30
0.0
  0
SPLINE
  5
94
330
1F
100
AcDbEntity
  8
_U+30EC_U+30A4_U+30E4_U+30FC 1
 62
   179
420
  2234388
370
     9
100
AcDbSpline
210
0.0
220
0.0
230
1.0
 70
    11
 71
     3
 72
    17
 73
    13
 74
     0
 42
0.0000000001
 43
0.0000000001
 12
1.0
 22
0.0
 32
0.0
 13
1.0
 23
0.0
 33
0.0
 40
0.0
 40
0.0
 40
0.0
 40
0.0
 40
1.0
 40
1.0
 40
1.0
 40
2.0
 40
2.0
 40
2.0
 40
3.0
 40
3.0
 40
3.0
 40
4.0
 40
4.0
 40
4.0
 40
4.0
 10
98.92798803169232
 20
-113.0168766384124
 30
0.0
 10
98.92798803169232
 20
-112.9617374717596
 30
0.0
 10
98.88318525505755
 20
-112.9169699717708
 30
0.0
 10
98.82737581203692
 20
-112.9169699717708
 30
0.0
 10
98.77227192455385
 20
-112.9169699717708
 30
0.0
 10
98.7274691479191
 20
-112.9617374717596
 30
0.0
 10
98.7274691479191
 20
-113.0168766384124
 30
0.0
 10
98.7274691479191
 20
-113.0719805272876
 30
0.0
 10
98.77227192455385
 20
-113.116783305054
 30
0.0
 10
98.82737581203692
 20
-113.116783305054
 30
0.0
 10
98.88318525505755
 20
-113.116783305054
 30
0.0
 10
98.92798803169232
 20
-113.0719805272876
 30
0.0
 10
98.92798803169232
 20
-113.0168766384124
 30
0.0
  0
POLYLINE
  5
95
330
1F
100
AcDbEntity
  8
_U+30EC_U+30A4_U+30E4_U+30FC 1
 62
   179
420
  2234388
370
     9
100
AcDb2dPolyline
 66
     1
 10
0.0
 20
0.0
 30
0.0
  0
VERTEX
  5
96
330
95
100
AcDbEntity
  8
_U+30EC_U+30A4_U+30E4_U+30FC 1
 62
   179
420
  2234388
370
     9
100
AcDbVertex
100
AcDb2dVertex
 10
98.82737581203692
 20
-138.0167207988289
 30
0.0
  0
VERTEX
  5
97
330
95
100
AcDbEntity
  8
_U+30EC_U+30A4_U+30E4_U+30FC 1
 62
   179
420
  2234388
370
     9
100
AcDbVertex
100
AcDb2dVertex
 10
98.82737581203692
 20
-113.0168766384124
 30
0.0
  0
SEQEND
  5
98
330
95
100
AcDbEntity
  8
_U+30EC_U+30A4_U+30E4_U+30FC 1
 62
   179
420
  2234388
370
     9
  0
POLYLINE
  5
99
330
1F
100
AcDbEntity
  8
_U+30EC_U+30A4_U+30E4_U+30FC 1
 62
   179
420
  2234388
370
     9
100
AcDb2dPolyline
 66
     1
 10
0.0
 20
0.0
 30
0.0
  0
VERTEX
  5
9A
330
99
100
AcDbEntity
  8
_U+30EC_U+30A4_U+30E4_U+30FC 1
 62
   179
420
  2234388
370
     9
100
AcDbVertex
100
AcDb2dVertex
 10
96.36759997590799
 20
-138.0167207988289
 30
0.0
  0
VERTEX
  5
9B
330
99
100
AcDbEntity
  8
_U+30EC_U+30A4_U+30E4_U+30FC 1
 62
   179
420
  2234388
370
     9
100
AcDbVertex
100
AcDb2dVertex
 10
99.8278535642904
 20
-138.0167207988289
 30
0.0
  0
SEQEND
  5
9C
330
99
100
AcDbEntity
  8
_U+30EC_U+30A4_U+30E4_U+30FC 1
 62
   179
420
  2234388
370
     9
  0
INSERT
  5
9E
330
1F
100
AcDbEntity
  8
_U+30EC_U+30A4_U+30E4_U+30FC 1
100
AcDbBlockReference
  2
block 5
 10
0.0
 20
0.0
 30
0.0
  0
ENDSEC
  0
SECTION
  2
OBJECTS
  0
DICTIONARY
  5
C
330
0
100
AcDbDictionary
281
     1
  3
ACAD_GROUP
350
D
  3
ACAD_LAYOUT
350
1A
  3
ACAD_MATERIAL
350
3B
  3
ACAD_MLEADERSTYLE
350
A6
  3
ACAD_MLINESTYLE
350
17
  3
ACAD_PLOTSETTINGS
350
19
  3
ACAD_PLOTSTYLENAME
350
E
  3
ACAD_TABLESTYLE
350
A5
  3
ACAD_VISUALSTYLE
350
2A
  0
SUN
  5
3F
330
29
100
AcDbSun
 90
        1
290
     0
 63
     7
421
 16777215
 40
1.0
291
     1
 91
  2455826
 92
 54000000
292
     0
 70
     2
 71
   256
280
     1
  0
DICTIONARY
  5
D
102
{ACAD_REACTORS
330
C
102
}
330
C
100
AcDbDictionary
281
     1
  0
DICTIONARY
  5
1A
102
{ACAD_REACTORS
330
C
102
}
330
C
100
AcDbDictionary
281
     1
  3
Layout1
350
1E
  3
Layout2
350
26
  3
Model
350
22
  0
DICTIONARY
  5
3B
102
{ACAD_REACTORS
330
C
102
}
330
C
100
AcDbDictionary
281
     1
  3
ByBlock
350
3D
  3
ByLayer
350
3C
  3
Global
350
3E
  0
DICTIONARY
  5
A6
102
{ACAD_REACTORS
330
C
102
}
330
C
100
AcDbDictionary
281
     1
  0
DICTIONARY
  5
17
102
{ACAD_REACTORS
330
C
102
}
330
C
100
AcDbDictionary
281
     1
  3
Standard
350
18
  0
DICTIONARY
  5
19
102
{ACAD_REACTORS
330
C
102
}
330
C
100
AcDbDictionary
281
     1
  0
ACDBDICTIONARYWDFLT
  5
E
102
{ACAD_REACTORS
330
C
102
}
330
C
100
AcDbDictionary
281
     1
  3
Normal
350
F
100
AcDbDictionaryWithDefault
340
F
  0
DICTIONARY
  5
A5
102
{ACAD_REACTORS
330
C
102
}
330
C
100
AcDbDictionary
281
     1
  0
DICTIONARY
  5
2A
102
{ACAD_REACTORS
330
C
102
}
330
C
100
AcDbDictionary
281
     1
  3
2dWireframe
350
2F
  3
3D Hidden
350
31
  3
3dWireframe
350
30
  3
Basic
350
32
  3
Brighten
350
36
  3
ColorChange
350
3A
  3
Conceptual
350
34
  3
Dim
350
35
  3
Facepattern
350
39
  3
Flat
350
2B
  3
FlatWithEdges
350
2C
  3
Gouraud
350
2D
  3
GouraudWithEdges
350
2E
  3
Linepattern
350
38
  3
Realistic
350
33
  3
Thicken
350
37
  0
LAYOUT
  5
1E
102
{ACAD_REACTORS
330
1A
102
}
330
1A
100
AcDbPlotSettings
  1

  2
none_device
  4

  6

 40
0.0
 41
0.0
 42
0.0
 43
0.0
 44
0.0
 45
0.0
 46
0.0
 47
0.0
 48
0.0
 49
0.0
140
0.0
141
0.0
142
1.0
143
1.0
 70
   688
 72
     0
 73
     0
 74
     5
  7

 75
    16
 76
     0
 77
     2
 78
   300
147
1.0
148
0.0
149
0.0
100
AcDbLayout
  1
Layout1
 70
     1
 71
     1
 10
0.0
 20
0.0
 11
12.0
 21
9.0
 12
0.0
 22
0.0
 32
0.0
 14
1.000000000000000E+20
 24
1.000000000000000E+20
 34
1.000000000000000E+20
 15
-1.000000000000000E+20
 25
-1.000000000000000E+20
 35
-1.000000000000000E+20
146
0.0
 13
0.0
 23
0.0
 33
0.0
 16
1.0
 26
0.0
 36
0.0
 17
0.0
 27
1.0
 37
0.0
 76
     0
330
1B
  0
LAYOUT
  5
26
102
{ACAD_REACTORS
330
1A
102
}
330
1A
100
AcDbPlotSettings
  1

  2
none_device
  4

  6

 40
0.0
 41
0.0
 42
0.0
 43
0.0
 44
0.0
 45
0.0
 46
0.0
 47
0.0
 48
0.0
 49
0.0
140
0.0
141
0.0
142
1.0
143
1.0
 70
   688
 72
     0
 73
     0
 74
     5
  7

 75
    16
 76
     0
 77
     2
 78
   300
147
1.0
148
0.0
149
0.0
100
AcDbLayout
  1
Layout2
 70
     1
 71
     2
 10
0.0
 20
0.0
 11
0.0
 21
0.0
 12
0.0
 22
0.0
 32
0.0
 14
0.0
 24
0.0
 34
0.0
 15
0.0
 25
0.0
 35
0.0
146
0.0
 13
0.0
 23
0.0
 33
0.0
 16
1.0
 26
0.0
 36
0.0
 17
0.0
 27
1.0
 37
0.0
 76
     0
330
23
  0
LAYOUT
  5
22
102
{ACAD_REACTORS
330
1A
102
}
330
1A
100
AcDbPlotSettings
  1

  2
none_device
  4

  6

 40
0.0
 41
0.0
 42
0.0
 43
0.0
 44
0.0
 45
0.0
 46
0.0
 47
0.0
 48
0.0
 49
0.0
140
0.0
141
0.0
142
1.0
143
1.0
 70
  1712
 72
     0
 73
     0
 74
     0
  7

 75
     0
 76
     0
 77
     2
 78
   300
147
1.0
148
0.0
149
0.0
100
AcDbLayout
  1
Model
 70
     1
 71
     0
 10
0.0
 20
0.0
 11
12.0
 21
9.0
 12
0.0
 22
0.0
 32
0.0
 14
1.000000000000000E+20
 24
1.000000000000000E+20
 34
1.000000000000000E+20
 15
-1.000000000000000E+20
 25
-1.000000000000000E+20
 35
-1.000000000000000E+20
146
0.0
 13
0.0
 23
0.0
 33
0.0
 16
1.0
 26
0.0
 36
0.0
 17
0.0
 27
1.0
 37
0.0
 76
     0
330
1F
331
29
  0
MATERIAL
  5
3D
102
{ACAD_REACTORS
330
3B
102
}
330
3B
100
AcDbMaterial
  1
ByBlock
 72
     1
 94
      127
  0
MATERIAL
  5
3C
102
{ACAD_REACTORS
330
3B
102
}
330
3B
100
AcDbMaterial
  1
ByLayer
 72
     1
 94
      127
  0
MATERIAL
  5
3E
102
{ACAD_REACTORS
330
3B
102
}
330
3B
100
AcDbMaterial
  1
Global
 72
     1
 94
      127
  0
MLINESTYLE
  5
18
102
{ACAD_REACTORS
330
17
102
}
330
17
100
AcDbMlineStyle
  2
Standard
 70
     0
  3

 62
   256
 51
90.0
 52
90.0
 71
     2
 49
0.5
 62
   256
  6
BYLAYER
 49
-0.5
 62
   256
  6
BYLAYER
  0
ACDBPLACEHOLDER
  5
F
102
{ACAD_REACTORS
330
E
102
}
330
E
  0
VISUALSTYLE
  5
2F
102
{ACAD_REACTORS
330
2A
102
}
330
2A
100
AcDbVisualStyle
  2
2dWireframe
 70
     4
177
     2
291
     0
 71
     0
176
     1
 72
     2
176
     1
 73
     0
176
     1
 90
        0
176
     1
 40
-0.6
176
     1
 41
-30.0
176
     1
 62
     5
 63
     7
421
 16777215
176
     1
 74
     1
176
     1
 91
        4
176
     1
 64
     7
176
     1
 65
   257
176
     1
 75
     1
176
     1
175
     1
176
     1
 42
1.0
176
     1
 92
        0
176
     1
 66
   257
176
     1
 43
1.0
176
     1
 76
     1
176
     1
 77
     6
176
     1
 78
     2
176
     1
 67
     7
176
     1
 79
     5
176
     1
170
     0
176
     1
171
     0
176
     1
290
     0
176
     1
 93
        1
176
     1
 44
0.0
176
     1
173
     0
176
     1
  0
VISUALSTYLE
  5
31
102
{ACAD_REACTORS
330
2A
102
}
330
2A
100
AcDbVisualStyle
  2
3D Hidden
 70
     6
177
     2
291
     0
 71
     1
176
     1
 72
     2
176
     1
 73
     2
176
     1
 90
        0
176
     1
 40
-0.6
176
     1
 41
-30.0
176
     1
 62
     5
 63
     7
421
 16777215
176
     1
 74
     2
176
     1
 91
        2
176
     1
 64
     7
176
     1
 65
   257
176
     1
 75
     2
176
     1
175
     1
176
     1
 42
40.0
176
     1
 92
        0
176
     1
 66
   257
176
     1
 43
1.0
176
     1
 76
     1
176
     1
 77
     6
176
     1
 78
     2
176
     1
 67
     7
176
     1
 79
     3
176
     1
170
     0
176
     1
171
     0
176
     1
290
     0
176
     1
 93
        1
176
     1
 44
0.0
176
     1
173
     0
176
     1
  0
VISUALSTYLE
  5
30
102
{ACAD_REACTORS
330
2A
102
}
330
2A
100
AcDbVisualStyle
  2
3dWireframe
 70
     5
177
     2
291
     0
 71
     0
176
     1
 72
     2
176
     1
 73
     0
176
     1
 90
        0
176
     1
 40
-0.6
176
     1
 41
-30.0
176
     1
 62
     5
 63
     7
421
 16777215
176
     1
 74
     1
176
     1
 91
        4
176
     1
 64
     7
176
     1
 65
   257
176
     1
 75
     1
176
     1
175
     1
176
     1
 42
1.0
176
     1
 92
        0
176
     1
 66
   257
176
     1
 43
1.0
176
     1
 76
     1
176
     1
 77
     6
176
     1
 78
     2
176
     1
 67
     7
176
     1
 79
     5
176
     1
170
     0
176
     1
171
     0
176
     1
290
     0
176
     1
 93
        1
176
     1
 44
0.0
176
     1
173
     0
176
     1
  0
VISUALSTYLE
  5
32
102
{ACAD_REACTORS
330
2A
102
}
330
2A
100
AcDbVisualStyle
  2
Basic
 70
     7
177
     2
291
     1
 71
     1
176
     1
 72
     0
176
     1
 73
     1
176
     1
 90
        0
176
     1
 40
-0.6
176
     1
 41
-30.0
176
     1
 62
     5
 63
     7
421
 16777215
176
     1
 74
     0
176
     1
 91
        4
176
     1
 64
     7
176
     1
 65
   257
176
     1
 75
     1
176
     1
175
     1
176
     1
 42
1.0
176
     1
 92
        8
176
     1
 66
     7
176
     1
 43
1.0
176
     1
 76
     1
176
     1
 77
     6
176
     1
 78
     2
176
     1
 67
     7
176
     1
 79
     5
176
     1
170
     0
176
     1
171
     0
176
     1
290
     0
176
     1
 93
        1
176
     1
 44
0.0
176
     1
173
     0
176
     1
  0
VISUALSTYLE
  5
36
102
{ACAD_REACTORS
330
2A
102
}
330
2A
100
AcDbVisualStyle
  2
Brighten
 70
    12
177
     2
291
     1
 71
     2
176
     1
 72
     2
176
     1
 73
     0
176
     1
 90
        0
176
     1
 40
-0.6
176
     1
 41
-30.0
176
     1
 62
     5
 63
     7
421
 16777215
176
     1
 74
     1
176
     1
 91
        4
176
     1
 64
     7
176
     1
 65
   257
176
     1
 75
     1
176
     1
175
     1
176
     1
 42
1.0
176
     1
 92
        8
176
     1
 66
     7
176
     1
 43
1.0
176
     1
 76
     1
176
     1
 77
     6
176
     1
 78
     2
176
     1
 67
     7
176
     1
 79
     5
176
     1
170
     0
176
     1
171
     0
176
     1
290
     0
176
     1
 93
        1
176
     1
 44
50.0
176
     1
173
     0
176
     1
  0
VISUALSTYLE
  5
3A
102
{ACAD_REACTORS
330
2A
102
}
330
2A
100
AcDbVisualStyle
  2
ColorChange
 70
    16
177
     2
291
     1
 71
     2
176
     1
 72
     2
176
     1
 73
     3
176
     1
 90
        0
176
     1
 40
-0.6
176
     1
 41
-30.0
176
     1
 62
     5
 63
     8
421
  8421504
176
     1
 74
     1
176
     1
 91
        4
176
     1
 64
     7
176
     1
 65
   257
176
     1
 75
     1
176
     1
175
     1
176
     1
 42
1.0
176
     1
 92
        8
176
     1
 66
     8
424
  8421504
176
     1
 43
1.0
176
     1
 76
     1
176
     1
 77
     6
176
     1
 78
     2
176
     1
 67
     7
176
     1
 79
     5
176
     1
170
     0
176
     1
171
     0
176
     1
290
     0
176
     1
 93
        1
176
     1
 44
0.0
176
     1
173
     0
176
     1
  0
VISUALSTYLE
  5
34
102
{ACAD_REACTORS
330
2A
102
}
330
2A
100
AcDbVisualStyle
  2
Conceptual
 70
     9
177
     2
291
     0
 71
     3
176
     1
 72
     2
176
     1
 73
     0
176
     1
 90
        0
176
     1
 40
-0.6
176
     1
 41
-30.0
176
     1
 62
     5
 63
     7
421
 16777215
176
     1
 74
     2
176
     1
 91
        2
176
     1
 64
     7
176
     1
 65
   257
176
     1
 75
     1
176
     1
175
     1
176
     1
 42
40.0
176
     1
 92
        8
176
     1
 66
     7
176
     1
 43
1.0
176
     1
 76
     1
176
     1
 77
     6
176
     1
 78
     2
176
     1
 67
     7
176
     1
 79
     3
176
     1
170
     0
176
     1
171
     0
176
     1
290
     0
176
     1
 93
        1
176
     1
 44
0.0
176
     1
173
     0
176
     1
  0
VISUALSTYLE
  5
35
102
{ACAD_REACTORS
330
2A
102
}
330
2A
100
AcDbVisualStyle
  2
Dim
 70
    11
177
     2
291
     1
 71
     2
176
     1
 72
     2
176
     1
 73
     0
176
     1
 90
        0
176
     1
 40
-0.6
176
     1
 41
-30.0
176
     1
 62
     5
 63
     7
421
 16777215
176
     1
 74
     1
176
     1
 91
        4
176
     1
 64
     7
176
     1
 65
   257
176
     1
 75
     1
176
     1
175
     1
176
     1
 42
1.0
176
     1
 92
        8
176
     1
 66
     7
176
     1
 43
1.0
176
     1
 76
     1
176
     1
 77
     6
176
     1
 78
     2
176
     1
 67
     7
176
     1
 79
     5
176
     1
170
     0
176
     1
171
     0
176
     1
290
     0
176
     1
 93
        1
176
     1
 44
-50.0
176
     1
173
     0
176
     1
  0
VISUALSTYLE
  5
39
102
{ACAD_REACTORS
330
2A
102
}
330
2A
100
AcDbVisualStyle
  2
Facepattern
 70
    15
177
     2
291
     1
 71
     2
176
     1
 72
     2
176
     1
 73
     0
176
     1
 90
        0
176
     1
 40
-0.6
176
     1
 41
-30.0
176
     1
 62
     5
 63
     7
421
 16777215
176
     1
 74
     1
176
     1
 91
        4
176
     1
 64
     7
176
     1
 65
   257
176
     1
 75
     1
176
     1
175
     1
176
     1
 42
1.0
176
     1
 92
        8
176
     1
 66
     7
176
     1
 43
1.0
176
     1
 76
     1
176
     1
 77
     6
176
     1
 78
     2
176
     1
 67
     7
176
     1
 79
     5
176
     1
170
     0
176
     1
171
     0
176
     1
290
     0
176
     1
 93
        1
176
     1
 44
0.0
176
     1
173
     0
176
     1
  0
VISUALSTYLE
  5
2B
102
{ACAD_REACTORS
330
2A
102
}
330
2A
100
AcDbVisualStyle
  2
Flat
 70
     0
177
     2
291
     1
 71
     2
176
     1
 72
     1
176
     1
 73
     1
176
     1
 90
        2
176
     1
 40
-0.6
176
     1
 41
30.0
176
     1
 62
     5
 63
     7
421
 16777215
176
     1
 74
     0
176
     1
 91
        4
176
     1
 64
     7
176
     1
 65
   257
176
     1
 75
     1
176
     1
175
     1
176
     1
 42
1.0
176
     1
 92
        8
176
     1
 66
     7
176
     1
 43
1.0
176
     1
 76
     1
176
     1
 77
     6
176
     1
 78
     2
176
     1
 67
     7
176
     1
 79
     5
176
     1
170
     0
176
     1
171
     0
176
     1
290
     0
176
     1
 93
       13
176
     1
 44
0.0
176
     1
173
     0
176
     1
  0
VISUALSTYLE
  5
2C
102
{ACAD_REACTORS
330
2A
102
}
330
2A
100
AcDbVisualStyle
  2
FlatWithEdges
 70
     1
177
     2
291
     1
 71
     2
176
     1
 72
     1
176
     1
 73
     1
176
     1
 90
        2
176
     1
 40
-0.6
176
     1
 41
30.0
176
     1
 62
     5
 63
     7
421
 16777215
176
     1
 74
     1
176
     1
 91
        4
176
     1
 64
     7
176
     1
 65
   257
176
     1
 75
     1
176
     1
175
     1
176
     1
 42
1.0
176
     1
 92
        0
176
     1
 66
   257
176
     1
 43
1.0
176
     1
 76
     1
176
     1
 77
     6
176
     1
 78
     2
176
     1
 67
     7
176
     1
 79
     5
176
     1
170
     0
176
     1
171
     0
176
     1
290
     0
176
     1
 93
       13
176
     1
 44
0.0
176
     1
173
     0
176
     1
  0
VISUALSTYLE
  5
2D
102
{ACAD_REACTORS
330
2A
102
}
330
2A
100
AcDbVisualStyle
  2
Gouraud
 70
     2
177
     2
291
     1
 71
     2
176
     1
 72
     2
176
     1
 73
     1
176
     1
 90
        2
176
     1
 40
-0.6
176
     1
 41
30.0
176
     1
 62
     5
 63
     7
421
 16777215
176
     1
 74
     0
176
     1
 91
        4
176
     1
 64
     7
176
     1
 65
   257
176
     1
 75
     1
176
     1
175
     1
176
     1
 42
1.0
176
     1
 92
        0
176
     1
 66
     7
176
     1
 43
1.0
176
     1
 76
     1
176
     1
 77
     6
176
     1
 78
     2
176
     1
 67
     7
176
     1
 79
     5
176
     1
170
     0
176
     1
171
     0
176
     1
290
     0
176
     1
 93
       13
176
     1
 44
0.0
176
     1
173
     0
176
     1
  0
VISUALSTYLE
  5
2E
102
{ACAD_REACTORS
330
2A
102
}
330
2A
100
AcDbVisualStyle
  2
GouraudWithEdges
 70
     3
177
     2
291
     1
 71
     2
176
     1
 72
     2
176
     1
 73
     1
176
     1
 90
        2
176
     1
 40
-0.6
176
     1
 41
30.0
176
     1
 62
     5
 63
     7
421
 16777215
176
     1
 74
     1
176
     1
 91
        4
176
     1
 64
     7
176
     1
 65
   257
176
     1
 75
     1
176
     1
175
     1
176
     1
 42
1.0
176
     1
 92
        0
176
     1
 66
   257
176
     1
 43
1.0
176
     1
 76
     1
176
     1
 77
     6
176
     1
 78
     2
176
     1
 67
     7
176
     1
 79
     5
176
     1
170
     0
176
     1
171
     0
176
     1
290
     0
176
     1
 93
       13
176
     1
 44
0.0
176
     1
173
     0
176
     1
  0
VISUALSTYLE
  5
38
102
{ACAD_REACTORS
330
2A
102
}
330
2A
100
AcDbVisualStyle
  2
Linepattern
 70
    14
177
     2
291
     1
 71
     2
176
     1
 72
     2
176
     1
 73
     0
176
     1
 90
        0
176
     1
 40
-0.6
176
     1
 41
-30.0
176
     1
 62
     5
 63
     7
421
 16777215
176
     1
 74
     1
176
     1
 91
        4
176
     1
 64
     7
176
     1
 65
   257
176
     1
 75
     7
176
     1
175
     7
176
     1
 42
1.0
176
     1
 92
        8
176
     1
 66
     7
176
     1
 43
1.0
176
     1
 76
     1
176
     1
 77
     6
176
     1
 78
     2
176
     1
 67
     7
176
     1
 79
     5
176
     1
170
     0
176
     1
171
     0
176
     1
290
     0
176
     1
 93
        1
176
     1
 44
0.0
176
     1
173
     0
176
     1
  0
VISUALSTYLE
  5
33
102
{ACAD_REACTORS
330
2A
102
}
330
2A
100
AcDbVisualStyle
  2
Realistic
 70
     8
177
     2
291
     0
 71
     2
176
     1
 72
     2
176
     1
 73
     0
176
     1
 90
        0
176
     1
 40
-0.6
176
     1
 41
-30.0
176
     1
 62
     5
 63
     7
421
 16777215
176
     1
 74
     1
176
     1
 91
        0
176
     1
 64
     7
176
     1
 65
   257
176
     1
 75
     1
176
     1
175
     1
176
     1
 42
1.0
176
     1
 92
        8
176
     1
 66
     8
424
  7895160
176
     1
 43
1.0
176
     1
 76
     1
176
     1
 77
     6
176
     1
 78
     2
176
     1
 67
     7
176
     1
 79
     5
176
     1
170
     0
176
     1
171
     0
176
     1
290
     0
176
     1
 93
       13
176
     1
 44
0.0
176
     1
173
     0
176
     1
  0
VISUALSTYLE
  5
37
102
{ACAD_REACTORS
330
2A
102
}
330
2A
100
AcDbVisualStyle
  2
Thicken
 70
    13
177
     2
291
     1
 71
     2
176
     1
 72
     2
176
     1
 73
     0
176
     1
 90
        0
176
     1
 40
-0.6
176
     1
 41
-30.0
176
     1
 62
     5
 63
     7
421
 16777215
176
     1
 74
     1
176
     1
 91
        4
176
     1
 64
     7
176
     1
 65
   257
176
     1
 75
     1
176
     1
175
     1
176
     1
 42
1.0
176
     1
 92
       12
176
     1
 66
     7
176
     1
 43
1.0
176
     1
 76
     1
176
     1
 77
     6
176
     1
 78
     2
176
     1
 67
     7
176
     1
 79
     5
176
     1
170
     0
176
     1
171
     0
176
     1
290
     0
176
     1
 93
        1
176
     1
 44
0.0
176
     1
173
     0
176
     1
  0
ENDSEC
  0
EOF
