  0
SECTION
  2
HEADER
  9
$ACADVER
  1
AC1024
  9
$ACADMAINTVER
 70
     6
  9
$DWGCODEPAGE
  3
UNDEFINED
  9
$INSBASE
 10
0.0
 20
0.0
 30
0.0
  9
$EXTMIN
 10
1.000000000000000E+20
 20
1.000000000000000E+20
 30
1.000000000000000E+20
  9
$EXTMAX
 10
-1.000000000000000E+20
 20
-1.000000000000000E+20
 30
-1.000000000000000E+20
  9
$LIMMIN
 10
0.0
 20
0.0
  9
$LIMMAX
 10
12.0
 20
9.0
  9
$ORTHOMODE
 70
     0
  9
$REGENMODE
 70
     1
  9
$FILLMODE
 70
     1
  9
$QTEXTMODE
 70
     0
  9
$MIRRTEXT
 70
     1
  9
$LTSCALE
 40
1.0
  9
$ATTMODE
 70
     1
  9
$TEXTSIZE
 40
0.2
  9
$TRACEWID
 40
0.05
  9
$TEXTSTYLE
  7
Standard
  9
$CLAYER
  8
0
  9
$CELTYPE
  6
ByLayer
  9
$CECOLOR
 62
   256
  9
$CELTSCALE
 40
1.0
  9
$DISPSILH
 70
     0
  9
$DIMSCALE
 40
1.0
  9
$DIMASZ
 40
0.18
  9
$DIMEXO
 40
0.0625
  9
$DIMDLI
 40
0.38
  9
$DIMRND
 40
0.0
  9
$DIMDLE
 40
0.0
  9
$DIMEXE
 40
0.18
  9
$DIMTP
 40
0.0
  9
$DIMTM
 40
0.0
  9
$DIMTXT
 40
0.18
  9
$DIMCEN
 40
0.09
  9
$DIMTSZ
 40
0.0
  9
$DIMTOL
 70
     0
  9
$DIMLIM
 70
     0
  9
$DIMTIH
 70
     1
  9
$DIMTOH
 70
     1
  9
$DIMSE1
 70
     0
  9
$DIMSE2
 70
     0
  9
$DIMTAD
 70
     0
  9
$DIMZIN
 70
     0
  9
$DIMBLK
  1

  9
$DIMASO
 70
     1
  9
$DIMSHO
 70
     1
  9
$DIMPOST
  1

  9
$DIMAPOST
  1

  9
$DIMALT
 70
     0
  9
$DIMALTD
 70
     2
  9
$DIMALTF
 40
25.4
  9
$DIMLFAC
 40
1.0
  9
$DIMTOFL
 70
     0
  9
$DIMTVP
 40
0.0
  9
$DIMTIX
 70
     0
  9
$DIMSOXD
 70
     0
  9
$DIMSAH
 70
     0
  9
$DIMBLK1
  1

  9
$DIMBLK2
  1

  9
$DIMSTYLE
  2
Standard
  9
$DIMCLRD
 70
     0
  9
$DIMCLRE
 70
     0
  9
$DIMCLRT
 70
     0
  9
$DIMTFAC
 40
1.0
  9
$DIMGAP
 40
0.09
  9
$DIMJUST
 70
     0
  9
$DIMSD1
 70
     0
  9
$DIMSD2
 70
     0
  9
$DIMTOLJ
 70
     1
  9
$DIMTZIN
 70
     0
  9
$DIMALTZ
 70
     0
  9
$DIMALTTZ
 70
     0
  9
$DIMUPT
 70
     0
  9
$DIMDEC
 70
     4
  9
$DIMTDEC
 70
     4
  9
$DIMALTU
 70
     2
  9
$DIMALTTD
 70
     2
  9
$DIMTXSTY
  7
Standard
  9
$DIMAUNIT
 70
     0
  9
$DIMADEC
 70
     0
  9
$DIMALTRND
 40
0.0
  9
$DIMAZIN
 70
     0
  9
$DIMDSEP
 70
    46
  9
$DIMATFIT
 70
     3
  9
$DIMFRAC
 70
     0
  9
$DIMLDRBLK
  1

  9
$DIMLUNIT
 70
     2
  9
$DIMLWD
 70
    -2
  9
$DIMLWE
 70
    -2
  9
$DIMTMOVE
 70
     0
  9
$DIMFXL
 40
1.0
  9
$DIMFXLON
 70
     0
  9
$DIMJOGANG
 40
0.7853981633974483
  9
$DIMTFILL
 70
     0
  9
$DIMTFILLCLR
 70
     0
  9
$DIMARCSYM
 70
     0
  9
$DIMLTYPE
  6

  9
$DIMLTEX1
  6

  9
$DIMLTEX2
  6

  9
$DIMTXTDIRECTION
 70
     0
  9
$LUNITS
 70
     2
  9
$LUPREC
 70
     4
  9
$SKETCHINC
 40
0.1
  9
$FILLETRAD
 40
0.5
  9
$AUNITS
 70
     0
  9
$AUPREC
 70
     0
  9
$MENU
  1
.
  9
$ELEVATION
 40
0.0
  9
$PELEVATION
 40
0.0
  9
$THICKNESS
 40
0.0
  9
$LIMCHECK
 70
     0
  9
$CHAMFERA
 40
0.5
  9
$CHAMFERB
 40
0.5
  9
$CHAMFERC
 40
1.0
  9
$CHAMFERD
 40
0.0
  9
$SKPOLY
 70
     0
  9
$TDCREATE
 40
2457917.624803241
  9
$TDUCREATE
 40
2457917.249803241
  9
$TDUPDATE
 40
2457917.624803241
  9
$TDUUPDATE
 40
2457917.249803241
  9
$TDINDWG
 40
0.0000000116
  9
$TDUSRTIMER
 40
0.0000000116
  9
$USRTIMER
 70
     1
  9
$ANGBASE
 50
0.0
  9
$ANGDIR
 70
     0
  9
$PDMODE
 70
     0
  9
$PDSIZE
 40
0.0
  9
$PLINEWID
 40
0.0
  9
$SPLFRAME
 70
     0
  9
$SPLINETYPE
 70
     6
  9
$SPLINESEGS
 70
     8
  9
$HANDSEED
  5
B0
  9
$SURFTAB1
 70
     6
  9
$SURFTAB2
 70
     6
  9
$SURFTYPE
 70
     6
  9
$SURFU
 70
     6
  9
$SURFV
 70
     6
  9
$UCSBASE
  2

  9
$UCSNAME
  2

  9
$UCSORG
 10
0.0
 20
0.0
 30
0.0
  9
$UCSXDIR
 10
1.0
 20
0.0
 30
0.0
  9
$UCSYDIR
 10
0.0
 20
1.0
 30
0.0
  9
$UCSORTHOREF
  2

  9
$UCSORTHOVIEW
 70
     0
  9
$UCSORGTOP
 10
0.0
 20
0.0
 30
0.0
  9
$UCSORGBOTTOM
 10
0.0
 20
0.0
 30
0.0
  9
$UCSORGLEFT
 10
0.0
 20
0.0
 30
0.0
  9
$UCSORGRIGHT
 10
0.0
 20
0.0
 30
0.0
  9
$UCSORGFRONT
 10
0.0
 20
0.0
 30
0.0
  9
$UCSORGBACK
 10
0.0
 20
0.0
 30
0.0
  9
$PUCSBASE
  2

  9
$PUCSNAME
  2

  9
$PUCSORG
 10
0.0
 20
0.0
 30
0.0
  9
$PUCSXDIR
 10
1.0
 20
0.0
 30
0.0
  9
$PUCSYDIR
 10
0.0
 20
1.0
 30
0.0
  9
$PUCSORTHOREF
  2

  9
$PUCSORTHOVIEW
 70
     0
  9
$PUCSORGTOP
 10
0.0
 20
0.0
 30
0.0
  9
$PUCSORGBOTTOM
 10
0.0
 20
0.0
 30
0.0
  9
$PUCSORGLEFT
 10
0.0
 20
0.0
 30
0.0
  9
$PUCSORGRIGHT
 10
0.0
 20
0.0
 30
0.0
  9
$PUCSORGFRONT
 10
0.0
 20
0.0
 30
0.0
  9
$PUCSORGBACK
 10
0.0
 20
0.0
 30
0.0
  9
$USERI1
 70
     0
  9
$USERI2
 70
     0
  9
$USERI3
 70
     0
  9
$USERI4
 70
     0
  9
$USERI5
 70
     0
  9
$USERR1
 40
0.0
  9
$USERR2
 40
0.0
  9
$USERR3
 40
0.0
  9
$USERR4
 40
0.0
  9
$USERR5
 40
0.0
  9
$WORLDVIEW
 70
     1
  9
$SHADEDGE
 70
     3
  9
$SHADEDIF
 70
    70
  9
$TILEMODE
 70
     1
  9
$MAXACTVP
 70
    64
  9
$PINSBASE
 10
0.0
 20
0.0
 30
0.0
  9
$PLIMCHECK
 70
     0
  9
$PEXTMIN
 10
1.000000000000000E+20
 20
1.000000000000000E+20
 30
1.000000000000000E+20
  9
$PEXTMAX
 10
-1.000000000000000E+20
 20
-1.000000000000000E+20
 30
-1.000000000000000E+20
  9
$PLIMMIN
 10
0.0
 20
0.0
  9
$PLIMMAX
 10
12.0
 20
9.0
  9
$UNITMODE
 70
     0
  9
$VISRETAIN
 70
     1
  9
$PLINEGEN
 70
     0
  9
$PSLTSCALE
 70
     1
  9
$TREEDEPTH
 70
  3020
  9
$CMLSTYLE
  2
Standard
  9
$CMLJUST
 70
     0
  9
$CMLSCALE
 40
1.0
  9
$PROXYGRAPHICS
 70
     1
  9
$MEASUREMENT
 70
     0
  9
$CELWEIGHT
370
    -1
  9
$ENDCAPS
280
     0
  9
$JOINSTYLE
280
     0
  9
$LWDISPLAY
290
     1
  9
$INSUNITS
 70
     1
  9
$HYPERLINKBASE
  1

  9
$STYLESHEET
  1

  9
$XEDIT
290
     1
  9
$CEPSNTYPE
380
     0
  9
$PSTYLEMODE
290
     1
  9
$FINGERPRINTGUID
  2
{EFD91CAE-29E7-7BC2-05A4-7A1488BD6811}
  9
$VERSIONGUID
  2
{FAEB1C32-E019-11D5-929B-00C0DF256EC4}
  9
$EXTNAMES
290
     1
  9
$PSVPSCALE
 40
0.0
  9
$OLESTARTUP
290
     0
  9
$SORTENTS
280
   127
  9
$INDEXCTL
280
     0
  9
$HIDETEXT
280
     1
  9
$XCLIPFRAME
280
     2
  9
$HALOGAP
280
     0
  9
$OBSCOLOR
 70
   257
  9
$OBSLTYPE
280
     0
  9
$INTERSECTIONDISPLAY
280
     0
  9
$INTERSECTIONCOLOR
 70
   257
  9
$DIMASSOC
280
     2
  9
$PROJECTNAME
  1

  9
$CAMERADISPLAY
290
     0
  9
$LENSLENGTH
 40
50.0
  9
$CAMERAHEIGHT
 40
0.0
  9
$STEPSPERSEC
 40
2.0
  9
$STEPSIZE
 40
6.0
  9
$3DDWFPREC
 40
2.0
  9
$PSOLWIDTH
 40
0.25
  9
$PSOLHEIGHT
 40
4.0
  9
$LOFTANG1
 40
1.570796326794897
  9
$LOFTANG2
 40
1.570796326794897
  9
$LOFTMAG1
 40
0.0
  9
$LOFTMAG2
 40
0.0
  9
$LOFTPARAM
 70
     7
  9
$LOFTNORMALS
280
     1
  9
$LATITUDE
 40
37.795
  9
$LONGITUDE
 40
-122.394
  9
$NORTHDIRECTION
 40
0.0
  9
$TIMEZONE
 70
 -8000
  9
$LIGHTGLYPHDISPLAY
280
     1
  9
$TILEMODELIGHTSYNCH
280
     1
  9
$CMATERIAL
347
3C
  9
$SOLIDHIST
280
     1
  9
$SHOWHIST
280
     1
  9
$DWFFRAME
280
     2
  9
$DGNFRAME
280
     2
  9
$REALWORLDSCALE
290
     1
  9
$INTERFERECOLOR
 62
   256
  9
$CSHADOW
280
     0
  9
$SHADOWPLANELOCATION
 40
0.0
  0
ENDSEC
  0
SECTION
  2
CLASSES
  0
CLASS
  1
ACDBDICTIONARYWDFLT
  2
AcDbDictionaryWithDefault
  3
ObjectDBX Classes
 90
        0
 91
        4
280
     0
281
     0
  0
CLASS
  1
VISUALSTYLE
  2
AcDbVisualStyle
  3
ObjectDBX Classes
 90
     4095
 91
        4
280
     0
281
     0
  0
CLASS
  1
MATERIAL
  2
AcDbMaterial
  3
ObjectDBX Classes
 90
     1153
 91
        4
280
     0
281
     0
  0
CLASS
  1
SUN
  2
AcDbSun
  3
SCENEOE
 90
     1024
 91
        4
280
     0
281
     0
  0
ENDSEC
  0
SECTION
  2
TABLES
  0
TABLE
  2
VPORT
  5
8
330
0
100
AcDbSymbolTable
 70
     1
  0
VPORT
  5
29
330
8
100
AcDbSymbolTableRecord
100
AcDbViewportTableRecord
  2
*Active
 70
     0
 10
0.0
 20
0.0
 11
1.0
 21
1.0
 12
0.0
 22
0.0
 13
0.0
 23
0.0
 14
0.5
 24
0.5
 15
0.5
 25
0.5
 16
0.0
 26
0.0
 36
1.0
 17
91.00082462281999
 27
-128.4993055234307
 37
0.0
 40
256.9986110468615
 41
0.7081814508812795
 42
50.0
 43
0.0
 44
0.0
 50
0.0
 51
0.0
 71
     0
 72
   100
 73
     1
 74
     3
 75
     0
 76
     0
 77
     0
 78
     0
281
     0
 65
     1
110
0.0
120
0.0
130
0.0
111
1.0
121
0.0
131
0.0
112
0.0
122
1.0
132
0.0
 79
     0
146
0.0
 60
     3
 61
     5
292
     1
282
     1
141
0.0
142
0.0
 63
   250
361
3F
  0
ENDTAB
  0
TABLE
  2
LTYPE
  5
5
330
0
100
AcDbSymbolTable
 70
     1
  0
LTYPE
  5
14
330
5
100
AcDbSymbolTableRecord
100
AcDbLinetypeTableRecord
  2
ByBlock
 70
     0
  3

 72
    65
 73
     0
 40
0.0
  0
LTYPE
  5
15
330
5
100
AcDbSymbolTableRecord
100
AcDbLinetypeTableRecord
  2
ByLayer
 70
     0
  3

 72
    65
 73
     0
 40
0.0
  0
LTYPE
  5
16
330
5
100
AcDbSymbolTableRecord
100
AcDbLinetypeTableRecord
  2
Continuous
 70
     0
  3
Solid line
 72
    65
 73
     0
 40
0.0
  0
ENDTAB
  0
TABLE
  2
LAYER
  5
2
330
0
100
AcDbSymbolTable
 70
     2
  0
LAYER
  5
10
330
2
100
AcDbSymbolTableRecord
100
AcDbLayerTableRecord
  2
0
 70
     0
 62
     7
  6
Continuous
370
    -3
390
F
347
3E
  0
LAYER
  5
40
330
2
100
AcDbSymbolTableRecord
100
AcDbLayerTableRecord
  2
_U+30EC_U+30A4_U+30E4_U+30FC 1
 70
     0
 62
     7
  6
Continuous
370
    -3
390
F
347
3E
  0
ENDTAB
  0
TABLE
  2
STYLE
  5
3
330
0
100
AcDbSymbolTable
 70
     1
  0
STYLE
  5
11
330
3
100
AcDbSymbolTableRecord
100
AcDbTextStyleTableRecord
  2
Standard
 70
     0
 40
0.0
 41
1.0
 50
0.0
 71
     0
 42
0.2
  3
txt
  4

  0
ENDTAB
  0
TABLE
  2
VIEW
  5
6
330
0
100
AcDbSymbolTable
 70
     0
  0
ENDTAB
  0
TABLE
  2
UCS
  5
7
330
0
100
AcDbSymbolTable
 70
     0
  0
ENDTAB
  0
TABLE
  2
APPID
  5
9
330
0
100
AcDbSymbolTable
 70
     1
  0
APPID
  5
12
330
9
100
AcDbSymbolTableRecord
100
AcDbRegAppTableRecord
  2
ACAD
 70
     0
  0
ENDTAB
  0
TABLE
  2
DIMSTYLE
  5
A
330
0
100
AcDbSymbolTable
 70
     1
100
AcDbDimStyleTable
  0
DIMSTYLE
105
27
330
A
100
AcDbSymbolTableRecord
100
AcDbDimStyleTableRecord
  2
Standard
 70
     0
178
     0
340
11
  0
ENDTAB
  0
TABLE
  2
BLOCK_RECORD
  5
1
330
0
100
AcDbSymbolTable
 70
     4
  0
BLOCK_RECORD
  5
1F
330
1
100
AcDbSymbolTableRecord
100
AcDbBlockTableRecord
  2
*Model_Space
340
22
 70
     0
280
     1
281
     0
  0
BLOCK_RECORD
  5
1B
330
1
100
AcDbSymbolTableRecord
100
AcDbBlockTableRecord
  2
*Paper_Space
340
1E
 70
     0
280
     1
281
     0
  0
BLOCK_RECORD
  5
23
330
1
100
AcDbSymbolTableRecord
100
AcDbBlockTableRecord
  2
*Paper_Space0
340
26
 70
     0
280
     1
281
     0
  0
BLOCK_RECORD
  5
63
330
1
100
AcDbSymbolTableRecord
100
AcDbBlockTableRecord
  2
block 2
340
0
102
{BLKREFS
331
64
102
}
 70
     0
280
     1
281
     0
  0
BLOCK_RECORD
  5
6B
330
1
100
AcDbSymbolTableRecord
100
AcDbBlockTableRecord
  2
block 3
340
0
102
{BLKREFS
331
6C
102
}
 70
     0
280
     1
281
     0
  0
BLOCK_RECORD
  5
73
330
1
100
AcDbSymbolTableRecord
100
AcDbBlockTableRecord
  2
block 4
340
0
102
{BLKREFS
331
74
102
}
 70
     0
280
     1
281
     0
  0
ENDTAB
  0
ENDSEC
  0
SECTION
  2
BLOCKS
  0
BLOCK
  5
20
330
1F
100
AcDbEntity
  8
0
100
AcDbBlockBegin
  2
*Model_Space
 70
     0
 10
0.0
 20
0.0
 30
0.0
  3
*Model_Space
  1

  0
ENDBLK
  5
21
330
1F
100
AcDbEntity
  8
0
100
AcDbBlockEnd
  0
BLOCK
  5
1C
330
1B
100
AcDbEntity
 67
     1
  8
0
100
AcDbBlockBegin
  2
*Paper_Space
 70
     0
 10
0.0
 20
0.0
 30
0.0
  3
*Paper_Space
  1

  0
ENDBLK
  5
1D
330
1B
100
AcDbEntity
 67
     1
  8
0
100
AcDbBlockEnd
  0
BLOCK
  5
24
330
23
100
AcDbEntity
  8
0
100
AcDbBlockBegin
  2
*Paper_Space0
 70
     0
 10
0.0
 20
0.0
 30
0.0
  3
*Paper_Space0
  1

  0
ENDBLK
  5
25
330
23
100
AcDbEntity
  8
0
100
AcDbBlockEnd
  0
BLOCK
  5
65
330
63
100
AcDbEntity
  8
0
100
AcDbBlockBegin
  2
block 2
 70
     0
 10
0.0
 20
0.0
 30
0.0
  3
block 2
  1

  0
SPLINE
  5
67
330
63
100
AcDbEntity
  8
_U+30EC_U+30A4_U+30E4_U+30FC 1
370
     0
100
AcDbSpline
210
0.0
220
0.0
230
1.0
 70
    11
 71
     3
 72
    44
 73
    40
 74
     0
 42
0.0000000001
 43
0.0000000001
 12
1.0
 22
0.0
 32
0.0
 13
1.0
 23
0.0
 33
0.0
 40
0.0
 40
0.0
 40
0.0
 40
0.0
 40
1.0
 40
1.0
 40
1.0
 40
2.0
 40
2.0
 40
2.0
 40
3.0
 40
3.0
 40
3.0
 40
4.0
 40
4.0
 40
4.0
 40
5.0
 40
5.0
 40
5.0
 40
6.0
 40
6.0
 40
6.0
 40
7.0
 40
7.0
 40
7.0
 40
8.0
 40
8.0
 40
8.0
 40
9.0
 40
9.0
 40
9.0
 40
10.0
 40
10.0
 40
10.0
 40
11.0
 40
11.0
 40
11.0
 40
12.0
 40
12.0
 40
12.0
 40
13.0
 40
13.0
 40
13.0
 40
13.0
 10
87.75312769073534
 20
-136.2300997923314
 30
0.0
 10
87.52023923593245
 20
-136.3889186942014
 30
0.0
 10
87.42084823118299
 20
-136.4629882471343
 30
0.0
 10
87.3688272893557
 20
-136.6066487288692
 30
0.0
 10
87.3688272893557
 20
-136.6066487288692
 30
0.0
 10
88.20081784904355
 20
-136.6066487288692
 30
0.0
 10
88.20081784904355
 20
-136.6066487288692
 30
0.0
 10
88.20081784904355
 20
-136.6066487288692
 30
0.0
 10
88.20081784904355
 20
-136.8119764197901
 30
0.0
 10
88.20081784904355
 20
-136.8119764197901
 30
0.0
 10
88.20081784904355
 20
-136.8119764197901
 30
0.0
 10
87.10200464402311
 20
-136.8119764197901
 30
0.0
 10
87.10200464402311
 20
-136.8119764197901
 30
0.0
 10
87.13593883455283
 20
-136.4543755084211
 30
0.0
 10
87.20604652767766
 20
-136.376171840906
 30
0.0
 10
87.61756318339076
 20
-136.0778265718833
 30
0.0
 10
87.89110376491959
 20
-135.8790445623844
 30
0.0
 10
87.96121145804442
 20
-135.811176181325
 30
0.0
 10
87.96121145804442
 20
-135.6737168714635
 30
0.0
 10
87.96121145804442
 20
-135.5552055867709
 30
0.0
 10
87.88421357394908
 20
-135.4242919583314
 30
0.0
 10
87.67406274934885
 20
-135.4242919583314
 30
0.0
 10
87.39604354368919
 20
-135.4242919583314
 30
0.0
 10
87.38691404065328
 20
-135.6547688462946
 30
0.0
 10
87.38243541652245
 20
-135.7712130736961
 30
0.0
 10
87.38243541652245
 20
-135.7712130736961
 30
0.0
 10
87.14282902552333
 20
-135.7712130736961
 30
0.0
 10
87.14282902552333
 20
-135.7712130736961
 30
0.0
 10
87.15178627378498
 20
-135.6440890502904
 30
0.0
 10
87.1631550888863
 20
-135.5321234470198
 30
0.0
 10
87.24893796646901
 20
-135.4136121623272
 30
0.0
 10
87.36658797729031
 20
-135.252726203166
 30
0.0
 10
87.56554224156348
 20
-135.2189642674105
 30
0.0
 10
87.689910188581
 20
-135.2189642674105
 30
0.0
 10
87.98601614553822
 20
-135.2189642674105
 30
0.0
 10
88.20770804001405
 20
-135.4029323663229
 30
0.0
 10
88.20770804001405
 20
-135.6757839287547
 30
0.0
 10
88.20770804001405
 20
-135.9045382689753
 30
0.0
 10
88.08334009299654
 20
-136.0037570189505
 30
0.0
 10
87.75312769073534
 20
-136.2300997923314
 30
0.0
  0
HATCH
  5
68
330
63
100
AcDbEntity
  8
_U+30EC_U+30A4_U+30E4_U+30FC 1
 62
   179
420
  2234388
100
AcDbHatch
 10
0.0
 20
0.0
 30
0.0
210
0.0
220
0.0
230
1.0
  2
SOLID
 70
     1
 71
     0
 91
        1
 92
        1
 93
        1
 72
     4
 94
        3
 73
     0
 74
     1
 95
       44
 96
       40
 40
0.0
 40
0.0
 40
0.0
 40
0.0
 40
1.0
 40
1.0
 40
1.0
 40
2.0
 40
2.0
 40
2.0
 40
3.0
 40
3.0
 40
3.0
 40
4.0
 40
4.0
 40
4.0
 40
5.0
 40
5.0
 40
5.0
 40
6.0
 40
6.0
 40
6.0
 40
7.0
 40
7.0
 40
7.0
 40
8.0
 40
8.0
 40
8.0
 40
9.0
 40
9.0
 40
9.0
 40
10.0
 40
10.0
 40
10.0
 40
11.0
 40
11.0
 40
11.0
 40
12.0
 40
12.0
 40
12.0
 40
13.0
 40
13.0
 40
13.0
 40
13.0
 10
87.75312769073534
 20
-136.2300997923314
 10
87.52023923593245
 20
-136.3889186942014
 10
87.42084823118299
 20
-136.4629882471343
 10
87.3688272893557
 20
-136.6066487288692
 10
87.3688272893557
 20
-136.6066487288692
 10
88.20081784904355
 20
-136.6066487288692
 10
88.20081784904355
 20
-136.6066487288692
 10
88.20081784904355
 20
-136.6066487288692
 10
88.20081784904355
 20
-136.8119764197901
 10
88.20081784904355
 20
-136.8119764197901
 10
88.20081784904355
 20
-136.8119764197901
 10
87.10200464402311
 20
-136.8119764197901
 10
87.10200464402311
 20
-136.8119764197901
 10
87.13593883455283
 20
-136.4543755084211
 10
87.20604652767766
 20
-136.376171840906
 10
87.61756318339076
 20
-136.0778265718833
 10
87.89110376491959
 20
-135.8790445623844
 10
87.96121145804442
 20
-135.811176181325
 10
87.96121145804442
 20
-135.6737168714635
 10
87.96121145804442
 20
-135.5552055867709
 10
87.88421357394908
 20
-135.4242919583314
 10
87.67406274934885
 20
-135.4242919583314
 10
87.39604354368919
 20
-135.4242919583314
 10
87.38691404065328
 20
-135.6547688462946
 10
87.38243541652245
 20
-135.7712130736961
 10
87.38243541652245
 20
-135.7712130736961
 10
87.14282902552333
 20
-135.7712130736961
 10
87.14282902552333
 20
-135.7712130736961
 10
87.15178627378498
 20
-135.6440890502904
 10
87.1631550888863
 20
-135.5321234470198
 10
87.24893796646901
 20
-135.4136121623272
 10
87.36658797729031
 20
-135.252726203166
 10
87.56554224156348
 20
-135.2189642674105
 10
87.689910188581
 20
-135.2189642674105
 10
87.98601614553822
 20
-135.2189642674105
 10
88.20770804001405
 20
-135.4029323663229
 10
88.20770804001405
 20
-135.6757839287547
 10
88.20770804001405
 20
-135.9045382689753
 10
88.08334009299654
 20
-136.0037570189505
 10
87.75312769073534
 20
-136.2300997923314
 97
        0
 97
        0
 75
     2
 76
     1
 98
        0
  0
SPLINE
  5
69
330
63
100
AcDbEntity
  8
_U+30EC_U+30A4_U+30E4_U+30FC 1
370
     0
100
AcDbSpline
210
0.0
220
0.0
230
1.0
 70
    11
 71
     3
 72
    26
 73
    22
 74
     0
 42
0.0000000001
 43
0.0000000001
 12
1.0
 22
0.0
 32
0.0
 13
1.0
 23
0.0
 33
0.0
 40
0.0
 40
0.0
 40
0.0
 40
0.0
 40
1.0
 40
1.0
 40
1.0
 40
2.0
 40
2.0
 40
2.0
 40
3.0
 40
3.0
 40
3.0
 40
4.0
 40
4.0
 40
4.0
 40
5.0
 40
5.0
 40
5.0
 40
6.0
 40
6.0
 40
6.0
 40
7.0
 40
7.0
 40
7.0
 40
7.0
 10
88.8591755962748
 20
-136.8119764197901
 30
0.0
 10
88.8591755962748
 20
-136.8119764197901
 30
0.0
 10
88.8591755962748
 20
-135.7078233167675
 30
0.0
 10
88.8591755962748
 20
-135.7078233167675
 30
0.0
 10
88.8591755962748
 20
-135.7078233167675
 30
0.0
 10
88.50674232813374
 20
-135.7078233167675
 30
0.0
 10
88.50674232813374
 20
-135.7078233167675
 30
0.0
 10
88.50674232813374
 20
-135.7078233167675
 30
0.0
 10
88.50674232813374
 20
-135.5596842109018
 30
0.0
 10
88.50674232813374
 20
-135.5596842109018
 30
0.0
 10
88.86158716311446
 20
-135.5448703003152
 30
0.0
 10
88.91119653810206
 20
-135.3819172838629
 30
0.0
 10
88.94289141656637
 20
-135.2675401137526
 30
0.0
 10
88.94289141656637
 20
-135.2675401137526
 30
0.0
 10
89.09895424204818
 20
-135.2675401137526
 30
0.0
 10
89.09895424204818
 20
-135.2675401137526
 30
0.0
 10
89.09895424204818
 20
-135.2675401137526
 30
0.0
 10
89.09895424204818
 20
-136.8119764197901
 30
0.0
 10
89.09895424204818
 20
-136.8119764197901
 30
0.0
 10
89.09895424204818
 20
-136.8119764197901
 30
0.0
 10
88.8591755962748
 20
-136.8119764197901
 30
0.0
 10
88.8591755962748
 20
-136.8119764197901
 30
0.0
  0
HATCH
  5
6A
330
63
100
AcDbEntity
  8
_U+30EC_U+30A4_U+30E4_U+30FC 1
 62
   179
420
  2234388
100
AcDbHatch
 10
0.0
 20
0.0
 30
0.0
210
0.0
220
0.0
230
1.0
  2
SOLID
 70
     1
 71
     0
 91
        1
 92
        1
 93
        1
 72
     4
 94
        3
 73
     0
 74
     1
 95
       26
 96
       22
 40
0.0
 40
0.0
 40
0.0
 40
0.0
 40
1.0
 40
1.0
 40
1.0
 40
2.0
 40
2.0
 40
2.0
 40
3.0
 40
3.0
 40
3.0
 40
4.0
 40
4.0
 40
4.0
 40
5.0
 40
5.0
 40
5.0
 40
6.0
 40
6.0
 40
6.0
 40
7.0
 40
7.0
 40
7.0
 40
7.0
 10
88.8591755962748
 20
-136.8119764197901
 10
88.8591755962748
 20
-136.8119764197901
 10
88.8591755962748
 20
-135.7078233167675
 10
88.8591755962748
 20
-135.7078233167675
 10
88.8591755962748
 20
-135.7078233167675
 10
88.50674232813374
 20
-135.7078233167675
 10
88.50674232813374
 20
-135.7078233167675
 10
88.50674232813374
 20
-135.7078233167675
 10
88.50674232813374
 20
-135.5596842109018
 10
88.50674232813374
 20
-135.5596842109018
 10
88.86158716311446
 20
-135.5448703003152
 10
88.91119653810206
 20
-135.3819172838629
 10
88.94289141656637
 20
-135.2675401137526
 10
88.94289141656637
 20
-135.2675401137526
 10
89.09895424204818
 20
-135.2675401137526
 10
89.09895424204818
 20
-135.2675401137526
 10
89.09895424204818
 20
-135.2675401137526
 10
89.09895424204818
 20
-136.8119764197901
 10
89.09895424204818
 20
-136.8119764197901
 10
89.09895424204818
 20
-136.8119764197901
 10
88.8591755962748
 20
-136.8119764197901
 10
88.8591755962748
 20
-136.8119764197901
 97
        0
 97
        0
 75
     2
 76
     1
 98
        0
  0
ENDBLK
  5
66
330
63
100
AcDbEntity
  8
0
100
AcDbBlockEnd
  0
BLOCK
  5
6D
330
6B
100
AcDbEntity
  8
0
100
AcDbBlockBegin
  2
block 3
 70
     0
 10
0.0
 20
0.0
 30
0.0
  3
block 3
  1

  0
SPLINE
  5
6F
330
6B
100
AcDbEntity
  8
_U+30EC_U+30A4_U+30E4_U+30FC 1
370
     0
100
AcDbSpline
210
0.0
220
0.0
230
1.0
 70
    11
 71
     3
 72
    26
 73
    22
 74
     0
 42
0.0000000001
 43
0.0000000001
 12
1.0
 22
0.0
 32
0.0
 13
1.0
 23
0.0
 33
0.0
 40
0.0
 40
0.0
 40
0.0
 40
0.0
 40
1.0
 40
1.0
 40
1.0
 40
2.0
 40
2.0
 40
2.0
 40
3.0
 40
3.0
 40
3.0
 40
4.0
 40
4.0
 40
4.0
 40
5.0
 40
5.0
 40
5.0
 40
6.0
 40
6.0
 40
6.0
 40
7.0
 40
7.0
 40
7.0
 40
7.0
 10
87.6017157441586
 20
-121.311802812554
 30
0.0
 10
87.6017157441586
 20
-121.311802812554
 30
0.0
 10
87.6017157441586
 20
-120.2074774547572
 30
0.0
 10
87.6017157441586
 20
-120.2074774547572
 30
0.0
 10
87.6017157441586
 20
-120.2074774547572
 30
0.0
 10
87.24893796646901
 20
-120.2074774547572
 30
0.0
 10
87.24893796646901
 20
-120.2074774547572
 30
0.0
 10
87.24893796646901
 20
-120.2074774547572
 30
0.0
 10
87.24893796646901
 20
-120.0595106036657
 30
0.0
 10
87.24893796646901
 20
-120.0595106036657
 30
0.0
 10
87.60395505622401
 20
-120.0446966930791
 30
0.0
 10
87.65373668598588
 20
-119.8817436766268
 30
0.0
 10
87.68543156445017
 20
-119.7675387612908
 30
0.0
 10
87.68543156445017
 20
-119.7675387612908
 30
0.0
 10
87.84132213515772
 20
-119.7675387612908
 30
0.0
 10
87.84132213515772
 20
-119.7675387612908
 30
0.0
 10
87.84132213515772
 20
-119.7675387612908
 30
0.0
 10
87.84132213515772
 20
-121.311802812554
 30
0.0
 10
87.84132213515772
 20
-121.311802812554
 30
0.0
 10
87.84132213515772
 20
-121.311802812554
 30
0.0
 10
87.6017157441586
 20
-121.311802812554
 30
0.0
 10
87.6017157441586
 20
-121.311802812554
 30
0.0
  0
HATCH
  5
70
330
6B
100
AcDbEntity
  8
_U+30EC_U+30A4_U+30E4_U+30FC 1
 62
   179
420
  2234388
100
AcDbHatch
 10
0.0
 20
0.0
 30
0.0
210
0.0
220
0.0
230
1.0
  2
SOLID
 70
     1
 71
     0
 91
        1
 92
        1
 93
        1
 72
     4
 94
        3
 73
     0
 74
     1
 95
       26
 96
       22
 40
0.0
 40
0.0
 40
0.0
 40
0.0
 40
1.0
 40
1.0
 40
1.0
 40
2.0
 40
2.0
 40
2.0
 40
3.0
 40
3.0
 40
3.0
 40
4.0
 40
4.0
 40
4.0
 40
5.0
 40
5.0
 40
5.0
 40
6.0
 40
6.0
 40
6.0
 40
7.0
 40
7.0
 40
7.0
 40
7.0
 10
87.6017157441586
 20
-121.311802812554
 10
87.6017157441586
 20
-121.311802812554
 10
87.6017157441586
 20
-120.2074774547572
 10
87.6017157441586
 20
-120.2074774547572
 10
87.6017157441586
 20
-120.2074774547572
 10
87.24893796646901
 20
-120.2074774547572
 10
87.24893796646901
 20
-120.2074774547572
 10
87.24893796646901
 20
-120.2074774547572
 10
87.24893796646901
 20
-120.0595106036657
 10
87.24893796646901
 20
-120.0595106036657
 10
87.60395505622401
 20
-120.0446966930791
 10
87.65373668598588
 20
-119.8817436766268
 10
87.68543156445017
 20
-119.7675387612908
 10
87.68543156445017
 20
-119.7675387612908
 10
87.84132213515772
 20
-119.7675387612908
 10
87.84132213515772
 20
-119.7675387612908
 10
87.84132213515772
 20
-119.7675387612908
 10
87.84132213515772
 20
-121.311802812554
 10
87.84132213515772
 20
-121.311802812554
 10
87.84132213515772
 20
-121.311802812554
 10
87.6017157441586
 20
-121.311802812554
 10
87.6017157441586
 20
-121.311802812554
 97
        0
 97
        0
 75
     2
 76
     1
 98
        0
  0
SPLINE
  5
71
330
6B
100
AcDbEntity
  8
_U+30EC_U+30A4_U+30E4_U+30FC 1
370
     0
100
AcDbSpline
210
0.0
220
0.0
230
1.0
 70
    11
 71
     3
 72
    62
 73
    58
 74
     0
 42
0.0000000001
 43
0.0000000001
 12
1.0
 22
0.0
 32
0.0
 13
1.0
 23
0.0
 33
0.0
 40
0.0
 40
0.0
 40
0.0
 40
0.0
 40
1.0
 40
1.0
 40
1.0
 40
2.0
 40
2.0
 40
2.0
 40
3.0
 40
3.0
 40
3.0
 40
4.0
 40
4.0
 40
4.0
 40
5.0
 40
5.0
 40
5.0
 40
6.0
 40
6.0
 40
6.0
 40
7.0
 40
7.0
 40
7.0
 40
8.0
 40
8.0
 40
8.0
 40
9.0
 40
9.0
 40
9.0
 40
10.0
 40
10.0
 40
10.0
 40
11.0
 40
11.0
 40
11.0
 40
12.0
 40
12.0
 40
12.0
 40
13.0
 40
13.0
 40
13.0
 40
14.0
 40
14.0
 40
14.0
 40
15.0
 40
15.0
 40
15.0
 40
16.0
 40
16.0
 40
16.0
 40
17.0
 40
17.0
 40
17.0
 40
18.0
 40
18.0
 40
18.0
 40
19.0
 40
19.0
 40
19.0
 40
19.0
 10
88.90223928984042
 20
-121.3626179709614
 30
0.0
 10
88.80060897302555
 20
-121.3626179709614
 30
0.0
 10
88.56772051822266
 20
-121.3414306337271
 30
0.0
 10
88.43439532294349
 20
-121.1552232227494
 30
0.0
 10
88.35515812678274
 20
-121.0430853647045
 30
0.0
 10
88.35067950265191
 20
-120.9436943599551
 30
0.0
 10
88.34620087852109
 20
-120.8591172657922
 30
0.0
 10
88.34620087852109
 20
-120.8591172657922
 30
0.0
 10
88.58115639061513
 20
-120.8591172657922
 30
0.0
 10
88.58115639061513
 20
-120.8591172657922
 30
0.0
 10
88.5835679574548
 20
-120.933186818725
 30
0.0
 10
88.59493677255612
 20
-121.1679700760448
 30
0.0
 10
88.8977606657096
 20
-121.1679700760448
 30
0.0
 10
89.04486624292976
 20
-121.1679700760448
 30
0.0
 10
89.20747474983355
 20
-121.0982068924685
 30
0.0
 10
89.20747474983355
 20
-120.8696248070222
 30
0.0
 10
89.20747474983355
 20
-120.753352834395
 30
0.0
 10
89.1668226231076
 20
-120.7046047332787
 30
0.0
 10
89.13271617780363
 20
-120.6729098548144
 30
0.0
 10
89.05382349119141
 20
-120.5988403018816
 30
0.0
 10
88.92945554417389
 20
-120.5862657033604
 30
0.0
 10
88.87054441137612
 20
-120.5862657033604
 30
0.0
 10
88.85021834801314
 20
-120.5862657033604
 30
0.0
 10
88.81197778812687
 20
-120.5883327606515
 30
0.0
 10
88.78234996695372
 20
-120.5924668752338
 30
0.0
 10
88.78234996695372
 20
-120.5924668752338
 30
0.0
 10
88.78234996695372
 20
-120.3978189803172
 30
0.0
 10
88.78234996695372
 20
-120.3978189803172
 30
0.0
 10
88.82300209367968
 20
-120.4041924069649
 30
0.0
 10
88.86847735408497
 20
-120.4064317190303
 30
0.0
 10
88.87502303550694
 20
-120.4064317190303
 30
0.0
 10
88.94530298340604
 20
-120.4064317190303
 30
0.0
 10
89.15786537484595
 20
-120.3852443817961
 30
0.0
 10
89.15786537484595
 20
-120.1482218124109
 30
0.0
 10
89.15786537484595
 20
-119.9706271401462
 30
0.0
 10
89.01764998859629
 20
-119.9155056123822
 30
0.0
 10
88.90017223254927
 20
-119.9155056123822
 30
0.0
 10
88.61732989321025
 20
-119.9155056123822
 30
0.0
 10
88.6083726449486
 20
-120.1482218124109
 30
0.0
 10
88.60389402081778
 20
-120.2202243080526
 30
0.0
 10
88.60389402081778
 20
-120.2202243080526
 30
0.0
 10
88.38685300524705
 20
-120.2202243080526
 30
0.0
 10
88.38685300524705
 20
-120.2202243080526
 30
0.0
 10
88.39581025350869
 20
-120.0953395967123
 30
0.0
 10
88.42509356513331
 20
-119.7187906601745
 30
0.0
 10
88.91360810494174
 20
-119.7187906601745
 30
0.0
 10
89.15338675071513
 20
-119.7187906601745
 30
0.0
 10
89.41107989301182
 20
-119.8457424288059
 30
0.0
 10
89.41107989301182
 20
-120.1418483857632
 30
0.0
 10
89.41107989301182
 20
-120.3280557967409
 30
0.0
 10
89.30910506664843
 20
-120.4105658336126
 30
0.0
 10
89.20299612570273
 20
-120.4718885332501
 30
0.0
 10
89.26845293992247
 20
-120.4994492971321
 30
0.0
 10
89.4631008348391
 20
-120.5798922767127
 30
0.0
 10
89.4631008348391
 20
-120.857050208501
 30
0.0
 10
89.4631008348391
 20
-121.1955308399268
 30
0.0
 10
89.1985175015719
 20
-121.3626179709614
 30
0.0
 10
88.90223928984042
 20
-121.3626179709614
 30
0.0
  0
HATCH
  5
72
330
6B
100
AcDbEntity
  8
_U+30EC_U+30A4_U+30E4_U+30FC 1
 62
   179
420
  2234388
100
AcDbHatch
 10
0.0
 20
0.0
 30
0.0
210
0.0
220
0.0
230
1.0
  2
SOLID
 70
     1
 71
     0
 91
        1
 92
        1
 93
        1
 72
     4
 94
        3
 73
     0
 74
     1
 95
       62
 96
       58
 40
0.0
 40
0.0
 40
0.0
 40
0.0
 40
1.0
 40
1.0
 40
1.0
 40
2.0
 40
2.0
 40
2.0
 40
3.0
 40
3.0
 40
3.0
 40
4.0
 40
4.0
 40
4.0
 40
5.0
 40
5.0
 40
5.0
 40
6.0
 40
6.0
 40
6.0
 40
7.0
 40
7.0
 40
7.0
 40
8.0
 40
8.0
 40
8.0
 40
9.0
 40
9.0
 40
9.0
 40
10.0
 40
10.0
 40
10.0
 40
11.0
 40
11.0
 40
11.0
 40
12.0
 40
12.0
 40
12.0
 40
13.0
 40
13.0
 40
13.0
 40
14.0
 40
14.0
 40
14.0
 40
15.0
 40
15.0
 40
15.0
 40
16.0
 40
16.0
 40
16.0
 40
17.0
 40
17.0
 40
17.0
 40
18.0
 40
18.0
 40
18.0
 40
19.0
 40
19.0
 40
19.0
 40
19.0
 10
88.90223928984042
 20
-121.3626179709614
 10
88.80060897302555
 20
-121.3626179709614
 10
88.56772051822266
 20
-121.3414306337271
 10
88.43439532294349
 20
-121.1552232227494
 10
88.35515812678274
 20
-121.0430853647045
 10
88.35067950265191
 20
-120.9436943599551
 10
88.34620087852109
 20
-120.8591172657922
 10
88.34620087852109
 20
-120.8591172657922
 10
88.58115639061513
 20
-120.8591172657922
 10
88.58115639061513
 20
-120.8591172657922
 10
88.5835679574548
 20
-120.933186818725
 10
88.59493677255612
 20
-121.1679700760448
 10
88.8977606657096
 20
-121.1679700760448
 10
89.04486624292976
 20
-121.1679700760448
 10
89.20747474983355
 20
-121.0982068924685
 10
89.20747474983355
 20
-120.8696248070222
 10
89.20747474983355
 20
-120.753352834395
 10
89.1668226231076
 20
-120.7046047332787
 10
89.13271617780363
 20
-120.6729098548144
 10
89.05382349119141
 20
-120.5988403018816
 10
88.92945554417389
 20
-120.5862657033604
 10
88.87054441137612
 20
-120.5862657033604
 10
88.85021834801314
 20
-120.5862657033604
 10
88.81197778812687
 20
-120.5883327606515
 10
88.78234996695372
 20
-120.5924668752338
 10
88.78234996695372
 20
-120.5924668752338
 10
88.78234996695372
 20
-120.3978189803172
 10
88.78234996695372
 20
-120.3978189803172
 10
88.82300209367968
 20
-120.4041924069649
 10
88.86847735408497
 20
-120.4064317190303
 10
88.87502303550694
 20
-120.4064317190303
 10
88.94530298340604
 20
-120.4064317190303
 10
89.15786537484595
 20
-120.3852443817961
 10
89.15786537484595
 20
-120.1482218124109
 10
89.15786537484595
 20
-119.9706271401462
 10
89.01764998859629
 20
-119.9155056123822
 10
88.90017223254927
 20
-119.9155056123822
 10
88.61732989321025
 20
-119.9155056123822
 10
88.6083726449486
 20
-120.1482218124109
 10
88.60389402081778
 20
-120.2202243080526
 10
88.60389402081778
 20
-120.2202243080526
 10
88.38685300524705
 20
-120.2202243080526
 10
88.38685300524705
 20
-120.2202243080526
 10
88.39581025350869
 20
-120.0953395967123
 10
88.42509356513331
 20
-119.7187906601745
 10
88.91360810494174
 20
-119.7187906601745
 10
89.15338675071513
 20
-119.7187906601745
 10
89.41107989301182
 20
-119.8457424288059
 10
89.41107989301182
 20
-120.1418483857632
 10
89.41107989301182
 20
-120.3280557967409
 10
89.30910506664843
 20
-120.4105658336126
 10
89.20299612570273
 20
-120.4718885332501
 10
89.26845293992247
 20
-120.4994492971321
 10
89.4631008348391
 20
-120.5798922767127
 10
89.4631008348391
 20
-120.857050208501
 10
89.4631008348391
 20
-121.1955308399268
 10
89.1985175015719
 20
-121.3626179709614
 10
88.90223928984042
 20
-121.3626179709614
 97
        0
 97
        0
 75
     2
 76
     1
 98
        0
  0
ENDBLK
  5
6E
330
6B
100
AcDbEntity
  8
0
100
AcDbBlockEnd
  0
BLOCK
  5
75
330
73
100
AcDbEntity
  8
0
100
AcDbBlockBegin
  2
block 4
 70
     0
 10
0.0
 20
0.0
 30
0.0
  3
block 4
  1

  0
SPLINE
  5
77
330
73
100
AcDbEntity
  8
_U+30EC_U+30A4_U+30E4_U+30FC 1
370
     0
100
AcDbSpline
210
0.0
220
0.0
230
1.0
 70
    11
 71
     3
 72
    32
 73
    28
 74
     0
 42
0.0000000001
 43
0.0000000001
 12
1.0
 22
0.0
 32
0.0
 13
1.0
 23
0.0
 33
0.0
 40
0.0
 40
0.0
 40
0.0
 40
0.0
 40
1.0
 40
1.0
 40
1.0
 40
2.0
 40
2.0
 40
2.0
 40
3.0
 40
3.0
 40
3.0
 40
4.0
 40
4.0
 40
4.0
 40
5.0
 40
5.0
 40
5.0
 40
6.0
 40
6.0
 40
6.0
 40
7.0
 40
7.0
 40
7.0
 40
8.0
 40
8.0
 40
8.0
 40
9.0
 40
9.0
 40
9.0
 40
9.0
 10
101.4818331994559
 20
-131.8314018767644
 30
0.0
 10
101.4818331994559
 20
-132.3829616639529
 30
0.0
 10
100.9278618454278
 20
-132.3919189122145
 30
0.0
 10
100.7139214157937
 20
-132.3919189122145
 30
0.0
 10
100.4834445278305
 20
-132.3919189122145
 30
0.0
 10
99.83611108615209
 20
-132.3715928488515
 30
0.0
 10
99.83611108615209
 20
-131.7904052404899
 30
0.0
 10
99.83611108615209
 20
-131.6050591033835
 30
0.0
 10
99.90604652450266
 20
-131.342887336956
 30
0.0
 10
100.2381537292807
 20
-131.30223521023
 30
0.0
 10
100.2381537292807
 20
-131.30223521023
 30
0.0
 10
100.2381537292807
 20
-131.5306450409021
 30
0.0
 10
100.2381537292807
 20
-131.5306450409021
 30
0.0
 10
100.1809651442256
 20
-131.5420138560034
 30
0.0
 10
100.0328260383599
 20
-131.5757757917588
 30
0.0
 10
100.0328260383599
 20
-131.7928168073296
 30
0.0
 10
100.0328260383599
 20
-132.1049424582932
 30
0.0
 10
100.3607991285556
 20
-132.1476616423103
 30
0.0
 10
100.565782309928
 20
-132.1614420242513
 30
0.0
 10
100.4875786424128
 20
-132.0618787647276
 30
0.0
 10
100.4283230000665
 20
-131.9895317595374
 30
0.0
 10
100.4283230000665
 20
-131.7948838646207
 30
0.0
 10
100.4283230000665
 20
-131.6029920460923
 30
0.0
 10
100.5364989983034
 20
-131.2794975800274
 30
0.0
 10
100.9426757560143
 20
-131.2794975800274
 30
0.0
 10
101.262036107497
 20
-131.2794975800274
 30
0.0
 10
101.4818331994559
 20
-131.4920599714673
 30
0.0
 10
101.4818331994559
 20
-131.8314018767644
 30
0.0
  0
SPLINE
  5
78
330
73
100
AcDbEntity
  8
_U+30EC_U+30A4_U+30E4_U+30FC 1
370
     0
100
AcDbSpline
210
0.0
220
0.0
230
1.0
 70
    11
 71
     3
 72
    17
 73
    13
 74
     0
 42
0.0000000001
 43
0.0000000001
 12
1.0
 22
0.0
 32
0.0
 13
1.0
 23
0.0
 33
0.0
 40
0.0
 40
0.0
 40
0.0
 40
0.0
 40
1.0
 40
1.0
 40
1.0
 40
2.0
 40
2.0
 40
2.0
 40
3.0
 40
3.0
 40
3.0
 40
4.0
 40
4.0
 40
4.0
 40
4.0
 10
100.6229708949832
 20
-131.8131428706926
 30
0.0
 10
100.6229708949832
 20
-132.0935736431919
 30
0.0
 10
100.8344997577775
 20
-132.1342257699178
 30
0.0
 10
100.9509439851789
 20
-132.1342257699178
 30
0.0
 10
101.1266438549267
 20
-132.1342257699178
 30
0.0
 10
101.289596871379
 20
-132.032595453103
 30
0.0
 10
101.289596871379
 20
-131.8358805008952
 30
0.0
 10
101.289596871379
 20
-131.7070339297469
 30
0.0
 10
101.2303412290327
 20
-131.5192762258008
 30
0.0
 10
100.9447428133055
 20
-131.5192762258008
 30
0.0
 10
100.7204670972157
 20
-131.5192762258008
 30
0.0
 10
100.6229708949832
 20
-131.6684488603121
 30
0.0
 10
100.6229708949832
 20
-131.8131428706926
 30
0.0
  0
HATCH
  5
79
330
73
100
AcDbEntity
  8
_U+30EC_U+30A4_U+30E4_U+30FC 1
 62
   179
420
  2234388
100
AcDbHatch
 10
0.0
 20
0.0
 30
0.0
210
0.0
220
0.0
230
1.0
  2
SOLID
 70
     1
 71
     0
 91
        2
 92
        1
 93
        1
 72
     4
 94
        3
 73
     0
 74
     1
 95
       32
 96
       28
 40
0.0
 40
0.0
 40
0.0
 40
0.0
 40
1.0
 40
1.0
 40
1.0
 40
2.0
 40
2.0
 40
2.0
 40
3.0
 40
3.0
 40
3.0
 40
4.0
 40
4.0
 40
4.0
 40
5.0
 40
5.0
 40
5.0
 40
6.0
 40
6.0
 40
6.0
 40
7.0
 40
7.0
 40
7.0
 40
8.0
 40
8.0
 40
8.0
 40
9.0
 40
9.0
 40
9.0
 40
9.0
 10
101.4818331994559
 20
-131.8314018767644
 10
101.4818331994559
 20
-132.3829616639529
 10
100.9278618454278
 20
-132.3919189122145
 10
100.7139214157937
 20
-132.3919189122145
 10
100.4834445278305
 20
-132.3919189122145
 10
99.83611108615209
 20
-132.3715928488515
 10
99.83611108615209
 20
-131.7904052404899
 10
99.83611108615209
 20
-131.6050591033835
 10
99.90604652450266
 20
-131.342887336956
 10
100.2381537292807
 20
-131.30223521023
 10
100.2381537292807
 20
-131.30223521023
 10
100.2381537292807
 20
-131.5306450409021
 10
100.2381537292807
 20
-131.5306450409021
 10
100.1809651442256
 20
-131.5420138560034
 10
100.0328260383599
 20
-131.5757757917588
 10
100.0328260383599
 20
-131.7928168073296
 10
100.0328260383599
 20
-132.1049424582932
 10
100.3607991285556
 20
-132.1476616423103
 10
100.565782309928
 20
-132.1614420242513
 10
100.4875786424128
 20
-132.0618787647276
 10
100.4283230000665
 20
-131.9895317595374
 10
100.4283230000665
 20
-131.7948838646207
 10
100.4283230000665
 20
-131.6029920460923
 10
100.5364989983034
 20
-131.2794975800274
 10
100.9426757560143
 20
-131.2794975800274
 10
101.262036107497
 20
-131.2794975800274
 10
101.4818331994559
 20
-131.4920599714673
 10
101.4818331994559
 20
-131.8314018767644
 97
        0
 97
        0
 92
        1
 93
        1
 72
     4
 94
        3
 73
     0
 74
     1
 95
       17
 96
       13
 40
0.0
 40
0.0
 40
0.0
 40
0.0
 40
1.0
 40
1.0
 40
1.0
 40
2.0
 40
2.0
 40
2.0
 40
3.0
 40
3.0
 40
3.0
 40
4.0
 40
4.0
 40
4.0
 40
4.0
 10
100.6229708949832
 20
-131.8131428706926
 10
100.6229708949832
 20
-132.0935736431919
 10
100.8344997577775
 20
-132.1342257699178
 10
100.9509439851789
 20
-132.1342257699178
 10
101.1266438549267
 20
-132.1342257699178
 10
101.289596871379
 20
-132.032595453103
 10
101.289596871379
 20
-131.8358805008952
 10
101.289596871379
 20
-131.7070339297469
 10
101.2303412290327
 20
-131.5192762258008
 10
100.9447428133055
 20
-131.5192762258008
 10
100.7204670972157
 20
-131.5192762258008
 10
100.6229708949832
 20
-131.6684488603121
 10
100.6229708949832
 20
-131.8131428706926
 97
        0
 97
        0
 75
     2
 76
     1
 98
        0
  0
POLYLINE
  5
7A
330
73
100
AcDbEntity
  8
_U+30EC_U+30A4_U+30E4_U+30FC 1
370
     0
100
AcDb2dPolyline
 66
     1
 10
0.0
 20
0.0
 30
0.0
  0
VERTEX
  5
7B
330
7A
100
AcDbEntity
  8
_U+30EC_U+30A4_U+30E4_U+30FC 1
370
     0
100
AcDbVertex
100
AcDb2dVertex
 10
101.4311902958228
 20
-131.0483316729671
 30
0.0
  0
VERTEX
  5
7C
330
7A
100
AcDbEntity
  8
_U+30EC_U+30A4_U+30E4_U+30FC 1
370
     0
100
AcDbVertex
100
AcDb2dVertex
 10
101.179353815851
 20
-131.0483316729671
 30
0.0
  0
VERTEX
  5
7D
330
7A
100
AcDbEntity
  8
_U+30EC_U+30A4_U+30E4_U+30FC 1
370
     0
100
AcDbVertex
100
AcDb2dVertex
 10
101.179353815851
 20
-130.7792697155691
 30
0.0
  0
VERTEX
  5
7E
330
7A
100
AcDbEntity
  8
_U+30EC_U+30A4_U+30E4_U+30FC 1
370
     0
100
AcDbVertex
100
AcDb2dVertex
 10
101.4311902958228
 20
-130.7792697155691
 30
0.0
  0
VERTEX
  5
7F
330
7A
100
AcDbEntity
  8
_U+30EC_U+30A4_U+30E4_U+30FC 1
370
     0
100
AcDbVertex
100
AcDb2dVertex
 10
101.4311902958228
 20
-131.0483316729671
 30
0.0
  0
SEQEND
  5
80
330
7A
100
AcDbEntity
  8
_U+30EC_U+30A4_U+30E4_U+30FC 1
370
     0
  0
HATCH
  5
81
330
73
100
AcDbEntity
  8
_U+30EC_U+30A4_U+30E4_U+30FC 1
 62
   179
420
  2234388
100
AcDbHatch
 10
0.0
 20
0.0
 30
0.0
210
0.0
220
0.0
230
1.0
  2
SOLID
 70
     1
 71
     0
 91
        1
 92
        1
 93
        4
 72
     1
 10
101.4311902958228
 20
-131.0483316729671
 11
101.179353815851
 21
-131.0483316729671
 72
     1
 10
101.179353815851
 20
-131.0483316729671
 11
101.179353815851
 21
-130.7792697155691
 72
     1
 10
101.179353815851
 20
-130.7792697155691
 11
101.4311902958228
 21
-130.7792697155691
 72
     1
 10
101.4311902958228
 20
-130.7792697155691
 11
101.4311902958228
 21
-131.0483316729671
 97
        0
 75
     2
 76
     1
 98
        0
  0
SPLINE
  5
82
330
73
100
AcDbEntity
  8
_U+30EC_U+30A4_U+30E4_U+30FC 1
370
     0
100
AcDbSpline
210
0.0
220
0.0
230
1.0
 70
    11
 71
     3
 72
    53
 73
    49
 74
     0
 42
0.0000000001
 43
0.0000000001
 12
1.0
 22
0.0
 32
0.0
 13
1.0
 23
0.0
 33
0.0
 40
0.0
 40
0.0
 40
0.0
 40
0.0
 40
1.0
 40
1.0
 40
1.0
 40
2.0
 40
2.0
 40
2.0
 40
3.0
 40
3.0
 40
3.0
 40
4.0
 40
4.0
 40
4.0
 40
5.0
 40
5.0
 40
5.0
 40
6.0
 40
6.0
 40
6.0
 40
7.0
 40
7.0
 40
7.0
 40
8.0
 40
8.0
 40
8.0
 40
9.0
 40
9.0
 40
9.0
 40
10.0
 40
10.0
 40
10.0
 40
11.0
 40
11.0
 40
11.0
 40
12.0
 40
12.0
 40
12.0
 40
13.0
 40
13.0
 40
13.0
 40
14.0
 40
14.0
 40
14.0
 40
15.0
 40
15.0
 40
15.0
 40
16.0
 40
16.0
 40
16.0
 40
16.0
 10
101.4818331994559
 20
-130.0123914605525
 30
0.0
 10
101.4818331994559
 20
-130.0957627712955
 30
0.0
 10
101.4649522315782
 20
-130.2046277886294
 30
0.0
 10
101.4015624746496
 20
-130.3128037868663
 30
0.0
 10
101.2916639286701
 20
-130.4984944335212
 30
0.0
 10
101.1604057906821
 20
-130.5208875541753
 30
0.0
 10
101.0525743019938
 20
-130.5412136175383
 30
0.0
 10
101.0525743019938
 20
-130.5412136175383
 30
0.0
 10
101.0525743019938
 20
-130.3038465386046
 30
0.0
 10
101.0525743019938
 20
-130.3038465386046
 30
0.0
 10
101.2513563114927
 20
-130.2452799153554
 30
0.0
 10
101.2809841326659
 20
-130.1095431532365
 30
0.0
 10
101.2809841326659
 20
-130.0099798937128
 30
0.0
 10
101.2809841326659
 20
-129.8608072592015
 30
0.0
 10
101.1814208731421
 20
-129.6981987522977
 30
0.0
 10
100.9488769278878
 20
-129.6981987522977
 30
0.0
 10
100.6929063333337
 20
-129.6981987522977
 30
0.0
 10
100.6229708949832
 20
-129.8900905708261
 30
0.0
 10
100.6229708949832
 20
-130.0189371419744
 30
0.0
 10
100.6229708949832
 20
-130.0530435872784
 30
0.0
 10
100.6229708949832
 20
-130.2046277886294
 30
0.0
 10
100.75216197568
 20
-130.2993679144738
 30
0.0
 10
100.75216197568
 20
-130.2993679144738
 30
0.0
 10
100.7332139505111
 20
-130.4871256184199
 30
0.0
 10
100.7332139505111
 20
-130.4871256184199
 30
0.0
 10
100.7332139505111
 20
-130.4871256184199
 30
0.0
 10
99.88675398978526
 20
-130.3582790472715
 30
0.0
 10
99.88675398978526
 20
-130.3582790472715
 30
0.0
 10
99.88675398978526
 20
-130.3582790472715
 30
0.0
 10
99.88675398978526
 20
-129.5262884875837
 30
0.0
 10
99.88675398978526
 20
-129.5262884875837
 30
0.0
 10
99.88675398978526
 20
-129.5262884875837
 30
0.0
 10
100.0814018847019
 20
-129.5262884875837
 30
0.0
 10
100.0814018847019
 20
-129.5262884875837
 30
0.0
 10
100.0814018847019
 20
-129.5262884875837
 30
0.0
 10
100.0814018847019
 20
-130.1839572157179
 30
0.0
 10
100.0814018847019
 20
-130.1839572157179
 30
0.0
 10
100.0814018847019
 20
-130.1839572157179
 30
0.0
 10
100.5044596102906
 20
-130.254237163617
 30
0.0
 10
100.5044596102906
 20
-130.254237163617
 30
0.0
 10
100.4706976745351
 20
-130.1887803493973
 30
0.0
 10
100.4303900573577
 20
-130.1005859049748
 30
0.0
 10
100.4303900573577
 20
-129.9738063911177
 30
0.0
 10
100.4303900573577
 20
-129.7026773764285
 30
0.0
 10
100.6167697231097
 20
-129.4494628582626
 30
0.0
 10
100.9299289027189
 20
-129.4494628582626
 30
0.0
 10
101.2472221969104
 20
-129.4494628582626
 30
0.0
 10
101.4818331994559
 20
-129.6888969944875
 30
0.0
 10
101.4818331994559
 20
-130.0123914605525
 30
0.0
  0
HATCH
  5
83
330
73
100
AcDbEntity
  8
_U+30EC_U+30A4_U+30E4_U+30FC 1
 62
   179
420
  2234388
100
AcDbHatch
 10
0.0
 20
0.0
 30
0.0
210
0.0
220
0.0
230
1.0
  2
SOLID
 70
     1
 71
     0
 91
        1
 92
        1
 93
        1
 72
     4
 94
        3
 73
     0
 74
     1
 95
       53
 96
       49
 40
0.0
 40
0.0
 40
0.0
 40
0.0
 40
1.0
 40
1.0
 40
1.0
 40
2.0
 40
2.0
 40
2.0
 40
3.0
 40
3.0
 40
3.0
 40
4.0
 40
4.0
 40
4.0
 40
5.0
 40
5.0
 40
5.0
 40
6.0
 40
6.0
 40
6.0
 40
7.0
 40
7.0
 40
7.0
 40
8.0
 40
8.0
 40
8.0
 40
9.0
 40
9.0
 40
9.0
 40
10.0
 40
10.0
 40
10.0
 40
11.0
 40
11.0
 40
11.0
 40
12.0
 40
12.0
 40
12.0
 40
13.0
 40
13.0
 40
13.0
 40
14.0
 40
14.0
 40
14.0
 40
15.0
 40
15.0
 40
15.0
 40
16.0
 40
16.0
 40
16.0
 40
16.0
 10
101.4818331994559
 20
-130.0123914605525
 10
101.4818331994559
 20
-130.0957627712955
 10
101.4649522315782
 20
-130.2046277886294
 10
101.4015624746496
 20
-130.3128037868663
 10
101.2916639286701
 20
-130.4984944335212
 10
101.1604057906821
 20
-130.5208875541753
 10
101.0525743019938
 20
-130.5412136175383
 10
101.0525743019938
 20
-130.5412136175383
 10
101.0525743019938
 20
-130.3038465386046
 10
101.0525743019938
 20
-130.3038465386046
 10
101.2513563114927
 20
-130.2452799153554
 10
101.2809841326659
 20
-130.1095431532365
 10
101.2809841326659
 20
-130.0099798937128
 10
101.2809841326659
 20
-129.8608072592015
 10
101.1814208731421
 20
-129.6981987522977
 10
100.9488769278878
 20
-129.6981987522977
 10
100.6929063333337
 20
-129.6981987522977
 10
100.6229708949832
 20
-129.8900905708261
 10
100.6229708949832
 20
-130.0189371419744
 10
100.6229708949832
 20
-130.0530435872784
 10
100.6229708949832
 20
-130.2046277886294
 10
100.75216197568
 20
-130.2993679144738
 10
100.75216197568
 20
-130.2993679144738
 10
100.7332139505111
 20
-130.4871256184199
 10
100.7332139505111
 20
-130.4871256184199
 10
100.7332139505111
 20
-130.4871256184199
 10
99.88675398978526
 20
-130.3582790472715
 10
99.88675398978526
 20
-130.3582790472715
 10
99.88675398978526
 20
-130.3582790472715
 10
99.88675398978526
 20
-129.5262884875837
 10
99.88675398978526
 20
-129.5262884875837
 10
99.88675398978526
 20
-129.5262884875837
 10
100.0814018847019
 20
-129.5262884875837
 10
100.0814018847019
 20
-129.5262884875837
 10
100.0814018847019
 20
-129.5262884875837
 10
100.0814018847019
 20
-130.1839572157179
 10
100.0814018847019
 20
-130.1839572157179
 10
100.0814018847019
 20
-130.1839572157179
 10
100.5044596102906
 20
-130.254237163617
 10
100.5044596102906
 20
-130.254237163617
 10
100.4706976745351
 20
-130.1887803493973
 10
100.4303900573577
 20
-130.1005859049748
 10
100.4303900573577
 20
-129.9738063911177
 10
100.4303900573577
 20
-129.7026773764285
 10
100.6167697231097
 20
-129.4494628582626
 10
100.9299289027189
 20
-129.4494628582626
 10
101.2472221969104
 20
-129.4494628582626
 10
101.4818331994559
 20
-129.6888969944875
 10
101.4818331994559
 20
-130.0123914605525
 97
        0
 97
        0
 75
     2
 76
     1
 98
        0
  0
ENDBLK
  5
76
330
73
100
AcDbEntity
  8
0
100
AcDbBlockEnd
  0
ENDSEC
  0
SECTION
  2
ENTITIES
  0
POLYLINE
  5
41
330
1F
100
AcDbEntity
  8
_U+30EC_U+30A4_U+30E4_U+30FC 1
 62
   179
420
  2234388
370
    25
100
AcDb2dPolyline
 66
     1
 10
0.0
 20
0.0
 30
0.0
  0
VERTEX
  5
42
330
41
100
AcDbEntity
  8
_U+30EC_U+30A4_U+30E4_U+30FC 1
 62
   179
420
  2234388
370
    25
100
AcDbVertex
100
AcDb2dVertex
 10
77.78266496004333
 20
-134.1633996886817
 30
0.0
  0
VERTEX
  5
43
330
41
100
AcDbEntity
  8
_U+30EC_U+30A4_U+30E4_U+30FC 1
 62
   179
420
  2234388
370
    25
100
AcDbVertex
100
AcDb2dVertex
 10
86.88288500565517
 20
-134.1633996886817
 30
0.0
  0
SEQEND
  5
44
330
41
100
AcDbEntity
  8
_U+30EC_U+30A4_U+30E4_U+30FC 1
 62
   179
420
  2234388
370
    25
  0
POLYLINE
  5
45
330
1F
100
AcDbEntity
  8
_U+30EC_U+30A4_U+30E4_U+30FC 1
 62
   179
420
  2234388
370
    25
100
AcDb2dPolyline
 66
     1
 10
0.0
 20
0.0
 30
0.0
  0
VERTEX
  5
46
330
45
100
AcDbEntity
  8
_U+30EC_U+30A4_U+30E4_U+30FC 1
 62
   179
420
  2234388
370
    25
100
AcDbVertex
100
AcDb2dVertex
 10
82.78290177692112
 20
-127.6635396903064
 30
0.0
  0
VERTEX
  5
47
330
45
100
AcDbEntity
  8
_U+30EC_U+30A4_U+30E4_U+30FC 1
 62
   179
420
  2234388
370
    25
100
AcDbVertex
100
AcDb2dVertex
 10
86.88288500565517
 20
-127.6635396903064
 30
0.0
  0
SEQEND
  5
48
330
45
100
AcDbEntity
  8
_U+30EC_U+30A4_U+30E4_U+30FC 1
 62
   179
420
  2234388
370
    25
  0
POLYLINE
  5
49
330
1F
100
AcDbEntity
  8
_U+30EC_U+30A4_U+30E4_U+30FC 1
 62
   179
420
  2234388
370
    25
100
AcDb2dPolyline
 66
     1
 10
0.0
 20
0.0
 30
0.0
  0
VERTEX
  5
4A
330
49
100
AcDbEntity
  8
_U+30EC_U+30A4_U+30E4_U+30FC 1
 62
   179
420
  2234388
370
    25
100
AcDbVertex
100
AcDb2dVertex
 10
82.78290177692112
 20
-126.6634146905564
 30
0.0
  0
VERTEX
  5
4B
330
49
100
AcDbEntity
  8
_U+30EC_U+30A4_U+30E4_U+30FC 1
 62
   179
420
  2234388
370
    25
100
AcDbVertex
100
AcDb2dVertex
 10
93.78272427407005
 20
-126.6634146905564
 30
0.0
  0
SEQEND
  5
4C
330
49
100
AcDbEntity
  8
_U+30EC_U+30A4_U+30E4_U+30FC 1
 62
   179
420
  2234388
370
    25
  0
POLYLINE
  5
4D
330
1F
100
AcDbEntity
  8
_U+30EC_U+30A4_U+30E4_U+30FC 1
 62
   179
420
  2234388
370
    25
100
AcDb2dPolyline
 66
     1
 10
0.0
 20
0.0
 30
0.0
  0
VERTEX
  5
4E
330
4D
100
AcDbEntity
  8
_U+30EC_U+30A4_U+30E4_U+30FC 1
 62
   179
420
  2234388
370
    25
100
AcDbVertex
100
AcDb2dVertex
 10
88.68261607085131
 20
-128.6636294122785
 30
0.0
  0
VERTEX
  5
4F
330
4D
100
AcDbEntity
  8
_U+30EC_U+30A4_U+30E4_U+30FC 1
 62
   179
420
  2234388
370
    25
100
AcDbVertex
100
AcDb2dVertex
 10
88.68261607085131
 20
-133.1636274667091
 30
0.0
  0
SEQEND
  5
50
330
4D
100
AcDbEntity
  8
_U+30EC_U+30A4_U+30E4_U+30FC 1
 62
   179
420
  2234388
370
    25
  0
POLYLINE
  5
51
330
1F
100
AcDbEntity
  8
_U+30EC_U+30A4_U+30E4_U+30FC 1
 62
   179
420
  2234388
370
    25
100
AcDb2dPolyline
 66
     1
 10
0.0
 20
0.0
 30
0.0
  0
VERTEX
  5
52
330
51
100
AcDbEntity
  8
_U+30EC_U+30A4_U+30E4_U+30FC 1
 62
   179
420
  2234388
370
    25
100
AcDbVertex
100
AcDb2dVertex
 10
87.88265720237106
 20
-128.6636294122785
 30
0.0
  0
VERTEX
  5
53
330
51
100
AcDbEntity
  8
_U+30EC_U+30A4_U+30E4_U+30FC 1
 62
   179
420
  2234388
370
    25
100
AcDbVertex
100
AcDb2dVertex
 10
87.88265720237106
 20
-133.1636274667091
 30
0.0
  0
SEQEND
  5
54
330
51
100
AcDbEntity
  8
_U+30EC_U+30A4_U+30E4_U+30FC 1
 62
   179
420
  2234388
370
    25
  0
POLYLINE
  5
55
330
1F
100
AcDbEntity
  8
_U+30EC_U+30A4_U+30E4_U+30FC 1
 62
   179
420
  2234388
370
    25
100
AcDb2dPolyline
 66
     1
 10
0.0
 20
0.0
 30
0.0
  0
VERTEX
  5
56
330
55
100
AcDbEntity
  8
_U+30EC_U+30A4_U+30E4_U+30FC 1
 62
   179
420
  2234388
370
    25
100
AcDbVertex
100
AcDb2dVertex
 10
89.68274104533599
 20
-134.1633996886817
 30
0.0
  0
VERTEX
  5
57
330
55
100
AcDbEntity
  8
_U+30EC_U+30A4_U+30E4_U+30FC 1
 62
   179
420
  2234388
370
    25
100
AcDbVertex
100
AcDb2dVertex
 10
98.78260831317904
 20
-134.1633996886817
 30
0.0
  0
SEQEND
  5
58
330
55
100
AcDbEntity
  8
_U+30EC_U+30A4_U+30E4_U+30FC 1
 62
   179
420
  2234388
370
    25
  0
POLYLINE
  5
59
330
1F
100
AcDbEntity
  8
_U+30EC_U+30A4_U+30E4_U+30FC 1
 62
   179
420
  2234388
370
    25
100
AcDb2dPolyline
 66
     1
 10
0.0
 20
0.0
 30
0.0
  0
VERTEX
  5
5A
330
59
100
AcDbEntity
  8
_U+30EC_U+30A4_U+30E4_U+30FC 1
 62
   179
420
  2234388
370
    25
100
AcDbVertex
100
AcDb2dVertex
 10
89.68274104533599
 20
-127.6635396903064
 30
0.0
  0
VERTEX
  5
5B
330
59
100
AcDbEntity
  8
_U+30EC_U+30A4_U+30E4_U+30FC 1
 62
   179
420
  2234388
370
    25
100
AcDbVertex
100
AcDb2dVertex
 10
93.78272427407005
 20
-127.6635396903064
 30
0.0
  0
SEQEND
  5
5C
330
59
100
AcDbEntity
  8
_U+30EC_U+30A4_U+30E4_U+30FC 1
 62
   179
420
  2234388
370
    25
  0
SPLINE
  5
5D
330
1F
100
AcDbEntity
  8
_U+30EC_U+30A4_U+30E4_U+30FC 1
 62
   179
420
  2234388
370
    25
100
AcDbSpline
210
0.0
220
0.0
230
1.0
 70
     8
 71
     3
 72
    11
 73
     7
 74
     0
 42
0.0000000001
 43
0.0000000001
 12
1.0
 22
0.0
 32
0.0
 13
1.0
 23
0.0
 33
0.0
 40
0.0
 40
0.0
 40
0.0
 40
0.0
 40
1.0
 40
1.0
 40
1.0
 40
2.0
 40
2.0
 40
2.0
 40
2.0
 10
82.78290177692112
 20
-126.6634146905564
 30
0.0
 10
82.50660831270683
 20
-126.6634146905564
 30
0.0
 10
82.28266290079438
 20
-126.8873580238337
 30
0.0
 10
82.28266290079438
 20
-127.1636535793201
 30
0.0
 10
82.28266290079438
 20
-127.4395963570291
 30
0.0
 10
82.50660831270683
 20
-127.6635396903064
 30
0.0
 10
82.78290177692112
 20
-127.6635396903064
 30
0.0
  0
SPLINE
  5
5E
330
1F
100
AcDbEntity
  8
_U+30EC_U+30A4_U+30E4_U+30FC 1
 62
   179
420
  2234388
370
    25
100
AcDbSpline
210
0.0
220
0.0
230
1.0
 70
     8
 71
     3
 72
    11
 73
     7
 74
     0
 42
0.0000000001
 43
0.0000000001
 12
1.0
 22
0.0
 32
0.0
 13
1.0
 23
0.0
 33
0.0
 40
0.0
 40
0.0
 40
0.0
 40
0.0
 40
1.0
 40
1.0
 40
1.0
 40
2.0
 40
2.0
 40
2.0
 40
2.0
 10
93.78272427407005
 20
-127.6635396903064
 30
0.0
 10
94.0590221987074
 20
-127.6635396903064
 30
0.0
 10
94.282610372428
 20
-127.4395963570291
 30
0.0
 10
94.282610372428
 20
-127.1636535793201
 30
0.0
 10
94.282610372428
 20
-126.8873580238337
 30
0.0
 10
94.0590221987074
 20
-126.6634146905564
 30
0.0
 10
93.78272427407005
 20
-126.6634146905564
 30
0.0
  0
SPLINE
  5
5F
330
1F
100
AcDbEntity
  8
_U+30EC_U+30A4_U+30E4_U+30FC 1
 62
   179
420
  2234388
370
    25
100
AcDbSpline
210
0.0
220
0.0
230
1.0
 70
     8
 71
     3
 72
     8
 73
     4
 74
     0
 42
0.0000000001
 43
0.0000000001
 12
1.0
 22
0.0
 32
0.0
 13
1.0
 23
0.0
 33
0.0
 40
0.0
 40
0.0
 40
0.0
 40
0.0
 40
1.0
 40
1.0
 40
1.0
 40
1.0
 10
87.88265720237106
 20
-128.6636294122785
 30
0.0
 10
87.88265720237106
 20
-128.1110383013057
 30
0.0
 10
87.43480582490783
 20
-127.6635396903064
 30
0.0
 10
86.88288500565517
 20
-127.6635396903064
 30
0.0
  0
SPLINE
  5
60
330
1F
100
AcDbEntity
  8
_U+30EC_U+30A4_U+30E4_U+30FC 1
 62
   179
420
  2234388
370
    25
100
AcDbSpline
210
0.0
220
0.0
230
1.0
 70
     8
 71
     3
 72
     8
 73
     4
 74
     0
 42
0.0000000001
 43
0.0000000001
 12
1.0
 22
0.0
 32
0.0
 13
1.0
 23
0.0
 33
0.0
 40
0.0
 40
0.0
 40
0.0
 40
0.0
 40
1.0
 40
1.0
 40
1.0
 40
1.0
 10
89.68274104533599
 20
-127.6635396903064
 30
0.0
 10
89.13046744831456
 20
-127.6635396903064
 30
0.0
 10
88.68261607085131
 20
-128.1110383013057
 30
0.0
 10
88.68261607085131
 20
-128.6636294122785
 30
0.0
  0
SPLINE
  5
61
330
1F
100
AcDbEntity
  8
_U+30EC_U+30A4_U+30E4_U+30FC 1
 62
   179
420
  2234388
370
    25
100
AcDbSpline
210
0.0
220
0.0
230
1.0
 70
     8
 71
     3
 72
     8
 73
     4
 74
     0
 42
0.0000000001
 43
0.0000000001
 12
1.0
 22
0.0
 32
0.0
 13
1.0
 23
0.0
 33
0.0
 40
0.0
 40
0.0
 40
0.0
 40
0.0
 40
1.0
 40
1.0
 40
1.0
 40
1.0
 10
86.88288500565517
 20
-134.1633996886817
 30
0.0
 10
87.43480582490783
 20
-134.1633996886817
 30
0.0
 10
87.88265720237106
 20
-133.7155130221265
 30
0.0
 10
87.88265720237106
 20
-133.1636274667091
 30
0.0
  0
SPLINE
  5
62
330
1F
100
AcDbEntity
  8
_U+30EC_U+30A4_U+30E4_U+30FC 1
 62
   179
420
  2234388
370
    25
100
AcDbSpline
210
0.0
220
0.0
230
1.0
 70
     8
 71
     3
 72
     8
 73
     4
 74
     0
 42
0.0000000001
 43
0.0000000001
 12
1.0
 22
0.0
 32
0.0
 13
1.0
 23
0.0
 33
0.0
 40
0.0
 40
0.0
 40
0.0
 40
0.0
 40
1.0
 40
1.0
 40
1.0
 40
1.0
 10
88.68261607085131
 20
-133.1636274667091
 30
0.0
 10
88.68261607085131
 20
-133.7155130221265
 30
0.0
 10
89.13046744831456
 20
-134.1633996886817
 30
0.0
 10
89.68274104533599
 20
-134.1633996886817
 30
0.0
  0
INSERT
  5
64
330
1F
100
AcDbEntity
  8
_U+30EC_U+30A4_U+30E4_U+30FC 1
100
AcDbBlockReference
  2
block 2
 10
0.0
 20
0.0
 30
0.0
  0
INSERT
  5
6C
330
1F
100
AcDbEntity
  8
_U+30EC_U+30A4_U+30E4_U+30FC 1
100
AcDbBlockReference
  2
block 3
 10
0.0
 20
0.0
 30
0.0
  0
INSERT
  5
74
330
1F
100
AcDbEntity
  8
_U+30EC_U+30A4_U+30E4_U+30FC 1
100
AcDbBlockReference
  2
block 4
 10
0.0
 20
0.0
 30
0.0
  0
SPLINE
  5
84
330
1F
100
AcDbEntity
  8
_U+30EC_U+30A4_U+30E4_U+30FC 1
 62
   179
420
  2234388
370
     9
100
AcDbSpline
210
0.0
220
0.0
230
1.0
 70
    11
 71
     3
 72
    17
 73
    13
 74
     0
 42
0.0000000001
 43
0.0000000001
 12
1.0
 22
0.0
 32
0.0
 13
1.0
 23
0.0
 33
0.0
 40
0.0
 40
0.0
 40
0.0
 40
0.0
 40
1.0
 40
1.0
 40
1.0
 40
2.0
 40
2.0
 40
2.0
 40
3.0
 40
3.0
 40
3.0
 40
4.0
 40
4.0
 40
4.0
 40
4.0
 10
82.38256956491222
 20
-122.663479136001
 30
0.0
 10
82.38256956491222
 20
-122.6081988582368
 30
0.0
 10
82.33776678827745
 20
-122.5633960804704
 30
0.0
 10
82.28266290079438
 20
-122.5633960804704
 30
0.0
 10
82.22752373553443
 20
-122.5633960804704
 30
0.0
 10
82.18275831278758
 20
-122.6081988582368
 30
0.0
 10
82.18275831278758
 20
-122.663479136001
 30
0.0
 10
82.18275831278758
 20
-122.7186183026537
 30
0.0
 10
82.22752373553443
 20
-122.7633858026426
 30
0.0
 10
82.28266290079438
 20
-122.7633858026426
 30
0.0
 10
82.33776678827745
 20
-122.7633858026426
 30
0.0
 10
82.38256956491222
 20
-122.7186183026537
 30
0.0
 10
82.38256956491222
 20
-122.663479136001
 30
0.0
  0
SPLINE
  5
85
330
1F
100
AcDbEntity
  8
_U+30EC_U+30A4_U+30E4_U+30FC 1
 62
   179
420
  2234388
370
     9
100
AcDbSpline
210
0.0
220
0.0
230
1.0
 70
    11
 71
     3
 72
    17
 73
    13
 74
     0
 42
0.0000000001
 43
0.0000000001
 12
1.0
 22
0.0
 32
0.0
 13
1.0
 23
0.0
 33
0.0
 40
0.0
 40
0.0
 40
0.0
 40
0.0
 40
1.0
 40
1.0
 40
1.0
 40
2.0
 40
2.0
 40
2.0
 40
3.0
 40
3.0
 40
3.0
 40
4.0
 40
4.0
 40
4.0
 40
4.0
 10
94.38287219862632
 20
-122.663479136001
 30
0.0
 10
94.38287219862632
 20
-122.6081988582368
 30
0.0
 10
94.33806942086024
 20
-122.5633960804704
 30
0.0
 10
94.282610372428
 20
-122.5633960804704
 30
0.0
 10
94.22750648494493
 20
-122.5633960804704
 30
0.0
 10
94.18270370831016
 20
-122.6081988582368
 30
0.0
 10
94.18270370831016
 20
-122.663479136001
 30
0.0
 10
94.18270370831016
 20
-122.7186183026537
 30
0.0
 10
94.22750648494493
 20
-122.7633858026426
 30
0.0
 10
94.282610372428
 20
-122.7633858026426
 30
0.0
 10
94.33806942086024
 20
-122.7633858026426
 30
0.0
 10
94.38287219862632
 20
-122.7186183026537
 30
0.0
 10
94.38287219862632
 20
-122.663479136001
 30
0.0
  0
SPLINE
  5
86
330
1F
100
AcDbEntity
  8
_U+30EC_U+30A4_U+30E4_U+30FC 1
 62
   179
420
  2234388
370
     9
100
AcDbSpline
210
0.0
220
0.0
230
1.0
 70
    11
 71
     3
 72
    17
 73
    13
 74
     0
 42
0.0000000001
 43
0.0000000001
 12
1.0
 22
0.0
 32
0.0
 13
1.0
 23
0.0
 33
0.0
 40
0.0
 40
0.0
 40
0.0
 40
0.0
 40
1.0
 40
1.0
 40
1.0
 40
2.0
 40
2.0
 40
2.0
 40
3.0
 40
3.0
 40
3.0
 40
4.0
 40
4.0
 40
4.0
 40
4.0
 10
102.8825915419131
 20
-127.6635396903064
 30
0.0
 10
102.8825915419131
 20
-127.6080477458759
 30
0.0
 10
102.8378240430552
 20
-127.563280245887
 30
0.0
 10
102.7826848777952
 20
-127.563280245887
 30
0.0
 10
102.7275809903122
 20
-127.563280245887
 30
0.0
 10
102.6827782136774
 20
-127.6080477458759
 30
0.0
 10
102.6827782136774
 20
-127.6635396903064
 30
0.0
 10
102.6827782136774
 20
-127.7186435791813
 30
0.0
 10
102.7275809903122
 20
-127.763446356948
 30
0.0
 10
102.7826848777952
 20
-127.763446356948
 30
0.0
 10
102.8378240430552
 20
-127.763446356948
 30
0.0
 10
102.8825915419131
 20
-127.7186435791813
 30
0.0
 10
102.8825915419131
 20
-127.6635396903064
 30
0.0
  0
SPLINE
  5
87
330
1F
100
AcDbEntity
  8
_U+30EC_U+30A4_U+30E4_U+30FC 1
 62
   179
420
  2234388
370
     9
100
AcDbSpline
210
0.0
220
0.0
230
1.0
 70
    11
 71
     3
 72
    17
 73
    13
 74
     0
 42
0.0000000001
 43
0.0000000001
 12
1.0
 22
0.0
 32
0.0
 13
1.0
 23
0.0
 33
0.0
 40
0.0
 40
0.0
 40
0.0
 40
0.0
 40
1.0
 40
1.0
 40
1.0
 40
2.0
 40
2.0
 40
2.0
 40
3.0
 40
3.0
 40
3.0
 40
4.0
 40
4.0
 40
4.0
 40
4.0
 10
102.8825915419131
 20
-134.1633996886817
 30
0.0
 10
102.8825915419131
 20
-134.1082605220286
 30
0.0
 10
102.8378240430552
 20
-134.0634930220394
 30
0.0
 10
102.7826848777952
 20
-134.0634930220394
 30
0.0
 10
102.7275809903122
 20
-134.0634930220394
 30
0.0
 10
102.6827782136774
 20
-134.1082605220286
 30
0.0
 10
102.6827782136774
 20
-134.1633996886817
 30
0.0
 10
102.6827782136774
 20
-134.2185035775566
 30
0.0
 10
102.7275809903122
 20
-134.2633063553233
 30
0.0
 10
102.7826848777952
 20
-134.2633063553233
 30
0.0
 10
102.8378240430552
 20
-134.2633063553233
 30
0.0
 10
102.8825915419131
 20
-134.2185035775566
 30
0.0
 10
102.8825915419131
 20
-134.1633996886817
 30
0.0
  0
SPLINE
  5
88
330
1F
100
AcDbEntity
  8
_U+30EC_U+30A4_U+30E4_U+30FC 1
 62
   179
420
  2234388
370
     9
100
AcDbSpline
210
0.0
220
0.0
230
1.0
 70
    11
 71
     3
 72
    17
 73
    13
 74
     0
 42
0.0000000001
 43
0.0000000001
 12
1.0
 22
0.0
 32
0.0
 13
1.0
 23
0.0
 33
0.0
 40
0.0
 40
0.0
 40
0.0
 40
0.0
 40
1.0
 40
1.0
 40
1.0
 40
2.0
 40
2.0
 40
2.0
 40
3.0
 40
3.0
 40
3.0
 40
4.0
 40
4.0
 40
4.0
 40
4.0
 10
98.88286775506565
 20
-138.1634763543481
 30
0.0
 10
98.88286775506565
 20
-138.1083724654732
 30
0.0
 10
98.83806497843089
 20
-138.0635696877065
 30
0.0
 10
98.78260831317904
 20
-138.0635696877065
 30
0.0
 10
98.7274691479191
 20
-138.0635696877065
 30
0.0
 10
98.6827016490612
 20
-138.1083724654732
 30
0.0
 10
98.6827016490612
 20
-138.1634763543481
 30
0.0
 10
98.6827016490612
 20
-138.2186155210012
 30
0.0
 10
98.7274691479191
 20
-138.2633830209898
 30
0.0
 10
98.78260831317904
 20
-138.2633830209898
 30
0.0
 10
98.83806497843089
 20
-138.2633830209898
 30
0.0
 10
98.88286775506565
 20
-138.2186155210012
 30
0.0
 10
98.88286775506565
 20
-138.1634763543481
 30
0.0
  0
SPLINE
  5
89
330
1F
100
AcDbEntity
  8
_U+30EC_U+30A4_U+30E4_U+30FC 1
 62
   179
420
  2234388
370
     9
100
AcDbSpline
210
0.0
220
0.0
230
1.0
 70
    11
 71
     3
 72
    17
 73
    13
 74
     0
 42
0.0000000001
 43
0.0000000001
 12
1.0
 22
0.0
 32
0.0
 13
1.0
 23
0.0
 33
0.0
 40
0.0
 40
0.0
 40
0.0
 40
0.0
 40
1.0
 40
1.0
 40
1.0
 40
2.0
 40
2.0
 40
2.0
 40
3.0
 40
3.0
 40
3.0
 40
4.0
 40
4.0
 40
4.0
 40
4.0
 10
77.88257162416117
 20
-138.1634763543481
 30
0.0
 10
77.88257162416117
 20
-138.1083724654732
 30
0.0
 10
77.8378041253033
 20
-138.0635696877065
 30
0.0
 10
77.78266496004333
 20
-138.0635696877065
 30
0.0
 10
77.72756107256026
 20
-138.0635696877065
 30
0.0
 10
77.68275829592551
 20
-138.1083724654732
 30
0.0
 10
77.68275829592551
 20
-138.1634763543481
 30
0.0
 10
77.68275829592551
 20
-138.2186155210012
 30
0.0
 10
77.72756107256026
 20
-138.2633830209898
 30
0.0
 10
77.78266496004333
 20
-138.2633830209898
 30
0.0
 10
77.8378041253033
 20
-138.2633830209898
 30
0.0
 10
77.88257162416117
 20
-138.2186155210012
 30
0.0
 10
77.88257162416117
 20
-138.1634763543481
 30
0.0
  0
POLYLINE
  5
8A
330
1F
100
AcDbEntity
  8
_U+30EC_U+30A4_U+30E4_U+30FC 1
 62
   179
420
  2234388
370
     9
100
AcDb2dPolyline
 66
     1
 10
0.0
 20
0.0
 30
0.0
  0
VERTEX
  5
8B
330
8A
100
AcDbEntity
  8
_U+30EC_U+30A4_U+30E4_U+30FC 1
 62
   179
420
  2234388
370
     9
100
AcDbVertex
100
AcDb2dVertex
 10
77.78266496004333
 20
-138.1634763543481
 30
0.0
  0
VERTEX
  5
8C
330
8A
100
AcDbEntity
  8
_U+30EC_U+30A4_U+30E4_U+30FC 1
 62
   179
420
  2234388
370
     9
100
AcDbVertex
100
AcDb2dVertex
 10
98.78260831317904
 20
-138.1634763543481
 30
0.0
  0
SEQEND
  5
8D
330
8A
100
AcDbEntity
  8
_U+30EC_U+30A4_U+30E4_U+30FC 1
 62
   179
420
  2234388
370
     9
  0
POLYLINE
  5
8E
330
1F
100
AcDbEntity
  8
_U+30EC_U+30A4_U+30E4_U+30FC 1
 62
   179
420
  2234388
370
     9
100
AcDb2dPolyline
 66
     1
 10
0.0
 20
0.0
 30
0.0
  0
VERTEX
  5
8F
330
8E
100
AcDbEntity
  8
_U+30EC_U+30A4_U+30E4_U+30FC 1
 62
   179
420
  2234388
370
     9
100
AcDbVertex
100
AcDb2dVertex
 10
77.78266496004333
 20
-136.7034702436019
 30
0.0
  0
VERTEX
  5
90
330
8E
100
AcDbEntity
  8
_U+30EC_U+30A4_U+30E4_U+30FC 1
 62
   179
420
  2234388
370
     9
100
AcDbVertex
100
AcDb2dVertex
 10
77.78266496004333
 20
-139.1636013540978
 30
0.0
  0
SEQEND
  5
91
330
8E
100
AcDbEntity
  8
_U+30EC_U+30A4_U+30E4_U+30FC 1
 62
   179
420
  2234388
370
     9
  0
POLYLINE
  5
92
330
1F
100
AcDbEntity
  8
_U+30EC_U+30A4_U+30E4_U+30FC 1
 62
   179
420
  2234388
370
     9
100
AcDb2dPolyline
 66
     1
 10
0.0
 20
0.0
 30
0.0
  0
VERTEX
  5
93
330
92
100
AcDbEntity
  8
_U+30EC_U+30A4_U+30E4_U+30FC 1
 62
   179
420
  2234388
370
     9
100
AcDbVertex
100
AcDb2dVertex
 10
98.78260831317904
 20
-136.7034702436019
 30
0.0
  0
VERTEX
  5
94
330
92
100
AcDbEntity
  8
_U+30EC_U+30A4_U+30E4_U+30FC 1
 62
   179
420
  2234388
370
     9
100
AcDbVertex
100
AcDb2dVertex
 10
98.78260831317904
 20
-139.1636013540978
 30
0.0
  0
SEQEND
  5
95
330
92
100
AcDbEntity
  8
_U+30EC_U+30A4_U+30E4_U+30FC 1
 62
   179
420
  2234388
370
     9
  0
POLYLINE
  5
96
330
1F
100
AcDbEntity
  8
_U+30EC_U+30A4_U+30E4_U+30FC 1
 62
   179
420
  2234388
370
     9
100
AcDb2dPolyline
 66
     1
 10
0.0
 20
0.0
 30
0.0
  0
VERTEX
  5
97
330
96
100
AcDbEntity
  8
_U+30EC_U+30A4_U+30E4_U+30FC 1
 62
   179
420
  2234388
370
     9
100
AcDbVertex
100
AcDb2dVertex
 10
82.28266290079438
 20
-122.663479136001
 30
0.0
  0
VERTEX
  5
98
330
96
100
AcDbEntity
  8
_U+30EC_U+30A4_U+30E4_U+30FC 1
 62
   179
420
  2234388
370
     9
100
AcDbVertex
100
AcDb2dVertex
 10
94.282610372428
 20
-122.663479136001
 30
0.0
  0
SEQEND
  5
99
330
96
100
AcDbEntity
  8
_U+30EC_U+30A4_U+30E4_U+30FC 1
 62
   179
420
  2234388
370
     9
  0
POLYLINE
  5
9A
330
1F
100
AcDbEntity
  8
_U+30EC_U+30A4_U+30E4_U+30FC 1
 62
   179
420
  2234388
370
     9
100
AcDb2dPolyline
 66
     1
 10
0.0
 20
0.0
 30
0.0
  0
VERTEX
  5
9B
330
9A
100
AcDbEntity
  8
_U+30EC_U+30A4_U+30E4_U+30FC 1
 62
   179
420
  2234388
370
     9
100
AcDbVertex
100
AcDb2dVertex
 10
82.28266290079438
 20
-124.6232302466221
 30
0.0
  0
VERTEX
  5
9C
330
9A
100
AcDbEntity
  8
_U+30EC_U+30A4_U+30E4_U+30FC 1
 62
   179
420
  2234388
370
     9
100
AcDbVertex
100
AcDb2dVertex
 10
82.28266290079438
 20
-121.6633894140285
 30
0.0
  0
SEQEND
  5
9D
330
9A
100
AcDbEntity
  8
_U+30EC_U+30A4_U+30E4_U+30FC 1
 62
   179
420
  2234388
370
     9
  0
POLYLINE
  5
9E
330
1F
100
AcDbEntity
  8
_U+30EC_U+30A4_U+30E4_U+30FC 1
 62
   179
420
  2234388
370
     9
100
AcDb2dPolyline
 66
     1
 10
0.0
 20
0.0
 30
0.0
  0
VERTEX
  5
9F
330
9E
100
AcDbEntity
  8
_U+30EC_U+30A4_U+30E4_U+30FC 1
 62
   179
420
  2234388
370
     9
100
AcDbVertex
100
AcDb2dVertex
 10
94.282610372428
 20
-124.6232302466221
 30
0.0
  0
VERTEX
  5
A0
330
9E
100
AcDbEntity
  8
_U+30EC_U+30A4_U+30E4_U+30FC 1
 62
   179
420
  2234388
370
     9
100
AcDbVertex
100
AcDb2dVertex
 10
94.282610372428
 20
-121.6633894140285
 30
0.0
  0
SEQEND
  5
A1
330
9E
100
AcDbEntity
  8
_U+30EC_U+30A4_U+30E4_U+30FC 1
 62
   179
420
  2234388
370
     9
  0
POLYLINE
  5
A2
330
1F
100
AcDbEntity
  8
_U+30EC_U+30A4_U+30E4_U+30FC 1
 62
   179
420
  2234388
370
     9
100
AcDb2dPolyline
 66
     1
 10
0.0
 20
0.0
 30
0.0
  0
VERTEX
  5
A3
330
A2
100
AcDbEntity
  8
_U+30EC_U+30A4_U+30E4_U+30FC 1
 62
   179
420
  2234388
370
     9
100
AcDbVertex
100
AcDb2dVertex
 10
102.7826848777952
 20
-134.1633996886817
 30
0.0
  0
VERTEX
  5
A4
330
A2
100
AcDbEntity
  8
_U+30EC_U+30A4_U+30E4_U+30FC 1
 62
   179
420
  2234388
370
     9
100
AcDbVertex
100
AcDb2dVertex
 10
102.7826848777952
 20
-127.6635396903064
 30
0.0
  0
SEQEND
  5
A5
330
A2
100
AcDbEntity
  8
_U+30EC_U+30A4_U+30E4_U+30FC 1
 62
   179
420
  2234388
370
     9
  0
POLYLINE
  5
A6
330
1F
100
AcDbEntity
  8
_U+30EC_U+30A4_U+30E4_U+30FC 1
 62
   179
420
  2234388
370
     9
100
AcDb2dPolyline
 66
     1
 10
0.0
 20
0.0
 30
0.0
  0
VERTEX
  5
A7
330
A6
100
AcDbEntity
  8
_U+30EC_U+30A4_U+30E4_U+30FC 1
 62
   179
420
  2234388
370
     9
100
AcDbVertex
100
AcDb2dVertex
 10
101.322678803932
 20
-134.1633996886817
 30
0.0
  0
VERTEX
  5
A8
330
A6
100
AcDbEntity
  8
_U+30EC_U+30A4_U+30E4_U+30FC 1
 62
   179
420
  2234388
370
     9
100
AcDbVertex
100
AcDb2dVertex
 10
103.7828098522799
 20
-134.1633996886817
 30
0.0
  0
SEQEND
  5
A9
330
A6
100
AcDbEntity
  8
_U+30EC_U+30A4_U+30E4_U+30FC 1
 62
   179
420
  2234388
370
     9
  0
POLYLINE
  5
AA
330
1F
100
AcDbEntity
  8
_U+30EC_U+30A4_U+30E4_U+30FC 1
 62
   179
420
  2234388
370
     9
100
AcDb2dPolyline
 66
     1
 10
0.0
 20
0.0
 30
0.0
  0
VERTEX
  5
AB
330
AA
100
AcDbEntity
  8
_U+30EC_U+30A4_U+30E4_U+30FC 1
 62
   179
420
  2234388
370
     9
100
AcDbVertex
100
AcDb2dVertex
 10
96.32279719814126
 20
-127.6635396903064
 30
0.0
  0
VERTEX
  5
AC
330
AA
100
AcDbEntity
  8
_U+30EC_U+30A4_U+30E4_U+30FC 1
 62
   179
420
  2234388
370
     9
100
AcDbVertex
100
AcDb2dVertex
 10
103.7828098522799
 20
-127.6635396903064
 30
0.0
  0
SEQEND
  5
AD
330
AA
100
AcDbEntity
  8
_U+30EC_U+30A4_U+30E4_U+30FC 1
 62
   179
420
  2234388
370
     9
  0
ENDSEC
  0
SECTION
  2
OBJECTS
  0
DICTIONARY
  5
C
330
0
100
AcDbDictionary
281
     1
  3
ACAD_GROUP
350
D
  3
ACAD_LAYOUT
350
1A
  3
ACAD_MATERIAL
350
3B
  3
ACAD_MLEADERSTYLE
350
AF
  3
ACAD_MLINESTYLE
350
17
  3
ACAD_PLOTSETTINGS
350
19
  3
ACAD_PLOTSTYLENAME
350
E
  3
ACAD_TABLESTYLE
350
AE
  3
ACAD_VISUALSTYLE
350
2A
  0
SUN
  5
3F
330
29
100
AcDbSun
 90
        1
290
     0
 63
     7
421
 16777215
 40
1.0
291
     1
 91
  2455826
 92
 54000000
292
     0
 70
     2
 71
   256
280
     1
  0
DICTIONARY
  5
D
102
{ACAD_REACTORS
330
C
102
}
330
C
100
AcDbDictionary
281
     1
  0
DICTIONARY
  5
1A
102
{ACAD_REACTORS
330
C
102
}
330
C
100
AcDbDictionary
281
     1
  3
Layout1
350
1E
  3
Layout2
350
26
  3
Model
350
22
  0
DICTIONARY
  5
3B
102
{ACAD_REACTORS
330
C
102
}
330
C
100
AcDbDictionary
281
     1
  3
ByBlock
350
3D
  3
ByLayer
350
3C
  3
Global
350
3E
  0
DICTIONARY
  5
AF
102
{ACAD_REACTORS
330
C
102
}
330
C
100
AcDbDictionary
281
     1
  0
DICTIONARY
  5
17
102
{ACAD_REACTORS
330
C
102
}
330
C
100
AcDbDictionary
281
     1
  3
Standard
350
18
  0
DICTIONARY
  5
19
102
{ACAD_REACTORS
330
C
102
}
330
C
100
AcDbDictionary
281
     1
  0
ACDBDICTIONARYWDFLT
  5
E
102
{ACAD_REACTORS
330
C
102
}
330
C
100
AcDbDictionary
281
     1
  3
Normal
350
F
100
AcDbDictionaryWithDefault
340
F
  0
DICTIONARY
  5
AE
102
{ACAD_REACTORS
330
C
102
}
330
C
100
AcDbDictionary
281
     1
  0
DICTIONARY
  5
2A
102
{ACAD_REACTORS
330
C
102
}
330
C
100
AcDbDictionary
281
     1
  3
2dWireframe
350
2F
  3
3D Hidden
350
31
  3
3dWireframe
350
30
  3
Basic
350
32
  3
Brighten
350
36
  3
ColorChange
350
3A
  3
Conceptual
350
34
  3
Dim
350
35
  3
Facepattern
350
39
  3
Flat
350
2B
  3
FlatWithEdges
350
2C
  3
Gouraud
350
2D
  3
GouraudWithEdges
350
2E
  3
Linepattern
350
38
  3
Realistic
350
33
  3
Thicken
350
37
  0
LAYOUT
  5
1E
102
{ACAD_REACTORS
330
1A
102
}
330
1A
100
AcDbPlotSettings
  1

  2
none_device
  4

  6

 40
0.0
 41
0.0
 42
0.0
 43
0.0
 44
0.0
 45
0.0
 46
0.0
 47
0.0
 48
0.0
 49
0.0
140
0.0
141
0.0
142
1.0
143
1.0
 70
   688
 72
     0
 73
     0
 74
     5
  7

 75
    16
 76
     0
 77
     2
 78
   300
147
1.0
148
0.0
149
0.0
100
AcDbLayout
  1
Layout1
 70
     1
 71
     1
 10
0.0
 20
0.0
 11
12.0
 21
9.0
 12
0.0
 22
0.0
 32
0.0
 14
1.000000000000000E+20
 24
1.000000000000000E+20
 34
1.000000000000000E+20
 15
-1.000000000000000E+20
 25
-1.000000000000000E+20
 35
-1.000000000000000E+20
146
0.0
 13
0.0
 23
0.0
 33
0.0
 16
1.0
 26
0.0
 36
0.0
 17
0.0
 27
1.0
 37
0.0
 76
     0
330
1B
  0
LAYOUT
  5
26
102
{ACAD_REACTORS
330
1A
102
}
330
1A
100
AcDbPlotSettings
  1

  2
none_device
  4

  6

 40
0.0
 41
0.0
 42
0.0
 43
0.0
 44
0.0
 45
0.0
 46
0.0
 47
0.0
 48
0.0
 49
0.0
140
0.0
141
0.0
142
1.0
143
1.0
 70
   688
 72
     0
 73
     0
 74
     5
  7

 75
    16
 76
     0
 77
     2
 78
   300
147
1.0
148
0.0
149
0.0
100
AcDbLayout
  1
Layout2
 70
     1
 71
     2
 10
0.0
 20
0.0
 11
0.0
 21
0.0
 12
0.0
 22
0.0
 32
0.0
 14
0.0
 24
0.0
 34
0.0
 15
0.0
 25
0.0
 35
0.0
146
0.0
 13
0.0
 23
0.0
 33
0.0
 16
1.0
 26
0.0
 36
0.0
 17
0.0
 27
1.0
 37
0.0
 76
     0
330
23
  0
LAYOUT
  5
22
102
{ACAD_REACTORS
330
1A
102
}
330
1A
100
AcDbPlotSettings
  1

  2
none_device
  4

  6

 40
0.0
 41
0.0
 42
0.0
 43
0.0
 44
0.0
 45
0.0
 46
0.0
 47
0.0
 48
0.0
 49
0.0
140
0.0
141
0.0
142
1.0
143
1.0
 70
  1712
 72
     0
 73
     0
 74
     0
  7

 75
     0
 76
     0
 77
     2
 78
   300
147
1.0
148
0.0
149
0.0
100
AcDbLayout
  1
Model
 70
     1
 71
     0
 10
0.0
 20
0.0
 11
12.0
 21
9.0
 12
0.0
 22
0.0
 32
0.0
 14
1.000000000000000E+20
 24
1.000000000000000E+20
 34
1.000000000000000E+20
 15
-1.000000000000000E+20
 25
-1.000000000000000E+20
 35
-1.000000000000000E+20
146
0.0
 13
0.0
 23
0.0
 33
0.0
 16
1.0
 26
0.0
 36
0.0
 17
0.0
 27
1.0
 37
0.0
 76
     0
330
1F
331
29
  0
MATERIAL
  5
3D
102
{ACAD_REACTORS
330
3B
102
}
330
3B
100
AcDbMaterial
  1
ByBlock
 72
     1
 94
      127
  0
MATERIAL
  5
3C
102
{ACAD_REACTORS
330
3B
102
}
330
3B
100
AcDbMaterial
  1
ByLayer
 72
     1
 94
      127
  0
MATERIAL
  5
3E
102
{ACAD_REACTORS
330
3B
102
}
330
3B
100
AcDbMaterial
  1
Global
 72
     1
 94
      127
  0
MLINESTYLE
  5
18
102
{ACAD_REACTORS
330
17
102
}
330
17
100
AcDbMlineStyle
  2
Standard
 70
     0
  3

 62
   256
 51
90.0
 52
90.0
 71
     2
 49
0.5
 62
   256
  6
BYLAYER
 49
-0.5
 62
   256
  6
BYLAYER
  0
ACDBPLACEHOLDER
  5
F
102
{ACAD_REACTORS
330
E
102
}
330
E
  0
VISUALSTYLE
  5
2F
102
{ACAD_REACTORS
330
2A
102
}
330
2A
100
AcDbVisualStyle
  2
2dWireframe
 70
     4
177
     2
291
     0
 71
     0
176
     1
 72
     2
176
     1
 73
     0
176
     1
 90
        0
176
     1
 40
-0.6
176
     1
 41
-30.0
176
     1
 62
     5
 63
     7
421
 16777215
176
     1
 74
     1
176
     1
 91
        4
176
     1
 64
     7
176
     1
 65
   257
176
     1
 75
     1
176
     1
175
     1
176
     1
 42
1.0
176
     1
 92
        0
176
     1
 66
   257
176
     1
 43
1.0
176
     1
 76
     1
176
     1
 77
     6
176
     1
 78
     2
176
     1
 67
     7
176
     1
 79
     5
176
     1
170
     0
176
     1
171
     0
176
     1
290
     0
176
     1
 93
        1
176
     1
 44
0.0
176
     1
173
     0
176
     1
  0
VISUALSTYLE
  5
31
102
{ACAD_REACTORS
330
2A
102
}
330
2A
100
AcDbVisualStyle
  2
3D Hidden
 70
     6
177
     2
291
     0
 71
     1
176
     1
 72
     2
176
     1
 73
     2
176
     1
 90
        0
176
     1
 40
-0.6
176
     1
 41
-30.0
176
     1
 62
     5
 63
     7
421
 16777215
176
     1
 74
     2
176
     1
 91
        2
176
     1
 64
     7
176
     1
 65
   257
176
     1
 75
     2
176
     1
175
     1
176
     1
 42
40.0
176
     1
 92
        0
176
     1
 66
   257
176
     1
 43
1.0
176
     1
 76
     1
176
     1
 77
     6
176
     1
 78
     2
176
     1
 67
     7
176
     1
 79
     3
176
     1
170
     0
176
     1
171
     0
176
     1
290
     0
176
     1
 93
        1
176
     1
 44
0.0
176
     1
173
     0
176
     1
  0
VISUALSTYLE
  5
30
102
{ACAD_REACTORS
330
2A
102
}
330
2A
100
AcDbVisualStyle
  2
3dWireframe
 70
     5
177
     2
291
     0
 71
     0
176
     1
 72
     2
176
     1
 73
     0
176
     1
 90
        0
176
     1
 40
-0.6
176
     1
 41
-30.0
176
     1
 62
     5
 63
     7
421
 16777215
176
     1
 74
     1
176
     1
 91
        4
176
     1
 64
     7
176
     1
 65
   257
176
     1
 75
     1
176
     1
175
     1
176
     1
 42
1.0
176
     1
 92
        0
176
     1
 66
   257
176
     1
 43
1.0
176
     1
 76
     1
176
     1
 77
     6
176
     1
 78
     2
176
     1
 67
     7
176
     1
 79
     5
176
     1
170
     0
176
     1
171
     0
176
     1
290
     0
176
     1
 93
        1
176
     1
 44
0.0
176
     1
173
     0
176
     1
  0
VISUALSTYLE
  5
32
102
{ACAD_REACTORS
330
2A
102
}
330
2A
100
AcDbVisualStyle
  2
Basic
 70
     7
177
     2
291
     1
 71
     1
176
     1
 72
     0
176
     1
 73
     1
176
     1
 90
        0
176
     1
 40
-0.6
176
     1
 41
-30.0
176
     1
 62
     5
 63
     7
421
 16777215
176
     1
 74
     0
176
     1
 91
        4
176
     1
 64
     7
176
     1
 65
   257
176
     1
 75
     1
176
     1
175
     1
176
     1
 42
1.0
176
     1
 92
        8
176
     1
 66
     7
176
     1
 43
1.0
176
     1
 76
     1
176
     1
 77
     6
176
     1
 78
     2
176
     1
 67
     7
176
     1
 79
     5
176
     1
170
     0
176
     1
171
     0
176
     1
290
     0
176
     1
 93
        1
176
     1
 44
0.0
176
     1
173
     0
176
     1
  0
VISUALSTYLE
  5
36
102
{ACAD_REACTORS
330
2A
102
}
330
2A
100
AcDbVisualStyle
  2
Brighten
 70
    12
177
     2
291
     1
 71
     2
176
     1
 72
     2
176
     1
 73
     0
176
     1
 90
        0
176
     1
 40
-0.6
176
     1
 41
-30.0
176
     1
 62
     5
 63
     7
421
 16777215
176
     1
 74
     1
176
     1
 91
        4
176
     1
 64
     7
176
     1
 65
   257
176
     1
 75
     1
176
     1
175
     1
176
     1
 42
1.0
176
     1
 92
        8
176
     1
 66
     7
176
     1
 43
1.0
176
     1
 76
     1
176
     1
 77
     6
176
     1
 78
     2
176
     1
 67
     7
176
     1
 79
     5
176
     1
170
     0
176
     1
171
     0
176
     1
290
     0
176
     1
 93
        1
176
     1
 44
50.0
176
     1
173
     0
176
     1
  0
VISUALSTYLE
  5
3A
102
{ACAD_REACTORS
330
2A
102
}
330
2A
100
AcDbVisualStyle
  2
ColorChange
 70
    16
177
     2
291
     1
 71
     2
176
     1
 72
     2
176
     1
 73
     3
176
     1
 90
        0
176
     1
 40
-0.6
176
     1
 41
-30.0
176
     1
 62
     5
 63
     8
421
  8421504
176
     1
 74
     1
176
     1
 91
        4
176
     1
 64
     7
176
     1
 65
   257
176
     1
 75
     1
176
     1
175
     1
176
     1
 42
1.0
176
     1
 92
        8
176
     1
 66
     8
424
  8421504
176
     1
 43
1.0
176
     1
 76
     1
176
     1
 77
     6
176
     1
 78
     2
176
     1
 67
     7
176
     1
 79
     5
176
     1
170
     0
176
     1
171
     0
176
     1
290
     0
176
     1
 93
        1
176
     1
 44
0.0
176
     1
173
     0
176
     1
  0
VISUALSTYLE
  5
34
102
{ACAD_REACTORS
330
2A
102
}
330
2A
100
AcDbVisualStyle
  2
Conceptual
 70
     9
177
     2
291
     0
 71
     3
176
     1
 72
     2
176
     1
 73
     0
176
     1
 90
        0
176
     1
 40
-0.6
176
     1
 41
-30.0
176
     1
 62
     5
 63
     7
421
 16777215
176
     1
 74
     2
176
     1
 91
        2
176
     1
 64
     7
176
     1
 65
   257
176
     1
 75
     1
176
     1
175
     1
176
     1
 42
40.0
176
     1
 92
        8
176
     1
 66
     7
176
     1
 43
1.0
176
     1
 76
     1
176
     1
 77
     6
176
     1
 78
     2
176
     1
 67
     7
176
     1
 79
     3
176
     1
170
     0
176
     1
171
     0
176
     1
290
     0
176
     1
 93
        1
176
     1
 44
0.0
176
     1
173
     0
176
     1
  0
VISUALSTYLE
  5
35
102
{ACAD_REACTORS
330
2A
102
}
330
2A
100
AcDbVisualStyle
  2
Dim
 70
    11
177
     2
291
     1
 71
     2
176
     1
 72
     2
176
     1
 73
     0
176
     1
 90
        0
176
     1
 40
-0.6
176
     1
 41
-30.0
176
     1
 62
     5
 63
     7
421
 16777215
176
     1
 74
     1
176
     1
 91
        4
176
     1
 64
     7
176
     1
 65
   257
176
     1
 75
     1
176
     1
175
     1
176
     1
 42
1.0
176
     1
 92
        8
176
     1
 66
     7
176
     1
 43
1.0
176
     1
 76
     1
176
     1
 77
     6
176
     1
 78
     2
176
     1
 67
     7
176
     1
 79
     5
176
     1
170
     0
176
     1
171
     0
176
     1
290
     0
176
     1
 93
        1
176
     1
 44
-50.0
176
     1
173
     0
176
     1
  0
VISUALSTYLE
  5
39
102
{ACAD_REACTORS
330
2A
102
}
330
2A
100
AcDbVisualStyle
  2
Facepattern
 70
    15
177
     2
291
     1
 71
     2
176
     1
 72
     2
176
     1
 73
     0
176
     1
 90
        0
176
     1
 40
-0.6
176
     1
 41
-30.0
176
     1
 62
     5
 63
     7
421
 16777215
176
     1
 74
     1
176
     1
 91
        4
176
     1
 64
     7
176
     1
 65
   257
176
     1
 75
     1
176
     1
175
     1
176
     1
 42
1.0
176
     1
 92
        8
176
     1
 66
     7
176
     1
 43
1.0
176
     1
 76
     1
176
     1
 77
     6
176
     1
 78
     2
176
     1
 67
     7
176
     1
 79
     5
176
     1
170
     0
176
     1
171
     0
176
     1
290
     0
176
     1
 93
        1
176
     1
 44
0.0
176
     1
173
     0
176
     1
  0
VISUALSTYLE
  5
2B
102
{ACAD_REACTORS
330
2A
102
}
330
2A
100
AcDbVisualStyle
  2
Flat
 70
     0
177
     2
291
     1
 71
     2
176
     1
 72
     1
176
     1
 73
     1
176
     1
 90
        2
176
     1
 40
-0.6
176
     1
 41
30.0
176
     1
 62
     5
 63
     7
421
 16777215
176
     1
 74
     0
176
     1
 91
        4
176
     1
 64
     7
176
     1
 65
   257
176
     1
 75
     1
176
     1
175
     1
176
     1
 42
1.0
176
     1
 92
        8
176
     1
 66
     7
176
     1
 43
1.0
176
     1
 76
     1
176
     1
 77
     6
176
     1
 78
     2
176
     1
 67
     7
176
     1
 79
     5
176
     1
170
     0
176
     1
171
     0
176
     1
290
     0
176
     1
 93
       13
176
     1
 44
0.0
176
     1
173
     0
176
     1
  0
VISUALSTYLE
  5
2C
102
{ACAD_REACTORS
330
2A
102
}
330
2A
100
AcDbVisualStyle
  2
FlatWithEdges
 70
     1
177
     2
291
     1
 71
     2
176
     1
 72
     1
176
     1
 73
     1
176
     1
 90
        2
176
     1
 40
-0.6
176
     1
 41
30.0
176
     1
 62
     5
 63
     7
421
 16777215
176
     1
 74
     1
176
     1
 91
        4
176
     1
 64
     7
176
     1
 65
   257
176
     1
 75
     1
176
     1
175
     1
176
     1
 42
1.0
176
     1
 92
        0
176
     1
 66
   257
176
     1
 43
1.0
176
     1
 76
     1
176
     1
 77
     6
176
     1
 78
     2
176
     1
 67
     7
176
     1
 79
     5
176
     1
170
     0
176
     1
171
     0
176
     1
290
     0
176
     1
 93
       13
176
     1
 44
0.0
176
     1
173
     0
176
     1
  0
VISUALSTYLE
  5
2D
102
{ACAD_REACTORS
330
2A
102
}
330
2A
100
AcDbVisualStyle
  2
Gouraud
 70
     2
177
     2
291
     1
 71
     2
176
     1
 72
     2
176
     1
 73
     1
176
     1
 90
        2
176
     1
 40
-0.6
176
     1
 41
30.0
176
     1
 62
     5
 63
     7
421
 16777215
176
     1
 74
     0
176
     1
 91
        4
176
     1
 64
     7
176
     1
 65
   257
176
     1
 75
     1
176
     1
175
     1
176
     1
 42
1.0
176
     1
 92
        0
176
     1
 66
     7
176
     1
 43
1.0
176
     1
 76
     1
176
     1
 77
     6
176
     1
 78
     2
176
     1
 67
     7
176
     1
 79
     5
176
     1
170
     0
176
     1
171
     0
176
     1
290
     0
176
     1
 93
       13
176
     1
 44
0.0
176
     1
173
     0
176
     1
  0
VISUALSTYLE
  5
2E
102
{ACAD_REACTORS
330
2A
102
}
330
2A
100
AcDbVisualStyle
  2
GouraudWithEdges
 70
     3
177
     2
291
     1
 71
     2
176
     1
 72
     2
176
     1
 73
     1
176
     1
 90
        2
176
     1
 40
-0.6
176
     1
 41
30.0
176
     1
 62
     5
 63
     7
421
 16777215
176
     1
 74
     1
176
     1
 91
        4
176
     1
 64
     7
176
     1
 65
   257
176
     1
 75
     1
176
     1
175
     1
176
     1
 42
1.0
176
     1
 92
        0
176
     1
 66
   257
176
     1
 43
1.0
176
     1
 76
     1
176
     1
 77
     6
176
     1
 78
     2
176
     1
 67
     7
176
     1
 79
     5
176
     1
170
     0
176
     1
171
     0
176
     1
290
     0
176
     1
 93
       13
176
     1
 44
0.0
176
     1
173
     0
176
     1
  0
VISUALSTYLE
  5
38
102
{ACAD_REACTORS
330
2A
102
}
330
2A
100
AcDbVisualStyle
  2
Linepattern
 70
    14
177
     2
291
     1
 71
     2
176
     1
 72
     2
176
     1
 73
     0
176
     1
 90
        0
176
     1
 40
-0.6
176
     1
 41
-30.0
176
     1
 62
     5
 63
     7
421
 16777215
176
     1
 74
     1
176
     1
 91
        4
176
     1
 64
     7
176
     1
 65
   257
176
     1
 75
     7
176
     1
175
     7
176
     1
 42
1.0
176
     1
 92
        8
176
     1
 66
     7
176
     1
 43
1.0
176
     1
 76
     1
176
     1
 77
     6
176
     1
 78
     2
176
     1
 67
     7
176
     1
 79
     5
176
     1
170
     0
176
     1
171
     0
176
     1
290
     0
176
     1
 93
        1
176
     1
 44
0.0
176
     1
173
     0
176
     1
  0
VISUALSTYLE
  5
33
102
{ACAD_REACTORS
330
2A
102
}
330
2A
100
AcDbVisualStyle
  2
Realistic
 70
     8
177
     2
291
     0
 71
     2
176
     1
 72
     2
176
     1
 73
     0
176
     1
 90
        0
176
     1
 40
-0.6
176
     1
 41
-30.0
176
     1
 62
     5
 63
     7
421
 16777215
176
     1
 74
     1
176
     1
 91
        0
176
     1
 64
     7
176
     1
 65
   257
176
     1
 75
     1
176
     1
175
     1
176
     1
 42
1.0
176
     1
 92
        8
176
     1
 66
     8
424
  7895160
176
     1
 43
1.0
176
     1
 76
     1
176
     1
 77
     6
176
     1
 78
     2
176
     1
 67
     7
176
     1
 79
     5
176
     1
170
     0
176
     1
171
     0
176
     1
290
     0
176
     1
 93
       13
176
     1
 44
0.0
176
     1
173
     0
176
     1
  0
VISUALSTYLE
  5
37
102
{ACAD_REACTORS
330
2A
102
}
330
2A
100
AcDbVisualStyle
  2
Thicken
 70
    13
177
     2
291
     1
 71
     2
176
     1
 72
     2
176
     1
 73
     0
176
     1
 90
        0
176
     1
 40
-0.6
176
     1
 41
-30.0
176
     1
 62
     5
 63
     7
421
 16777215
176
     1
 74
     1
176
     1
 91
        4
176
     1
 64
     7
176
     1
 65
   257
176
     1
 75
     1
176
     1
175
     1
176
     1
 42
1.0
176
     1
 92
       12
176
     1
 66
     7
176
     1
 43
1.0
176
     1
 76
     1
176
     1
 77
     6
176
     1
 78
     2
176
     1
 67
     7
176
     1
 79
     5
176
     1
170
     0
176
     1
171
     0
176
     1
290
     0
176
     1
 93
        1
176
     1
 44
0.0
176
     1
173
     0
176
     1
  0
ENDSEC
  0
EOF
