  0
SECTION
  2
HEADER
  9
$ACADVER
  1
AC1024
  9
$ACADMAINTVER
 70
     6
  9
$DWGCODEPAGE
  3
UNDEFINED
  9
$INSBASE
 10
0.0
 20
0.0
 30
0.0
  9
$EXTMIN
 10
1.000000000000000E+20
 20
1.000000000000000E+20
 30
1.000000000000000E+20
  9
$EXTMAX
 10
-1.000000000000000E+20
 20
-1.000000000000000E+20
 30
-1.000000000000000E+20
  9
$LIMMIN
 10
0.0
 20
0.0
  9
$LIMMAX
 10
12.0
 20
9.0
  9
$ORTHOMODE
 70
     0
  9
$REGENMODE
 70
     1
  9
$FILLMODE
 70
     1
  9
$QTEXTMODE
 70
     0
  9
$MIRRTEXT
 70
     1
  9
$LTSCALE
 40
1.0
  9
$ATTMODE
 70
     1
  9
$TEXTSIZE
 40
0.2
  9
$TRACEWID
 40
0.05
  9
$TEXTSTYLE
  7
Standard
  9
$CLAYER
  8
0
  9
$CELTYPE
  6
ByLayer
  9
$CECOLOR
 62
   256
  9
$CELTSCALE
 40
1.0
  9
$DISPSILH
 70
     0
  9
$DIMSCALE
 40
1.0
  9
$DIMASZ
 40
0.18
  9
$DIMEXO
 40
0.0625
  9
$DIMDLI
 40
0.38
  9
$DIMRND
 40
0.0
  9
$DIMDLE
 40
0.0
  9
$DIMEXE
 40
0.18
  9
$DIMTP
 40
0.0
  9
$DIMTM
 40
0.0
  9
$DIMTXT
 40
0.18
  9
$DIMCEN
 40
0.09
  9
$DIMTSZ
 40
0.0
  9
$DIMTOL
 70
     0
  9
$DIMLIM
 70
     0
  9
$DIMTIH
 70
     1
  9
$DIMTOH
 70
     1
  9
$DIMSE1
 70
     0
  9
$DIMSE2
 70
     0
  9
$DIMTAD
 70
     0
  9
$DIMZIN
 70
     0
  9
$DIMBLK
  1

  9
$DIMASO
 70
     1
  9
$DIMSHO
 70
     1
  9
$DIMPOST
  1

  9
$DIMAPOST
  1

  9
$DIMALT
 70
     0
  9
$DIMALTD
 70
     2
  9
$DIMALTF
 40
25.4
  9
$DIMLFAC
 40
1.0
  9
$DIMTOFL
 70
     0
  9
$DIMTVP
 40
0.0
  9
$DIMTIX
 70
     0
  9
$DIMSOXD
 70
     0
  9
$DIMSAH
 70
     0
  9
$DIMBLK1
  1

  9
$DIMBLK2
  1

  9
$DIMSTYLE
  2
Standard
  9
$DIMCLRD
 70
     0
  9
$DIMCLRE
 70
     0
  9
$DIMCLRT
 70
     0
  9
$DIMTFAC
 40
1.0
  9
$DIMGAP
 40
0.09
  9
$DIMJUST
 70
     0
  9
$DIMSD1
 70
     0
  9
$DIMSD2
 70
     0
  9
$DIMTOLJ
 70
     1
  9
$DIMTZIN
 70
     0
  9
$DIMALTZ
 70
     0
  9
$DIMALTTZ
 70
     0
  9
$DIMUPT
 70
     0
  9
$DIMDEC
 70
     4
  9
$DIMTDEC
 70
     4
  9
$DIMALTU
 70
     2
  9
$DIMALTTD
 70
     2
  9
$DIMTXSTY
  7
Standard
  9
$DIMAUNIT
 70
     0
  9
$DIMADEC
 70
     0
  9
$DIMALTRND
 40
0.0
  9
$DIMAZIN
 70
     0
  9
$DIMDSEP
 70
    46
  9
$DIMATFIT
 70
     3
  9
$DIMFRAC
 70
     0
  9
$DIMLDRBLK
  1

  9
$DIMLUNIT
 70
     2
  9
$DIMLWD
 70
    -2
  9
$DIMLWE
 70
    -2
  9
$DIMTMOVE
 70
     0
  9
$DIMFXL
 40
1.0
  9
$DIMFXLON
 70
     0
  9
$DIMJOGANG
 40
0.7853981633974483
  9
$DIMTFILL
 70
     0
  9
$DIMTFILLCLR
 70
     0
  9
$DIMARCSYM
 70
     0
  9
$DIMLTYPE
  6

  9
$DIMLTEX1
  6

  9
$DIMLTEX2
  6

  9
$DIMTXTDIRECTION
 70
     0
  9
$LUNITS
 70
     2
  9
$LUPREC
 70
     4
  9
$SKETCHINC
 40
0.1
  9
$FILLETRAD
 40
0.5
  9
$AUNITS
 70
     0
  9
$AUPREC
 70
     0
  9
$MENU
  1
.
  9
$ELEVATION
 40
0.0
  9
$PELEVATION
 40
0.0
  9
$THICKNESS
 40
0.0
  9
$LIMCHECK
 70
     0
  9
$CHAMFERA
 40
0.5
  9
$CHAMFERB
 40
0.5
  9
$CHAMFERC
 40
1.0
  9
$CHAMFERD
 40
0.0
  9
$SKPOLY
 70
     0
  9
$TDCREATE
 40
2457917.624780081
  9
$TDUCREATE
 40
2457917.249780092
  9
$TDUPDATE
 40
2457917.624780081
  9
$TDUUPDATE
 40
2457917.249780092
  9
$TDINDWG
 40
0.0000000116
  9
$TDUSRTIMER
 40
0.0000000116
  9
$USRTIMER
 70
     1
  9
$ANGBASE
 50
0.0
  9
$ANGDIR
 70
     0
  9
$PDMODE
 70
     0
  9
$PDSIZE
 40
0.0
  9
$PLINEWID
 40
0.0
  9
$SPLFRAME
 70
     0
  9
$SPLINETYPE
 70
     6
  9
$SPLINESEGS
 70
     8
  9
$HANDSEED
  5
AF
  9
$SURFTAB1
 70
     6
  9
$SURFTAB2
 70
     6
  9
$SURFTYPE
 70
     6
  9
$SURFU
 70
     6
  9
$SURFV
 70
     6
  9
$UCSBASE
  2

  9
$UCSNAME
  2

  9
$UCSORG
 10
0.0
 20
0.0
 30
0.0
  9
$UCSXDIR
 10
1.0
 20
0.0
 30
0.0
  9
$UCSYDIR
 10
0.0
 20
1.0
 30
0.0
  9
$UCSORTHOREF
  2

  9
$UCSORTHOVIEW
 70
     0
  9
$UCSORGTOP
 10
0.0
 20
0.0
 30
0.0
  9
$UCSORGBOTTOM
 10
0.0
 20
0.0
 30
0.0
  9
$UCSORGLEFT
 10
0.0
 20
0.0
 30
0.0
  9
$UCSORGRIGHT
 10
0.0
 20
0.0
 30
0.0
  9
$UCSORGFRONT
 10
0.0
 20
0.0
 30
0.0
  9
$UCSORGBACK
 10
0.0
 20
0.0
 30
0.0
  9
$PUCSBASE
  2

  9
$PUCSNAME
  2

  9
$PUCSORG
 10
0.0
 20
0.0
 30
0.0
  9
$PUCSXDIR
 10
1.0
 20
0.0
 30
0.0
  9
$PUCSYDIR
 10
0.0
 20
1.0
 30
0.0
  9
$PUCSORTHOREF
  2

  9
$PUCSORTHOVIEW
 70
     0
  9
$PUCSORGTOP
 10
0.0
 20
0.0
 30
0.0
  9
$PUCSORGBOTTOM
 10
0.0
 20
0.0
 30
0.0
  9
$PUCSORGLEFT
 10
0.0
 20
0.0
 30
0.0
  9
$PUCSORGRIGHT
 10
0.0
 20
0.0
 30
0.0
  9
$PUCSORGFRONT
 10
0.0
 20
0.0
 30
0.0
  9
$PUCSORGBACK
 10
0.0
 20
0.0
 30
0.0
  9
$USERI1
 70
     0
  9
$USERI2
 70
     0
  9
$USERI3
 70
     0
  9
$USERI4
 70
     0
  9
$USERI5
 70
     0
  9
$USERR1
 40
0.0
  9
$USERR2
 40
0.0
  9
$USERR3
 40
0.0
  9
$USERR4
 40
0.0
  9
$USERR5
 40
0.0
  9
$WORLDVIEW
 70
     1
  9
$SHADEDGE
 70
     3
  9
$SHADEDIF
 70
    70
  9
$TILEMODE
 70
     1
  9
$MAXACTVP
 70
    64
  9
$PINSBASE
 10
0.0
 20
0.0
 30
0.0
  9
$PLIMCHECK
 70
     0
  9
$PEXTMIN
 10
1.000000000000000E+20
 20
1.000000000000000E+20
 30
1.000000000000000E+20
  9
$PEXTMAX
 10
-1.000000000000000E+20
 20
-1.000000000000000E+20
 30
-1.000000000000000E+20
  9
$PLIMMIN
 10
0.0
 20
0.0
  9
$PLIMMAX
 10
12.0
 20
9.0
  9
$UNITMODE
 70
     0
  9
$VISRETAIN
 70
     1
  9
$PLINEGEN
 70
     0
  9
$PSLTSCALE
 70
     1
  9
$TREEDEPTH
 70
  3020
  9
$CMLSTYLE
  2
Standard
  9
$CMLJUST
 70
     0
  9
$CMLSCALE
 40
1.0
  9
$PROXYGRAPHICS
 70
     1
  9
$MEASUREMENT
 70
     0
  9
$CELWEIGHT
370
    -1
  9
$ENDCAPS
280
     0
  9
$JOINSTYLE
280
     0
  9
$LWDISPLAY
290
     1
  9
$INSUNITS
 70
     1
  9
$HYPERLINKBASE
  1

  9
$STYLESHEET
  1

  9
$XEDIT
290
     1
  9
$CEPSNTYPE
380
     0
  9
$PSTYLEMODE
290
     1
  9
$FINGERPRINTGUID
  2
{3CC30ADD-586F-06E3-369E-F015F66A23C7}
  9
$VERSIONGUID
  2
{FAEB1C32-E019-11D5-929B-00C0DF256EC4}
  9
$EXTNAMES
290
     1
  9
$PSVPSCALE
 40
0.0
  9
$OLESTARTUP
290
     0
  9
$SORTENTS
280
   127
  9
$INDEXCTL
280
     0
  9
$HIDETEXT
280
     1
  9
$XCLIPFRAME
280
     2
  9
$HALOGAP
280
     0
  9
$OBSCOLOR
 70
   257
  9
$OBSLTYPE
280
     0
  9
$INTERSECTIONDISPLAY
280
     0
  9
$INTERSECTIONCOLOR
 70
   257
  9
$DIMASSOC
280
     2
  9
$PROJECTNAME
  1

  9
$CAMERADISPLAY
290
     0
  9
$LENSLENGTH
 40
50.0
  9
$CAMERAHEIGHT
 40
0.0
  9
$STEPSPERSEC
 40
2.0
  9
$STEPSIZE
 40
6.0
  9
$3DDWFPREC
 40
2.0
  9
$PSOLWIDTH
 40
0.25
  9
$PSOLHEIGHT
 40
4.0
  9
$LOFTANG1
 40
1.570796326794897
  9
$LOFTANG2
 40
1.570796326794897
  9
$LOFTMAG1
 40
0.0
  9
$LOFTMAG2
 40
0.0
  9
$LOFTPARAM
 70
     7
  9
$LOFTNORMALS
280
     1
  9
$LATITUDE
 40
37.795
  9
$LONGITUDE
 40
-122.394
  9
$NORTHDIRECTION
 40
0.0
  9
$TIMEZONE
 70
 -8000
  9
$LIGHTGLYPHDISPLAY
280
     1
  9
$TILEMODELIGHTSYNCH
280
     1
  9
$CMATERIAL
347
3C
  9
$SOLIDHIST
280
     1
  9
$SHOWHIST
280
     1
  9
$DWFFRAME
280
     2
  9
$DGNFRAME
280
     2
  9
$REALWORLDSCALE
290
     1
  9
$INTERFERECOLOR
 62
   256
  9
$CSHADOW
280
     0
  9
$SHADOWPLANELOCATION
 40
0.0
  0
ENDSEC
  0
SECTION
  2
CLASSES
  0
CLASS
  1
ACDBDICTIONARYWDFLT
  2
AcDbDictionaryWithDefault
  3
ObjectDBX Classes
 90
        0
 91
        4
280
     0
281
     0
  0
CLASS
  1
VISUALSTYLE
  2
AcDbVisualStyle
  3
ObjectDBX Classes
 90
     4095
 91
        4
280
     0
281
     0
  0
CLASS
  1
MATERIAL
  2
AcDbMaterial
  3
ObjectDBX Classes
 90
     1153
 91
        4
280
     0
281
     0
  0
CLASS
  1
SUN
  2
AcDbSun
  3
SCENEOE
 90
     1024
 91
        4
280
     0
281
     0
  0
ENDSEC
  0
SECTION
  2
TABLES
  0
TABLE
  2
VPORT
  5
8
330
0
100
AcDbSymbolTable
 70
     1
  0
VPORT
  5
29
330
8
100
AcDbSymbolTableRecord
100
AcDbViewportTableRecord
  2
*Active
 70
     0
 10
0.0
 20
0.0
 11
1.0
 21
1.0
 12
0.0
 22
0.0
 13
0.0
 23
0.0
 14
0.5
 24
0.5
 15
0.5
 25
0.5
 16
0.0
 26
0.0
 36
1.0
 17
91.00082462281999
 27
-128.4993055234307
 37
0.0
 40
256.9986110468615
 41
0.7081814508812795
 42
50.0
 43
0.0
 44
0.0
 50
0.0
 51
0.0
 71
     0
 72
   100
 73
     1
 74
     3
 75
     0
 76
     0
 77
     0
 78
     0
281
     0
 65
     1
110
0.0
120
0.0
130
0.0
111
1.0
121
0.0
131
0.0
112
0.0
122
1.0
132
0.0
 79
     0
146
0.0
 60
     3
 61
     5
292
     1
282
     1
141
0.0
142
0.0
 63
   250
361
3F
  0
ENDTAB
  0
TABLE
  2
LTYPE
  5
5
330
0
100
AcDbSymbolTable
 70
     1
  0
LTYPE
  5
14
330
5
100
AcDbSymbolTableRecord
100
AcDbLinetypeTableRecord
  2
ByBlock
 70
     0
  3

 72
    65
 73
     0
 40
0.0
  0
LTYPE
  5
15
330
5
100
AcDbSymbolTableRecord
100
AcDbLinetypeTableRecord
  2
ByLayer
 70
     0
  3

 72
    65
 73
     0
 40
0.0
  0
LTYPE
  5
16
330
5
100
AcDbSymbolTableRecord
100
AcDbLinetypeTableRecord
  2
Continuous
 70
     0
  3
Solid line
 72
    65
 73
     0
 40
0.0
  0
ENDTAB
  0
TABLE
  2
LAYER
  5
2
330
0
100
AcDbSymbolTable
 70
     2
  0
LAYER
  5
10
330
2
100
AcDbSymbolTableRecord
100
AcDbLayerTableRecord
  2
0
 70
     0
 62
     7
  6
Continuous
370
    -3
390
F
347
3E
  0
LAYER
  5
40
330
2
100
AcDbSymbolTableRecord
100
AcDbLayerTableRecord
  2
_U+30EC_U+30A4_U+30E4_U+30FC 1
 70
     0
 62
     7
  6
Continuous
370
    -3
390
F
347
3E
  0
ENDTAB
  0
TABLE
  2
STYLE
  5
3
330
0
100
AcDbSymbolTable
 70
     1
  0
STYLE
  5
11
330
3
100
AcDbSymbolTableRecord
100
AcDbTextStyleTableRecord
  2
Standard
 70
     0
 40
0.0
 41
1.0
 50
0.0
 71
     0
 42
0.2
  3
txt
  4

  0
ENDTAB
  0
TABLE
  2
VIEW
  5
6
330
0
100
AcDbSymbolTable
 70
     0
  0
ENDTAB
  0
TABLE
  2
UCS
  5
7
330
0
100
AcDbSymbolTable
 70
     0
  0
ENDTAB
  0
TABLE
  2
APPID
  5
9
330
0
100
AcDbSymbolTable
 70
     1
  0
APPID
  5
12
330
9
100
AcDbSymbolTableRecord
100
AcDbRegAppTableRecord
  2
ACAD
 70
     0
  0
ENDTAB
  0
TABLE
  2
DIMSTYLE
  5
A
330
0
100
AcDbSymbolTable
 70
     1
100
AcDbDimStyleTable
  0
DIMSTYLE
105
27
330
A
100
AcDbSymbolTableRecord
100
AcDbDimStyleTableRecord
  2
Standard
 70
     0
178
     0
340
11
  0
ENDTAB
  0
TABLE
  2
BLOCK_RECORD
  5
1
330
0
100
AcDbSymbolTable
 70
     4
  0
BLOCK_RECORD
  5
1F
330
1
100
AcDbSymbolTableRecord
100
AcDbBlockTableRecord
  2
*Model_Space
340
22
 70
     0
280
     1
281
     0
  0
BLOCK_RECORD
  5
1B
330
1
100
AcDbSymbolTableRecord
100
AcDbBlockTableRecord
  2
*Paper_Space
340
1E
 70
     0
280
     1
281
     0
  0
BLOCK_RECORD
  5
23
330
1
100
AcDbSymbolTableRecord
100
AcDbBlockTableRecord
  2
*Paper_Space0
340
26
 70
     0
280
     1
281
     0
  0
BLOCK_RECORD
  5
8D
330
1
100
AcDbSymbolTableRecord
100
AcDbBlockTableRecord
  2
block 2
340
0
102
{BLKREFS
331
8E
102
}
 70
     0
280
     1
281
     0
  0
BLOCK_RECORD
  5
95
330
1
100
AcDbSymbolTableRecord
100
AcDbBlockTableRecord
  2
block 3
340
0
102
{BLKREFS
331
96
102
}
 70
     0
280
     1
281
     0
  0
BLOCK_RECORD
  5
9D
330
1
100
AcDbSymbolTableRecord
100
AcDbBlockTableRecord
  2
block 4
340
0
102
{BLKREFS
331
9E
102
}
 70
     0
280
     1
281
     0
  0
ENDTAB
  0
ENDSEC
  0
SECTION
  2
BLOCKS
  0
BLOCK
  5
20
330
1F
100
AcDbEntity
  8
0
100
AcDbBlockBegin
  2
*Model_Space
 70
     0
 10
0.0
 20
0.0
 30
0.0
  3
*Model_Space
  1

  0
ENDBLK
  5
21
330
1F
100
AcDbEntity
  8
0
100
AcDbBlockEnd
  0
BLOCK
  5
1C
330
1B
100
AcDbEntity
 67
     1
  8
0
100
AcDbBlockBegin
  2
*Paper_Space
 70
     0
 10
0.0
 20
0.0
 30
0.0
  3
*Paper_Space
  1

  0
ENDBLK
  5
1D
330
1B
100
AcDbEntity
 67
     1
  8
0
100
AcDbBlockEnd
  0
BLOCK
  5
24
330
23
100
AcDbEntity
  8
0
100
AcDbBlockBegin
  2
*Paper_Space0
 70
     0
 10
0.0
 20
0.0
 30
0.0
  3
*Paper_Space0
  1

  0
ENDBLK
  5
25
330
23
100
AcDbEntity
  8
0
100
AcDbBlockEnd
  0
BLOCK
  5
8F
330
8D
100
AcDbEntity
  8
0
100
AcDbBlockBegin
  2
block 2
 70
     0
 10
0.0
 20
0.0
 30
0.0
  3
block 2
  1

  0
SPLINE
  5
91
330
8D
100
AcDbEntity
  8
_U+30EC_U+30A4_U+30E4_U+30FC 1
370
     0
100
AcDbSpline
210
0.0
220
0.0
230
1.0
 70
    11
 71
     3
 72
    44
 73
    40
 74
     0
 42
0.0000000001
 43
0.0000000001
 12
1.0
 22
0.0
 32
0.0
 13
1.0
 23
0.0
 33
0.0
 40
0.0
 40
0.0
 40
0.0
 40
0.0
 40
1.0
 40
1.0
 40
1.0
 40
2.0
 40
2.0
 40
2.0
 40
3.0
 40
3.0
 40
3.0
 40
4.0
 40
4.0
 40
4.0
 40
5.0
 40
5.0
 40
5.0
 40
6.0
 40
6.0
 40
6.0
 40
7.0
 40
7.0
 40
7.0
 40
8.0
 40
8.0
 40
8.0
 40
9.0
 40
9.0
 40
9.0
 40
10.0
 40
10.0
 40
10.0
 40
11.0
 40
11.0
 40
11.0
 40
12.0
 40
12.0
 40
12.0
 40
13.0
 40
13.0
 40
13.0
 40
13.0
 10
87.68680960264427
 20
-135.8773220146418
 30
0.0
 10
87.45392114784138
 20
-136.0361409165118
 30
0.0
 10
87.35453014309192
 20
-136.1102104694447
 30
0.0
 10
87.30250920126466
 20
-136.2538709511796
 30
0.0
 10
87.30250920126466
 20
-136.2538709511796
 30
0.0
 10
88.1344997609525
 20
-136.2538709511796
 30
0.0
 10
88.1344997609525
 20
-136.2538709511796
 30
0.0
 10
88.1344997609525
 20
-136.2538709511796
 30
0.0
 10
88.1344997609525
 20
-136.4591986421005
 30
0.0
 10
88.1344997609525
 20
-136.4591986421005
 30
0.0
 10
88.1344997609525
 20
-136.4591986421005
 30
0.0
 10
87.03568655593206
 20
-136.4591986421005
 30
0.0
 10
87.03568655593206
 20
-136.4591986421005
 30
0.0
 10
87.06962074646177
 20
-136.1015977307316
 30
0.0
 10
87.1397284395866
 20
-136.0233940632164
 30
0.0
 10
87.55124509529969
 20
-135.7250487941938
 30
0.0
 10
87.82478567682853
 20
-135.5262667846948
 30
0.0
 10
87.89489336995337
 20
-135.4583984036354
 30
0.0
 10
87.89489336995337
 20
-135.3209390937739
 30
0.0
 10
87.89489336995337
 20
-135.2024278090813
 30
0.0
 10
87.81789548585803
 20
-135.0715141806419
 30
0.0
 10
87.60774466125778
 20
-135.0715141806419
 30
0.0
 10
87.32972545559812
 20
-135.0715141806419
 30
0.0
 10
87.32059595256221
 20
-135.3019910686051
 30
0.0
 10
87.31611732843139
 20
-135.4184352960065
 30
0.0
 10
87.31611732843139
 20
-135.4184352960065
 30
0.0
 10
87.07651093743226
 20
-135.4184352960065
 30
0.0
 10
87.07651093743226
 20
-135.4184352960065
 30
0.0
 10
87.08546818569391
 20
-135.2913112726008
 30
0.0
 10
87.09683700079523
 20
-135.1793456693302
 30
0.0
 10
87.18261987837796
 20
-135.0608343846376
 30
0.0
 10
87.30026988919924
 20
-134.8999484254764
 30
0.0
 10
87.49922415347243
 20
-134.8661864897209
 30
0.0
 10
87.62359210048994
 20
-134.8661864897209
 30
0.0
 10
87.91969805744716
 20
-134.8661864897209
 30
0.0
 10
88.14138995192299
 20
-135.0501545886333
 30
0.0
 10
88.14138995192299
 20
-135.3230061510651
 30
0.0
 10
88.14138995192299
 20
-135.5517604912857
 30
0.0
 10
88.01702200490547
 20
-135.6509792412609
 30
0.0
 10
87.68680960264427
 20
-135.8773220146418
 30
0.0
  0
HATCH
  5
92
330
8D
100
AcDbEntity
  8
_U+30EC_U+30A4_U+30E4_U+30FC 1
 62
   179
420
  2234388
100
AcDbHatch
 10
0.0
 20
0.0
 30
0.0
210
0.0
220
0.0
230
1.0
  2
SOLID
 70
     1
 71
     0
 91
        1
 92
        1
 93
        1
 72
     4
 94
        3
 73
     0
 74
     1
 95
       44
 96
       40
 40
0.0
 40
0.0
 40
0.0
 40
0.0
 40
1.0
 40
1.0
 40
1.0
 40
2.0
 40
2.0
 40
2.0
 40
3.0
 40
3.0
 40
3.0
 40
4.0
 40
4.0
 40
4.0
 40
5.0
 40
5.0
 40
5.0
 40
6.0
 40
6.0
 40
6.0
 40
7.0
 40
7.0
 40
7.0
 40
8.0
 40
8.0
 40
8.0
 40
9.0
 40
9.0
 40
9.0
 40
10.0
 40
10.0
 40
10.0
 40
11.0
 40
11.0
 40
11.0
 40
12.0
 40
12.0
 40
12.0
 40
13.0
 40
13.0
 40
13.0
 40
13.0
 10
87.68680960264427
 20
-135.8773220146418
 10
87.45392114784138
 20
-136.0361409165118
 10
87.35453014309192
 20
-136.1102104694447
 10
87.30250920126466
 20
-136.2538709511796
 10
87.30250920126466
 20
-136.2538709511796
 10
88.1344997609525
 20
-136.2538709511796
 10
88.1344997609525
 20
-136.2538709511796
 10
88.1344997609525
 20
-136.2538709511796
 10
88.1344997609525
 20
-136.4591986421005
 10
88.1344997609525
 20
-136.4591986421005
 10
88.1344997609525
 20
-136.4591986421005
 10
87.03568655593206
 20
-136.4591986421005
 10
87.03568655593206
 20
-136.4591986421005
 10
87.06962074646177
 20
-136.1015977307316
 10
87.1397284395866
 20
-136.0233940632164
 10
87.55124509529969
 20
-135.7250487941938
 10
87.82478567682853
 20
-135.5262667846948
 10
87.89489336995337
 20
-135.4583984036354
 10
87.89489336995337
 20
-135.3209390937739
 10
87.89489336995337
 20
-135.2024278090813
 10
87.81789548585803
 20
-135.0715141806419
 10
87.60774466125778
 20
-135.0715141806419
 10
87.32972545559812
 20
-135.0715141806419
 10
87.32059595256221
 20
-135.3019910686051
 10
87.31611732843139
 20
-135.4184352960065
 10
87.31611732843139
 20
-135.4184352960065
 10
87.07651093743226
 20
-135.4184352960065
 10
87.07651093743226
 20
-135.4184352960065
 10
87.08546818569391
 20
-135.2913112726008
 10
87.09683700079523
 20
-135.1793456693302
 10
87.18261987837796
 20
-135.0608343846376
 10
87.30026988919924
 20
-134.8999484254764
 10
87.49922415347243
 20
-134.8661864897209
 10
87.62359210048994
 20
-134.8661864897209
 10
87.91969805744716
 20
-134.8661864897209
 10
88.14138995192299
 20
-135.0501545886333
 10
88.14138995192299
 20
-135.3230061510651
 10
88.14138995192299
 20
-135.5517604912857
 10
88.01702200490547
 20
-135.6509792412609
 10
87.68680960264427
 20
-135.8773220146418
 97
        0
 97
        0
 75
     2
 76
     1
 98
        0
  0
SPLINE
  5
93
330
8D
100
AcDbEntity
  8
_U+30EC_U+30A4_U+30E4_U+30FC 1
370
     0
100
AcDbSpline
210
0.0
220
0.0
230
1.0
 70
    11
 71
     3
 72
    26
 73
    22
 74
     0
 42
0.0000000001
 43
0.0000000001
 12
1.0
 22
0.0
 32
0.0
 13
1.0
 23
0.0
 33
0.0
 40
0.0
 40
0.0
 40
0.0
 40
0.0
 40
1.0
 40
1.0
 40
1.0
 40
2.0
 40
2.0
 40
2.0
 40
3.0
 40
3.0
 40
3.0
 40
4.0
 40
4.0
 40
4.0
 40
5.0
 40
5.0
 40
5.0
 40
6.0
 40
6.0
 40
6.0
 40
7.0
 40
7.0
 40
7.0
 40
7.0
 10
88.79285750818373
 20
-136.4591986421005
 30
0.0
 10
88.79285750818373
 20
-136.4591986421005
 30
0.0
 10
88.79285750818373
 20
-135.3550455390779
 30
0.0
 10
88.79285750818373
 20
-135.3550455390779
 30
0.0
 10
88.79285750818373
 20
-135.3550455390779
 30
0.0
 10
88.44042424004267
 20
-135.3550455390779
 30
0.0
 10
88.44042424004267
 20
-135.3550455390779
 30
0.0
 10
88.44042424004267
 20
-135.3550455390779
 30
0.0
 10
88.44042424004267
 20
-135.2069064332122
 30
0.0
 10
88.44042424004267
 20
-135.2069064332122
 30
0.0
 10
88.79526907502341
 20
-135.1920925226256
 30
0.0
 10
88.84487845001101
 20
-135.0291395061733
 30
0.0
 10
88.8765733284753
 20
-134.914762336063
 30
0.0
 10
88.8765733284753
 20
-134.914762336063
 30
0.0
 10
89.03263615395713
 20
-134.914762336063
 30
0.0
 10
89.03263615395713
 20
-134.914762336063
 30
0.0
 10
89.03263615395713
 20
-134.914762336063
 30
0.0
 10
89.03263615395713
 20
-136.4591986421005
 30
0.0
 10
89.03263615395713
 20
-136.4591986421005
 30
0.0
 10
89.03263615395713
 20
-136.4591986421005
 30
0.0
 10
88.79285750818373
 20
-136.4591986421005
 30
0.0
 10
88.79285750818373
 20
-136.4591986421005
 30
0.0
  0
HATCH
  5
94
330
8D
100
AcDbEntity
  8
_U+30EC_U+30A4_U+30E4_U+30FC 1
 62
   179
420
  2234388
100
AcDbHatch
 10
0.0
 20
0.0
 30
0.0
210
0.0
220
0.0
230
1.0
  2
SOLID
 70
     1
 71
     0
 91
        1
 92
        1
 93
        1
 72
     4
 94
        3
 73
     0
 74
     1
 95
       26
 96
       22
 40
0.0
 40
0.0
 40
0.0
 40
0.0
 40
1.0
 40
1.0
 40
1.0
 40
2.0
 40
2.0
 40
2.0
 40
3.0
 40
3.0
 40
3.0
 40
4.0
 40
4.0
 40
4.0
 40
5.0
 40
5.0
 40
5.0
 40
6.0
 40
6.0
 40
6.0
 40
7.0
 40
7.0
 40
7.0
 40
7.0
 10
88.79285750818373
 20
-136.4591986421005
 10
88.79285750818373
 20
-136.4591986421005
 10
88.79285750818373
 20
-135.3550455390779
 10
88.79285750818373
 20
-135.3550455390779
 10
88.79285750818373
 20
-135.3550455390779
 10
88.44042424004267
 20
-135.3550455390779
 10
88.44042424004267
 20
-135.3550455390779
 10
88.44042424004267
 20
-135.3550455390779
 10
88.44042424004267
 20
-135.2069064332122
 10
88.44042424004267
 20
-135.2069064332122
 10
88.79526907502341
 20
-135.1920925226256
 10
88.84487845001101
 20
-135.0291395061733
 10
88.8765733284753
 20
-134.914762336063
 10
88.8765733284753
 20
-134.914762336063
 10
89.03263615395713
 20
-134.914762336063
 10
89.03263615395713
 20
-134.914762336063
 10
89.03263615395713
 20
-134.914762336063
 10
89.03263615395713
 20
-136.4591986421005
 10
89.03263615395713
 20
-136.4591986421005
 10
89.03263615395713
 20
-136.4591986421005
 10
88.79285750818373
 20
-136.4591986421005
 10
88.79285750818373
 20
-136.4591986421005
 97
        0
 97
        0
 75
     2
 76
     1
 98
        0
  0
ENDBLK
  5
90
330
8D
100
AcDbEntity
  8
0
100
AcDbBlockEnd
  0
BLOCK
  5
97
330
95
100
AcDbEntity
  8
0
100
AcDbBlockBegin
  2
block 3
 70
     0
 10
0.0
 20
0.0
 30
0.0
  3
block 3
  1

  0
SPLINE
  5
99
330
95
100
AcDbEntity
  8
_U+30EC_U+30A4_U+30E4_U+30FC 1
370
     0
100
AcDbSpline
210
0.0
220
0.0
230
1.0
 70
    11
 71
     3
 72
    26
 73
    22
 74
     0
 42
0.0000000001
 43
0.0000000001
 12
1.0
 22
0.0
 32
0.0
 13
1.0
 23
0.0
 33
0.0
 40
0.0
 40
0.0
 40
0.0
 40
0.0
 40
1.0
 40
1.0
 40
1.0
 40
2.0
 40
2.0
 40
2.0
 40
3.0
 40
3.0
 40
3.0
 40
4.0
 40
4.0
 40
4.0
 40
5.0
 40
5.0
 40
5.0
 40
6.0
 40
6.0
 40
6.0
 40
7.0
 40
7.0
 40
7.0
 40
7.0
 10
87.53539765606754
 20
-121.9591362542324
 30
0.0
 10
87.53539765606754
 20
-121.9591362542324
 30
0.0
 10
87.53539765606754
 20
-120.8548108964356
 30
0.0
 10
87.53539765606754
 20
-120.8548108964356
 30
0.0
 10
87.53539765606754
 20
-120.8548108964356
 30
0.0
 10
87.18261987837796
 20
-120.8548108964356
 30
0.0
 10
87.18261987837796
 20
-120.8548108964356
 30
0.0
 10
87.18261987837796
 20
-120.8548108964356
 30
0.0
 10
87.18261987837796
 20
-120.7068440453441
 30
0.0
 10
87.18261987837796
 20
-120.7068440453441
 30
0.0
 10
87.53763696813296
 20
-120.6920301347576
 30
0.0
 10
87.58741859789481
 20
-120.5290771183052
 30
0.0
 10
87.61911347635912
 20
-120.4148722029692
 30
0.0
 10
87.61911347635912
 20
-120.4148722029692
 30
0.0
 10
87.77500404706667
 20
-120.4148722029692
 30
0.0
 10
87.77500404706667
 20
-120.4148722029692
 30
0.0
 10
87.77500404706667
 20
-120.4148722029692
 30
0.0
 10
87.77500404706667
 20
-121.9591362542324
 30
0.0
 10
87.77500404706667
 20
-121.9591362542324
 30
0.0
 10
87.77500404706667
 20
-121.9591362542324
 30
0.0
 10
87.53539765606754
 20
-121.9591362542324
 30
0.0
 10
87.53539765606754
 20
-121.9591362542324
 30
0.0
  0
HATCH
  5
9A
330
95
100
AcDbEntity
  8
_U+30EC_U+30A4_U+30E4_U+30FC 1
 62
   179
420
  2234388
100
AcDbHatch
 10
0.0
 20
0.0
 30
0.0
210
0.0
220
0.0
230
1.0
  2
SOLID
 70
     1
 71
     0
 91
        1
 92
        1
 93
        1
 72
     4
 94
        3
 73
     0
 74
     1
 95
       26
 96
       22
 40
0.0
 40
0.0
 40
0.0
 40
0.0
 40
1.0
 40
1.0
 40
1.0
 40
2.0
 40
2.0
 40
2.0
 40
3.0
 40
3.0
 40
3.0
 40
4.0
 40
4.0
 40
4.0
 40
5.0
 40
5.0
 40
5.0
 40
6.0
 40
6.0
 40
6.0
 40
7.0
 40
7.0
 40
7.0
 40
7.0
 10
87.53539765606754
 20
-121.9591362542324
 10
87.53539765606754
 20
-121.9591362542324
 10
87.53539765606754
 20
-120.8548108964356
 10
87.53539765606754
 20
-120.8548108964356
 10
87.53539765606754
 20
-120.8548108964356
 10
87.18261987837796
 20
-120.8548108964356
 10
87.18261987837796
 20
-120.8548108964356
 10
87.18261987837796
 20
-120.8548108964356
 10
87.18261987837796
 20
-120.7068440453441
 10
87.18261987837796
 20
-120.7068440453441
 10
87.53763696813296
 20
-120.6920301347576
 10
87.58741859789481
 20
-120.5290771183052
 10
87.61911347635912
 20
-120.4148722029692
 10
87.61911347635912
 20
-120.4148722029692
 10
87.77500404706667
 20
-120.4148722029692
 10
87.77500404706667
 20
-120.4148722029692
 10
87.77500404706667
 20
-120.4148722029692
 10
87.77500404706667
 20
-121.9591362542324
 10
87.77500404706667
 20
-121.9591362542324
 10
87.77500404706667
 20
-121.9591362542324
 10
87.53539765606754
 20
-121.9591362542324
 10
87.53539765606754
 20
-121.9591362542324
 97
        0
 97
        0
 75
     2
 76
     1
 98
        0
  0
SPLINE
  5
9B
330
95
100
AcDbEntity
  8
_U+30EC_U+30A4_U+30E4_U+30FC 1
370
     0
100
AcDbSpline
210
0.0
220
0.0
230
1.0
 70
    11
 71
     3
 72
    62
 73
    58
 74
     0
 42
0.0000000001
 43
0.0000000001
 12
1.0
 22
0.0
 32
0.0
 13
1.0
 23
0.0
 33
0.0
 40
0.0
 40
0.0
 40
0.0
 40
0.0
 40
1.0
 40
1.0
 40
1.0
 40
2.0
 40
2.0
 40
2.0
 40
3.0
 40
3.0
 40
3.0
 40
4.0
 40
4.0
 40
4.0
 40
5.0
 40
5.0
 40
5.0
 40
6.0
 40
6.0
 40
6.0
 40
7.0
 40
7.0
 40
7.0
 40
8.0
 40
8.0
 40
8.0
 40
9.0
 40
9.0
 40
9.0
 40
10.0
 40
10.0
 40
10.0
 40
11.0
 40
11.0
 40
11.0
 40
12.0
 40
12.0
 40
12.0
 40
13.0
 40
13.0
 40
13.0
 40
14.0
 40
14.0
 40
14.0
 40
15.0
 40
15.0
 40
15.0
 40
16.0
 40
16.0
 40
16.0
 40
17.0
 40
17.0
 40
17.0
 40
18.0
 40
18.0
 40
18.0
 40
19.0
 40
19.0
 40
19.0
 40
19.0
 10
88.83592120174936
 20
-122.0099514126399
 30
0.0
 10
88.73429088493448
 20
-122.0099514126399
 30
0.0
 10
88.50140243013159
 20
-121.9887640754056
 30
0.0
 10
88.36807723485244
 20
-121.8025566644278
 30
0.0
 10
88.28884003869169
 20
-121.690418806383
 30
0.0
 10
88.28436141456086
 20
-121.5910278016335
 30
0.0
 10
88.27988279043004
 20
-121.5064507074706
 30
0.0
 10
88.27988279043004
 20
-121.5064507074706
 30
0.0
 10
88.51483830252407
 20
-121.5064507074706
 30
0.0
 10
88.51483830252407
 20
-121.5064507074706
 30
0.0
 10
88.51724986936375
 20
-121.5805202604035
 30
0.0
 10
88.52861868446507
 20
-121.8153035177233
 30
0.0
 10
88.83144257761853
 20
-121.8153035177233
 30
0.0
 10
88.9785481548387
 20
-121.8153035177233
 30
0.0
 10
89.1411566617425
 20
-121.745540334147
 30
0.0
 10
89.1411566617425
 20
-121.5169582487006
 30
0.0
 10
89.1411566617425
 20
-121.4006862760734
 30
0.0
 10
89.10050453501654
 20
-121.3519381749572
 30
0.0
 10
89.06639808971258
 20
-121.3202432964929
 30
0.0
 10
88.98750540310034
 20
-121.24617374356
 30
0.0
 10
88.86313745608282
 20
-121.2335991450388
 30
0.0
 10
88.80422632328506
 20
-121.2335991450388
 30
0.0
 10
88.78390025992208
 20
-121.2335991450388
 30
0.0
 10
88.74565970003582
 20
-121.23566620233
 30
0.0
 10
88.71603187886267
 20
-121.2398003169123
 30
0.0
 10
88.71603187886267
 20
-121.2398003169123
 30
0.0
 10
88.71603187886267
 20
-121.0451524219957
 30
0.0
 10
88.71603187886267
 20
-121.0451524219957
 30
0.0
 10
88.75668400558861
 20
-121.0515258486434
 30
0.0
 10
88.80215926599391
 20
-121.0537651607088
 30
0.0
 10
88.80870494741589
 20
-121.0537651607088
 30
0.0
 10
88.87898489531499
 20
-121.0537651607088
 30
0.0
 10
89.09154728675489
 20
-121.0325778234745
 30
0.0
 10
89.09154728675489
 20
-120.7955552540893
 30
0.0
 10
89.09154728675489
 20
-120.6179605818247
 30
0.0
 10
88.95133190050522
 20
-120.5628390540607
 30
0.0
 10
88.8338541444582
 20
-120.5628390540607
 30
0.0
 10
88.5510118051192
 20
-120.5628390540607
 30
0.0
 10
88.54205455685755
 20
-120.7955552540893
 30
0.0
 10
88.53757593272672
 20
-120.867557749731
 30
0.0
 10
88.53757593272672
 20
-120.867557749731
 30
0.0
 10
88.32053491715598
 20
-120.867557749731
 30
0.0
 10
88.32053491715598
 20
-120.867557749731
 30
0.0
 10
88.32949216541763
 20
-120.7426730383907
 30
0.0
 10
88.35877547704226
 20
-120.3661241018529
 30
0.0
 10
88.84729001685068
 20
-120.3661241018529
 30
0.0
 10
89.08706866262408
 20
-120.3661241018529
 30
0.0
 10
89.34476180492076
 20
-120.4930758704844
 30
0.0
 10
89.34476180492076
 20
-120.7891818274416
 30
0.0
 10
89.34476180492076
 20
-120.9753892384194
 30
0.0
 10
89.24278697855736
 20
-121.0578992752911
 30
0.0
 10
89.13667803761167
 20
-121.1192219749285
 30
0.0
 10
89.20213485183142
 20
-121.1467827388105
 30
0.0
 10
89.39678274674803
 20
-121.2272257183911
 30
0.0
 10
89.39678274674803
 20
-121.5043836501795
 30
0.0
 10
89.39678274674803
 20
-121.8428642816053
 30
0.0
 10
89.13219941348085
 20
-122.0099514126399
 30
0.0
 10
88.83592120174936
 20
-122.0099514126399
 30
0.0
  0
HATCH
  5
9C
330
95
100
AcDbEntity
  8
_U+30EC_U+30A4_U+30E4_U+30FC 1
 62
   179
420
  2234388
100
AcDbHatch
 10
0.0
 20
0.0
 30
0.0
210
0.0
220
0.0
230
1.0
  2
SOLID
 70
     1
 71
     0
 91
        1
 92
        1
 93
        1
 72
     4
 94
        3
 73
     0
 74
     1
 95
       62
 96
       58
 40
0.0
 40
0.0
 40
0.0
 40
0.0
 40
1.0
 40
1.0
 40
1.0
 40
2.0
 40
2.0
 40
2.0
 40
3.0
 40
3.0
 40
3.0
 40
4.0
 40
4.0
 40
4.0
 40
5.0
 40
5.0
 40
5.0
 40
6.0
 40
6.0
 40
6.0
 40
7.0
 40
7.0
 40
7.0
 40
8.0
 40
8.0
 40
8.0
 40
9.0
 40
9.0
 40
9.0
 40
10.0
 40
10.0
 40
10.0
 40
11.0
 40
11.0
 40
11.0
 40
12.0
 40
12.0
 40
12.0
 40
13.0
 40
13.0
 40
13.0
 40
14.0
 40
14.0
 40
14.0
 40
15.0
 40
15.0
 40
15.0
 40
16.0
 40
16.0
 40
16.0
 40
17.0
 40
17.0
 40
17.0
 40
18.0
 40
18.0
 40
18.0
 40
19.0
 40
19.0
 40
19.0
 40
19.0
 10
88.83592120174936
 20
-122.0099514126399
 10
88.73429088493448
 20
-122.0099514126399
 10
88.50140243013159
 20
-121.9887640754056
 10
88.36807723485244
 20
-121.8025566644278
 10
88.28884003869169
 20
-121.690418806383
 10
88.28436141456086
 20
-121.5910278016335
 10
88.27988279043004
 20
-121.5064507074706
 10
88.27988279043004
 20
-121.5064507074706
 10
88.51483830252407
 20
-121.5064507074706
 10
88.51483830252407
 20
-121.5064507074706
 10
88.51724986936375
 20
-121.5805202604035
 10
88.52861868446507
 20
-121.8153035177233
 10
88.83144257761853
 20
-121.8153035177233
 10
88.9785481548387
 20
-121.8153035177233
 10
89.1411566617425
 20
-121.745540334147
 10
89.1411566617425
 20
-121.5169582487006
 10
89.1411566617425
 20
-121.4006862760734
 10
89.10050453501654
 20
-121.3519381749572
 10
89.06639808971258
 20
-121.3202432964929
 10
88.98750540310034
 20
-121.24617374356
 10
88.86313745608282
 20
-121.2335991450388
 10
88.80422632328506
 20
-121.2335991450388
 10
88.78390025992208
 20
-121.2335991450388
 10
88.74565970003582
 20
-121.23566620233
 10
88.71603187886267
 20
-121.2398003169123
 10
88.71603187886267
 20
-121.2398003169123
 10
88.71603187886267
 20
-121.0451524219957
 10
88.71603187886267
 20
-121.0451524219957
 10
88.75668400558861
 20
-121.0515258486434
 10
88.80215926599391
 20
-121.0537651607088
 10
88.80870494741589
 20
-121.0537651607088
 10
88.87898489531499
 20
-121.0537651607088
 10
89.09154728675489
 20
-121.0325778234745
 10
89.09154728675489
 20
-120.7955552540893
 10
89.09154728675489
 20
-120.6179605818247
 10
88.95133190050522
 20
-120.5628390540607
 10
88.8338541444582
 20
-120.5628390540607
 10
88.5510118051192
 20
-120.5628390540607
 10
88.54205455685755
 20
-120.7955552540893
 10
88.53757593272672
 20
-120.867557749731
 10
88.53757593272672
 20
-120.867557749731
 10
88.32053491715598
 20
-120.867557749731
 10
88.32053491715598
 20
-120.867557749731
 10
88.32949216541763
 20
-120.7426730383907
 10
88.35877547704226
 20
-120.3661241018529
 10
88.84729001685068
 20
-120.3661241018529
 10
89.08706866262408
 20
-120.3661241018529
 10
89.34476180492076
 20
-120.4930758704844
 10
89.34476180492076
 20
-120.7891818274416
 10
89.34476180492076
 20
-120.9753892384194
 10
89.24278697855736
 20
-121.0578992752911
 10
89.13667803761167
 20
-121.1192219749285
 10
89.20213485183142
 20
-121.1467827388105
 10
89.39678274674803
 20
-121.2272257183911
 10
89.39678274674803
 20
-121.5043836501795
 10
89.39678274674803
 20
-121.8428642816053
 10
89.13219941348085
 20
-122.0099514126399
 10
88.83592120174936
 20
-122.0099514126399
 97
        0
 97
        0
 75
     2
 76
     1
 98
        0
  0
ENDBLK
  5
98
330
95
100
AcDbEntity
  8
0
100
AcDbBlockEnd
  0
BLOCK
  5
9F
330
9D
100
AcDbEntity
  8
0
100
AcDbBlockBegin
  2
block 4
 70
     0
 10
0.0
 20
0.0
 30
0.0
  3
block 4
  1

  0
SPLINE
  5
A1
330
9D
100
AcDbEntity
  8
_U+30EC_U+30A4_U+30E4_U+30FC 1
370
     0
100
AcDbSpline
210
0.0
220
0.0
230
1.0
 70
    11
 71
     3
 72
    53
 73
    49
 74
     0
 42
0.0000000001
 43
0.0000000001
 12
1.0
 22
0.0
 32
0.0
 13
1.0
 23
0.0
 33
0.0
 40
0.0
 40
0.0
 40
0.0
 40
0.0
 40
1.0
 40
1.0
 40
1.0
 40
2.0
 40
2.0
 40
2.0
 40
3.0
 40
3.0
 40
3.0
 40
4.0
 40
4.0
 40
4.0
 40
5.0
 40
5.0
 40
5.0
 40
6.0
 40
6.0
 40
6.0
 40
7.0
 40
7.0
 40
7.0
 40
8.0
 40
8.0
 40
8.0
 40
9.0
 40
9.0
 40
9.0
 40
10.0
 40
10.0
 40
10.0
 40
11.0
 40
11.0
 40
11.0
 40
12.0
 40
12.0
 40
12.0
 40
13.0
 40
13.0
 40
13.0
 40
14.0
 40
14.0
 40
14.0
 40
15.0
 40
15.0
 40
15.0
 40
16.0
 40
16.0
 40
16.0
 40
16.0
 10
101.4153428565906
 20
-132.0033121414783
 30
0.0
 10
101.4153428565906
 20
-132.0870279617699
 30
0.0
 10
101.3984618887129
 20
-132.1952039600068
 30
0.0
 10
101.3350721317843
 20
-132.3040689773406
 30
0.0
 10
101.2251735858048
 20
-132.4894151144471
 30
0.0
 10
101.0939154478168
 20
-132.5118082351012
 30
0.0
 10
100.9860839591285
 20
-132.5321342984642
 30
0.0
 10
100.9860839591285
 20
-132.5321342984642
 30
0.0
 10
100.9860839591285
 20
-132.2947672195305
 30
0.0
 10
100.9860839591285
 20
-132.2947672195305
 30
0.0
 10
101.1848659686274
 20
-132.2362005962812
 30
0.0
 10
101.2144937898005
 20
-132.1004638341624
 30
0.0
 10
101.2144937898005
 20
-132.0009005746387
 30
0.0
 10
101.2144937898005
 20
-131.8517279401273
 30
0.0
 10
101.1149305302768
 20
-131.688774923675
 30
0.0
 10
100.8823865850225
 20
-131.688774923675
 30
0.0
 10
100.6264159904684
 20
-131.688774923675
 30
0.0
 10
100.5564805521178
 20
-131.881011251752
 30
0.0
 10
100.5564805521178
 20
-132.0098578229003
 30
0.0
 10
100.5564805521178
 20
-132.0439642682043
 30
0.0
 10
100.5564805521178
 20
-132.1952039600068
 30
0.0
 10
100.6856716328147
 20
-132.2902885953997
 30
0.0
 10
100.6856716328147
 20
-132.2902885953997
 30
0.0
 10
100.6667236076458
 20
-132.4780462993458
 30
0.0
 10
100.6667236076458
 20
-132.4780462993458
 30
0.0
 10
100.6667236076458
 20
-132.4780462993458
 30
0.0
 10
99.82026364691994
 20
-132.3491997281974
 30
0.0
 10
99.82026364691994
 20
-132.3491997281974
 30
0.0
 10
99.82026364691994
 20
-132.3491997281974
 30
0.0
 10
99.82026364691994
 20
-131.5172091685096
 30
0.0
 10
99.82026364691994
 20
-131.5172091685096
 30
0.0
 10
99.82026364691994
 20
-131.5172091685096
 30
0.0
 10
100.0149115418366
 20
-131.5172091685096
 30
0.0
 10
100.0149115418366
 20
-131.5172091685096
 30
0.0
 10
100.0149115418366
 20
-131.5172091685096
 30
0.0
 10
100.0149115418366
 20
-132.1748778966438
 30
0.0
 10
100.0149115418366
 20
-132.1748778966438
 30
0.0
 10
100.0149115418366
 20
-132.1748778966438
 30
0.0
 10
100.4379692674252
 20
-132.2451578445429
 30
0.0
 10
100.4379692674252
 20
-132.2451578445429
 30
0.0
 10
100.4042073316698
 20
-132.1797010303231
 30
0.0
 10
100.3638997144924
 20
-132.0915065859007
 30
0.0
 10
100.3638997144924
 20
-131.9647270720436
 30
0.0
 10
100.3638997144924
 20
-131.6935980573544
 30
0.0
 10
100.5502793802444
 20
-131.4403835391885
 30
0.0
 10
100.8634385598536
 20
-131.4403835391885
 30
0.0
 10
101.1807318540451
 20
-131.4403835391885
 30
0.0
 10
101.4153428565906
 20
-131.6798176754134
 30
0.0
 10
101.4153428565906
 20
-132.0033121414783
 30
0.0
  0
HATCH
  5
A2
330
9D
100
AcDbEntity
  8
_U+30EC_U+30A4_U+30E4_U+30FC 1
 62
   179
420
  2234388
100
AcDbHatch
 10
0.0
 20
0.0
 30
0.0
210
0.0
220
0.0
230
1.0
  2
SOLID
 70
     1
 71
     0
 91
        1
 92
        1
 93
        1
 72
     4
 94
        3
 73
     0
 74
     1
 95
       53
 96
       49
 40
0.0
 40
0.0
 40
0.0
 40
0.0
 40
1.0
 40
1.0
 40
1.0
 40
2.0
 40
2.0
 40
2.0
 40
3.0
 40
3.0
 40
3.0
 40
4.0
 40
4.0
 40
4.0
 40
5.0
 40
5.0
 40
5.0
 40
6.0
 40
6.0
 40
6.0
 40
7.0
 40
7.0
 40
7.0
 40
8.0
 40
8.0
 40
8.0
 40
9.0
 40
9.0
 40
9.0
 40
10.0
 40
10.0
 40
10.0
 40
11.0
 40
11.0
 40
11.0
 40
12.0
 40
12.0
 40
12.0
 40
13.0
 40
13.0
 40
13.0
 40
14.0
 40
14.0
 40
14.0
 40
15.0
 40
15.0
 40
15.0
 40
16.0
 40
16.0
 40
16.0
 40
16.0
 10
101.4153428565906
 20
-132.0033121414783
 10
101.4153428565906
 20
-132.0870279617699
 10
101.3984618887129
 20
-132.1952039600068
 10
101.3350721317843
 20
-132.3040689773406
 10
101.2251735858048
 20
-132.4894151144471
 10
101.0939154478168
 20
-132.5118082351012
 10
100.9860839591285
 20
-132.5321342984642
 10
100.9860839591285
 20
-132.5321342984642
 10
100.9860839591285
 20
-132.2947672195305
 10
100.9860839591285
 20
-132.2947672195305
 10
101.1848659686274
 20
-132.2362005962812
 10
101.2144937898005
 20
-132.1004638341624
 10
101.2144937898005
 20
-132.0009005746387
 10
101.2144937898005
 20
-131.8517279401273
 10
101.1149305302768
 20
-131.688774923675
 10
100.8823865850225
 20
-131.688774923675
 10
100.6264159904684
 20
-131.688774923675
 10
100.5564805521178
 20
-131.881011251752
 10
100.5564805521178
 20
-132.0098578229003
 10
100.5564805521178
 20
-132.0439642682043
 10
100.5564805521178
 20
-132.1952039600068
 10
100.6856716328147
 20
-132.2902885953997
 10
100.6856716328147
 20
-132.2902885953997
 10
100.6667236076458
 20
-132.4780462993458
 10
100.6667236076458
 20
-132.4780462993458
 10
100.6667236076458
 20
-132.4780462993458
 10
99.82026364691994
 20
-132.3491997281974
 10
99.82026364691994
 20
-132.3491997281974
 10
99.82026364691994
 20
-132.3491997281974
 10
99.82026364691994
 20
-131.5172091685096
 10
99.82026364691994
 20
-131.5172091685096
 10
99.82026364691994
 20
-131.5172091685096
 10
100.0149115418366
 20
-131.5172091685096
 10
100.0149115418366
 20
-131.5172091685096
 10
100.0149115418366
 20
-131.5172091685096
 10
100.0149115418366
 20
-132.1748778966438
 10
100.0149115418366
 20
-132.1748778966438
 10
100.0149115418366
 20
-132.1748778966438
 10
100.4379692674252
 20
-132.2451578445429
 10
100.4379692674252
 20
-132.2451578445429
 10
100.4042073316698
 20
-132.1797010303231
 10
100.3638997144924
 20
-132.0915065859007
 10
100.3638997144924
 20
-131.9647270720436
 10
100.3638997144924
 20
-131.6935980573544
 10
100.5502793802444
 20
-131.4403835391885
 10
100.8634385598536
 20
-131.4403835391885
 10
101.1807318540451
 20
-131.4403835391885
 10
101.4153428565906
 20
-131.6798176754134
 10
101.4153428565906
 20
-132.0033121414783
 97
        0
 97
        0
 75
     2
 76
     1
 98
        0
  0
POLYLINE
  5
A3
330
9D
100
AcDbEntity
  8
_U+30EC_U+30A4_U+30E4_U+30FC 1
370
     0
100
AcDb2dPolyline
 66
     1
 10
0.0
 20
0.0
 30
0.0
  0
VERTEX
  5
A4
330
A3
100
AcDbEntity
  8
_U+30EC_U+30A4_U+30E4_U+30FC 1
370
     0
100
AcDbVertex
100
AcDb2dVertex
 10
101.3646999529574
 20
-131.1954372501873
 30
0.0
  0
VERTEX
  5
A5
330
A3
100
AcDbEntity
  8
_U+30EC_U+30A4_U+30E4_U+30FC 1
370
     0
100
AcDbVertex
100
AcDb2dVertex
 10
101.1128634729857
 20
-131.1954372501873
 30
0.0
  0
VERTEX
  5
A6
330
A3
100
AcDbEntity
  8
_U+30EC_U+30A4_U+30E4_U+30FC 1
370
     0
100
AcDbVertex
100
AcDb2dVertex
 10
101.1128634729857
 20
-130.9263752927893
 30
0.0
  0
VERTEX
  5
A7
330
A3
100
AcDbEntity
  8
_U+30EC_U+30A4_U+30E4_U+30FC 1
370
     0
100
AcDbVertex
100
AcDb2dVertex
 10
101.3646999529574
 20
-130.9263752927893
 30
0.0
  0
VERTEX
  5
A8
330
A3
100
AcDbEntity
  8
_U+30EC_U+30A4_U+30E4_U+30FC 1
370
     0
100
AcDbVertex
100
AcDb2dVertex
 10
101.3646999529574
 20
-131.1954372501873
 30
0.0
  0
SEQEND
  5
A9
330
A3
100
AcDbEntity
  8
_U+30EC_U+30A4_U+30E4_U+30FC 1
370
     0
  0
HATCH
  5
AA
330
9D
100
AcDbEntity
  8
_U+30EC_U+30A4_U+30E4_U+30FC 1
 62
   179
420
  2234388
100
AcDbHatch
 10
0.0
 20
0.0
 30
0.0
210
0.0
220
0.0
230
1.0
  2
SOLID
 70
     1
 71
     0
 91
        1
 92
        1
 93
        4
 72
     1
 10
101.3646999529574
 20
-131.1954372501873
 11
101.1128634729857
 21
-131.1954372501873
 72
     1
 10
101.1128634729857
 20
-131.1954372501873
 11
101.1128634729857
 21
-130.9263752927893
 72
     1
 10
101.1128634729857
 20
-130.9263752927893
 11
101.3646999529574
 21
-130.9263752927893
 72
     1
 10
101.3646999529574
 20
-130.9263752927893
 11
101.3646999529574
 21
-131.1954372501873
 97
        0
 75
     2
 76
     1
 98
        0
  0
SPLINE
  5
AB
330
9D
100
AcDbEntity
  8
_U+30EC_U+30A4_U+30E4_U+30FC 1
370
     0
100
AcDbSpline
210
0.0
220
0.0
230
1.0
 70
    11
 71
     3
 72
    53
 73
    49
 74
     0
 42
0.0000000001
 43
0.0000000001
 12
1.0
 22
0.0
 32
0.0
 13
1.0
 23
0.0
 33
0.0
 40
0.0
 40
0.0
 40
0.0
 40
0.0
 40
1.0
 40
1.0
 40
1.0
 40
2.0
 40
2.0
 40
2.0
 40
3.0
 40
3.0
 40
3.0
 40
4.0
 40
4.0
 40
4.0
 40
5.0
 40
5.0
 40
5.0
 40
6.0
 40
6.0
 40
6.0
 40
7.0
 40
7.0
 40
7.0
 40
8.0
 40
8.0
 40
8.0
 40
9.0
 40
9.0
 40
9.0
 40
10.0
 40
10.0
 40
10.0
 40
11.0
 40
11.0
 40
11.0
 40
12.0
 40
12.0
 40
12.0
 40
13.0
 40
13.0
 40
13.0
 40
14.0
 40
14.0
 40
14.0
 40
15.0
 40
15.0
 40
15.0
 40
16.0
 40
16.0
 40
16.0
 40
16.0
 10
101.4153428565906
 20
-130.1594970377726
 30
0.0
 10
101.4153428565906
 20
-130.2432128580642
 30
0.0
 10
101.3984618887129
 20
-130.351388856301
 30
0.0
 10
101.3350721317843
 20
-130.4602538736349
 30
0.0
 10
101.2251735858048
 20
-130.6456000107414
 30
0.0
 10
101.0939154478168
 20
-130.6679931313955
 30
0.0
 10
100.9860839591285
 20
-130.6883191947585
 30
0.0
 10
100.9860839591285
 20
-130.6883191947585
 30
0.0
 10
100.9860839591285
 20
-130.4509521158248
 30
0.0
 10
100.9860839591285
 20
-130.4509521158248
 30
0.0
 10
101.1848659686274
 20
-130.3923854925755
 30
0.0
 10
101.2144937898005
 20
-130.2566487304567
 30
0.0
 10
101.2144937898005
 20
-130.157085470933
 30
0.0
 10
101.2144937898005
 20
-130.0079128364216
 30
0.0
 10
101.1149305302768
 20
-129.8449598199693
 30
0.0
 10
100.8823865850225
 20
-129.8449598199693
 30
0.0
 10
100.6264159904684
 20
-129.8449598199693
 30
0.0
 10
100.5564805521178
 20
-130.0371961480463
 30
0.0
 10
100.5564805521178
 20
-130.1660427191946
 30
0.0
 10
100.5564805521178
 20
-130.2001491644986
 30
0.0
 10
100.5564805521178
 20
-130.351388856301
 30
0.0
 10
100.6856716328147
 20
-130.446473491694
 30
0.0
 10
100.6856716328147
 20
-130.446473491694
 30
0.0
 10
100.6667236076458
 20
-130.6342311956401
 30
0.0
 10
100.6667236076458
 20
-130.6342311956401
 30
0.0
 10
100.6667236076458
 20
-130.6342311956401
 30
0.0
 10
99.82026364691994
 20
-130.5053846244917
 30
0.0
 10
99.82026364691994
 20
-130.5053846244917
 30
0.0
 10
99.82026364691994
 20
-130.5053846244917
 30
0.0
 10
99.82026364691994
 20
-129.6733940648039
 30
0.0
 10
99.82026364691994
 20
-129.6733940648039
 30
0.0
 10
99.82026364691994
 20
-129.6733940648039
 30
0.0
 10
100.0149115418366
 20
-129.6733940648039
 30
0.0
 10
100.0149115418366
 20
-129.6733940648039
 30
0.0
 10
100.0149115418366
 20
-129.6733940648039
 30
0.0
 10
100.0149115418366
 20
-130.3310627929381
 30
0.0
 10
100.0149115418366
 20
-130.3310627929381
 30
0.0
 10
100.0149115418366
 20
-130.3310627929381
 30
0.0
 10
100.4379692674252
 20
-130.4013427408372
 30
0.0
 10
100.4379692674252
 20
-130.4013427408372
 30
0.0
 10
100.4042073316698
 20
-130.3358859266174
 30
0.0
 10
100.3638997144924
 20
-130.247691482195
 30
0.0
 10
100.3638997144924
 20
-130.1209119683378
 30
0.0
 10
100.3638997144924
 20
-129.8497829536487
 30
0.0
 10
100.5502793802444
 20
-129.5965684354828
 30
0.0
 10
100.8634385598536
 20
-129.5965684354828
 30
0.0
 10
101.1807318540451
 20
-129.5965684354828
 30
0.0
 10
101.4153428565906
 20
-129.8360025717077
 30
0.0
 10
101.4153428565906
 20
-130.1594970377726
 30
0.0
  0
HATCH
  5
AC
330
9D
100
AcDbEntity
  8
_U+30EC_U+30A4_U+30E4_U+30FC 1
 62
   179
420
  2234388
100
AcDbHatch
 10
0.0
 20
0.0
 30
0.0
210
0.0
220
0.0
230
1.0
  2
SOLID
 70
     1
 71
     0
 91
        1
 92
        1
 93
        1
 72
     4
 94
        3
 73
     0
 74
     1
 95
       53
 96
       49
 40
0.0
 40
0.0
 40
0.0
 40
0.0
 40
1.0
 40
1.0
 40
1.0
 40
2.0
 40
2.0
 40
2.0
 40
3.0
 40
3.0
 40
3.0
 40
4.0
 40
4.0
 40
4.0
 40
5.0
 40
5.0
 40
5.0
 40
6.0
 40
6.0
 40
6.0
 40
7.0
 40
7.0
 40
7.0
 40
8.0
 40
8.0
 40
8.0
 40
9.0
 40
9.0
 40
9.0
 40
10.0
 40
10.0
 40
10.0
 40
11.0
 40
11.0
 40
11.0
 40
12.0
 40
12.0
 40
12.0
 40
13.0
 40
13.0
 40
13.0
 40
14.0
 40
14.0
 40
14.0
 40
15.0
 40
15.0
 40
15.0
 40
16.0
 40
16.0
 40
16.0
 40
16.0
 10
101.4153428565906
 20
-130.1594970377726
 10
101.4153428565906
 20
-130.2432128580642
 10
101.3984618887129
 20
-130.351388856301
 10
101.3350721317843
 20
-130.4602538736349
 10
101.2251735858048
 20
-130.6456000107414
 10
101.0939154478168
 20
-130.6679931313955
 10
100.9860839591285
 20
-130.6883191947585
 10
100.9860839591285
 20
-130.6883191947585
 10
100.9860839591285
 20
-130.4509521158248
 10
100.9860839591285
 20
-130.4509521158248
 10
101.1848659686274
 20
-130.3923854925755
 10
101.2144937898005
 20
-130.2566487304567
 10
101.2144937898005
 20
-130.157085470933
 10
101.2144937898005
 20
-130.0079128364216
 10
101.1149305302768
 20
-129.8449598199693
 10
100.8823865850225
 20
-129.8449598199693
 10
100.6264159904684
 20
-129.8449598199693
 10
100.5564805521178
 20
-130.0371961480463
 10
100.5564805521178
 20
-130.1660427191946
 10
100.5564805521178
 20
-130.2001491644986
 10
100.5564805521178
 20
-130.351388856301
 10
100.6856716328147
 20
-130.446473491694
 10
100.6856716328147
 20
-130.446473491694
 10
100.6667236076458
 20
-130.6342311956401
 10
100.6667236076458
 20
-130.6342311956401
 10
100.6667236076458
 20
-130.6342311956401
 10
99.82026364691994
 20
-130.5053846244917
 10
99.82026364691994
 20
-130.5053846244917
 10
99.82026364691994
 20
-130.5053846244917
 10
99.82026364691994
 20
-129.6733940648039
 10
99.82026364691994
 20
-129.6733940648039
 10
99.82026364691994
 20
-129.6733940648039
 10
100.0149115418366
 20
-129.6733940648039
 10
100.0149115418366
 20
-129.6733940648039
 10
100.0149115418366
 20
-129.6733940648039
 10
100.0149115418366
 20
-130.3310627929381
 10
100.0149115418366
 20
-130.3310627929381
 10
100.0149115418366
 20
-130.3310627929381
 10
100.4379692674252
 20
-130.4013427408372
 10
100.4379692674252
 20
-130.4013427408372
 10
100.4042073316698
 20
-130.3358859266174
 10
100.3638997144924
 20
-130.247691482195
 10
100.3638997144924
 20
-130.1209119683378
 10
100.3638997144924
 20
-129.8497829536487
 10
100.5502793802444
 20
-129.5965684354828
 10
100.8634385598536
 20
-129.5965684354828
 10
101.1807318540451
 20
-129.5965684354828
 10
101.4153428565906
 20
-129.8360025717077
 10
101.4153428565906
 20
-130.1594970377726
 97
        0
 97
        0
 75
     2
 76
     1
 98
        0
  0
ENDBLK
  5
A0
330
9D
100
AcDbEntity
  8
0
100
AcDbBlockEnd
  0
ENDSEC
  0
SECTION
  2
ENTITIES
  0
POLYLINE
  5
41
330
1F
100
AcDbEntity
  8
_U+30EC_U+30A4_U+30E4_U+30FC 1
 62
   179
420
  2234388
370
    25
100
AcDb2dPolyline
 66
     1
 10
0.0
 20
0.0
 30
0.0
  0
VERTEX
  5
42
330
41
100
AcDbEntity
  8
_U+30EC_U+30A4_U+30E4_U+30FC 1
 62
   179
420
  2234388
370
    25
100
AcDbVertex
100
AcDb2dVertex
 10
77.71651912839752
 20
-133.8106219109921
 30
0.0
  0
VERTEX
  5
43
330
41
100
AcDbEntity
  8
_U+30EC_U+30A4_U+30E4_U+30FC 1
 62
   179
420
  2234388
370
    25
100
AcDbVertex
100
AcDb2dVertex
 10
86.81691556289374
 20
-133.8106219109921
 30
0.0
  0
SEQEND
  5
44
330
41
100
AcDbEntity
  8
_U+30EC_U+30A4_U+30E4_U+30FC 1
 62
   179
420
  2234388
370
    25
  0
POLYLINE
  5
45
330
1F
100
AcDbEntity
  8
_U+30EC_U+30A4_U+30E4_U+30FC 1
 62
   179
420
  2234388
370
    25
100
AcDb2dPolyline
 66
     1
 10
0.0
 20
0.0
 30
0.0
  0
VERTEX
  5
46
330
45
100
AcDbEntity
  8
_U+30EC_U+30A4_U+30E4_U+30FC 1
 62
   179
420
  2234388
370
    25
100
AcDbVertex
100
AcDb2dVertex
 10
82.71657955639091
 20
-128.3108516345889
 30
0.0
  0
VERTEX
  5
47
330
45
100
AcDbEntity
  8
_U+30EC_U+30A4_U+30E4_U+30FC 1
 62
   179
420
  2234388
370
    25
100
AcDbVertex
100
AcDb2dVertex
 10
86.81691556289374
 20
-128.3108516345889
 30
0.0
  0
SEQEND
  5
48
330
45
100
AcDbEntity
  8
_U+30EC_U+30A4_U+30E4_U+30FC 1
 62
   179
420
  2234388
370
    25
  0
POLYLINE
  5
49
330
1F
100
AcDbEntity
  8
_U+30EC_U+30A4_U+30E4_U+30FC 1
 62
   179
420
  2234388
370
    25
100
AcDb2dPolyline
 66
     1
 10
0.0
 20
0.0
 30
0.0
  0
VERTEX
  5
4A
330
49
100
AcDbEntity
  8
_U+30EC_U+30A4_U+30E4_U+30FC 1
 62
   179
420
  2234388
370
    25
100
AcDbVertex
100
AcDb2dVertex
 10
82.71657955639091
 20
-127.3107619126168
 30
0.0
  0
VERTEX
  5
4B
330
49
100
AcDbEntity
  8
_U+30EC_U+30A4_U+30E4_U+30FC 1
 62
   179
420
  2234388
370
    25
100
AcDbVertex
100
AcDb2dVertex
 10
93.716931220193
 20
-127.3107619126168
 30
0.0
  0
SEQEND
  5
4C
330
49
100
AcDbEntity
  8
_U+30EC_U+30A4_U+30E4_U+30FC 1
 62
   179
420
  2234388
370
    25
  0
POLYLINE
  5
4D
330
1F
100
AcDbEntity
  8
_U+30EC_U+30A4_U+30E4_U+30FC 1
 62
   179
420
  2234388
370
    25
100
AcDb2dPolyline
 66
     1
 10
0.0
 20
0.0
 30
0.0
  0
VERTEX
  5
4E
330
4D
100
AcDbEntity
  8
_U+30EC_U+30A4_U+30E4_U+30FC 1
 62
   179
420
  2234388
370
    25
100
AcDbVertex
100
AcDb2dVertex
 10
88.61664662808988
 20
-129.3106238565615
 30
0.0
  0
VERTEX
  5
4F
330
4D
100
AcDbEntity
  8
_U+30EC_U+30A4_U+30E4_U+30FC 1
 62
   179
420
  2234388
370
    25
100
AcDbVertex
100
AcDb2dVertex
 10
88.61664662808988
 20
-132.8108496890195
 30
0.0
  0
SEQEND
  5
50
330
4D
100
AcDbEntity
  8
_U+30EC_U+30A4_U+30E4_U+30FC 1
 62
   179
420
  2234388
370
    25
  0
POLYLINE
  5
51
330
1F
100
AcDbEntity
  8
_U+30EC_U+30A4_U+30E4_U+30FC 1
 62
   179
420
  2234388
370
    25
100
AcDb2dPolyline
 66
     1
 10
0.0
 20
0.0
 30
0.0
  0
VERTEX
  5
52
330
51
100
AcDbEntity
  8
_U+30EC_U+30A4_U+30E4_U+30FC 1
 62
   179
420
  2234388
370
    25
100
AcDbVertex
100
AcDb2dVertex
 10
87.81668775960965
 20
-129.3106238565615
 30
0.0
  0
VERTEX
  5
53
330
51
100
AcDbEntity
  8
_U+30EC_U+30A4_U+30E4_U+30FC 1
 62
   179
420
  2234388
370
    25
100
AcDbVertex
100
AcDb2dVertex
 10
87.81668775960965
 20
-132.8108496890195
 30
0.0
  0
SEQEND
  5
54
330
51
100
AcDbEntity
  8
_U+30EC_U+30A4_U+30E4_U+30FC 1
 62
   179
420
  2234388
370
    25
  0
POLYLINE
  5
55
330
1F
100
AcDbEntity
  8
_U+30EC_U+30A4_U+30E4_U+30FC 1
 62
   179
420
  2234388
370
    25
100
AcDb2dPolyline
 66
     1
 10
0.0
 20
0.0
 30
0.0
  0
VERTEX
  5
56
330
55
100
AcDbEntity
  8
_U+30EC_U+30A4_U+30E4_U+30FC 1
 62
   179
420
  2234388
370
    25
100
AcDbVertex
100
AcDb2dVertex
 10
89.61641882480579
 20
-133.8106219109921
 30
0.0
  0
VERTEX
  5
57
330
55
100
AcDbEntity
  8
_U+30EC_U+30A4_U+30E4_U+30FC 1
 62
   179
420
  2234388
370
    25
100
AcDbVertex
100
AcDb2dVertex
 10
98.71646248153323
 20
-133.8106219109921
 30
0.0
  0
SEQEND
  5
58
330
55
100
AcDbEntity
  8
_U+30EC_U+30A4_U+30E4_U+30FC 1
 62
   179
420
  2234388
370
    25
  0
POLYLINE
  5
59
330
1F
100
AcDbEntity
  8
_U+30EC_U+30A4_U+30E4_U+30FC 1
 62
   179
420
  2234388
370
    25
100
AcDb2dPolyline
 66
     1
 10
0.0
 20
0.0
 30
0.0
  0
VERTEX
  5
5A
330
59
100
AcDbEntity
  8
_U+30EC_U+30A4_U+30E4_U+30FC 1
 62
   179
420
  2234388
370
    25
100
AcDbVertex
100
AcDb2dVertex
 10
89.61641882480579
 20
-128.3108516345889
 30
0.0
  0
VERTEX
  5
5B
330
59
100
AcDbEntity
  8
_U+30EC_U+30A4_U+30E4_U+30FC 1
 62
   179
420
  2234388
370
    25
100
AcDbVertex
100
AcDb2dVertex
 10
93.716931220193
 20
-128.3108516345889
 30
0.0
  0
SEQEND
  5
5C
330
59
100
AcDbEntity
  8
_U+30EC_U+30A4_U+30E4_U+30FC 1
 62
   179
420
  2234388
370
    25
  0
SPLINE
  5
5D
330
1F
100
AcDbEntity
  8
_U+30EC_U+30A4_U+30E4_U+30FC 1
 62
   179
420
  2234388
370
    25
100
AcDbSpline
210
0.0
220
0.0
230
1.0
 70
     8
 71
     3
 72
    11
 73
     7
 74
     0
 42
0.0000000001
 43
0.0000000001
 12
1.0
 22
0.0
 32
0.0
 13
1.0
 23
0.0
 33
0.0
 40
0.0
 40
0.0
 40
0.0
 40
0.0
 40
1.0
 40
1.0
 40
1.0
 40
2.0
 40
2.0
 40
2.0
 40
2.0
 10
82.71657955639091
 20
-127.3107619126168
 30
0.0
 10
82.44046039676863
 20
-127.3107619126168
 30
0.0
 10
82.21669345803296
 20
-127.5343171903388
 30
0.0
 10
82.21669345803296
 20
-127.8106480236028
 30
0.0
 10
82.21669345803296
 20
-128.0869435790895
 30
0.0
 10
82.44046039676863
 20
-128.3108516345889
 30
0.0
 10
82.71657955639091
 20
-128.3108516345889
 30
0.0
  0
SPLINE
  5
5E
330
1F
100
AcDbEntity
  8
_U+30EC_U+30A4_U+30E4_U+30FC 1
 62
   179
420
  2234388
370
    25
100
AcDbSpline
210
0.0
220
0.0
230
1.0
 70
     8
 71
     3
 72
    11
 73
     7
 74
     0
 42
0.0000000001
 43
0.0000000001
 12
1.0
 22
0.0
 32
0.0
 13
1.0
 23
0.0
 33
0.0
 40
0.0
 40
0.0
 40
0.0
 40
0.0
 40
1.0
 40
1.0
 40
1.0
 40
2.0
 40
2.0
 40
2.0
 40
2.0
 10
93.716931220193
 20
-128.3108516345889
 30
0.0
 10
93.99322676869967
 20
-128.3108516345889
 30
0.0
 10
94.21646454078218
 20
-128.0869435790895
 30
0.0
 10
94.21646454078218
 20
-127.8106480236028
 30
0.0
 10
94.21646454078218
 20
-127.5343171903388
 30
0.0
 10
93.99322676869967
 20
-127.3107619126168
 30
0.0
 10
93.716931220193
 20
-127.3107619126168
 30
0.0
  0
SPLINE
  5
5F
330
1F
100
AcDbEntity
  8
_U+30EC_U+30A4_U+30E4_U+30FC 1
 62
   179
420
  2234388
370
    25
100
AcDbSpline
210
0.0
220
0.0
230
1.0
 70
     8
 71
     3
 72
     8
 73
     4
 74
     0
 42
0.0000000001
 43
0.0000000001
 12
1.0
 22
0.0
 32
0.0
 13
1.0
 23
0.0
 33
0.0
 40
0.0
 40
0.0
 40
0.0
 40
0.0
 40
1.0
 40
1.0
 40
1.0
 40
1.0
 10
87.81668775960965
 20
-129.3106238565615
 30
0.0
 10
87.81668775960965
 20
-128.7583855233661
 30
0.0
 10
87.3688363821464
 20
-128.3108516345889
 30
0.0
 10
86.81691556289374
 20
-128.3108516345889
 30
0.0
  0
SPLINE
  5
60
330
1F
100
AcDbEntity
  8
_U+30EC_U+30A4_U+30E4_U+30FC 1
 62
   179
420
  2234388
370
    25
100
AcDbSpline
210
0.0
220
0.0
230
1.0
 70
     8
 71
     3
 72
     8
 73
     4
 74
     0
 42
0.0000000001
 43
0.0000000001
 12
1.0
 22
0.0
 32
0.0
 13
1.0
 23
0.0
 33
0.0
 40
0.0
 40
0.0
 40
0.0
 40
0.0
 40
1.0
 40
1.0
 40
1.0
 40
1.0
 10
89.61641882480579
 20
-128.3108516345889
 30
0.0
 10
89.06449800555313
 20
-128.3108516345889
 30
0.0
 10
88.61664662808988
 20
-128.7583855233661
 30
0.0
 10
88.61664662808988
 20
-129.3106238565615
 30
0.0
  0
SPLINE
  5
61
330
1F
100
AcDbEntity
  8
_U+30EC_U+30A4_U+30E4_U+30FC 1
 62
   179
420
  2234388
370
    25
100
AcDbSpline
210
0.0
220
0.0
230
1.0
 70
     8
 71
     3
 72
     8
 73
     4
 74
     0
 42
0.0000000001
 43
0.0000000001
 12
1.0
 22
0.0
 32
0.0
 13
1.0
 23
0.0
 33
0.0
 40
0.0
 40
0.0
 40
0.0
 40
0.0
 40
1.0
 40
1.0
 40
1.0
 40
1.0
 10
86.81691556289374
 20
-133.8106219109921
 30
0.0
 10
87.3688363821464
 20
-133.8106219109921
 30
0.0
 10
87.81668775960965
 20
-133.3627352444369
 30
0.0
 10
87.81668775960965
 20
-132.8108496890195
 30
0.0
  0
SPLINE
  5
62
330
1F
100
AcDbEntity
  8
_U+30EC_U+30A4_U+30E4_U+30FC 1
 62
   179
420
  2234388
370
    25
100
AcDbSpline
210
0.0
220
0.0
230
1.0
 70
     8
 71
     3
 72
     8
 73
     4
 74
     0
 42
0.0000000001
 43
0.0000000001
 12
1.0
 22
0.0
 32
0.0
 13
1.0
 23
0.0
 33
0.0
 40
0.0
 40
0.0
 40
0.0
 40
0.0
 40
1.0
 40
1.0
 40
1.0
 40
1.0
 10
88.61664662808988
 20
-132.8108496890195
 30
0.0
 10
88.61664662808988
 20
-133.3627352444369
 30
0.0
 10
89.06449800555313
 20
-133.8106219109921
 30
0.0
 10
89.61641882480579
 20
-133.8106219109921
 30
0.0
  0
SPLINE
  5
63
330
1F
100
AcDbEntity
  8
_U+30EC_U+30A4_U+30E4_U+30FC 1
 62
   179
420
  2234388
370
     9
100
AcDbSpline
210
0.0
220
0.0
230
1.0
 70
    11
 71
     3
 72
    17
 73
    13
 74
     0
 42
0.0000000001
 43
0.0000000001
 12
1.0
 22
0.0
 32
0.0
 13
1.0
 23
0.0
 33
0.0
 40
0.0
 40
0.0
 40
0.0
 40
0.0
 40
1.0
 40
1.0
 40
1.0
 40
2.0
 40
2.0
 40
2.0
 40
3.0
 40
3.0
 40
3.0
 40
4.0
 40
4.0
 40
4.0
 40
4.0
 10
82.31660012215079
 20
-123.3106499691725
 30
0.0
 10
82.31660012215079
 20
-123.2555108025194
 30
0.0
 10
82.27179734551603
 20
-123.2107433025305
 30
0.0
 10
82.21669345803296
 20
-123.2107433025305
 30
0.0
 10
82.16137790388862
 20
-123.2107433025305
 30
0.0
 10
82.11661040503074
 20
-123.2555108025194
 30
0.0
 10
82.11661040503074
 20
-123.3106499691725
 30
0.0
 10
82.11661040503074
 20
-123.3659302469363
 30
0.0
 10
82.16137790388862
 20
-123.410733024703
 30
0.0
 10
82.21669345803296
 20
-123.410733024703
 30
0.0
 10
82.27179734551603
 20
-123.410733024703
 30
0.0
 10
82.31660012215079
 20
-123.3659302469363
 30
0.0
 10
82.31660012215079
 20
-123.3106499691725
 30
0.0
  0
SPLINE
  5
64
330
1F
100
AcDbEntity
  8
_U+30EC_U+30A4_U+30E4_U+30FC 1
 62
   179
420
  2234388
370
     9
100
AcDbSpline
210
0.0
220
0.0
230
1.0
 70
    11
 71
     3
 72
    17
 73
    13
 74
     0
 42
0.0000000001
 43
0.0000000001
 12
1.0
 22
0.0
 32
0.0
 13
1.0
 23
0.0
 33
0.0
 40
0.0
 40
0.0
 40
0.0
 40
0.0
 40
1.0
 40
1.0
 40
1.0
 40
2.0
 40
2.0
 40
2.0
 40
3.0
 40
3.0
 40
3.0
 40
4.0
 40
4.0
 40
4.0
 40
4.0
 10
94.31707676043757
 20
-123.3106499691725
 30
0.0
 10
94.31707676043757
 20
-123.2555108025194
 30
0.0
 10
94.2722739838028
 20
-123.2107433025305
 30
0.0
 10
94.21646454078218
 20
-123.2107433025305
 30
0.0
 10
94.16136065329911
 20
-123.2107433025305
 30
0.0
 10
94.11655787666434
 20
-123.2555108025194
 30
0.0
 10
94.11655787666434
 20
-123.3106499691725
 30
0.0
 10
94.11655787666434
 20
-123.3659302469363
 30
0.0
 10
94.16136065329911
 20
-123.410733024703
 30
0.0
 10
94.21646454078218
 20
-123.410733024703
 30
0.0
 10
94.2722739838028
 20
-123.410733024703
 30
0.0
 10
94.31707676043757
 20
-123.3659302469363
 30
0.0
 10
94.31707676043757
 20
-123.3106499691725
 30
0.0
  0
SPLINE
  5
65
330
1F
100
AcDbEntity
  8
_U+30EC_U+30A4_U+30E4_U+30FC 1
 62
   179
420
  2234388
370
     9
100
AcDbSpline
210
0.0
220
0.0
230
1.0
 70
    11
 71
     3
 72
    17
 73
    13
 74
     0
 42
0.0000000001
 43
0.0000000001
 12
1.0
 22
0.0
 32
0.0
 13
1.0
 23
0.0
 33
0.0
 40
0.0
 40
0.0
 40
0.0
 40
0.0
 40
1.0
 40
1.0
 40
1.0
 40
2.0
 40
2.0
 40
2.0
 40
3.0
 40
3.0
 40
3.0
 40
4.0
 40
4.0
 40
4.0
 40
4.0
 10
102.8167984880361
 20
-128.3108516345889
 30
0.0
 10
102.8167984880361
 20
-128.2553949679363
 30
0.0
 10
102.7720309891782
 20
-128.2105921901695
 30
0.0
 10
102.716894418765
 20
-128.2105921901695
 30
0.0
 10
102.6617879364351
 20
-128.2105921901695
 30
0.0
 10
102.6169851598004
 20
-128.2553949679363
 30
0.0
 10
102.6169851598004
 20
-128.3108516345889
 30
0.0
 10
102.6169851598004
 20
-128.365990801242
 30
0.0
 10
102.6617879364351
 20
-128.4107583012306
 30
0.0
 10
102.716894418765
 20
-128.4107583012306
 30
0.0
 10
102.7720309891782
 20
-128.4107583012306
 30
0.0
 10
102.8167984880361
 20
-128.365990801242
 30
0.0
 10
102.8167984880361
 20
-128.3108516345889
 30
0.0
  0
SPLINE
  5
66
330
1F
100
AcDbEntity
  8
_U+30EC_U+30A4_U+30E4_U+30FC 1
 62
   179
420
  2234388
370
     9
100
AcDbSpline
210
0.0
220
0.0
230
1.0
 70
    11
 71
     3
 72
    17
 73
    13
 74
     0
 42
0.0000000001
 43
0.0000000001
 12
1.0
 22
0.0
 32
0.0
 13
1.0
 23
0.0
 33
0.0
 40
0.0
 40
0.0
 40
0.0
 40
0.0
 40
1.0
 40
1.0
 40
1.0
 40
2.0
 40
2.0
 40
2.0
 40
3.0
 40
3.0
 40
3.0
 40
4.0
 40
4.0
 40
4.0
 40
4.0
 10
102.8167984880361
 20
-133.8106219109921
 30
0.0
 10
102.8167984880361
 20
-133.755482744339
 30
0.0
 10
102.7720309891782
 20
-133.7107152443498
 30
0.0
 10
102.716894418765
 20
-133.7107152443498
 30
0.0
 10
102.6617879364351
 20
-133.7107152443498
 30
0.0
 10
102.6169851598004
 20
-133.755482744339
 30
0.0
 10
102.6169851598004
 20
-133.8106219109921
 30
0.0
 10
102.6169851598004
 20
-133.865725799867
 30
0.0
 10
102.6617879364351
 20
-133.9105285776337
 30
0.0
 10
102.716894418765
 20
-133.9105285776337
 30
0.0
 10
102.7720309891782
 20
-133.9105285776337
 30
0.0
 10
102.8167984880361
 20
-133.865725799867
 30
0.0
 10
102.8167984880361
 20
-133.8106219109921
 30
0.0
  0
SPLINE
  5
67
330
1F
100
AcDbEntity
  8
_U+30EC_U+30A4_U+30E4_U+30FC 1
 62
   179
420
  2234388
370
     9
100
AcDbSpline
210
0.0
220
0.0
230
1.0
 70
    11
 71
     3
 72
    17
 73
    13
 74
     0
 42
0.0000000001
 43
0.0000000001
 12
1.0
 22
0.0
 32
0.0
 13
1.0
 23
0.0
 33
0.0
 40
0.0
 40
0.0
 40
0.0
 40
0.0
 40
1.0
 40
1.0
 40
1.0
 40
2.0
 40
2.0
 40
2.0
 40
3.0
 40
3.0
 40
3.0
 40
4.0
 40
4.0
 40
4.0
 40
4.0
 10
98.81703942341174
 20
-137.8106985766586
 30
0.0
 10
98.81703942341174
 20
-137.7555946877837
 30
0.0
 10
98.77227192455385
 20
-137.7107919100169
 30
0.0
 10
98.71646248153323
 20
-137.7107919100169
 30
0.0
 10
98.66132331627328
 20
-137.7107919100169
 30
0.0
 10
98.61655830867907
 20
-137.7555946877837
 30
0.0
 10
98.61655830867907
 20
-137.8106985766586
 30
0.0
 10
98.61655830867907
 20
-137.8658377433116
 30
0.0
 10
98.66132331627328
 20
-137.9106052433002
 30
0.0
 10
98.71646248153323
 20
-137.9106052433002
 30
0.0
 10
98.77227192455385
 20
-137.9106052433002
 30
0.0
 10
98.81703942341174
 20
-137.8658377433116
 30
0.0
 10
98.81703942341174
 20
-137.8106985766586
 30
0.0
  0
SPLINE
  5
68
330
1F
100
AcDbEntity
  8
_U+30EC_U+30A4_U+30E4_U+30FC 1
 62
   179
420
  2234388
370
     9
100
AcDbSpline
210
0.0
220
0.0
230
1.0
 70
    11
 71
     3
 72
    17
 73
    13
 74
     0
 42
0.0000000001
 43
0.0000000001
 12
1.0
 22
0.0
 32
0.0
 13
1.0
 23
0.0
 33
0.0
 40
0.0
 40
0.0
 40
0.0
 40
0.0
 40
1.0
 40
1.0
 40
1.0
 40
2.0
 40
2.0
 40
2.0
 40
3.0
 40
3.0
 40
3.0
 40
4.0
 40
4.0
 40
4.0
 40
4.0
 10
77.81660218139974
 20
-137.8106985766586
 30
0.0
 10
77.81660218139974
 20
-137.7555946877837
 30
0.0
 10
77.77183468254186
 20
-137.7107919100169
 30
0.0
 10
77.71651912839752
 20
-137.7107919100169
 30
0.0
 10
77.66141524091445
 20
-137.7107919100169
 30
0.0
 10
77.6166124642797
 20
-137.7555946877837
 30
0.0
 10
77.6166124642797
 20
-137.8106985766586
 30
0.0
 10
77.6166124642797
 20
-137.8658377433116
 30
0.0
 10
77.66141524091445
 20
-137.9106052433002
 30
0.0
 10
77.71651912839752
 20
-137.9106052433002
 30
0.0
 10
77.77183468254186
 20
-137.9106052433002
 30
0.0
 10
77.81660218139974
 20
-137.8658377433116
 30
0.0
 10
77.81660218139974
 20
-137.8106985766586
 30
0.0
  0
POLYLINE
  5
69
330
1F
100
AcDbEntity
  8
_U+30EC_U+30A4_U+30E4_U+30FC 1
 62
   179
420
  2234388
370
     9
100
AcDb2dPolyline
 66
     1
 10
0.0
 20
0.0
 30
0.0
  0
VERTEX
  5
6A
330
69
100
AcDbEntity
  8
_U+30EC_U+30A4_U+30E4_U+30FC 1
 62
   179
420
  2234388
370
     9
100
AcDbVertex
100
AcDb2dVertex
 10
77.71651912839752
 20
-137.8106985766586
 30
0.0
  0
VERTEX
  5
6B
330
69
100
AcDbEntity
  8
_U+30EC_U+30A4_U+30E4_U+30FC 1
 62
   179
420
  2234388
370
     9
100
AcDbVertex
100
AcDb2dVertex
 10
98.71646248153323
 20
-137.8106985766586
 30
0.0
  0
SEQEND
  5
6C
330
69
100
AcDbEntity
  8
_U+30EC_U+30A4_U+30E4_U+30FC 1
 62
   179
420
  2234388
370
     9
  0
POLYLINE
  5
6D
330
1F
100
AcDbEntity
  8
_U+30EC_U+30A4_U+30E4_U+30FC 1
 62
   179
420
  2234388
370
     9
100
AcDb2dPolyline
 66
     1
 10
0.0
 20
0.0
 30
0.0
  0
VERTEX
  5
6E
330
6D
100
AcDbEntity
  8
_U+30EC_U+30A4_U+30E4_U+30FC 1
 62
   179
420
  2234388
370
     9
100
AcDbVertex
100
AcDb2dVertex
 10
77.71651912839752
 20
-136.3506924659124
 30
0.0
  0
VERTEX
  5
6F
330
6D
100
AcDbEntity
  8
_U+30EC_U+30A4_U+30E4_U+30FC 1
 62
   179
420
  2234388
370
     9
100
AcDbVertex
100
AcDb2dVertex
 10
77.71651912839752
 20
-138.8108235764082
 30
0.0
  0
SEQEND
  5
70
330
6D
100
AcDbEntity
  8
_U+30EC_U+30A4_U+30E4_U+30FC 1
 62
   179
420
  2234388
370
     9
  0
POLYLINE
  5
71
330
1F
100
AcDbEntity
  8
_U+30EC_U+30A4_U+30E4_U+30FC 1
 62
   179
420
  2234388
370
     9
100
AcDb2dPolyline
 66
     1
 10
0.0
 20
0.0
 30
0.0
  0
VERTEX
  5
72
330
71
100
AcDbEntity
  8
_U+30EC_U+30A4_U+30E4_U+30FC 1
 62
   179
420
  2234388
370
     9
100
AcDbVertex
100
AcDb2dVertex
 10
98.71646248153323
 20
-136.3506924659124
 30
0.0
  0
VERTEX
  5
73
330
71
100
AcDbEntity
  8
_U+30EC_U+30A4_U+30E4_U+30FC 1
 62
   179
420
  2234388
370
     9
100
AcDbVertex
100
AcDb2dVertex
 10
98.71646248153323
 20
-138.8108235764082
 30
0.0
  0
SEQEND
  5
74
330
71
100
AcDbEntity
  8
_U+30EC_U+30A4_U+30E4_U+30FC 1
 62
   179
420
  2234388
370
     9
  0
POLYLINE
  5
75
330
1F
100
AcDbEntity
  8
_U+30EC_U+30A4_U+30E4_U+30FC 1
 62
   179
420
  2234388
370
     9
100
AcDb2dPolyline
 66
     1
 10
0.0
 20
0.0
 30
0.0
  0
VERTEX
  5
76
330
75
100
AcDbEntity
  8
_U+30EC_U+30A4_U+30E4_U+30FC 1
 62
   179
420
  2234388
370
     9
100
AcDbVertex
100
AcDb2dVertex
 10
82.21669345803296
 20
-123.3106499691725
 30
0.0
  0
VERTEX
  5
77
330
75
100
AcDbEntity
  8
_U+30EC_U+30A4_U+30E4_U+30FC 1
 62
   179
420
  2234388
370
     9
100
AcDbVertex
100
AcDb2dVertex
 10
94.21646454078218
 20
-123.3106499691725
 30
0.0
  0
SEQEND
  5
78
330
75
100
AcDbEntity
  8
_U+30EC_U+30A4_U+30E4_U+30FC 1
 62
   179
420
  2234388
370
     9
  0
POLYLINE
  5
79
330
1F
100
AcDbEntity
  8
_U+30EC_U+30A4_U+30E4_U+30FC 1
 62
   179
420
  2234388
370
     9
100
AcDb2dPolyline
 66
     1
 10
0.0
 20
0.0
 30
0.0
  0
VERTEX
  5
7A
330
79
100
AcDbEntity
  8
_U+30EC_U+30A4_U+30E4_U+30FC 1
 62
   179
420
  2234388
370
     9
100
AcDbVertex
100
AcDb2dVertex
 10
82.21669345803296
 20
-125.2708949686824
 30
0.0
  0
VERTEX
  5
7B
330
79
100
AcDbEntity
  8
_U+30EC_U+30A4_U+30E4_U+30FC 1
 62
   179
420
  2234388
370
     9
100
AcDbVertex
100
AcDb2dVertex
 10
82.21669345803296
 20
-122.3107013583114
 30
0.0
  0
SEQEND
  5
7C
330
79
100
AcDbEntity
  8
_U+30EC_U+30A4_U+30E4_U+30FC 1
 62
   179
420
  2234388
370
     9
  0
POLYLINE
  5
7D
330
1F
100
AcDbEntity
  8
_U+30EC_U+30A4_U+30E4_U+30FC 1
 62
   179
420
  2234388
370
     9
100
AcDb2dPolyline
 66
     1
 10
0.0
 20
0.0
 30
0.0
  0
VERTEX
  5
7E
330
7D
100
AcDbEntity
  8
_U+30EC_U+30A4_U+30E4_U+30FC 1
 62
   179
420
  2234388
370
     9
100
AcDbVertex
100
AcDb2dVertex
 10
94.21646454078218
 20
-125.2708949686824
 30
0.0
  0
VERTEX
  5
7F
330
7D
100
AcDbEntity
  8
_U+30EC_U+30A4_U+30E4_U+30FC 1
 62
   179
420
  2234388
370
     9
100
AcDbVertex
100
AcDb2dVertex
 10
94.21646454078218
 20
-122.3107013583114
 30
0.0
  0
SEQEND
  5
80
330
7D
100
AcDbEntity
  8
_U+30EC_U+30A4_U+30E4_U+30FC 1
 62
   179
420
  2234388
370
     9
  0
POLYLINE
  5
81
330
1F
100
AcDbEntity
  8
_U+30EC_U+30A4_U+30E4_U+30FC 1
 62
   179
420
  2234388
370
     9
100
AcDb2dPolyline
 66
     1
 10
0.0
 20
0.0
 30
0.0
  0
VERTEX
  5
82
330
81
100
AcDbEntity
  8
_U+30EC_U+30A4_U+30E4_U+30FC 1
 62
   179
420
  2234388
370
     9
100
AcDbVertex
100
AcDb2dVertex
 10
102.716894418765
 20
-133.8106219109921
 30
0.0
  0
VERTEX
  5
83
330
81
100
AcDbEntity
  8
_U+30EC_U+30A4_U+30E4_U+30FC 1
 62
   179
420
  2234388
370
     9
100
AcDbVertex
100
AcDb2dVertex
 10
102.716894418765
 20
-128.3108516345889
 30
0.0
  0
SEQEND
  5
84
330
81
100
AcDbEntity
  8
_U+30EC_U+30A4_U+30E4_U+30FC 1
 62
   179
420
  2234388
370
     9
  0
POLYLINE
  5
85
330
1F
100
AcDbEntity
  8
_U+30EC_U+30A4_U+30E4_U+30FC 1
 62
   179
420
  2234388
370
     9
100
AcDb2dPolyline
 66
     1
 10
0.0
 20
0.0
 30
0.0
  0
VERTEX
  5
86
330
85
100
AcDbEntity
  8
_U+30EC_U+30A4_U+30E4_U+30FC 1
 62
   179
420
  2234388
370
     9
100
AcDbVertex
100
AcDb2dVertex
 10
101.2568504722781
 20
-133.8106219109921
 30
0.0
  0
VERTEX
  5
87
330
85
100
AcDbEntity
  8
_U+30EC_U+30A4_U+30E4_U+30FC 1
 62
   179
420
  2234388
370
     9
100
AcDbVertex
100
AcDb2dVertex
 10
103.7166666407375
 20
-133.8106219109921
 30
0.0
  0
SEQEND
  5
88
330
85
100
AcDbEntity
  8
_U+30EC_U+30A4_U+30E4_U+30FC 1
 62
   179
420
  2234388
370
     9
  0
POLYLINE
  5
89
330
1F
100
AcDbEntity
  8
_U+30EC_U+30A4_U+30E4_U+30FC 1
 62
   179
420
  2234388
370
     9
100
AcDb2dPolyline
 66
     1
 10
0.0
 20
0.0
 30
0.0
  0
VERTEX
  5
8A
330
89
100
AcDbEntity
  8
_U+30EC_U+30A4_U+30E4_U+30FC 1
 62
   179
420
  2234388
370
     9
100
AcDbVertex
100
AcDb2dVertex
 10
96.25664893317719
 20
-128.3108516345889
 30
0.0
  0
VERTEX
  5
8B
330
89
100
AcDbEntity
  8
_U+30EC_U+30A4_U+30E4_U+30FC 1
 62
   179
420
  2234388
370
     9
100
AcDbVertex
100
AcDb2dVertex
 10
103.7166666407375
 20
-128.3108516345889
 30
0.0
  0
SEQEND
  5
8C
330
89
100
AcDbEntity
  8
_U+30EC_U+30A4_U+30E4_U+30FC 1
 62
   179
420
  2234388
370
     9
  0
INSERT
  5
8E
330
1F
100
AcDbEntity
  8
_U+30EC_U+30A4_U+30E4_U+30FC 1
100
AcDbBlockReference
  2
block 2
 10
0.0
 20
0.0
 30
0.0
  0
INSERT
  5
96
330
1F
100
AcDbEntity
  8
_U+30EC_U+30A4_U+30E4_U+30FC 1
100
AcDbBlockReference
  2
block 3
 10
0.0
 20
0.0
 30
0.0
  0
INSERT
  5
9E
330
1F
100
AcDbEntity
  8
_U+30EC_U+30A4_U+30E4_U+30FC 1
100
AcDbBlockReference
  2
block 4
 10
0.0
 20
0.0
 30
0.0
  0
ENDSEC
  0
SECTION
  2
OBJECTS
  0
DICTIONARY
  5
C
330
0
100
AcDbDictionary
281
     1
  3
ACAD_GROUP
350
D
  3
ACAD_LAYOUT
350
1A
  3
ACAD_MATERIAL
350
3B
  3
ACAD_MLEADERSTYLE
350
AE
  3
ACAD_MLINESTYLE
350
17
  3
ACAD_PLOTSETTINGS
350
19
  3
ACAD_PLOTSTYLENAME
350
E
  3
ACAD_TABLESTYLE
350
AD
  3
ACAD_VISUALSTYLE
350
2A
  0
SUN
  5
3F
330
29
100
AcDbSun
 90
        1
290
     0
 63
     7
421
 16777215
 40
1.0
291
     1
 91
  2455826
 92
 54000000
292
     0
 70
     2
 71
   256
280
     1
  0
DICTIONARY
  5
D
102
{ACAD_REACTORS
330
C
102
}
330
C
100
AcDbDictionary
281
     1
  0
DICTIONARY
  5
1A
102
{ACAD_REACTORS
330
C
102
}
330
C
100
AcDbDictionary
281
     1
  3
Layout1
350
1E
  3
Layout2
350
26
  3
Model
350
22
  0
DICTIONARY
  5
3B
102
{ACAD_REACTORS
330
C
102
}
330
C
100
AcDbDictionary
281
     1
  3
ByBlock
350
3D
  3
ByLayer
350
3C
  3
Global
350
3E
  0
DICTIONARY
  5
AE
102
{ACAD_REACTORS
330
C
102
}
330
C
100
AcDbDictionary
281
     1
  0
DICTIONARY
  5
17
102
{ACAD_REACTORS
330
C
102
}
330
C
100
AcDbDictionary
281
     1
  3
Standard
350
18
  0
DICTIONARY
  5
19
102
{ACAD_REACTORS
330
C
102
}
330
C
100
AcDbDictionary
281
     1
  0
ACDBDICTIONARYWDFLT
  5
E
102
{ACAD_REACTORS
330
C
102
}
330
C
100
AcDbDictionary
281
     1
  3
Normal
350
F
100
AcDbDictionaryWithDefault
340
F
  0
DICTIONARY
  5
AD
102
{ACAD_REACTORS
330
C
102
}
330
C
100
AcDbDictionary
281
     1
  0
DICTIONARY
  5
2A
102
{ACAD_REACTORS
330
C
102
}
330
C
100
AcDbDictionary
281
     1
  3
2dWireframe
350
2F
  3
3D Hidden
350
31
  3
3dWireframe
350
30
  3
Basic
350
32
  3
Brighten
350
36
  3
ColorChange
350
3A
  3
Conceptual
350
34
  3
Dim
350
35
  3
Facepattern
350
39
  3
Flat
350
2B
  3
FlatWithEdges
350
2C
  3
Gouraud
350
2D
  3
GouraudWithEdges
350
2E
  3
Linepattern
350
38
  3
Realistic
350
33
  3
Thicken
350
37
  0
LAYOUT
  5
1E
102
{ACAD_REACTORS
330
1A
102
}
330
1A
100
AcDbPlotSettings
  1

  2
none_device
  4

  6

 40
0.0
 41
0.0
 42
0.0
 43
0.0
 44
0.0
 45
0.0
 46
0.0
 47
0.0
 48
0.0
 49
0.0
140
0.0
141
0.0
142
1.0
143
1.0
 70
   688
 72
     0
 73
     0
 74
     5
  7

 75
    16
 76
     0
 77
     2
 78
   300
147
1.0
148
0.0
149
0.0
100
AcDbLayout
  1
Layout1
 70
     1
 71
     1
 10
0.0
 20
0.0
 11
12.0
 21
9.0
 12
0.0
 22
0.0
 32
0.0
 14
1.000000000000000E+20
 24
1.000000000000000E+20
 34
1.000000000000000E+20
 15
-1.000000000000000E+20
 25
-1.000000000000000E+20
 35
-1.000000000000000E+20
146
0.0
 13
0.0
 23
0.0
 33
0.0
 16
1.0
 26
0.0
 36
0.0
 17
0.0
 27
1.0
 37
0.0
 76
     0
330
1B
  0
LAYOUT
  5
26
102
{ACAD_REACTORS
330
1A
102
}
330
1A
100
AcDbPlotSettings
  1

  2
none_device
  4

  6

 40
0.0
 41
0.0
 42
0.0
 43
0.0
 44
0.0
 45
0.0
 46
0.0
 47
0.0
 48
0.0
 49
0.0
140
0.0
141
0.0
142
1.0
143
1.0
 70
   688
 72
     0
 73
     0
 74
     5
  7

 75
    16
 76
     0
 77
     2
 78
   300
147
1.0
148
0.0
149
0.0
100
AcDbLayout
  1
Layout2
 70
     1
 71
     2
 10
0.0
 20
0.0
 11
0.0
 21
0.0
 12
0.0
 22
0.0
 32
0.0
 14
0.0
 24
0.0
 34
0.0
 15
0.0
 25
0.0
 35
0.0
146
0.0
 13
0.0
 23
0.0
 33
0.0
 16
1.0
 26
0.0
 36
0.0
 17
0.0
 27
1.0
 37
0.0
 76
     0
330
23
  0
LAYOUT
  5
22
102
{ACAD_REACTORS
330
1A
102
}
330
1A
100
AcDbPlotSettings
  1

  2
none_device
  4

  6

 40
0.0
 41
0.0
 42
0.0
 43
0.0
 44
0.0
 45
0.0
 46
0.0
 47
0.0
 48
0.0
 49
0.0
140
0.0
141
0.0
142
1.0
143
1.0
 70
  1712
 72
     0
 73
     0
 74
     0
  7

 75
     0
 76
     0
 77
     2
 78
   300
147
1.0
148
0.0
149
0.0
100
AcDbLayout
  1
Model
 70
     1
 71
     0
 10
0.0
 20
0.0
 11
12.0
 21
9.0
 12
0.0
 22
0.0
 32
0.0
 14
1.000000000000000E+20
 24
1.000000000000000E+20
 34
1.000000000000000E+20
 15
-1.000000000000000E+20
 25
-1.000000000000000E+20
 35
-1.000000000000000E+20
146
0.0
 13
0.0
 23
0.0
 33
0.0
 16
1.0
 26
0.0
 36
0.0
 17
0.0
 27
1.0
 37
0.0
 76
     0
330
1F
331
29
  0
MATERIAL
  5
3D
102
{ACAD_REACTORS
330
3B
102
}
330
3B
100
AcDbMaterial
  1
ByBlock
 72
     1
 94
      127
  0
MATERIAL
  5
3C
102
{ACAD_REACTORS
330
3B
102
}
330
3B
100
AcDbMaterial
  1
ByLayer
 72
     1
 94
      127
  0
MATERIAL
  5
3E
102
{ACAD_REACTORS
330
3B
102
}
330
3B
100
AcDbMaterial
  1
Global
 72
     1
 94
      127
  0
MLINESTYLE
  5
18
102
{ACAD_REACTORS
330
17
102
}
330
17
100
AcDbMlineStyle
  2
Standard
 70
     0
  3

 62
   256
 51
90.0
 52
90.0
 71
     2
 49
0.5
 62
   256
  6
BYLAYER
 49
-0.5
 62
   256
  6
BYLAYER
  0
ACDBPLACEHOLDER
  5
F
102
{ACAD_REACTORS
330
E
102
}
330
E
  0
VISUALSTYLE
  5
2F
102
{ACAD_REACTORS
330
2A
102
}
330
2A
100
AcDbVisualStyle
  2
2dWireframe
 70
     4
177
     2
291
     0
 71
     0
176
     1
 72
     2
176
     1
 73
     0
176
     1
 90
        0
176
     1
 40
-0.6
176
     1
 41
-30.0
176
     1
 62
     5
 63
     7
421
 16777215
176
     1
 74
     1
176
     1
 91
        4
176
     1
 64
     7
176
     1
 65
   257
176
     1
 75
     1
176
     1
175
     1
176
     1
 42
1.0
176
     1
 92
        0
176
     1
 66
   257
176
     1
 43
1.0
176
     1
 76
     1
176
     1
 77
     6
176
     1
 78
     2
176
     1
 67
     7
176
     1
 79
     5
176
     1
170
     0
176
     1
171
     0
176
     1
290
     0
176
     1
 93
        1
176
     1
 44
0.0
176
     1
173
     0
176
     1
  0
VISUALSTYLE
  5
31
102
{ACAD_REACTORS
330
2A
102
}
330
2A
100
AcDbVisualStyle
  2
3D Hidden
 70
     6
177
     2
291
     0
 71
     1
176
     1
 72
     2
176
     1
 73
     2
176
     1
 90
        0
176
     1
 40
-0.6
176
     1
 41
-30.0
176
     1
 62
     5
 63
     7
421
 16777215
176
     1
 74
     2
176
     1
 91
        2
176
     1
 64
     7
176
     1
 65
   257
176
     1
 75
     2
176
     1
175
     1
176
     1
 42
40.0
176
     1
 92
        0
176
     1
 66
   257
176
     1
 43
1.0
176
     1
 76
     1
176
     1
 77
     6
176
     1
 78
     2
176
     1
 67
     7
176
     1
 79
     3
176
     1
170
     0
176
     1
171
     0
176
     1
290
     0
176
     1
 93
        1
176
     1
 44
0.0
176
     1
173
     0
176
     1
  0
VISUALSTYLE
  5
30
102
{ACAD_REACTORS
330
2A
102
}
330
2A
100
AcDbVisualStyle
  2
3dWireframe
 70
     5
177
     2
291
     0
 71
     0
176
     1
 72
     2
176
     1
 73
     0
176
     1
 90
        0
176
     1
 40
-0.6
176
     1
 41
-30.0
176
     1
 62
     5
 63
     7
421
 16777215
176
     1
 74
     1
176
     1
 91
        4
176
     1
 64
     7
176
     1
 65
   257
176
     1
 75
     1
176
     1
175
     1
176
     1
 42
1.0
176
     1
 92
        0
176
     1
 66
   257
176
     1
 43
1.0
176
     1
 76
     1
176
     1
 77
     6
176
     1
 78
     2
176
     1
 67
     7
176
     1
 79
     5
176
     1
170
     0
176
     1
171
     0
176
     1
290
     0
176
     1
 93
        1
176
     1
 44
0.0
176
     1
173
     0
176
     1
  0
VISUALSTYLE
  5
32
102
{ACAD_REACTORS
330
2A
102
}
330
2A
100
AcDbVisualStyle
  2
Basic
 70
     7
177
     2
291
     1
 71
     1
176
     1
 72
     0
176
     1
 73
     1
176
     1
 90
        0
176
     1
 40
-0.6
176
     1
 41
-30.0
176
     1
 62
     5
 63
     7
421
 16777215
176
     1
 74
     0
176
     1
 91
        4
176
     1
 64
     7
176
     1
 65
   257
176
     1
 75
     1
176
     1
175
     1
176
     1
 42
1.0
176
     1
 92
        8
176
     1
 66
     7
176
     1
 43
1.0
176
     1
 76
     1
176
     1
 77
     6
176
     1
 78
     2
176
     1
 67
     7
176
     1
 79
     5
176
     1
170
     0
176
     1
171
     0
176
     1
290
     0
176
     1
 93
        1
176
     1
 44
0.0
176
     1
173
     0
176
     1
  0
VISUALSTYLE
  5
36
102
{ACAD_REACTORS
330
2A
102
}
330
2A
100
AcDbVisualStyle
  2
Brighten
 70
    12
177
     2
291
     1
 71
     2
176
     1
 72
     2
176
     1
 73
     0
176
     1
 90
        0
176
     1
 40
-0.6
176
     1
 41
-30.0
176
     1
 62
     5
 63
     7
421
 16777215
176
     1
 74
     1
176
     1
 91
        4
176
     1
 64
     7
176
     1
 65
   257
176
     1
 75
     1
176
     1
175
     1
176
     1
 42
1.0
176
     1
 92
        8
176
     1
 66
     7
176
     1
 43
1.0
176
     1
 76
     1
176
     1
 77
     6
176
     1
 78
     2
176
     1
 67
     7
176
     1
 79
     5
176
     1
170
     0
176
     1
171
     0
176
     1
290
     0
176
     1
 93
        1
176
     1
 44
50.0
176
     1
173
     0
176
     1
  0
VISUALSTYLE
  5
3A
102
{ACAD_REACTORS
330
2A
102
}
330
2A
100
AcDbVisualStyle
  2
ColorChange
 70
    16
177
     2
291
     1
 71
     2
176
     1
 72
     2
176
     1
 73
     3
176
     1
 90
        0
176
     1
 40
-0.6
176
     1
 41
-30.0
176
     1
 62
     5
 63
     8
421
  8421504
176
     1
 74
     1
176
     1
 91
        4
176
     1
 64
     7
176
     1
 65
   257
176
     1
 75
     1
176
     1
175
     1
176
     1
 42
1.0
176
     1
 92
        8
176
     1
 66
     8
424
  8421504
176
     1
 43
1.0
176
     1
 76
     1
176
     1
 77
     6
176
     1
 78
     2
176
     1
 67
     7
176
     1
 79
     5
176
     1
170
     0
176
     1
171
     0
176
     1
290
     0
176
     1
 93
        1
176
     1
 44
0.0
176
     1
173
     0
176
     1
  0
VISUALSTYLE
  5
34
102
{ACAD_REACTORS
330
2A
102
}
330
2A
100
AcDbVisualStyle
  2
Conceptual
 70
     9
177
     2
291
     0
 71
     3
176
     1
 72
     2
176
     1
 73
     0
176
     1
 90
        0
176
     1
 40
-0.6
176
     1
 41
-30.0
176
     1
 62
     5
 63
     7
421
 16777215
176
     1
 74
     2
176
     1
 91
        2
176
     1
 64
     7
176
     1
 65
   257
176
     1
 75
     1
176
     1
175
     1
176
     1
 42
40.0
176
     1
 92
        8
176
     1
 66
     7
176
     1
 43
1.0
176
     1
 76
     1
176
     1
 77
     6
176
     1
 78
     2
176
     1
 67
     7
176
     1
 79
     3
176
     1
170
     0
176
     1
171
     0
176
     1
290
     0
176
     1
 93
        1
176
     1
 44
0.0
176
     1
173
     0
176
     1
  0
VISUALSTYLE
  5
35
102
{ACAD_REACTORS
330
2A
102
}
330
2A
100
AcDbVisualStyle
  2
Dim
 70
    11
177
     2
291
     1
 71
     2
176
     1
 72
     2
176
     1
 73
     0
176
     1
 90
        0
176
     1
 40
-0.6
176
     1
 41
-30.0
176
     1
 62
     5
 63
     7
421
 16777215
176
     1
 74
     1
176
     1
 91
        4
176
     1
 64
     7
176
     1
 65
   257
176
     1
 75
     1
176
     1
175
     1
176
     1
 42
1.0
176
     1
 92
        8
176
     1
 66
     7
176
     1
 43
1.0
176
     1
 76
     1
176
     1
 77
     6
176
     1
 78
     2
176
     1
 67
     7
176
     1
 79
     5
176
     1
170
     0
176
     1
171
     0
176
     1
290
     0
176
     1
 93
        1
176
     1
 44
-50.0
176
     1
173
     0
176
     1
  0
VISUALSTYLE
  5
39
102
{ACAD_REACTORS
330
2A
102
}
330
2A
100
AcDbVisualStyle
  2
Facepattern
 70
    15
177
     2
291
     1
 71
     2
176
     1
 72
     2
176
     1
 73
     0
176
     1
 90
        0
176
     1
 40
-0.6
176
     1
 41
-30.0
176
     1
 62
     5
 63
     7
421
 16777215
176
     1
 74
     1
176
     1
 91
        4
176
     1
 64
     7
176
     1
 65
   257
176
     1
 75
     1
176
     1
175
     1
176
     1
 42
1.0
176
     1
 92
        8
176
     1
 66
     7
176
     1
 43
1.0
176
     1
 76
     1
176
     1
 77
     6
176
     1
 78
     2
176
     1
 67
     7
176
     1
 79
     5
176
     1
170
     0
176
     1
171
     0
176
     1
290
     0
176
     1
 93
        1
176
     1
 44
0.0
176
     1
173
     0
176
     1
  0
VISUALSTYLE
  5
2B
102
{ACAD_REACTORS
330
2A
102
}
330
2A
100
AcDbVisualStyle
  2
Flat
 70
     0
177
     2
291
     1
 71
     2
176
     1
 72
     1
176
     1
 73
     1
176
     1
 90
        2
176
     1
 40
-0.6
176
     1
 41
30.0
176
     1
 62
     5
 63
     7
421
 16777215
176
     1
 74
     0
176
     1
 91
        4
176
     1
 64
     7
176
     1
 65
   257
176
     1
 75
     1
176
     1
175
     1
176
     1
 42
1.0
176
     1
 92
        8
176
     1
 66
     7
176
     1
 43
1.0
176
     1
 76
     1
176
     1
 77
     6
176
     1
 78
     2
176
     1
 67
     7
176
     1
 79
     5
176
     1
170
     0
176
     1
171
     0
176
     1
290
     0
176
     1
 93
       13
176
     1
 44
0.0
176
     1
173
     0
176
     1
  0
VISUALSTYLE
  5
2C
102
{ACAD_REACTORS
330
2A
102
}
330
2A
100
AcDbVisualStyle
  2
FlatWithEdges
 70
     1
177
     2
291
     1
 71
     2
176
     1
 72
     1
176
     1
 73
     1
176
     1
 90
        2
176
     1
 40
-0.6
176
     1
 41
30.0
176
     1
 62
     5
 63
     7
421
 16777215
176
     1
 74
     1
176
     1
 91
        4
176
     1
 64
     7
176
     1
 65
   257
176
     1
 75
     1
176
     1
175
     1
176
     1
 42
1.0
176
     1
 92
        0
176
     1
 66
   257
176
     1
 43
1.0
176
     1
 76
     1
176
     1
 77
     6
176
     1
 78
     2
176
     1
 67
     7
176
     1
 79
     5
176
     1
170
     0
176
     1
171
     0
176
     1
290
     0
176
     1
 93
       13
176
     1
 44
0.0
176
     1
173
     0
176
     1
  0
VISUALSTYLE
  5
2D
102
{ACAD_REACTORS
330
2A
102
}
330
2A
100
AcDbVisualStyle
  2
Gouraud
 70
     2
177
     2
291
     1
 71
     2
176
     1
 72
     2
176
     1
 73
     1
176
     1
 90
        2
176
     1
 40
-0.6
176
     1
 41
30.0
176
     1
 62
     5
 63
     7
421
 16777215
176
     1
 74
     0
176
     1
 91
        4
176
     1
 64
     7
176
     1
 65
   257
176
     1
 75
     1
176
     1
175
     1
176
     1
 42
1.0
176
     1
 92
        0
176
     1
 66
     7
176
     1
 43
1.0
176
     1
 76
     1
176
     1
 77
     6
176
     1
 78
     2
176
     1
 67
     7
176
     1
 79
     5
176
     1
170
     0
176
     1
171
     0
176
     1
290
     0
176
     1
 93
       13
176
     1
 44
0.0
176
     1
173
     0
176
     1
  0
VISUALSTYLE
  5
2E
102
{ACAD_REACTORS
330
2A
102
}
330
2A
100
AcDbVisualStyle
  2
GouraudWithEdges
 70
     3
177
     2
291
     1
 71
     2
176
     1
 72
     2
176
     1
 73
     1
176
     1
 90
        2
176
     1
 40
-0.6
176
     1
 41
30.0
176
     1
 62
     5
 63
     7
421
 16777215
176
     1
 74
     1
176
     1
 91
        4
176
     1
 64
     7
176
     1
 65
   257
176
     1
 75
     1
176
     1
175
     1
176
     1
 42
1.0
176
     1
 92
        0
176
     1
 66
   257
176
     1
 43
1.0
176
     1
 76
     1
176
     1
 77
     6
176
     1
 78
     2
176
     1
 67
     7
176
     1
 79
     5
176
     1
170
     0
176
     1
171
     0
176
     1
290
     0
176
     1
 93
       13
176
     1
 44
0.0
176
     1
173
     0
176
     1
  0
VISUALSTYLE
  5
38
102
{ACAD_REACTORS
330
2A
102
}
330
2A
100
AcDbVisualStyle
  2
Linepattern
 70
    14
177
     2
291
     1
 71
     2
176
     1
 72
     2
176
     1
 73
     0
176
     1
 90
        0
176
     1
 40
-0.6
176
     1
 41
-30.0
176
     1
 62
     5
 63
     7
421
 16777215
176
     1
 74
     1
176
     1
 91
        4
176
     1
 64
     7
176
     1
 65
   257
176
     1
 75
     7
176
     1
175
     7
176
     1
 42
1.0
176
     1
 92
        8
176
     1
 66
     7
176
     1
 43
1.0
176
     1
 76
     1
176
     1
 77
     6
176
     1
 78
     2
176
     1
 67
     7
176
     1
 79
     5
176
     1
170
     0
176
     1
171
     0
176
     1
290
     0
176
     1
 93
        1
176
     1
 44
0.0
176
     1
173
     0
176
     1
  0
VISUALSTYLE
  5
33
102
{ACAD_REACTORS
330
2A
102
}
330
2A
100
AcDbVisualStyle
  2
Realistic
 70
     8
177
     2
291
     0
 71
     2
176
     1
 72
     2
176
     1
 73
     0
176
     1
 90
        0
176
     1
 40
-0.6
176
     1
 41
-30.0
176
     1
 62
     5
 63
     7
421
 16777215
176
     1
 74
     1
176
     1
 91
        0
176
     1
 64
     7
176
     1
 65
   257
176
     1
 75
     1
176
     1
175
     1
176
     1
 42
1.0
176
     1
 92
        8
176
     1
 66
     8
424
  7895160
176
     1
 43
1.0
176
     1
 76
     1
176
     1
 77
     6
176
     1
 78
     2
176
     1
 67
     7
176
     1
 79
     5
176
     1
170
     0
176
     1
171
     0
176
     1
290
     0
176
     1
 93
       13
176
     1
 44
0.0
176
     1
173
     0
176
     1
  0
VISUALSTYLE
  5
37
102
{ACAD_REACTORS
330
2A
102
}
330
2A
100
AcDbVisualStyle
  2
Thicken
 70
    13
177
     2
291
     1
 71
     2
176
     1
 72
     2
176
     1
 73
     0
176
     1
 90
        0
176
     1
 40
-0.6
176
     1
 41
-30.0
176
     1
 62
     5
 63
     7
421
 16777215
176
     1
 74
     1
176
     1
 91
        4
176
     1
 64
     7
176
     1
 65
   257
176
     1
 75
     1
176
     1
175
     1
176
     1
 42
1.0
176
     1
 92
       12
176
     1
 66
     7
176
     1
 43
1.0
176
     1
 76
     1
176
     1
 77
     6
176
     1
 78
     2
176
     1
 67
     7
176
     1
 79
     5
176
     1
170
     0
176
     1
171
     0
176
     1
290
     0
176
     1
 93
        1
176
     1
 44
0.0
176
     1
173
     0
176
     1
  0
ENDSEC
  0
EOF
